  0
SECTION
  2
HEADER
  9
$ACADVER
  1
AC1018
  9
$ACADMAINTVER
 70
     0
  9
$DWGCODEPAGE
  3
ANSI_932
  9
$INSBASE
 10
0.0
 20
0.0
 30
0.0
  9
$EXTMIN
 10
-630.0
 20
-445.5
 30
0.0
  9
$EXTMAX
 10
630.0
 20
445.5
 30
0.0
  9
$LIMMIN
 10
-630.0
 20
-445.5
  9
$LIMMAX
 10
630.0
 20
445.5
  9
$ORTHOMODE
 70
     0
  9
$REGENMODE
 70
     1
  9
$FILLMODE
 70
     1
  9
$QTEXTMODE
 70
     0
  9
$MIRRTEXT
 70
     1
  9
$LTSCALE
 40
3.0
  9
$ATTMODE
 70
     1
  9
$TEXTSIZE
 40
2.5
  9
$TRACEWID
 40
1.0
  9
$TEXTSTYLE
  7
Standard
  9
$CLAYER
  8
0
  9
$CELTYPE
  6
ByLayer
  9
$CECOLOR
 62
   256
  9
$CELTSCALE
 40
1.0
  9
$DISPSILH
 70
     0
  9
$DIMSCALE
 40
1.0
  9
$DIMASZ
 40
2.5
  9
$DIMEXO
 40
0.625
  9
$DIMDLI
 40
3.75
  9
$DIMRND
 40
0.0
  9
$DIMDLE
 40
0.0
  9
$DIMEXE
 40
1.25
  9
$DIMTP
 40
0.0
  9
$DIMTM
 40
0.0
  9
$DIMTXT
 40
2.5
  9
$DIMCEN
 40
2.5
  9
$DIMTSZ
 40
0.0
  9
$DIMTOL
 70
     0
  9
$DIMLIM
 70
     0
  9
$DIMTIH
 70
     0
  9
$DIMTOH
 70
     0
  9
$DIMSE1
 70
     0
  9
$DIMSE2
 70
     0
  9
$DIMTAD
 70
     1
  9
$DIMZIN
 70
     8
  9
$DIMBLK
  1

  9
$DIMASO
 70
     1
  9
$DIMSHO
 70
     1
  9
$DIMPOST
  1

  9
$DIMAPOST
  1

  9
$DIMALT
 70
     0
  9
$DIMALTD
 70
     3
  9
$DIMALTF
 40
0.03937007874016
  9
$DIMLFAC
 40
1.0
  9
$DIMTOFL
 70
     1
  9
$DIMTVP
 40
0.0
  9
$DIMTIX
 70
     0
  9
$DIMSOXD
 70
     0
  9
$DIMSAH
 70
     0
  9
$DIMBLK1
  1

  9
$DIMBLK2
  1

  9
$DIMSTYLE
  2
ISO-25
  9
$DIMCLRD
 70
     0
  9
$DIMCLRE
 70
     0
  9
$DIMCLRT
 70
     0
  9
$DIMTFAC
 40
1.0
  9
$DIMGAP
 40
0.625
  9
$DIMJUST
 70
     0
  9
$DIMSD1
 70
     0
  9
$DIMSD2
 70
     0
  9
$DIMTOLJ
 70
     0
  9
$DIMTZIN
 70
     8
  9
$DIMALTZ
 70
     0
  9
$DIMALTTZ
 70
     0
  9
$DIMUPT
 70
     0
  9
$DIMDEC
 70
     2
  9
$DIMTDEC
 70
     2
  9
$DIMALTU
 70
     2
  9
$DIMALTTD
 70
     3
  9
$DIMTXSTY
  7
Standard
  9
$DIMAUNIT
 70
     0
  9
$DIMADEC
 70
     0
  9
$DIMALTRND
 40
0.0
  9
$DIMAZIN
 70
     0
  9
$DIMDSEP
 70
    44
  9
$DIMATFIT
 70
     3
  9
$DIMFRAC
 70
     0
  9
$DIMLDRBLK
  1

  9
$DIMLUNIT
 70
     2
  9
$DIMLWD
 70
    -2
  9
$DIMLWE
 70
    -2
  9
$DIMTMOVE
 70
     0
  9
$LUNITS
 70
     2
  9
$LUPREC
 70
     4
  9
$SKETCHINC
 40
1.0
  9
$FILLETRAD
 40
10.0
  9
$AUNITS
 70
     0
  9
$AUPREC
 70
     0
  9
$MENU
  1
.
  9
$ELEVATION
 40
0.0
  9
$PELEVATION
 40
0.0
  9
$THICKNESS
 40
0.0
  9
$LIMCHECK
 70
     0
  9
$CHAMFERA
 40
10.0
  9
$CHAMFERB
 40
10.0
  9
$CHAMFERC
 40
20.0
  9
$CHAMFERD
 40
0.0
  9
$SKPOLY
 70
     0
  9
$TDCREATE
 40
2456498.823407558
  9
$TDUCREATE
 40
2456498.448407558
  9
$TDUPDATE
 40
2456498.823407569
  9
$TDUUPDATE
 40
2456498.448407569
  9
$TDINDWG
 40
0.0000000116
  9
$TDUSRTIMER
 40
0.0000000116
  9
$USRTIMER
 70
     1
  9
$ANGBASE
 50
0.0
  9
$ANGDIR
 70
     0
  9
$PDMODE
 70
     0
  9
$PDSIZE
 40
0.0
  9
$PLINEWID
 40
0.0
  9
$SPLFRAME
 70
     0
  9
$SPLINETYPE
 70
     6
  9
$SPLINESEGS
 70
     8
  9
$HANDSEED
  5
3A6
  9
$SURFTAB1
 70
     6
  9
$SURFTAB2
 70
     6
  9
$SURFTYPE
 70
     6
  9
$SURFU
 70
     6
  9
$SURFV
 70
     6
  9
$UCSBASE
  2

  9
$UCSNAME
  2

  9
$UCSORG
 10
0.0
 20
0.0
 30
0.0
  9
$UCSXDIR
 10
1.0
 20
0.0
 30
0.0
  9
$UCSYDIR
 10
0.0
 20
1.0
 30
0.0
  9
$UCSORTHOREF
  2

  9
$UCSORTHOVIEW
 70
     0
  9
$UCSORGTOP
 10
0.0
 20
0.0
 30
0.0
  9
$UCSORGBOTTOM
 10
0.0
 20
0.0
 30
0.0
  9
$UCSORGLEFT
 10
0.0
 20
0.0
 30
0.0
  9
$UCSORGRIGHT
 10
0.0
 20
0.0
 30
0.0
  9
$UCSORGFRONT
 10
0.0
 20
0.0
 30
0.0
  9
$UCSORGBACK
 10
0.0
 20
0.0
 30
0.0
  9
$PUCSBASE
  2

  9
$PUCSNAME
  2

  9
$PUCSORG
 10
0.0
 20
0.0
 30
0.0
  9
$PUCSXDIR
 10
1.0
 20
0.0
 30
0.0
  9
$PUCSYDIR
 10
0.0
 20
1.0
 30
0.0
  9
$PUCSORTHOREF
  2

  9
$PUCSORTHOVIEW
 70
     0
  9
$PUCSORGTOP
 10
0.0
 20
0.0
 30
0.0
  9
$PUCSORGBOTTOM
 10
0.0
 20
0.0
 30
0.0
  9
$PUCSORGLEFT
 10
0.0
 20
0.0
 30
0.0
  9
$PUCSORGRIGHT
 10
0.0
 20
0.0
 30
0.0
  9
$PUCSORGFRONT
 10
0.0
 20
0.0
 30
0.0
  9
$PUCSORGBACK
 10
0.0
 20
0.0
 30
0.0
  9
$USERI1
 70
     0
  9
$USERI2
 70
     0
  9
$USERI3
 70
     0
  9
$USERI4
 70
     0
  9
$USERI5
 70
     0
  9
$USERR1
 40
0.0
  9
$USERR2
 40
0.0
  9
$USERR3
 40
0.0
  9
$USERR4
 40
0.0
  9
$USERR5
 40
0.0
  9
$WORLDVIEW
 70
     1
  9
$SHADEDGE
 70
     3
  9
$SHADEDIF
 70
    70
  9
$TILEMODE
 70
     1
  9
$MAXACTVP
 70
    64
  9
$PINSBASE
 10
0.0
 20
0.0
 30
0.0
  9
$PLIMCHECK
 70
     0
  9
$PEXTMIN
 10
1.000000000000000E+20
 20
1.000000000000000E+20
 30
1.000000000000000E+20
  9
$PEXTMAX
 10
-1.000000000000000E+20
 20
-1.000000000000000E+20
 30
-1.000000000000000E+20
  9
$PLIMMIN
 10
0.0
 20
0.0
  9
$PLIMMAX
 10
420.0
 20
297.0
  9
$UNITMODE
 70
     0
  9
$VISRETAIN
 70
     1
  9
$PLINEGEN
 70
     0
  9
$PSLTSCALE
 70
     1
  9
$TREEDEPTH
 70
  3020
  9
$CMLSTYLE
  2
Standard
  9
$CMLJUST
 70
     0
  9
$CMLSCALE
 40
20.0
  9
$PROXYGRAPHICS
 70
     1
  9
$MEASUREMENT
 70
     1
  9
$CELWEIGHT
370
    -1
  9
$ENDCAPS
280
     0
  9
$JOINSTYLE
280
     0
  9
$LWDISPLAY
290
     0
  9
$INSUNITS
 70
     4
  9
$HYPERLINKBASE
  1

  9
$STYLESHEET
  1

  9
$XEDIT
290
     1
  9
$CEPSNTYPE
380
     0
  9
$PSTYLEMODE
290
     1
  9
$FINGERPRINTGUID
  2
{33E7631A-9940-42BC-80A7-59BDD4E7ACA4}
  9
$VERSIONGUID
  2
{FAEB1C32-E019-11D5-929B-00C0DF256EC4}
  9
$EXTNAMES
290
     1
  9
$PSVPSCALE
 40
0.0
  9
$OLESTARTUP
290
     0
  9
$SORTENTS
280
   127
  9
$INDEXCTL
280
     0
  9
$HIDETEXT
280
     1
  9
$XCLIPFRAME
290
     0
  9
$HALOGAP
280
     0
  9
$OBSCOLOR
 70
   257
  9
$OBSLTYPE
280
     0
  9
$INTERSECTIONDISPLAY
280
     0
  9
$INTERSECTIONCOLOR
 70
   257
  9
$DIMASSOC
280
     2
  9
$PROJECTNAME
  1

  0
ENDSEC
  0
SECTION
  2
CLASSES
  0
CLASS
  1
ACDBDICTIONARYWDFLT
  2
AcDbDictionaryWithDefault
  3
ObjectDBX Classes
 90
        0
 91
        4
280
     0
281
     0
  0
CLASS
  1
VISUALSTYLE
  2
AcDbVisualStyle
  3
ObjectDBX Classes
 90
     4095
 91
        4
280
     0
281
     0
  0
ENDSEC
  0
SECTION
  2
TABLES
  0
TABLE
  2
VPORT
  5
8
330
0
100
AcDbSymbolTable
 70
     1
  0
VPORT
  5
29
330
8
100
AcDbSymbolTableRecord
100
AcDbViewportTableRecord
  2
*Active
 70
     0
 10
0.0
 20
0.0
 11
1.0
 21
1.0
 12
0.0
 22
0.0
 13
0.0
 23
0.0
 14
10.0
 24
10.0
 15
10.0
 25
10.0
 16
0.0
 26
0.0
 36
1.0
 17
0.0
 27
0.0
 37
0.0
 40
980.1
 41
1.414141414141414
 42
50.0
 43
0.0
 44
0.0
 50
0.0
 51
0.0
 71
     0
 72
 10000
 73
     1
 74
     3
 75
     0
 76
     0
 77
     0
 78
     0
281
     0
 65
     1
110
0.0
120
0.0
130
0.0
111
1.0
121
0.0
131
0.0
112
0.0
122
1.0
132
0.0
 79
     0
146
0.0
  0
ENDTAB
  0
TABLE
  2
LTYPE
  5
5
330
0
100
AcDbSymbolTable
 70
     2
  0
LTYPE
  5
14
330
5
100
AcDbSymbolTableRecord
100
AcDbLinetypeTableRecord
  2
ByBlock
 70
     0
  3

 72
    65
 73
     0
 40
0.0
  0
LTYPE
  5
15
330
5
100
AcDbSymbolTableRecord
100
AcDbLinetypeTableRecord
  2
ByLayer
 70
     0
  3

 72
    65
 73
     0
 40
0.0
  0
LTYPE
  5
16
330
5
100
AcDbSymbolTableRecord
100
AcDbLinetypeTableRecord
  2
Continuous
 70
     0
  3
Solid line
 72
    65
 73
     0
 40
0.0
  0
LTYPE
  5
3C
330
5
100
AcDbSymbolTableRecord
100
AcDbLinetypeTableRecord
  2
JWW_CENTER1
 70
     0
  3
-----  --  ----------  --  -----
 72
    65
 73
     4
 40
6.773333333333333
 49
4.233333333333333
 74
     0
 49
-0.8466666666666667
 74
     0
 49
0.8466666666666667
 74
     0
 49
-0.8466666666666667
 74
     0
  0
ENDTAB
  0
TABLE
  2
LAYER
  5
2
330
0
100
AcDbSymbolTable
 70
     7
  0
LAYER
  5
10
330
2
100
AcDbSymbolTableRecord
100
AcDbLayerTableRecord
  2
0
 70
     0
 62
     7
  6
Continuous
370
    -3
390
F
  0
LAYER
  5
3D
330
2
100
AcDbSymbolTableRecord
100
AcDbLayerTableRecord
  2
0-0
 70
     0
 62
     7
  6
Continuous
370
    -3
390
F
  0
LAYER
  5
3E
330
2
100
AcDbSymbolTableRecord
100
AcDbLayerTableRecord
  2
0-4
 70
     0
 62
     7
  6
Continuous
370
    -3
390
F
  0
LAYER
  5
3F
330
2
100
AcDbSymbolTableRecord
100
AcDbLayerTableRecord
  2
0-E
 70
     0
 62
     7
  6
Continuous
370
    -3
390
F
  0
LAYER
  5
40
330
2
100
AcDbSymbolTableRecord
100
AcDbLayerTableRecord
  2
0-2
 70
     0
 62
     7
  6
Continuous
370
    -3
390
F
  0
LAYER
  5
41
330
2
100
AcDbSymbolTableRecord
100
AcDbLayerTableRecord
  2
0-1
 70
     0
 62
     7
  6
Continuous
370
    -3
390
F
  0
LAYER
  5
42
330
2
100
AcDbSymbolTableRecord
100
AcDbLayerTableRecord
  2
F-5
 70
     0
 62
     7
  6
Continuous
370
    -3
390
F
  0
ENDTAB
  0
TABLE
  2
STYLE
  5
3
330
0
100
AcDbSymbolTable
 70
     2
  0
STYLE
  5
11
330
3
100
AcDbSymbolTableRecord
100
AcDbTextStyleTableRecord
  2
Standard
 70
     0
 40
0.0
 41
1.0
 50
0.0
 71
     0
 42
2.5
  3
txt
  4

1001
ACAD
1000

1071
        0
  0
STYLE
  5
3B
330
3
100
AcDbSymbolTableRecord
100
AcDbTextStyleTableRecord
  2
ＭＳ ゴシック
 70
     0
 40
1.0
 41
1.0
 50
0.0
 71
     0
 42
10.0
  3

  4

1001
ACAD
1000
MS Gothic
1071
    32817
  0
ENDTAB
  0
TABLE
  2
VIEW
  5
6
330
0
100
AcDbSymbolTable
 70
     0
  0
ENDTAB
  0
TABLE
  2
UCS
  5
7
330
0
100
AcDbSymbolTable
 70
     0
  0
ENDTAB
  0
TABLE
  2
APPID
  5
9
330
0
100
AcDbSymbolTable
 70
     1
  0
APPID
  5
12
330
9
100
AcDbSymbolTableRecord
100
AcDbRegAppTableRecord
  2
ACAD
 70
     0
  0
ENDTAB
  0
TABLE
  2
DIMSTYLE
  5
A
330
0
100
AcDbSymbolTable
 70
     1
100
AcDbDimStyleTable
  0
DIMSTYLE
105
27
330
A
100
AcDbSymbolTableRecord
100
AcDbDimStyleTableRecord
  2
ISO-25
 70
     0
 41
2.5
 42
0.625
 43
3.75
 44
1.25
 73
     0
 74
     0
 77
     1
 78
     8
140
2.5
141
2.5
143
0.03937007874016
147
0.625
171
     3
172
     1
271
     2
272
     2
274
     3
278
    44
283
     0
284
     8
340
11
  0
ENDTAB
  0
TABLE
  2
BLOCK_RECORD
  5
1
330
0
100
AcDbSymbolTable
 70
     1
  0
BLOCK_RECORD
  5
1F
330
1
100
AcDbSymbolTableRecord
100
AcDbBlockTableRecord
  2
*Model_Space
340
22
  0
BLOCK_RECORD
  5
1B
330
1
100
AcDbSymbolTableRecord
100
AcDbBlockTableRecord
  2
*Paper_Space
340
1E
  0
BLOCK_RECORD
  5
23
330
1
100
AcDbSymbolTableRecord
100
AcDbBlockTableRecord
  2
*Paper_Space0
340
26
  0
ENDTAB
  0
ENDSEC
  0
SECTION
  2
BLOCKS
  0
BLOCK
  5
20
330
1F
100
AcDbEntity
  8
0
100
AcDbBlockBegin
  2
*Model_Space
 70
     0
 10
0.0
 20
0.0
 30
0.0
  3
*Model_Space
  1

  0
ENDBLK
  5
21
330
1F
100
AcDbEntity
  8
0
100
AcDbBlockEnd
  0
BLOCK
  5
1C
330
1B
100
AcDbEntity
 67
     1
  8
0
100
AcDbBlockBegin
  2
*Paper_Space
 70
     0
 10
0.0
 20
0.0
 30
0.0
  3
*Paper_Space
  1

  0
ENDBLK
  5
1D
330
1B
100
AcDbEntity
 67
     1
  8
0
100
AcDbBlockEnd
  0
BLOCK
  5
24
330
23
100
AcDbEntity
  8
0
100
AcDbBlockBegin
  2
*Paper_Space0
 70
     0
 10
0.0
 20
0.0
 30
0.0
  3
*Paper_Space0
  1

  0
ENDBLK
  5
25
330
23
100
AcDbEntity
  8
0
100
AcDbBlockEnd
  0
ENDSEC
  0
SECTION
  2
ENTITIES
  0
LINE
  5
43
330
1F
100
AcDbEntity
  8
0-0
  6
Continuous
 62
     3
370
     9
100
AcDbLine
 10
-456.9142326148781
 20
278.6660453177789
 30
0.0
 11
-456.9142326148781
 21
-55.33391839104718
 31
0.0
  0
LINE
  5
44
330
1F
100
AcDbEntity
  8
0-0
  6
Continuous
 62
     3
370
     9
100
AcDbLine
 10
-453.9142227172852
 20
281.665980983425
 30
0.0
 11
-119.9142590084591
 21
281.665980983425
 31
0.0
  0
LINE
  5
45
330
1F
100
AcDbEntity
  8
0-0
  6
Continuous
 62
     3
370
     9
100
AcDbLine
 10
-412.1642458116686
 20
259.7159654771961
 30
0.0
 11
-431.0642190881678
 21
259.7159654771961
 31
0.0
  0
LINE
  5
46
330
1F
100
AcDbEntity
  8
0-0
  6
Continuous
 62
     3
370
     9
100
AcDbLine
 10
-435.064207540976
 20
177.0160835884714
 30
0.0
 11
-435.064207540976
 21
255.7159770243878
 31
0.0
  0
LINE
  5
47
330
1F
100
AcDbEntity
  8
0-0
  6
Continuous
 62
     3
370
     9
100
AcDbLine
 10
-412.1642458116686
 20
173.0160951356631
 30
0.0
 11
-431.0642190881678
 21
173.0160951356631
 31
0.0
  0
LINE
  5
48
330
1F
100
AcDbEntity
  8
0-0
  6
Continuous
 62
     3
370
     9
100
AcDbLine
 10
-408.1641831269135
 20
177.0160835884714
 30
0.0
 11
-408.1641831269135
 21
255.7159770243878
 31
0.0
  0
LINE
  5
49
330
1F
100
AcDbEntity
  8
0-0
  6
Continuous
 62
     3
370
     9
100
AcDbLine
 10
-367.2642362439954
 20
173.0160951356631
 30
0.0
 11
-386.1642095204946
 21
173.0160951356631
 31
0.0
  0
LINE
  5
4A
330
1F
100
AcDbEntity
  8
0-0
  6
Continuous
 62
     3
370
     9
100
AcDbLine
 10
-322.3642266763223
 20
173.0160951356631
 30
0.0
 11
-341.2641628368481
 21
173.0160951356631
 31
0.0
  0
LINE
  5
4B
330
1F
100
AcDbEntity
  8
0-0
  6
Continuous
 62
     3
370
     9
100
AcDbLine
 10
-296.3642275011217
 20
173.0160951356631
 30
0.0
 11
-277.4642171086491
 21
173.0160951356631
 31
0.0
  0
LINE
  5
4C
330
1F
100
AcDbEntity
  8
0-0
  6
Continuous
 62
     3
370
     9
100
AcDbLine
 10
-300.3641788379566
 20
255.7159770243878
 30
0.0
 11
-300.3641788379566
 21
177.0160835884714
 31
0.0
  0
LINE
  5
4D
330
1F
100
AcDbEntity
  8
0-0
  6
Continuous
 62
     3
370
     9
100
AcDbLine
 10
-296.3642275011217
 20
259.7159654771961
 30
0.0
 11
-277.4642171086491
 21
259.7159654771961
 31
0.0
  0
LINE
  5
4E
330
1F
100
AcDbEntity
  8
0-0
  6
Continuous
 62
     3
370
     9
100
AcDbLine
 10
-345.2642255216031
 20
255.7159770243878
 30
0.0
 11
-345.2642255216031
 21
177.0160835884714
 31
0.0
  0
LINE
  5
4F
330
1F
100
AcDbEntity
  8
0-0
  6
Continuous
 62
     3
370
     9
100
AcDbLine
 10
-322.3642266763223
 20
259.7159654771961
 30
0.0
 11
-341.2641628368481
 21
259.7159654771961
 31
0.0
  0
LINE
  5
50
330
1F
100
AcDbEntity
  8
0-0
  6
Continuous
 62
     3
370
     9
100
AcDbLine
 10
-318.3642011075406
 20
255.7159770243878
 30
0.0
 11
-318.3642011075406
 21
177.0160835884714
 31
0.0
  0
LINE
  5
51
330
1F
100
AcDbEntity
  8
0-0
  6
Continuous
 62
     3
370
     9
100
AcDbLine
 10
-363.2642106752137
 20
255.7159770243878
 30
0.0
 11
-363.2642106752137
 21
177.0160835884714
 31
0.0
  0
LINE
  5
52
330
1F
100
AcDbEntity
  8
0-0
  6
Continuous
 62
     3
370
     9
100
AcDbLine
 10
-386.1642095204946
 20
259.7159654771961
 30
0.0
 11
-367.2642362439954
 21
259.7159654771961
 31
0.0
  0
LINE
  5
53
330
1F
100
AcDbEntity
  8
0-0
  6
Continuous
 62
     3
370
     9
100
AcDbLine
 10
-390.1641979733029
 20
255.7159770243878
 30
0.0
 11
-390.1641979733029
 21
177.0160835884714
 31
0.0
  0
LINE
  5
54
330
1F
100
AcDbEntity
  8
0-0
  6
Continuous
 62
     3
370
     9
100
AcDbLine
 10
-435.064207540976
 20
151.0160472972974
 30
0.0
 11
-435.064207540976
 21
72.31607962943423
 31
0.0
  0
LINE
  5
55
330
1F
100
AcDbEntity
  8
0-0
  6
Continuous
 62
     3
370
     9
100
AcDbLine
 10
-412.1642458116686
 20
155.0160728660791
 30
0.0
 11
-431.0642190881678
 21
155.0160728660791
 31
0.0
  0
LINE
  5
56
330
1F
100
AcDbEntity
  8
0-0
  6
Continuous
 62
     3
370
     9
100
AcDbLine
 10
-408.1641831269135
 20
151.0160472972974
 30
0.0
 11
-408.1641831269135
 21
72.31607962943423
 31
0.0
  0
LINE
  5
57
330
1F
100
AcDbEntity
  8
0-0
  6
Continuous
 62
     3
370
     9
100
AcDbLine
 10
-390.1641979733029
 20
151.0160472972974
 30
0.0
 11
-390.1641979733029
 21
72.31607962943423
 31
0.0
  0
LINE
  5
58
330
1F
100
AcDbEntity
  8
0-0
  6
Continuous
 62
     3
370
     9
100
AcDbLine
 10
-367.2642362439954
 20
155.0160728660791
 30
0.0
 11
-386.1642095204946
 21
155.0160728660791
 31
0.0
  0
LINE
  5
59
330
1F
100
AcDbEntity
  8
0-0
  6
Continuous
 62
     3
370
     9
100
AcDbLine
 10
-363.2642106752137
 20
151.0160472972974
 30
0.0
 11
-363.2642106752137
 21
72.31607962943423
 31
0.0
  0
LINE
  5
5A
330
1F
100
AcDbEntity
  8
0-0
  6
Continuous
 62
     3
370
     9
100
AcDbLine
 10
-345.2642255216031
 20
151.0160472972974
 30
0.0
 11
-345.2642255216031
 21
72.31607962943423
 31
0.0
  0
LINE
  5
5B
330
1F
100
AcDbEntity
  8
0-0
  6
Continuous
 62
     3
370
     9
100
AcDbLine
 10
-322.3642266763223
 20
155.0160728660791
 30
0.0
 11
-341.2641628368481
 21
155.0160728660791
 31
0.0
  0
LINE
  5
5C
330
1F
100
AcDbEntity
  8
0-0
  6
Continuous
 62
     3
370
     9
100
AcDbLine
 10
-318.3642011075406
 20
151.0160472972974
 30
0.0
 11
-318.3642011075406
 21
72.31607962943423
 31
0.0
  0
LINE
  5
5D
330
1F
100
AcDbEntity
  8
0-0
  6
Continuous
 62
     3
370
     9
100
AcDbLine
 10
-296.3642275011217
 20
155.0160728660791
 30
0.0
 11
-277.4642171086491
 21
155.0160728660791
 31
0.0
  0
LINE
  5
5E
330
1F
100
AcDbEntity
  8
0-0
  6
Continuous
 62
     3
370
     9
100
AcDbLine
 10
-436.0642232121647
 20
259.2160133155618
 30
0.0
 11
-436.0642232121647
 21
-35.88388638883015
 31
0.0
  0
LINE
  5
5F
330
1F
100
AcDbEntity
  8
0-0
  6
Continuous
 62
     3
370
     9
100
AcDbLine
 10
-434.5642553793417
 20
260.7160182643582
 30
0.0
 11
-139.2642263464025
 21
260.7160182643582
 31
0.0
  0
LINE
  5
60
330
1F
100
AcDbEntity
  8
0-0
  6
Continuous
 62
     3
370
     9
100
AcDbLine
 10
-300.3641788379566
 20
151.0160472972974
 30
0.0
 11
-300.3641788379566
 21
72.31607962943423
 31
0.0
  0
LINE
  5
61
330
1F
100
AcDbEntity
  8
0-0
  6
Continuous
 62
     3
370
     9
100
AcDbLine
 10
-116.9142862268397
 20
278.6660453177789
 30
0.0
 11
-116.9142862268397
 21
-55.33391839104718
 31
0.0
  0
LINE
  5
62
330
1F
100
AcDbEntity
  8
0-0
  6
Continuous
 62
     3
370
     9
100
AcDbLine
 10
-161.6642359140757
 20
259.7159654771961
 30
0.0
 11
-142.7642626375766
 21
259.7159654771961
 31
0.0
  0
LINE
  5
63
330
1F
100
AcDbEntity
  8
0-0
  6
Continuous
 62
     3
370
     9
100
AcDbLine
 10
-138.7642741847682
 20
177.0160835884714
 30
0.0
 11
-138.7642741847682
 21
255.7159770243878
 31
0.0
  0
LINE
  5
64
330
1F
100
AcDbEntity
  8
0-0
  6
Continuous
 62
     3
370
     9
100
AcDbLine
 10
-161.6642359140757
 20
173.0160951356631
 30
0.0
 11
-142.7642626375766
 21
173.0160951356631
 31
0.0
  0
LINE
  5
65
330
1F
100
AcDbEntity
  8
0-0
  6
Continuous
 62
     3
370
     9
100
AcDbLine
 10
-165.6642614828573
 20
177.0160835884714
 30
0.0
 11
-165.6642614828573
 21
255.7159770243878
 31
0.0
  0
LINE
  5
66
330
1F
100
AcDbEntity
  8
0-0
  6
Continuous
 62
     3
370
     9
100
AcDbLine
 10
-206.5642454817488
 20
173.0160951356631
 30
0.0
 11
-187.6642722052497
 21
173.0160951356631
 31
0.0
  0
LINE
  5
67
330
1F
100
AcDbEntity
  8
0-0
  6
Continuous
 62
     3
370
     9
100
AcDbLine
 10
-251.464255049422
 20
173.0160951356631
 30
0.0
 11
-232.5642817729228
 21
173.0160951356631
 31
0.0
  0
LINE
  5
68
330
1F
100
AcDbEntity
  8
0-0
  6
Continuous
 62
     3
370
     9
100
AcDbLine
 10
-273.4642286558409
 20
255.7159770243878
 30
0.0
 11
-273.4642286558409
 21
177.0160835884714
 31
0.0
  0
LINE
  5
69
330
1F
100
AcDbEntity
  8
0-0
  6
Continuous
 62
     3
370
     9
100
AcDbLine
 10
-228.5642562041411
 20
255.7159770243878
 30
0.0
 11
-228.5642562041411
 21
177.0160835884714
 31
0.0
  0
LINE
  5
6A
330
1F
100
AcDbEntity
  8
0-0
  6
Continuous
 62
     3
370
     9
100
AcDbLine
 10
-251.464255049422
 20
259.7159654771961
 30
0.0
 11
-232.5642817729228
 21
259.7159654771961
 31
0.0
  0
LINE
  5
6B
330
1F
100
AcDbEntity
  8
0-0
  6
Continuous
 62
     3
370
     9
100
AcDbLine
 10
-255.4642435022303
 20
255.7159770243878
 30
0.0
 11
-255.4642435022303
 21
177.0160835884714
 31
0.0
  0
LINE
  5
6C
330
1F
100
AcDbEntity
  8
0-0
  6
Continuous
 62
     3
370
     9
100
AcDbLine
 10
-210.5642710505305
 20
255.7159770243878
 30
0.0
 11
-210.5642710505305
 21
177.0160835884714
 31
0.0
  0
LINE
  5
6D
330
1F
100
AcDbEntity
  8
0-0
  6
Continuous
 62
     3
370
     9
100
AcDbLine
 10
-187.6642722052497
 20
259.7159654771961
 30
0.0
 11
-206.5642454817488
 21
259.7159654771961
 31
0.0
  0
LINE
  5
6E
330
1F
100
AcDbEntity
  8
0-0
  6
Continuous
 62
     3
370
     9
100
AcDbLine
 10
-183.664246636468
 20
255.7159770243878
 30
0.0
 11
-183.664246636468
 21
177.0160835884714
 31
0.0
  0
LINE
  5
6F
330
1F
100
AcDbEntity
  8
0-0
  6
Continuous
 62
     3
370
     9
100
AcDbLine
 10
-138.7642741847682
 20
151.0160472972974
 30
0.0
 11
-138.7642741847682
 21
72.31607962943423
 31
0.0
  0
LINE
  5
70
330
1F
100
AcDbEntity
  8
0-0
  6
Continuous
 62
     3
370
     9
100
AcDbLine
 10
-161.6642359140757
 20
155.0160728660791
 30
0.0
 11
-142.7642626375766
 21
155.0160728660791
 31
0.0
  0
LINE
  5
71
330
1F
100
AcDbEntity
  8
0-0
  6
Continuous
 62
     3
370
     9
100
AcDbLine
 10
-165.6642614828573
 20
151.0160472972974
 30
0.0
 11
-165.6642614828573
 21
72.31607962943423
 31
0.0
  0
LINE
  5
72
330
1F
100
AcDbEntity
  8
0-0
  6
Continuous
 62
     3
370
     9
100
AcDbLine
 10
-183.664246636468
 20
151.0160472972974
 30
0.0
 11
-183.664246636468
 21
72.31607962943423
 31
0.0
  0
LINE
  5
73
330
1F
100
AcDbEntity
  8
0-0
  6
Continuous
 62
     3
370
     9
100
AcDbLine
 10
-206.5642454817488
 20
155.0160728660791
 30
0.0
 11
-187.6642722052497
 21
155.0160728660791
 31
0.0
  0
LINE
  5
74
330
1F
100
AcDbEntity
  8
0-0
  6
Continuous
 62
     3
370
     9
100
AcDbLine
 10
-210.5642710505305
 20
151.0160472972974
 30
0.0
 11
-210.5642710505305
 21
72.31607962943423
 31
0.0
  0
LINE
  5
75
330
1F
100
AcDbEntity
  8
0-0
  6
Continuous
 62
     3
370
     9
100
AcDbLine
 10
-228.5642562041411
 20
151.0160472972974
 30
0.0
 11
-228.5642562041411
 21
72.31607962943423
 31
0.0
  0
LINE
  5
76
330
1F
100
AcDbEntity
  8
0-0
  6
Continuous
 62
     3
370
     9
100
AcDbLine
 10
-251.464255049422
 20
155.0160728660791
 30
0.0
 11
-232.5642817729228
 21
155.0160728660791
 31
0.0
  0
LINE
  5
77
330
1F
100
AcDbEntity
  8
0-0
  6
Continuous
 62
     3
370
     9
100
AcDbLine
 10
-255.4642435022303
 20
151.0160472972974
 30
0.0
 11
-255.4642435022303
 21
72.31607962943423
 31
0.0
  0
LINE
  5
78
330
1F
100
AcDbEntity
  8
0-0
  6
Continuous
 62
     3
370
     9
100
AcDbLine
 10
-137.7642585135794
 20
259.2160133155618
 30
0.0
 11
-137.7642585135794
 21
-35.88388638883015
 31
0.0
  0
LINE
  5
79
330
1F
100
AcDbEntity
  8
0-0
  6
Continuous
 62
     3
370
     9
100
AcDbLine
 10
-273.4642286558409
 20
151.0160472972974
 30
0.0
 11
-273.4642286558409
 21
72.31607962943423
 31
0.0
  0
LINE
  5
7A
330
1F
100
AcDbEntity
  8
0-0
  6
Continuous
 62
     3
370
     9
100
AcDbLine
 10
-453.9142227172852
 20
-58.33392828864007
 30
0.0
 11
-119.9142590084591
 21
-58.33392828864007
 31
0.0
  0
LINE
  5
7B
330
1F
100
AcDbEntity
  8
0-0
  6
Continuous
 62
     3
370
     9
100
AcDbLine
 10
-412.1642458116686
 20
-36.38391278241107
 30
0.0
 11
-431.0642190881678
 21
-36.38391278241107
 31
0.0
  0
LINE
  5
7C
330
1F
100
AcDbEntity
  8
0-0
  6
Continuous
 62
     3
370
     9
100
AcDbLine
 10
-435.064207540976
 20
46.31600622228689
 30
0.0
 11
-435.064207540976
 21
-32.38388721362952
 31
0.0
  0
LINE
  5
7D
330
1F
100
AcDbEntity
  8
0-0
  6
Continuous
 62
     3
370
     9
100
AcDbLine
 10
-412.1642458116686
 20
50.31603179106857
 30
0.0
 11
-431.0642190881678
 21
50.31603179106857
 31
0.0
  0
LINE
  5
7E
330
1F
100
AcDbEntity
  8
0-0
  6
Continuous
 62
     3
370
     9
100
AcDbLine
 10
-408.1641831269135
 20
46.31600622228689
 30
0.0
 11
-408.1641831269135
 21
-32.38388721362952
 31
0.0
  0
LINE
  5
7F
330
1F
100
AcDbEntity
  8
0-0
  6
Continuous
 62
     3
370
     9
100
AcDbLine
 10
-367.2642362439954
 20
50.31603179106857
 30
0.0
 11
-386.1642095204946
 21
50.31603179106857
 31
0.0
  0
LINE
  5
80
330
1F
100
AcDbEntity
  8
0-0
  6
Continuous
 62
     3
370
     9
100
AcDbLine
 10
-322.3642266763223
 20
50.31603179106857
 30
0.0
 11
-341.2641628368481
 21
50.31603179106857
 31
0.0
  0
LINE
  5
81
330
1F
100
AcDbEntity
  8
0-0
  6
Continuous
 62
     3
370
     9
100
AcDbLine
 10
-296.3642275011217
 20
50.31603179106857
 30
0.0
 11
-277.4642171086491
 21
50.31603179106857
 31
0.0
  0
LINE
  5
82
330
1F
100
AcDbEntity
  8
0-0
  6
Continuous
 62
     3
370
     9
100
AcDbLine
 10
-300.3641788379566
 20
-32.38388721362952
 30
0.0
 11
-300.3641788379566
 21
46.31600622228689
 31
0.0
  0
LINE
  5
83
330
1F
100
AcDbEntity
  8
0-0
  6
Continuous
 62
     3
370
     9
100
AcDbLine
 10
-296.3642275011217
 20
-36.38391278241107
 30
0.0
 11
-277.4642171086491
 21
-36.38391278241107
 31
0.0
  0
LINE
  5
84
330
1F
100
AcDbEntity
  8
0-0
  6
Continuous
 62
     3
370
     9
100
AcDbLine
 10
-345.2642255216031
 20
-32.38388721362952
 30
0.0
 11
-345.2642255216031
 21
46.31600622228689
 31
0.0
  0
LINE
  5
85
330
1F
100
AcDbEntity
  8
0-0
  6
Continuous
 62
     3
370
     9
100
AcDbLine
 10
-322.3642266763223
 20
-36.38391278241107
 30
0.0
 11
-341.2641628368481
 21
-36.38391278241107
 31
0.0
  0
LINE
  5
86
330
1F
100
AcDbEntity
  8
0-0
  6
Continuous
 62
     3
370
     9
100
AcDbLine
 10
-318.3642011075406
 20
-32.38388721362952
 30
0.0
 11
-318.3642011075406
 21
46.31600622228689
 31
0.0
  0
LINE
  5
87
330
1F
100
AcDbEntity
  8
0-0
  6
Continuous
 62
     3
370
     9
100
AcDbLine
 10
-363.2642106752137
 20
-32.38388721362952
 30
0.0
 11
-363.2642106752137
 21
46.31600622228689
 31
0.0
  0
LINE
  5
88
330
1F
100
AcDbEntity
  8
0-0
  6
Continuous
 62
     3
370
     9
100
AcDbLine
 10
-386.1642095204946
 20
-36.38391278241107
 30
0.0
 11
-367.2642362439954
 21
-36.38391278241107
 31
0.0
  0
LINE
  5
89
330
1F
100
AcDbEntity
  8
0-0
  6
Continuous
 62
     3
370
     9
100
AcDbLine
 10
-390.1641979733029
 20
-32.38388721362952
 30
0.0
 11
-390.1641979733029
 21
46.31600622228689
 31
0.0
  0
LINE
  5
8A
330
1F
100
AcDbEntity
  8
0-0
  6
Continuous
 62
     3
370
     9
100
AcDbLine
 10
-412.1642458116686
 20
68.31601694467919
 30
0.0
 11
-431.0642190881678
 21
68.31601694467919
 31
0.0
  0
LINE
  5
8B
330
1F
100
AcDbEntity
  8
0-0
  6
Continuous
 62
     3
370
     9
100
AcDbLine
 10
-367.2642362439954
 20
68.31601694467919
 30
0.0
 11
-386.1642095204946
 21
68.31601694467919
 31
0.0
  0
LINE
  5
8C
330
1F
100
AcDbEntity
  8
0-0
  6
Continuous
 62
     3
370
     9
100
AcDbLine
 10
-322.3642266763223
 20
68.31601694467919
 30
0.0
 11
-341.2641628368481
 21
68.31601694467919
 31
0.0
  0
LINE
  5
8D
330
1F
100
AcDbEntity
  8
0-0
  6
Continuous
 62
     3
370
     9
100
AcDbLine
 10
-296.3642275011217
 20
68.31601694467919
 30
0.0
 11
-277.4642171086491
 21
68.31601694467919
 31
0.0
  0
LINE
  5
8E
330
1F
100
AcDbEntity
  8
0-0
  6
Continuous
 62
     3
370
     9
100
AcDbLine
 10
-434.5642553793417
 20
-37.38392845359999
 30
0.0
 11
-139.2642263464025
 21
-37.38392845359999
 31
0.0
  0
LINE
  5
8F
330
1F
100
AcDbEntity
  8
0-0
  6
Continuous
 62
     3
370
     9
100
AcDbLine
 10
-161.6642359140757
 20
-36.38391278241107
 30
0.0
 11
-142.7642626375766
 21
-36.38391278241107
 31
0.0
  0
LINE
  5
90
330
1F
100
AcDbEntity
  8
0-0
  6
Continuous
 62
     3
370
     9
100
AcDbLine
 10
-161.6642359140757
 20
50.31603179106857
 30
0.0
 11
-142.7642626375766
 21
50.31603179106857
 31
0.0
  0
LINE
  5
91
330
1F
100
AcDbEntity
  8
0-0
  6
Continuous
 62
     3
370
     9
100
AcDbLine
 10
-206.5642454817488
 20
50.31603179106857
 30
0.0
 11
-187.6642722052497
 21
50.31603179106857
 31
0.0
  0
LINE
  5
92
330
1F
100
AcDbEntity
  8
0-0
  6
Continuous
 62
     3
370
     9
100
AcDbLine
 10
-251.464255049422
 20
50.31603179106857
 30
0.0
 11
-232.5642817729228
 21
50.31603179106857
 31
0.0
  0
LINE
  5
93
330
1F
100
AcDbEntity
  8
0-0
  6
Continuous
 62
     3
370
     9
100
AcDbLine
 10
-273.4642286558409
 20
-32.38388721362952
 30
0.0
 11
-273.4642286558409
 21
46.31600622228689
 31
0.0
  0
LINE
  5
94
330
1F
100
AcDbEntity
  8
0-0
  6
Continuous
 62
     3
370
     9
100
AcDbLine
 10
-228.5642562041411
 20
-32.38388721362952
 30
0.0
 11
-228.5642562041411
 21
46.31600622228689
 31
0.0
  0
LINE
  5
95
330
1F
100
AcDbEntity
  8
0-0
  6
Continuous
 62
     3
370
     9
100
AcDbLine
 10
-251.464255049422
 20
-36.38391278241107
 30
0.0
 11
-232.5642817729228
 21
-36.38391278241107
 31
0.0
  0
LINE
  5
96
330
1F
100
AcDbEntity
  8
0-0
  6
Continuous
 62
     3
370
     9
100
AcDbLine
 10
-255.4642435022303
 20
-32.38388721362952
 30
0.0
 11
-255.4642435022303
 21
46.31600622228689
 31
0.0
  0
LINE
  5
97
330
1F
100
AcDbEntity
  8
0-0
  6
Continuous
 62
     3
370
     9
100
AcDbLine
 10
-187.6642722052497
 20
-36.38391278241107
 30
0.0
 11
-206.5642454817488
 21
-36.38391278241107
 31
0.0
  0
LINE
  5
98
330
1F
100
AcDbEntity
  8
0-0
  6
Continuous
 62
     3
370
     9
100
AcDbLine
 10
-161.6642359140757
 20
68.31601694467919
 30
0.0
 11
-142.7642626375766
 21
68.31601694467919
 31
0.0
  0
LINE
  5
99
330
1F
100
AcDbEntity
  8
0-0
  6
Continuous
 62
     3
370
     9
100
AcDbLine
 10
-206.5642454817488
 20
68.31601694467919
 30
0.0
 11
-187.6642722052497
 21
68.31601694467919
 31
0.0
  0
LINE
  5
9A
330
1F
100
AcDbEntity
  8
0-0
  6
Continuous
 62
     3
370
     9
100
AcDbLine
 10
-251.464255049422
 20
68.31601694467919
 30
0.0
 11
-232.5642817729228
 21
68.31601694467919
 31
0.0
  0
LINE
  5
9B
330
1F
100
AcDbEntity
  8
0-0
  6
Continuous
 62
     3
370
     9
100
AcDbLine
 10
212.734497688912
 20
260.7160182643582
 30
0.0
 11
214.734454799343
 21
259.7159654771961
 31
0.0
  0
LINE
  5
9C
330
1F
100
AcDbEntity
  8
0-0
  6
Continuous
 62
     3
370
     9
100
AcDbLine
 10
214.734454799343
 20
173.0160951356631
 30
0.0
 11
224.7345372792836
 21
171.7882245038008
 31
0.0
  0
LINE
  5
9D
330
1F
100
AcDbEntity
  8
0-0
  6
Continuous
 62
     3
370
     9
100
AcDbLine
 10
214.734454799343
 20
155.0160728660791
 30
0.0
 11
224.7345372792836
 21
156.2439806139149
 31
0.0
  0
LINE
  5
9E
330
1F
100
AcDbEntity
  8
0-0
  6
Continuous
 62
     3
370
     9
100
AcDbLine
 10
214.734454799343
 20
259.7159654771961
 30
0.0
 11
214.734454799343
 21
-36.38391278241107
 31
0.0
  0
LINE
  5
9F
330
1F
100
AcDbEntity
  8
0-0
  6
Continuous
 62
     3
370
     9
100
AcDbLine
 10
224.7345372792836
 20
156.2439806139149
 30
0.0
 11
224.7345372792836
 21
67.08814631281689
 31
0.0
  0
LINE
  5
A0
330
1F
100
AcDbEntity
  8
0-0
  6
Continuous
 62
     3
370
     9
100
AcDbLine
 10
225.6795099619274
 20
156.7106026314402
 30
0.0
 11
239.7345867672483
 21
158.1161103119723
 31
0.0
  0
LINE
  5
A1
330
1F
100
AcDbEntity
  8
0-0
  6
Continuous
 62
     3
370
     9
100
AcDbLine
 10
225.6795099619274
 20
171.3215282543287
 30
0.0
 11
239.7345867672483
 21
169.9160205737966
 31
0.0
  0
LINE
  5
A2
330
1F
100
AcDbEntity
  8
0-0
  6
Continuous
 62
     3
370
     9
100
AcDbLine
 10
212.734497688912
 20
281.665980983425
 30
0.0
 11
226.4172270491317
 21
279.9859635636615
 31
0.0
  0
LINE
  5
A3
330
1F
100
AcDbEntity
  8
0-0
  6
Continuous
 62
     3
370
     9
100
AcDbLine
 10
226.2344679961333
 20
280.008455843539
 30
0.0
 11
226.2344679961333
 21
262.455124313767
 31
0.0
  0
LINE
  5
A4
330
1F
100
AcDbEntity
  8
0-0
  6
Continuous
 62
     3
370
     9
100
AcDbLine
 10
214.734454799343
 20
259.7159654771961
 30
0.0
 11
226.4172270491317
 21
261.1504978489233
 31
0.0
  0
LINE
  5
A5
330
1F
100
AcDbEntity
  8
0-0
  6
Continuous
 62
     3
370
     9
100
AcDbLine
 10
234.7344712953311
 20
247.6245463603253
 30
0.0
 11
229.7346527512011
 21
250.5112040751691
 31
0.0
  0
LINE
  5
A6
330
1F
100
AcDbEntity
  8
0-0
  6
Continuous
 62
     3
370
     9
100
AcDbLine
 10
227.7345471768767
 20
263.16604366818
 30
0.0
 11
227.7345471768767
 21
252.0300639384503
 31
0.0
  0
LINE
  5
A7
330
1F
100
AcDbEntity
  8
0-0
  6
Continuous
 62
     3
370
     9
100
AcDbLine
 10
212.734497688912
 20
-58.33392828864007
 30
0.0
 11
212.734497688912
 21
281.665980983425
 31
0.0
  0
LINE
  5
A8
330
1F
100
AcDbEntity
  8
0-0
  6
Continuous
 62
     3
370
     9
100
AcDbLine
 10
212.734497688912
 20
-37.38392845359999
 30
0.0
 11
214.734454799343
 21
-36.38391278241107
 31
0.0
  0
LINE
  5
A9
330
1F
100
AcDbEntity
  8
0-0
  6
Continuous
 62
     3
370
     9
100
AcDbLine
 10
214.734454799343
 20
50.31603179106857
 30
0.0
 11
224.7345372792836
 21
51.54386530695751
 31
0.0
  0
LINE
  5
AA
330
1F
100
AcDbEntity
  8
0-0
  6
Continuous
 62
     3
370
     9
100
AcDbLine
 10
214.734454799343
 20
68.31601694467919
 30
0.0
 11
224.7345372792836
 21
67.08814631281689
 31
0.0
  0
LINE
  5
AB
330
1F
100
AcDbEntity
  8
0-0
  6
Continuous
 62
     3
370
     9
100
AcDbLine
 10
225.6795099619274
 20
66.62156141126493
 30
0.0
 11
239.7345867672483
 21
65.21601661475938
 31
0.0
  0
LINE
  5
AC
330
1F
100
AcDbEntity
  8
0-0
  6
Continuous
 62
     3
370
     9
100
AcDbLine
 10
225.6795099619274
 20
52.01052444045618
 30
0.0
 11
239.7345867672483
 21
53.41606923696173
 31
0.0
  0
LINE
  5
AD
330
1F
100
AcDbEntity
  8
0-0
  6
Continuous
 62
     3
370
     9
100
AcDbLine
 10
212.734497688912
 20
-58.33392828864007
 30
0.0
 11
226.4172270491317
 21
-56.65387375290311
 31
0.0
  0
LINE
  5
AE
330
1F
100
AcDbEntity
  8
0-0
  6
Continuous
 62
     3
370
     9
100
AcDbLine
 10
226.2344679961333
 20
-56.67632891680734
 30
0.0
 11
226.2344679961333
 21
-39.12303450300874
 31
0.0
  0
LINE
  5
AF
330
1F
100
AcDbEntity
  8
0-0
  6
Continuous
 62
     3
370
     9
100
AcDbLine
 10
214.734454799343
 20
-36.38391278241107
 30
0.0
 11
226.4172270491317
 21
-37.81840803816499
 31
0.0
  0
LINE
  5
B0
330
1F
100
AcDbEntity
  8
0-0
  6
Continuous
 62
     3
370
     9
100
AcDbLine
 10
234.7344712953311
 20
-24.29241943359358
 30
0.0
 11
229.7346527512011
 21
-27.17907714843733
 31
0.0
  0
LINE
  5
B1
330
1F
100
AcDbEntity
  8
0-0
  6
Continuous
 62
     3
370
     9
100
AcDbLine
 10
227.7345471768767
 20
-39.83399097339515
 30
0.0
 11
227.7345471768767
 21
-28.69793701171858
 31
0.0
  0
LINE
  5
B2
330
1F
100
AcDbEntity
  8
0-0
  6
Continuous
 62
     3
370
     9
100
AcDbLine
 10
224.7345372792836
 20
260.9439103410052
 30
0.0
 11
224.7345372792836
 21
171.788150271854
 31
0.0
  0
LINE
  5
B3
330
1F
100
AcDbEntity
  8
0-4
  6
Continuous
 62
     7
370
     9
100
AcDbLine
 10
-345.2641141736829
 20
-120.8339427226297
 30
0.0
 11
-275.4723141644453
 21
-120.8339427226297
 31
0.0
  0
LINE
  5
B4
330
1F
100
AcDbEntity
  8
0-4
  6
Continuous
 62
     7
370
     9
100
AcDbLine
 10
-345.2641141736829
 20
-35.38389711122232
 30
0.0
 11
-345.2641141736829
 21
-121.7339679614916
 31
0.0
  0
LINE
  5
B5
330
1F
100
AcDbEntity
  8
0-4
  6
Continuous
 62
     7
370
     9
100
AcDbLine
 10
-318.3641639915672
 20
-35.38389711122232
 30
0.0
 11
-318.3641639915672
 21
-121.7339679614916
 31
0.0
  0
LINE
  5
B6
330
1F
100
AcDbEntity
  8
0-4
  6
Continuous
 62
     7
370
     9
100
AcDbLine
 10
-345.2641141736829
 20
-120.8339427226297
 30
0.0
 11
-336.3411372416728
 21
-119.6592592806428
 31
0.0
  0
LINE
  5
B7
330
1F
100
AcDbEntity
  8
0-4
  6
Continuous
 62
     7
370
     9
100
AcDbLine
 10
-345.2641141736829
 20
-120.8339427226297
 30
0.0
 11
-336.3411372416728
 21
-122.0087746285101
 31
0.0
  0
LINE
  5
B8
330
1F
100
AcDbEntity
  8
0-4
  6
Continuous
 62
     7
370
     9
100
AcDbLine
 10
-300.3641788379566
 20
-35.38389711122232
 30
0.0
 11
-300.3641788379566
 21
-121.7339679614916
 31
0.0
  0
LINE
  5
B9
330
1F
100
AcDbEntity
  8
0-4
  6
Continuous
 62
     7
370
     9
100
AcDbLine
 10
-300.3641788379566
 20
-120.8339427226297
 30
0.0
 11
-291.4411647899731
 21
-119.6592592806428
 31
0.0
  0
LINE
  5
BA
330
1F
100
AcDbEntity
  8
0-4
  6
Continuous
 62
     7
370
     9
100
AcDbLine
 10
-300.3641788379566
 20
-120.8339427226297
 30
0.0
 11
-291.4411647899731
 21
-122.0087746285101
 31
0.0
  0
LINE
  5
BB
330
1F
100
AcDbEntity
  8
0-4
  6
Continuous
 62
     7
370
     9
100
AcDbLine
 10
-318.3641639915672
 20
-120.8339427226297
 30
0.0
 11
-327.2871780395507
 21
-122.0087746285101
 31
0.0
  0
LINE
  5
BC
330
1F
100
AcDbEntity
  8
0-4
  6
Continuous
 62
     7
370
     9
100
AcDbLine
 10
-318.3641639915672
 20
-120.8339427226297
 30
0.0
 11
-327.2871780395507
 21
-119.6592592806428
 31
0.0
  0
LINE
  5
BD
330
1F
100
AcDbEntity
  8
0-4
  6
Continuous
 62
     7
370
     9
100
AcDbLine
 10
-54.41410477096969
 20
68.31601694467919
 30
0.0
 11
-54.41410477096969
 21
191.7909133498734
 31
0.0
  0
LINE
  5
BE
330
1F
100
AcDbEntity
  8
0-4
  6
Continuous
 62
     7
370
     9
100
AcDbLine
 10
-139.7642527399836
 20
68.31601694467919
 30
0.0
 11
-53.51419088002797
 21
68.31601694467919
 31
0.0
  0
LINE
  5
BF
330
1F
100
AcDbEntity
  8
0-4
  6
Continuous
 62
     7
370
     9
100
AcDbLine
 10
-139.7642527399836
 20
155.0160728660791
 30
0.0
 11
-53.51419088002797
 21
155.0160728660791
 31
0.0
  0
LINE
  5
C0
330
1F
100
AcDbEntity
  8
0-4
  6
Continuous
 62
     7
370
     9
100
AcDbLine
 10
-54.41410477096969
 20
68.31601694467919
 30
0.0
 11
-55.58889956087688
 21
77.23903099266275
 31
0.0
  0
LINE
  5
C1
330
1F
100
AcDbEntity
  8
0-4
  6
Continuous
 62
     7
370
     9
100
AcDbLine
 10
-54.41410477096969
 20
68.31601694467919
 30
0.0
 11
-53.23945844495626
 21
77.23903099266275
 31
0.0
  0
LINE
  5
C2
330
1F
100
AcDbEntity
  8
0-4
  6
Continuous
 62
     7
370
     9
100
AcDbLine
 10
-139.7642527399836
 20
173.0160951356631
 30
0.0
 11
-53.51419088002797
 21
173.0160951356631
 31
0.0
  0
LINE
  5
C3
330
1F
100
AcDbEntity
  8
0-4
  6
Continuous
 62
     7
370
     9
100
AcDbLine
 10
-54.41410477096969
 20
173.0160951356631
 30
0.0
 11
-55.58889956087688
 21
181.9390720676733
 31
0.0
  0
LINE
  5
C4
330
1F
100
AcDbEntity
  8
0-4
  6
Continuous
 62
     7
370
     9
100
AcDbLine
 10
-54.41410477096969
 20
173.0160951356631
 30
0.0
 11
-53.23945844495626
 21
181.9390720676733
 31
0.0
  0
LINE
  5
C5
330
1F
100
AcDbEntity
  8
0-4
  6
Continuous
 62
     7
370
     9
100
AcDbLine
 10
-54.41410477096969
 20
155.0160728660791
 30
0.0
 11
-55.58889956087688
 21
146.0930588180956
 31
0.0
  0
LINE
  5
C6
330
1F
100
AcDbEntity
  8
0-4
  6
Continuous
 62
     7
370
     9
100
AcDbLine
 10
-54.41410477096969
 20
155.0160728660791
 30
0.0
 11
-53.23945844495626
 21
146.0930588180956
 31
0.0
  0
LINE
  5
C7
330
1F
100
AcDbEntity
  8
0-4
  6
Continuous
 62
     7
370
     9
100
AcDbLine
 10
166.7344449017499
 20
-79.78569896801076
 30
0.0
 11
166.7344449017499
 21
303.3631624788852
 31
0.0
  0
LINE
  5
C8
330
1F
100
AcDbEntity
  8
0-4
  6
Continuous
 62
     7
370
     9
100
AcDbLine
 10
325.7344498505464
 20
-38.33398602459857
 30
0.0
 11
325.7344498505464
 21
261.6660387193836
 31
0.0
  0
LINE
  5
C9
330
1F
100
AcDbEntity
  8
0-4
  6
Continuous
 62
     7
370
     9
100
AcDbLine
 10
238.7345339800861
 20
-38.33398602459857
 30
0.0
 11
326.6344379734348
 21
-38.33398602459857
 31
0.0
  0
LINE
  5
CA
330
1F
100
AcDbEntity
  8
0-4
  6
Continuous
 62
     7
370
     9
100
AcDbLine
 10
238.7345339800861
 20
261.6660387193836
 30
0.0
 11
326.6344379734348
 21
261.6660387193836
 31
0.0
  0
LINE
  5
CB
330
1F
100
AcDbEntity
  8
0-4
  6
Continuous
 62
     7
370
     9
100
AcDbLine
 10
325.7344498505464
 20
-38.33398602459857
 30
0.0
 11
324.5597292925861
 21
-29.41097197661514
 31
0.0
  0
LINE
  5
CC
330
1F
100
AcDbEntity
  8
0-4
  6
Continuous
 62
     7
370
     9
100
AcDbLine
 10
325.7344498505464
 20
-38.33398602459857
 30
0.0
 11
326.9091704085067
 21
-29.41097197661514
 31
0.0
  0
LINE
  5
CD
330
1F
100
AcDbEntity
  8
0-4
  6
Continuous
 62
     7
370
     9
100
AcDbLine
 10
325.7344498505464
 20
261.6660387193836
 30
0.0
 11
324.5597292925861
 21
252.7430617873734
 31
0.0
  0
LINE
  5
CE
330
1F
100
AcDbEntity
  8
0-4
  6
Continuous
 62
     7
370
     9
100
AcDbLine
 10
325.7344498505464
 20
261.6660387193836
 30
0.0
 11
326.9091704085067
 21
252.7430617873734
 31
0.0
  0
LINE
  5
CF
330
1F
100
AcDbEntity
  8
0-4
  6
Continuous
 62
     7
370
     9
100
AcDbLine
 10
227.7345471768767
 20
-61.33401241817975
 30
0.0
 11
227.7345471768767
 21
-129.2340112634606
 31
0.0
  0
LINE
  5
D0
330
1F
100
AcDbEntity
  8
0-4
  6
Continuous
 62
     7
370
     9
100
AcDbLine
 10
212.734497688912
 20
-61.33393818623296
 30
0.0
 11
212.734497688912
 21
-129.2340112634606
 31
0.0
  0
LINE
  5
D1
330
1F
100
AcDbEntity
  8
0-4
  6
Continuous
 62
     7
370
     9
100
AcDbLine
 10
227.7345471768767
 20
-128.3339860245987
 30
0.0
 11
236.6575241088867
 21
-127.1592654666384
 31
0.0
  0
LINE
  5
D2
330
1F
100
AcDbEntity
  8
0-4
  6
Continuous
 62
     7
370
     9
100
AcDbLine
 10
227.7345471768767
 20
-128.3339860245987
 30
0.0
 11
236.6575241088867
 21
-129.5086694665856
 31
0.0
  0
LINE
  5
D3
330
1F
100
AcDbEntity
  8
0-4
  6
Continuous
 62
     7
370
     9
100
AcDbLine
 10
212.734497688912
 20
-128.3339860245987
 30
0.0
 11
203.811520756902
 21
-127.1592654666384
 31
0.0
  0
LINE
  5
D4
330
1F
100
AcDbEntity
  8
0-4
  6
Continuous
 62
     7
370
     9
100
AcDbLine
 10
212.734497688912
 20
-128.3339860245987
 30
0.0
 11
203.811520756902
 21
-129.5086694665856
 31
0.0
  0
LINE
  5
D5
330
1F
100
AcDbEntity
  8
0-4
  6
Continuous
 62
     7
370
     9
100
AcDbLine
 10
242.535877743283
 20
-128.3339860245987
 30
0.0
 11
197.0123198225692
 21
-128.3339860245987
 31
0.0
  0
LINE
  5
D6
330
1F
100
AcDbEntity
  8
0-E
  6
Continuous
 62
     7
370
     9
100
AcDbLine
 10
212.734497688912
 20
-5.47788712785038
 30
0.0
 11
209.2903580536714
 21
-13.79279306772577
 31
0.0
  0
LINE
  5
D7
330
1F
100
AcDbEntity
  8
0-E
  6
Continuous
 62
     7
370
     9
100
AcDbLine
 10
212.734497688912
 20
-5.47788712785038
 30
0.0
 11
207.2556603921427
 21
-12.61807250976545
 31
0.0
  0
LINE
  5
D8
330
1F
100
AcDbEntity
  8
0-0
  6
Continuous
 62
     3
370
     9
100
AcDbLine
 10
-183.664246636468
 20
19.96604053394236
 30
0.0
 11
-183.664246636468
 21
46.31600622228689
 31
0.0
  0
LINE
  5
D9
330
1F
100
AcDbEntity
  8
0-0
  6
Continuous
 62
     3
370
     9
100
AcDbLine
 10
-210.5642710505305
 20
-6.033921525284825
 30
0.0
 11
-210.5642710505305
 21
-32.38388721362952
 31
0.0
  0
LINE
  5
DA
330
1F
100
AcDbEntity
  8
0-0
  6
Continuous
 62
     3
370
     9
100
AcDbLine
 10
-206.5642825977222
 20
15.96605208113399
 30
0.0
 11
-187.6642350892762
 21
15.96605208113399
 31
0.0
  0
LINE
  5
DB
330
1F
100
AcDbEntity
  8
0-0
  6
Continuous
 62
     3
370
     9
100
AcDbLine
 10
-210.5642710505305
 20
19.96604053394236
 30
0.0
 11
-210.5642710505305
 21
46.31600622228689
 31
0.0
  0
LINE
  5
DC
330
1F
100
AcDbEntity
  8
0-0
  6
Continuous
 62
     3
370
     9
100
AcDbLine
 10
-165.6642614828573
 20
-6.033921525284825
 30
0.0
 11
-165.6642614828573
 21
-32.38388721362952
 31
0.0
  0
LINE
  5
DD
330
1F
100
AcDbEntity
  8
0-0
  6
Continuous
 62
     3
370
     9
100
AcDbLine
 10
-165.6642614828573
 20
19.96604053394236
 30
0.0
 11
-165.6642614828573
 21
46.31600622228689
 31
0.0
  0
LINE
  5
DE
330
1F
100
AcDbEntity
  8
0-0
  6
Continuous
 62
     3
370
     9
100
AcDbLine
 10
-142.7642626375766
 20
15.96605208113399
 30
0.0
 11
-161.6642730300491
 21
15.96605208113399
 31
0.0
  0
LINE
  5
DF
330
1F
100
AcDbEntity
  8
0-0
  6
Continuous
 62
     3
370
     9
100
AcDbLine
 10
-142.7642626375766
 20
-2.033933072476628
 30
0.0
 11
-161.6642730300491
 21
-2.033933072476628
 31
0.0
  0
LINE
  5
E0
330
1F
100
AcDbEntity
  8
0-0
  6
Continuous
 62
     3
370
     9
100
AcDbLine
 10
-138.7642741847682
 20
-6.033921525284825
 30
0.0
 11
-138.7642741847682
 21
-32.38388721362952
 31
0.0
  0
LINE
  5
E1
330
1F
100
AcDbEntity
  8
0-0
  6
Continuous
 62
     3
370
     9
100
AcDbLine
 10
-138.7642741847682
 20
19.96604053394236
 30
0.0
 11
-138.7642741847682
 21
46.31600622228689
 31
0.0
  0
LINE
  5
E2
330
1F
100
AcDbEntity
  8
0-0
  6
Continuous
 62
     3
370
     9
100
AcDbLine
 10
-187.6642350892762
 20
-2.033933072476628
 30
0.0
 11
-206.5642825977222
 21
-2.033933072476628
 31
0.0
  0
LINE
  5
E3
330
1F
100
AcDbEntity
  8
0-0
  6
Continuous
 62
     3
370
     9
100
AcDbLine
 10
-183.664246636468
 20
-6.033921525284825
 30
0.0
 11
-183.664246636468
 21
-32.38388721362952
 31
0.0
  0
LINE
  5
E4
330
1F
100
AcDbEntity
  8
0-2
  6
JWW_CENTER1
 62
     6
370
     5
100
AcDbLine
 10
-174.6642540596627
 20
34.43162000501493
 30
0.0
 11
-174.6642540596627
 21
-23.24114660314601
 31
0.0
  0
LINE
  5
E5
330
1F
100
AcDbEntity
  8
0-2
  6
JWW_CENTER1
 62
     6
370
     5
100
AcDbLine
 10
-197.6211145761851
 20
6.966059504328683
 30
0.0
 11
-150.7619754688159
 21
6.966059504328683
 31
0.0
  0
LINE
  5
E6
330
1F
100
AcDbEntity
  8
0-2
  6
Continuous
 62
     6
370
     5
100
AcDbLine
 10
490.4038455035236
 20
100.0527723157729
 30
0.0
 11
455.6818523922483
 21
100.0527723157729
 31
0.0
  0
LINE
  5
E7
330
1F
100
AcDbEntity
  8
0-2
  6
Continuous
 62
     6
370
     5
100
AcDbLine
 10
466.2219722850903
 20
116.6401977539064
 30
0.0
 11
467.0332532315641
 21
115.2350241171349
 31
0.0
  0
LINE
  5
E8
330
1F
100
AcDbEntity
  8
0-2
  6
JWW_CENTER1
 62
     6
370
     5
100
AcDbLine
 10
441.4733381529114
 20
257.9473151129647
 30
0.0
 11
412.5015743358717
 21
257.9473151129647
 31
0.0
  0
LINE
  5
E9
330
1F
100
AcDbEntity
  8
0-2
  6
Continuous
 62
     6
370
     5
100
AcDbLine
 10
461.8918001329577
 20
114.1402142498945
 30
0.0
 11
462.7034522391653
 21
112.7350777290964
 31
0.0
  0
LINE
  5
EA
330
1F
100
AcDbEntity
  8
0-2
  6
Continuous
 62
     6
370
     5
100
AcDbLine
 10
468.2931920644398
 20
100.0527723157729
 30
0.0
 11
462.1541358329153
 21
110.6859790698903
 31
0.0
  0
LINE
  5
EB
330
1F
100
AcDbEntity
  8
0-2
  6
Continuous
 62
     6
370
     5
100
AcDbLine
 10
477.5309866827889
 20
100.0527723157729
 30
0.0
 11
469.0823518907702
 21
114.6859675226986
 31
0.0
  0
LINE
  5
EC
330
1F
100
AcDbEntity
  8
0-2
  6
Continuous
 62
     6
370
     5
100
AcDbLine
 10
462.5198766347523
 20
100.0527723157729
 30
0.0
 11
457.8241863766233
 21
108.1859584499051
 31
0.0
  0
LINE
  5
ED
330
1F
100
AcDbEntity
  8
0-2
  6
Continuous
 62
     6
370
     5
100
AcDbLine
 10
483.3043021124764
 20
100.0527723157729
 30
0.0
 11
473.4125240429028
 21
117.1860252586572
 31
0.0
  0
LINE
  5
EE
330
1F
100
AcDbEntity
  8
0-2
  6
Continuous
 62
     6
370
     5
100
AcDbLine
 10
448.5332416843723
 20
147.2779491527662
 30
0.0
 11
449.5386391717036
 21
145.5365790289803
 31
0.0
  0
LINE
  5
EF
330
1F
100
AcDbEntity
  8
0-2
  6
Continuous
 62
     6
370
     5
100
AcDbLine
 10
444.2030695322399
 20
144.7779656487544
 30
0.0
 11
444.9557814726958
 21
143.4741557353253
 31
0.0
  0
LINE
  5
F0
330
1F
100
AcDbEntity
  8
0-2
  6
Continuous
 62
     6
370
     5
100
AcDbLine
 10
453.1725898948877
 20
139.2427120724242
 30
0.0
 11
463.4605438644824
 21
121.4234817092484
 31
0.0
  0
LINE
  5
F1
330
1F
100
AcDbEntity
  8
0-2
  6
Continuous
 62
     6
370
     5
100
AcDbLine
 10
450.4207373954153
 20
147.7227098619617
 30
0.0
 11
443.6435833492795
 21
173.0143135689402
 31
0.0
  0
LINE
  5
F2
330
1F
100
AcDbEntity
  8
0-2
  6
Continuous
 62
     6
370
     5
100
AcDbLine
 10
448.7495535773202
 20
136.9032180373734
 30
0.0
 11
459.1302974804028
 21
118.9234982052367
 31
0.0
  0
LINE
  5
F3
330
1F
100
AcDbEntity
  8
0-2
  6
Continuous
 62
     6
370
     5
100
AcDbLine
 10
433.473287015348
 20
166.4473101641682
 30
0.0
 11
433.473287015348
 21
148.4473250105576
 31
0.0
  0
LINE
  5
F4
330
1F
100
AcDbEntity
  8
0-2
  6
Continuous
 62
     6
370
     5
100
AcDbLine
 10
440.4734338296427
 20
166.4473101641682
 30
0.0
 11
440.4734338296427
 21
148.4473250105576
 31
0.0
  0
LINE
  5
F5
330
1F
100
AcDbEntity
  8
0-2
  6
Continuous
 62
     6
370
     5
100
AcDbLine
 10
457.4732177321977
 20
148.4473250105576
 30
0.0
 11
450.6436559316273
 21
173.935828956398
 31
0.0
  0
LINE
  5
F6
330
1F
100
AcDbEntity
  8
0-2
  6
Continuous
 62
     6
370
     5
100
AcDbLine
 10
440.4734338296427
 20
166.4473101641682
 30
0.0
 11
433.473287015348
 21
166.4473101641682
 31
0.0
  0
LINE
  5
F7
330
1F
100
AcDbEntity
  8
0-2
  6
Continuous
 62
     6
370
     5
100
AcDbLine
 10
420.4731204058673
 20
261.4472771721919
 30
0.0
 11
420.4731204058673
 21
254.4473530537375
 31
0.0
  0
LINE
  5
F8
330
1F
100
AcDbEntity
  8
0-2
  6
Continuous
 62
     6
370
     5
100
AcDbLine
 10
443.4730725675017
 20
252.4473959433067
 30
0.0
 11
443.4730725675017
 21
174.3083248653929
 31
0.0
  0
LINE
  5
F9
330
1F
100
AcDbEntity
  8
0-2
  6
Continuous
 62
     6
370
     5
100
AcDbLine
 10
441.4733381529114
 20
254.4473530537375
 30
0.0
 11
420.4731204058673
 21
254.4473530537375
 31
0.0
  0
LINE
  5
FA
330
1F
100
AcDbEntity
  8
0-2
  6
Continuous
 62
     6
370
     5
100
AcDbLine
 10
443.4730725675017
 20
261.4472771721919
 30
0.0
 11
420.4731204058673
 21
261.4472771721919
 31
0.0
  0
LINE
  5
FB
330
1F
100
AcDbEntity
  8
0-2
  6
Continuous
 62
     6
370
     5
100
AcDbLine
 10
450.4730709179028
 20
254.4473530537375
 30
0.0
 11
450.4730709179028
 21
175.2299144847974
 31
0.0
  0
LINE
  5
FC
330
1F
100
AcDbEntity
  8
0-2
  6
JWW_CENTER1
 62
     6
370
     5
100
AcDbLine
 10
436.9733975384686
 20
176.6781797666809
 30
0.0
 11
436.9733975384686
 21
148.4473250105576
 31
0.0
  0
LINE
  5
FD
330
1F
100
AcDbEntity
  8
0-2
  6
JWW_CENTER1
 62
     6
370
     5
100
AcDbLine
 10
474.6940643722949
 20
96.96613373627548
 30
0.0
 11
443.4864343179239
 21
151.0192763869828
 31
0.0
  0
LINE
  5
FE
330
1F
100
AcDbEntity
  8
0-2
  6
JWW_CENTER1
 62
     6
370
     5
100
AcDbLine
 10
453.9628632004199
 20
148.0255019729203
 30
0.0
 11
447.0243289019611
 21
173.9200917836784
 31
0.0
  0
LINE
  5
FF
330
1F
100
AcDbEntity
  8
0-2
  6
JWW_CENTER1
 62
     6
370
     5
100
AcDbLine
 10
446.9734800184095
 20
252.4473959433067
 30
0.0
 11
446.9734800184095
 21
174.3083248653929
 31
0.0
  0
LINE
  5
100
330
1F
100
AcDbEntity
  8
0-2
  6
Continuous
 62
     6
370
     5
100
AcDbLine
 10
270.7345900664458
 20
15.96605208113399
 30
0.0
 11
294.7345207832955
 21
15.96605208113399
 31
0.0
  0
LINE
  5
101
330
1F
100
AcDbEntity
  8
0-2
  6
Continuous
 62
     6
370
     5
100
AcDbLine
 10
270.7345900664458
 20
10.96604795713705
 30
0.0
 11
294.7345207832955
 21
10.96604795713705
 31
0.0
  0
LINE
  5
102
330
1F
100
AcDbEntity
  8
0-2
  6
Continuous
 62
     6
370
     5
100
AcDbLine
 10
270.7345900664458
 20
2.965811239706738
 30
0.0
 11
294.7345207832955
 21
2.965811239706738
 31
0.0
  0
LINE
  5
103
330
1F
100
AcDbEntity
  8
0-2
  6
Continuous
 62
     6
370
     5
100
AcDbLine
 10
270.7345900664458
 20
-2.033933072476628
 30
0.0
 11
294.7345207832955
 21
-2.033933072476628
 31
0.0
  0
LINE
  5
104
330
1F
100
AcDbEntity
  8
0-2
  6
Continuous
 62
     6
370
     5
100
AcDbLine
 10
296.2347484279323
 20
9.466302820154311
 30
0.0
 11
316.234616460027
 21
9.466302820154311
 31
0.0
  0
LINE
  5
105
330
1F
100
AcDbEntity
  8
0-2
  6
Continuous
 62
     6
370
     5
100
AcDbLine
 10
296.2347484279323
 20
4.466038884343448
 30
0.0
 11
310.8784845713024
 21
4.466038884343448
 31
0.0
  0
LINE
  5
106
330
1F
100
AcDbEntity
  8
0-2
  6
JWW_CENTER1
 62
     6
370
     5
100
AcDbLine
 10
320.5402920697186
 20
13.48536888328775
 30
0.0
 11
306.8172547623917
 21
0.6752731735643067
 31
0.0
  0
LINE
  5
107
330
1F
100
AcDbEntity
  8
0-0
  6
Continuous
 62
     3
370
     9
100
AcDbLine
 10
224.7345372792836
 20
25.46603393554705
 30
0.0
 11
237.5779260171427
 21
23.21925560203775
 31
0.0
  0
LINE
  5
108
330
1F
100
AcDbEntity
  8
0-0
  6
Continuous
 62
     3
370
     9
100
AcDbLine
 10
224.7345372792836
 20
-11.53395204286295
 30
0.0
 11
237.578148712983
 21
-9.287025245460143
 31
0.0
  0
LINE
  5
109
330
1F
100
AcDbEntity
  8
0-0
  6
Continuous
 62
     3
370
     9
100
AcDbLine
 10
224.7345372792836
 20
14.96603640994525
 30
0.0
 11
227.4385844050227
 21
14.51719294367626
 31
0.0
  0
LINE
  5
10A
330
1F
100
AcDbEntity
  8
0-0
  6
Continuous
 62
     3
370
     9
100
AcDbLine
 10
224.7345372792836
 20
-1.03391740128788
 30
0.0
 11
227.4385844050227
 21
-0.5849254711253025
 31
0.0
  0
LINE
  5
10B
330
1F
100
AcDbEntity
  8
0-2
  6
Continuous
 62
     4
370
     9
100
AcDbLine
 10
244.6341921832111
 20
10.46598444758251
 30
0.0
 11
270.2347863687052
 21
10.46598444758251
 31
0.0
  0
LINE
  5
10C
330
1F
100
AcDbEntity
  8
0-2
  6
Continuous
 62
     4
370
     9
100
AcDbLine
 10
244.6341921832111
 20
3.466134561074853
 30
0.0
 11
270.2347863687052
 21
3.466134561074853
 31
0.0
  0
LINE
  5
10D
330
1F
100
AcDbEntity
  8
0-2
  6
JWW_CENTER1
 62
     6
370
     5
100
AcDbLine
 10
209.9859113950989
 20
6.966059504328683
 30
0.0
 11
422.7324439383842
 21
6.966059504328683
 31
0.0
  0
LINE
  5
10E
330
1F
100
AcDbEntity
  8
0-0
  6
Continuous
 62
     3
370
     9
100
AcDbLine
 10
224.7345372792836
 20
-37.6117834142735
 30
0.0
 11
224.7345372792836
 21
3.764769683013299
 31
0.0
  0
LINE
  5
10F
330
1F
100
AcDbEntity
  8
0-0
  6
Continuous
 62
     3
370
     9
100
AcDbLine
 10
224.7345372792836
 20
10.16734932564424
 30
0.0
 11
224.7345372792836
 21
51.54397665487767
 31
0.0
  0
LINE
  5
110
330
1F
100
AcDbEntity
  8
0-0
  6
Continuous
 62
     3
370
     9
100
AcDbLine
 10
239.7345867672483
 20
-8.758122624577567
 30
0.0
 11
239.7345867672483
 21
-15.63214936127514
 31
0.0
  0
LINE
  5
111
330
1F
100
AcDbEntity
  8
0-E
  6
Continuous
 62
     7
370
     9
100
AcDbLine
 10
294.7345207832955
 20
-2.034044420396867
 30
0.0
 11
300.2133580800648
 21
-9.174229802311942
 31
0.0
  0
LINE
  5
112
330
1F
100
AcDbEntity
  8
0-E
  6
Continuous
 62
     7
370
     9
100
AcDbLine
 10
294.7345207832955
 20
-2.034044420396867
 30
0.0
 11
298.1786604185364
 21
-10.34895036027226
 31
0.0
  0
LINE
  5
113
330
1F
100
AcDbEntity
  8
0-1
  6
Continuous
 62
     2
370
     9
100
AcDbLine
 10
228.9581123558252
 20
-39.60454002586562
 30
0.0
 11
235.7344498505464
 21
-38.3339489086253
 31
0.0
  0
LINE
  5
114
330
1F
100
AcDbEntity
  8
0-1
  6
Continuous
 62
     2
370
     9
100
AcDbLine
 10
226.9403395781645
 20
-89.07512190535249
 30
0.0
 11
235.7344498505464
 21
-90.83393653663421
 31
0.0
  0
LINE
  5
115
330
1F
100
AcDbEntity
  8
0-1
  6
Continuous
 62
     2
370
     9
100
AcDbLine
 10
225.7345158344992
 20
-81.4552867992503
 30
0.0
 11
225.7345158344992
 21
-87.60425299567132
 31
0.0
  0
LINE
  5
116
330
1F
100
AcDbEntity
  8
0-1
  6
Continuous
 62
     2
370
     9
100
AcDbLine
 10
227.2951682838233
 20
-79.27327583931577
 30
0.0
 11
226.1738204956055
 21
-80.39462362753358
 31
0.0
  0
LINE
  5
117
330
1F
100
AcDbEntity
  8
0-1
  6
Continuous
 62
     2
370
     9
100
AcDbLine
 10
223.3547138523411
 20
-68.7864544842692
 30
0.0
 11
213.0484245918892
 21
-67.49823327966624
 31
0.0
  0
LINE
  5
118
330
1F
100
AcDbEntity
  8
0-1
  6
Continuous
 62
     2
370
     9
100
AcDbLine
 10
227.7345471768767
 20
-73.74789511190858
 30
0.0
 11
227.7345471768767
 21
-78.21264978357249
 31
0.0
  0
LINE
  5
119
330
1F
100
AcDbEntity
  8
0-1
  6
Continuous
 62
     2
370
     9
100
AcDbLine
 10
225.982599000673
 20
-58.55294964764562
 30
0.0
 11
213.0484245918892
 21
-60.16972144874359
 31
0.0
  0
LINE
  5
11A
330
1F
100
AcDbEntity
  8
0-1
  6
Continuous
 62
     2
370
     9
100
AcDbLine
 10
-364.9141641565271
 20
-70.83377157675233
 30
0.0
 11
-364.9141641565271
 21
-76.83375425596483
 31
0.0
  0
LINE
  5
11B
330
1F
100
AcDbEntity
  8
0-1
  6
Continuous
 62
     2
370
     9
100
AcDbLine
 10
-366.9141954989046
 20
-76.83375425596483
 30
0.0
 11
-366.9141954989046
 21
-70.83377157675233
 31
0.0
  0
LINE
  5
11C
330
1F
100
AcDbEntity
  8
0-1
  6
JWW_CENTER1
 62
     2
370
     9
100
AcDbLine
 10
-375.1612163234401
 20
-80.83392828864007
 30
0.0
 11
-398.6560172003669
 21
-80.83400252058686
 31
0.0
  0
LINE
  5
11D
330
1F
100
AcDbEntity
  8
0-1
  6
Continuous
 62
     2
370
     9
100
AcDbLine
 10
-408.9777467057512
 20
-67.83387302707968
 30
0.0
 11
-364.8506216100744
 21
-67.83379879513288
 31
0.0
  0
LINE
  5
11E
330
1F
100
AcDbEntity
  8
0-1
  6
JWW_CENTER1
 62
     2
370
     9
100
AcDbLine
 10
-386.9142119948928
 20
-69.85925457928624
 30
0.0
 11
-386.914137762946
 21
-89.5932980099239
 31
0.0
  0
LINE
  5
11F
330
1F
100
AcDbEntity
  8
0-1
  6
Continuous
 62
     2
370
     9
100
AcDbLine
 10
-396.4141752913191
 20
-86.83383673590569
 30
0.0
 11
-396.4141752913191
 21
-80.83400252058686
 31
0.0
  0
LINE
  5
120
330
1F
100
AcDbEntity
  8
0-1
  6
Continuous
 62
     2
370
     9
100
AcDbLine
 10
-394.4141996229017
 20
-80.83400252058686
 30
0.0
 11
-394.414181064915
 21
-86.83383673590569
 31
0.0
  0
LINE
  5
121
330
1F
100
AcDbEntity
  8
0-1
  6
Continuous
 62
     2
370
     9
100
AcDbLine
 10
-379.4141872509106
 20
-80.83389117266671
 30
0.0
 11
-379.4141872509106
 21
-86.83379961993234
 31
0.0
  0
LINE
  5
122
330
1F
100
AcDbEntity
  8
0-1
  6
Continuous
 62
     2
370
     9
100
AcDbLine
 10
-377.4141559085331
 20
-86.83379961993234
 30
0.0
 11
-377.4141559085331
 21
-80.83389117266671
 31
0.0
  0
LINE
  5
123
330
1F
100
AcDbEntity
  8
0-1
  6
Continuous
 62
     2
370
     9
100
AcDbLine
 10
-469.414224366884
 20
33.66610305373743
 30
0.0
 11
-475.4141884881097
 21
33.66610305373743
 31
0.0
  0
LINE
  5
124
330
1F
100
AcDbEntity
  8
0-1
  6
Continuous
 62
     2
370
     9
100
AcDbLine
 10
-475.4141884881097
 20
31.66607171135993
 30
0.0
 11
-469.414224366884
 21
31.66607171135993
 31
0.0
  0
LINE
  5
125
330
1F
100
AcDbEntity
  8
0-1
  6
JWW_CENTER1
 62
     2
370
     9
100
AcDbLine
 10
-479.4143996367584
 20
23.41905088682455
 30
0.0
 11
-479.4143996367584
 21
-0.0758056640623295
 31
0.0
  0
LINE
  5
126
330
1F
100
AcDbEntity
  8
0-1
  6
Continuous
 62
     2
370
     9
100
AcDbLine
 10
-469.414224366884
 20
-10.33399262299389
 30
0.0
 11
-475.4141884881097
 21
-10.33391839104718
 31
0.0
  0
LINE
  5
127
330
1F
100
AcDbEntity
  8
0-1
  6
Continuous
 62
     2
370
     9
100
AcDbLine
 10
-475.4141884881097
 20
-8.333961280616393
 30
0.0
 11
-469.414224366884
 21
-8.333961280616393
 31
0.0
  0
LINE
  5
128
330
1F
100
AcDbEntity
  8
0-1
  6
Continuous
 62
     2
370
     9
100
AcDbLine
 10
-466.414214469291
 20
-10.39746093749983
 30
0.0
 11
-466.414214469291
 21
33.72957136824337
 31
0.0
  0
LINE
  5
129
330
1F
100
AcDbEntity
  8
0-1
  6
JWW_CENTER1
 62
     2
370
     9
100
AcDbLine
 10
-468.4396702534444
 20
11.66605521537173
 30
0.0
 11
-488.1736765681086
 21
11.66605521537173
 31
0.0
  0
LINE
  5
12A
330
1F
100
AcDbEntity
  8
0-1
  6
Continuous
 62
     2
370
     9
100
AcDbLine
 10
-485.4142338520772
 20
2.166073360958762
 30
0.0
 11
-479.4143996367584
 21
2.166073360958762
 31
0.0
  0
LINE
  5
12B
330
1F
100
AcDbEntity
  8
0-1
  6
Continuous
 62
     2
370
     9
100
AcDbLine
 10
-479.4143996367584
 20
4.166030471389547
 30
0.0
 11
-485.4142338520772
 21
4.166104703336259
 31
0.0
  0
LINE
  5
12C
330
1F
100
AcDbEntity
  8
0-1
  6
Continuous
 62
     2
370
     9
100
AcDbLine
 10
-479.4143254048116
 20
19.16607995935399
 30
0.0
 11
-485.4142338520772
 21
19.16607995935399
 31
0.0
  0
LINE
  5
12D
330
1F
100
AcDbEntity
  8
0-1
  6
Continuous
 62
     2
370
     9
100
AcDbLine
 10
-485.4142338520772
 20
21.16611130173158
 30
0.0
 11
-479.4143254048116
 21
21.16603706978486
 31
0.0
  0
LINE
  5
12E
330
1F
100
AcDbEntity
  8
0-1
  6
Continuous
 62
     2
370
     9
100
AcDbLine
 10
-469.9143621083853
 20
59.6660651129647
 30
0.0
 11
-475.4144668579102
 21
59.6660651129647
 31
0.0
  0
LINE
  5
12F
330
1F
100
AcDbEntity
  8
0-1
  6
Continuous
 62
     2
370
     9
100
AcDbLine
 10
-467.9142008601008
 20
35.66613439611501
 30
0.0
 11
-467.9142008601008
 21
57.66603377058712
 31
0.0
  0
LINE
  5
130
330
1F
100
AcDbEntity
  8
0-1
  6
Continuous
 62
     2
370
     9
100
AcDbLine
 10
-469.9143621083853
 20
61.66602222339544
 30
0.0
 11
-475.4144668579102
 21
61.66602222339544
 31
0.0
  0
LINE
  5
131
330
1F
100
AcDbEntity
  8
0-1
  6
Continuous
 62
     2
370
     9
100
AcDbLine
 10
-466.414214469291
 20
59.60222563872482
 30
0.0
 11
-466.414214469291
 21
163.7298270560601
 31
0.0
  0
LINE
  5
132
330
1F
100
AcDbEntity
  8
0-1
  6
Continuous
 62
     2
370
     9
100
AcDbLine
 10
-479.4143996367584
 20
57.66603377058712
 30
0.0
 11
-479.4143996367584
 21
35.6660601641683
 31
0.0
  0
LINE
  5
133
330
1F
100
AcDbEntity
  8
0-1
  6
Continuous
 62
     2
370
     9
100
AcDbLine
 10
-477.4143682943808
 20
35.6660601641683
 30
0.0
 11
-477.4143682943808
 21
57.66603377058712
 31
0.0
  0
LINE
  5
134
330
1F
100
AcDbEntity
  8
0-1
  6
Continuous
 62
     2
370
     9
100
AcDbLine
 10
-489.4145192326725
 20
111.6660634633659
 30
0.0
 11
-489.414370768779
 21
23.16606841216236
 31
0.0
  0
LINE
  5
135
330
1F
100
AcDbEntity
  8
0-1
  6
Continuous
 62
     2
370
     9
100
AcDbLine
 10
-487.4145621222419
 20
111.6660634633659
 30
0.0
 11
-487.4144136583483
 21
23.16606841216236
 31
0.0
  0
LINE
  5
136
330
1F
100
AcDbEntity
  8
0-1
  6
Continuous
 62
     2
370
     9
100
AcDbLine
 10
-408.9142041592984
 20
-71.3338722022803
 30
0.0
 11
-408.9142041592984
 21
-76.83382848791163
 31
0.0
  0
LINE
  5
137
330
1F
100
AcDbEntity
  8
0-1
  6
Continuous
 62
     2
370
     9
100
AcDbLine
 10
-406.9141728169209
 20
-76.83382848791163
 30
0.0
 11
-406.9142099328943
 21
-71.3338722022803
 31
0.0
  0
LINE
  5
138
330
1F
100
AcDbEntity
  8
0-1
  6
Continuous
 62
     2
370
     9
100
AcDbLine
 10
-465.9142251916834
 20
-60.33395963101765
 30
0.0
 11
-465.9145777934306
 21
111.6660634633659
 31
0.0
  0
LINE
  5
139
330
1F
100
AcDbEntity
  8
0-1
  6
Continuous
 62
     2
370
     9
100
AcDbLine
 10
-410.914235501676
 20
-69.33391509184952
 30
0.0
 11
-458.9142268412822
 21
-69.33391509184952
 31
0.0
  0
LINE
  5
13A
330
1F
100
AcDbEntity
  8
0-1
  6
Continuous
 62
     2
370
     9
100
AcDbLine
 10
-467.9143307660078
 20
-12.33394973342467
 30
0.0
 11
-467.9142008601008
 21
-60.33392251504421
 31
0.0
  0
LINE
  5
13B
330
1F
100
AcDbEntity
  8
0-1
  6
Continuous
 62
     2
370
     9
100
AcDbLine
 10
-479.4143254048116
 20
-12.33394973342467
 30
0.0
 11
-479.4142697308515
 21
-58.83395468222108
 31
0.0
  0
LINE
  5
13C
330
1F
100
AcDbEntity
  8
0-1
  6
Continuous
 62
     2
370
     9
100
AcDbLine
 10
-477.4142198304872
 20
-58.83395468222108
 30
0.0
 11
-477.414294062434
 21
-12.33394973342467
 31
0.0
  0
LINE
  5
13D
330
1F
100
AcDbEntity
  8
0-1
  6
Continuous
 62
     2
370
     9
100
AcDbLine
 10
-398.4142066336967
 20
-90.83393653663421
 30
0.0
 11
-457.4141847765123
 21
-90.83393653663421
 31
0.0
  0
LINE
  5
13E
330
1F
100
AcDbEntity
  8
0-1
  6
Continuous
 62
     2
370
     9
100
AcDbLine
 10
-398.4142066336967
 20
-88.83394231022999
 30
0.0
 11
-457.4141847765123
 21
-88.83394231022999
 31
0.0
  0
LINE
  5
13F
330
1F
100
AcDbEntity
  8
0-1
  6
Continuous
 62
     2
370
     9
100
AcDbLine
 10
-489.4143150948189
 20
0.1660420185811802
 30
0.0
 11
-489.4142408628721
 21
-58.83395468222108
 31
0.0
  0
LINE
  5
140
330
1F
100
AcDbEntity
  8
0-1
  6
Continuous
 62
     2
370
     9
100
AcDbLine
 10
-487.4143394264015
 20
0.1660420185811802
 30
0.0
 11
-487.4142651944547
 21
-58.83395468222108
 31
0.0
  0
LINE
  5
141
330
1F
100
AcDbEntity
  8
0-1
  6
Continuous
 62
     2
370
     9
100
AcDbLine
 10
-458.9142268412822
 20
278.6660453177789
 30
0.0
 11
-458.9142268412822
 21
-55.33391839104718
 31
0.0
  0
LINE
  5
142
330
1F
100
AcDbEntity
  8
0-1
  6
Continuous
 62
     2
370
     9
100
AcDbLine
 10
-364.9141641565271
 20
294.1658985034841
 30
0.0
 11
-364.9141641565271
 21
300.1658440667231
 31
0.0
  0
LINE
  5
143
330
1F
100
AcDbEntity
  8
0-1
  6
Continuous
 62
     2
370
     9
100
AcDbLine
 10
-366.9141954989046
 20
300.1658440667231
 30
0.0
 11
-366.9141954989046
 21
294.1658985034841
 31
0.0
  0
LINE
  5
144
330
1F
100
AcDbEntity
  8
0-1
  6
JWW_CENTER1
 62
     2
370
     9
100
AcDbLine
 10
-375.1612163234401
 20
304.1660552153717
 30
0.0
 11
-398.6560172003669
 21
304.1660552153717
 31
0.0
  0
LINE
  5
145
330
1F
100
AcDbEntity
  8
0-1
  6
Continuous
 62
     2
370
     9
100
AcDbLine
 10
-408.9777467057512
 20
291.165962837838
 30
0.0
 11
-364.8506216100744
 21
291.1658886058912
 31
0.0
  0
LINE
  5
146
330
1F
100
AcDbEntity
  8
0-1
  6
JWW_CENTER1
 62
     2
370
     9
100
AcDbLine
 10
-386.9142119948928
 20
293.1913815060179
 30
0.0
 11
-386.914137762946
 21
312.9254249366555
 31
0.0
  0
LINE
  5
147
330
1F
100
AcDbEntity
  8
0-1
  6
Continuous
 62
     2
370
     9
100
AcDbLine
 10
-396.4141752913191
 20
310.165926546664
 30
0.0
 11
-396.4141752913191
 21
304.1660552153717
 31
0.0
  0
LINE
  5
148
330
1F
100
AcDbEntity
  8
0-1
  6
Continuous
 62
     2
370
     9
100
AcDbLine
 10
-394.4141996229017
 20
304.1660552153717
 30
0.0
 11
-394.414181064915
 21
310.165926546664
 31
0.0
  0
LINE
  5
149
330
1F
100
AcDbEntity
  8
0-1
  6
Continuous
 62
     2
370
     9
100
AcDbLine
 10
-379.4141872509106
 20
304.165980983425
 30
0.0
 11
-379.4141872509106
 21
310.165926546664
 31
0.0
  0
LINE
  5
14A
330
1F
100
AcDbEntity
  8
0-1
  6
Continuous
 62
     2
370
     9
100
AcDbLine
 10
-377.4141559085331
 20
310.165926546664
 30
0.0
 11
-377.4141559085331
 21
304.165980983425
 31
0.0
  0
LINE
  5
14B
330
1F
100
AcDbEntity
  8
0-1
  6
Continuous
 62
     2
370
     9
100
AcDbLine
 10
-469.414224366884
 20
189.6660238729942
 30
0.0
 11
-475.4141884881097
 21
189.6660238729942
 31
0.0
  0
LINE
  5
14C
330
1F
100
AcDbEntity
  8
0-1
  6
Continuous
 62
     2
370
     9
100
AcDbLine
 10
-475.4141884881097
 20
191.6660552153717
 30
0.0
 11
-469.414224366884
 21
191.6660552153717
 31
0.0
  0
LINE
  5
14D
330
1F
100
AcDbEntity
  8
0-1
  6
JWW_CENTER1
 62
     2
370
     9
100
AcDbLine
 10
-479.4143996367584
 20
199.9130760399072
 30
0.0
 11
-479.4143996367584
 21
223.4079325907941
 31
0.0
  0
LINE
  5
14E
330
1F
100
AcDbEntity
  8
0-1
  6
Continuous
 62
     2
370
     9
100
AcDbLine
 10
-469.414224366884
 20
233.6660453177788
 30
0.0
 11
-475.4141884881097
 21
233.6660453177788
 31
0.0
  0
LINE
  5
14F
330
1F
100
AcDbEntity
  8
0-1
  6
Continuous
 62
     2
370
     9
100
AcDbLine
 10
-475.4141884881097
 20
231.6660139754013
 30
0.0
 11
-469.414224366884
 21
231.6660139754013
 31
0.0
  0
LINE
  5
150
330
1F
100
AcDbEntity
  8
0-1
  6
Continuous
 62
     2
370
     9
100
AcDbLine
 10
-466.414214469291
 20
233.7295878642316
 30
0.0
 11
-466.414214469291
 21
189.6025555584883
 31
0.0
  0
LINE
  5
151
330
1F
100
AcDbEntity
  8
0-1
  6
JWW_CENTER1
 62
     2
370
     9
100
AcDbLine
 10
-468.4396702534444
 20
211.6660717113599
 30
0.0
 11
-488.1736765681086
 21
211.6660717113599
 31
0.0
  0
LINE
  5
152
330
1F
100
AcDbEntity
  8
0-1
  6
Continuous
 62
     2
370
     9
100
AcDbLine
 10
-485.4142338520772
 20
221.166053565773
 30
0.0
 11
-479.4143996367584
 21
221.166053565773
 31
0.0
  0
LINE
  5
153
330
1F
100
AcDbEntity
  8
0-1
  6
Continuous
 62
     2
370
     9
100
AcDbLine
 10
-479.4143996367584
 20
219.1660222233954
 30
0.0
 11
-485.4142338520772
 21
219.1660222233954
 31
0.0
  0
LINE
  5
154
330
1F
100
AcDbEntity
  8
0-1
  6
Continuous
 62
     2
370
     9
100
AcDbLine
 10
-479.4143254048116
 20
204.1660469673777
 30
0.0
 11
-485.4142338520772
 21
204.1660469673777
 31
0.0
  0
LINE
  5
155
330
1F
100
AcDbEntity
  8
0-1
  6
Continuous
 62
     2
370
     9
100
AcDbLine
 10
-485.4142338520772
 20
202.1660156250002
 30
0.0
 11
-479.4143254048116
 21
202.1660156250002
 31
0.0
  0
LINE
  5
156
330
1F
100
AcDbEntity
  8
0-1
  6
Continuous
 62
     2
370
     9
100
AcDbLine
 10
-469.9143621083853
 20
163.666061813767
 30
0.0
 11
-475.4144668579102
 21
163.666061813767
 31
0.0
  0
LINE
  5
157
330
1F
100
AcDbEntity
  8
0-1
  6
Continuous
 62
     2
370
     9
100
AcDbLine
 10
-467.9142008601008
 20
187.6659925306167
 30
0.0
 11
-467.9142008601008
 21
165.6660931561445
 31
0.0
  0
LINE
  5
158
330
1F
100
AcDbEntity
  8
0-1
  6
Continuous
 62
     2
370
     9
100
AcDbLine
 10
-469.9143621083853
 20
161.6660304713895
 30
0.0
 11
-475.4144668579102
 21
161.6660304713895
 31
0.0
  0
LINE
  5
159
330
1F
100
AcDbEntity
  8
0-1
  6
Continuous
 62
     2
370
     9
100
AcDbLine
 10
-479.4143996367584
 20
165.6660931561445
 30
0.0
 11
-479.4143996367584
 21
187.6660667625634
 31
0.0
  0
LINE
  5
15A
330
1F
100
AcDbEntity
  8
0-1
  6
Continuous
 62
     2
370
     9
100
AcDbLine
 10
-477.4143682943808
 20
187.6659925306167
 30
0.0
 11
-477.4143682943808
 21
165.6660931561445
 31
0.0
  0
LINE
  5
15B
330
1F
100
AcDbEntity
  8
0-1
  6
Continuous
 62
     2
370
     9
100
AcDbLine
 10
-489.4145192326725
 20
111.6660634633659
 30
0.0
 11
-489.414370768779
 21
200.1660585145694
 31
0.0
  0
LINE
  5
15C
330
1F
100
AcDbEntity
  8
0-1
  6
Continuous
 62
     2
370
     9
100
AcDbLine
 10
-487.4145621222419
 20
111.6660634633659
 30
0.0
 11
-487.4144136583483
 21
200.1660585145694
 31
0.0
  0
LINE
  5
15D
330
1F
100
AcDbEntity
  8
0-1
  6
Continuous
 62
     2
370
     9
100
AcDbLine
 10
-408.9142041592984
 20
294.6659248970652
 30
0.0
 11
-408.9142041592984
 21
300.1659182986699
 31
0.0
  0
LINE
  5
15E
330
1F
100
AcDbEntity
  8
0-1
  6
Continuous
 62
     2
370
     9
100
AcDbLine
 10
-406.9141728169209
 20
300.1659182986699
 30
0.0
 11
-406.9142099328943
 21
294.6659248970652
 31
0.0
  0
LINE
  5
15F
330
1F
100
AcDbEntity
  8
0-1
  6
Continuous
 62
     2
370
     9
100
AcDbLine
 10
-465.9142251916834
 20
283.6660865577493
 30
0.0
 11
-465.9145777934306
 21
111.6660634633659
 31
0.0
  0
LINE
  5
160
330
1F
100
AcDbEntity
  8
0-1
  6
Continuous
 62
     2
370
     9
100
AcDbLine
 10
-410.914235501676
 20
292.6660420185813
 30
0.0
 11
-458.9142268412822
 21
292.6660420185813
 31
0.0
  0
LINE
  5
161
330
1F
100
AcDbEntity
  8
0-1
  6
Continuous
 62
     2
370
     9
100
AcDbLine
 10
-467.9143307660078
 20
235.6660766601564
 30
0.0
 11
-467.9142008601008
 21
283.6660123258025
 31
0.0
  0
LINE
  5
162
330
1F
100
AcDbEntity
  8
0-1
  6
Continuous
 62
     2
370
     9
100
AcDbLine
 10
-410.914235501676
 20
304.1660552153717
 30
0.0
 11
-457.4141847765123
 21
304.1660552153717
 31
0.0
  0
LINE
  5
163
330
1F
100
AcDbEntity
  8
0-1
  6
Continuous
 62
     2
370
     9
100
AcDbLine
 10
-479.4143254048116
 20
235.6660766601564
 30
0.0
 11
-479.4142697308515
 21
282.1660816089528
 31
0.0
  0
LINE
  5
164
330
1F
100
AcDbEntity
  8
0-1
  6
Continuous
 62
     2
370
     9
100
AcDbLine
 10
-477.4142198304872
 20
282.1660816089528
 30
0.0
 11
-477.414294062434
 21
235.6660766601564
 31
0.0
  0
LINE
  5
165
330
1F
100
AcDbEntity
  8
0-1
  6
Continuous
 62
     2
370
     9
100
AcDbLine
 10
-457.4141847765123
 20
302.1660238729942
 30
0.0
 11
-410.914235501676
 21
302.1660238729942
 31
0.0
  0
LINE
  5
166
330
1F
100
AcDbEntity
  8
0-1
  6
Continuous
 62
     2
370
     9
100
AcDbLine
 10
-398.4142066336967
 20
314.1660634633658
 30
0.0
 11
-457.4141847765123
 21
314.1660634633658
 31
0.0
  0
LINE
  5
167
330
1F
100
AcDbEntity
  8
0-1
  6
Continuous
 62
     2
370
     9
100
AcDbLine
 10
-398.4142066336967
 20
312.1660321209883
 30
0.0
 11
-457.4141847765123
 21
312.1660321209883
 31
0.0
  0
LINE
  5
168
330
1F
100
AcDbEntity
  8
0-1
  6
Continuous
 62
     2
370
     9
100
AcDbLine
 10
-489.4143150948189
 20
223.1660849081505
 30
0.0
 11
-489.4142408628721
 21
282.1660816089528
 31
0.0
  0
LINE
  5
169
330
1F
100
AcDbEntity
  8
0-1
  6
Continuous
 62
     2
370
     9
100
AcDbLine
 10
-487.4143394264015
 20
223.1660849081505
 30
0.0
 11
-487.4142651944547
 21
282.1660816089528
 31
0.0
  0
LINE
  5
16A
330
1F
100
AcDbEntity
  8
0-1
  6
Continuous
 62
     2
370
     9
100
AcDbLine
 10
-114.914254884462
 20
-55.33391839104718
 30
0.0
 11
-114.914254884462
 21
278.6660453177789
 31
0.0
  0
LINE
  5
16B
330
1F
100
AcDbEntity
  8
0-1
  6
Continuous
 62
     2
370
     9
100
AcDbLine
 10
-208.9143175692171
 20
-70.83377157675233
 30
0.0
 11
-208.9143175692171
 21
-76.83375425596483
 31
0.0
  0
LINE
  5
16C
330
1F
100
AcDbEntity
  8
0-1
  6
Continuous
 62
     2
370
     9
100
AcDbLine
 10
-206.9142862268396
 20
-76.83375425596483
 30
0.0
 11
-206.9142862268396
 21
-70.83377157675233
 31
0.0
  0
LINE
  5
16D
330
1F
100
AcDbEntity
  8
0-1
  6
JWW_CENTER1
 62
     2
370
     9
100
AcDbLine
 10
-198.6672654023041
 20
-80.83392828864007
 30
0.0
 11
-175.1724830833641
 21
-80.83400252058686
 31
0.0
  0
LINE
  5
16E
330
1F
100
AcDbEntity
  8
0-1
  6
Continuous
 62
     2
370
     9
100
AcDbLine
 10
-164.8507535779798
 20
-67.83387302707968
 30
0.0
 11
-208.9777858837231
 21
-67.83379879513288
 31
0.0
  0
LINE
  5
16F
330
1F
100
AcDbEntity
  8
0-1
  6
JWW_CENTER1
 62
     2
370
     9
100
AcDbLine
 10
-186.9142697308514
 20
-69.85925457928624
 30
0.0
 11
-186.9143439627982
 21
-89.5932980099239
 31
0.0
  0
LINE
  5
170
330
1F
100
AcDbEntity
  8
0-1
  6
Continuous
 62
     2
370
     9
100
AcDbLine
 10
-177.4142878764384
 20
-86.83383673590569
 30
0.0
 11
-177.4142878764384
 21
-80.83400252058686
 31
0.0
  0
LINE
  5
171
330
1F
100
AcDbEntity
  8
0-1
  6
Continuous
 62
     2
370
     9
100
AcDbLine
 10
-179.4142449868691
 20
-80.83400252058686
 30
0.0
 11
-179.4143192188159
 21
-86.83383673590569
 31
0.0
  0
LINE
  5
172
330
1F
100
AcDbEntity
  8
0-1
  6
Continuous
 62
     2
370
     9
100
AcDbLine
 10
-194.4142944748338
 20
-80.83389117266671
 30
0.0
 11
-194.4142944748338
 21
-86.83379961993234
 31
0.0
  0
LINE
  5
173
330
1F
100
AcDbEntity
  8
0-1
  6
Continuous
 62
     2
370
     9
100
AcDbLine
 10
-196.4143258172112
 20
-86.83379961993234
 30
0.0
 11
-196.4143258172112
 21
-80.83389117266671
 31
0.0
  0
LINE
  5
174
330
1F
100
AcDbEntity
  8
0-1
  6
Continuous
 62
     2
370
     9
100
AcDbLine
 10
-104.4142944748338
 20
33.66610305373743
 30
0.0
 11
-98.41427467964789
 21
33.66610305373743
 31
0.0
  0
LINE
  5
175
330
1F
100
AcDbEntity
  8
0-1
  6
Continuous
 62
     2
370
     9
100
AcDbLine
 10
-98.41427467964789
 20
31.66607171135993
 30
0.0
 11
-104.4142944748338
 21
31.66607171135993
 31
0.0
  0
LINE
  5
176
330
1F
100
AcDbEntity
  8
0-1
  6
JWW_CENTER1
 62
     2
370
     9
100
AcDbLine
 10
-94.41406353099921
 20
23.41905088682455
 30
0.0
 11
-94.41406353099921
 21
-0.0758056640623295
 31
0.0
  0
LINE
  5
177
330
1F
100
AcDbEntity
  8
0-1
  6
Continuous
 62
     2
370
     9
100
AcDbLine
 10
-104.4142944748338
 20
-10.33399262299389
 30
0.0
 11
-98.41427467964789
 21
-10.33391839104718
 31
0.0
  0
LINE
  5
178
330
1F
100
AcDbEntity
  8
0-1
  6
Continuous
 62
     2
370
     9
100
AcDbLine
 10
-98.41427467964789
 20
-8.333961280616393
 30
0.0
 11
-104.4142944748338
 21
-8.333961280616393
 31
0.0
  0
LINE
  5
179
330
1F
100
AcDbEntity
  8
0-1
  6
Continuous
 62
     2
370
     9
100
AcDbLine
 10
-107.4142301404798
 20
-10.39746093749983
 30
0.0
 11
-107.4142301404798
 21
33.72957136824337
 31
0.0
  0
LINE
  5
17A
330
1F
100
AcDbEntity
  8
0-1
  6
JWW_CENTER1
 62
     2
370
     9
100
AcDbLine
 10
-105.3888114723
 20
11.66605521537173
 30
0.0
 11
-85.65484227360906
 21
11.66605521537173
 31
0.0
  0
LINE
  5
17B
330
1F
100
AcDbEntity
  8
0-1
  6
Continuous
 62
     2
370
     9
100
AcDbLine
 10
-88.41426643165374
 20
2.166073360958762
 30
0.0
 11
-94.41406353099921
 21
2.166073360958762
 31
0.0
  0
LINE
  5
17C
330
1F
100
AcDbEntity
  8
0-1
  6
Continuous
 62
     2
370
     9
100
AcDbLine
 10
-94.41406353099921
 20
4.166030471389547
 30
0.0
 11
-88.41426643165374
 21
4.166104703336259
 31
0.0
  0
LINE
  5
17D
330
1F
100
AcDbEntity
  8
0-1
  6
Continuous
 62
     2
370
     9
100
AcDbLine
 10
-94.41413776294601
 20
19.16607995935399
 30
0.0
 11
-88.41426643165374
 21
19.16607995935399
 31
0.0
  0
LINE
  5
17E
330
1F
100
AcDbEntity
  8
0-1
  6
Continuous
 62
     2
370
     9
100
AcDbLine
 10
-88.41426643165374
 20
21.16611130173158
 30
0.0
 11
-94.41413776294601
 21
21.16603706978486
 31
0.0
  0
LINE
  5
17F
330
1F
100
AcDbEntity
  8
0-1
  6
Continuous
 62
     2
370
     9
100
AcDbLine
 10
-103.9141196173591
 20
59.6660651129647
 30
0.0
 11
-98.4139777518607
 21
59.6660651129647
 31
0.0
  0
LINE
  5
180
330
1F
100
AcDbEntity
  8
0-1
  6
Continuous
 62
     2
370
     9
100
AcDbLine
 10
-105.9142994236302
 20
35.66613439611501
 30
0.0
 11
-105.9142994236302
 21
57.66603377058712
 31
0.0
  0
LINE
  5
181
330
1F
100
AcDbEntity
  8
0-1
  6
Continuous
 62
     2
370
     9
100
AcDbLine
 10
-103.9141196173591
 20
61.66602222339544
 30
0.0
 11
-98.4139777518607
 21
61.66602222339544
 31
0.0
  0
LINE
  5
182
330
1F
100
AcDbEntity
  8
0-1
  6
Continuous
 62
     2
370
     9
100
AcDbLine
 10
-107.4142301404798
 20
59.60222563872482
 30
0.0
 11
-107.4142301404798
 21
163.7298270560601
 31
0.0
  0
LINE
  5
183
330
1F
100
AcDbEntity
  8
0-1
  6
Continuous
 62
     2
370
     9
100
AcDbLine
 10
-94.41406353099921
 20
57.66603377058712
 30
0.0
 11
-94.41406353099921
 21
35.6660601641683
 31
0.0
  0
LINE
  5
184
330
1F
100
AcDbEntity
  8
0-1
  6
Continuous
 62
     2
370
     9
100
AcDbLine
 10
-96.41409487337688
 20
35.6660601641683
 30
0.0
 11
-96.41409487337688
 21
57.66603377058712
 31
0.0
  0
LINE
  5
185
330
1F
100
AcDbEntity
  8
0-1
  6
Continuous
 62
     2
370
     9
100
AcDbLine
 10
-84.41398105105844
 20
111.6660634633659
 30
0.0
 11
-84.41412951495195
 21
23.16606841216236
 31
0.0
  0
LINE
  5
186
330
1F
100
AcDbEntity
  8
0-1
  6
Continuous
 62
     2
370
     9
100
AcDbLine
 10
-86.41393816148906
 20
111.6660634633659
 30
0.0
 11
-86.41408662538265
 21
23.16606841216236
 31
0.0
  0
LINE
  5
187
330
1F
100
AcDbEntity
  8
0-1
  6
Continuous
 62
     2
370
     9
100
AcDbLine
 10
-164.9142961244325
 20
-71.3338722022803
 30
0.0
 11
-164.9142961244325
 21
-76.83382848791163
 31
0.0
  0
LINE
  5
188
330
1F
100
AcDbEntity
  8
0-1
  6
Continuous
 62
     2
370
     9
100
AcDbLine
 10
-166.9143274668101
 20
-76.83382848791163
 30
0.0
 11
-166.9142532348633
 21
-71.3338722022803
 31
0.0
  0
LINE
  5
189
330
1F
100
AcDbEntity
  8
0-1
  6
Continuous
 62
     2
370
     9
100
AcDbLine
 10
-107.9142565340609
 20
-60.33395963101765
 30
0.0
 11
-107.913885374327
 21
111.6660634633659
 31
0.0
  0
LINE
  5
18A
330
1F
100
AcDbEntity
  8
0-1
  6
Continuous
 62
     2
370
     9
100
AcDbLine
 10
-162.914264782055
 20
-69.33391509184952
 30
0.0
 11
-114.914254884462
 21
-69.33391509184952
 31
0.0
  0
LINE
  5
18B
330
1F
100
AcDbEntity
  8
0-1
  6
Continuous
 62
     2
370
     9
100
AcDbLine
 10
-105.9141509597366
 20
-12.33394973342467
 30
0.0
 11
-105.9142994236302
 21
-60.33392251504421
 31
0.0
  0
LINE
  5
18C
330
1F
100
AcDbEntity
  8
0-1
  6
Continuous
 62
     2
370
     9
100
AcDbLine
 10
-162.914264782055
 20
-80.83400252058686
 30
0.0
 11
-116.4142598332585
 21
-80.83400252058686
 31
0.0
  0
LINE
  5
18D
330
1F
100
AcDbEntity
  8
0-1
  6
Continuous
 62
     2
370
     9
100
AcDbLine
 10
-94.41413776294601
 20
-12.33394973342467
 30
0.0
 11
-94.41421199489281
 21
-58.83395468222108
 31
0.0
  0
LINE
  5
18E
330
1F
100
AcDbEntity
  8
0-1
  6
Continuous
 62
     2
370
     9
100
AcDbLine
 10
-96.4142433372703
 20
-58.83395468222108
 30
0.0
 11
-96.41416910532351
 21
-12.33394973342467
 31
0.0
  0
LINE
  5
18F
330
1F
100
AcDbEntity
  8
0-1
  6
Continuous
 62
     2
370
     9
100
AcDbLine
 10
-116.4142598332585
 20
-78.83393406223593
 30
0.0
 11
-162.914264782055
 21
-78.83393406223593
 31
0.0
  0
LINE
  5
190
330
1F
100
AcDbEntity
  8
0-1
  6
Continuous
 62
     2
370
     9
100
AcDbLine
 10
-175.4142565340609
 20
-90.83393653663421
 30
0.0
 11
-116.4142598332585
 21
-90.83393653663421
 31
0.0
  0
LINE
  5
191
330
1F
100
AcDbEntity
  8
0-1
  6
Continuous
 62
     2
370
     9
100
AcDbLine
 10
-175.4142565340609
 20
-88.83394231022999
 30
0.0
 11
-116.4142598332585
 21
-88.83394231022999
 31
0.0
  0
LINE
  5
192
330
1F
100
AcDbEntity
  8
0-1
  6
Continuous
 62
     2
370
     9
100
AcDbLine
 10
-84.41412951495195
 20
0.1660420185811802
 30
0.0
 11
-84.41427797884563
 21
-58.83395468222108
 31
0.0
  0
LINE
  5
193
330
1F
100
AcDbEntity
  8
0-1
  6
Continuous
 62
     2
370
     9
100
AcDbLine
 10
-86.41416085732945
 20
0.1660420185811802
 30
0.0
 11
-86.41423508927625
 21
-58.83395468222108
 31
0.0
  0
LINE
  5
194
330
1F
100
AcDbEntity
  8
0-1
  6
Continuous
 62
     2
370
     9
100
AcDbLine
 10
-208.9143175692171
 20
294.1658985034841
 30
0.0
 11
-208.9143175692171
 21
300.1658440667231
 31
0.0
  0
LINE
  5
195
330
1F
100
AcDbEntity
  8
0-1
  6
Continuous
 62
     2
370
     9
100
AcDbLine
 10
-206.9142862268396
 20
300.1658440667231
 30
0.0
 11
-206.9142862268396
 21
294.1658985034841
 31
0.0
  0
LINE
  5
196
330
1F
100
AcDbEntity
  8
0-1
  6
JWW_CENTER1
 62
     2
370
     9
100
AcDbLine
 10
-198.6672654023041
 20
304.1660552153717
 30
0.0
 11
-175.1724830833641
 21
304.1660552153717
 31
0.0
  0
LINE
  5
197
330
1F
100
AcDbEntity
  8
0-1
  6
Continuous
 62
     2
370
     9
100
AcDbLine
 10
-164.8507535779798
 20
291.165962837838
 30
0.0
 11
-208.9777858837231
 21
291.1658886058912
 31
0.0
  0
LINE
  5
198
330
1F
100
AcDbEntity
  8
0-1
  6
JWW_CENTER1
 62
     2
370
     9
100
AcDbLine
 10
-186.9142697308514
 20
293.1913815060179
 30
0.0
 11
-186.9143439627982
 21
312.9254249366555
 31
0.0
  0
LINE
  5
199
330
1F
100
AcDbEntity
  8
0-1
  6
Continuous
 62
     2
370
     9
100
AcDbLine
 10
-177.4142878764384
 20
310.165926546664
 30
0.0
 11
-177.4142878764384
 21
304.1660552153717
 31
0.0
  0
LINE
  5
19A
330
1F
100
AcDbEntity
  8
0-1
  6
Continuous
 62
     2
370
     9
100
AcDbLine
 10
-179.4142449868691
 20
304.1660552153717
 30
0.0
 11
-179.4143192188159
 21
310.165926546664
 31
0.0
  0
LINE
  5
19B
330
1F
100
AcDbEntity
  8
0-1
  6
Continuous
 62
     2
370
     9
100
AcDbLine
 10
-194.4142944748338
 20
304.165980983425
 30
0.0
 11
-194.4142944748338
 21
310.165926546664
 31
0.0
  0
LINE
  5
19C
330
1F
100
AcDbEntity
  8
0-1
  6
Continuous
 62
     2
370
     9
100
AcDbLine
 10
-196.4143258172112
 20
310.165926546664
 30
0.0
 11
-196.4143258172112
 21
304.165980983425
 31
0.0
  0
LINE
  5
19D
330
1F
100
AcDbEntity
  8
0-1
  6
Continuous
 62
     2
370
     9
100
AcDbLine
 10
-104.4142944748338
 20
189.6660238729942
 30
0.0
 11
-98.41427467964789
 21
189.6660238729942
 31
0.0
  0
LINE
  5
19E
330
1F
100
AcDbEntity
  8
0-1
  6
Continuous
 62
     2
370
     9
100
AcDbLine
 10
-98.41427467964789
 20
191.6660552153717
 30
0.0
 11
-104.4142944748338
 21
191.6660552153717
 31
0.0
  0
LINE
  5
19F
330
1F
100
AcDbEntity
  8
0-1
  6
JWW_CENTER1
 62
     2
370
     9
100
AcDbLine
 10
-94.41406353099921
 20
199.9130760399072
 30
0.0
 11
-94.41406353099921
 21
223.4079325907941
 31
0.0
  0
LINE
  5
1A0
330
1F
100
AcDbEntity
  8
0-1
  6
Continuous
 62
     2
370
     9
100
AcDbLine
 10
-104.4142944748338
 20
233.6660453177788
 30
0.0
 11
-98.41427467964789
 21
233.6660453177788
 31
0.0
  0
LINE
  5
1A1
330
1F
100
AcDbEntity
  8
0-1
  6
Continuous
 62
     2
370
     9
100
AcDbLine
 10
-98.41427467964789
 20
231.6660139754013
 30
0.0
 11
-104.4142944748338
 21
231.6660139754013
 31
0.0
  0
LINE
  5
1A2
330
1F
100
AcDbEntity
  8
0-1
  6
Continuous
 62
     2
370
     9
100
AcDbLine
 10
-107.4142301404798
 20
233.7295878642316
 30
0.0
 11
-107.4142301404798
 21
189.6025555584883
 31
0.0
  0
LINE
  5
1A3
330
1F
100
AcDbEntity
  8
0-1
  6
JWW_CENTER1
 62
     2
370
     9
100
AcDbLine
 10
-105.3888114723
 20
211.6660717113599
 30
0.0
 11
-85.65484227360906
 21
211.6660717113599
 31
0.0
  0
LINE
  5
1A4
330
1F
100
AcDbEntity
  8
0-1
  6
Continuous
 62
     2
370
     9
100
AcDbLine
 10
-88.41426643165374
 20
221.166053565773
 30
0.0
 11
-94.41406353099921
 21
221.166053565773
 31
0.0
  0
LINE
  5
1A5
330
1F
100
AcDbEntity
  8
0-1
  6
Continuous
 62
     2
370
     9
100
AcDbLine
 10
-94.41406353099921
 20
219.1660222233954
 30
0.0
 11
-88.41426643165374
 21
219.1660222233954
 31
0.0
  0
LINE
  5
1A6
330
1F
100
AcDbEntity
  8
0-1
  6
Continuous
 62
     2
370
     9
100
AcDbLine
 10
-94.41413776294601
 20
204.1660469673777
 30
0.0
 11
-88.41426643165374
 21
204.1660469673777
 31
0.0
  0
LINE
  5
1A7
330
1F
100
AcDbEntity
  8
0-1
  6
Continuous
 62
     2
370
     9
100
AcDbLine
 10
-88.41426643165374
 20
202.1660156250002
 30
0.0
 11
-94.41413776294601
 21
202.1660156250002
 31
0.0
  0
LINE
  5
1A8
330
1F
100
AcDbEntity
  8
0-1
  6
Continuous
 62
     2
370
     9
100
AcDbLine
 10
-103.9141196173591
 20
163.666061813767
 30
0.0
 11
-98.4139777518607
 21
163.666061813767
 31
0.0
  0
LINE
  5
1A9
330
1F
100
AcDbEntity
  8
0-1
  6
Continuous
 62
     2
370
     9
100
AcDbLine
 10
-105.9142994236302
 20
187.6659925306167
 30
0.0
 11
-105.9142994236302
 21
165.6660931561445
 31
0.0
  0
LINE
  5
1AA
330
1F
100
AcDbEntity
  8
0-1
  6
Continuous
 62
     2
370
     9
100
AcDbLine
 10
-103.9141196173591
 20
161.6660304713895
 30
0.0
 11
-98.4139777518607
 21
161.6660304713895
 31
0.0
  0
LINE
  5
1AB
330
1F
100
AcDbEntity
  8
0-1
  6
Continuous
 62
     2
370
     9
100
AcDbLine
 10
-94.41406353099921
 20
165.6660931561445
 30
0.0
 11
-94.41406353099921
 21
187.6660667625634
 31
0.0
  0
LINE
  5
1AC
330
1F
100
AcDbEntity
  8
0-1
  6
Continuous
 62
     2
370
     9
100
AcDbLine
 10
-96.41409487337688
 20
187.6659925306167
 30
0.0
 11
-96.41409487337688
 21
165.6660931561445
 31
0.0
  0
LINE
  5
1AD
330
1F
100
AcDbEntity
  8
0-1
  6
Continuous
 62
     2
370
     9
100
AcDbLine
 10
-84.41398105105844
 20
111.6660634633659
 30
0.0
 11
-84.41412951495195
 21
200.1660585145694
 31
0.0
  0
LINE
  5
1AE
330
1F
100
AcDbEntity
  8
0-1
  6
Continuous
 62
     2
370
     9
100
AcDbLine
 10
-86.41393816148906
 20
111.6660634633659
 30
0.0
 11
-86.41408662538265
 21
200.1660585145694
 31
0.0
  0
LINE
  5
1AF
330
1F
100
AcDbEntity
  8
0-1
  6
Continuous
 62
     2
370
     9
100
AcDbLine
 10
-164.9142961244325
 20
294.6659248970652
 30
0.0
 11
-164.9142961244325
 21
300.1659182986699
 31
0.0
  0
LINE
  5
1B0
330
1F
100
AcDbEntity
  8
0-1
  6
Continuous
 62
     2
370
     9
100
AcDbLine
 10
-166.9143274668101
 20
300.1659182986699
 30
0.0
 11
-166.9142532348633
 21
294.6659248970652
 31
0.0
  0
LINE
  5
1B1
330
1F
100
AcDbEntity
  8
0-1
  6
Continuous
 62
     2
370
     9
100
AcDbLine
 10
-107.9142565340609
 20
283.6660865577493
 30
0.0
 11
-107.913885374327
 21
111.6660634633659
 31
0.0
  0
LINE
  5
1B2
330
1F
100
AcDbEntity
  8
0-1
  6
Continuous
 62
     2
370
     9
100
AcDbLine
 10
-162.914264782055
 20
292.6660420185813
 30
0.0
 11
-114.914254884462
 21
292.6660420185813
 31
0.0
  0
LINE
  5
1B3
330
1F
100
AcDbEntity
  8
0-1
  6
Continuous
 62
     2
370
     9
100
AcDbLine
 10
-105.9141509597366
 20
235.6660766601564
 30
0.0
 11
-105.9142994236302
 21
283.6660123258025
 31
0.0
  0
LINE
  5
1B4
330
1F
100
AcDbEntity
  8
0-1
  6
Continuous
 62
     2
370
     9
100
AcDbLine
 10
-162.914264782055
 20
304.1660552153717
 30
0.0
 11
-116.4142598332585
 21
304.1660552153717
 31
0.0
  0
LINE
  5
1B5
330
1F
100
AcDbEntity
  8
0-1
  6
Continuous
 62
     2
370
     9
100
AcDbLine
 10
-94.41413776294601
 20
235.6660766601564
 30
0.0
 11
-94.41421199489281
 21
282.1660816089528
 31
0.0
  0
LINE
  5
1B6
330
1F
100
AcDbEntity
  8
0-1
  6
Continuous
 62
     2
370
     9
100
AcDbLine
 10
-96.4142433372703
 20
282.1660816089528
 30
0.0
 11
-96.41416910532351
 21
235.6660766601564
 31
0.0
  0
LINE
  5
1B7
330
1F
100
AcDbEntity
  8
0-1
  6
Continuous
 62
     2
370
     9
100
AcDbLine
 10
-116.4142598332585
 20
302.1660238729942
 30
0.0
 11
-162.914264782055
 21
302.1660238729942
 31
0.0
  0
LINE
  5
1B8
330
1F
100
AcDbEntity
  8
0-1
  6
Continuous
 62
     2
370
     9
100
AcDbLine
 10
-175.4142565340609
 20
314.1660634633658
 30
0.0
 11
-116.4142598332585
 21
314.1660634633658
 31
0.0
  0
LINE
  5
1B9
330
1F
100
AcDbEntity
  8
0-1
  6
Continuous
 62
     2
370
     9
100
AcDbLine
 10
-175.4142565340609
 20
312.1660321209883
 30
0.0
 11
-116.4142598332585
 21
312.1660321209883
 31
0.0
  0
LINE
  5
1BA
330
1F
100
AcDbEntity
  8
0-1
  6
Continuous
 62
     2
370
     9
100
AcDbLine
 10
-84.41412951495195
 20
223.1660849081505
 30
0.0
 11
-84.41427797884563
 21
282.1660816089528
 31
0.0
  0
LINE
  5
1BB
330
1F
100
AcDbEntity
  8
0-1
  6
Continuous
 62
     2
370
     9
100
AcDbLine
 10
-86.41416085732945
 20
223.1660849081505
 30
0.0
 11
-86.41423508927625
 21
282.1660816089528
 31
0.0
  0
LINE
  5
1BC
330
1F
100
AcDbEntity
  8
0-1
  6
Continuous
 62
     2
370
     9
100
AcDbLine
 10
-119.9142961244325
 20
-60.33392251504421
 30
0.0
 11
-453.9142041592984
 21
-60.33392251504421
 31
0.0
  0
LINE
  5
1BD
330
1F
100
AcDbEntity
  8
0-1
  6
Continuous
 62
     2
370
     9
100
AcDbLine
 10
-210.9143489115947
 20
-69.33391509184952
 30
0.0
 11
-362.914169930123
 21
-69.33391509184952
 31
0.0
  0
LINE
  5
1BE
330
1F
100
AcDbEntity
  8
0-1
  6
Continuous
 62
     2
370
     9
100
AcDbLine
 10
-458.9142268412822
 20
-67.33395798141873
 30
0.0
 11
-114.914254884462
 21
-67.33395798141873
 31
0.0
  0
LINE
  5
1BF
330
1F
100
AcDbEntity
  8
0-1
  6
Continuous
 62
     2
370
     9
100
AcDbLine
 10
-119.9142961244325
 20
283.6660123258025
 30
0.0
 11
-453.9142041592984
 21
283.6660123258025
 31
0.0
  0
LINE
  5
1C0
330
1F
100
AcDbEntity
  8
0-1
  6
Continuous
 62
     2
370
     9
100
AcDbLine
 10
-198.4142829276419
 20
314.1660634633658
 30
0.0
 11
-375.4141987981022
 21
314.1660634633658
 31
0.0
  0
LINE
  5
1C1
330
1F
100
AcDbEntity
  8
0-1
  6
Continuous
 62
     2
370
     9
100
AcDbLine
 10
-198.4142829276419
 20
312.1660321209883
 30
0.0
 11
-375.4141987981022
 21
312.1660321209883
 31
0.0
  0
LINE
  5
1C2
330
1F
100
AcDbEntity
  8
0-1
  6
Continuous
 62
     2
370
     9
100
AcDbLine
 10
-458.9142268412822
 20
290.6660106762037
 30
0.0
 11
-114.914254884462
 21
290.6660106762037
 31
0.0
  0
LINE
  5
1C3
330
1F
100
AcDbEntity
  8
0-1
  6
Continuous
 62
     2
370
     9
100
AcDbLine
 10
228.9581123558252
 20
262.9366669525973
 30
0.0
 11
235.7344498505464
 21
261.6660387193836
 31
0.0
  0
LINE
  5
1C4
330
1F
100
AcDbEntity
  8
0-1
  6
Continuous
 62
     2
370
     9
100
AcDbLine
 10
226.9403395781645
 20
312.4072117161108
 30
0.0
 11
235.7344498505464
 21
314.1660634633658
 31
0.0
  0
LINE
  5
1C5
330
1F
100
AcDbEntity
  8
0-1
  6
Continuous
 62
     2
370
     9
100
AcDbLine
 10
225.7345158344992
 20
304.7873766100086
 30
0.0
 11
225.7345158344992
 21
310.936379922403
 31
0.0
  0
LINE
  5
1C6
330
1F
100
AcDbEntity
  8
0-1
  6
Continuous
 62
     2
370
     9
100
AcDbLine
 10
227.2951682838233
 20
302.6053285341006
 30
0.0
 11
226.1738204956055
 21
303.7266763223186
 31
0.0
  0
LINE
  5
1C7
330
1F
100
AcDbEntity
  8
0-1
  6
Continuous
 62
     2
370
     9
100
AcDbLine
 10
223.3547138523411
 20
292.1185071790542
 30
0.0
 11
213.0484245918892
 21
290.8302859744512
 31
0.0
  0
LINE
  5
1C8
330
1F
100
AcDbEntity
  8
0-1
  6
Continuous
 62
     2
370
     9
100
AcDbLine
 10
227.7345471768767
 20
297.0799478066936
 30
0.0
 11
227.7345471768767
 21
301.5447024783574
 31
0.0
  0
LINE
  5
1C9
330
1F
100
AcDbEntity
  8
0-1
  6
Continuous
 62
     2
370
     9
100
AcDbLine
 10
225.982599000673
 20
281.884965226457
 30
0.0
 11
213.0484245918892
 21
283.501737027555
 31
0.0
  0
LINE
  5
1CA
330
1F
100
AcDbEntity
  8
0-1
  6
Continuous
 62
     2
370
     9
100
AcDbLine
 10
-318.9142598332585
 20
294.6661475929055
 30
0.0
 11
-318.9142598332585
 21
300.1662894584039
 31
0.0
  0
LINE
  5
1CB
330
1F
100
AcDbEntity
  8
0-1
  6
Continuous
 62
     2
370
     9
100
AcDbLine
 10
-316.914228490881
 20
294.6661475929055
 30
0.0
 11
-316.914228490881
 21
300.1662894584039
 31
0.0
  0
LINE
  5
1CC
330
1F
100
AcDbEntity
  8
0-1
  6
Continuous
 62
     2
370
     9
100
AcDbLine
 10
-318.9780250755516
 20
291.1660370697848
 30
0.0
 11
-254.8504566501927
 21
291.1660370697848
 31
0.0
  0
LINE
  5
1CD
330
1F
100
AcDbEntity
  8
0-1
  6
Continuous
 62
     2
370
     9
100
AcDbLine
 10
-254.9142218924857
 20
294.6661475929055
 30
0.0
 11
-254.9142218924857
 21
300.1662894584039
 31
0.0
  0
LINE
  5
1CE
330
1F
100
AcDbEntity
  8
0-1
  6
Continuous
 62
     2
370
     9
100
AcDbLine
 10
-256.9142532348633
 20
294.6661475929055
 30
0.0
 11
-256.9142532348633
 21
300.1662894584039
 31
0.0
  0
LINE
  5
1CF
330
1F
100
AcDbEntity
  8
0-1
  6
Continuous
 62
     2
370
     9
100
AcDbLine
 10
-320.9142540596627
 20
292.6660420185813
 30
0.0
 11
-362.914169930123
 21
292.6660420185813
 31
0.0
  0
LINE
  5
1D0
330
1F
100
AcDbEntity
  8
0-1
  6
Continuous
 62
     2
370
     9
100
AcDbLine
 10
-362.914169930123
 20
302.1660238729942
 30
0.0
 11
-320.9142540596627
 21
302.1660238729942
 31
0.0
  0
LINE
  5
1D1
330
1F
100
AcDbEntity
  8
0-1
  6
Continuous
 62
     2
370
     9
100
AcDbLine
 10
-210.9143489115947
 20
292.6660420185813
 30
0.0
 11
-252.9141905501082
 21
292.6660420185813
 31
0.0
  0
LINE
  5
1D2
330
1F
100
AcDbEntity
  8
0-1
  6
Continuous
 62
     2
370
     9
100
AcDbLine
 10
-252.9141905501082
 20
302.1660238729942
 30
0.0
 11
-210.9143489115947
 21
302.1660238729942
 31
0.0
  0
LINE
  5
1D3
330
1F
100
AcDbEntity
  8
0-1
  6
Continuous
 62
     2
370
     9
100
AcDbLine
 10
-210.9143489115947
 20
304.1660552153717
 30
0.0
 11
-252.9141905501082
 21
304.1660552153717
 31
0.0
  0
LINE
  5
1D4
330
1F
100
AcDbEntity
  8
0-1
  6
Continuous
 62
     2
370
     9
100
AcDbLine
 10
-320.9142540596627
 20
304.1660552153717
 30
0.0
 11
-362.914169930123
 21
304.1660552153717
 31
0.0
  0
LINE
  5
1D5
330
1F
100
AcDbEntity
  8
0-1
  6
Continuous
 62
     2
370
     9
100
AcDbLine
 10
-410.914235501676
 20
-80.83400252058686
 30
0.0
 11
-457.4141847765123
 21
-80.83400252058686
 31
0.0
  0
LINE
  5
1D6
330
1F
100
AcDbEntity
  8
0-1
  6
Continuous
 62
     2
370
     9
100
AcDbLine
 10
-457.4141847765123
 20
-78.83393406223593
 30
0.0
 11
-410.914235501676
 21
-78.83393406223593
 31
0.0
  0
LINE
  5
1D7
330
1F
100
AcDbEntity
  8
0-1
  6
Continuous
 62
     2
370
     9
100
AcDbLine
 10
235.7344498505464
 20
314.1660634633658
 30
0.0
 11
235.7344498505464
 21
246.964401657517
 31
0.0
  0
LINE
  5
1D8
330
1F
100
AcDbEntity
  8
0-1
  6
Continuous
 62
     2
370
     9
100
AcDbLine
 10
235.7344498505464
 20
-90.83393653663421
 30
0.0
 11
235.7344498505464
 21
-23.63220049883859
 31
0.0
  0
LINE
  5
1D9
330
1F
100
AcDbEntity
  8
0-1
  6
Continuous
 62
     2
370
     9
100
AcDbLine
 10
227.7345471768767
 20
-56.5683956661739
 30
0.0
 11
227.7345471768767
 21
-41.07882360509913
 31
0.0
  0
LINE
  5
1DA
330
1F
100
AcDbEntity
  8
0-1
  6
Continuous
 62
     2
370
     9
100
AcDbLine
 10
227.7345471768767
 20
279.9004483609588
 30
0.0
 11
227.7345471768767
 21
264.4109134158574
 31
0.0
  0
LINE
  5
1DB
330
1F
100
AcDbEntity
  8
0-0
  6
JWW_CENTER1
 62
     3
370
     9
100
AcDbLine
 10
-500.5152573456635
 20
111.6660634633659
 30
0.0
 11
-485.6738786439637
 21
111.6660634633659
 31
0.0
  0
LINE
  5
1DC
330
1F
100
AcDbEntity
  8
0-0
  6
JWW_CENTER1
 62
     3
370
     9
100
AcDbLine
 10
-88.35413855475343
 20
111.6660634633659
 30
0.0
 11
-73.17726856953382
 21
111.6660634633659
 31
0.0
  0
LINE
  5
1DD
330
1F
100
AcDbEntity
  8
0-0
  6
JWW_CENTER1
 62
     3
370
     9
100
AcDbLine
 10
-286.9142408628721
 20
-99.21208809517506
 30
0.0
 11
-286.9142408628721
 21
294.2511167783996
 31
0.0
  0
LINE
  5
1DE
330
1F
100
AcDbEntity
  8
0-0
  6
JWW_CENTER1
 62
     3
370
     9
100
AcDbLine
 10
-286.9142408628721
 20
311.0082364468963
 30
0.0
 11
-286.9142408628721
 21
321.4484401393583
 31
0.0
  0
LINE
  5
1DF
330
1F
100
AcDbEntity
  8
0-4
  6
Continuous
 62
     7
370
     9
100
AcDbLine
 10
136.7344943897144
 20
-90.83393653663421
 30
0.0
 11
136.7344943897144
 21
314.1660634633658
 31
0.0
  0
LINE
  5
1E0
330
1F
100
AcDbEntity
  8
0-4
  6
Continuous
 62
     7
370
     9
100
AcDbLine
 10
228.2344251065642
 20
-90.83393653663421
 30
0.0
 11
135.8345062668259
 21
-90.83393653663421
 31
0.0
  0
LINE
  5
1E1
330
1F
100
AcDbEntity
  8
0-4
  6
Continuous
 62
     7
370
     9
100
AcDbLine
 10
228.2344251065642
 20
314.1660634633658
 30
0.0
 11
135.8345062668259
 21
314.1660634633658
 31
0.0
  0
LINE
  5
1E2
330
1F
100
AcDbEntity
  8
0-4
  6
Continuous
 62
     7
370
     9
100
AcDbLine
 10
136.7344943897144
 20
-90.83393653663421
 30
0.0
 11
135.7555234754409
 21
-83.39808531065233
 31
0.0
  0
LINE
  5
1E3
330
1F
100
AcDbEntity
  8
0-4
  6
Continuous
 62
     7
370
     9
100
AcDbLine
 10
136.7344943897144
 20
-90.83393653663421
 30
0.0
 11
137.713465303988
 21
-83.39808531065233
 31
0.0
  0
LINE
  5
1E4
330
1F
100
AcDbEntity
  8
0-4
  6
Continuous
 62
     7
370
     9
100
AcDbLine
 10
136.7344943897144
 20
314.1660634633658
 30
0.0
 11
135.7555234754409
 21
306.7302493533574
 31
0.0
  0
LINE
  5
1E5
330
1F
100
AcDbEntity
  8
0-4
  6
Continuous
 62
     7
370
     9
100
AcDbLine
 10
136.7344943897144
 20
314.1660634633658
 30
0.0
 11
137.713465303988
 21
306.7302493533574
 31
0.0
  0
LINE
  5
1E6
330
1F
100
AcDbEntity
  8
0-4
  6
Continuous
 62
     7
370
     9
100
AcDbLine
 10
211.7345191336967
 20
-158.3340478845544
 30
0.0
 11
235.7344498505464
 21
-158.3340478845544
 31
0.0
  0
LINE
  5
1E7
330
1F
100
AcDbEntity
  8
0-4
  6
Continuous
 62
     7
370
     9
100
AcDbLine
 10
235.7344498505464
 20
-98.33392416464295
 30
0.0
 11
235.7344498505464
 21
-159.2340545654295
 31
0.0
  0
LINE
  5
1E8
330
1F
100
AcDbEntity
  8
0-4
  6
Continuous
 62
     7
370
     9
100
AcDbLine
 10
211.7345191336967
 20
-158.3340478845544
 30
0.0
 11
219.1703332437052
 21
-157.3550955282673
 31
0.0
  0
LINE
  5
1E9
330
1F
100
AcDbEntity
  8
0-4
  6
Continuous
 62
     7
370
     9
100
AcDbLine
 10
211.7345191336967
 20
-158.3340478845544
 30
0.0
 11
219.1703332437052
 21
-159.3130002408413
 31
0.0
  0
LINE
  5
1EA
330
1F
100
AcDbEntity
  8
0-4
  6
Continuous
 62
     7
370
     9
100
AcDbLine
 10
235.7344498505464
 20
-158.3340478845544
 30
0.0
 11
228.298635740538
 21
-157.3550955282673
 31
0.0
  0
LINE
  5
1EB
330
1F
100
AcDbEntity
  8
0-4
  6
Continuous
 62
     7
370
     9
100
AcDbLine
 10
235.7344498505464
 20
-158.3340478845544
 30
0.0
 11
228.298635740538
 21
-159.3130002408413
 31
0.0
  0
LINE
  5
1EC
330
1F
100
AcDbEntity
  8
0-4
  6
Continuous
 62
     7
370
     9
100
AcDbLine
 10
211.7345191336967
 20
-73.50979614257795
 30
0.0
 11
211.7345191336967
 21
-118.6609880602035
 31
0.0
  0
LINE
  5
1ED
330
1F
100
AcDbEntity
  8
0-4
  6
Continuous
 62
     7
370
     9
100
AcDbLine
 10
211.7345191336967
 20
-136.4662813753694
 30
0.0
 11
211.7345191336967
 21
-159.2340545654295
 31
0.0
  0
LINE
  5
1EE
330
1F
100
AcDbEntity
  8
0-E
  6
Continuous
 62
     7
370
     9
100
AcDbLine
 10
211.7344449017498
 20
289.341861209354
 30
0.0
 11
207.1687347824511
 21
295.2919971362966
 31
0.0
  0
LINE
  5
1EF
330
1F
100
AcDbEntity
  8
0-E
  6
Continuous
 62
     7
370
     9
100
AcDbLine
 10
211.7344449017498
 20
289.341861209354
 30
0.0
 11
208.8643409110405
 21
296.2709680505702
 31
0.0
  0
LINE
  5
1F0
330
1F
100
AcDbEntity
  8
0-E
  6
Continuous
 62
     7
370
     9
100
AcDbLine
 10
211.7344449017498
 20
289.341861209354
 30
0.0
 11
176.6176120654956
 21
350.1660337705872
 31
0.0
  0
LINE
  5
1F1
330
1F
100
AcDbEntity
  8
0-E
  6
Continuous
 62
     7
370
     9
100
AcDbLine
 10
176.6176120654956
 20
350.1660337705872
 30
0.0
 11
86.95002272322367
 21
350.1660337705872
 31
0.0
  0
LINE
  5
1F2
330
1F
100
AcDbEntity
  8
0-0
  6
JWW_CENTER1
 62
     3
370
     9
100
AcDbLine
 10
202.7912026482661
 20
111.6660634633659
 30
0.0
 11
252.2656817049595
 21
111.6660634633659
 31
0.0
  0
LINE
  5
1F3
330
1F
100
AcDbEntity
  8
0-4
  6
Continuous
 62
     7
370
     9
100
AcDbLine
 10
204.2344943897145
 20
290.6660849081505
 30
0.0
 11
165.8345310108081
 21
290.6660849081505
 31
0.0
  0
LINE
  5
1F4
330
1F
100
AcDbEntity
  8
0-4
  6
Continuous
 62
     7
370
     9
100
AcDbLine
 10
205.2344729449298
 20
281.665980983425
 30
0.0
 11
165.8345310108081
 21
281.665980983425
 31
0.0
  0
LINE
  5
1F5
330
1F
100
AcDbEntity
  8
0-4
  6
Continuous
 62
     7
370
     9
100
AcDbLine
 10
166.7345191336968
 20
290.6660849081505
 30
0.0
 11
167.7134900479703
 21
298.1018990181589
 31
0.0
  0
LINE
  5
1F6
330
1F
100
AcDbEntity
  8
0-4
  6
Continuous
 62
     7
370
     9
100
AcDbLine
 10
166.7345191336968
 20
281.665980983425
 30
0.0
 11
165.755548219423
 21
274.2301668734165
 31
0.0
  0
LINE
  5
1F7
330
1F
100
AcDbEntity
  8
0-4
  6
Continuous
 62
     7
370
     9
100
AcDbLine
 10
166.7345191336968
 20
281.665980983425
 30
0.0
 11
167.7134900479703
 21
274.2301668734165
 31
0.0
  0
LINE
  5
1F8
330
1F
100
AcDbEntity
  8
0-4
  6
Continuous
 62
     7
370
     9
100
AcDbLine
 10
205.2344729449298
 20
-58.33392828864007
 30
0.0
 11
165.8345310108081
 21
-58.33392828864007
 31
0.0
  0
LINE
  5
1F9
330
1F
100
AcDbEntity
  8
0-4
  6
Continuous
 62
     7
370
     9
100
AcDbLine
 10
204.2344943897145
 20
-67.33399509739218
 30
0.0
 11
165.8345310108081
 21
-67.33399509739218
 31
0.0
  0
LINE
  5
1FA
330
1F
100
AcDbEntity
  8
0-4
  6
Continuous
 62
     7
370
     9
100
AcDbLine
 10
166.7345191336968
 20
-58.33392828864007
 30
0.0
 11
165.755548219423
 21
-50.89807706265827
 31
0.0
  0
LINE
  5
1FB
330
1F
100
AcDbEntity
  8
0-4
  6
Continuous
 62
     7
370
     9
100
AcDbLine
 10
166.7345191336968
 20
-67.33399509739218
 30
0.0
 11
165.755548219423
 21
-74.76984632337405
 31
0.0
  0
LINE
  5
1FC
330
1F
100
AcDbEntity
  8
0-4
  6
Continuous
 62
     7
370
     9
100
AcDbLine
 10
166.7345191336968
 20
-67.33399509739218
 30
0.0
 11
167.7134900479703
 21
-74.76984632337405
 31
0.0
  0
LINE
  5
1FD
330
1F
100
AcDbEntity
  8
0-4
  6
Continuous
 62
     7
370
     9
100
AcDbLine
 10
166.7343706698031
 20
-58.33392828864007
 30
0.0
 11
167.7133415840768
 21
-50.89807706265827
 31
0.0
  0
LINE
  5
1FE
330
1F
100
AcDbEntity
  8
0-4
  6
Continuous
 62
     7
370
     9
100
AcDbLine
 10
166.7345191336968
 20
290.6660849081505
 30
0.0
 11
165.755548219423
 21
298.1018990181589
 31
0.0
  0
LINE
  5
1FF
330
1F
100
AcDbEntity
  8
0-E
  6
Continuous
 62
     7
370
     9
100
AcDbLine
 10
212.734497688912
 20
-5.47788712785038
 30
0.0
 11
141.8034971082534
 21
-128.3339860245987
 31
0.0
  0
LINE
  5
200
330
1F
100
AcDbEntity
  8
0-E
  6
Continuous
 62
     7
370
     9
100
AcDbLine
 10
141.8034971082534
 20
-128.3339860245987
 30
0.0
 11
65.0950241088868
 21
-128.3339860245987
 31
0.0
  0
LINE
  5
201
330
1F
100
AcDbEntity
  8
0-E
  6
Continuous
 62
     7
370
     9
100
AcDbLine
 10
294.7345207832955
 20
-2.034044420396867
 30
0.0
 11
346.0031859939164
 21
-90.83393653663421
 31
0.0
  0
LINE
  5
202
330
1F
100
AcDbEntity
  8
0-E
  6
Continuous
 62
     7
370
     9
100
AcDbLine
 10
346.0031859939164
 20
-90.83393653663421
 30
0.0
 11
452.9418770042627
 21
-90.83393653663421
 31
0.0
  0
LINE
  5
203
330
1F
100
AcDbEntity
  8
0-4
  6
Continuous
 62
     7
370
     9
100
AcDbLine
 10
-386.914137762946
 20
-150.8339489086253
 30
0.0
 11
-186.9143439627982
 21
-150.8339489086253
 31
0.0
  0
LINE
  5
204
330
1F
100
AcDbEntity
  8
0-4
  6
Continuous
 62
     7
370
     9
100
AcDbLine
 10
-386.914137762946
 20
-97.09328563793264
 30
0.0
 11
-386.914137762946
 21
-151.7339555895004
 31
0.0
  0
LINE
  5
205
330
1F
100
AcDbEntity
  8
0-4
  6
Continuous
 62
     7
370
     9
100
AcDbLine
 10
-386.914137762946
 20
-150.8339489086253
 30
0.0
 11
-379.4782865369642
 21
-149.8549965523383
 31
0.0
  0
LINE
  5
206
330
1F
100
AcDbEntity
  8
0-4
  6
Continuous
 62
     7
370
     9
100
AcDbLine
 10
-386.914137762946
 20
-150.8339489086253
 30
0.0
 11
-379.4782865369642
 21
-151.8129012649123
 31
0.0
  0
LINE
  5
207
330
1F
100
AcDbEntity
  8
0-4
  6
Continuous
 62
     7
370
     9
100
AcDbLine
 10
-186.9143439627982
 20
-150.8339489086253
 30
0.0
 11
-194.3501951887801
 21
-149.8549965523383
 31
0.0
  0
LINE
  5
208
330
1F
100
AcDbEntity
  8
0-4
  6
Continuous
 62
     7
370
     9
100
AcDbLine
 10
-186.9143439627982
 20
-150.8339489086253
 30
0.0
 11
-194.3501951887801
 21
-151.8129012649123
 31
0.0
  0
LINE
  5
209
330
1F
100
AcDbEntity
  8
0-4
  6
Continuous
 62
     7
370
     9
100
AcDbLine
 10
-479.4143996367584
 20
-180.8339550946208
 30
0.0
 11
-94.41406353099921
 21
-180.8339550946208
 31
0.0
  0
LINE
  5
20A
330
1F
100
AcDbEntity
  8
0-4
  6
Continuous
 62
     7
370
     9
100
AcDbLine
 10
-479.4143996367584
 20
-7.57583040804451
 30
0.0
 11
-479.4143996367584
 21
-181.7339617754961
 31
0.0
  0
LINE
  5
20B
330
1F
100
AcDbEntity
  8
0-4
  6
Continuous
 62
     7
370
     9
100
AcDbLine
 10
-479.4143996367584
 20
-180.8339550946208
 30
0.0
 11
-471.9785669687632
 21
-179.8550027383338
 31
0.0
  0
LINE
  5
20C
330
1F
100
AcDbEntity
  8
0-4
  6
Continuous
 62
     7
370
     9
100
AcDbLine
 10
-479.4143996367584
 20
-180.8339550946208
 30
0.0
 11
-471.9785669687632
 21
-181.8129074509078
 31
0.0
  0
LINE
  5
20D
330
1F
100
AcDbEntity
  8
0-4
  6
Continuous
 62
     7
370
     9
100
AcDbLine
 10
-94.41406353099921
 20
-180.8339550946208
 30
0.0
 11
-101.8499147569811
 21
-179.8550027383338
 31
0.0
  0
LINE
  5
20E
330
1F
100
AcDbEntity
  8
0-4
  6
Continuous
 62
     7
370
     9
100
AcDbLine
 10
-94.41406353099921
 20
-180.8339550946208
 30
0.0
 11
-101.8499147569811
 21
-181.8129074509078
 31
0.0
  0
LINE
  5
20F
330
1F
100
AcDbEntity
  8
0-4
  6
Continuous
 62
     7
370
     9
100
AcDbLine
 10
-24.41378309920032
 20
11.66605521537173
 30
0.0
 11
-24.41378309920032
 21
211.6660717113599
 31
0.0
  0
LINE
  5
210
330
1F
100
AcDbEntity
  8
0-4
  6
Continuous
 62
     7
370
     9
100
AcDbLine
 10
-78.15481752962688
 20
11.66605521537173
 30
0.0
 11
-23.51379497631171
 21
11.66605521537173
 31
0.0
  0
LINE
  5
211
330
1F
100
AcDbEntity
  8
0-4
  6
Continuous
 62
     7
370
     9
100
AcDbLine
 10
-78.15481752962688
 20
211.6660717113599
 30
0.0
 11
-23.51379497631171
 21
211.6660717113599
 31
0.0
  0
LINE
  5
212
330
1F
100
AcDbEntity
  8
0-4
  6
Continuous
 62
     7
370
     9
100
AcDbLine
 10
-24.41378309920032
 20
11.66605521537173
 30
0.0
 11
-25.3927540134739
 21
19.10190644135361
 31
0.0
  0
LINE
  5
213
330
1F
100
AcDbEntity
  8
0-4
  6
Continuous
 62
     7
370
     9
100
AcDbLine
 10
-24.41378309920032
 20
11.66605521537173
 30
0.0
 11
-23.43481218492656
 21
19.10190644135361
 31
0.0
  0
LINE
  5
214
330
1F
100
AcDbEntity
  8
0-4
  6
Continuous
 62
     7
370
     9
100
AcDbLine
 10
-24.41378309920032
 20
211.6660717113599
 30
0.0
 11
-25.3927540134739
 21
204.2302576013515
 31
0.0
  0
LINE
  5
215
330
1F
100
AcDbEntity
  8
0-4
  6
Continuous
 62
     7
370
     9
100
AcDbLine
 10
-24.41378309920032
 20
211.6660717113599
 30
0.0
 11
-23.43481218492656
 21
204.2302576013515
 31
0.0
  0
LINE
  5
216
330
1F
100
AcDbEntity
  8
0-4
  6
Continuous
 62
     7
370
     9
100
AcDbLine
 10
5.586241644782035
 20
-80.83400252058686
 30
0.0
 11
5.586241644782035
 21
304.1660552153717
 31
0.0
  0
LINE
  5
217
330
1F
100
AcDbEntity
  8
0-4
  6
Continuous
 62
     7
370
     9
100
AcDbLine
 10
-167.6724583393819
 20
304.1660552153717
 30
0.0
 11
6.486229767670551
 21
304.1660552153717
 31
0.0
  0
LINE
  5
218
330
1F
100
AcDbEntity
  8
0-4
  6
Continuous
 62
     7
370
     9
100
AcDbLine
 10
5.586241644782035
 20
-80.83400252058686
 30
0.0
 11
4.607270730508361
 21
-73.39815129460499
 31
0.0
  0
LINE
  5
219
330
1F
100
AcDbEntity
  8
0-4
  6
Continuous
 62
     7
370
     9
100
AcDbLine
 10
5.586241644782035
 20
-80.83400252058686
 30
0.0
 11
6.565212559055624
 21
-73.39815129460499
 31
0.0
  0
LINE
  5
21A
330
1F
100
AcDbEntity
  8
0-4
  6
Continuous
 62
     7
370
     9
100
AcDbLine
 10
5.586241644782035
 20
304.1660552153717
 30
0.0
 11
4.607270730508361
 21
296.7302411053633
 31
0.0
  0
LINE
  5
21B
330
1F
100
AcDbEntity
  8
0-4
  6
Continuous
 62
     7
370
     9
100
AcDbLine
 10
5.586241644782035
 20
304.1660552153717
 30
0.0
 11
6.565212559055624
 21
296.7302411053633
 31
0.0
  0
LINE
  5
21C
330
1F
100
AcDbEntity
  8
0-4
  6
Continuous
 62
     7
370
     9
100
AcDbLine
 10
-179.4142449868691
 20
-94.33382436391443
 30
0.0
 11
-179.4142449868691
 21
-121.733949403505
 31
0.0
  0
LINE
  5
21D
330
1F
100
AcDbEntity
  8
0-4
  6
Continuous
 62
     7
370
     9
100
AcDbLine
 10
-194.4142944748338
 20
-94.33378724794107
 30
0.0
 11
-194.4142944748338
 21
-121.733949403505
 31
0.0
  0
LINE
  5
21E
330
1F
100
AcDbEntity
  8
0-4
  6
Continuous
 62
     7
370
     9
100
AcDbLine
 10
-179.4142449868691
 20
-120.8339427226297
 30
0.0
 11
-171.9783937608873
 21
-119.8549903663428
 31
0.0
  0
LINE
  5
21F
330
1F
100
AcDbEntity
  8
0-4
  6
Continuous
 62
     7
370
     9
100
AcDbLine
 10
-179.4142449868691
 20
-120.8339427226297
 30
0.0
 11
-171.9783937608873
 21
-121.8128950789167
 31
0.0
  0
LINE
  5
220
330
1F
100
AcDbEntity
  8
0-4
  6
Continuous
 62
     7
370
     9
100
AcDbLine
 10
-194.4142944748338
 20
-120.8339427226297
 30
0.0
 11
-201.8501457008156
 21
-119.8549903663428
 31
0.0
  0
LINE
  5
221
330
1F
100
AcDbEntity
  8
0-4
  6
Continuous
 62
     7
370
     9
100
AcDbLine
 10
-194.4142944748338
 20
-120.8339427226297
 30
0.0
 11
-201.8501457008156
 21
-121.8128950789167
 31
0.0
  0
LINE
  5
222
330
1F
100
AcDbEntity
  8
0-4
  6
Continuous
 62
     7
370
     9
100
AcDbLine
 10
-186.9143439627982
 20
-128.874691525021
 30
0.0
 11
-186.9143439627982
 21
-151.7339555895004
 31
0.0
  0
LINE
  5
223
330
1F
100
AcDbEntity
  8
0-4
  6
Continuous
 62
     7
370
     9
100
AcDbLine
 10
-150.7375160423484
 20
-120.8339427226297
 30
0.0
 11
-205.9707239511851
 21
-120.8339427226297
 31
0.0
  0
LINE
  5
224
330
1F
100
AcDbEntity
  8
0-4
  6
Continuous
 62
     7
370
     9
100
AcDbLine
 10
-167.6724583393819
 20
-80.83400252058686
 30
0.0
 11
6.486229767670551
 21
-80.83400252058686
 31
0.0
  0
LINE
  5
225
330
1F
100
AcDbEntity
  8
0-4
  6
Continuous
 62
     7
370
     9
100
AcDbLine
 10
-94.41406353099921
 20
-7.57583040804451
 30
0.0
 11
-94.41406353099921
 21
-181.7339617754961
 31
0.0
  0
LINE
  5
226
330
1F
100
AcDbEntity
  8
0-4
  6
Continuous
 62
     7
370
     9
100
AcDbLine
 10
-194.4142573588603
 20
-73.33394066063124
 30
0.0
 11
-219.3142875465187
 21
-73.33394066063124
 31
0.0
  0
LINE
  5
227
330
1F
100
AcDbEntity
  8
0-4
  6
Continuous
 62
     7
370
     9
100
AcDbLine
 10
-218.4142994236302
 20
-73.33394066063124
 30
0.0
 11
-219.3932332219304
 21
-65.89808943464936
 31
0.0
  0
LINE
  5
228
330
1F
100
AcDbEntity
  8
0-4
  6
Continuous
 62
     7
370
     9
100
AcDbLine
 10
-218.4142994236302
 20
-73.33394066063124
 30
0.0
 11
-217.43536562533
 21
-65.89808943464936
 31
0.0
  0
LINE
  5
229
330
1F
100
AcDbEntity
  8
0-4
  6
Continuous
 62
     7
370
     9
100
AcDbLine
 10
-218.4142994236302
 20
-90.83378807274062
 30
0.0
 11
-219.3932332219304
 21
-98.26963929872232
 31
0.0
  0
LINE
  5
22A
330
1F
100
AcDbEntity
  8
0-4
  6
Continuous
 62
     7
370
     9
100
AcDbLine
 10
-218.4142994236302
 20
-90.83378807274062
 30
0.0
 11
-217.43536562533
 21
-98.26963929872232
 31
0.0
  0
LINE
  5
22B
330
1F
100
AcDbEntity
  8
0-4
  6
Continuous
 62
     7
370
     9
100
AcDbLine
 10
-218.4142994236302
 20
-53.52748396589936
 30
0.0
 11
-218.4142994236302
 21
-123.3246657912794
 31
0.0
  0
LINE
  5
22C
330
1F
100
AcDbEntity
  8
0-1
  6
Continuous
 62
     2
370
     9
100
AcDbLine
 10
-210.9143489115947
 20
-80.83400252058686
 30
0.0
 11
-213.6543614155537
 21
-80.83400252058686
 31
0.0
  0
LINE
  5
22D
330
1F
100
AcDbEntity
  8
0-1
  6
Continuous
 62
     2
370
     9
100
AcDbLine
 10
-223.7913647213498
 20
-80.83400252058686
 30
0.0
 11
-362.914169930123
 21
-80.83400252058686
 31
0.0
  0
LINE
  5
22E
330
1F
100
AcDbEntity
  8
0-1
  6
Continuous
 62
     2
370
     9
100
AcDbLine
 10
-362.914169930123
 20
-78.83393406223593
 30
0.0
 11
-223.7913647213498
 21
-78.83393406223593
 31
0.0
  0
LINE
  5
22F
330
1F
100
AcDbEntity
  8
0-1
  6
Continuous
 62
     2
370
     9
100
AcDbLine
 10
-213.6543614155537
 20
-78.83393406223593
 30
0.0
 11
-210.9143489115947
 21
-78.83393406223593
 31
0.0
  0
LINE
  5
230
330
1F
100
AcDbEntity
  8
0-1
  6
Continuous
 62
     2
370
     9
100
AcDbLine
 10
-198.4142829276419
 20
-88.83394231022999
 30
0.0
 11
-213.6543614155537
 21
-88.83394231022999
 31
0.0
  0
LINE
  5
231
330
1F
100
AcDbEntity
  8
0-1
  6
Continuous
 62
     2
370
     9
100
AcDbLine
 10
-223.7913647213498
 20
-88.83394231022999
 30
0.0
 11
-375.4141987981022
 21
-88.83394231022999
 31
0.0
  0
LINE
  5
232
330
1F
100
AcDbEntity
  8
0-1
  6
Continuous
 62
     2
370
     9
100
AcDbLine
 10
-198.4142829276419
 20
-90.83393653663421
 30
0.0
 11
-375.4141987981022
 21
-90.83393653663421
 31
0.0
  0
LINE
  5
233
330
1F
100
AcDbEntity
  8
0-0
  6
JWW_CENTER1
 62
     3
370
     9
100
AcDbLine
 10
-429.4413788254196
 20
111.6660634633659
 30
0.0
 11
-143.6919763925913
 21
111.6660634633659
 31
0.0
  0
LINE
  5
234
330
1F
100
AcDbEntity
  8
0-4
  6
Continuous
 62
     7
370
     9
100
AcDbLine
 10
224.7345372792836
 20
134.3914687697953
 30
0.0
 11
233.6575142112939
 21
135.5661522117822
 31
0.0
  0
LINE
  5
235
330
1F
100
AcDbEntity
  8
0-4
  6
Continuous
 62
     7
370
     9
100
AcDbLine
 10
224.7345372792836
 20
134.3914687697953
 30
0.0
 11
233.6575142112939
 21
133.2166739798882
 31
0.0
  0
LINE
  5
236
330
1F
100
AcDbEntity
  8
0-4
  6
Continuous
 62
     7
370
     9
100
AcDbLine
 10
212.734497688912
 20
134.3914687697953
 30
0.0
 11
203.811520756902
 21
135.5661522117822
 31
0.0
  0
LINE
  5
237
330
1F
100
AcDbEntity
  8
0-4
  6
Continuous
 62
     7
370
     9
100
AcDbLine
 10
212.734497688912
 20
134.3914687697953
 30
0.0
 11
203.811520756902
 21
133.2166739798882
 31
0.0
  0
LINE
  5
238
330
1F
100
AcDbEntity
  8
0-4
  6
Continuous
 62
     7
370
     9
100
AcDbLine
 10
244.8895500801705
 20
134.3914687697953
 30
0.0
 11
195.3535327395876
 21
134.3914687697953
 31
0.0
  0
LINE
  5
239
330
1F
100
AcDbEntity
  8
0-1
  6
Continuous
 62
     2
370
     9
100
AcDbLine
 10
211.7345191336967
 20
123.6215638856631
 30
0.0
 11
211.7345191336967
 21
-66.00980851456913
 31
0.0
  0
LINE
  5
23A
330
1F
100
AcDbEntity
  8
0-1
  6
Continuous
 62
     2
370
     9
100
AcDbLine
 10
211.7345191336967
 20
145.0466852961361
 30
0.0
 11
211.7345191336967
 21
289.341861209354
 31
0.0
  0
LINE
  5
23B
330
1F
100
AcDbEntity
  8
0-0
  6
Continuous
 62
     3
370
     9
100
AcDbLine
 10
239.7345867672483
 20
238.9643505199537
 30
0.0
 11
239.7345867672483
 21
152.6998505463473
 31
0.0
  0
LINE
  5
23C
330
1F
100
AcDbEntity
  8
0-0
  6
Continuous
 62
     3
370
     9
100
AcDbLine
 10
239.7345867672483
 20
126.4972352723819
 30
0.0
 11
239.7345867672483
 21
22.69024163323493
 31
0.0
  0
ARC
  5
23D
330
1F
100
AcDbEntity
  8
0-0
  6
Continuous
 62
     3
370
     9
100
AcDbCircle
 10
-453.9142227172852
 20
278.6660453177789
 30
0.0
 40
2.99999974869393
100
AcDbArc
 50
90.0
 51
180.0
  0
ARC
  5
23E
330
1F
100
AcDbEntity
  8
0-0
  6
Continuous
 62
     3
370
     9
100
AcDbCircle
 10
-431.0642190881678
 20
255.7159770243878
 30
0.0
 40
3.999999761581421
100
AcDbArc
 50
90.0
 51
180.0
  0
ARC
  5
23F
330
1F
100
AcDbEntity
  8
0-0
  6
Continuous
 62
     3
370
     9
100
AcDbCircle
 10
-412.1642458116686
 20
255.7159770243878
 30
0.0
 40
3.999999761581421
100
AcDbArc
 50
0.0
 51
90.0
  0
ARC
  5
240
330
1F
100
AcDbEntity
  8
0-0
  6
Continuous
 62
     3
370
     9
100
AcDbCircle
 10
-431.0642190881678
 20
177.0160835884714
 30
0.0
 40
3.999999761581421
100
AcDbArc
 50
180.0
 51
270.0
  0
ARC
  5
241
330
1F
100
AcDbEntity
  8
0-0
  6
Continuous
 62
     3
370
     9
100
AcDbCircle
 10
-412.1642458116686
 20
177.0160835884714
 30
0.0
 40
3.999999761581421
100
AcDbArc
 50
270.0
 51
0.0
  0
ARC
  5
242
330
1F
100
AcDbEntity
  8
0-0
  6
Continuous
 62
     3
370
     9
100
AcDbCircle
 10
-386.1642095204946
 20
177.0160835884714
 30
0.0
 40
3.999999761581421
100
AcDbArc
 50
180.0
 51
270.0
  0
ARC
  5
243
330
1F
100
AcDbEntity
  8
0-0
  6
Continuous
 62
     3
370
     9
100
AcDbCircle
 10
-367.2642362439954
 20
177.0160835884714
 30
0.0
 40
3.999999761581421
100
AcDbArc
 50
270.0
 51
0.0
  0
ARC
  5
244
330
1F
100
AcDbEntity
  8
0-0
  6
Continuous
 62
     3
370
     9
100
AcDbCircle
 10
-341.2641628368481
 20
177.0160835884714
 30
0.0
 40
3.999999761581421
100
AcDbArc
 50
180.0
 51
270.0
  0
ARC
  5
245
330
1F
100
AcDbEntity
  8
0-0
  6
Continuous
 62
     3
370
     9
100
AcDbCircle
 10
-322.3642266763223
 20
177.0160835884714
 30
0.0
 40
3.999999761581421
100
AcDbArc
 50
270.0
 51
0.0
  0
ARC
  5
246
330
1F
100
AcDbEntity
  8
0-0
  6
Continuous
 62
     3
370
     9
100
AcDbCircle
 10
-296.3642275011217
 20
177.0160835884714
 30
0.0
 40
3.999999761581421
100
AcDbArc
 50
180.0
 51
270.0
  0
ARC
  5
247
330
1F
100
AcDbEntity
  8
0-0
  6
Continuous
 62
     3
370
     9
100
AcDbCircle
 10
-296.3642275011217
 20
255.7159770243878
 30
0.0
 40
3.999999761581421
100
AcDbArc
 50
90.0
 51
180.0
  0
ARC
  5
248
330
1F
100
AcDbEntity
  8
0-0
  6
Continuous
 62
     3
370
     9
100
AcDbCircle
 10
-341.2641628368481
 20
255.7159770243878
 30
0.0
 40
3.999999761581421
100
AcDbArc
 50
90.0
 51
180.0
  0
ARC
  5
249
330
1F
100
AcDbEntity
  8
0-0
  6
Continuous
 62
     3
370
     9
100
AcDbCircle
 10
-322.3642266763223
 20
255.7159770243878
 30
0.0
 40
3.999999761581421
100
AcDbArc
 50
0.0
 51
90.0
  0
ARC
  5
24A
330
1F
100
AcDbEntity
  8
0-0
  6
Continuous
 62
     3
370
     9
100
AcDbCircle
 10
-367.2642362439954
 20
255.7159770243878
 30
0.0
 40
3.999999761581421
100
AcDbArc
 50
0.0
 51
90.0
  0
ARC
  5
24B
330
1F
100
AcDbEntity
  8
0-0
  6
Continuous
 62
     3
370
     9
100
AcDbCircle
 10
-386.1642095204946
 20
255.7159770243878
 30
0.0
 40
3.999999761581421
100
AcDbArc
 50
90.0
 51
180.0
  0
ARC
  5
24C
330
1F
100
AcDbEntity
  8
0-0
  6
Continuous
 62
     3
370
     9
100
AcDbCircle
 10
-431.0642190881678
 20
151.0160472972974
 30
0.0
 40
3.999999761581421
100
AcDbArc
 50
90.0
 51
180.0
  0
ARC
  5
24D
330
1F
100
AcDbEntity
  8
0-0
  6
Continuous
 62
     3
370
     9
100
AcDbCircle
 10
-412.1642458116686
 20
151.0160472972974
 30
0.0
 40
3.999999761581421
100
AcDbArc
 50
0.0
 51
90.0
  0
ARC
  5
24E
330
1F
100
AcDbEntity
  8
0-0
  6
Continuous
 62
     3
370
     9
100
AcDbCircle
 10
-386.1642095204946
 20
151.0160472972974
 30
0.0
 40
3.999999761581421
100
AcDbArc
 50
90.0
 51
180.0
  0
ARC
  5
24F
330
1F
100
AcDbEntity
  8
0-0
  6
Continuous
 62
     3
370
     9
100
AcDbCircle
 10
-367.2642362439954
 20
151.0160472972974
 30
0.0
 40
3.999999761581421
100
AcDbArc
 50
0.0
 51
90.0
  0
ARC
  5
250
330
1F
100
AcDbEntity
  8
0-0
  6
Continuous
 62
     3
370
     9
100
AcDbCircle
 10
-341.2641628368481
 20
151.0160472972974
 30
0.0
 40
3.999999761581421
100
AcDbArc
 50
90.0
 51
180.0
  0
ARC
  5
251
330
1F
100
AcDbEntity
  8
0-0
  6
Continuous
 62
     3
370
     9
100
AcDbCircle
 10
-322.3642266763223
 20
151.0160472972974
 30
0.0
 40
3.999999761581421
100
AcDbArc
 50
0.0
 51
90.0
  0
ARC
  5
252
330
1F
100
AcDbEntity
  8
0-0
  6
Continuous
 62
     3
370
     9
100
AcDbCircle
 10
-296.3642275011217
 20
151.0160472972974
 30
0.0
 40
3.999999761581421
100
AcDbArc
 50
90.0
 51
180.0
  0
ARC
  5
253
330
1F
100
AcDbEntity
  8
0-0
  6
Continuous
 62
     3
370
     9
100
AcDbCircle
 10
-434.5642553793417
 20
259.2160133155618
 30
0.0
 40
1.499999874346965
100
AcDbArc
 50
90.0
 51
180.0
  0
ARC
  5
254
330
1F
100
AcDbEntity
  8
0-0
  6
Continuous
 62
     3
370
     9
100
AcDbCircle
 10
-119.9142590084591
 20
278.6660453177789
 30
0.0
 40
2.99999974869393
100
AcDbArc
 50
0.0
 51
90.0
  0
ARC
  5
255
330
1F
100
AcDbEntity
  8
0-0
  6
Continuous
 62
     3
370
     9
100
AcDbCircle
 10
-142.7642626375766
 20
255.7159770243878
 30
0.0
 40
3.999999761581421
100
AcDbArc
 50
0.0
 51
90.0
  0
ARC
  5
256
330
1F
100
AcDbEntity
  8
0-0
  6
Continuous
 62
     3
370
     9
100
AcDbCircle
 10
-161.6642359140757
 20
255.7159770243878
 30
0.0
 40
3.999999761581421
100
AcDbArc
 50
90.0
 51
180.0
  0
ARC
  5
257
330
1F
100
AcDbEntity
  8
0-0
  6
Continuous
 62
     3
370
     9
100
AcDbCircle
 10
-142.7642626375766
 20
177.0160835884714
 30
0.0
 40
3.999999761581421
100
AcDbArc
 50
270.0
 51
0.0
  0
ARC
  5
258
330
1F
100
AcDbEntity
  8
0-0
  6
Continuous
 62
     3
370
     9
100
AcDbCircle
 10
-161.6642359140757
 20
177.0160835884714
 30
0.0
 40
3.999999761581421
100
AcDbArc
 50
180.0
 51
270.0
  0
ARC
  5
259
330
1F
100
AcDbEntity
  8
0-0
  6
Continuous
 62
     3
370
     9
100
AcDbCircle
 10
-187.6642722052497
 20
177.0160835884714
 30
0.0
 40
3.999999761581421
100
AcDbArc
 50
270.0
 51
0.0
  0
ARC
  5
25A
330
1F
100
AcDbEntity
  8
0-0
  6
Continuous
 62
     3
370
     9
100
AcDbCircle
 10
-206.5642454817488
 20
177.0160835884714
 30
0.0
 40
3.999999761581421
100
AcDbArc
 50
180.0
 51
270.0
  0
ARC
  5
25B
330
1F
100
AcDbEntity
  8
0-0
  6
Continuous
 62
     3
370
     9
100
AcDbCircle
 10
-232.5642817729228
 20
177.0160835884714
 30
0.0
 40
3.999999761581421
100
AcDbArc
 50
270.0
 51
0.0
  0
ARC
  5
25C
330
1F
100
AcDbEntity
  8
0-0
  6
Continuous
 62
     3
370
     9
100
AcDbCircle
 10
-251.464255049422
 20
177.0160835884714
 30
0.0
 40
3.999999761581421
100
AcDbArc
 50
180.0
 51
270.0
  0
ARC
  5
25D
330
1F
100
AcDbEntity
  8
0-0
  6
Continuous
 62
     3
370
     9
100
AcDbCircle
 10
-277.4642171086491
 20
177.0160835884714
 30
0.0
 40
3.999999761581421
100
AcDbArc
 50
270.0
 51
0.0
  0
ARC
  5
25E
330
1F
100
AcDbEntity
  8
0-0
  6
Continuous
 62
     3
370
     9
100
AcDbCircle
 10
-277.4642171086491
 20
255.7159770243878
 30
0.0
 40
3.999999761581421
100
AcDbArc
 50
0.0
 51
90.0
  0
ARC
  5
25F
330
1F
100
AcDbEntity
  8
0-0
  6
Continuous
 62
     3
370
     9
100
AcDbCircle
 10
-232.5642817729228
 20
255.7159770243878
 30
0.0
 40
3.999999761581421
100
AcDbArc
 50
0.0
 51
90.0
  0
ARC
  5
260
330
1F
100
AcDbEntity
  8
0-0
  6
Continuous
 62
     3
370
     9
100
AcDbCircle
 10
-251.464255049422
 20
255.7159770243878
 30
0.0
 40
3.999999761581421
100
AcDbArc
 50
90.0
 51
180.0
  0
ARC
  5
261
330
1F
100
AcDbEntity
  8
0-0
  6
Continuous
 62
     3
370
     9
100
AcDbCircle
 10
-206.5642454817488
 20
255.7159770243878
 30
0.0
 40
3.999999761581421
100
AcDbArc
 50
90.0
 51
180.0
  0
ARC
  5
262
330
1F
100
AcDbEntity
  8
0-0
  6
Continuous
 62
     3
370
     9
100
AcDbCircle
 10
-187.6642722052497
 20
255.7159770243878
 30
0.0
 40
3.999999761581421
100
AcDbArc
 50
0.0
 51
90.0
  0
ARC
  5
263
330
1F
100
AcDbEntity
  8
0-0
  6
Continuous
 62
     3
370
     9
100
AcDbCircle
 10
-142.7642626375766
 20
151.0160472972974
 30
0.0
 40
3.999999761581421
100
AcDbArc
 50
0.0
 51
90.0
  0
ARC
  5
264
330
1F
100
AcDbEntity
  8
0-0
  6
Continuous
 62
     3
370
     9
100
AcDbCircle
 10
-161.6642359140757
 20
151.0160472972974
 30
0.0
 40
3.999999761581421
100
AcDbArc
 50
90.0
 51
180.0
  0
ARC
  5
265
330
1F
100
AcDbEntity
  8
0-0
  6
Continuous
 62
     3
370
     9
100
AcDbCircle
 10
-187.6642722052497
 20
151.0160472972974
 30
0.0
 40
3.999999761581421
100
AcDbArc
 50
0.0
 51
90.0
  0
ARC
  5
266
330
1F
100
AcDbEntity
  8
0-0
  6
Continuous
 62
     3
370
     9
100
AcDbCircle
 10
-206.5642454817488
 20
151.0160472972974
 30
0.0
 40
3.999999761581421
100
AcDbArc
 50
90.0
 51
180.0
  0
ARC
  5
267
330
1F
100
AcDbEntity
  8
0-0
  6
Continuous
 62
     3
370
     9
100
AcDbCircle
 10
-232.5642817729228
 20
151.0160472972974
 30
0.0
 40
3.999999761581421
100
AcDbArc
 50
0.0
 51
90.0
  0
ARC
  5
268
330
1F
100
AcDbEntity
  8
0-0
  6
Continuous
 62
     3
370
     9
100
AcDbCircle
 10
-251.464255049422
 20
151.0160472972974
 30
0.0
 40
3.999999761581421
100
AcDbArc
 50
90.0
 51
180.0
  0
ARC
  5
269
330
1F
100
AcDbEntity
  8
0-0
  6
Continuous
 62
     3
370
     9
100
AcDbCircle
 10
-277.4642171086491
 20
151.0160472972974
 30
0.0
 40
3.999999761581421
100
AcDbArc
 50
0.0
 51
90.0
  0
ARC
  5
26A
330
1F
100
AcDbEntity
  8
0-0
  6
Continuous
 62
     3
370
     9
100
AcDbCircle
 10
-139.2642263464025
 20
259.2160133155618
 30
0.0
 40
1.499999874346965
100
AcDbArc
 50
0.0
 51
90.0
  0
ARC
  5
26B
330
1F
100
AcDbEntity
  8
0-0
  6
Continuous
 62
     3
370
     9
100
AcDbCircle
 10
-453.9142227172852
 20
-55.33391839104718
 30
0.0
 40
2.99999974869393
100
AcDbArc
 50
180.0
 51
270.0
  0
ARC
  5
26C
330
1F
100
AcDbEntity
  8
0-0
  6
Continuous
 62
     3
370
     9
100
AcDbCircle
 10
-431.0642190881678
 20
-32.38388721362952
 30
0.0
 40
3.999999761581421
100
AcDbArc
 50
180.0
 51
270.0
  0
ARC
  5
26D
330
1F
100
AcDbEntity
  8
0-0
  6
Continuous
 62
     3
370
     9
100
AcDbCircle
 10
-412.1642458116686
 20
-32.38388721362952
 30
0.0
 40
3.999999761581421
100
AcDbArc
 50
270.0
 51
0.0
  0
ARC
  5
26E
330
1F
100
AcDbEntity
  8
0-0
  6
Continuous
 62
     3
370
     9
100
AcDbCircle
 10
-431.0642190881678
 20
46.31600622228689
 30
0.0
 40
3.999999761581421
100
AcDbArc
 50
90.0
 51
180.0
  0
ARC
  5
26F
330
1F
100
AcDbEntity
  8
0-0
  6
Continuous
 62
     3
370
     9
100
AcDbCircle
 10
-412.1642458116686
 20
46.31600622228689
 30
0.0
 40
3.999999761581421
100
AcDbArc
 50
0.0
 51
90.0
  0
ARC
  5
270
330
1F
100
AcDbEntity
  8
0-0
  6
Continuous
 62
     3
370
     9
100
AcDbCircle
 10
-386.1642095204946
 20
46.31600622228689
 30
0.0
 40
3.999999761581421
100
AcDbArc
 50
90.0
 51
180.0
  0
ARC
  5
271
330
1F
100
AcDbEntity
  8
0-0
  6
Continuous
 62
     3
370
     9
100
AcDbCircle
 10
-367.2642362439954
 20
46.31600622228689
 30
0.0
 40
3.999999761581421
100
AcDbArc
 50
0.0
 51
90.0
  0
ARC
  5
272
330
1F
100
AcDbEntity
  8
0-0
  6
Continuous
 62
     3
370
     9
100
AcDbCircle
 10
-341.2641628368481
 20
46.31600622228689
 30
0.0
 40
3.999999761581421
100
AcDbArc
 50
90.0
 51
180.0
  0
ARC
  5
273
330
1F
100
AcDbEntity
  8
0-0
  6
Continuous
 62
     3
370
     9
100
AcDbCircle
 10
-322.3642266763223
 20
46.31600622228689
 30
0.0
 40
3.999999761581421
100
AcDbArc
 50
0.0
 51
90.0
  0
ARC
  5
274
330
1F
100
AcDbEntity
  8
0-0
  6
Continuous
 62
     3
370
     9
100
AcDbCircle
 10
-296.3642275011217
 20
46.31600622228689
 30
0.0
 40
3.999999761581421
100
AcDbArc
 50
90.0
 51
180.0
  0
ARC
  5
275
330
1F
100
AcDbEntity
  8
0-0
  6
Continuous
 62
     3
370
     9
100
AcDbCircle
 10
-296.3642275011217
 20
-32.38388721362952
 30
0.0
 40
3.999999761581421
100
AcDbArc
 50
180.0
 51
270.0
  0
ARC
  5
276
330
1F
100
AcDbEntity
  8
0-0
  6
Continuous
 62
     3
370
     9
100
AcDbCircle
 10
-341.2641628368481
 20
-32.38388721362952
 30
0.0
 40
3.999999761581421
100
AcDbArc
 50
180.0
 51
270.0
  0
ARC
  5
277
330
1F
100
AcDbEntity
  8
0-0
  6
Continuous
 62
     3
370
     9
100
AcDbCircle
 10
-322.3642266763223
 20
-32.38388721362952
 30
0.0
 40
3.999999761581421
100
AcDbArc
 50
270.0
 51
0.0
  0
ARC
  5
278
330
1F
100
AcDbEntity
  8
0-0
  6
Continuous
 62
     3
370
     9
100
AcDbCircle
 10
-367.2642362439954
 20
-32.38388721362952
 30
0.0
 40
3.999999761581421
100
AcDbArc
 50
270.0
 51
0.0
  0
ARC
  5
279
330
1F
100
AcDbEntity
  8
0-0
  6
Continuous
 62
     3
370
     9
100
AcDbCircle
 10
-386.1642095204946
 20
-32.38388721362952
 30
0.0
 40
3.999999761581421
100
AcDbArc
 50
180.0
 51
270.0
  0
ARC
  5
27A
330
1F
100
AcDbEntity
  8
0-0
  6
Continuous
 62
     3
370
     9
100
AcDbCircle
 10
-431.0642190881678
 20
72.31607962943423
 30
0.0
 40
3.999999761581421
100
AcDbArc
 50
180.0
 51
270.0
  0
ARC
  5
27B
330
1F
100
AcDbEntity
  8
0-0
  6
Continuous
 62
     3
370
     9
100
AcDbCircle
 10
-412.1642458116686
 20
72.31607962943423
 30
0.0
 40
3.999999761581421
100
AcDbArc
 50
270.0
 51
0.0
  0
ARC
  5
27C
330
1F
100
AcDbEntity
  8
0-0
  6
Continuous
 62
     3
370
     9
100
AcDbCircle
 10
-386.1642095204946
 20
72.31607962943423
 30
0.0
 40
3.999999761581421
100
AcDbArc
 50
180.0
 51
270.0
  0
ARC
  5
27D
330
1F
100
AcDbEntity
  8
0-0
  6
Continuous
 62
     3
370
     9
100
AcDbCircle
 10
-367.2642362439954
 20
72.31607962943423
 30
0.0
 40
3.999999761581421
100
AcDbArc
 50
270.0
 51
0.0
  0
ARC
  5
27E
330
1F
100
AcDbEntity
  8
0-0
  6
Continuous
 62
     3
370
     9
100
AcDbCircle
 10
-341.2641628368481
 20
72.31607962943423
 30
0.0
 40
3.999999761581421
100
AcDbArc
 50
180.0
 51
270.0
  0
ARC
  5
27F
330
1F
100
AcDbEntity
  8
0-0
  6
Continuous
 62
     3
370
     9
100
AcDbCircle
 10
-322.3642266763223
 20
72.31607962943423
 30
0.0
 40
3.999999761581421
100
AcDbArc
 50
270.0
 51
0.0
  0
ARC
  5
280
330
1F
100
AcDbEntity
  8
0-0
  6
Continuous
 62
     3
370
     9
100
AcDbCircle
 10
-296.3642275011217
 20
72.31607962943423
 30
0.0
 40
3.999999761581421
100
AcDbArc
 50
180.0
 51
270.0
  0
ARC
  5
281
330
1F
100
AcDbEntity
  8
0-0
  6
Continuous
 62
     3
370
     9
100
AcDbCircle
 10
-434.5642553793417
 20
-35.88388638883015
 30
0.0
 40
1.499999874346965
100
AcDbArc
 50
180.0
 51
270.0
  0
ARC
  5
282
330
1F
100
AcDbEntity
  8
0-0
  6
Continuous
 62
     3
370
     9
100
AcDbCircle
 10
-119.9142590084591
 20
-55.33391839104718
 30
0.0
 40
2.99999974869393
100
AcDbArc
 50
270.0
 51
0.0
  0
ARC
  5
283
330
1F
100
AcDbEntity
  8
0-0
  6
Continuous
 62
     3
370
     9
100
AcDbCircle
 10
-142.7642626375766
 20
-32.38388721362952
 30
0.0
 40
3.999999761581421
100
AcDbArc
 50
270.0
 51
0.0
  0
ARC
  5
284
330
1F
100
AcDbEntity
  8
0-0
  6
Continuous
 62
     3
370
     9
100
AcDbCircle
 10
-161.6642359140757
 20
-32.38388721362952
 30
0.0
 40
3.999999761581421
100
AcDbArc
 50
180.0
 51
270.0
  0
ARC
  5
285
330
1F
100
AcDbEntity
  8
0-0
  6
Continuous
 62
     3
370
     9
100
AcDbCircle
 10
-142.7642626375766
 20
46.31600622228689
 30
0.0
 40
3.999999761581421
100
AcDbArc
 50
0.0
 51
90.0
  0
ARC
  5
286
330
1F
100
AcDbEntity
  8
0-0
  6
Continuous
 62
     3
370
     9
100
AcDbCircle
 10
-161.6642359140757
 20
46.31600622228689
 30
0.0
 40
3.999999761581421
100
AcDbArc
 50
90.0
 51
180.0
  0
ARC
  5
287
330
1F
100
AcDbEntity
  8
0-0
  6
Continuous
 62
     3
370
     9
100
AcDbCircle
 10
-187.6642722052497
 20
46.31600622228689
 30
0.0
 40
3.999999761581421
100
AcDbArc
 50
0.0
 51
90.0
  0
ARC
  5
288
330
1F
100
AcDbEntity
  8
0-0
  6
Continuous
 62
     3
370
     9
100
AcDbCircle
 10
-206.5642454817488
 20
46.31600622228689
 30
0.0
 40
3.999999761581421
100
AcDbArc
 50
90.0
 51
180.0
  0
ARC
  5
289
330
1F
100
AcDbEntity
  8
0-0
  6
Continuous
 62
     3
370
     9
100
AcDbCircle
 10
-232.5642817729228
 20
46.31600622228689
 30
0.0
 40
3.999999761581421
100
AcDbArc
 50
0.0
 51
90.0
  0
ARC
  5
28A
330
1F
100
AcDbEntity
  8
0-0
  6
Continuous
 62
     3
370
     9
100
AcDbCircle
 10
-251.464255049422
 20
46.31600622228689
 30
0.0
 40
3.999999761581421
100
AcDbArc
 50
90.0
 51
180.0
  0
ARC
  5
28B
330
1F
100
AcDbEntity
  8
0-0
  6
Continuous
 62
     3
370
     9
100
AcDbCircle
 10
-277.4642171086491
 20
46.31600622228689
 30
0.0
 40
3.999999761581421
100
AcDbArc
 50
0.0
 51
90.0
  0
ARC
  5
28C
330
1F
100
AcDbEntity
  8
0-0
  6
Continuous
 62
     3
370
     9
100
AcDbCircle
 10
-277.4642171086491
 20
-32.38388721362952
 30
0.0
 40
3.999999761581421
100
AcDbArc
 50
270.0
 51
0.0
  0
ARC
  5
28D
330
1F
100
AcDbEntity
  8
0-0
  6
Continuous
 62
     3
370
     9
100
AcDbCircle
 10
-232.5642817729228
 20
-32.38388721362952
 30
0.0
 40
3.999999761581421
100
AcDbArc
 50
270.0
 51
0.0
  0
ARC
  5
28E
330
1F
100
AcDbEntity
  8
0-0
  6
Continuous
 62
     3
370
     9
100
AcDbCircle
 10
-251.464255049422
 20
-32.38388721362952
 30
0.0
 40
3.999999761581421
100
AcDbArc
 50
180.0
 51
270.0
  0
ARC
  5
28F
330
1F
100
AcDbEntity
  8
0-0
  6
Continuous
 62
     3
370
     9
100
AcDbCircle
 10
-206.5642454817488
 20
-32.38388721362952
 30
0.0
 40
3.999999761581421
100
AcDbArc
 50
180.0
 51
270.0
  0
ARC
  5
290
330
1F
100
AcDbEntity
  8
0-0
  6
Continuous
 62
     3
370
     9
100
AcDbCircle
 10
-187.6642722052497
 20
-32.38388721362952
 30
0.0
 40
3.999999761581421
100
AcDbArc
 50
270.0
 51
0.0
  0
ARC
  5
291
330
1F
100
AcDbEntity
  8
0-0
  6
Continuous
 62
     3
370
     9
100
AcDbCircle
 10
-142.7642626375766
 20
72.31607962943423
 30
0.0
 40
3.999999761581421
100
AcDbArc
 50
270.0
 51
0.0
  0
ARC
  5
292
330
1F
100
AcDbEntity
  8
0-0
  6
Continuous
 62
     3
370
     9
100
AcDbCircle
 10
-161.6642359140757
 20
72.31607962943423
 30
0.0
 40
3.999999761581421
100
AcDbArc
 50
180.0
 51
270.0
  0
ARC
  5
293
330
1F
100
AcDbEntity
  8
0-0
  6
Continuous
 62
     3
370
     9
100
AcDbCircle
 10
-187.6642722052497
 20
72.31607962943423
 30
0.0
 40
3.999999761581421
100
AcDbArc
 50
270.0
 51
0.0
  0
ARC
  5
294
330
1F
100
AcDbEntity
  8
0-0
  6
Continuous
 62
     3
370
     9
100
AcDbCircle
 10
-206.5642454817488
 20
72.31607962943423
 30
0.0
 40
3.999999761581421
100
AcDbArc
 50
180.0
 51
270.0
  0
ARC
  5
295
330
1F
100
AcDbEntity
  8
0-0
  6
Continuous
 62
     3
370
     9
100
AcDbCircle
 10
-232.5642817729228
 20
72.31607962943423
 30
0.0
 40
3.999999761581421
100
AcDbArc
 50
270.0
 51
0.0
  0
ARC
  5
296
330
1F
100
AcDbEntity
  8
0-0
  6
Continuous
 62
     3
370
     9
100
AcDbCircle
 10
-251.464255049422
 20
72.31607962943423
 30
0.0
 40
3.999999761581421
100
AcDbArc
 50
180.0
 51
270.0
  0
ARC
  5
297
330
1F
100
AcDbEntity
  8
0-0
  6
Continuous
 62
     3
370
     9
100
AcDbCircle
 10
-277.4642171086491
 20
72.31607962943423
 30
0.0
 40
3.999999761581421
100
AcDbArc
 50
270.0
 51
0.0
  0
ARC
  5
298
330
1F
100
AcDbEntity
  8
0-0
  6
Continuous
 62
     3
370
     9
100
AcDbCircle
 10
-139.2642263464025
 20
-35.88388638883015
 30
0.0
 40
1.499999874346965
100
AcDbArc
 50
270.0
 51
0.0
  0
ARC
  5
299
330
1F
100
AcDbEntity
  8
0-0
  6
Continuous
 62
     3
370
     9
100
AcDbCircle
 10
229.7345042873073
 20
238.9643505199537
 30
0.0
 40
9.999998969000739
100
AcDbArc
 50
0.0
 51
59.99980163574219
  0
ARC
  5
29A
330
1F
100
AcDbEntity
  8
0-0
  6
Continuous
 62
     3
370
     9
100
AcDbCircle
 10
225.8287161749764
 20
155.2180208773227
 30
0.0
 40
1.499999874346965
100
AcDbArc
 50
95.71192932128906
 51
136.8444366455078
  0
ARC
  5
29B
330
1F
100
AcDbEntity
  8
0-0
  6
Continuous
 62
     3
370
     9
100
AcDbCircle
 10
225.8287161749764
 20
172.8141100084461
 30
0.0
 40
1.499999874346965
100
AcDbArc
 50
223.1555633544922
 51
264.2880706787109
  0
ARC
  5
29C
330
1F
100
AcDbEntity
  8
0-0
  6
Continuous
 62
     3
370
     9
100
AcDbCircle
 10
226.2344679961333
 20
278.4971676388304
 30
0.0
 40
1.499999874346965
100
AcDbArc
 50
0.0
 51
82.99966430664062
  0
ARC
  5
29D
330
1F
100
AcDbEntity
  8
0-0
  6
Continuous
 62
     3
370
     9
100
AcDbCircle
 10
224.7343888153902
 20
262.455124313767
 30
0.0
 40
1.499999874346965
100
AcDbArc
 50
277.0003356933594
 51
359.9999999999999
  0
ARC
  5
29E
330
1F
100
AcDbEntity
  8
0-0
  6
Continuous
 62
     3
370
     9
100
AcDbCircle
 10
226.2344679961333
 20
262.6393680057012
 30
0.0
 40
1.499999874346965
100
AcDbArc
 50
277.0003356933594
 51
359.9999999999999
  0
ARC
  5
29F
330
1F
100
AcDbEntity
  8
0-0
  6
Continuous
 62
     3
370
     9
100
AcDbCircle
 10
234.7344712953311
 20
259.1714741474875
 30
0.0
 40
9.999998969000739
100
AcDbArc
 50
180.0
 51
240.0007019042969
  0
ARC
  5
2A0
330
1F
100
AcDbEntity
  8
0-0
  6
Continuous
 62
     3
370
     9
100
AcDbCircle
 10
229.7345042873073
 20
-15.63214936127514
 30
0.0
 40
9.999998969000739
100
AcDbArc
 50
300.0001983642578
 51
359.9999999999999
  0
ARC
  5
2A1
330
1F
100
AcDbEntity
  8
0-0
  6
Continuous
 62
     3
370
     9
100
AcDbCircle
 10
225.8287161749764
 20
68.11406893343556
 30
0.0
 40
1.499999874346965
100
AcDbArc
 50
223.1555633544922
 51
264.2880706787109
  0
ARC
  5
2A2
330
1F
100
AcDbEntity
  8
0-0
  6
Continuous
 62
     3
370
     9
100
AcDbCircle
 10
225.8287161749764
 20
50.5179798023122
 30
0.0
 40
1.499999874346965
100
AcDbArc
 50
95.71192932128906
 51
136.8444366455078
  0
ARC
  5
2A3
330
1F
100
AcDbEntity
  8
0-0
  6
Continuous
 62
     3
370
     9
100
AcDbCircle
 10
226.2344679961333
 20
-55.16504071209874
 30
0.0
 40
1.499999874346965
100
AcDbArc
 50
277.0003356933594
 51
359.9999999999999
  0
ARC
  5
2A4
330
1F
100
AcDbEntity
  8
0-0
  6
Continuous
 62
     3
370
     9
100
AcDbCircle
 10
224.7343888153902
 20
-39.12303450300874
 30
0.0
 40
1.499999874346965
100
AcDbArc
 50
0.0
 51
82.99966430664062
  0
ARC
  5
2A5
330
1F
100
AcDbEntity
  8
0-0
  6
Continuous
 62
     3
370
     9
100
AcDbCircle
 10
226.2344679961333
 20
-39.30724107896944
 30
0.0
 40
1.499999874346965
100
AcDbArc
 50
0.0
 51
82.99966430664062
  0
ARC
  5
2A6
330
1F
100
AcDbEntity
  8
0-0
  6
Continuous
 62
     3
370
     9
100
AcDbCircle
 10
234.7344712953311
 20
-35.83938433672921
 30
0.0
 40
9.999998969000739
100
AcDbArc
 50
119.9992980957031
 51
180.0
  0
ARC
  5
2A7
330
1F
100
AcDbEntity
  8
0-0
  6
Continuous
 62
     3
370
     9
100
AcDbCircle
 10
-187.6642350892762
 20
19.96604053394236
 30
0.0
 40
4.000000051549963
100
AcDbArc
 50
270.0
 51
0.0
  0
ARC
  5
2A8
330
1F
100
AcDbEntity
  8
0-0
  6
Continuous
 62
     3
370
     9
100
AcDbCircle
 10
-206.5642825977222
 20
-6.033921525284825
 30
0.0
 40
4.000000051549963
100
AcDbArc
 50
90.0
 51
180.0
  0
ARC
  5
2A9
330
1F
100
AcDbEntity
  8
0-0
  6
Continuous
 62
     3
370
     9
100
AcDbCircle
 10
-206.5642825977222
 20
19.96604053394236
 30
0.0
 40
4.000000051549963
100
AcDbArc
 50
180.0
 51
270.0
  0
ARC
  5
2AA
330
1F
100
AcDbEntity
  8
0-0
  6
Continuous
 62
     3
370
     9
100
AcDbCircle
 10
-161.6642730300491
 20
-6.033921525284825
 30
0.0
 40
4.000000051549963
100
AcDbArc
 50
90.0
 51
180.0
  0
ARC
  5
2AB
330
1F
100
AcDbEntity
  8
0-0
  6
Continuous
 62
     3
370
     9
100
AcDbCircle
 10
-161.6642730300491
 20
19.96604053394236
 30
0.0
 40
4.000000051549963
100
AcDbArc
 50
180.0
 51
270.0
  0
ARC
  5
2AC
330
1F
100
AcDbEntity
  8
0-0
  6
Continuous
 62
     3
370
     9
100
AcDbCircle
 10
-142.7642626375766
 20
19.96604053394236
 30
0.0
 40
4.000000051549963
100
AcDbArc
 50
270.0
 51
0.0
  0
ARC
  5
2AD
330
1F
100
AcDbEntity
  8
0-0
  6
Continuous
 62
     3
370
     9
100
AcDbCircle
 10
-142.7642626375766
 20
-6.033921525284825
 30
0.0
 40
4.000000051549963
100
AcDbArc
 50
0.0
 51
90.0
  0
ARC
  5
2AE
330
1F
100
AcDbEntity
  8
0-0
  6
Continuous
 62
     3
370
     9
100
AcDbCircle
 10
-187.6642350892762
 20
-6.033921525284825
 30
0.0
 40
4.000000051549963
100
AcDbArc
 50
0.0
 51
90.0
  0
ARC
  5
2AF
330
1F
100
AcDbEntity
  8
0-2
  6
Continuous
 62
     6
370
     5
100
AcDbCircle
 10
465.6182438618428
 20
112.6860104122679
 30
0.0
 40
4.000000051549963
100
AcDbArc
 50
30.0
 51
210.0
  0
CIRCLE
  5
2B0
330
1F
100
AcDbEntity
  8
0-2
  6
Continuous
 62
     6
370
     5
100
AcDbCircle
 10
464.8679815756308
 20
113.9850694811024
 30
0.0
 40
2.500000032218727
  0
CIRCLE
  5
2B1
330
1F
100
AcDbEntity
  8
0-2
  6
Continuous
 62
     6
370
     5
100
AcDbCircle
 10
446.3678957964923
 20
146.0279945167337
 30
0.0
 40
2.500000032218727
  0
ARC
  5
2B2
330
1F
100
AcDbEntity
  8
0-2
  6
Continuous
 62
     6
370
     5
100
AcDbCircle
 10
465.6182438618428
 20
112.6860104122679
 30
0.0
 40
9.000000115987417
100
AcDbArc
 50
30.0
 51
210.0
  0
ARC
  5
2B3
330
1F
100
AcDbEntity
  8
0-2
  6
Continuous
 62
     6
370
     5
100
AcDbCircle
 10
445.4734750696133
 20
148.4473250105576
 30
0.0
 40
12.00000015464989
100
AcDbArc
 50
180.0
 51
0.0000152587890625
  0
ARC
  5
2B4
330
1F
100
AcDbEntity
  8
0-2
  6
Continuous
 62
     6
370
     5
100
AcDbCircle
 10
445.4734750696133
 20
148.4473250105576
 30
0.0
 40
5.000000064437454
100
AcDbArc
 50
180.0
 51
351.6675262451171
  0
ARC
  5
2B5
330
1F
100
AcDbEntity
  8
0-2
  6
Continuous
 62
     6
370
     5
100
AcDbCircle
 10
455.4731863898202
 20
175.2299144847974
 30
0.0
 40
5.000000064437454
100
AcDbArc
 50
180.0
 51
195.0
  0
ARC
  5
2B6
330
1F
100
AcDbEntity
  8
0-2
  6
Continuous
 62
     6
370
     5
100
AcDbCircle
 10
448.4733365033123
 20
174.3083248653929
 30
0.0
 40
5.000000064437454
100
AcDbArc
 50
180.0
 51
195.0
  0
ARC
  5
2B7
330
1F
100
AcDbEntity
  8
0-2
  6
Continuous
 62
     6
370
     5
100
AcDbCircle
 10
441.4733381529114
 20
252.4473959433067
 30
0.0
 40
2.000000025774982
100
AcDbArc
 50
0.0
 51
90.0
  0
ARC
  5
2B8
330
1F
100
AcDbEntity
  8
0-2
  6
Continuous
 62
     6
370
     5
100
AcDbCircle
 10
443.4730725675017
 20
254.4473530537375
 30
0.0
 40
7.000000090212434
100
AcDbArc
 50
0.0
 51
90.0
  0
ARC
  5
2B9
330
1F
100
AcDbEntity
  8
0-2
  6
JWW_CENTER1
 62
     6
370
     5
100
AcDbCircle
 10
441.4733381529114
 20
252.4473959433067
 30
0.0
 40
5.500000360849742
100
AcDbArc
 50
0.0
 51
90.0
  0
ARC
  5
2BA
330
1F
100
AcDbEntity
  8
0-2
  6
JWW_CENTER1
 62
     6
370
     5
100
AcDbCircle
 10
445.4734750696133
 20
148.4473250105576
 30
0.0
 40
8.49999981957513
100
AcDbArc
 50
180.0
 51
357.1561737060547
  0
ARC
  5
2BB
330
1F
100
AcDbEntity
  8
0-2
  6
JWW_CENTER1
 62
     6
370
     5
100
AcDbCircle
 10
422.7324439383842
 20
66.96607187631982
 30
0.0
 40
59.99999845350111
100
AcDbArc
 50
270.0
 51
30.00004577636718
  0
ARC
  5
2BC
330
1F
100
AcDbEntity
  8
0-2
  6
JWW_CENTER1
 62
     6
370
     5
100
AcDbCircle
 10
448.4733365033123
 20
174.3083248653929
 30
0.0
 40
1.500000019331236
100
AcDbArc
 50
180.0
 51
195.0
  0
ARC
  5
2BD
330
1F
100
AcDbEntity
  8
0-2
  6
Continuous
 62
     6
370
     5
100
AcDbCircle
 10
296.2347484279323
 20
6.965948156408615
 30
0.0
 40
2.500000322187269
100
AcDbArc
 50
90.0
 51
270.0
  0
ARC
  5
2BE
330
1F
100
AcDbEntity
  8
0-2
  6
Continuous
 62
     6
370
     5
100
AcDbCircle
 10
294.7345207832955
 20
6.965948156408615
 30
0.0
 40
8.999998956113249
100
AcDbArc
 50
269.9998321533203
 51
343.8724060058594
  0
ARC
  5
2BF
330
1F
100
AcDbEntity
  8
0-2
  6
Continuous
 62
     6
370
     5
100
AcDbCircle
 10
294.7345207832955
 20
6.965948156408615
 30
0.0
 40
4.000000921455589
100
AcDbArc
 50
270.0
 51
321.3177947998047
  0
ARC
  5
2C0
330
1F
100
AcDbEntity
  8
0-2
  6
Continuous
 62
     6
370
     5
100
AcDbCircle
 10
294.7345207832955
 20
6.965948156408615
 30
0.0
 40
4.000000921455589
100
AcDbArc
 50
38.68220520019531
 51
90.0
  0
ARC
  5
2C1
330
1F
100
AcDbEntity
  8
0-2
  6
Continuous
 62
     6
370
     5
100
AcDbCircle
 10
294.7345207832955
 20
6.965948156408615
 30
0.0
 40
8.999998956113249
100
AcDbArc
 50
16.12759399414062
 51
89.99999999999999
  0
CIRCLE
  5
2C2
330
1F
100
AcDbEntity
  8
0-2
  6
Continuous
 62
     4
370
     9
100
AcDbCircle
 10
234.7346197592245
 20
6.966059504328683
 30
0.0
 40
5.000000064437454
  0
ARC
  5
2C3
330
1F
100
AcDbEntity
  8
0-2
  6
Continuous
 62
     6
370
     5
100
AcDbCircle
 10
270.7345900664458
 20
6.965948156408615
 30
0.0
 40
9.000001275861585
100
AcDbArc
 50
202.8844451904297
 51
270.0
  0
ARC
  5
2C4
330
1F
100
AcDbEntity
  8
0-2
  6
Continuous
 62
     6
370
     5
100
AcDbCircle
 10
270.7345900664458
 20
6.965948156408615
 30
0.0
 40
4.000000631487048
100
AcDbArc
 50
241.0411834716797
 51
270.0003814697266
  0
ARC
  5
2C5
330
1F
100
AcDbEntity
  8
0-2
  6
Continuous
 62
     6
370
     5
100
AcDbCircle
 10
270.7345900664458
 20
6.965948156408615
 30
0.0
 40
9.000001275861585
100
AcDbArc
 50
90.0
 51
157.1138000488282
  0
ARC
  5
2C6
330
1F
100
AcDbEntity
  8
0-2
  6
Continuous
 62
     6
370
     5
100
AcDbCircle
 10
270.7345900664458
 20
6.965948156408615
 30
0.0
 40
4.000000631487048
100
AcDbArc
 50
89.99961853027342
 51
118.9524536132812
  0
ARC
  5
2C7
330
1F
100
AcDbEntity
  8
0-2
  6
Continuous
 62
     4
370
     9
100
AcDbCircle
 10
270.2347863687052
 20
6.965948156408615
 30
0.0
 40
3.500000045106217
100
AcDbArc
 50
270.0
 51
90.0
  0
ARC
  5
2C8
330
1F
100
AcDbEntity
  8
0-2
  6
Continuous
 62
     4
370
     9
100
AcDbCircle
 10
234.7346197592245
 20
6.966059504328683
 30
0.0
 40
10.49999984535011
100
AcDbArc
 50
19.47117614746094
 51
340.5288238525391
  0
ARC
  5
2C9
330
1F
100
AcDbEntity
  8
0-0
  6
Continuous
 62
     3
370
     9
100
AcDbCircle
 10
234.7346197592245
 20
6.966059504328683
 30
0.0
 40
16.49999992267505
100
AcDbArc
 50
12.24642944335938
 51
80.07664489746094
  0
ARC
  5
2CA
330
1F
100
AcDbEntity
  8
0-0
  6
Continuous
 62
     3
370
     9
100
AcDbCircle
 10
234.7346197592245
 20
6.966059504328683
 30
0.0
 40
16.49999992267505
100
AcDbArc
 50
279.9233551025391
 51
347.7535705566406
  0
ARC
  5
2CB
330
1F
100
AcDbEntity
  8
0-1
  6
Continuous
 62
     2
370
     9
100
AcDbCircle
 10
213.2344498505464
 20
-66.00980851456913
 30
0.0
 40
1.500000019331236
100
AcDbArc
 50
180.0
 51
262.8750305175781
  0
ARC
  5
2CC
330
1F
100
AcDbEntity
  8
0-1
  6
Continuous
 62
     2
370
     9
100
AcDbCircle
 10
213.2344498505464
 20
-61.65810909786725
 30
0.0
 40
1.500000019331236
100
AcDbArc
 50
97.12496948242188
 51
179.9993286132812
  0
ARC
  5
2CD
330
1F
100
AcDbEntity
  8
0-1
  6
Continuous
 62
     2
370
     9
100
AcDbCircle
 10
227.2345950152423
 20
-87.60425299567132
 30
0.0
 40
1.500000019331236
100
AcDbArc
 50
180.0
 51
258.6903228759766
  0
ARC
  5
2CE
330
1F
100
AcDbEntity
  8
0-1
  6
Continuous
 62
     2
370
     9
100
AcDbCircle
 10
227.2345950152423
 20
-81.4552867992503
 30
0.0
 40
1.500000019331236
100
AcDbArc
 50
134.9997711181641
 51
180.0
  0
ARC
  5
2CF
330
1F
100
AcDbEntity
  8
0-1
  6
Continuous
 62
     2
370
     9
100
AcDbCircle
 10
226.2345422280802
 20
-78.21264978357249
 30
0.0
 40
1.500000019331236
100
AcDbArc
 50
314.9997711181641
 51
0.0
  0
ARC
  5
2D0
330
1F
100
AcDbEntity
  8
0-1
  6
Continuous
 62
     2
370
     9
100
AcDbCircle
 10
222.7345059369061
 20
-73.74789511190858
 30
0.0
 40
5.000000064437454
100
AcDbArc
 50
0.0
 51
82.8748779296875
  0
ARC
  5
2D1
330
1F
100
AcDbEntity
  8
0-1
  6
Continuous
 62
     2
370
     9
100
AcDbCircle
 10
225.7345158344992
 20
-56.5683956661739
 30
0.0
 40
2.000000025774982
100
AcDbArc
 50
277.1253204345703
 51
0.0
  0
ARC
  5
2D2
330
1F
100
AcDbEntity
  8
0-1
  6
Continuous
 62
     2
370
     9
100
AcDbCircle
 10
-453.9142041592984
 20
-55.33391839104718
 30
0.0
 40
5.000000064437454
100
AcDbArc
 50
180.0
 51
270.0
  0
ARC
  5
2D3
330
1F
100
AcDbEntity
  8
0-1
  6
Continuous
 62
     2
370
     9
100
AcDbCircle
 10
-475.4144668579102
 20
57.66603377058712
 30
0.0
 40
2.000000025774982
100
AcDbArc
 50
90.0
 51
180.0
  0
ARC
  5
2D4
330
1F
100
AcDbEntity
  8
0-1
  6
Continuous
 62
     2
370
     9
100
AcDbCircle
 10
-362.914169930123
 20
-76.83375425596483
 30
0.0
 40
2.000000025774982
100
AcDbArc
 50
180.0
 51
270.0
  0
ARC
  5
2D5
330
1F
100
AcDbEntity
  8
0-1
  6
Continuous
 62
     2
370
     9
100
AcDbCircle
 10
-362.914169930123
 20
-71.3337979703335
 30
0.0
 40
2.000000025774982
100
AcDbArc
 50
90.0
 51
180.0
  0
ARC
  5
2D6
330
1F
100
AcDbEntity
  8
0-1
  6
Continuous
 62
     2
370
     9
100
AcDbCircle
 10
-362.914169930123
 20
-76.83375425596483
 30
0.0
 40
4.000000051549963
100
AcDbArc
 50
180.0001220703125
 51
270.0001220703125
  0
ARC
  5
2D7
330
1F
100
AcDbEntity
  8
0-1
  6
Continuous
 62
     2
370
     9
100
AcDbCircle
 10
-362.914169930123
 20
-71.3337979703335
 30
0.0
 40
4.000000051549963
100
AcDbArc
 50
118.9553375244141
 51
180.0001220703125
  0
ARC
  5
2D8
330
1F
100
AcDbEntity
  8
0-1
  6
Continuous
 62
     2
370
     9
100
AcDbCircle
 10
-410.914235501676
 20
-76.83382848791163
 30
0.0
 40
2.000000025774982
100
AcDbArc
 50
270.0
 51
0.0
  0
ARC
  5
2D9
330
1F
100
AcDbEntity
  8
0-1
  6
Continuous
 62
     2
370
     9
100
AcDbCircle
 10
-410.914235501676
 20
-76.83382848791163
 30
0.0
 40
4.000000051549963
100
AcDbArc
 50
270.0001220703125
 51
0.0001220703125213
  0
ARC
  5
2DA
330
1F
100
AcDbEntity
  8
0-1
  6
Continuous
 62
     2
370
     9
100
AcDbCircle
 10
-475.4144668579102
 20
57.66603377058712
 30
0.0
 40
4.000000051549963
100
AcDbArc
 50
90.0
 51
180.0
  0
ARC
  5
2DB
330
1F
100
AcDbEntity
  8
0-1
  6
Continuous
 62
     2
370
     9
100
AcDbCircle
 10
-386.9142119948928
 20
-80.83392828864007
 30
0.0
 40
7.500001546498892
100
AcDbArc
 50
0.0001983642578125
 51
180.0001983642578
  0
ARC
  5
2DC
330
1F
100
AcDbEntity
  8
0-1
  6
Continuous
 62
     2
370
     9
100
AcDbCircle
 10
-386.9142119948928
 20
-80.83392828864007
 30
0.0
 40
9.500002152210959
100
AcDbArc
 50
0.000213623046875
 51
180.0002136230469
  0
ARC
  5
2DD
330
1F
100
AcDbEntity
  8
0-1
  6
Continuous
 62
     2
370
     9
100
AcDbCircle
 10
-398.4142066336967
 20
-86.83383673590569
 30
0.0
 40
2.000000025774982
100
AcDbArc
 50
270.0
 51
0.0002441406249917
  0
ARC
  5
2DE
330
1F
100
AcDbEntity
  8
0-1
  6
Continuous
 62
     2
370
     9
100
AcDbCircle
 10
-398.4142066336967
 20
-86.83383673590569
 30
0.0
 40
4.000000051549963
100
AcDbArc
 50
270.0001220703125
 51
0.0001220703125213
  0
ARC
  5
2DF
330
1F
100
AcDbEntity
  8
0-1
  6
Continuous
 62
     2
370
     9
100
AcDbCircle
 10
-375.4141987981022
 20
-86.83379961993234
 30
0.0
 40
4.000000051549963
100
AcDbArc
 50
180.0001220703125
 51
270.0001220703125
  0
ARC
  5
2E0
330
1F
100
AcDbEntity
  8
0-1
  6
Continuous
 62
     2
370
     9
100
AcDbCircle
 10
-375.4141987981022
 20
-86.83379961993234
 30
0.0
 40
2.000000025774982
100
AcDbArc
 50
180.000244140625
 51
270.0
  0
ARC
  5
2E1
330
1F
100
AcDbEntity
  8
0-1
  6
Continuous
 62
     2
370
     9
100
AcDbCircle
 10
-475.4141884881097
 20
35.6660601641683
 30
0.0
 40
2.000000025774982
100
AcDbArc
 50
180.0
 51
270.0
  0
ARC
  5
2E2
330
1F
100
AcDbEntity
  8
0-1
  6
Continuous
 62
     2
370
     9
100
AcDbCircle
 10
-469.9142136444916
 20
35.66613439611501
 30
0.0
 40
2.000000025774982
100
AcDbArc
 50
270.0
 51
0.0
  0
ARC
  5
2E3
330
1F
100
AcDbEntity
  8
0-1
  6
Continuous
 62
     2
370
     9
100
AcDbCircle
 10
-475.4141884881097
 20
35.6660601641683
 30
0.0
 40
4.000000051549963
100
AcDbArc
 50
180.0
 51
270.0
  0
ARC
  5
2E4
330
1F
100
AcDbEntity
  8
0-1
  6
Continuous
 62
     2
370
     9
100
AcDbCircle
 10
-469.9142136444916
 20
35.66613439611501
 30
0.0
 40
4.000000051549963
100
AcDbArc
 50
270.0
 51
331.0447845458984
  0
ARC
  5
2E5
330
1F
100
AcDbEntity
  8
0-1
  6
Continuous
 62
     2
370
     9
100
AcDbCircle
 10
-469.9142136444916
 20
-12.33394973342467
 30
0.0
 40
4.000000051549963
100
AcDbArc
 50
28.95521545410156
 51
90.0
  0
ARC
  5
2E6
330
1F
100
AcDbEntity
  8
0-1
  6
Continuous
 62
     2
370
     9
100
AcDbCircle
 10
-475.4141884881097
 20
-12.33394973342467
 30
0.0
 40
2.000000025774982
100
AcDbArc
 50
90.0
 51
180.0
  0
ARC
  5
2E7
330
1F
100
AcDbEntity
  8
0-1
  6
Continuous
 62
     2
370
     9
100
AcDbCircle
 10
-469.9142136444916
 20
-12.33394973342467
 30
0.0
 40
2.000000025774982
100
AcDbArc
 50
0.0
 51
90.0
  0
ARC
  5
2E8
330
1F
100
AcDbEntity
  8
0-1
  6
Continuous
 62
     2
370
     9
100
AcDbCircle
 10
-475.4141884881097
 20
-12.33394973342467
 30
0.0
 40
4.000000051549963
100
AcDbArc
 50
90.0
 51
180.0
  0
ARC
  5
2E9
330
1F
100
AcDbEntity
  8
0-1
  6
Continuous
 62
     2
370
     9
100
AcDbCircle
 10
-479.4143254048116
 20
11.66605521537173
 30
0.0
 40
7.500001546498892
100
AcDbArc
 50
269.9999389648438
 51
89.99993896484376
  0
ARC
  5
2EA
330
1F
100
AcDbEntity
  8
0-1
  6
Continuous
 62
     2
370
     9
100
AcDbCircle
 10
-479.4143254048116
 20
11.66605521537173
 30
0.0
 40
9.500002152210959
100
AcDbArc
 50
269.9998931884766
 51
89.99989318847658
  0
ARC
  5
2EB
330
1F
100
AcDbEntity
  8
0-1
  6
Continuous
 62
     2
370
     9
100
AcDbCircle
 10
-485.4142338520772
 20
0.1660420185811802
 30
0.0
 40
2.000000025774982
100
AcDbArc
 50
89.99975585937501
 51
180.0
  0
ARC
  5
2EC
330
1F
100
AcDbEntity
  8
0-1
  6
Continuous
 62
     2
370
     9
100
AcDbCircle
 10
-485.4142338520772
 20
0.1660420185811802
 30
0.0
 40
4.000000051549963
100
AcDbArc
 50
90.0
 51
180.0
  0
ARC
  5
2ED
330
1F
100
AcDbEntity
  8
0-1
  6
Continuous
 62
     2
370
     9
100
AcDbCircle
 10
-485.4142338520772
 20
23.16606841216236
 30
0.0
 40
4.000000051549963
100
AcDbArc
 50
180.0
 51
270.0
  0
ARC
  5
2EE
330
1F
100
AcDbEntity
  8
0-1
  6
Continuous
 62
     2
370
     9
100
AcDbCircle
 10
-485.4142338520772
 20
23.16606841216236
 30
0.0
 40
2.000000025774982
100
AcDbArc
 50
180.0
 51
269.999755859375
  0
ARC
  5
2EF
330
1F
100
AcDbEntity
  8
0-1
  6
Continuous
 62
     2
370
     9
100
AcDbCircle
 10
-469.9143621083853
 20
57.66603377058712
 30
0.0
 40
2.000000025774982
100
AcDbArc
 50
0.0
 51
90.0
  0
ARC
  5
2F0
330
1F
100
AcDbEntity
  8
0-1
  6
Continuous
 62
     2
370
     9
100
AcDbCircle
 10
-469.9143621083853
 20
57.66603377058712
 30
0.0
 40
4.000000051549963
100
AcDbArc
 50
28.95004272460938
 51
90.0
  0
ARC
  5
2F1
330
1F
100
AcDbEntity
  8
0-1
  6
Continuous
 62
     2
370
     9
100
AcDbCircle
 10
-410.914235501676
 20
-71.3338722022803
 30
0.0
 40
2.000000025774982
100
AcDbArc
 50
0.000244140625
 51
90.00000000000001
  0
ARC
  5
2F2
330
1F
100
AcDbEntity
  8
0-1
  6
Continuous
 62
     2
370
     9
100
AcDbCircle
 10
-410.914235501676
 20
-71.3338722022803
 30
0.0
 40
4.000000051549963
100
AcDbArc
 50
0.0001220703125
 51
61.04490661621094
  0
ARC
  5
2F3
330
1F
100
AcDbEntity
  8
0-1
  6
Continuous
 62
     2
370
     9
100
AcDbCircle
 10
-458.9142268412822
 20
-60.33392251504421
 30
0.0
 40
7.000000090212434
100
AcDbArc
 50
180.0001373291016
 51
270.0
  0
ARC
  5
2F4
330
1F
100
AcDbEntity
  8
0-1
  6
Continuous
 62
     2
370
     9
100
AcDbCircle
 10
-458.9142268412822
 20
-60.33392251504421
 30
0.0
 40
9.000000115987417
100
AcDbArc
 50
180.0000610351562
 51
270.0
  0
ARC
  5
2F5
330
1F
100
AcDbEntity
  8
0-1
  6
Continuous
 62
     2
370
     9
100
AcDbCircle
 10
-457.4141847765123
 20
-58.83388045027436
 30
0.0
 40
32.00000041239971
100
AcDbArc
 50
180.0000915527344
 51
270.0
  0
ARC
  5
2F6
330
1F
100
AcDbEntity
  8
0-1
  6
Continuous
 62
     2
370
     9
100
AcDbCircle
 10
-457.4141847765123
 20
-58.83388045027436
 30
0.0
 40
30.00000154649889
100
AcDbArc
 50
180.0001068115234
 51
270.0
  0
ARC
  5
2F7
330
1F
100
AcDbEntity
  8
0-1
  6
Continuous
 62
     2
370
     9
100
AcDbCircle
 10
-453.9142041592984
 20
278.6660453177789
 30
0.0
 40
5.000000064437454
100
AcDbArc
 50
90.0
 51
180.0
  0
ARC
  5
2F8
330
1F
100
AcDbEntity
  8
0-1
  6
Continuous
 62
     2
370
     9
100
AcDbCircle
 10
-475.4144668579102
 20
165.6660931561445
 30
0.0
 40
2.000000025774982
100
AcDbArc
 50
180.0
 51
270.0
  0
ARC
  5
2F9
330
1F
100
AcDbEntity
  8
0-1
  6
Continuous
 62
     2
370
     9
100
AcDbCircle
 10
-362.914169930123
 20
300.1658440667231
 30
0.0
 40
2.000000025774982
100
AcDbArc
 50
90.0
 51
180.0
  0
ARC
  5
2FA
330
1F
100
AcDbEntity
  8
0-1
  6
Continuous
 62
     2
370
     9
100
AcDbCircle
 10
-362.914169930123
 20
294.6658506651183
 30
0.0
 40
2.000000025774982
100
AcDbArc
 50
180.0
 51
270.0
  0
ARC
  5
2FB
330
1F
100
AcDbEntity
  8
0-1
  6
Continuous
 62
     2
370
     9
100
AcDbCircle
 10
-362.914169930123
 20
300.1658440667231
 30
0.0
 40
4.000000051549963
100
AcDbArc
 50
90.0
 51
180.0
  0
ARC
  5
2FC
330
1F
100
AcDbEntity
  8
0-1
  6
Continuous
 62
     2
370
     9
100
AcDbCircle
 10
-362.914169930123
 20
294.6658506651183
 30
0.0
 40
4.000000051549963
100
AcDbArc
 50
180.0
 51
241.0447845458984
  0
ARC
  5
2FD
330
1F
100
AcDbEntity
  8
0-1
  6
Continuous
 62
     2
370
     9
100
AcDbCircle
 10
-410.914235501676
 20
300.1659182986699
 30
0.0
 40
2.000000025774982
100
AcDbArc
 50
0.0
 51
90.0
  0
ARC
  5
2FE
330
1F
100
AcDbEntity
  8
0-1
  6
Continuous
 62
     2
370
     9
100
AcDbCircle
 10
-410.914235501676
 20
300.1659182986699
 30
0.0
 40
4.000000051549963
100
AcDbArc
 50
0.0
 51
90.0
  0
ARC
  5
2FF
330
1F
100
AcDbEntity
  8
0-1
  6
Continuous
 62
     2
370
     9
100
AcDbCircle
 10
-475.4144668579102
 20
165.6660931561445
 30
0.0
 40
4.000000051549963
100
AcDbArc
 50
180.0
 51
270.0
  0
ARC
  5
300
330
1F
100
AcDbEntity
  8
0-1
  6
Continuous
 62
     2
370
     9
100
AcDbCircle
 10
-386.9142119948928
 20
304.1660552153717
 30
0.0
 40
7.500001546498892
100
AcDbArc
 50
179.9996643066406
 51
359.9996643066406
  0
ARC
  5
301
330
1F
100
AcDbEntity
  8
0-1
  6
Continuous
 62
     2
370
     9
100
AcDbCircle
 10
-386.9142119948928
 20
304.1660552153717
 30
0.0
 40
9.500002152210959
100
AcDbArc
 50
179.9996795654297
 51
359.9996795654297
  0
ARC
  5
302
330
1F
100
AcDbEntity
  8
0-1
  6
Continuous
 62
     2
370
     9
100
AcDbCircle
 10
-398.4142066336967
 20
310.165926546664
 30
0.0
 40
2.000000025774982
100
AcDbArc
 50
359.999755859375
 51
90.0
  0
ARC
  5
303
330
1F
100
AcDbEntity
  8
0-1
  6
Continuous
 62
     2
370
     9
100
AcDbCircle
 10
-398.4142066336967
 20
310.165926546664
 30
0.0
 40
4.000000051549963
100
AcDbArc
 50
0.0
 51
90.0
  0
ARC
  5
304
330
1F
100
AcDbEntity
  8
0-1
  6
Continuous
 62
     2
370
     9
100
AcDbCircle
 10
-375.4141987981022
 20
310.165926546664
 30
0.0
 40
4.000000051549963
100
AcDbArc
 50
90.0
 51
180.0
  0
ARC
  5
305
330
1F
100
AcDbEntity
  8
0-1
  6
Continuous
 62
     2
370
     9
100
AcDbCircle
 10
-375.4141987981022
 20
310.165926546664
 30
0.0
 40
2.000000025774982
100
AcDbArc
 50
90.0
 51
179.999755859375
  0
ARC
  5
306
330
1F
100
AcDbEntity
  8
0-1
  6
Continuous
 62
     2
370
     9
100
AcDbCircle
 10
-475.4141884881097
 20
187.6659925306167
 30
0.0
 40
2.000000025774982
100
AcDbArc
 50
90.0
 51
180.0
  0
ARC
  5
307
330
1F
100
AcDbEntity
  8
0-1
  6
Continuous
 62
     2
370
     9
100
AcDbCircle
 10
-469.9142136444916
 20
187.6659925306167
 30
0.0
 40
2.000000025774982
100
AcDbArc
 50
0.0
 51
90.0
  0
ARC
  5
308
330
1F
100
AcDbEntity
  8
0-1
  6
Continuous
 62
     2
370
     9
100
AcDbCircle
 10
-475.4141884881097
 20
187.6659925306167
 30
0.0
 40
4.000000051549963
100
AcDbArc
 50
90.0
 51
180.0
  0
ARC
  5
309
330
1F
100
AcDbEntity
  8
0-1
  6
Continuous
 62
     2
370
     9
100
AcDbCircle
 10
-469.9142136444916
 20
187.6659925306167
 30
0.0
 40
4.000000051549963
100
AcDbArc
 50
28.95521545410156
 51
90.0
  0
ARC
  5
30A
330
1F
100
AcDbEntity
  8
0-1
  6
Continuous
 62
     2
370
     9
100
AcDbCircle
 10
-469.9142136444916
 20
235.6660766601564
 30
0.0
 40
4.000000051549963
100
AcDbArc
 50
270.0
 51
331.0447845458984
  0
ARC
  5
30B
330
1F
100
AcDbEntity
  8
0-1
  6
Continuous
 62
     2
370
     9
100
AcDbCircle
 10
-475.4141884881097
 20
235.6660766601564
 30
0.0
 40
2.000000025774982
100
AcDbArc
 50
180.0
 51
270.0
  0
ARC
  5
30C
330
1F
100
AcDbEntity
  8
0-1
  6
Continuous
 62
     2
370
     9
100
AcDbCircle
 10
-469.9142136444916
 20
235.6660766601564
 30
0.0
 40
2.000000025774982
100
AcDbArc
 50
270.0
 51
0.0
  0
ARC
  5
30D
330
1F
100
AcDbEntity
  8
0-1
  6
Continuous
 62
     2
370
     9
100
AcDbCircle
 10
-475.4141884881097
 20
235.6660766601564
 30
0.0
 40
4.000000051549963
100
AcDbArc
 50
180.0
 51
270.0
  0
ARC
  5
30E
330
1F
100
AcDbEntity
  8
0-1
  6
Continuous
 62
     2
370
     9
100
AcDbCircle
 10
-479.4143254048116
 20
211.6660717113599
 30
0.0
 40
7.500001546498892
100
AcDbArc
 50
270.0000610351562
 51
90.00006103515624
  0
ARC
  5
30F
330
1F
100
AcDbEntity
  8
0-1
  6
Continuous
 62
     2
370
     9
100
AcDbCircle
 10
-479.4143254048116
 20
211.6660717113599
 30
0.0
 40
9.500002152210959
100
AcDbArc
 50
270.0001068115234
 51
90.00010681152342
  0
ARC
  5
310
330
1F
100
AcDbEntity
  8
0-1
  6
Continuous
 62
     2
370
     9
100
AcDbCircle
 10
-485.4142338520772
 20
223.1660849081505
 30
0.0
 40
2.000000025774982
100
AcDbArc
 50
180.0
 51
270.000244140625
  0
ARC
  5
311
330
1F
100
AcDbEntity
  8
0-1
  6
Continuous
 62
     2
370
     9
100
AcDbCircle
 10
-485.4142338520772
 20
223.1660849081505
 30
0.0
 40
4.000000051549963
100
AcDbArc
 50
180.0
 51
270.0
  0
ARC
  5
312
330
1F
100
AcDbEntity
  8
0-1
  6
Continuous
 62
     2
370
     9
100
AcDbCircle
 10
-485.4142338520772
 20
200.1660585145694
 30
0.0
 40
4.000000051549963
100
AcDbArc
 50
90.0
 51
180.0
  0
ARC
  5
313
330
1F
100
AcDbEntity
  8
0-1
  6
Continuous
 62
     2
370
     9
100
AcDbCircle
 10
-485.4142338520772
 20
200.1660585145694
 30
0.0
 40
2.000000025774982
100
AcDbArc
 50
90.00024414062499
 51
180.0
  0
ARC
  5
314
330
1F
100
AcDbEntity
  8
0-1
  6
Continuous
 62
     2
370
     9
100
AcDbCircle
 10
-469.9143621083853
 20
165.6660931561445
 30
0.0
 40
2.000000025774982
100
AcDbArc
 50
270.0
 51
0.0
  0
ARC
  5
315
330
1F
100
AcDbEntity
  8
0-1
  6
Continuous
 62
     2
370
     9
100
AcDbCircle
 10
-469.9143621083853
 20
165.6660931561445
 30
0.0
 40
4.000000051549963
100
AcDbArc
 50
270.0
 51
331.0499572753906
  0
ARC
  5
316
330
1F
100
AcDbEntity
  8
0-1
  6
Continuous
 62
     2
370
     9
100
AcDbCircle
 10
-410.914235501676
 20
294.6659248970652
 30
0.0
 40
2.000000025774982
100
AcDbArc
 50
270.0
 51
359.999755859375
  0
ARC
  5
317
330
1F
100
AcDbEntity
  8
0-1
  6
Continuous
 62
     2
370
     9
100
AcDbCircle
 10
-410.914235501676
 20
294.6659248970652
 30
0.0
 40
4.000000051549963
100
AcDbArc
 50
298.9552154541016
 51
0.0
  0
ARC
  5
318
330
1F
100
AcDbEntity
  8
0-1
  6
Continuous
 62
     2
370
     9
100
AcDbCircle
 10
-458.9142268412822
 20
283.6660123258025
 30
0.0
 40
7.000000090212434
100
AcDbArc
 50
90.0
 51
179.9998626708984
  0
ARC
  5
319
330
1F
100
AcDbEntity
  8
0-1
  6
Continuous
 62
     2
370
     9
100
AcDbCircle
 10
-458.9142268412822
 20
283.6660123258025
 30
0.0
 40
9.000000115987417
100
AcDbArc
 50
90.0
 51
179.9999389648438
  0
ARC
  5
31A
330
1F
100
AcDbEntity
  8
0-1
  6
Continuous
 62
     2
370
     9
100
AcDbCircle
 10
-457.4141847765123
 20
282.1660073770061
 30
0.0
 40
22.00000144339897
100
AcDbArc
 50
90.0
 51
179.9998626708984
  0
ARC
  5
31B
330
1F
100
AcDbEntity
  8
0-1
  6
Continuous
 62
     2
370
     9
100
AcDbCircle
 10
-457.4141847765123
 20
282.1660073770061
 30
0.0
 40
20.00000025774982
100
AcDbArc
 50
90.0
 51
179.9998779296875
  0
ARC
  5
31C
330
1F
100
AcDbEntity
  8
0-1
  6
Continuous
 62
     2
370
     9
100
AcDbCircle
 10
-457.4141847765123
 20
282.1660073770061
 30
0.0
 40
32.00000041239971
100
AcDbArc
 50
90.0
 51
179.9999084472656
  0
ARC
  5
31D
330
1F
100
AcDbEntity
  8
0-1
  6
Continuous
 62
     2
370
     9
100
AcDbCircle
 10
-457.4141847765123
 20
282.1660073770061
 30
0.0
 40
30.00000154649889
100
AcDbArc
 50
90.0
 51
179.9998931884766
  0
ARC
  5
31E
330
1F
100
AcDbEntity
  8
0-1
  6
Continuous
 62
     2
370
     9
100
AcDbCircle
 10
-119.9142961244325
 20
-55.33391839104718
 30
0.0
 40
5.000000064437454
100
AcDbArc
 50
270.0
 51
0.0
  0
ARC
  5
31F
330
1F
100
AcDbEntity
  8
0-1
  6
Continuous
 62
     2
370
     9
100
AcDbCircle
 10
-98.4139777518607
 20
57.66603377058712
 30
0.0
 40
2.000000025774982
100
AcDbArc
 50
0.0
 51
90.0
  0
ARC
  5
320
330
1F
100
AcDbEntity
  8
0-1
  6
Continuous
 62
     2
370
     9
100
AcDbCircle
 10
-210.9143489115947
 20
-76.83375425596483
 30
0.0
 40
2.000000025774982
100
AcDbArc
 50
270.0
 51
0.0
  0
ARC
  5
321
330
1F
100
AcDbEntity
  8
0-1
  6
Continuous
 62
     2
370
     9
100
AcDbCircle
 10
-210.9143489115947
 20
-71.3337979703335
 30
0.0
 40
2.000000025774982
100
AcDbArc
 50
0.0
 51
90.0
  0
ARC
  5
322
330
1F
100
AcDbEntity
  8
0-1
  6
Continuous
 62
     2
370
     9
100
AcDbCircle
 10
-210.9143489115947
 20
-76.83375425596483
 30
0.0
 40
4.000000051549963
100
AcDbArc
 50
269.9998779296876
 51
359.9998779296875
  0
ARC
  5
323
330
1F
100
AcDbEntity
  8
0-1
  6
Continuous
 62
     2
370
     9
100
AcDbCircle
 10
-210.9143489115947
 20
-71.3337979703335
 30
0.0
 40
4.000000051549963
100
AcDbArc
 50
359.9998779296875
 51
61.04466247558592
  0
ARC
  5
324
330
1F
100
AcDbEntity
  8
0-1
  6
Continuous
 62
     2
370
     9
100
AcDbCircle
 10
-162.914264782055
 20
-76.83382848791163
 30
0.0
 40
2.000000025774982
100
AcDbArc
 50
180.0
 51
270.0
  0
ARC
  5
325
330
1F
100
AcDbEntity
  8
0-1
  6
Continuous
 62
     2
370
     9
100
AcDbCircle
 10
-162.914264782055
 20
-76.83382848791163
 30
0.0
 40
4.000000051549963
100
AcDbArc
 50
179.9998779296875
 51
269.9998779296876
  0
ARC
  5
326
330
1F
100
AcDbEntity
  8
0-1
  6
Continuous
 62
     2
370
     9
100
AcDbCircle
 10
-98.4139777518607
 20
57.66603377058712
 30
0.0
 40
4.000000051549963
100
AcDbArc
 50
0.0
 51
90.0
  0
ARC
  5
327
330
1F
100
AcDbEntity
  8
0-1
  6
Continuous
 62
     2
370
     9
100
AcDbCircle
 10
-186.9142697308514
 20
-80.83392828864007
 30
0.0
 40
7.500001546498892
100
AcDbArc
 50
359.9998016357422
 51
179.9998016357422
  0
ARC
  5
328
330
1F
100
AcDbEntity
  8
0-1
  6
Continuous
 62
     2
370
     9
100
AcDbCircle
 10
-186.9142697308514
 20
-80.83392828864007
 30
0.0
 40
9.500002152210959
100
AcDbArc
 50
359.9997863769531
 51
179.9997863769531
  0
ARC
  5
329
330
1F
100
AcDbEntity
  8
0-1
  6
Continuous
 62
     2
370
     9
100
AcDbCircle
 10
-175.4142565340609
 20
-86.83383673590569
 30
0.0
 40
2.000000025774982
100
AcDbArc
 50
179.999755859375
 51
270.0
  0
ARC
  5
32A
330
1F
100
AcDbEntity
  8
0-1
  6
Continuous
 62
     2
370
     9
100
AcDbCircle
 10
-175.4142565340609
 20
-86.83383673590569
 30
0.0
 40
4.000000051549963
100
AcDbArc
 50
179.9998779296875
 51
269.9998779296876
  0
ARC
  5
32B
330
1F
100
AcDbEntity
  8
0-1
  6
Continuous
 62
     2
370
     9
100
AcDbCircle
 10
-198.4142829276419
 20
-86.83379961993234
 30
0.0
 40
4.000000051549963
100
AcDbArc
 50
269.9998779296876
 51
359.9998779296875
  0
ARC
  5
32C
330
1F
100
AcDbEntity
  8
0-1
  6
Continuous
 62
     2
370
     9
100
AcDbCircle
 10
-198.4142829276419
 20
-86.83379961993234
 30
0.0
 40
2.000000025774982
100
AcDbArc
 50
270.0
 51
359.999755859375
  0
ARC
  5
32D
330
1F
100
AcDbEntity
  8
0-1
  6
Continuous
 62
     2
370
     9
100
AcDbCircle
 10
-98.41427467964789
 20
35.6660601641683
 30
0.0
 40
2.000000025774982
100
AcDbArc
 50
270.0
 51
0.0
  0
ARC
  5
32E
330
1F
100
AcDbEntity
  8
0-1
  6
Continuous
 62
     2
370
     9
100
AcDbCircle
 10
-103.9142680812526
 20
35.66613439611501
 30
0.0
 40
2.000000025774982
100
AcDbArc
 50
180.0
 51
270.0
  0
ARC
  5
32F
330
1F
100
AcDbEntity
  8
0-1
  6
Continuous
 62
     2
370
     9
100
AcDbCircle
 10
-98.41427467964789
 20
35.6660601641683
 30
0.0
 40
4.000000051549963
100
AcDbArc
 50
270.0
 51
0.0
  0
ARC
  5
330
330
1F
100
AcDbEntity
  8
0-1
  6
Continuous
 62
     2
370
     9
100
AcDbCircle
 10
-103.9142680812526
 20
35.66613439611501
 30
0.0
 40
4.000000051549963
100
AcDbArc
 50
208.9552154541016
 51
270.0
  0
ARC
  5
331
330
1F
100
AcDbEntity
  8
0-1
  6
Continuous
 62
     2
370
     9
100
AcDbCircle
 10
-103.9142680812526
 20
-12.33394973342467
 30
0.0
 40
4.000000051549963
100
AcDbArc
 50
90.0
 51
151.0447845458984
  0
ARC
  5
332
330
1F
100
AcDbEntity
  8
0-1
  6
Continuous
 62
     2
370
     9
100
AcDbCircle
 10
-98.41427467964789
 20
-12.33394973342467
 30
0.0
 40
2.000000025774982
100
AcDbArc
 50
0.0
 51
90.0
  0
ARC
  5
333
330
1F
100
AcDbEntity
  8
0-1
  6
Continuous
 62
     2
370
     9
100
AcDbCircle
 10
-103.9142680812526
 20
-12.33394973342467
 30
0.0
 40
2.000000025774982
100
AcDbArc
 50
90.0
 51
180.0
  0
ARC
  5
334
330
1F
100
AcDbEntity
  8
0-1
  6
Continuous
 62
     2
370
     9
100
AcDbCircle
 10
-98.41427467964789
 20
-12.33394973342467
 30
0.0
 40
4.000000051549963
100
AcDbArc
 50
0.0
 51
90.0
  0
ARC
  5
335
330
1F
100
AcDbEntity
  8
0-1
  6
Continuous
 62
     2
370
     9
100
AcDbCircle
 10
-94.41413776294601
 20
11.66605521537173
 30
0.0
 40
7.500001546498892
100
AcDbArc
 50
90.00006103515625
 51
270.0000610351562
  0
ARC
  5
336
330
1F
100
AcDbEntity
  8
0-1
  6
Continuous
 62
     2
370
     9
100
AcDbCircle
 10
-94.41413776294601
 20
11.66605521537173
 30
0.0
 40
9.500002152210959
100
AcDbArc
 50
90.00010681152345
 51
270.0001068115234
  0
ARC
  5
337
330
1F
100
AcDbEntity
  8
0-1
  6
Continuous
 62
     2
370
     9
100
AcDbCircle
 10
-88.41426643165374
 20
0.1660420185811802
 30
0.0
 40
2.000000025774982
100
AcDbArc
 50
0.0
 51
90.00024414062499
  0
ARC
  5
338
330
1F
100
AcDbEntity
  8
0-1
  6
Continuous
 62
     2
370
     9
100
AcDbCircle
 10
-88.41426643165374
 20
0.1660420185811802
 30
0.0
 40
4.000000051549963
100
AcDbArc
 50
0.0
 51
90.0
  0
ARC
  5
339
330
1F
100
AcDbEntity
  8
0-1
  6
Continuous
 62
     2
370
     9
100
AcDbCircle
 10
-88.41426643165374
 20
23.16606841216236
 30
0.0
 40
4.000000051549963
100
AcDbArc
 50
270.0
 51
0.0
  0
ARC
  5
33A
330
1F
100
AcDbEntity
  8
0-1
  6
Continuous
 62
     2
370
     9
100
AcDbCircle
 10
-88.41426643165374
 20
23.16606841216236
 30
0.0
 40
2.000000025774982
100
AcDbArc
 50
270.000244140625
 51
0.0
  0
ARC
  5
33B
330
1F
100
AcDbEntity
  8
0-1
  6
Continuous
 62
     2
370
     9
100
AcDbCircle
 10
-103.9141196173591
 20
57.66603377058712
 30
0.0
 40
2.000000025774982
100
AcDbArc
 50
90.0
 51
180.0
  0
ARC
  5
33C
330
1F
100
AcDbEntity
  8
0-1
  6
Continuous
 62
     2
370
     9
100
AcDbCircle
 10
-103.9141196173591
 20
57.66603377058712
 30
0.0
 40
4.000000051549963
100
AcDbArc
 50
90.0
 51
151.0499572753906
  0
ARC
  5
33D
330
1F
100
AcDbEntity
  8
0-1
  6
Continuous
 62
     2
370
     9
100
AcDbCircle
 10
-162.914264782055
 20
-71.3338722022803
 30
0.0
 40
2.000000025774982
100
AcDbArc
 50
90.0
 51
179.999755859375
  0
ARC
  5
33E
330
1F
100
AcDbEntity
  8
0-1
  6
Continuous
 62
     2
370
     9
100
AcDbCircle
 10
-162.914264782055
 20
-71.3338722022803
 30
0.0
 40
4.000000051549963
100
AcDbArc
 50
118.955093383789
 51
179.9998779296875
  0
ARC
  5
33F
330
1F
100
AcDbEntity
  8
0-1
  6
Continuous
 62
     2
370
     9
100
AcDbCircle
 10
-114.914254884462
 20
-60.33392251504421
 30
0.0
 40
7.000000090212434
100
AcDbArc
 50
270.0
 51
359.9998626708984
  0
ARC
  5
340
330
1F
100
AcDbEntity
  8
0-1
  6
Continuous
 62
     2
370
     9
100
AcDbCircle
 10
-114.914254884462
 20
-60.33392251504421
 30
0.0
 40
9.000000115987417
100
AcDbArc
 50
270.0
 51
359.9999389648438
  0
ARC
  5
341
330
1F
100
AcDbEntity
  8
0-1
  6
Continuous
 62
     2
370
     9
100
AcDbCircle
 10
-116.4142598332585
 20
-58.83388045027436
 30
0.0
 40
22.00000144339897
100
AcDbArc
 50
270.0
 51
359.9998626708984
  0
ARC
  5
342
330
1F
100
AcDbEntity
  8
0-1
  6
Continuous
 62
     2
370
     9
100
AcDbCircle
 10
-116.4142598332585
 20
-58.83388045027436
 30
0.0
 40
20.00000025774982
100
AcDbArc
 50
270.0
 51
359.9998779296875
  0
ARC
  5
343
330
1F
100
AcDbEntity
  8
0-1
  6
Continuous
 62
     2
370
     9
100
AcDbCircle
 10
-116.4142598332585
 20
-58.83388045027436
 30
0.0
 40
32.00000041239971
100
AcDbArc
 50
270.0
 51
359.9999084472656
  0
ARC
  5
344
330
1F
100
AcDbEntity
  8
0-1
  6
Continuous
 62
     2
370
     9
100
AcDbCircle
 10
-116.4142598332585
 20
-58.83388045027436
 30
0.0
 40
30.00000154649889
100
AcDbArc
 50
270.0
 51
359.9998931884766
  0
ARC
  5
345
330
1F
100
AcDbEntity
  8
0-1
  6
Continuous
 62
     2
370
     9
100
AcDbCircle
 10
-119.9142961244325
 20
278.6660453177789
 30
0.0
 40
5.000000064437454
100
AcDbArc
 50
0.0
 51
90.0
  0
ARC
  5
346
330
1F
100
AcDbEntity
  8
0-1
  6
Continuous
 62
     2
370
     9
100
AcDbCircle
 10
-98.4139777518607
 20
165.6660931561445
 30
0.0
 40
2.000000025774982
100
AcDbArc
 50
270.0
 51
0.0
  0
ARC
  5
347
330
1F
100
AcDbEntity
  8
0-1
  6
Continuous
 62
     2
370
     9
100
AcDbCircle
 10
-210.9143489115947
 20
300.1658440667231
 30
0.0
 40
2.000000025774982
100
AcDbArc
 50
0.0
 51
90.0
  0
ARC
  5
348
330
1F
100
AcDbEntity
  8
0-1
  6
Continuous
 62
     2
370
     9
100
AcDbCircle
 10
-210.9143489115947
 20
294.6658506651183
 30
0.0
 40
2.000000025774982
100
AcDbArc
 50
270.0
 51
0.0
  0
ARC
  5
349
330
1F
100
AcDbEntity
  8
0-1
  6
Continuous
 62
     2
370
     9
100
AcDbCircle
 10
-210.9143489115947
 20
300.1658440667231
 30
0.0
 40
4.000000051549963
100
AcDbArc
 50
0.0
 51
90.0
  0
ARC
  5
34A
330
1F
100
AcDbEntity
  8
0-1
  6
Continuous
 62
     2
370
     9
100
AcDbCircle
 10
-210.9143489115947
 20
294.6658506651183
 30
0.0
 40
4.000000051549963
100
AcDbArc
 50
298.9552154541016
 51
0.0
  0
ARC
  5
34B
330
1F
100
AcDbEntity
  8
0-1
  6
Continuous
 62
     2
370
     9
100
AcDbCircle
 10
-162.914264782055
 20
300.1659182986699
 30
0.0
 40
2.000000025774982
100
AcDbArc
 50
90.0
 51
180.0
  0
ARC
  5
34C
330
1F
100
AcDbEntity
  8
0-1
  6
Continuous
 62
     2
370
     9
100
AcDbCircle
 10
-162.914264782055
 20
300.1659182986699
 30
0.0
 40
4.000000051549963
100
AcDbArc
 50
90.0
 51
180.0
  0
ARC
  5
34D
330
1F
100
AcDbEntity
  8
0-1
  6
Continuous
 62
     2
370
     9
100
AcDbCircle
 10
-98.4139777518607
 20
165.6660931561445
 30
0.0
 40
4.000000051549963
100
AcDbArc
 50
270.0
 51
0.0
  0
ARC
  5
34E
330
1F
100
AcDbEntity
  8
0-1
  6
Continuous
 62
     2
370
     9
100
AcDbCircle
 10
-186.9142697308514
 20
304.1660552153717
 30
0.0
 40
7.500001546498892
100
AcDbArc
 50
180.0003356933594
 51
0.0003356933593954
  0
ARC
  5
34F
330
1F
100
AcDbEntity
  8
0-1
  6
Continuous
 62
     2
370
     9
100
AcDbCircle
 10
-186.9142697308514
 20
304.1660552153717
 30
0.0
 40
9.500002152210959
100
AcDbArc
 50
180.0003204345703
 51
0.0003204345703239
  0
ARC
  5
350
330
1F
100
AcDbEntity
  8
0-1
  6
Continuous
 62
     2
370
     9
100
AcDbCircle
 10
-175.4142565340609
 20
310.165926546664
 30
0.0
 40
2.000000025774982
100
AcDbArc
 50
90.0
 51
180.000244140625
  0
ARC
  5
351
330
1F
100
AcDbEntity
  8
0-1
  6
Continuous
 62
     2
370
     9
100
AcDbCircle
 10
-175.4142565340609
 20
310.165926546664
 30
0.0
 40
4.000000051549963
100
AcDbArc
 50
90.0
 51
180.0
  0
ARC
  5
352
330
1F
100
AcDbEntity
  8
0-1
  6
Continuous
 62
     2
370
     9
100
AcDbCircle
 10
-198.4142829276419
 20
310.165926546664
 30
0.0
 40
4.000000051549963
100
AcDbArc
 50
0.0
 51
90.0
  0
ARC
  5
353
330
1F
100
AcDbEntity
  8
0-1
  6
Continuous
 62
     2
370
     9
100
AcDbCircle
 10
-198.4142829276419
 20
310.165926546664
 30
0.0
 40
2.000000025774982
100
AcDbArc
 50
0.000244140625
 51
90.00000000000001
  0
ARC
  5
354
330
1F
100
AcDbEntity
  8
0-1
  6
Continuous
 62
     2
370
     9
100
AcDbCircle
 10
-98.41427467964789
 20
187.6659925306167
 30
0.0
 40
2.000000025774982
100
AcDbArc
 50
0.0
 51
90.0
  0
ARC
  5
355
330
1F
100
AcDbEntity
  8
0-1
  6
Continuous
 62
     2
370
     9
100
AcDbCircle
 10
-103.9142680812526
 20
187.6659925306167
 30
0.0
 40
2.000000025774982
100
AcDbArc
 50
90.0
 51
180.0
  0
ARC
  5
356
330
1F
100
AcDbEntity
  8
0-1
  6
Continuous
 62
     2
370
     9
100
AcDbCircle
 10
-98.41427467964789
 20
187.6659925306167
 30
0.0
 40
4.000000051549963
100
AcDbArc
 50
0.0
 51
90.0
  0
ARC
  5
357
330
1F
100
AcDbEntity
  8
0-1
  6
Continuous
 62
     2
370
     9
100
AcDbCircle
 10
-103.9142680812526
 20
187.6659925306167
 30
0.0
 40
4.000000051549963
100
AcDbArc
 50
90.0
 51
151.0447845458984
  0
ARC
  5
358
330
1F
100
AcDbEntity
  8
0-1
  6
Continuous
 62
     2
370
     9
100
AcDbCircle
 10
-103.9142680812526
 20
235.6660766601564
 30
0.0
 40
4.000000051549963
100
AcDbArc
 50
208.9552154541016
 51
270.0
  0
ARC
  5
359
330
1F
100
AcDbEntity
  8
0-1
  6
Continuous
 62
     2
370
     9
100
AcDbCircle
 10
-98.41427467964789
 20
235.6660766601564
 30
0.0
 40
2.000000025774982
100
AcDbArc
 50
270.0
 51
0.0
  0
ARC
  5
35A
330
1F
100
AcDbEntity
  8
0-1
  6
Continuous
 62
     2
370
     9
100
AcDbCircle
 10
-103.9142680812526
 20
235.6660766601564
 30
0.0
 40
2.000000025774982
100
AcDbArc
 50
180.0
 51
270.0
  0
ARC
  5
35B
330
1F
100
AcDbEntity
  8
0-1
  6
Continuous
 62
     2
370
     9
100
AcDbCircle
 10
-98.41427467964789
 20
235.6660766601564
 30
0.0
 40
4.000000051549963
100
AcDbArc
 50
270.0
 51
0.0
  0
ARC
  5
35C
330
1F
100
AcDbEntity
  8
0-1
  6
Continuous
 62
     2
370
     9
100
AcDbCircle
 10
-94.41413776294601
 20
211.6660717113599
 30
0.0
 40
7.500001546498892
100
AcDbArc
 50
89.99993896484375
 51
269.9999389648438
  0
ARC
  5
35D
330
1F
100
AcDbEntity
  8
0-1
  6
Continuous
 62
     2
370
     9
100
AcDbCircle
 10
-94.41413776294601
 20
211.6660717113599
 30
0.0
 40
9.500002152210959
100
AcDbArc
 50
89.99989318847656
 51
269.9998931884766
  0
ARC
  5
35E
330
1F
100
AcDbEntity
  8
0-1
  6
Continuous
 62
     2
370
     9
100
AcDbCircle
 10
-88.41426643165374
 20
223.1660849081505
 30
0.0
 40
2.000000025774982
100
AcDbArc
 50
269.999755859375
 51
0.0
  0
ARC
  5
35F
330
1F
100
AcDbEntity
  8
0-1
  6
Continuous
 62
     2
370
     9
100
AcDbCircle
 10
-88.41426643165374
 20
223.1660849081505
 30
0.0
 40
4.000000051549963
100
AcDbArc
 50
270.0
 51
0.0
  0
ARC
  5
360
330
1F
100
AcDbEntity
  8
0-1
  6
Continuous
 62
     2
370
     9
100
AcDbCircle
 10
-88.41426643165374
 20
200.1660585145694
 30
0.0
 40
4.000000051549963
100
AcDbArc
 50
0.0
 51
90.0
  0
ARC
  5
361
330
1F
100
AcDbEntity
  8
0-1
  6
Continuous
 62
     2
370
     9
100
AcDbCircle
 10
-88.41426643165374
 20
200.1660585145694
 30
0.0
 40
2.000000025774982
100
AcDbArc
 50
0.0
 51
89.99975585937501
  0
ARC
  5
362
330
1F
100
AcDbEntity
  8
0-1
  6
Continuous
 62
     2
370
     9
100
AcDbCircle
 10
-103.9141196173591
 20
165.6660931561445
 30
0.0
 40
2.000000025774982
100
AcDbArc
 50
180.0
 51
270.0
  0
ARC
  5
363
330
1F
100
AcDbEntity
  8
0-1
  6
Continuous
 62
     2
370
     9
100
AcDbCircle
 10
-103.9141196173591
 20
165.6660931561445
 30
0.0
 40
4.000000051549963
100
AcDbArc
 50
208.9500427246094
 51
270.0
  0
ARC
  5
364
330
1F
100
AcDbEntity
  8
0-1
  6
Continuous
 62
     2
370
     9
100
AcDbCircle
 10
-162.914264782055
 20
294.6659248970652
 30
0.0
 40
2.000000025774982
100
AcDbArc
 50
180.000244140625
 51
270.0
  0
ARC
  5
365
330
1F
100
AcDbEntity
  8
0-1
  6
Continuous
 62
     2
370
     9
100
AcDbCircle
 10
-162.914264782055
 20
294.6659248970652
 30
0.0
 40
4.000000051549963
100
AcDbArc
 50
180.0
 51
241.0447845458984
  0
ARC
  5
366
330
1F
100
AcDbEntity
  8
0-1
  6
Continuous
 62
     2
370
     9
100
AcDbCircle
 10
-114.914254884462
 20
283.6660123258025
 30
0.0
 40
7.000000090212434
100
AcDbArc
 50
0.0001373291015625
 51
90.00000000000001
  0
ARC
  5
367
330
1F
100
AcDbEntity
  8
0-1
  6
Continuous
 62
     2
370
     9
100
AcDbCircle
 10
-114.914254884462
 20
283.6660123258025
 30
0.0
 40
9.000000115987417
100
AcDbArc
 50
0.00006103515625
 51
90.0
  0
ARC
  5
368
330
1F
100
AcDbEntity
  8
0-1
  6
Continuous
 62
     2
370
     9
100
AcDbCircle
 10
-116.4142598332585
 20
282.1660073770061
 30
0.0
 40
22.00000144339897
100
AcDbArc
 50
0.0001373291015625
 51
90.00000000000001
  0
ARC
  5
369
330
1F
100
AcDbEntity
  8
0-1
  6
Continuous
 62
     2
370
     9
100
AcDbCircle
 10
-116.4142598332585
 20
282.1660073770061
 30
0.0
 40
20.00000025774982
100
AcDbArc
 50
0.0001220703125
 51
90.0
  0
ARC
  5
36A
330
1F
100
AcDbEntity
  8
0-1
  6
Continuous
 62
     2
370
     9
100
AcDbCircle
 10
-116.4142598332585
 20
282.1660073770061
 30
0.0
 40
32.00000041239971
100
AcDbArc
 50
0.000091552734375
 51
90.0
  0
ARC
  5
36B
330
1F
100
AcDbEntity
  8
0-1
  6
Continuous
 62
     2
370
     9
100
AcDbCircle
 10
-116.4142598332585
 20
282.1660073770061
 30
0.0
 40
30.00000154649889
100
AcDbArc
 50
0.0001068115234375
 51
90.0
  0
ARC
  5
36C
330
1F
100
AcDbEntity
  8
0-1
  6
Continuous
 62
     2
370
     9
100
AcDbCircle
 10
213.2344498505464
 20
289.341861209354
 30
0.0
 40
1.500000019331236
100
AcDbArc
 50
97.12496948242188
 51
180.0
  0
ARC
  5
36D
330
1F
100
AcDbEntity
  8
0-1
  6
Continuous
 62
     2
370
     9
100
AcDbCircle
 10
213.2344498505464
 20
284.9901617926522
 30
0.0
 40
1.500000019331236
100
AcDbArc
 50
180.0006713867188
 51
262.8750305175781
  0
ARC
  5
36E
330
1F
100
AcDbEntity
  8
0-1
  6
Continuous
 62
     2
370
     9
100
AcDbCircle
 10
229.234552125673
 20
264.4109134158574
 30
0.0
 40
1.500000019331236
100
AcDbArc
 50
180.0
 51
259.3805847167969
  0
ARC
  5
36F
330
1F
100
AcDbEntity
  8
0-1
  6
Continuous
 62
     2
370
     9
100
AcDbCircle
 10
227.2345950152423
 20
310.936379922403
 30
0.0
 40
1.500000019331236
100
AcDbArc
 50
101.3096771240234
 51
180.0
  0
ARC
  5
370
330
1F
100
AcDbEntity
  8
0-1
  6
Continuous
 62
     2
370
     9
100
AcDbCircle
 10
227.2345950152423
 20
304.7873766100086
 30
0.0
 40
1.500000019331236
100
AcDbArc
 50
180.0
 51
225.0002288818359
  0
ARC
  5
371
330
1F
100
AcDbEntity
  8
0-1
  6
Continuous
 62
     2
370
     9
100
AcDbCircle
 10
226.2345422280802
 20
301.5447024783574
 30
0.0
 40
1.500000019331236
100
AcDbArc
 50
0.0
 51
45.00022888183593
  0
ARC
  5
372
330
1F
100
AcDbEntity
  8
0-1
  6
Continuous
 62
     2
370
     9
100
AcDbCircle
 10
222.7345059369061
 20
297.0799478066936
 30
0.0
 40
5.000000064437454
100
AcDbArc
 50
277.1251220703125
 51
0.0000000000000127
  0
ARC
  5
373
330
1F
100
AcDbEntity
  8
0-1
  6
Continuous
 62
     2
370
     9
100
AcDbCircle
 10
225.7345158344992
 20
279.9004483609588
 30
0.0
 40
2.000000025774982
100
AcDbArc
 50
0.0
 51
82.87467956542969
  0
ARC
  5
374
330
1F
100
AcDbEntity
  8
0-1
  6
Continuous
 62
     2
370
     9
100
AcDbCircle
 10
-320.9142540596627
 20
300.1662894584039
 30
0.0
 40
2.000000025774982
100
AcDbArc
 50
0.0
 51
90.0
  0
ARC
  5
375
330
1F
100
AcDbEntity
  8
0-1
  6
Continuous
 62
     2
370
     9
100
AcDbCircle
 10
-320.9142540596627
 20
300.1662894584039
 30
0.0
 40
4.000000051549963
100
AcDbArc
 50
0.0
 51
90.0
  0
ARC
  5
376
330
1F
100
AcDbEntity
  8
0-1
  6
Continuous
 62
     2
370
     9
100
AcDbCircle
 10
-320.9142540596627
 20
294.6661475929055
 30
0.0
 40
2.000000025774982
100
AcDbArc
 50
270.0
 51
0.0
  0
ARC
  5
377
330
1F
100
AcDbEntity
  8
0-1
  6
Continuous
 62
     2
370
     9
100
AcDbCircle
 10
-320.9142540596627
 20
294.6661475929055
 30
0.0
 40
4.000000051549963
100
AcDbArc
 50
298.9500427246094
 51
0.0
  0
ARC
  5
378
330
1F
100
AcDbEntity
  8
0-1
  6
Continuous
 62
     2
370
     9
100
AcDbCircle
 10
-252.9141905501082
 20
300.1662894584039
 30
0.0
 40
2.000000025774982
100
AcDbArc
 50
90.0
 51
180.0
  0
ARC
  5
379
330
1F
100
AcDbEntity
  8
0-1
  6
Continuous
 62
     2
370
     9
100
AcDbCircle
 10
-252.9141905501082
 20
300.1662894584039
 30
0.0
 40
4.000000051549963
100
AcDbArc
 50
90.0
 51
180.0
  0
ARC
  5
37A
330
1F
100
AcDbEntity
  8
0-1
  6
Continuous
 62
     2
370
     9
100
AcDbCircle
 10
-252.9141905501082
 20
294.6661475929055
 30
0.0
 40
2.000000025774982
100
AcDbArc
 50
180.0
 51
270.0
  0
ARC
  5
37B
330
1F
100
AcDbEntity
  8
0-1
  6
Continuous
 62
     2
370
     9
100
AcDbCircle
 10
-252.9141905501082
 20
294.6661475929055
 30
0.0
 40
4.000000051549963
100
AcDbArc
 50
180.0
 51
241.0499572753906
  0
ARC
  5
37C
330
1F
100
AcDbEntity
  8
0-1
  6
Continuous
 62
     2
370
     9
100
AcDbCircle
 10
-457.4141847765123
 20
-58.83388045027436
 30
0.0
 40
22.00000144339897
100
AcDbArc
 50
180.0001373291016
 51
270.0
  0
ARC
  5
37D
330
1F
100
AcDbEntity
  8
0-1
  6
Continuous
 62
     2
370
     9
100
AcDbCircle
 10
-457.4141847765123
 20
-58.83388045027436
 30
0.0
 40
20.00000025774982
100
AcDbArc
 50
180.0001220703125
 51
270.0
  0
ARC
  5
37E
330
1F
100
AcDbEntity
  8
0-1
  6
Continuous
 62
     2
370
     9
100
AcDbCircle
 10
229.234552125673
 20
-41.07882360509913
 30
0.0
 40
1.500000019331236
100
AcDbArc
 50
100.6194152832031
 51
180.0
  0
TEXT
  5
37F
330
1F
100
AcDbEntity
  8
0-E
  6
Continuous
 62
     7
370
     9
100
AcDbText
 10
350.1223018749341
 20
-102.6483171584669
 30
0.0
 40
6.858000000000001
  1
ＳＷＲＭ，亜鉛めっき
 41
1.15
  7
ＭＳ ゴシック
100
AcDbText
  0
TEXT
  5
380
330
1F
100
AcDbEntity
  8
0-4
  6
Continuous
 62
     2
370
     9
100
AcDbText
 10
-289.3131550969304
 20
-116.1547378358582
 30
0.0
 40
9.144
  1
18
 41
1.0625
  7
ＭＳ ゴシック
100
AcDbText
  0
TEXT
  5
381
330
1F
100
AcDbEntity
  8
0-4
  6
Continuous
 62
     2
370
     9
100
AcDbText
 10
-59.10611438990241
 20
157.6410282529514
 30
0.0
 40
9.144
  1
18
 50
90.00000250447867
 41
1.062499999999994
  7
ＭＳ ゴシック
100
AcDbText
  0
TEXT
  5
382
330
1F
100
AcDbEntity
  8
0-4
  6
Continuous
 62
     2
370
     9
100
AcDbText
 10
162.0425099573418
 20
95.16600771544611
 30
0.0
 40
9.144
  1
□340
 50
90.00000250447833
 41
1.100000000000001
  7
ＭＳ ゴシック
100
AcDbText
  0
TEXT
  5
383
330
1F
100
AcDbEntity
  8
0-E
  6
Continuous
 62
     7
370
     9
100
AcDbText
 10
108.7087524001664
 20
339.4519190640838
 30
0.0
 40
6.858000000000001
  1
樹脂系塗装
 41
1.133333333333333
  7
ＭＳ ゴシック
100
AcDbText
  0
TEXT
  5
384
330
1F
100
AcDbEntity
  8
0-E
  6
Continuous
 62
     7
370
     9
100
AcDbText
 10
79.91744644577429
 20
-139.0695537637244
 30
0.0
 40
6.858000000000001
  1
樹脂系塗装
 41
1.133333333333333
  7
ＭＳ ゴシック
100
AcDbText
  0
TEXT
  5
385
330
1F
100
AcDbEntity
  8
0-E
  6
Continuous
 62
     7
370
     9
100
AcDbText
 10
91.68148040771493
 20
356.6949610562713
 30
0.0
 40
6.858000000000001
  1
受枠：ＦＣ２００
 41
1.145833333333333
  7
ＭＳ ゴシック
100
AcDbText
  0
TEXT
  5
386
330
1F
100
AcDbEntity
  8
0-E
  6
Continuous
 62
     7
370
     9
100
AcDbText
 10
68.80061608391844
 20
-124.2471042084563
 30
0.0
 40
6.858000000000001
  1
蓋：ＦＣ２００
 41
1.142857142857143
  7
ＭＳ ゴシック
100
AcDbText
  0
TEXT
  5
387
330
1F
100
AcDbEntity
  8
0-1
  6
Continuous
 62
     7
370
     9
100
AcDbText
 10
-479.1500380706372
 20
158.1660625002232
 30
0.0
 40
6.858000000000001
  1
ＧＣＡ－６・ＧＣＢ
 50
269.9999565143868
 41
1.148148148148148
  7
ＭＳ ゴシック
100
AcDbText
  0
TEXT
  5
388
330
1F
100
AcDbEntity
  8
0-1
  6
Continuous
 62
     7
370
     9
100
AcDbText
 10
-93.66068702851263
 20
80.91598917594945
 30
0.0
 40
6.858000000000001
  1
ＫＡＮＥＳＯ
 50
90.00000250447808
 41
1.138888888888886
  7
ＭＳ ゴシック
100
AcDbText
  0
TEXT
  5
389
330
1F
100
AcDbEntity
  8
0-1
  6
Continuous
 62
     7
370
     9
100
AcDbText
 10
-271.9141479619992
 20
304.9196543809153
 30
0.0
 40
6.858000000000001
  1
３００
 50
180.0000050089563
 41
1.111111111111109
  7
ＭＳ ゴシック
100
AcDbText
  0
TEXT
  5
38A
330
1F
100
AcDbEntity
  8
0-4
  6
Continuous
 62
     2
370
     9
100
AcDbText
 10
217.3595216080948
 20
-153.6420565449481
 30
0.0
 40
9.144
  1
24
 41
1.0625
  7
ＭＳ ゴシック
100
AcDbText
  0
TEXT
  5
38B
330
1F
100
AcDbEntity
  8
0-4
  6
Continuous
 62
     2
370
     9
100
AcDbText
 10
132.0424852133596
 20
95.16608194739295
 30
0.0
 40
9.144
  1
□405
 50
90.00000250447833
 41
1.100000000000001
  7
ＭＳ ゴシック
100
AcDbText
  0
TEXT
  5
38C
330
1F
100
AcDbEntity
  8
0-4
  6
Continuous
 62
     2
370
     9
100
AcDbText
 10
162.0425093672381
 20
283.1660699878016
 30
0.0
 40
9.144
  1
9
 50
90.00000250448011
 41
1.000000000000001
  7
ＭＳ ゴシック
100
AcDbText
  0
TEXT
  5
38D
330
1F
100
AcDbEntity
  8
0-4
  6
Continuous
 62
     2
370
     9
100
AcDbText
 10
162.0425093672381
 20
-65.83396176697555
 30
0.0
 40
9.144
  1
9
 50
90.00000250448011
 41
0.9999999999999725
  7
ＭＳ ゴシック
100
AcDbText
  0
TEXT
  5
38E
330
1F
100
AcDbEntity
  8
0-4
  6
Continuous
 62
     2
370
     9
100
AcDbText
 10
-296.6642408628721
 20
-146.141957569019
 30
0.0
 40
9.144
  1
200
 41
1.083333333333333
  7
ＭＳ ゴシック
100
AcDbText
  0
TEXT
  5
38F
330
1F
100
AcDbEntity
  8
0-4
  6
Continuous
 62
     2
370
     9
100
AcDbText
 10
-296.6642037468987
 20
-176.1419637550147
 30
0.0
 40
9.144
  1
385
 41
1.083333333333333
  7
ＭＳ ゴシック
100
AcDbText
  0
TEXT
  5
390
330
1F
100
AcDbEntity
  8
0-4
  6
Continuous
 62
     2
370
     9
100
AcDbText
 10
-29.10579257060723
 20
101.9160633894061
 30
0.0
 40
9.144
  1
200
 50
90.00000250447748
 41
1.083333333333334
  7
ＭＳ ゴシック
100
AcDbText
  0
TEXT
  5
391
330
1F
100
AcDbEntity
  8
0-4
  6
Continuous
 62
     2
370
     9
100
AcDbText
 10
0.8942321733752949
 20
101.9160262734329
 30
0.0
 40
9.144
  1
385
 50
90.00000250447899
 41
1.083333333333334
  7
ＭＳ ゴシック
100
AcDbText
  0
TEXT
  5
392
330
1F
100
AcDbEntity
  8
0-4
  6
Continuous
 62
     2
370
     9
100
AcDbText
 10
-170.3877862466348
 20
-116.1419513830236
 30
0.0
 40
9.144
  1
15
 41
1.0625
  7
ＭＳ ゴシック
100
AcDbText
  0
TEXT
  5
393
330
1F
100
AcDbEntity
  8
0-4
  6
Continuous
 62
     2
370
     9
100
AcDbText
 10
-223.1063087475111
 20
-125.5911094786523
 30
0.0
 40
9.144
  1
17.5
 50
90.000002504478
 41
1.093750000000001
  7
ＭＳ ゴシック
100
AcDbText
  0
TEXT
  5
394
330
1F
100
AcDbEntity
  8
0-0
  6
Continuous
 62
     7
370
     9
100
AcDbText
 10
-449.7202061581012
 20
147.6660625002262
 30
0.0
 40
6.858000000000001
  1
ＧＣＢ－３００
 50
269.9999565143869
 41
1.142857142857141
  7
ＭＳ ゴシック
100
AcDbText
  0
TEXT
  5
395
330
1F
100
AcDbEntity
  8
0-0
  6
Continuous
 62
     7
370
     9
100
AcDbText
 10
-124.1082561796949
 20
80.91598917594936
 30
0.0
 40
6.858000000000001
  1
ＫＡＮＥＳＯ
 50
90.00000250447832
 41
1.13888888888889
  7
ＭＳ ゴシック
100
AcDbText
  0
TEXT
  5
396
330
1F
100
AcDbEntity
  8
0-4
  6
Continuous
 62
     2
370
     9
100
AcDbText
 10
-344.7748850094248
 20
-116.1556843289908
 30
0.0
 40
9.144
  1
26.9
 50
358.0836886158463
 41
1.09375
  7
ＭＳ ゴシック
100
AcDbText
  0
TEXT
  5
397
330
1F
100
AcDbEntity
  8
0-4
  6
Continuous
 62
     2
370
     9
100
AcDbText
 10
-59.10611409485062
 20
98.54104483141948
 30
0.0
 40
9.144
  1
86.7
 50
90.000002504478
 41
1.093750000000001
  7
ＭＳ ゴシック
100
AcDbText
  0
TEXT
  5
398
330
1F
100
AcDbEntity
  8
0-4
  6
Continuous
 62
     2
370
     9
100
AcDbText
 10
321.0424406741914
 20
95.16600771544609
 30
0.0
 40
9.144
  1
□300
 50
90.00000250447788
 41
1.100000000000001
  7
ＭＳ ゴシック
100
AcDbText
  0
TEXT
  5
399
330
1F
100
AcDbEntity
  8
0-4
  6
Continuous
 62
     2
370
     9
100
AcDbText
 10
213.8595595488678
 20
-123.6419946849925
 30
0.0
 40
9.144
  1
15
 41
1.0625
  7
ＭＳ ゴシック
100
AcDbText
  0
TEXT
  5
39A
330
1F
100
AcDbEntity
  8
0-4
  6
Continuous
 62
     2
370
     9
100
AcDbText
 10
196.5074468505476
 20
139.083404435336
 30
0.0
 40
9.144
  1
2
 50
0.0010632907625581
 41
1.00000000000002
  7
ＭＳ ゴシック
100
AcDbText
  0
TEXT
  5
39B
330
1F
100
AcDbEntity
  8
0-4
  6
Continuous
 62
     2
370
     9
100
AcDbText
 10
228.319645855878
 20
139.0834786673882
 30
0.0
 40
9.144
  1
10
 41
1.0625
  7
ＭＳ ゴシック
100
AcDbText
  0
TEXT
  5
39C
330
1F
100
AcDbEntity
  8
0-E
  6
Continuous
 62
     7
370
     9
100
AcDbText
 10
358.424479510333
 20
-86.04389260451842
 30
0.0
 40
6.858000000000001
  1
鎖：φ５×３００
 41
1.145833333333333
  7
ＭＳ ゴシック
100
AcDbText
  0
LWPOLYLINE
  5
39D
330
1F
100
AcDbEntity
  8
0-4
  6
Continuous
 62
     7
370
     9
100
AcDbPolyline
 90
        4
 70
     1
 43
0.3
 10
214.884454799343
 20
134.3914687697953
 42
0.4142135623731
 10
214.734454799343
 20
134.5414687697953
 42
0.4142135623731
 10
214.584454799343
 20
134.3914687697953
 42
0.4142135623731
 10
214.734454799343
 20
134.2414687697953
 42
0.4142135623731
  0
TEXT
  5
39E
330
1F
100
AcDbEntity
  8
0-E
  6
Continuous
 62
     2
370
     9
100
AcDbText
 10
250.8136533168839
 20
-256.0442414666796
 30
0.0
 40
9.144
  1
仕様
 41
1.0625
  7
ＭＳ ゴシック
100
AcDbText
  0
TEXT
  5
39F
330
1F
100
AcDbEntity
  8
0-E
  6
Continuous
 62
     2
370
     9
100
AcDbText
 10
250.8136372911601
 20
-274.0443008522446
 30
0.0
 40
9.144
  1
適応荷重：Ｔ－２
 50
0.0000399359442499
 41
1.109375
  7
ＭＳ ゴシック
100
AcDbText
  0
TEXT
  5
3A0
330
1F
100
AcDbEntity
  8
0-E
  6
Continuous
 62
     2
370
     9
100
AcDbText
 10
250.8136681632732
 20
-310.0442711594584
 30
0.0
 40
9.144
  1
接触圧子：φ１５０ｍｍ
 41
1.113636363636363
  7
ＭＳ ゴシック
100
AcDbText
  0
TEXT
  5
3A1
330
1F
100
AcDbEntity
  8
0-E
  6
Continuous
 62
     2
370
     9
100
AcDbText
 10
250.8136681632732
 20
-292.0442860058478
 30
0.0
 40
9.144
  1
破壊荷重：２０ｋＮ（２，０４１ｋｇｆ）以上
 41
1.119047619047619
  7
ＭＳ ゴシック
100
AcDbText
  0
TEXT
  5
3A2
330
1F
100
AcDbEntity
  8
0-E
  6
Continuous
 62
     2
370
     9
100
AcDbText
 10
250.8136607400785
 20
-328.044256313069
 30
0.0
 40
9.144
  1
標準質量：１４ｋｇ
 41
1.111111111111111
  7
ＭＳ ゴシック
100
AcDbText
  0
TEXT
  5
3A3
330
1F
100
AcDbEntity
  8
F-5
  6
Continuous
 62
     2
370
     9
100
AcDbText
 10
-203.2501051619245
 20
-404.2404895226635
 30
0.0
 40
9.144
  1
格子型鋳鉄製集水桝蓋　ＧＣＢ－３００
 41
1.118055555555556
  7
ＭＳ ゴシック
100
AcDbText
  0
ENDSEC
  0
SECTION
  2
OBJECTS
  0
DICTIONARY
  5
C
330
0
100
AcDbDictionary
281
     1
  3
ACAD_GROUP
350
D
  3
ACAD_LAYOUT
350
1A
  3
ACAD_MLEADERSTYLE
350
3A5
  3
ACAD_MLINESTYLE
350
17
  3
ACAD_PLOTSETTINGS
350
19
  3
ACAD_PLOTSTYLENAME
350
E
  3
ACAD_TABLESTYLE
350
3A4
  3
ACAD_VISUALSTYLE
350
2A
  0
DICTIONARY
  5
D
102
{ACAD_REACTORS
330
C
102
}
330
C
100
AcDbDictionary
281
     1
  0
DICTIONARY
  5
1A
102
{ACAD_REACTORS
330
C
102
}
330
C
100
AcDbDictionary
281
     1
  3
Layout1
350
1E
  3
Layout2
350
26
  3
Model
350
22
  0
DICTIONARY
  5
3A5
102
{ACAD_REACTORS
330
C
102
}
330
C
100
AcDbDictionary
281
     1
  0
DICTIONARY
  5
17
102
{ACAD_REACTORS
330
C
102
}
330
C
100
AcDbDictionary
281
     1
  3
Standard
350
18
  0
DICTIONARY
  5
19
102
{ACAD_REACTORS
330
C
102
}
330
C
100
AcDbDictionary
281
     1
  0
ACDBDICTIONARYWDFLT
  5
E
102
{ACAD_REACTORS
330
C
102
}
330
C
100
AcDbDictionary
281
     1
  3
Normal
350
F
100
AcDbDictionaryWithDefault
340
F
  0
DICTIONARY
  5
3A4
102
{ACAD_REACTORS
330
C
102
}
330
C
100
AcDbDictionary
281
     1
  0
DICTIONARY
  5
2A
102
{ACAD_REACTORS
330
C
102
}
330
C
100
AcDbDictionary
281
     1
  3
2dWireframe
350
2F
  3
3D Hidden
350
31
  3
3dWireframe
350
30
  3
Basic
350
32
  3
Brighten
350
36
  3
ColorChange
350
3A
  3
Conceptual
350
34
  3
Dim
350
35
  3
Facepattern
350
39
  3
Flat
350
2B
  3
FlatWithEdges
350
2C
  3
Gouraud
350
2D
  3
GouraudWithEdges
350
2E
  3
Linepattern
350
38
  3
Realistic
350
33
  3
Thicken
350
37
  0
LAYOUT
  5
1E
102
{ACAD_REACTORS
330
1A
102
}
330
1A
100
AcDbPlotSettings
  1

  2
none_device
  4

  6

 40
0.0
 41
0.0
 42
0.0
 43
0.0
 44
0.0
 45
0.0
 46
0.0
 47
0.0
 48
0.0
 49
0.0
140
0.0
141
0.0
142
1.0
143
1.0
 70
   688
 72
     0
 73
     0
 74
     5
  7

 75
    16
 76
     0
 77
     5
 78
   300
147
1.0
148
0.0
149
0.0
100
AcDbLayout
  1
Layout1
 70
     1
 71
     1
 10
0.0
 20
0.0
 11
420.0
 21
297.0
 12
0.0
 22
0.0
 32
0.0
 14
1.000000000000000E+20
 24
1.000000000000000E+20
 34
1.000000000000000E+20
 15
-1.000000000000000E+20
 25
-1.000000000000000E+20
 35
-1.000000000000000E+20
146
0.0
 13
0.0
 23
0.0
 33
0.0
 16
1.0
 26
0.0
 36
0.0
 17
0.0
 27
1.0
 37
0.0
 76
     0
330
1B
  0
LAYOUT
  5
26
102
{ACAD_REACTORS
330
1A
102
}
330
1A
100
AcDbPlotSettings
  1

  2
none_device
  4

  6

 40
0.0
 41
0.0
 42
0.0
 43
0.0
 44
0.0
 45
0.0
 46
0.0
 47
0.0
 48
0.0
 49
0.0
140
0.0
141
0.0
142
1.0
143
1.0
 70
   688
 72
     0
 73
     0
 74
     5
  7

 75
    16
 76
     0
 77
     5
 78
   300
147
1.0
148
0.0
149
0.0
100
AcDbLayout
  1
Layout2
 70
     1
 71
     2
 10
0.0
 20
0.0
 11
0.0
 21
0.0
 12
0.0
 22
0.0
 32
0.0
 14
0.0
 24
0.0
 34
0.0
 15
0.0
 25
0.0
 35
0.0
146
0.0
 13
0.0
 23
0.0
 33
0.0
 16
1.0
 26
0.0
 36
0.0
 17
0.0
 27
1.0
 37
0.0
 76
     0
330
23
  0
LAYOUT
  5
22
102
{ACAD_REACTORS
330
1A
102
}
330
1A
100
AcDbPlotSettings
  1

  2
none_device
  4

  6

 40
0.0
 41
0.0
 42
0.0
 43
0.0
 44
0.0
 45
0.0
 46
0.0
 47
0.0
 48
0.0
 49
0.0
140
0.0
141
0.0
142
1.0
143
1.0
 70
  1712
 72
     0
 73
     0
 74
     0
  7

 75
     0
 76
     0
 77
     5
 78
   300
147
1.0
148
0.0
149
0.0
100
AcDbLayout
  1
Model
 70
     1
 71
     0
 10
-630.0
 20
-445.5
 11
630.0
 21
445.5
 12
0.0
 22
0.0
 32
0.0
 14
-630.0
 24
-445.5
 34
0.0
 15
630.0
 25
445.5
 35
0.0
146
0.0
 13
0.0
 23
0.0
 33
0.0
 16
1.0
 26
0.0
 36
0.0
 17
0.0
 27
1.0
 37
0.0
 76
     0
330
1F
331
29
  0
MLINESTYLE
  5
18
102
{ACAD_REACTORS
330
17
102
}
330
17
100
AcDbMlineStyle
  2
Standard
 70
     0
  3

 62
   256
 51
90.0
 52
90.0
 71
     2
 49
0.5
 62
   256
  6
BYLAYER
 49
-0.5
 62
   256
  6
BYLAYER
  0
ACDBPLACEHOLDER
  5
F
102
{ACAD_REACTORS
330
E
102
}
330
E
  0
VISUALSTYLE
  5
2F
102
{ACAD_REACTORS
330
2A
102
}
330
2A
100
AcDbVisualStyle
  2
2dWireframe
 70
     4
 71
     0
 72
     2
 73
     0
 90
        0
 40
-0.6
 41
-30.0
 62
     5
 63
     7
421
 16777215
 74
     1
 91
        4
 64
     7
 65
   257
 75
     1
175
     1
 42
1.0
 92
        0
 66
   257
 43
1.0
 76
     1
 77
     6
 78
     2
 67
     7
 79
     5
170
     0
171
     0
290
     0
174
     0
 93
        1
 44
0.0
173
     0
291
     0
 45
0.0
1001
ACAD
1000
AcDbSavedByObjectVersion
1070
     0
  0
VISUALSTYLE
  5
31
102
{ACAD_REACTORS
330
2A
102
}
330
2A
100
AcDbVisualStyle
  2
3D Hidden
 70
     6
 71
     1
 72
     2
 73
     2
 90
        0
 40
-0.6
 41
-30.0
 62
     5
 63
     7
421
 16777215
 74
     2
 91
        2
 64
     7
 65
   257
 75
     2
175
     1
 42
40.0
 92
        0
 66
   257
 43
1.0
 76
     1
 77
     6
 78
     2
 67
     7
 79
     3
170
     0
171
     0
290
     0
174
     0
 93
        1
 44
0.0
173
     0
291
     0
 45
0.0
1001
ACAD
1000
AcDbSavedByObjectVersion
1070
     0
  0
VISUALSTYLE
  5
30
102
{ACAD_REACTORS
330
2A
102
}
330
2A
100
AcDbVisualStyle
  2
3dWireframe
 70
     5
 71
     0
 72
     2
 73
     0
 90
        0
 40
-0.6
 41
-30.0
 62
     5
 63
     7
421
 16777215
 74
     1
 91
        4
 64
     7
 65
   257
 75
     1
175
     1
 42
1.0
 92
        0
 66
   257
 43
1.0
 76
     1
 77
     6
 78
     2
 67
     7
 79
     5
170
     0
171
     0
290
     0
174
     0
 93
        1
 44
0.0
173
     0
291
     0
 45
0.0
1001
ACAD
1000
AcDbSavedByObjectVersion
1070
     0
  0
VISUALSTYLE
  5
32
102
{ACAD_REACTORS
330
2A
102
}
330
2A
100
AcDbVisualStyle
  2
Basic
 70
     7
 71
     1
 72
     0
 73
     1
 90
        0
 40
-0.6
 41
-30.0
 62
     5
 63
     7
421
 16777215
 74
     0
 91
        4
 64
     7
 65
   257
 75
     1
175
     1
 42
1.0
 92
        8
 66
     7
 43
1.0
 76
     1
 77
     6
 78
     2
 67
     7
 79
     5
170
     0
171
     0
290
     0
174
     0
 93
        1
 44
0.0
173
     0
291
     1
 45
0.0
1001
ACAD
1000
AcDbSavedByObjectVersion
1070
     0
  0
VISUALSTYLE
  5
36
102
{ACAD_REACTORS
330
2A
102
}
330
2A
100
AcDbVisualStyle
  2
Brighten
 70
    12
 71
     2
 72
     2
 73
     0
 90
        0
 40
-0.6
 41
-30.0
 62
     5
 63
     7
421
 16777215
 74
     1
 91
        4
 64
     7
 65
   257
 75
     1
175
     1
 42
1.0
 92
        8
 66
     7
 43
1.0
 76
     1
 77
     6
 78
     2
 67
     7
 79
     5
170
     0
171
     0
290
     0
174
     0
 93
        1
 44
50.0
173
     0
291
     1
 45
0.0
1001
ACAD
1000
AcDbSavedByObjectVersion
1070
     0
  0
VISUALSTYLE
  5
3A
102
{ACAD_REACTORS
330
2A
102
}
330
2A
100
AcDbVisualStyle
  2
ColorChange
 70
    16
 71
     2
 72
     2
 73
     3
 90
        0
 40
-0.6
 41
-30.0
 62
     5
 63
     8
421
  8421504
 74
     1
 91
        4
 64
     7
 65
   257
 75
     1
175
     1
 42
1.0
 92
        8
 66
     8
424
  8421504
 43
1.0
 76
     1
 77
     6
 78
     2
 67
     7
 79
     5
170
     0
171
     0
290
     0
174
     0
 93
        1
 44
0.0
173
     0
291
     1
 45
0.0
1001
ACAD
1000
AcDbSavedByObjectVersion
1070
     0
  0
VISUALSTYLE
  5
34
102
{ACAD_REACTORS
330
2A
102
}
330
2A
100
AcDbVisualStyle
  2
Conceptual
 70
     9
 71
     3
 72
     2
 73
     0
 90
        0
 40
-0.6
 41
-30.0
 62
     5
 63
     7
421
 16777215
 74
     2
 91
        2
 64
     7
 65
   257
 75
     1
175
     1
 42
40.0
 92
        8
 66
     7
 43
1.0
 76
     1
 77
     6
 78
     2
 67
     7
 79
     3
170
     0
171
     0
290
     0
174
     0
 93
        1
 44
0.0
173
     0
291
     0
 45
0.0
1001
ACAD
1000
AcDbSavedByObjectVersion
1070
     0
  0
VISUALSTYLE
  5
35
102
{ACAD_REACTORS
330
2A
102
}
330
2A
100
AcDbVisualStyle
  2
Dim
 70
    11
 71
     2
 72
     2
 73
     0
 90
        0
 40
-0.6
 41
-30.0
 62
     5
 63
     7
421
 16777215
 74
     1
 91
        4
 64
     7
 65
   257
 75
     1
175
     1
 42
1.0
 92
        8
 66
     7
 43
1.0
 76
     1
 77
     6
 78
     2
 67
     7
 79
     5
170
     0
171
     0
290
     0
174
     0
 93
        1
 44
-50.0
173
     0
291
     1
 45
0.0
1001
ACAD
1000
AcDbSavedByObjectVersion
1070
     0
  0
VISUALSTYLE
  5
39
102
{ACAD_REACTORS
330
2A
102
}
330
2A
100
AcDbVisualStyle
  2
Facepattern
 70
    15
 71
     2
 72
     2
 73
     0
 90
        0
 40
-0.6
 41
-30.0
 62
     5
 63
     7
421
 16777215
 74
     1
 91
        4
 64
     7
 65
   257
 75
     1
175
     1
 42
1.0
 92
        8
 66
     7
 43
1.0
 76
     1
 77
     6
 78
     2
 67
     7
 79
     5
170
     0
171
     0
290
     0
174
     0
 93
        1
 44
0.0
173
     0
291
     1
 45
0.0
1001
ACAD
1000
AcDbSavedByObjectVersion
1070
     0
  0
VISUALSTYLE
  5
2B
102
{ACAD_REACTORS
330
2A
102
}
330
2A
100
AcDbVisualStyle
  2
Flat
 70
     0
 71
     2
 72
     1
 73
     1
 90
        2
 40
-0.6
 41
30.0
 62
     5
 63
     7
421
 16777215
 74
     0
 91
        4
 64
     7
 65
   257
 75
     1
175
     1
 42
1.0
 92
        8
 66
     7
 43
1.0
 76
     1
 77
     6
 78
     2
 67
     7
 79
     5
170
     0
171
     0
290
     0
174
     0
 93
       13
 44
0.0
173
     0
291
     1
 45
0.0
1001
ACAD
1000
AcDbSavedByObjectVersion
1070
     0
  0
VISUALSTYLE
  5
2C
102
{ACAD_REACTORS
330
2A
102
}
330
2A
100
AcDbVisualStyle
  2
FlatWithEdges
 70
     1
 71
     2
 72
     1
 73
     1
 90
        2
 40
-0.6
 41
30.0
 62
     5
 63
     7
421
 16777215
 74
     1
 91
        4
 64
     7
 65
   257
 75
     1
175
     1
 42
1.0
 92
        0
 66
   257
 43
1.0
 76
     1
 77
     6
 78
     2
 67
     7
 79
     5
170
     0
171
     0
290
     0
174
     0
 93
       13
 44
0.0
173
     0
291
     1
 45
0.0
1001
ACAD
1000
AcDbSavedByObjectVersion
1070
     0
  0
VISUALSTYLE
  5
2D
102
{ACAD_REACTORS
330
2A
102
}
330
2A
100
AcDbVisualStyle
  2
Gouraud
 70
     2
 71
     2
 72
     2
 73
     1
 90
        2
 40
-0.6
 41
30.0
 62
     5
 63
     7
421
 16777215
 74
     0
 91
        4
 64
     7
 65
   257
 75
     1
175
     1
 42
1.0
 92
        0
 66
     7
 43
1.0
 76
     1
 77
     6
 78
     2
 67
     7
 79
     5
170
     0
171
     0
290
     0
174
     0
 93
       13
 44
0.0
173
     0
291
     1
 45
0.0
1001
ACAD
1000
AcDbSavedByObjectVersion
1070
     0
  0
VISUALSTYLE
  5
2E
102
{ACAD_REACTORS
330
2A
102
}
330
2A
100
AcDbVisualStyle
  2
GouraudWithEdges
 70
     3
 71
     2
 72
     2
 73
     1
 90
        2
 40
-0.6
 41
30.0
 62
     5
 63
     7
421
 16777215
 74
     1
 91
        4
 64
     7
 65
   257
 75
     1
175
     1
 42
1.0
 92
        0
 66
   257
 43
1.0
 76
     1
 77
     6
 78
     2
 67
     7
 79
     5
170
     0
171
     0
290
     0
174
     0
 93
       13
 44
0.0
173
     0
291
     1
 45
0.0
1001
ACAD
1000
AcDbSavedByObjectVersion
1070
     0
  0
VISUALSTYLE
  5
38
102
{ACAD_REACTORS
330
2A
102
}
330
2A
100
AcDbVisualStyle
  2
Linepattern
 70
    14
 71
     2
 72
     2
 73
     0
 90
        0
 40
-0.6
 41
-30.0
 62
     5
 63
     7
421
 16777215
 74
     1
 91
        4
 64
     7
 65
   257
 75
     7
175
     7
 42
1.0
 92
        8
 66
     7
 43
1.0
 76
     1
 77
     6
 78
     2
 67
     7
 79
     5
170
     0
171
     0
290
     0
174
     0
 93
        1
 44
0.0
173
     0
291
     1
 45
0.0
1001
ACAD
1000
AcDbSavedByObjectVersion
1070
     0
  0
VISUALSTYLE
  5
33
102
{ACAD_REACTORS
330
2A
102
}
330
2A
100
AcDbVisualStyle
  2
Realistic
 70
     8
 71
     2
 72
     2
 73
     0
 90
        0
 40
-0.6
 41
-30.0
 62
     5
 63
     7
421
 16777215
 74
     1
 91
        0
 64
     7
 65
   257
 75
     1
175
     1
 42
1.0
 92
        8
 66
     8
424
  7895160
 43
1.0
 76
     1
 77
     6
 78
     2
 67
     7
 79
     5
170
     0
171
     0
290
     0
174
     0
 93
       13
 44
0.0
173
     0
291
     0
 45
0.0
1001
ACAD
1000
AcDbSavedByObjectVersion
1070
     0
  0
VISUALSTYLE
  5
37
102
{ACAD_REACTORS
330
2A
102
}
330
2A
100
AcDbVisualStyle
  2
Thicken
 70
    13
 71
     2
 72
     2
 73
     0
 90
        0
 40
-0.6
 41
-30.0
 62
     5
 63
     7
421
 16777215
 74
     1
 91
        4
 64
     7
 65
   257
 75
     1
175
     1
 42
1.0
 92
       12
 66
     7
 43
1.0
 76
     1
 77
     6
 78
     2
 67
     7
 79
     5
170
     0
171
     0
290
     0
174
     0
 93
        1
 44
0.0
173
     0
291
     1
 45
0.0
1001
ACAD
1000
AcDbSavedByObjectVersion
1070
     0
  0
ENDSEC
  0
EOF
