  0
SECTION
  2
HEADER
  9
$ACADVER
  1
AC1018
  9
$ACADMAINTVER
 70
     0
  9
$DWGCODEPAGE
  3
ANSI_932
  9
$INSBASE
 10
0.0
 20
0.0
 30
0.0
  9
$EXTMIN
 10
-630.0
 20
-445.5
 30
0.0
  9
$EXTMAX
 10
630.0
 20
445.5
 30
0.0
  9
$LIMMIN
 10
-630.0
 20
-445.5
  9
$LIMMAX
 10
630.0
 20
445.5
  9
$ORTHOMODE
 70
     0
  9
$REGENMODE
 70
     1
  9
$FILLMODE
 70
     1
  9
$QTEXTMODE
 70
     0
  9
$MIRRTEXT
 70
     1
  9
$LTSCALE
 40
3.0
  9
$ATTMODE
 70
     1
  9
$TEXTSIZE
 40
2.5
  9
$TRACEWID
 40
1.0
  9
$TEXTSTYLE
  7
Standard
  9
$CLAYER
  8
0
  9
$CELTYPE
  6
ByLayer
  9
$CECOLOR
 62
   256
  9
$CELTSCALE
 40
1.0
  9
$DISPSILH
 70
     0
  9
$DIMSCALE
 40
1.0
  9
$DIMASZ
 40
2.5
  9
$DIMEXO
 40
0.625
  9
$DIMDLI
 40
3.75
  9
$DIMRND
 40
0.0
  9
$DIMDLE
 40
0.0
  9
$DIMEXE
 40
1.25
  9
$DIMTP
 40
0.0
  9
$DIMTM
 40
0.0
  9
$DIMTXT
 40
2.5
  9
$DIMCEN
 40
2.5
  9
$DIMTSZ
 40
0.0
  9
$DIMTOL
 70
     0
  9
$DIMLIM
 70
     0
  9
$DIMTIH
 70
     0
  9
$DIMTOH
 70
     0
  9
$DIMSE1
 70
     0
  9
$DIMSE2
 70
     0
  9
$DIMTAD
 70
     1
  9
$DIMZIN
 70
     8
  9
$DIMBLK
  1

  9
$DIMASO
 70
     1
  9
$DIMSHO
 70
     1
  9
$DIMPOST
  1

  9
$DIMAPOST
  1

  9
$DIMALT
 70
     0
  9
$DIMALTD
 70
     3
  9
$DIMALTF
 40
0.03937007874016
  9
$DIMLFAC
 40
1.0
  9
$DIMTOFL
 70
     1
  9
$DIMTVP
 40
0.0
  9
$DIMTIX
 70
     0
  9
$DIMSOXD
 70
     0
  9
$DIMSAH
 70
     0
  9
$DIMBLK1
  1

  9
$DIMBLK2
  1

  9
$DIMSTYLE
  2
ISO-25
  9
$DIMCLRD
 70
     0
  9
$DIMCLRE
 70
     0
  9
$DIMCLRT
 70
     0
  9
$DIMTFAC
 40
1.0
  9
$DIMGAP
 40
0.625
  9
$DIMJUST
 70
     0
  9
$DIMSD1
 70
     0
  9
$DIMSD2
 70
     0
  9
$DIMTOLJ
 70
     0
  9
$DIMTZIN
 70
     8
  9
$DIMALTZ
 70
     0
  9
$DIMALTTZ
 70
     0
  9
$DIMUPT
 70
     0
  9
$DIMDEC
 70
     2
  9
$DIMTDEC
 70
     2
  9
$DIMALTU
 70
     2
  9
$DIMALTTD
 70
     3
  9
$DIMTXSTY
  7
Standard
  9
$DIMAUNIT
 70
     0
  9
$DIMADEC
 70
     0
  9
$DIMALTRND
 40
0.0
  9
$DIMAZIN
 70
     0
  9
$DIMDSEP
 70
    44
  9
$DIMATFIT
 70
     3
  9
$DIMFRAC
 70
     0
  9
$DIMLDRBLK
  1

  9
$DIMLUNIT
 70
     2
  9
$DIMLWD
 70
    -2
  9
$DIMLWE
 70
    -2
  9
$DIMTMOVE
 70
     0
  9
$LUNITS
 70
     2
  9
$LUPREC
 70
     4
  9
$SKETCHINC
 40
1.0
  9
$FILLETRAD
 40
10.0
  9
$AUNITS
 70
     0
  9
$AUPREC
 70
     0
  9
$MENU
  1
.
  9
$ELEVATION
 40
0.0
  9
$PELEVATION
 40
0.0
  9
$THICKNESS
 40
0.0
  9
$LIMCHECK
 70
     0
  9
$CHAMFERA
 40
10.0
  9
$CHAMFERB
 40
10.0
  9
$CHAMFERC
 40
20.0
  9
$CHAMFERD
 40
0.0
  9
$SKPOLY
 70
     0
  9
$TDCREATE
 40
2456498.823410625
  9
$TDUCREATE
 40
2456498.448410625
  9
$TDUPDATE
 40
2456498.823410637
  9
$TDUUPDATE
 40
2456498.448410637
  9
$TDINDWG
 40
0.0000000116
  9
$TDUSRTIMER
 40
0.0000000116
  9
$USRTIMER
 70
     1
  9
$ANGBASE
 50
0.0
  9
$ANGDIR
 70
     0
  9
$PDMODE
 70
     0
  9
$PDSIZE
 40
0.0
  9
$PLINEWID
 40
0.0
  9
$SPLFRAME
 70
     0
  9
$SPLINETYPE
 70
     6
  9
$SPLINESEGS
 70
     8
  9
$HANDSEED
  5
3F5
  9
$SURFTAB1
 70
     6
  9
$SURFTAB2
 70
     6
  9
$SURFTYPE
 70
     6
  9
$SURFU
 70
     6
  9
$SURFV
 70
     6
  9
$UCSBASE
  2

  9
$UCSNAME
  2

  9
$UCSORG
 10
0.0
 20
0.0
 30
0.0
  9
$UCSXDIR
 10
1.0
 20
0.0
 30
0.0
  9
$UCSYDIR
 10
0.0
 20
1.0
 30
0.0
  9
$UCSORTHOREF
  2

  9
$UCSORTHOVIEW
 70
     0
  9
$UCSORGTOP
 10
0.0
 20
0.0
 30
0.0
  9
$UCSORGBOTTOM
 10
0.0
 20
0.0
 30
0.0
  9
$UCSORGLEFT
 10
0.0
 20
0.0
 30
0.0
  9
$UCSORGRIGHT
 10
0.0
 20
0.0
 30
0.0
  9
$UCSORGFRONT
 10
0.0
 20
0.0
 30
0.0
  9
$UCSORGBACK
 10
0.0
 20
0.0
 30
0.0
  9
$PUCSBASE
  2

  9
$PUCSNAME
  2

  9
$PUCSORG
 10
0.0
 20
0.0
 30
0.0
  9
$PUCSXDIR
 10
1.0
 20
0.0
 30
0.0
  9
$PUCSYDIR
 10
0.0
 20
1.0
 30
0.0
  9
$PUCSORTHOREF
  2

  9
$PUCSORTHOVIEW
 70
     0
  9
$PUCSORGTOP
 10
0.0
 20
0.0
 30
0.0
  9
$PUCSORGBOTTOM
 10
0.0
 20
0.0
 30
0.0
  9
$PUCSORGLEFT
 10
0.0
 20
0.0
 30
0.0
  9
$PUCSORGRIGHT
 10
0.0
 20
0.0
 30
0.0
  9
$PUCSORGFRONT
 10
0.0
 20
0.0
 30
0.0
  9
$PUCSORGBACK
 10
0.0
 20
0.0
 30
0.0
  9
$USERI1
 70
     0
  9
$USERI2
 70
     0
  9
$USERI3
 70
     0
  9
$USERI4
 70
     0
  9
$USERI5
 70
     0
  9
$USERR1
 40
0.0
  9
$USERR2
 40
0.0
  9
$USERR3
 40
0.0
  9
$USERR4
 40
0.0
  9
$USERR5
 40
0.0
  9
$WORLDVIEW
 70
     1
  9
$SHADEDGE
 70
     3
  9
$SHADEDIF
 70
    70
  9
$TILEMODE
 70
     1
  9
$MAXACTVP
 70
    64
  9
$PINSBASE
 10
0.0
 20
0.0
 30
0.0
  9
$PLIMCHECK
 70
     0
  9
$PEXTMIN
 10
1.000000000000000E+20
 20
1.000000000000000E+20
 30
1.000000000000000E+20
  9
$PEXTMAX
 10
-1.000000000000000E+20
 20
-1.000000000000000E+20
 30
-1.000000000000000E+20
  9
$PLIMMIN
 10
0.0
 20
0.0
  9
$PLIMMAX
 10
420.0
 20
297.0
  9
$UNITMODE
 70
     0
  9
$VISRETAIN
 70
     1
  9
$PLINEGEN
 70
     0
  9
$PSLTSCALE
 70
     1
  9
$TREEDEPTH
 70
  3020
  9
$CMLSTYLE
  2
Standard
  9
$CMLJUST
 70
     0
  9
$CMLSCALE
 40
20.0
  9
$PROXYGRAPHICS
 70
     1
  9
$MEASUREMENT
 70
     1
  9
$CELWEIGHT
370
    -1
  9
$ENDCAPS
280
     0
  9
$JOINSTYLE
280
     0
  9
$LWDISPLAY
290
     0
  9
$INSUNITS
 70
     4
  9
$HYPERLINKBASE
  1

  9
$STYLESHEET
  1

  9
$XEDIT
290
     1
  9
$CEPSNTYPE
380
     0
  9
$PSTYLEMODE
290
     1
  9
$FINGERPRINTGUID
  2
{281AF29F-2528-4FC3-A6C9-CC15384B8845}
  9
$VERSIONGUID
  2
{FAEB1C32-E019-11D5-929B-00C0DF256EC4}
  9
$EXTNAMES
290
     1
  9
$PSVPSCALE
 40
0.0
  9
$OLESTARTUP
290
     0
  9
$SORTENTS
280
   127
  9
$INDEXCTL
280
     0
  9
$HIDETEXT
280
     1
  9
$XCLIPFRAME
290
     0
  9
$HALOGAP
280
     0
  9
$OBSCOLOR
 70
   257
  9
$OBSLTYPE
280
     0
  9
$INTERSECTIONDISPLAY
280
     0
  9
$INTERSECTIONCOLOR
 70
   257
  9
$DIMASSOC
280
     2
  9
$PROJECTNAME
  1

  0
ENDSEC
  0
SECTION
  2
CLASSES
  0
CLASS
  1
ACDBDICTIONARYWDFLT
  2
AcDbDictionaryWithDefault
  3
ObjectDBX Classes
 90
        0
 91
        4
280
     0
281
     0
  0
CLASS
  1
VISUALSTYLE
  2
AcDbVisualStyle
  3
ObjectDBX Classes
 90
     4095
 91
        4
280
     0
281
     0
  0
ENDSEC
  0
SECTION
  2
TABLES
  0
TABLE
  2
VPORT
  5
8
330
0
100
AcDbSymbolTable
 70
     1
  0
VPORT
  5
29
330
8
100
AcDbSymbolTableRecord
100
AcDbViewportTableRecord
  2
*Active
 70
     0
 10
0.0
 20
0.0
 11
1.0
 21
1.0
 12
0.0
 22
0.0
 13
0.0
 23
0.0
 14
10.0
 24
10.0
 15
10.0
 25
10.0
 16
0.0
 26
0.0
 36
1.0
 17
0.0
 27
0.0
 37
0.0
 40
980.1
 41
1.414141414141414
 42
50.0
 43
0.0
 44
0.0
 50
0.0
 51
0.0
 71
     0
 72
 10000
 73
     1
 74
     3
 75
     0
 76
     0
 77
     0
 78
     0
281
     0
 65
     1
110
0.0
120
0.0
130
0.0
111
1.0
121
0.0
131
0.0
112
0.0
122
1.0
132
0.0
 79
     0
146
0.0
  0
ENDTAB
  0
TABLE
  2
LTYPE
  5
5
330
0
100
AcDbSymbolTable
 70
     2
  0
LTYPE
  5
14
330
5
100
AcDbSymbolTableRecord
100
AcDbLinetypeTableRecord
  2
ByBlock
 70
     0
  3

 72
    65
 73
     0
 40
0.0
  0
LTYPE
  5
15
330
5
100
AcDbSymbolTableRecord
100
AcDbLinetypeTableRecord
  2
ByLayer
 70
     0
  3

 72
    65
 73
     0
 40
0.0
  0
LTYPE
  5
16
330
5
100
AcDbSymbolTableRecord
100
AcDbLinetypeTableRecord
  2
Continuous
 70
     0
  3
Solid line
 72
    65
 73
     0
 40
0.0
  0
LTYPE
  5
3C
330
5
100
AcDbSymbolTableRecord
100
AcDbLinetypeTableRecord
  2
JWW_CENTER1
 70
     0
  3
-----  --  ----------  --  -----
 72
    65
 73
     4
 40
6.773333333333333
 49
4.233333333333333
 74
     0
 49
-0.8466666666666667
 74
     0
 49
0.8466666666666667
 74
     0
 49
-0.8466666666666667
 74
     0
  0
ENDTAB
  0
TABLE
  2
LAYER
  5
2
330
0
100
AcDbSymbolTable
 70
     7
  0
LAYER
  5
10
330
2
100
AcDbSymbolTableRecord
100
AcDbLayerTableRecord
  2
0
 70
     0
 62
     7
  6
Continuous
370
    -3
390
F
  0
LAYER
  5
3D
330
2
100
AcDbSymbolTableRecord
100
AcDbLayerTableRecord
  2
0-E
 70
     0
 62
     7
  6
Continuous
370
    -3
390
F
  0
LAYER
  5
3E
330
2
100
AcDbSymbolTableRecord
100
AcDbLayerTableRecord
  2
0-0
 70
     0
 62
     7
  6
Continuous
370
    -3
390
F
  0
LAYER
  5
3F
330
2
100
AcDbSymbolTableRecord
100
AcDbLayerTableRecord
  2
0-4
 70
     0
 62
     7
  6
Continuous
370
    -3
390
F
  0
LAYER
  5
40
330
2
100
AcDbSymbolTableRecord
100
AcDbLayerTableRecord
  2
0-2
 70
     0
 62
     7
  6
Continuous
370
    -3
390
F
  0
LAYER
  5
41
330
2
100
AcDbSymbolTableRecord
100
AcDbLayerTableRecord
  2
0-1
 70
     0
 62
     7
  6
Continuous
370
    -3
390
F
  0
LAYER
  5
42
330
2
100
AcDbSymbolTableRecord
100
AcDbLayerTableRecord
  2
F-5
 70
     0
 62
     7
  6
Continuous
370
    -3
390
F
  0
ENDTAB
  0
TABLE
  2
STYLE
  5
3
330
0
100
AcDbSymbolTable
 70
     2
  0
STYLE
  5
11
330
3
100
AcDbSymbolTableRecord
100
AcDbTextStyleTableRecord
  2
Standard
 70
     0
 40
0.0
 41
1.0
 50
0.0
 71
     0
 42
2.5
  3
txt
  4

1001
ACAD
1000

1071
        0
  0
STYLE
  5
3B
330
3
100
AcDbSymbolTableRecord
100
AcDbTextStyleTableRecord
  2
ＭＳ ゴシック
 70
     0
 40
1.0
 41
1.0
 50
0.0
 71
     0
 42
10.0
  3

  4

1001
ACAD
1000
MS Gothic
1071
    32817
  0
ENDTAB
  0
TABLE
  2
VIEW
  5
6
330
0
100
AcDbSymbolTable
 70
     0
  0
ENDTAB
  0
TABLE
  2
UCS
  5
7
330
0
100
AcDbSymbolTable
 70
     0
  0
ENDTAB
  0
TABLE
  2
APPID
  5
9
330
0
100
AcDbSymbolTable
 70
     1
  0
APPID
  5
12
330
9
100
AcDbSymbolTableRecord
100
AcDbRegAppTableRecord
  2
ACAD
 70
     0
  0
ENDTAB
  0
TABLE
  2
DIMSTYLE
  5
A
330
0
100
AcDbSymbolTable
 70
     1
100
AcDbDimStyleTable
  0
DIMSTYLE
105
27
330
A
100
AcDbSymbolTableRecord
100
AcDbDimStyleTableRecord
  2
ISO-25
 70
     0
 41
2.5
 42
0.625
 43
3.75
 44
1.25
 73
     0
 74
     0
 77
     1
 78
     8
140
2.5
141
2.5
143
0.03937007874016
147
0.625
171
     3
172
     1
271
     2
272
     2
274
     3
278
    44
283
     0
284
     8
340
11
  0
ENDTAB
  0
TABLE
  2
BLOCK_RECORD
  5
1
330
0
100
AcDbSymbolTable
 70
     1
  0
BLOCK_RECORD
  5
1F
330
1
100
AcDbSymbolTableRecord
100
AcDbBlockTableRecord
  2
*Model_Space
340
22
  0
BLOCK_RECORD
  5
1B
330
1
100
AcDbSymbolTableRecord
100
AcDbBlockTableRecord
  2
*Paper_Space
340
1E
  0
BLOCK_RECORD
  5
23
330
1
100
AcDbSymbolTableRecord
100
AcDbBlockTableRecord
  2
*Paper_Space0
340
26
  0
ENDTAB
  0
ENDSEC
  0
SECTION
  2
BLOCKS
  0
BLOCK
  5
20
330
1F
100
AcDbEntity
  8
0
100
AcDbBlockBegin
  2
*Model_Space
 70
     0
 10
0.0
 20
0.0
 30
0.0
  3
*Model_Space
  1

  0
ENDBLK
  5
21
330
1F
100
AcDbEntity
  8
0
100
AcDbBlockEnd
  0
BLOCK
  5
1C
330
1B
100
AcDbEntity
 67
     1
  8
0
100
AcDbBlockBegin
  2
*Paper_Space
 70
     0
 10
0.0
 20
0.0
 30
0.0
  3
*Paper_Space
  1

  0
ENDBLK
  5
1D
330
1B
100
AcDbEntity
 67
     1
  8
0
100
AcDbBlockEnd
  0
BLOCK
  5
24
330
23
100
AcDbEntity
  8
0
100
AcDbBlockBegin
  2
*Paper_Space0
 70
     0
 10
0.0
 20
0.0
 30
0.0
  3
*Paper_Space0
  1

  0
ENDBLK
  5
25
330
23
100
AcDbEntity
  8
0
100
AcDbBlockEnd
  0
ENDSEC
  0
SECTION
  2
ENTITIES
  0
TEXT
  5
43
330
1F
100
AcDbEntity
  8
0-E
  6
Continuous
 62
     2
370
     9
100
AcDbText
 10
250.8136533168839
 20
-256.0442414666796
 30
0.0
 40
9.144
  1
仕様
 41
1.0625
  7
ＭＳ ゴシック
100
AcDbText
  0
TEXT
  5
44
330
1F
100
AcDbEntity
  8
0-E
  6
Continuous
 62
     2
370
     9
100
AcDbText
 10
250.8136372911601
 20
-274.0443008522446
 30
0.0
 40
9.144
  1
適応荷重：Ｔ－２
 50
0.0000399359442499
 41
1.109375
  7
ＭＳ ゴシック
100
AcDbText
  0
TEXT
  5
45
330
1F
100
AcDbEntity
  8
0-E
  6
Continuous
 62
     2
370
     9
100
AcDbText
 10
250.8136681632732
 20
-310.0442711594584
 30
0.0
 40
9.144
  1
接触圧子：φ１５０ｍｍ
 41
1.113636363636363
  7
ＭＳ ゴシック
100
AcDbText
  0
TEXT
  5
46
330
1F
100
AcDbEntity
  8
0-E
  6
Continuous
 62
     2
370
     9
100
AcDbText
 10
250.8136681632732
 20
-292.0442860058478
 30
0.0
 40
9.144
  1
破壊荷重：２０ｋＮ（２，０４１ｋｇｆ）以上
 41
1.119047619047619
  7
ＭＳ ゴシック
100
AcDbText
  0
LINE
  5
47
330
1F
100
AcDbEntity
  8
0-0
  6
Continuous
 62
     3
370
     9
100
AcDbLine
 10
-91.19191453263562
 20
301.1756954708617
 30
0.0
 11
-91.19191453263562
 21
-82.82434659390827
 31
0.0
  0
LINE
  5
48
330
1F
100
AcDbEntity
  8
0-0
  6
Continuous
 62
     3
370
     9
100
AcDbLine
 10
-94.19192443022851
 20
304.1755569045609
 30
0.0
 11
-478.1919664949984
 21
304.1755569045609
 31
0.0
  0
LINE
  5
49
330
1F
100
AcDbEntity
  8
0-0
  6
Continuous
 62
     3
370
     9
100
AcDbLine
 10
237.4567052480336
 20
283.2256684174411
 30
0.0
 11
239.4566623584645
 21
282.2256156302789
 31
0.0
  0
LINE
  5
4A
330
1F
100
AcDbEntity
  8
0-0
  6
Continuous
 62
     3
370
     9
100
AcDbLine
 10
237.4567052480336
 20
304.1755569045609
 30
0.0
 11
251.1394346082533
 21
302.4955394847974
 31
0.0
  0
LINE
  5
4B
330
1F
100
AcDbEntity
  8
0-0
  6
Continuous
 62
     3
370
     9
100
AcDbLine
 10
250.9566755552552
 20
302.5181059966217
 30
0.0
 11
250.9566755552552
 21
284.9647744668498
 31
0.0
  0
LINE
  5
4C
330
1F
100
AcDbEntity
  8
0-0
  6
Continuous
 62
     3
370
     9
100
AcDbLine
 10
239.4566623584645
 20
282.2256156302789
 30
0.0
 11
251.1394346082533
 21
283.6600737700592
 31
0.0
  0
LINE
  5
4D
330
1F
100
AcDbEntity
  8
0-0
  6
Continuous
 62
     3
370
     9
100
AcDbLine
 10
237.4567052480336
 20
304.1755569045609
 30
0.0
 11
237.4567052480336
 21
-85.8243193755278
 31
0.0
  0
LINE
  5
4E
330
1F
100
AcDbEntity
  8
0-0
  6
Continuous
 62
     3
370
     9
100
AcDbLine
 10
239.4566623584645
 20
282.2256156302789
 30
0.0
 11
239.4566623584645
 21
-63.87426675332546
 31
0.0
  0
LINE
  5
4F
330
1F
100
AcDbEntity
  8
0-0
  6
Continuous
 62
     3
370
     9
100
AcDbLine
 10
239.4566623584645
 20
210.1756426836995
 30
0.0
 11
249.4567448384055
 21
208.9477720518371
 31
0.0
  0
LINE
  5
50
330
1F
100
AcDbEntity
  8
0-0
  6
Continuous
 62
     3
370
     9
100
AcDbLine
 10
239.4566623584645
 20
192.1756575300888
 30
0.0
 11
249.4567448384055
 21
193.4035281619512
 31
0.0
  0
LINE
  5
51
330
1F
100
AcDbEntity
  8
0-0
  6
Continuous
 62
     3
370
     9
100
AcDbLine
 10
239.4566623584645
 20
118.1756484572953
 30
0.0
 11
249.4567448384055
 21
116.947777825433
 31
0.0
  0
LINE
  5
52
330
1F
100
AcDbEntity
  8
0-0
  6
Continuous
 62
     3
370
     9
100
AcDbLine
 10
249.4567448384055
 20
283.453560494088
 30
0.0
 11
249.4567448384055
 21
208.9477720518371
 31
0.0
  0
LINE
  5
53
330
1F
100
AcDbEntity
  8
0-0
  6
Continuous
 62
     3
370
     9
100
AcDbLine
 10
250.4048352628142
 20
208.4867916622679
 30
0.0
 11
264.096620920542
 21
207.2031728383659
 31
0.0
  0
LINE
  5
54
330
1F
100
AcDbEntity
  8
0-0
  6
Continuous
 62
     3
370
     9
100
AcDbLine
 10
250.4048352628142
 20
193.8645827834672
 30
0.0
 11
264.096620920542
 21
195.1482016073692
 31
0.0
  0
LINE
  5
55
330
1F
100
AcDbEntity
  8
0-0
  6
Continuous
 62
     3
370
     9
100
AcDbLine
 10
-253.1919664949984
 20
118.1756484572953
 30
0.0
 11
-273.1919829909866
 21
118.1756484572953
 31
0.0
  0
LINE
  5
56
330
1F
100
AcDbEntity
  8
0-0
  6
Continuous
 62
     3
370
     9
100
AcDbLine
 10
-277.1920456757416
 20
188.1755948453338
 30
0.0
 11
-277.1920456757416
 21
122.1756369101036
 31
0.0
  0
LINE
  5
57
330
1F
100
AcDbEntity
  8
0-0
  6
Continuous
 62
     3
370
     9
100
AcDbLine
 10
-253.1919664949984
 20
192.1756575300888
 30
0.0
 11
-273.1919829909866
 21
192.1756575300888
 31
0.0
  0
LINE
  5
58
330
1F
100
AcDbEntity
  8
0-0
  6
Continuous
 62
     3
370
     9
100
AcDbLine
 10
-249.1920522741369
 20
188.1755948453338
 30
0.0
 11
-249.1920522741369
 21
122.1756369101036
 31
0.0
  0
LINE
  5
59
330
1F
100
AcDbEntity
  8
0-0
  6
Continuous
 62
     3
370
     9
100
AcDbLine
 10
-207.1920621717298
 20
192.1756575300888
 30
0.0
 11
-227.1920044357712
 21
192.1756575300888
 31
0.0
  0
LINE
  5
5A
330
1F
100
AcDbEntity
  8
0-0
  6
Continuous
 62
     3
370
     9
100
AcDbLine
 10
-231.1919928885794
 20
122.1756369101036
 30
0.0
 11
-231.1919928885794
 21
188.1755948453338
 31
0.0
  0
LINE
  5
5B
330
1F
100
AcDbEntity
  8
0-0
  6
Continuous
 62
     3
370
     9
100
AcDbLine
 10
-207.1920621717298
 20
118.1756484572953
 30
0.0
 11
-227.1920044357712
 21
118.1756484572953
 31
0.0
  0
LINE
  5
5C
330
1F
100
AcDbEntity
  8
0-0
  6
Continuous
 62
     3
370
     9
100
AcDbLine
 10
-203.1919994869748
 20
122.1756369101036
 30
0.0
 11
-203.1919994869748
 21
188.1755948453338
 31
0.0
  0
LINE
  5
5D
330
1F
100
AcDbEntity
  8
0-0
  6
Continuous
 62
     3
370
     9
100
AcDbLine
 10
-161.192046500541
 20
118.1756484572953
 30
0.0
 11
-181.1919516486091
 21
118.1756484572953
 31
0.0
  0
LINE
  5
5E
330
1F
100
AcDbEntity
  8
0-0
  6
Continuous
 62
     3
370
     9
100
AcDbLine
 10
-185.1919401014173
 20
188.1755948453338
 30
0.0
 11
-185.1919401014173
 21
122.1756369101036
 31
0.0
  0
LINE
  5
5F
330
1F
100
AcDbEntity
  8
0-0
  6
Continuous
 62
     3
370
     9
100
AcDbLine
 10
-161.192046500541
 20
192.1756575300888
 30
0.0
 11
-181.1919516486091
 21
192.1756575300888
 31
0.0
  0
LINE
  5
60
330
1F
100
AcDbEntity
  8
0-0
  6
Continuous
 62
     3
370
     9
100
AcDbLine
 10
-157.1920209317594
 20
188.1755948453338
 30
0.0
 11
-157.1920209317594
 21
122.1756369101036
 31
0.0
  0
LINE
  5
61
330
1F
100
AcDbEntity
  8
0-0
  6
Continuous
 62
     3
370
     9
100
AcDbLine
 10
-115.1919565974055
 20
192.1756575300888
 30
0.0
 11
-135.1919730933938
 21
192.1756575300888
 31
0.0
  0
LINE
  5
62
330
1F
100
AcDbEntity
  8
0-0
  6
Continuous
 62
     3
370
     9
100
AcDbLine
 10
-139.191961546202
 20
122.1756369101036
 30
0.0
 11
-139.191961546202
 21
188.1755948453338
 31
0.0
  0
LINE
  5
63
330
1F
100
AcDbEntity
  8
0-0
  6
Continuous
 62
     3
370
     9
100
AcDbLine
 10
-115.1919565974055
 20
118.1756484572953
 30
0.0
 11
-135.1919730933938
 21
118.1756484572953
 31
0.0
  0
LINE
  5
64
330
1F
100
AcDbEntity
  8
0-0
  6
Continuous
 62
     3
370
     9
100
AcDbLine
 10
-111.1920423765441
 20
122.1756369101036
 30
0.0
 11
-111.1920423765441
 21
188.1755948453338
 31
0.0
  0
LINE
  5
65
330
1F
100
AcDbEntity
  8
0-0
  6
Continuous
 62
     3
370
     9
100
AcDbLine
 10
-277.1920456757416
 20
280.1756261877113
 30
0.0
 11
-277.1920456757416
 21
214.1756311365077
 31
0.0
  0
LINE
  5
66
330
1F
100
AcDbEntity
  8
0-0
  6
Continuous
 62
     3
370
     9
100
AcDbLine
 10
-253.1919664949984
 20
284.1756888724664
 30
0.0
 11
-273.1919829909866
 21
284.1756888724664
 31
0.0
  0
LINE
  5
67
330
1F
100
AcDbEntity
  8
0-0
  6
Continuous
 62
     3
370
     9
100
AcDbLine
 10
-249.1920522741369
 20
214.1756311365077
 30
0.0
 11
-249.1920522741369
 21
280.1756261877113
 31
0.0
  0
LINE
  5
68
330
1F
100
AcDbEntity
  8
0-0
  6
Continuous
 62
     3
370
     9
100
AcDbLine
 10
-253.1919664949984
 20
210.1756426836995
 30
0.0
 11
-273.1919829909866
 21
210.1756426836995
 31
0.0
  0
LINE
  5
69
330
1F
100
AcDbEntity
  8
0-0
  6
Continuous
 62
     3
370
     9
100
AcDbLine
 10
-231.1919928885794
 20
280.1756261877113
 30
0.0
 11
-231.1919928885794
 21
214.1756311365077
 31
0.0
  0
LINE
  5
6A
330
1F
100
AcDbEntity
  8
0-0
  6
Continuous
 62
     3
370
     9
100
AcDbLine
 10
-207.1920621717298
 20
284.1756888724664
 30
0.0
 11
-227.1920044357712
 21
284.1756888724664
 31
0.0
  0
LINE
  5
6B
330
1F
100
AcDbEntity
  8
0-0
  6
Continuous
 62
     3
370
     9
100
AcDbLine
 10
-203.1919994869748
 20
214.1756311365077
 30
0.0
 11
-203.1919994869748
 21
280.1756261877113
 31
0.0
  0
LINE
  5
6C
330
1F
100
AcDbEntity
  8
0-0
  6
Continuous
 62
     3
370
     9
100
AcDbLine
 10
-207.1920621717298
 20
210.1756426836995
 30
0.0
 11
-227.1920044357712
 21
210.1756426836995
 31
0.0
  0
LINE
  5
6D
330
1F
100
AcDbEntity
  8
0-0
  6
Continuous
 62
     3
370
     9
100
AcDbLine
 10
-185.1919401014173
 20
280.1756261877113
 30
0.0
 11
-185.1919401014173
 21
214.1756311365077
 31
0.0
  0
LINE
  5
6E
330
1F
100
AcDbEntity
  8
0-0
  6
Continuous
 62
     3
370
     9
100
AcDbLine
 10
-161.192046500541
 20
284.1756888724664
 30
0.0
 11
-181.1919516486091
 21
284.1756888724664
 31
0.0
  0
LINE
  5
6F
330
1F
100
AcDbEntity
  8
0-0
  6
Continuous
 62
     3
370
     9
100
AcDbLine
 10
-157.1920209317594
 20
214.1756311365077
 30
0.0
 11
-157.1920209317594
 21
280.1756261877113
 31
0.0
  0
LINE
  5
70
330
1F
100
AcDbEntity
  8
0-0
  6
Continuous
 62
     3
370
     9
100
AcDbLine
 10
-161.192046500541
 20
210.1756426836995
 30
0.0
 11
-181.1919516486091
 21
210.1756426836995
 31
0.0
  0
LINE
  5
71
330
1F
100
AcDbEntity
  8
0-0
  6
Continuous
 62
     3
370
     9
100
AcDbLine
 10
-139.191961546202
 20
280.1756261877113
 30
0.0
 11
-139.191961546202
 21
214.1756311365077
 31
0.0
  0
LINE
  5
72
330
1F
100
AcDbEntity
  8
0-0
  6
Continuous
 62
     3
370
     9
100
AcDbLine
 10
-115.1919565974055
 20
284.1756888724664
 30
0.0
 11
-135.1919730933938
 21
284.1756888724664
 31
0.0
  0
LINE
  5
73
330
1F
100
AcDbEntity
  8
0-0
  6
Continuous
 62
     3
370
     9
100
AcDbLine
 10
-111.1920423765441
 20
214.1756311365077
 30
0.0
 11
-111.1920423765441
 21
280.1756261877113
 31
0.0
  0
LINE
  5
74
330
1F
100
AcDbEntity
  8
0-0
  6
Continuous
 62
     3
370
     9
100
AcDbLine
 10
-115.1919565974055
 20
210.1756426836995
 30
0.0
 11
-135.1919730933938
 21
210.1756426836995
 31
0.0
  0
LINE
  5
75
330
1F
100
AcDbEntity
  8
0-0
  6
Continuous
 62
     3
370
     9
100
AcDbLine
 10
-115.1919565974055
 20
285.1757416596286
 30
0.0
 11
-457.1920456757416
 21
285.1757416596286
 31
0.0
  0
LINE
  5
76
330
1F
100
AcDbEntity
  8
0-0
  6
Continuous
 62
     3
370
     9
100
AcDbLine
 10
-110.1920267053553
 20
280.1756261877113
 30
0.0
 11
-110.1920267053553
 21
-61.82435154270468
 31
0.0
  0
LINE
  5
77
330
1F
100
AcDbEntity
  8
0-0
  6
Continuous
 62
     3
370
     9
100
AcDbLine
 10
257.956748137603
 20
269.2681323902028
 30
0.0
 11
254.4567118464289
 21
271.2888744457349
 31
0.0
  0
LINE
  5
78
330
1F
100
AcDbEntity
  8
0-0
  6
Continuous
 62
     3
370
     9
100
AcDbLine
 10
-94.19188731425515
 20
-85.8243193755278
 30
0.0
 11
-478.1920407269453
 21
-85.8243193755278
 31
0.0
  0
LINE
  5
79
330
1F
100
AcDbEntity
  8
0-0
  6
Continuous
 62
     3
370
     9
100
AcDbLine
 10
-253.1919664949984
 20
100.1756633036847
 30
0.0
 11
-273.1919829909866
 21
100.1756633036847
 31
0.0
  0
LINE
  5
7A
330
1F
100
AcDbEntity
  8
0-0
  6
Continuous
 62
     3
370
     9
100
AcDbLine
 10
-277.1920456757416
 20
30.17567979967282
 30
0.0
 11
-277.1920456757416
 21
96.17567485087642
 31
0.0
  0
LINE
  5
7B
330
1F
100
AcDbEntity
  8
0-0
  6
Continuous
 62
     3
370
     9
100
AcDbLine
 10
-253.1919664949984
 20
26.17565423089118
 30
0.0
 11
-273.1919829909866
 21
26.17565423089118
 31
0.0
  0
LINE
  5
7C
330
1F
100
AcDbEntity
  8
0-0
  6
Continuous
 62
     3
370
     9
100
AcDbLine
 10
-249.1920522741369
 20
30.17567979967282
 30
0.0
 11
-249.1920522741369
 21
96.17567485087642
 31
0.0
  0
LINE
  5
7D
330
1F
100
AcDbEntity
  8
0-0
  6
Continuous
 62
     3
370
     9
100
AcDbLine
 10
-207.1919879397831
 20
26.17565423089118
 30
0.0
 11
-227.1920044357712
 21
26.17565423089118
 31
0.0
  0
LINE
  5
7E
330
1F
100
AcDbEntity
  8
0-0
  6
Continuous
 62
     3
370
     9
100
AcDbLine
 10
-231.1919928885794
 20
96.17567485087642
 30
0.0
 11
-231.1919928885794
 21
30.17567979967282
 31
0.0
  0
LINE
  5
7F
330
1F
100
AcDbEntity
  8
0-0
  6
Continuous
 62
     3
370
     9
100
AcDbLine
 10
-207.1919879397831
 20
100.1756633036847
 30
0.0
 11
-227.1920044357712
 21
100.1756633036847
 31
0.0
  0
LINE
  5
80
330
1F
100
AcDbEntity
  8
0-0
  6
Continuous
 62
     3
370
     9
100
AcDbLine
 10
-203.1919994869748
 20
96.17567485087642
 30
0.0
 11
-203.1919994869748
 21
30.17567979967282
 31
0.0
  0
LINE
  5
81
330
1F
100
AcDbEntity
  8
0-0
  6
Continuous
 62
     3
370
     9
100
AcDbLine
 10
-161.192046500541
 20
100.1756633036847
 30
0.0
 11
-181.1919516486091
 21
100.1756633036847
 31
0.0
  0
LINE
  5
82
330
1F
100
AcDbEntity
  8
0-0
  6
Continuous
 62
     3
370
     9
100
AcDbLine
 10
-185.1919401014173
 20
30.17567979967282
 30
0.0
 11
-185.1919401014173
 21
96.17567485087642
 31
0.0
  0
LINE
  5
83
330
1F
100
AcDbEntity
  8
0-0
  6
Continuous
 62
     3
370
     9
100
AcDbLine
 10
-161.192046500541
 20
26.17565423089118
 30
0.0
 11
-181.1919516486091
 21
26.17565423089118
 31
0.0
  0
LINE
  5
84
330
1F
100
AcDbEntity
  8
0-0
  6
Continuous
 62
     3
370
     9
100
AcDbLine
 10
-157.1920209317594
 20
30.17567979967282
 30
0.0
 11
-157.1920209317594
 21
96.17567485087642
 31
0.0
  0
LINE
  5
85
330
1F
100
AcDbEntity
  8
0-0
  6
Continuous
 62
     3
370
     9
100
AcDbLine
 10
-115.1919565974055
 20
26.17565423089118
 30
0.0
 11
-135.1918988614469
 21
26.17565423089118
 31
0.0
  0
LINE
  5
86
330
1F
100
AcDbEntity
  8
0-0
  6
Continuous
 62
     3
370
     9
100
AcDbLine
 10
-139.191961546202
 20
96.17567485087642
 30
0.0
 11
-139.191961546202
 21
30.17567979967282
 31
0.0
  0
LINE
  5
87
330
1F
100
AcDbEntity
  8
0-0
  6
Continuous
 62
     3
370
     9
100
AcDbLine
 10
-115.1919565974055
 20
100.1756633036847
 30
0.0
 11
-135.1918988614469
 21
100.1756633036847
 31
0.0
  0
LINE
  5
88
330
1F
100
AcDbEntity
  8
0-0
  6
Continuous
 62
     3
370
     9
100
AcDbLine
 10
-111.1920423765441
 20
96.17567485087642
 30
0.0
 11
-111.1920423765441
 21
30.17567979967282
 31
0.0
  0
LINE
  5
89
330
1F
100
AcDbEntity
  8
0-0
  6
Continuous
 62
     3
370
     9
100
AcDbLine
 10
-277.1920456757416
 20
-61.82435154270468
 30
0.0
 11
-277.1920456757416
 21
4.175717740445634
 31
0.0
  0
LINE
  5
8A
330
1F
100
AcDbEntity
  8
0-0
  6
Continuous
 62
     3
370
     9
100
AcDbLine
 10
-253.1919664949984
 20
-65.82433999551296
 30
0.0
 11
-273.1919829909866
 21
-65.82433999551296
 31
0.0
  0
LINE
  5
8B
330
1F
100
AcDbEntity
  8
0-0
  6
Continuous
 62
     3
370
     9
100
AcDbLine
 10
-249.1920522741369
 20
4.175717740445634
 30
0.0
 11
-249.1920522741369
 21
-61.82435154270468
 31
0.0
  0
LINE
  5
8C
330
1F
100
AcDbEntity
  8
0-0
  6
Continuous
 62
     3
370
     9
100
AcDbLine
 10
-253.1919664949984
 20
8.17566907728056
 30
0.0
 11
-273.1919829909866
 21
8.17566907728056
 31
0.0
  0
LINE
  5
8D
330
1F
100
AcDbEntity
  8
0-0
  6
Continuous
 62
     3
370
     9
100
AcDbLine
 10
-231.1919928885794
 20
-61.82435154270468
 30
0.0
 11
-231.1919928885794
 21
4.175717740445634
 31
0.0
  0
LINE
  5
8E
330
1F
100
AcDbEntity
  8
0-0
  6
Continuous
 62
     3
370
     9
100
AcDbLine
 10
-207.1919879397831
 20
-65.82433999551296
 30
0.0
 11
-227.1920044357712
 21
-65.82433999551296
 31
0.0
  0
LINE
  5
8F
330
1F
100
AcDbEntity
  8
0-0
  6
Continuous
 62
     3
370
     9
100
AcDbLine
 10
-203.1919994869748
 20
4.175717740445634
 30
0.0
 11
-203.1919994869748
 21
-61.82435154270468
 31
0.0
  0
LINE
  5
90
330
1F
100
AcDbEntity
  8
0-0
  6
Continuous
 62
     3
370
     9
100
AcDbLine
 10
-207.1919879397831
 20
8.17566907728056
 30
0.0
 11
-227.1920044357712
 21
8.17566907728056
 31
0.0
  0
LINE
  5
91
330
1F
100
AcDbEntity
  8
0-0
  6
Continuous
 62
     3
370
     9
100
AcDbLine
 10
-185.1919401014173
 20
-61.82435154270468
 30
0.0
 11
-185.1919401014173
 21
4.175717740445634
 31
0.0
  0
LINE
  5
92
330
1F
100
AcDbEntity
  8
0-0
  6
Continuous
 62
     3
370
     9
100
AcDbLine
 10
-161.192046500541
 20
-65.82433999551296
 30
0.0
 11
-181.1919516486091
 21
-65.82433999551296
 31
0.0
  0
LINE
  5
93
330
1F
100
AcDbEntity
  8
0-0
  6
Continuous
 62
     3
370
     9
100
AcDbLine
 10
-157.1920209317594
 20
4.175717740445634
 30
0.0
 11
-157.1920209317594
 21
-61.82435154270468
 31
0.0
  0
LINE
  5
94
330
1F
100
AcDbEntity
  8
0-0
  6
Continuous
 62
     3
370
     9
100
AcDbLine
 10
-161.192046500541
 20
8.17566907728056
 30
0.0
 11
-181.1919516486091
 21
8.17566907728056
 31
0.0
  0
LINE
  5
95
330
1F
100
AcDbEntity
  8
0-0
  6
Continuous
 62
     3
370
     9
100
AcDbLine
 10
-139.191961546202
 20
-61.82435154270468
 30
0.0
 11
-139.191961546202
 21
4.175717740445634
 31
0.0
  0
LINE
  5
96
330
1F
100
AcDbEntity
  8
0-0
  6
Continuous
 62
     3
370
     9
100
AcDbLine
 10
-115.1919565974055
 20
-65.82433999551296
 30
0.0
 11
-135.1918988614469
 21
-65.82433999551296
 31
0.0
  0
LINE
  5
97
330
1F
100
AcDbEntity
  8
0-0
  6
Continuous
 62
     3
370
     9
100
AcDbLine
 10
-111.1920423765441
 20
4.175717740445634
 30
0.0
 11
-111.1920423765441
 21
-61.82435154270468
 31
0.0
  0
LINE
  5
98
330
1F
100
AcDbEntity
  8
0-0
  6
Continuous
 62
     3
370
     9
100
AcDbLine
 10
-115.1919565974055
 20
8.17566907728056
 30
0.0
 11
-135.1918988614469
 21
8.17566907728056
 31
0.0
  0
LINE
  5
99
330
1F
100
AcDbEntity
  8
0-0
  6
Continuous
 62
     3
370
     9
100
AcDbLine
 10
-115.1919565974055
 20
-66.82439278267515
 30
0.0
 11
-457.1920456757416
 21
-66.82439278267515
 31
0.0
  0
LINE
  5
9A
330
1F
100
AcDbEntity
  8
0-0
  6
Continuous
 62
     3
370
     9
100
AcDbLine
 10
-481.1919763925913
 20
301.1756954708617
 30
0.0
 11
-481.1919763925913
 21
-82.82434659390827
 31
0.0
  0
LINE
  5
9B
330
1F
100
AcDbEntity
  8
0-0
  6
Continuous
 62
     3
370
     9
100
AcDbLine
 10
-319.1919986621754
 20
118.1756484572953
 30
0.0
 11
-299.1920192821606
 21
118.1756484572953
 31
0.0
  0
LINE
  5
9C
330
1F
100
AcDbEntity
  8
0-0
  6
Continuous
 62
     3
370
     9
100
AcDbLine
 10
-295.1919565974055
 20
188.1756690772806
 30
0.0
 11
-295.1919565974055
 21
122.1756369101036
 31
0.0
  0
LINE
  5
9D
330
1F
100
AcDbEntity
  8
0-0
  6
Continuous
 62
     3
370
     9
100
AcDbLine
 10
-319.1919986621754
 20
192.1756575300888
 30
0.0
 11
-299.1920192821606
 21
192.1756575300888
 31
0.0
  0
LINE
  5
9E
330
1F
100
AcDbEntity
  8
0-0
  6
Continuous
 62
     3
370
     9
100
AcDbLine
 10
-323.1919128830368
 20
188.1756690772806
 30
0.0
 11
-323.1919128830368
 21
122.1756369101036
 31
0.0
  0
LINE
  5
9F
330
1F
100
AcDbEntity
  8
0-0
  6
Continuous
 62
     3
370
     9
100
AcDbLine
 10
-365.1919401014173
 20
192.1756575300888
 30
0.0
 11
-345.1919978373759
 21
192.1756575300888
 31
0.0
  0
LINE
  5
A0
330
1F
100
AcDbEntity
  8
0-0
  6
Continuous
 62
     3
370
     9
100
AcDbLine
 10
-341.1919722685943
 20
122.1756369101036
 30
0.0
 11
-341.1919722685943
 21
188.1756690772806
 31
0.0
  0
LINE
  5
A1
330
1F
100
AcDbEntity
  8
0-0
  6
Continuous
 62
     3
370
     9
100
AcDbLine
 10
-365.1919401014173
 20
118.1756484572953
 30
0.0
 11
-345.1919978373759
 21
118.1756484572953
 31
0.0
  0
LINE
  5
A2
330
1F
100
AcDbEntity
  8
0-0
  6
Continuous
 62
     3
370
     9
100
AcDbLine
 10
-369.1920027861725
 20
122.1756369101036
 30
0.0
 11
-369.1920027861725
 21
188.1756690772806
 31
0.0
  0
LINE
  5
A3
330
1F
100
AcDbEntity
  8
0-0
  6
Continuous
 62
     3
370
     9
100
AcDbLine
 10
-411.1919928885794
 20
118.1756484572953
 30
0.0
 11
-391.1919763925913
 21
118.1756484572953
 31
0.0
  0
LINE
  5
A4
330
1F
100
AcDbEntity
  8
0-0
  6
Continuous
 62
     3
370
     9
100
AcDbLine
 10
-387.1920621717298
 20
188.1756690772806
 30
0.0
 11
-387.1920621717298
 21
122.1756369101036
 31
0.0
  0
LINE
  5
A5
330
1F
100
AcDbEntity
  8
0-0
  6
Continuous
 62
     3
370
     9
100
AcDbLine
 10
-411.1919928885794
 20
192.1756575300888
 30
0.0
 11
-391.1919763925913
 21
192.1756575300888
 31
0.0
  0
LINE
  5
A6
330
1F
100
AcDbEntity
  8
0-0
  6
Continuous
 62
     3
370
     9
100
AcDbLine
 10
-415.1919813413878
 20
188.1756690772806
 30
0.0
 11
-415.1919813413878
 21
122.1756369101036
 31
0.0
  0
LINE
  5
A7
330
1F
100
AcDbEntity
  8
0-0
  6
Continuous
 62
     3
370
     9
100
AcDbLine
 10
-457.1920456757416
 20
192.1756575300888
 30
0.0
 11
-437.1920291797535
 21
192.1756575300888
 31
0.0
  0
LINE
  5
A8
330
1F
100
AcDbEntity
  8
0-0
  6
Continuous
 62
     3
370
     9
100
AcDbLine
 10
-433.1919664949984
 20
122.1756369101036
 30
0.0
 11
-433.1919664949984
 21
188.1756690772806
 31
0.0
  0
LINE
  5
A9
330
1F
100
AcDbEntity
  8
0-0
  6
Continuous
 62
     3
370
     9
100
AcDbLine
 10
-457.1920456757416
 20
118.1756484572953
 30
0.0
 11
-437.1920291797535
 21
118.1756484572953
 31
0.0
  0
LINE
  5
AA
330
1F
100
AcDbEntity
  8
0-0
  6
Continuous
 62
     3
370
     9
100
AcDbLine
 10
-461.1920341285499
 20
122.1756369101036
 30
0.0
 11
-461.1920341285499
 21
188.1756690772806
 31
0.0
  0
LINE
  5
AB
330
1F
100
AcDbEntity
  8
0-0
  6
Continuous
 62
     3
370
     9
100
AcDbLine
 10
-295.1919565974055
 20
280.1756261877113
 30
0.0
 11
-295.1919565974055
 21
214.1756311365077
 31
0.0
  0
LINE
  5
AC
330
1F
100
AcDbEntity
  8
0-0
  6
Continuous
 62
     3
370
     9
100
AcDbLine
 10
-319.1919986621754
 20
284.1756888724664
 30
0.0
 11
-299.1920192821606
 21
284.1756888724664
 31
0.0
  0
LINE
  5
AD
330
1F
100
AcDbEntity
  8
0-0
  6
Continuous
 62
     3
370
     9
100
AcDbLine
 10
-323.1919128830368
 20
214.1756311365077
 30
0.0
 11
-323.1919128830368
 21
280.1756261877113
 31
0.0
  0
LINE
  5
AE
330
1F
100
AcDbEntity
  8
0-0
  6
Continuous
 62
     3
370
     9
100
AcDbLine
 10
-319.1919986621754
 20
210.1756426836995
 30
0.0
 11
-299.1920192821606
 21
210.1756426836995
 31
0.0
  0
LINE
  5
AF
330
1F
100
AcDbEntity
  8
0-0
  6
Continuous
 62
     3
370
     9
100
AcDbLine
 10
-341.1919722685943
 20
280.1756261877113
 30
0.0
 11
-341.1919722685943
 21
214.1756311365077
 31
0.0
  0
LINE
  5
B0
330
1F
100
AcDbEntity
  8
0-0
  6
Continuous
 62
     3
370
     9
100
AcDbLine
 10
-365.1919401014173
 20
284.1756888724664
 30
0.0
 11
-345.1919978373759
 21
284.1756888724664
 31
0.0
  0
LINE
  5
B1
330
1F
100
AcDbEntity
  8
0-0
  6
Continuous
 62
     3
370
     9
100
AcDbLine
 10
-369.1920027861725
 20
214.1756311365077
 30
0.0
 11
-369.1920027861725
 21
280.1756261877113
 31
0.0
  0
LINE
  5
B2
330
1F
100
AcDbEntity
  8
0-0
  6
Continuous
 62
     3
370
     9
100
AcDbLine
 10
-365.1919401014173
 20
210.1756426836995
 30
0.0
 11
-345.1919978373759
 21
210.1756426836995
 31
0.0
  0
LINE
  5
B3
330
1F
100
AcDbEntity
  8
0-0
  6
Continuous
 62
     3
370
     9
100
AcDbLine
 10
-387.1920621717298
 20
280.1756261877113
 30
0.0
 11
-387.1920621717298
 21
214.1756311365077
 31
0.0
  0
LINE
  5
B4
330
1F
100
AcDbEntity
  8
0-0
  6
Continuous
 62
     3
370
     9
100
AcDbLine
 10
-411.1919928885794
 20
284.1756888724664
 30
0.0
 11
-391.1919763925913
 21
284.1756888724664
 31
0.0
  0
LINE
  5
B5
330
1F
100
AcDbEntity
  8
0-0
  6
Continuous
 62
     3
370
     9
100
AcDbLine
 10
-415.1919813413878
 20
214.1756311365077
 30
0.0
 11
-415.1919813413878
 21
280.1756261877113
 31
0.0
  0
LINE
  5
B6
330
1F
100
AcDbEntity
  8
0-0
  6
Continuous
 62
     3
370
     9
100
AcDbLine
 10
-411.1919928885794
 20
210.1756426836995
 30
0.0
 11
-391.1919763925913
 21
210.1756426836995
 31
0.0
  0
LINE
  5
B7
330
1F
100
AcDbEntity
  8
0-0
  6
Continuous
 62
     3
370
     9
100
AcDbLine
 10
-433.1919664949984
 20
280.1756261877113
 30
0.0
 11
-433.1919664949984
 21
214.1756311365077
 31
0.0
  0
LINE
  5
B8
330
1F
100
AcDbEntity
  8
0-0
  6
Continuous
 62
     3
370
     9
100
AcDbLine
 10
-457.1920456757416
 20
284.1756888724664
 30
0.0
 11
-437.1920291797535
 21
284.1756888724664
 31
0.0
  0
LINE
  5
B9
330
1F
100
AcDbEntity
  8
0-0
  6
Continuous
 62
     3
370
     9
100
AcDbLine
 10
-461.1920341285499
 20
214.1756311365077
 30
0.0
 11
-461.1920341285499
 21
280.1756261877113
 31
0.0
  0
LINE
  5
BA
330
1F
100
AcDbEntity
  8
0-0
  6
Continuous
 62
     3
370
     9
100
AcDbLine
 10
-457.1920456757416
 20
210.1756426836995
 30
0.0
 11
-437.1920291797535
 21
210.1756426836995
 31
0.0
  0
LINE
  5
BB
330
1F
100
AcDbEntity
  8
0-0
  6
Continuous
 62
     3
370
     9
100
AcDbLine
 10
-462.1920126837653
 20
280.1756261877113
 30
0.0
 11
-462.1920126837653
 21
-61.82435154270468
 31
0.0
  0
LINE
  5
BC
330
1F
100
AcDbEntity
  8
0-0
  6
Continuous
 62
     3
370
     9
100
AcDbLine
 10
-319.1919986621754
 20
100.1756633036847
 30
0.0
 11
-299.1920192821606
 21
100.1756633036847
 31
0.0
  0
LINE
  5
BD
330
1F
100
AcDbEntity
  8
0-0
  6
Continuous
 62
     3
370
     9
100
AcDbLine
 10
-295.1919565974055
 20
30.17567979967282
 30
0.0
 11
-295.1919565974055
 21
96.17567485087642
 31
0.0
  0
LINE
  5
BE
330
1F
100
AcDbEntity
  8
0-0
  6
Continuous
 62
     3
370
     9
100
AcDbLine
 10
-319.1919986621754
 20
26.17565423089118
 30
0.0
 11
-299.1920192821606
 21
26.17565423089118
 31
0.0
  0
LINE
  5
BF
330
1F
100
AcDbEntity
  8
0-0
  6
Continuous
 62
     3
370
     9
100
AcDbLine
 10
-323.1919128830368
 20
30.17567979967282
 30
0.0
 11
-323.1919128830368
 21
96.17567485087642
 31
0.0
  0
LINE
  5
C0
330
1F
100
AcDbEntity
  8
0-0
  6
Continuous
 62
     3
370
     9
100
AcDbLine
 10
-365.1920143333641
 20
26.17565423089118
 30
0.0
 11
-345.1919978373759
 21
26.17565423089118
 31
0.0
  0
LINE
  5
C1
330
1F
100
AcDbEntity
  8
0-0
  6
Continuous
 62
     3
370
     9
100
AcDbLine
 10
-341.1919722685943
 20
96.17567485087642
 30
0.0
 11
-341.1919722685943
 21
30.17567979967282
 31
0.0
  0
LINE
  5
C2
330
1F
100
AcDbEntity
  8
0-0
  6
Continuous
 62
     3
370
     9
100
AcDbLine
 10
-365.1920143333641
 20
100.1756633036847
 30
0.0
 11
-345.1919978373759
 21
100.1756633036847
 31
0.0
  0
LINE
  5
C3
330
1F
100
AcDbEntity
  8
0-0
  6
Continuous
 62
     3
370
     9
100
AcDbLine
 10
-369.1920027861725
 20
96.17567485087642
 30
0.0
 11
-369.1920027861725
 21
30.17567979967282
 31
0.0
  0
LINE
  5
C4
330
1F
100
AcDbEntity
  8
0-0
  6
Continuous
 62
     3
370
     9
100
AcDbLine
 10
-411.1919928885794
 20
100.1756633036847
 30
0.0
 11
-391.1919763925913
 21
100.1756633036847
 31
0.0
  0
LINE
  5
C5
330
1F
100
AcDbEntity
  8
0-0
  6
Continuous
 62
     3
370
     9
100
AcDbLine
 10
-387.1920621717298
 20
30.17567979967282
 30
0.0
 11
-387.1920621717298
 21
96.17567485087642
 31
0.0
  0
LINE
  5
C6
330
1F
100
AcDbEntity
  8
0-0
  6
Continuous
 62
     3
370
     9
100
AcDbLine
 10
-411.1919928885794
 20
26.17565423089118
 30
0.0
 11
-391.1919763925913
 21
26.17565423089118
 31
0.0
  0
LINE
  5
C7
330
1F
100
AcDbEntity
  8
0-0
  6
Continuous
 62
     3
370
     9
100
AcDbLine
 10
-415.1919813413878
 20
30.17567979967282
 30
0.0
 11
-415.1919813413878
 21
96.17567485087642
 31
0.0
  0
LINE
  5
C8
330
1F
100
AcDbEntity
  8
0-0
  6
Continuous
 62
     3
370
     9
100
AcDbLine
 10
-457.1920456757416
 20
26.17565423089118
 30
0.0
 11
-437.1920291797535
 21
26.17565423089118
 31
0.0
  0
LINE
  5
C9
330
1F
100
AcDbEntity
  8
0-0
  6
Continuous
 62
     3
370
     9
100
AcDbLine
 10
-433.1920407269453
 20
96.17567485087642
 30
0.0
 11
-433.1920407269453
 21
30.17567979967282
 31
0.0
  0
LINE
  5
CA
330
1F
100
AcDbEntity
  8
0-0
  6
Continuous
 62
     3
370
     9
100
AcDbLine
 10
-457.1920456757416
 20
100.1756633036847
 30
0.0
 11
-437.1920291797535
 21
100.1756633036847
 31
0.0
  0
LINE
  5
CB
330
1F
100
AcDbEntity
  8
0-0
  6
Continuous
 62
     3
370
     9
100
AcDbLine
 10
-461.1920341285499
 20
96.17567485087642
 30
0.0
 11
-461.1920341285499
 21
30.17567979967282
 31
0.0
  0
LINE
  5
CC
330
1F
100
AcDbEntity
  8
0-0
  6
Continuous
 62
     3
370
     9
100
AcDbLine
 10
-295.1919565974055
 20
-61.82435154270468
 30
0.0
 11
-295.1919565974055
 21
4.175717740445634
 31
0.0
  0
LINE
  5
CD
330
1F
100
AcDbEntity
  8
0-0
  6
Continuous
 62
     3
370
     9
100
AcDbLine
 10
-319.1919986621754
 20
-65.82433999551296
 30
0.0
 11
-299.1920192821606
 21
-65.82433999551296
 31
0.0
  0
LINE
  5
CE
330
1F
100
AcDbEntity
  8
0-0
  6
Continuous
 62
     3
370
     9
100
AcDbLine
 10
-323.1919128830368
 20
4.175717740445634
 30
0.0
 11
-323.1919128830368
 21
-61.82435154270468
 31
0.0
  0
LINE
  5
CF
330
1F
100
AcDbEntity
  8
0-0
  6
Continuous
 62
     3
370
     9
100
AcDbLine
 10
-319.1919986621754
 20
8.17566907728056
 30
0.0
 11
-299.1920192821606
 21
8.17566907728056
 31
0.0
  0
LINE
  5
D0
330
1F
100
AcDbEntity
  8
0-0
  6
Continuous
 62
     3
370
     9
100
AcDbLine
 10
-341.1919722685943
 20
-61.82435154270468
 30
0.0
 11
-341.1919722685943
 21
4.175717740445634
 31
0.0
  0
LINE
  5
D1
330
1F
100
AcDbEntity
  8
0-0
  6
Continuous
 62
     3
370
     9
100
AcDbLine
 10
-365.1920143333641
 20
-65.82433999551296
 30
0.0
 11
-345.1919978373759
 21
-65.82433999551296
 31
0.0
  0
LINE
  5
D2
330
1F
100
AcDbEntity
  8
0-0
  6
Continuous
 62
     3
370
     9
100
AcDbLine
 10
-369.1920027861725
 20
4.175717740445634
 30
0.0
 11
-369.1920027861725
 21
-61.82435154270468
 31
0.0
  0
LINE
  5
D3
330
1F
100
AcDbEntity
  8
0-0
  6
Continuous
 62
     3
370
     9
100
AcDbLine
 10
-365.1920143333641
 20
8.17566907728056
 30
0.0
 11
-345.1919978373759
 21
8.17566907728056
 31
0.0
  0
LINE
  5
D4
330
1F
100
AcDbEntity
  8
0-0
  6
Continuous
 62
     3
370
     9
100
AcDbLine
 10
-387.1920621717298
 20
-61.82435154270468
 30
0.0
 11
-387.1920621717298
 21
4.175717740445634
 31
0.0
  0
LINE
  5
D5
330
1F
100
AcDbEntity
  8
0-0
  6
Continuous
 62
     3
370
     9
100
AcDbLine
 10
-411.1919928885794
 20
-65.82433999551296
 30
0.0
 11
-391.1919763925913
 21
-65.82433999551296
 31
0.0
  0
LINE
  5
D6
330
1F
100
AcDbEntity
  8
0-0
  6
Continuous
 62
     3
370
     9
100
AcDbLine
 10
-415.1919813413878
 20
4.175717740445634
 30
0.0
 11
-415.1919813413878
 21
-61.82435154270468
 31
0.0
  0
LINE
  5
D7
330
1F
100
AcDbEntity
  8
0-0
  6
Continuous
 62
     3
370
     9
100
AcDbLine
 10
-411.1919928885794
 20
8.17566907728056
 30
0.0
 11
-391.1919763925913
 21
8.17566907728056
 31
0.0
  0
LINE
  5
D8
330
1F
100
AcDbEntity
  8
0-0
  6
Continuous
 62
     3
370
     9
100
AcDbLine
 10
-433.1920407269453
 20
-61.82435154270468
 30
0.0
 11
-433.1920407269453
 21
4.175717740445634
 31
0.0
  0
LINE
  5
D9
330
1F
100
AcDbEntity
  8
0-0
  6
Continuous
 62
     3
370
     9
100
AcDbLine
 10
-457.1920456757416
 20
-65.82433999551296
 30
0.0
 11
-437.1920291797535
 21
-65.82433999551296
 31
0.0
  0
LINE
  5
DA
330
1F
100
AcDbEntity
  8
0-0
  6
Continuous
 62
     3
370
     9
100
AcDbLine
 10
-461.1920341285499
 20
4.175717740445634
 30
0.0
 11
-461.1920341285499
 21
-61.82435154270468
 31
0.0
  0
LINE
  5
DB
330
1F
100
AcDbEntity
  8
0-0
  6
Continuous
 62
     3
370
     9
100
AcDbLine
 10
-457.1920456757416
 20
8.17566907728056
 30
0.0
 11
-437.1920291797535
 21
8.17566907728056
 31
0.0
  0
LINE
  5
DC
330
1F
100
AcDbEntity
  8
0-0
  6
Continuous
 62
     3
370
     9
100
AcDbLine
 10
237.4567052480336
 20
-64.87431954048765
 30
0.0
 11
239.4566623584645
 21
-63.87426675332546
 31
0.0
  0
LINE
  5
DD
330
1F
100
AcDbEntity
  8
0-0
  6
Continuous
 62
     3
370
     9
100
AcDbLine
 10
237.4567052480336
 20
-85.8243193755278
 30
0.0
 11
251.1394346082533
 21
-84.14426483979076
 31
0.0
  0
LINE
  5
DE
330
1F
100
AcDbEntity
  8
0-0
  6
Continuous
 62
     3
370
     9
100
AcDbLine
 10
250.9566755552552
 20
-84.16675711966843
 30
0.0
 11
250.9566755552552
 21
-66.61346270586984
 31
0.0
  0
LINE
  5
DF
330
1F
100
AcDbEntity
  8
0-0
  6
Continuous
 62
     3
370
     9
100
AcDbLine
 10
239.4566623584645
 20
-63.87426675332546
 30
0.0
 11
251.1394346082533
 21
-65.30883624102609
 31
0.0
  0
LINE
  5
E0
330
1F
100
AcDbEntity
  8
0-0
  6
Continuous
 62
     3
370
     9
100
AcDbLine
 10
239.4566623584645
 20
8.17566907728056
 30
0.0
 11
249.4567448384055
 21
9.403502593169549
 31
0.0
  0
LINE
  5
E1
330
1F
100
AcDbEntity
  8
0-0
  6
Continuous
 62
     3
370
     9
100
AcDbLine
 10
239.4566623584645
 20
26.17565423089118
 30
0.0
 11
249.4567448384055
 21
24.94778359902892
 31
0.0
  0
LINE
  5
E2
330
1F
100
AcDbEntity
  8
0-0
  6
Continuous
 62
     3
370
     9
100
AcDbLine
 10
239.4566623584645
 20
100.1756633036847
 30
0.0
 11
249.4567448384055
 21
101.403533935547
 31
0.0
  0
LINE
  5
E3
330
1F
100
AcDbEntity
  8
0-0
  6
Continuous
 62
     3
370
     9
100
AcDbLine
 10
249.4567448384055
 20
-65.10221161713451
 30
0.0
 11
249.4567448384055
 21
9.403502593169549
 31
0.0
  0
LINE
  5
E4
330
1F
100
AcDbEntity
  8
0-0
  6
Continuous
 62
     3
370
     9
100
AcDbLine
 10
250.4048352628142
 20
9.864557214685561
 30
0.0
 11
264.096620920542
 21
11.14817603858751
 31
0.0
  0
LINE
  5
E5
330
1F
100
AcDbEntity
  8
0-0
  6
Continuous
 62
     3
370
     9
100
AcDbLine
 10
250.4048352628142
 20
24.48676609348618
 30
0.0
 11
264.096620920542
 21
23.20314726958424
 31
0.0
  0
LINE
  5
E6
330
1F
100
AcDbEntity
  8
0-0
  6
Continuous
 62
     3
370
     9
100
AcDbLine
 10
257.956748137603
 20
-50.9168206292228
 30
0.0
 11
254.4567118464289
 21
-52.93756268475499
 31
0.0
  0
LINE
  5
E7
330
1F
100
AcDbEntity
  8
0-0
  6
Continuous
 62
     3
370
     9
100
AcDbLine
 10
252.4566062721045
 20
-67.3243820602828
 30
0.0
 11
252.4566062721045
 21
-54.45634831608936
 31
0.0
  0
LINE
  5
E8
330
1F
100
AcDbEntity
  8
0-4
  6
Continuous
 62
     7
370
     9
100
AcDbLine
 10
-277.1920456757416
 20
-64.82432432432421
 30
0.0
 11
-277.1920456757416
 21
-149.2243033744192
 31
0.0
  0
LINE
  5
E9
330
1F
100
AcDbEntity
  8
0-4
  6
Continuous
 62
     7
370
     9
100
AcDbLine
 10
-295.1919565974055
 20
-64.82432432432421
 30
0.0
 11
-295.1919565974055
 21
-149.2243033744192
 31
0.0
  0
LINE
  5
EA
330
1F
100
AcDbEntity
  8
0-4
  6
Continuous
 62
     7
370
     9
100
AcDbLine
 10
-295.1919565974055
 20
-148.324352367504
 30
0.0
 11
-304.1150077613624
 21
-147.1496318095437
 31
0.0
  0
LINE
  5
EB
330
1F
100
AcDbEntity
  8
0-4
  6
Continuous
 62
     7
370
     9
100
AcDbLine
 10
-295.1919565974055
 20
-148.324352367504
 30
0.0
 11
-304.1150077613624
 21
-149.4991471574112
 31
0.0
  0
LINE
  5
EC
330
1F
100
AcDbEntity
  8
0-4
  6
Continuous
 62
     7
370
     9
100
AcDbLine
 10
-319.3863007828996
 20
-148.324352367504
 30
0.0
 11
-249.1920522741369
 21
-148.324352367504
 31
0.0
  0
LINE
  5
ED
330
1F
100
AcDbEntity
  8
0-4
  6
Continuous
 62
     7
370
     9
100
AcDbLine
 10
-249.1920522741369
 20
-64.82432432432421
 30
0.0
 11
-249.1920522741369
 21
-149.2243033744192
 31
0.0
  0
LINE
  5
EE
330
1F
100
AcDbEntity
  8
0-4
  6
Continuous
 62
     7
370
     9
100
AcDbLine
 10
-249.1920522741369
 20
-148.324352367504
 30
0.0
 11
-258.115029206147
 21
-147.1496318095437
 31
0.0
  0
LINE
  5
EF
330
1F
100
AcDbEntity
  8
0-4
  6
Continuous
 62
     7
370
     9
100
AcDbLine
 10
-249.1920522741369
 20
-148.324352367504
 30
0.0
 11
-258.115029206147
 21
-149.4991471574112
 31
0.0
  0
LINE
  5
F0
330
1F
100
AcDbEntity
  8
0-4
  6
Continuous
 62
     7
370
     9
100
AcDbLine
 10
-277.1920456757416
 20
-148.324352367504
 30
0.0
 11
-268.2689945117847
 21
-149.4991471574112
 31
0.0
  0
LINE
  5
F1
330
1F
100
AcDbEntity
  8
0-4
  6
Continuous
 62
     7
370
     9
100
AcDbLine
 10
-277.1920456757416
 20
-148.324352367504
 30
0.0
 11
-268.2689945117847
 21
-147.1496318095437
 31
0.0
  0
LINE
  5
F2
330
1F
100
AcDbEntity
  8
0-4
  6
Continuous
 62
     7
370
     9
100
AcDbLine
 10
-28.69169596079226
 20
100.1756633036847
 30
0.0
 11
-29.86656498264625
 21
91.25264925570119
 31
0.0
  0
LINE
  5
F3
330
1F
100
AcDbEntity
  8
0-4
  6
Continuous
 62
     7
370
     9
100
AcDbLine
 10
-28.69169596079226
 20
100.1756633036847
 30
0.0
 11
-27.51712386672563
 21
91.25264925570119
 31
0.0
  0
LINE
  5
F4
330
1F
100
AcDbEntity
  8
0-4
  6
Continuous
 62
     7
370
     9
100
AcDbLine
 10
-28.69169596079226
 20
81.81955038534642
 30
0.0
 11
-28.69169596079226
 21
192.1756575300888
 31
0.0
  0
LINE
  5
F5
330
1F
100
AcDbEntity
  8
0-4
  6
Continuous
 62
     7
370
     9
100
AcDbLine
 10
-112.1919838157859
 20
192.1756575300888
 30
0.0
 11
-27.79178206985063
 21
192.1756575300888
 31
0.0
  0
LINE
  5
F6
330
1F
100
AcDbEntity
  8
0-4
  6
Continuous
 62
     7
370
     9
100
AcDbLine
 10
-28.69169596079226
 20
192.1756575300888
 30
0.0
 11
-29.86656498264625
 21
183.2526063661319
 31
0.0
  0
LINE
  5
F7
330
1F
100
AcDbEntity
  8
0-4
  6
Continuous
 62
     7
370
     9
100
AcDbLine
 10
-28.69169596079226
 20
192.1756575300888
 30
0.0
 11
-27.51712386672563
 21
183.2526063661319
 31
0.0
  0
LINE
  5
F8
330
1F
100
AcDbEntity
  8
0-4
  6
Continuous
 62
     7
370
     9
100
AcDbLine
 10
-28.69169596079226
 20
118.1756484572953
 30
0.0
 11
-27.51712386672563
 21
127.0986625052789
 31
0.0
  0
LINE
  5
F9
330
1F
100
AcDbEntity
  8
0-4
  6
Continuous
 62
     7
370
     9
100
AcDbLine
 10
-28.69169596079226
 20
118.1756484572953
 30
0.0
 11
-29.86656498264625
 21
127.0986625052789
 31
0.0
  0
LINE
  5
FA
330
1F
100
AcDbEntity
  8
0-4
  6
Continuous
 62
     7
370
     9
100
AcDbLine
 10
350.4565831777211
 20
-65.82433999551296
 30
0.0
 11
350.4565831777211
 21
284.1756888724664
 31
0.0
  0
LINE
  5
FB
330
1F
100
AcDbEntity
  8
0-4
  6
Continuous
 62
     7
370
     9
100
AcDbLine
 10
263.4567415392077
 20
-65.82433999551296
 30
0.0
 11
351.3566455325564
 21
-65.82433999551296
 31
0.0
  0
LINE
  5
FC
330
1F
100
AcDbEntity
  8
0-4
  6
Continuous
 62
     7
370
     9
100
AcDbLine
 10
263.4567415392077
 20
284.1756888724664
 30
0.0
 11
351.3566455325564
 21
284.1756888724664
 31
0.0
  0
LINE
  5
FD
330
1F
100
AcDbEntity
  8
0-4
  6
Continuous
 62
     7
370
     9
100
AcDbLine
 10
350.4565831777211
 20
-65.82433999551296
 30
0.0
 11
349.2819368517077
 21
-56.90128883155609
 31
0.0
  0
LINE
  5
FE
330
1F
100
AcDbEntity
  8
0-4
  6
Continuous
 62
     7
370
     9
100
AcDbLine
 10
350.4565831777211
 20
-65.82433999551296
 30
0.0
 11
351.6314521995752
 21
-56.90128883155609
 31
0.0
  0
LINE
  5
FF
330
1F
100
AcDbEntity
  8
0-4
  6
Continuous
 62
     7
370
     9
100
AcDbLine
 10
350.4565831777211
 20
284.1756888724664
 30
0.0
 11
349.2819368517077
 21
275.2527119404563
 31
0.0
  0
LINE
  5
100
330
1F
100
AcDbEntity
  8
0-4
  6
Continuous
 62
     7
370
     9
100
AcDbLine
 10
350.4565831777211
 20
284.1756888724664
 30
0.0
 11
351.6314521995752
 21
275.2527119404563
 31
0.0
  0
LINE
  5
101
330
1F
100
AcDbEntity
  8
0-4
  6
Continuous
 62
     7
370
     9
100
AcDbLine
 10
252.4566062721045
 20
-88.8244035050675
 30
0.0
 11
252.4566062721045
 21
-149.2244518383128
 31
0.0
  0
LINE
  5
102
330
1F
100
AcDbEntity
  8
0-4
  6
Continuous
 62
     7
370
     9
100
AcDbLine
 10
237.4567052480336
 20
-88.82432927312061
 30
0.0
 11
237.4567052480336
 21
-149.2244518383128
 31
0.0
  0
LINE
  5
103
330
1F
100
AcDbEntity
  8
0-4
  6
Continuous
 62
     7
370
     9
100
AcDbLine
 10
252.4566062721045
 20
-148.324352367504
 30
0.0
 11
261.3795832041149
 21
-147.1496318095437
 31
0.0
  0
LINE
  5
104
330
1F
100
AcDbEntity
  8
0-4
  6
Continuous
 62
     7
370
     9
100
AcDbLine
 10
252.4566062721045
 20
-148.324352367504
 30
0.0
 11
261.3795832041149
 21
-149.4991100414378
 31
0.0
  0
LINE
  5
105
330
1F
100
AcDbEntity
  8
0-4
  6
Continuous
 62
     7
370
     9
100
AcDbLine
 10
237.4567052480336
 20
-148.324352367504
 30
0.0
 11
228.5337283160236
 21
-147.1496318095437
 31
0.0
  0
LINE
  5
106
330
1F
100
AcDbEntity
  8
0-4
  6
Continuous
 62
     7
370
     9
100
AcDbLine
 10
237.4567052480336
 20
-148.324352367504
 30
0.0
 11
228.5337283160236
 21
-149.4991100414378
 31
0.0
  0
LINE
  5
107
330
1F
100
AcDbEntity
  8
0-4
  6
Continuous
 62
     7
370
     9
100
AcDbLine
 10
268.1887312193177
 20
-148.324352367504
 30
0.0
 11
221.3979597349427
 21
-148.324352367504
 31
0.0
  0
LINE
  5
108
330
1F
100
AcDbEntity
  8
0-4
  6
Continuous
 62
     7
370
     9
100
AcDbLine
 10
249.4567448384055
 20
148.4294722273545
 30
0.0
 11
258.3797217704155
 21
149.6041927853148
 31
0.0
  0
LINE
  5
109
330
1F
100
AcDbEntity
  8
0-4
  6
Continuous
 62
     7
370
     9
100
AcDbLine
 10
249.4567448384055
 20
148.4294722273545
 30
0.0
 11
258.3797217704155
 21
147.2547887853675
 31
0.0
  0
LINE
  5
10A
330
1F
100
AcDbEntity
  8
0-4
  6
Continuous
 62
     7
370
     9
100
AcDbLine
 10
237.4565567841402
 20
148.4294722273545
 30
0.0
 11
228.5335798521302
 21
149.6041927853148
 31
0.0
  0
LINE
  5
10B
330
1F
100
AcDbEntity
  8
0-4
  6
Continuous
 62
     7
370
     9
100
AcDbLine
 10
237.4565567841402
 20
148.4294722273545
 30
0.0
 11
228.5335798521302
 21
147.2547887853675
 31
0.0
  0
LINE
  5
10C
330
1F
100
AcDbEntity
  8
0-4
  6
Continuous
 62
     7
370
     9
100
AcDbLine
 10
271.7094039916992
 20
148.4294722273545
 30
0.0
 11
222.1621033952042
 21
148.4294722273545
 31
0.0
  0
LINE
  5
10D
330
1F
100
AcDbEntity
  8
0-2
  6
JWW_CENTER1
 62
     6
370
     5
100
AcDbLine
 10
-148.1919541230073
 20
135.9065799197637
 30
0.0
 11
-148.1919541230073
 21
83.77077422270919
 31
0.0
  0
LINE
  5
10E
330
1F
100
AcDbEntity
  8
0-2
  6
Continuous
 62
     6
370
     5
100
AcDbLine
 10
490.8017287383208
 20
16.08901730099251
 30
0.0
 11
456.079587163152
 21
16.08901730099251
 31
0.0
  0
LINE
  5
10F
330
1F
100
AcDbEntity
  8
0-2
  6
Continuous
 62
     6
370
     5
100
AcDbLine
 10
466.6199297518345
 20
-0.4984452531141983
 30
0.0
 11
467.4310622344145
 21
0.906728383657196
 31
0.0
  0
LINE
  5
110
330
1F
100
AcDbEntity
  8
0-2
  6
JWW_CENTER1
 62
     6
370
     5
100
AcDbLine
 10
441.8711471557617
 20
-141.8056368441194
 30
0.0
 11
412.8995318026158
 21
-141.8056368441194
 31
0.0
  0
LINE
  5
111
330
1F
100
AcDbEntity
  8
0-2
  6
Continuous
 62
     6
370
     5
100
AcDbLine
 10
462.2896091358083
 20
2.00150113492424
 30
0.0
 11
463.1012612420161
 21
3.406637655722363
 31
0.0
  0
LINE
  5
112
330
1F
100
AcDbEntity
  8
0-2
  6
Continuous
 62
     6
370
     5
100
AcDbLine
 10
468.6910010672903
 20
16.08901730099251
 30
0.0
 11
462.5519448357661
 21
5.455773430901729
 31
0.0
  0
LINE
  5
113
330
1F
100
AcDbEntity
  8
0-2
  6
Continuous
 62
     6
370
     5
100
AcDbLine
 10
477.9288699175861
 20
16.08901730099251
 30
0.0
 11
469.4801608936208
 21
1.455784978093448
 31
0.0
  0
LINE
  5
114
330
1F
100
AcDbEntity
  8
0-2
  6
Continuous
 62
     6
370
     5
100
AcDbLine
 10
462.9176856376028
 20
16.08901730099251
 30
0.0
 11
458.221921147527
 21
7.95579405088705
 31
0.0
  0
LINE
  5
115
330
1F
100
AcDbEntity
  8
0-2
  6
Continuous
 62
     6
370
     5
100
AcDbLine
 10
483.7021853472736
 20
16.08901730099251
 30
0.0
 11
473.810481509647
 21
-1.044309873838586
 31
0.0
  0
LINE
  5
116
330
1F
100
AcDbEntity
  8
0-2
  6
Continuous
 62
     6
370
     5
100
AcDbLine
 10
448.9311249191699
 20
-31.13623376794749
 30
0.0
 11
449.9365224065008
 21
-29.39482652818819
 31
0.0
  0
LINE
  5
117
330
1F
100
AcDbEntity
  8
0-2
  6
Continuous
 62
     6
370
     5
100
AcDbLine
 10
444.6008785350905
 20
-28.63621314796225
 30
0.0
 11
445.3537389394398
 21
-27.33244035050663
 31
0.0
  0
LINE
  5
118
330
1F
100
AcDbEntity
  8
0-2
  6
Continuous
 62
     6
370
     5
100
AcDbLine
 10
453.5703988977383
 20
-23.10095957163202
 30
0.0
 11
463.8585013312264
 21
-5.281803440403195
 31
0.0
  0
LINE
  5
119
330
1F
100
AcDbEntity
  8
0-2
  6
Continuous
 62
     6
370
     5
100
AcDbLine
 10
450.8185463982661
 20
-31.58099447714295
 30
0.0
 11
444.0416150479705
 21
-56.87256106814812
 31
0.0
  0
LINE
  5
11A
330
1F
100
AcDbEntity
  8
0-2
  6
Continuous
 62
     6
370
     5
100
AcDbLine
 10
449.1474368121173
 20
-20.7614655365814
 30
0.0
 11
459.528254947147
 21
-2.781745704444518
 31
0.0
  0
LINE
  5
11B
330
1F
100
AcDbEntity
  8
0-2
  6
Continuous
 62
     6
370
     5
100
AcDbLine
 10
433.8711702501452
 20
-50.30552054740281
 30
0.0
 11
433.8711702501452
 21
-32.3056096257389
 31
0.0
  0
LINE
  5
11C
330
1F
100
AcDbEntity
  8
0-2
  6
Continuous
 62
     6
370
     5
100
AcDbLine
 10
440.8713170644398
 20
-50.30552054740281
 30
0.0
 11
440.8713170644398
 21
-32.3056096257389
 31
0.0
  0
LINE
  5
11D
330
1F
100
AcDbEntity
  8
0-2
  6
Continuous
 62
     6
370
     5
100
AcDbLine
 10
457.8710267350478
 20
-32.3056096257389
 30
0.0
 11
451.0416133983716
 21
-57.79407645560593
 31
0.0
  0
LINE
  5
11E
330
1F
100
AcDbEntity
  8
0-2
  6
Continuous
 62
     6
370
     5
100
AcDbLine
 10
440.8713170644398
 20
-50.30552054740281
 30
0.0
 11
433.8711702501452
 21
-50.30552054740281
 31
0.0
  0
LINE
  5
11F
330
1F
100
AcDbEntity
  8
0-2
  6
Continuous
 62
     6
370
     5
100
AcDbLine
 10
420.870929408718
 20
-145.3055617873732
 30
0.0
 11
420.870929408718
 21
-138.3055634369719
 31
0.0
  0
LINE
  5
120
330
1F
100
AcDbEntity
  8
0-2
  6
Continuous
 62
     6
370
     5
100
AcDbLine
 10
443.8709558022989
 20
-136.3056063265412
 30
0.0
 11
443.8709558022989
 21
-58.16660948057421
 31
0.0
  0
LINE
  5
121
330
1F
100
AcDbEntity
  8
0-2
  6
Continuous
 62
     6
370
     5
100
AcDbLine
 10
441.8711471557617
 20
-138.3055634369719
 30
0.0
 11
420.870929408718
 21
-138.3055634369719
 31
0.0
  0
LINE
  5
122
330
1F
100
AcDbEntity
  8
0-2
  6
Continuous
 62
     6
370
     5
100
AcDbLine
 10
443.8709558022989
 20
-145.3055617873732
 30
0.0
 11
420.870929408718
 21
-145.3055617873732
 31
0.0
  0
LINE
  5
123
330
1F
100
AcDbEntity
  8
0-2
  6
Continuous
 62
     6
370
     5
100
AcDbLine
 10
450.871028384647
 20
-138.3055634369719
 30
0.0
 11
450.871028384647
 21
-59.08819909997874
 31
0.0
  0
LINE
  5
124
330
1F
100
AcDbEntity
  8
0-2
  6
JWW_CENTER1
 62
     6
370
     5
100
AcDbLine
 10
437.3712065413192
 20
-60.53650149783562
 30
0.0
 11
437.3712065413192
 21
-32.3056096257389
 31
0.0
  0
LINE
  5
125
330
1F
100
AcDbEntity
  8
0-2
  6
JWW_CENTER1
 62
     6
370
     5
100
AcDbLine
 10
475.0918733751452
 20
19.17561876451657
 30
0.0
 11
443.884391784668
 21
-34.87756100216413
 31
0.0
  0
LINE
  5
126
330
1F
100
AcDbEntity
  8
0-2
  6
JWW_CENTER1
 62
     6
370
     5
100
AcDbLine
 10
454.3606722032702
 20
-31.88378658810163
 30
0.0
 11
447.4222121367583
 21
-57.77837639885968
 31
0.0
  0
LINE
  5
127
330
1F
100
AcDbEntity
  8
0-2
  6
JWW_CENTER1
 62
     6
370
     5
100
AcDbLine
 10
447.3712890212602
 20
-136.3056063265412
 30
0.0
 11
447.3712890212602
 21
-58.16660948057421
 31
0.0
  0
LINE
  5
128
330
1F
100
AcDbEntity
  8
0-2
  6
Continuous
 62
     6
370
     5
100
AcDbLine
 10
295.4567976255677
 20
118.1756855732687
 30
0.0
 11
319.456728342417
 21
118.1756855732687
 31
0.0
  0
LINE
  5
129
330
1F
100
AcDbEntity
  8
0-2
  6
Continuous
 62
     6
370
     5
100
AcDbLine
 10
295.4567976255677
 20
113.1756443332983
 30
0.0
 11
319.456728342417
 21
113.1756443332983
 31
0.0
  0
LINE
  5
12A
330
1F
100
AcDbEntity
  8
0-2
  6
Continuous
 62
     6
370
     5
100
AcDbLine
 10
295.4567976255677
 20
105.1754447318414
 30
0.0
 11
319.456728342417
 21
105.1754447318414
 31
0.0
  0
LINE
  5
12B
330
1F
100
AcDbEntity
  8
0-2
  6
Continuous
 62
     6
370
     5
100
AcDbLine
 10
295.4567976255677
 20
100.1757004196581
 30
0.0
 11
319.456728342417
 21
100.1757004196581
 31
0.0
  0
LINE
  5
12C
330
1F
100
AcDbEntity
  8
0-2
  6
Continuous
 62
     6
370
     5
100
AcDbLine
 10
320.9569559870539
 20
111.675936312289
 30
0.0
 11
340.9568240191486
 21
111.675936312289
 31
0.0
  0
LINE
  5
12D
330
1F
100
AcDbEntity
  8
0-2
  6
Continuous
 62
     6
370
     5
100
AcDbLine
 10
320.9569559870539
 20
106.6756723764783
 30
0.0
 11
335.6006921304239
 21
106.6756723764783
 31
0.0
  0
LINE
  5
12E
330
1F
100
AcDbEntity
  8
0-2
  6
JWW_CENTER1
 62
     6
370
     5
100
AcDbLine
 10
345.2624253968936
 20
115.6950023754224
 30
0.0
 11
331.5394623215136
 21
102.8848695497256
 31
0.0
  0
LINE
  5
12F
330
1F
100
AcDbEntity
  8
0-0
  6
Continuous
 62
     3
370
     9
100
AcDbLine
 10
249.4567448384055
 20
127.6756674276817
 30
0.0
 11
262.3000593443177
 21
125.4288890941724
 31
0.0
  0
LINE
  5
130
330
1F
100
AcDbEntity
  8
0-0
  6
Continuous
 62
     3
370
     9
100
AcDbLine
 10
249.4567448384055
 20
90.6756443332983
 30
0.0
 11
262.3003562721045
 21
92.92257113070119
 31
0.0
  0
LINE
  5
131
330
1F
100
AcDbEntity
  8
0-0
  6
Continuous
 62
     3
370
     9
100
AcDbLine
 10
249.4567448384055
 20
117.1756327861066
 30
0.0
 11
252.1607177321977
 21
116.7268264358109
 31
0.0
  0
LINE
  5
132
330
1F
100
AcDbEntity
  8
0-0
  6
Continuous
 62
     3
370
     9
100
AcDbLine
 10
249.4567448384055
 20
101.1756789748734
 30
0.0
 11
252.1607177321977
 21
101.6247080210095
 31
0.0
  0
LINE
  5
133
330
1F
100
AcDbEntity
  8
0-2
  6
Continuous
 62
     4
370
     9
100
AcDbLine
 10
269.3563997423327
 20
112.6756179397172
 30
0.0
 11
294.9569196958802
 21
112.6756179397172
 31
0.0
  0
LINE
  5
134
330
1F
100
AcDbEntity
  8
0-2
  6
Continuous
 62
     4
370
     9
100
AcDbLine
 10
269.3563997423327
 20
105.6757680532096
 30
0.0
 11
294.9569196958802
 21
105.6757680532096
 31
0.0
  0
LINE
  5
135
330
1F
100
AcDbEntity
  8
0-2
  6
JWW_CENTER1
 62
     6
370
     5
100
AcDbLine
 10
234.7080447222736
 20
109.17565588049
 30
0.0
 11
423.130178709288
 21
109.17565588049
 31
0.0
  0
LINE
  5
136
330
1F
100
AcDbEntity
  8
0-0
  6
Continuous
 62
     3
370
     9
100
AcDbLine
 10
249.4567448384055
 20
193.4035281619512
 30
0.0
 11
249.4567448384055
 21
112.3769457018055
 31
0.0
  0
LINE
  5
137
330
1F
100
AcDbEntity
  8
0-0
  6
Continuous
 62
     3
370
     9
100
AcDbLine
 10
249.4567448384055
 20
24.94778359902892
 30
0.0
 11
249.4567448384055
 21
105.9743660591745
 31
0.0
  0
LINE
  5
138
330
1F
100
AcDbEntity
  8
0-0
  6
Continuous
 62
     3
370
     9
100
AcDbLine
 10
265.4566986496386
 20
93.80518897804076
 30
0.0
 11
265.4566986496386
 21
-37.92645263671858
 31
0.0
  0
LINE
  5
139
330
1F
100
AcDbEntity
  8
0-1
  6
Continuous
 62
     2
370
     9
100
AcDbLine
 10
236.4566524608717
 20
139.3314563648122
 30
0.0
 11
236.4566524608717
 21
-93.50027383340358
 31
0.0
  0
LINE
  5
13A
330
1F
100
AcDbEntity
  8
0-1
  6
Continuous
 62
     2
370
     9
100
AcDbLine
 10
253.6802456829998
 20
-67.09500534469998
 30
0.0
 11
260.4565831777211
 21
-65.8243771114864
 31
0.0
  0
LINE
  5
13B
330
1F
100
AcDbEntity
  8
0-1
  6
Continuous
 62
     2
370
     9
100
AcDbLine
 10
251.6623986733927
 20
-116.5655501082136
 30
0.0
 11
260.4565831777211
 21
-118.3244018554686
 31
0.0
  0
LINE
  5
13C
330
1F
100
AcDbEntity
  8
0-1
  6
Continuous
 62
     2
370
     9
100
AcDbLine
 10
250.4566491616739
 20
-108.945677886138
 30
0.0
 11
250.4566491616739
 21
-115.0947554304792
 31
0.0
  0
LINE
  5
13D
330
1F
100
AcDbEntity
  8
0-1
  6
Continuous
 62
     2
370
     9
100
AcDbLine
 10
252.0173016109983
 20
-106.7637411581501
 30
0.0
 11
250.8959538227805
 21
-107.8850889463681
 31
0.0
  0
LINE
  5
13E
330
1F
100
AcDbEntity
  8
0-1
  6
Continuous
 62
     2
370
     9
100
AcDbLine
 10
248.0767729475692
 20
-96.27691980310374
 30
0.0
 11
237.7705579190642
 21
-94.98858725058045
 31
0.0
  0
LINE
  5
13F
330
1F
100
AcDbEntity
  8
0-1
  6
Continuous
 62
     2
370
     9
100
AcDbLine
 10
252.4566062721045
 20
-101.2382861987963
 30
0.0
 11
252.4566062721045
 21
-105.7031522183804
 31
0.0
  0
LINE
  5
140
330
1F
100
AcDbEntity
  8
0-1
  6
Continuous
 62
     2
370
     9
100
AcDbLine
 10
250.7046580959011
 20
-86.04337785050663
 30
0.0
 11
237.7705579190642
 21
-87.66014965160451
 31
0.0
  0
LINE
  5
141
330
1F
100
AcDbEntity
  8
0-1
  6
Continuous
 62
     2
370
     9
100
AcDbLine
 10
252.4566062721045
 20
-84.05886098500827
 30
0.0
 11
252.4566062721045
 21
-68.56925180796014
 31
0.0
  0
LINE
  5
142
330
1F
100
AcDbEntity
  8
0-1
  6
Continuous
 62
     2
370
     9
100
AcDbLine
 10
-376.6919904141812
 20
-98.32416266364007
 30
0.0
 11
-376.6919904141812
 21
-104.3241824588259
 31
0.0
  0
LINE
  5
143
330
1F
100
AcDbEntity
  8
0-1
  6
Continuous
 62
     2
370
     9
100
AcDbLine
 10
-378.6920217565588
 20
-104.3241824588259
 30
0.0
 11
-378.6920217565588
 21
-98.32416266364007
 31
0.0
  0
LINE
  5
144
330
1F
100
AcDbEntity
  8
0-1
  6
JWW_CENTER1
 62
     2
370
     9
100
AcDbLine
 10
-386.9390425810943
 20
-108.324430723448
 30
0.0
 11
-410.4338620160078
 21
-108.324430723448
 31
0.0
  0
LINE
  5
145
330
1F
100
AcDbEntity
  8
0-1
  6
Continuous
 62
     2
370
     9
100
AcDbLine
 10
-420.7555915213919
 20
-95.32430122994069
 30
0.0
 11
-376.6284849837019
 21
-95.32422699799389
 31
0.0
  0
LINE
  5
146
330
1F
100
AcDbEntity
  8
0-1
  6
JWW_CENTER1
 62
     2
370
     9
100
AcDbLine
 10
-398.6920382525469
 20
-97.34975701409405
 30
0.0
 11
-398.6920011365736
 21
-117.0836890968116
 31
0.0
  0
LINE
  5
147
330
1F
100
AcDbEntity
  8
0-1
  6
Continuous
 62
     2
370
     9
100
AcDbLine
 10
-408.19202010696
 20
-114.3243020547401
 30
0.0
 11
-408.19202010696
 21
-108.324430723448
 31
0.0
  0
LINE
  5
148
330
1F
100
AcDbEntity
  8
0-1
  6
Continuous
 62
     2
370
     9
100
AcDbLine
 10
-406.1920258805559
 20
-108.324430723448
 30
0.0
 11
-406.1919887645824
 21
-114.3243020547401
 31
0.0
  0
LINE
  5
149
330
1F
100
AcDbEntity
  8
0-1
  6
Continuous
 62
     2
370
     9
100
AcDbLine
 10
-391.1920506245381
 20
-108.3242822595544
 30
0.0
 11
-391.1920135085647
 21
-114.32419070682
 31
0.0
  0
LINE
  5
14A
330
1F
100
AcDbEntity
  8
0-1
  6
Continuous
 62
     2
370
     9
100
AcDbLine
 10
-389.1919821661872
 20
-114.32419070682
 30
0.0
 11
-389.1919821661872
 21
-108.3242822595544
 31
0.0
  0
LINE
  5
14B
330
1F
100
AcDbEntity
  8
0-1
  6
Continuous
 62
     2
370
     9
100
AcDbLine
 10
-493.692042376544
 20
18.67566660288236
 30
0.0
 11
-499.6920064977697
 21
18.67566660288236
 31
0.0
  0
LINE
  5
14C
330
1F
100
AcDbEntity
  8
0-1
  6
Continuous
 62
     2
370
     9
100
AcDbLine
 10
-499.6920064977697
 20
16.67563526050486
 30
0.0
 11
-493.692042376544
 21
16.67563526050486
 31
0.0
  0
LINE
  5
14D
330
1F
100
AcDbEntity
  8
0-1
  6
JWW_CENTER1
 62
     2
370
     9
100
AcDbLine
 10
-503.692236204405
 20
8.428577319995867
 30
0.0
 11
-503.692236204405
 21
-15.06620499894413
 31
0.0
  0
LINE
  5
14E
330
1F
100
AcDbEntity
  8
0-1
  6
Continuous
 62
     2
370
     9
100
AcDbLine
 10
-493.692042376544
 20
-25.32439195787569
 30
0.0
 11
-499.6920064977697
 21
-25.32439195787569
 31
0.0
  0
LINE
  5
14F
330
1F
100
AcDbEntity
  8
0-1
  6
Continuous
 62
     2
370
     9
100
AcDbLine
 10
-499.6920064977697
 20
-23.32436061549819
 30
0.0
 11
-493.692042376544
 21
-23.32436061549819
 31
0.0
  0
LINE
  5
150
330
1F
100
AcDbEntity
  8
0-1
  6
Continuous
 62
     2
370
     9
100
AcDbLine
 10
-490.691976804991
 20
-25.38786027238163
 30
0.0
 11
-490.691976804991
 21
18.73917203336174
 31
0.0
  0
LINE
  5
151
330
1F
100
AcDbEntity
  8
0-1
  6
JWW_CENTER1
 62
     2
370
     9
100
AcDbLine
 10
-492.7174882631044
 20
-3.324381235483429
 30
0.0
 11
-512.4514945777687
 21
-3.324381235483429
 31
0.0
  0
LINE
  5
152
330
1F
100
AcDbEntity
  8
0-1
  6
Continuous
 62
     2
370
     9
100
AcDbLine
 10
-509.6920518617372
 20
-12.82436308989639
 30
0.0
 11
-503.692236204405
 21
-12.82436308989639
 31
0.0
  0
LINE
  5
153
330
1F
100
AcDbEntity
  8
0-1
  6
Continuous
 62
     2
370
     9
100
AcDbLine
 10
-503.692236204405
 20
-10.82440597946569
 30
0.0
 11
-509.6920518617372
 21
-10.82429463154546
 31
0.0
  0
LINE
  5
154
330
1F
100
AcDbEntity
  8
0-1
  6
Continuous
 62
     2
370
     9
100
AcDbLine
 10
-503.6920877405115
 20
4.175606392525481
 30
0.0
 11
-509.6920518617372
 21
4.175643508498922
 31
0.0
  0
LINE
  5
155
330
1F
100
AcDbEntity
  8
0-1
  6
Continuous
 62
     2
370
     9
100
AcDbLine
 10
-509.6920518617372
 20
6.175637734902978
 30
0.0
 11
-503.6920877405115
 21
6.175637734902978
 31
0.0
  0
LINE
  5
156
330
1F
100
AcDbEntity
  8
0-1
  6
Continuous
 62
     2
370
     9
100
AcDbLine
 10
-494.1921801180453
 20
57.17562041411544
 30
0.0
 11
-499.6922848675703
 21
57.17562041411544
 31
0.0
  0
LINE
  5
157
330
1F
100
AcDbEntity
  8
0-1
  6
Continuous
 62
     2
370
     9
100
AcDbLine
 10
-492.1920188697609
 20
20.67566082928641
 30
0.0
 11
-492.1920188697609
 21
55.17562618771126
 31
0.0
  0
LINE
  5
158
330
1F
100
AcDbEntity
  8
0-1
  6
Continuous
 62
     2
370
     9
100
AcDbLine
 10
-494.1921801180453
 20
59.17565175649298
 30
0.0
 11
-499.6922848675703
 21
59.17565175649298
 31
0.0
  0
LINE
  5
159
330
1F
100
AcDbEntity
  8
0-1
  6
Continuous
 62
     2
370
     9
100
AcDbLine
 10
-490.691976804991
 20
57.11185517182236
 30
0.0
 11
-490.691976804991
 21
161.2394194731842
 31
0.0
  0
LINE
  5
15A
330
1F
100
AcDbEntity
  8
0-1
  6
Continuous
 62
     2
370
     9
100
AcDbLine
 10
-503.692236204405
 20
55.17562618771126
 30
0.0
 11
-503.692236204405
 21
20.67566082928641
 31
0.0
  0
LINE
  5
15B
330
1F
100
AcDbEntity
  8
0-1
  6
Continuous
 62
     2
370
     9
100
AcDbLine
 10
-501.6921863040409
 20
20.67566082928641
 30
0.0
 11
-501.6921863040409
 21
55.17562618771126
 31
0.0
  0
LINE
  5
15C
330
1F
100
AcDbEntity
  8
0-1
  6
Continuous
 62
     2
370
     9
100
AcDbLine
 10
-513.6922815683726
 20
109.1756187645166
 30
0.0
 11
-513.692133104479
 21
8.175631961307118
 31
0.0
  0
LINE
  5
15D
330
1F
100
AcDbEntity
  8
0-1
  6
Continuous
 62
     2
370
     9
100
AcDbLine
 10
-511.6923801319019
 20
109.1756187645166
 30
0.0
 11
-511.692250225995
 21
8.175631961307118
 31
0.0
  0
LINE
  5
15E
330
1F
100
AcDbEntity
  8
0-1
  6
Continuous
 62
     2
370
     9
100
AcDbLine
 10
-420.6920489749393
 20
-98.82422617319443
 30
0.0
 11
-420.6920489749393
 21
-104.3242195747992
 31
0.0
  0
LINE
  5
15F
330
1F
100
AcDbEntity
  8
0-1
  6
Continuous
 62
     2
370
     9
100
AcDbLine
 10
-418.6919805165884
 20
-104.3242195747992
 30
0.0
 11
-418.6920547485352
 21
-98.82422617319443
 31
0.0
  0
LINE
  5
160
330
1F
100
AcDbEntity
  8
0-1
  6
Continuous
 62
     2
370
     9
100
AcDbLine
 10
-490.1919689693966
 20
-87.82442494985202
 30
0.0
 11
-490.1923958030907
 21
109.1756187645166
 31
0.0
  0
LINE
  5
161
330
1F
100
AcDbEntity
  8
0-1
  6
Continuous
 62
     2
370
     9
100
AcDbLine
 10
-422.6921174332903
 20
-96.82434329471062
 30
0.0
 11
-483.1919891769821
 21
-96.82434329471062
 31
0.0
  0
LINE
  5
162
330
1F
100
AcDbEntity
  8
0-1
  6
Continuous
 62
     2
370
     9
100
AcDbLine
 10
-492.1921487756678
 20
-27.32442330025327
 30
0.0
 11
-492.1920188697609
 21
-87.8243507179053
 31
0.0
  0
LINE
  5
163
330
1F
100
AcDbEntity
  8
0-1
  6
Continuous
 62
     2
370
     9
100
AcDbLine
 10
-503.6920877405115
 20
-27.32434906830639
 30
0.0
 11
-503.6920877405115
 21
-86.32442000105561
 31
0.0
  0
LINE
  5
164
330
1F
100
AcDbEntity
  8
0-1
  6
Continuous
 62
     2
370
     9
100
AcDbLine
 10
-501.6920378401472
 20
-86.32442000105561
 30
0.0
 11
-501.6920378401472
 21
-27.32434906830639
 31
0.0
  0
LINE
  5
165
330
1F
100
AcDbEntity
  8
0-1
  6
Continuous
 62
     2
370
     9
100
AcDbLine
 10
-410.1920514493375
 20
-118.3243647394951
 30
0.0
 11
-481.6919471122122
 21
-118.3243647394951
 31
0.0
  0
LINE
  5
166
330
1F
100
AcDbEntity
  8
0-1
  6
Continuous
 62
     2
370
     9
100
AcDbLine
 10
-410.1920514493375
 20
-116.3243705130911
 30
0.0
 11
-481.6919471122122
 21
-116.3243705130911
 31
0.0
  0
LINE
  5
167
330
1F
100
AcDbEntity
  8
0-1
  6
Continuous
 62
     2
370
     9
100
AcDbLine
 10
-513.692133104479
 20
-14.82439443227389
 30
0.0
 11
-513.6920031985721
 21
-86.32442000105561
 31
0.0
  0
LINE
  5
168
330
1F
100
AcDbEntity
  8
0-1
  6
Continuous
 62
     2
370
     9
100
AcDbLine
 10
-511.6920832041147
 20
-14.82439443227389
 30
0.0
 11
-511.6920832041147
 21
-86.32442000105561
 31
0.0
  0
LINE
  5
169
330
1F
100
AcDbEntity
  8
0-1
  6
Continuous
 62
     2
370
     9
100
AcDbLine
 10
-483.1919891769821
 20
301.1756212389149
 30
0.0
 11
-483.1919891769821
 21
-82.82438370988163
 31
0.0
  0
LINE
  5
16A
330
1F
100
AcDbEntity
  8
0-1
  6
Continuous
 62
     2
370
     9
100
AcDbLine
 10
-376.6919904141812
 20
316.6754001926733
 30
0.0
 11
-376.6919904141812
 21
322.6754199878591
 31
0.0
  0
LINE
  5
16B
330
1F
100
AcDbEntity
  8
0-1
  6
Continuous
 62
     2
370
     9
100
AcDbLine
 10
-378.6920217565588
 20
322.6754199878591
 30
0.0
 11
-378.6920217565588
 21
316.6754001926733
 31
0.0
  0
LINE
  5
16C
330
1F
100
AcDbEntity
  8
0-1
  6
JWW_CENTER1
 62
     2
370
     9
100
AcDbLine
 10
-386.9390425810943
 20
326.6756311365077
 30
0.0
 11
-410.4338620160078
 21
326.6756311365077
 31
0.0
  0
LINE
  5
16D
330
1F
100
AcDbEntity
  8
0-1
  6
Continuous
 62
     2
370
     9
100
AcDbLine
 10
-420.7555915213919
 20
313.675538758974
 30
0.0
 11
-376.6284849837019
 21
313.675538758974
 31
0.0
  0
LINE
  5
16E
330
1F
100
AcDbEntity
  8
0-1
  6
JWW_CENTER1
 62
     2
370
     9
100
AcDbLine
 10
-398.6920382525469
 20
315.700883195207
 30
0.0
 11
-398.6920011365736
 21
335.4350008577915
 31
0.0
  0
LINE
  5
16F
330
1F
100
AcDbEntity
  8
0-1
  6
Continuous
 62
     2
370
     9
100
AcDbLine
 10
-408.19202010696
 20
332.6755024678
 30
0.0
 11
-408.19202010696
 21
326.6756311365077
 31
0.0
  0
LINE
  5
170
330
1F
100
AcDbEntity
  8
0-1
  6
Continuous
 62
     2
370
     9
100
AcDbLine
 10
-406.1920258805559
 20
326.6756311365077
 30
0.0
 11
-406.1919887645824
 21
332.6755024678
 31
0.0
  0
LINE
  5
171
330
1F
100
AcDbEntity
  8
0-1
  6
Continuous
 62
     2
370
     9
100
AcDbLine
 10
-391.1920506245381
 20
326.6755569045609
 30
0.0
 11
-391.1920135085647
 21
332.6755024678
 31
0.0
  0
LINE
  5
172
330
1F
100
AcDbEntity
  8
0-1
  6
Continuous
 62
     2
370
     9
100
AcDbLine
 10
-389.1919821661872
 20
332.6755024678
 30
0.0
 11
-389.1919821661872
 21
326.6755569045609
 31
0.0
  0
LINE
  5
173
330
1F
100
AcDbEntity
  8
0-1
  6
Continuous
 62
     2
370
     9
100
AcDbLine
 10
-493.692042376544
 20
199.6756080421243
 30
0.0
 11
-499.6920064977697
 21
199.6756080421243
 31
0.0
  0
LINE
  5
174
330
1F
100
AcDbEntity
  8
0-1
  6
Continuous
 62
     2
370
     9
100
AcDbLine
 10
-499.6920064977697
 20
201.675565152555
 30
0.0
 11
-493.692042376544
 21
201.6756393845018
 31
0.0
  0
LINE
  5
175
330
1F
100
AcDbEntity
  8
0-1
  6
JWW_CENTER1
 62
     2
370
     9
100
AcDbLine
 10
-503.692236204405
 20
209.9225859770905
 30
0.0
 11
-503.692236204405
 21
233.4174425279774
 31
0.0
  0
LINE
  5
176
330
1F
100
AcDbEntity
  8
0-1
  6
Continuous
 62
     2
370
     9
100
AcDbLine
 10
-493.692042376544
 20
243.6757037188557
 30
0.0
 11
-499.6920064977697
 21
243.6755552549621
 31
0.0
  0
LINE
  5
177
330
1F
100
AcDbEntity
  8
0-1
  6
Continuous
 62
     2
370
     9
100
AcDbLine
 10
-499.6920064977697
 20
241.6755981445314
 30
0.0
 11
-493.692042376544
 21
241.6755981445314
 31
0.0
  0
LINE
  5
178
330
1F
100
AcDbEntity
  8
0-1
  6
Continuous
 62
     2
370
     9
100
AcDbLine
 10
-490.691976804991
 20
243.7390978014149
 30
0.0
 11
-490.691976804991
 21
199.6120654956716
 31
0.0
  0
LINE
  5
179
330
1F
100
AcDbEntity
  8
0-1
  6
JWW_CENTER1
 62
     2
370
     9
100
AcDbLine
 10
-492.7174882631044
 20
221.6755816485432
 30
0.0
 11
-512.4514945777687
 21
221.6755816485432
 31
0.0
  0
LINE
  5
17A
330
1F
100
AcDbEntity
  8
0-1
  6
Continuous
 62
     2
370
     9
100
AcDbLine
 10
-509.6920518617372
 20
231.175637734903
 30
0.0
 11
-503.692236204405
 21
231.175637734903
 31
0.0
  0
LINE
  5
17B
330
1F
100
AcDbEntity
  8
0-1
  6
Continuous
 62
     2
370
     9
100
AcDbLine
 10
-503.692236204405
 20
229.1756806244723
 30
0.0
 11
-509.6920518617372
 21
229.1755321605787
 31
0.0
  0
LINE
  5
17C
330
1F
100
AcDbEntity
  8
0-1
  6
Continuous
 62
     2
370
     9
100
AcDbLine
 10
-503.6920877405115
 20
214.1756311365077
 30
0.0
 11
-509.6920518617372
 21
214.1756311365077
 31
0.0
  0
LINE
  5
17D
330
1F
100
AcDbEntity
  8
0-1
  6
Continuous
 62
     2
370
     9
100
AcDbLine
 10
-509.6920518617372
 20
212.175674026077
 30
0.0
 11
-503.6920877405115
 21
212.175674026077
 31
0.0
  0
LINE
  5
17E
330
1F
100
AcDbEntity
  8
0-1
  6
Continuous
 62
     2
370
     9
100
AcDbLine
 10
-494.1921801180453
 20
161.1756171149178
 30
0.0
 11
-499.6922848675703
 21
161.1756171149178
 31
0.0
  0
LINE
  5
17F
330
1F
100
AcDbEntity
  8
0-1
  6
Continuous
 62
     2
370
     9
100
AcDbLine
 10
-492.1920188697609
 20
197.6755024677999
 30
0.0
 11
-492.1920188697609
 21
163.1756484572953
 31
0.0
  0
LINE
  5
180
330
1F
100
AcDbEntity
  8
0-1
  6
Continuous
 62
     2
370
     9
100
AcDbLine
 10
-494.1921801180453
 20
159.1756228885137
 30
0.0
 11
-499.6922848675703
 21
159.1756228885137
 31
0.0
  0
LINE
  5
181
330
1F
100
AcDbEntity
  8
0-1
  6
Continuous
 62
     2
370
     9
100
AcDbLine
 10
-503.692236204405
 20
163.1756484572953
 30
0.0
 11
-503.692236204405
 21
197.6756509316935
 31
0.0
  0
LINE
  5
182
330
1F
100
AcDbEntity
  8
0-1
  6
Continuous
 62
     2
370
     9
100
AcDbLine
 10
-501.6921863040409
 20
197.6755766997467
 30
0.0
 11
-501.6921863040409
 21
163.1756484572953
 31
0.0
  0
LINE
  5
183
330
1F
100
AcDbEntity
  8
0-1
  6
Continuous
 62
     2
370
     9
100
AcDbLine
 10
-513.6922815683726
 20
109.1756187645166
 30
0.0
 11
-513.692133104479
 21
210.1756426836995
 31
0.0
  0
LINE
  5
184
330
1F
100
AcDbEntity
  8
0-1
  6
Continuous
 62
     2
370
     9
100
AcDbLine
 10
-511.6923801319019
 20
109.1756187645166
 30
0.0
 11
-511.692250225995
 21
210.1756426836995
 31
0.0
  0
LINE
  5
185
330
1F
100
AcDbEntity
  8
0-1
  6
Continuous
 62
     2
370
     9
100
AcDbLine
 10
-420.6920489749393
 20
317.175575050148
 30
0.0
 11
-420.6920489749393
 21
322.6755684517527
 31
0.0
  0
LINE
  5
186
330
1F
100
AcDbEntity
  8
0-1
  6
Continuous
 62
     2
370
     9
100
AcDbLine
 10
-418.6919805165884
 20
322.6755684517527
 30
0.0
 11
-418.6920547485352
 21
317.175575050148
 31
0.0
  0
LINE
  5
187
330
1F
100
AcDbEntity
  8
0-1
  6
Continuous
 62
     2
370
     9
100
AcDbLine
 10
-490.1919689693966
 20
306.1755882469386
 30
0.0
 11
-490.1923958030907
 21
109.1756187645166
 31
0.0
  0
LINE
  5
188
330
1F
100
AcDbEntity
  8
0-1
  6
Continuous
 62
     2
370
     9
100
AcDbLine
 10
-422.6921174332903
 20
315.1756179397172
 30
0.0
 11
-483.1919891769821
 21
315.1756179397172
 31
0.0
  0
LINE
  5
189
330
1F
100
AcDbEntity
  8
0-1
  6
Continuous
 62
     2
370
     9
100
AcDbLine
 10
-492.1921487756678
 20
245.6756608292865
 30
0.0
 11
-492.1920188697609
 21
306.1755882469386
 31
0.0
  0
LINE
  5
18A
330
1F
100
AcDbEntity
  8
0-1
  6
Continuous
 62
     2
370
     9
100
AcDbLine
 10
-422.6921174332903
 20
326.6756311365077
 30
0.0
 11
-481.6919471122122
 21
326.6756311365077
 31
0.0
  0
LINE
  5
18B
330
1F
100
AcDbEntity
  8
0-1
  6
Continuous
 62
     2
370
     9
100
AcDbLine
 10
-503.6920877405115
 20
245.6756608292865
 30
0.0
 11
-503.6920877405115
 21
304.6756575300889
 31
0.0
  0
LINE
  5
18C
330
1F
100
AcDbEntity
  8
0-1
  6
Continuous
 62
     2
370
     9
100
AcDbLine
 10
-501.6920378401472
 20
304.6756575300889
 30
0.0
 11
-501.6920378401472
 21
245.6756608292865
 31
0.0
  0
LINE
  5
18D
330
1F
100
AcDbEntity
  8
0-1
  6
Continuous
 62
     2
370
     9
100
AcDbLine
 10
-481.6919471122122
 20
324.675674026077
 30
0.0
 11
-422.6921174332903
 21
324.675674026077
 31
0.0
  0
LINE
  5
18E
330
1F
100
AcDbEntity
  8
0-1
  6
Continuous
 62
     2
370
     9
100
AcDbLine
 10
-410.1920514493375
 20
336.675565152555
 30
0.0
 11
-481.6919471122122
 21
336.675565152555
 31
0.0
  0
LINE
  5
18F
330
1F
100
AcDbEntity
  8
0-1
  6
Continuous
 62
     2
370
     9
100
AcDbLine
 10
-410.1920514493375
 20
334.6756080421243
 30
0.0
 11
-481.6919471122122
 21
334.6756080421243
 31
0.0
  0
LINE
  5
190
330
1F
100
AcDbEntity
  8
0-1
  6
Continuous
 62
     2
370
     9
100
AcDbLine
 10
-513.692133104479
 20
233.1756690772806
 30
0.0
 11
-513.6920031985721
 21
304.6756575300889
 31
0.0
  0
LINE
  5
191
330
1F
100
AcDbEntity
  8
0-1
  6
Continuous
 62
     2
370
     9
100
AcDbLine
 10
-511.6920832041147
 20
233.1756690772806
 30
0.0
 11
-511.6920832041147
 21
304.6756575300889
 31
0.0
  0
LINE
  5
192
330
1F
100
AcDbEntity
  8
0-1
  6
Continuous
 62
     2
370
     9
100
AcDbLine
 10
-89.19192030623157
 20
-82.82438370988163
 30
0.0
 11
-89.19192030623157
 21
301.1756212389149
 31
0.0
  0
LINE
  5
193
330
1F
100
AcDbEntity
  8
0-1
  6
Continuous
 62
     2
370
     9
100
AcDbLine
 10
-195.6920118589659
 20
-98.32416266364007
 30
0.0
 11
-195.6920118589659
 21
-104.3241824588259
 31
0.0
  0
LINE
  5
194
330
1F
100
AcDbEntity
  8
0-1
  6
Continuous
 62
     2
370
     9
100
AcDbLine
 10
-193.6920176325617
 20
-104.3241824588259
 30
0.0
 11
-193.6920176325617
 21
-98.32416266364007
 31
0.0
  0
LINE
  5
195
330
1F
100
AcDbEntity
  8
0-1
  6
JWW_CENTER1
 62
     2
370
     9
100
AcDbLine
 10
-185.4449596920529
 20
-108.324430723448
 30
0.0
 11
-161.9501773731128
 21
-108.324430723448
 31
0.0
  0
LINE
  5
196
330
1F
100
AcDbEntity
  8
0-1
  6
Continuous
 62
     2
370
     9
100
AcDbLine
 10
-151.6284478677285
 20
-95.32430122994069
 30
0.0
 11
-195.7555544054186
 21
-95.32422699799389
 31
0.0
  0
LINE
  5
197
330
1F
100
AcDbEntity
  8
0-1
  6
JWW_CENTER1
 62
     2
370
     9
100
AcDbLine
 10
-173.6920011365735
 20
-97.34975701409405
 30
0.0
 11
-173.692038252547
 21
-117.0836890968116
 31
0.0
  0
LINE
  5
198
330
1F
100
AcDbEntity
  8
0-1
  6
Continuous
 62
     2
370
     9
100
AcDbLine
 10
-164.1920192821606
 20
-114.3243020547401
 30
0.0
 11
-164.1920192821606
 21
-108.324430723448
 31
0.0
  0
LINE
  5
199
330
1F
100
AcDbEntity
  8
0-1
  6
Continuous
 62
     2
370
     9
100
AcDbLine
 10
-166.1919763925913
 20
-108.324430723448
 30
0.0
 11
-166.1920135085647
 21
-114.3243020547401
 31
0.0
  0
LINE
  5
19A
330
1F
100
AcDbEntity
  8
0-1
  6
Continuous
 62
     2
370
     9
100
AcDbLine
 10
-181.1919887645825
 20
-108.3242822595544
 30
0.0
 11
-181.1920258805558
 21
-114.32419070682
 31
0.0
  0
LINE
  5
19B
330
1F
100
AcDbEntity
  8
0-1
  6
Continuous
 62
     2
370
     9
100
AcDbLine
 10
-183.19202010696
 20
-114.32419070682
 30
0.0
 11
-183.19202010696
 21
-108.3242822595544
 31
0.0
  0
LINE
  5
19C
330
1F
100
AcDbEntity
  8
0-1
  6
Continuous
 62
     2
370
     9
100
AcDbLine
 10
-78.69192278062968
 20
18.67566660288236
 30
0.0
 11
-72.6919772173907
 21
18.67566660288236
 31
0.0
  0
LINE
  5
19D
330
1F
100
AcDbEntity
  8
0-1
  6
Continuous
 62
     2
370
     9
100
AcDbLine
 10
-72.6919772173907
 20
16.67563526050486
 30
0.0
 11
-78.69192278062968
 21
16.67563526050486
 31
0.0
  0
LINE
  5
19E
330
1F
100
AcDbEntity
  8
0-1
  6
JWW_CENTER1
 62
     2
370
     9
100
AcDbLine
 10
-68.69176606874203
 20
8.428577319995867
 30
0.0
 11
-68.69176606874203
 21
-15.06620499894413
 31
0.0
  0
LINE
  5
19F
330
1F
100
AcDbEntity
  8
0-1
  6
Continuous
 62
     2
370
     9
100
AcDbLine
 10
-78.69192278062968
 20
-25.32439195787569
 30
0.0
 11
-72.6919772173907
 21
-25.32439195787569
 31
0.0
  0
LINE
  5
1A0
330
1F
100
AcDbEntity
  8
0-1
  6
Continuous
 62
     2
370
     9
100
AcDbLine
 10
-72.6919772173907
 20
-23.32436061549819
 30
0.0
 11
-78.69192278062968
 21
-23.32436061549819
 31
0.0
  0
LINE
  5
1A1
330
1F
100
AcDbEntity
  8
0-1
  6
Continuous
 62
     2
370
     9
100
AcDbLine
 10
-81.69193267822266
 20
-25.38786027238163
 30
0.0
 11
-81.69193267822266
 21
18.73917203336174
 31
0.0
  0
LINE
  5
1A2
330
1F
100
AcDbEntity
  8
0-1
  6
JWW_CENTER1
 62
     2
370
     9
100
AcDbLine
 10
-79.66655112601609
 20
-3.324381235483429
 30
0.0
 11
-59.93250769537843
 21
-3.324381235483429
 31
0.0
  0
LINE
  5
1A3
330
1F
100
AcDbEntity
  8
0-1
  6
Continuous
 62
     2
370
     9
100
AcDbLine
 10
-62.6919318534232
 20
-12.82436308989639
 30
0.0
 11
-68.69176606874203
 21
-12.82436308989639
 31
0.0
  0
LINE
  5
1A4
330
1F
100
AcDbEntity
  8
0-1
  6
Continuous
 62
     2
370
     9
100
AcDbLine
 10
-68.69176606874203
 20
-10.82440597946569
 30
0.0
 11
-62.6919318534232
 21
-10.82429463154546
 31
0.0
  0
LINE
  5
1A5
330
1F
100
AcDbEntity
  8
0-1
  6
Continuous
 62
     2
370
     9
100
AcDbLine
 10
-68.69180318471547
 20
4.175606392525481
 30
0.0
 11
-62.6919318534232
 21
4.175643508498922
 31
0.0
  0
LINE
  5
1A6
330
1F
100
AcDbEntity
  8
0-1
  6
Continuous
 62
     2
370
     9
100
AcDbLine
 10
-62.6919318534232
 20
6.175637734902978
 30
0.0
 11
-68.69180318471547
 21
6.175637734902978
 31
0.0
  0
LINE
  5
1A7
330
1F
100
AcDbEntity
  8
0-1
  6
Continuous
 62
     2
370
     9
100
AcDbLine
 10
-78.19182215510187
 20
57.17562041411544
 30
0.0
 11
-72.69168028960351
 21
57.17562041411544
 31
0.0
  0
LINE
  5
1A8
330
1F
100
AcDbEntity
  8
0-1
  6
Continuous
 62
     2
370
     9
100
AcDbLine
 10
-80.19200196137297
 20
20.67566082928641
 30
0.0
 11
-80.19200196137297
 21
55.17562618771126
 31
0.0
  0
LINE
  5
1A9
330
1F
100
AcDbEntity
  8
0-1
  6
Continuous
 62
     2
370
     9
100
AcDbLine
 10
-78.19182215510187
 20
59.17565175649298
 30
0.0
 11
-72.69168028960351
 21
59.17565175649298
 31
0.0
  0
LINE
  5
1AA
330
1F
100
AcDbEntity
  8
0-1
  6
Continuous
 62
     2
370
     9
100
AcDbLine
 10
-81.69193267822266
 20
57.11185517182236
 30
0.0
 11
-81.69193267822266
 21
161.2394194731842
 31
0.0
  0
LINE
  5
1AB
330
1F
100
AcDbEntity
  8
0-1
  6
Continuous
 62
     2
370
     9
100
AcDbLine
 10
-68.69176606874203
 20
55.17562618771126
 30
0.0
 11
-68.69176606874203
 21
20.67566082928641
 31
0.0
  0
LINE
  5
1AC
330
1F
100
AcDbEntity
  8
0-1
  6
Continuous
 62
     2
370
     9
100
AcDbLine
 10
-70.6917974111197
 20
20.67566082928641
 30
0.0
 11
-70.6917974111197
 21
55.17562618771126
 31
0.0
  0
LINE
  5
1AD
330
1F
100
AcDbEntity
  8
0-1
  6
Continuous
 62
     2
370
     9
100
AcDbLine
 10
-58.69157224088102
 20
109.1756187645166
 30
0.0
 11
-58.69179493672132
 21
8.175631961307118
 31
0.0
  0
LINE
  5
1AE
330
1F
100
AcDbEntity
  8
0-1
  6
Continuous
 62
     2
370
     9
100
AcDbLine
 10
-60.69160358325851
 20
109.1756187645166
 30
0.0
 11
-60.69175204715219
 21
8.175631961307118
 31
0.0
  0
LINE
  5
1AF
330
1F
100
AcDbEntity
  8
0-1
  6
Continuous
 62
     2
370
     9
100
AcDbLine
 10
-151.6919904141812
 20
-98.82422617319443
 30
0.0
 11
-151.6919904141812
 21
-104.3242195747992
 31
0.0
  0
LINE
  5
1B0
330
1F
100
AcDbEntity
  8
0-1
  6
Continuous
 62
     2
370
     9
100
AcDbLine
 10
-153.6920217565587
 20
-104.3242195747992
 30
0.0
 11
-153.6919475246119
 21
-98.82422617319443
 31
0.0
  0
LINE
  5
1B1
330
1F
100
AcDbEntity
  8
0-1
  6
Continuous
 62
     2
370
     9
100
AcDbLine
 10
-82.19192195583031
 20
-87.82442494985202
 30
0.0
 11
-82.19155079609632
 21
109.1756187645166
 31
0.0
  0
LINE
  5
1B2
330
1F
100
AcDbEntity
  8
0-1
  6
Continuous
 62
     2
370
     9
100
AcDbLine
 10
-149.6919590718038
 20
-96.82434329471062
 30
0.0
 11
-89.19192030623157
 21
-96.82434329471062
 31
0.0
  0
LINE
  5
1B3
330
1F
100
AcDbEntity
  8
0-1
  6
Continuous
 62
     2
370
     9
100
AcDbLine
 10
-80.19185349747937
 20
-27.32442330025327
 30
0.0
 11
-80.19200196137297
 21
-87.8243507179053
 31
0.0
  0
LINE
  5
1B4
330
1F
100
AcDbEntity
  8
0-1
  6
Continuous
 62
     2
370
     9
100
AcDbLine
 10
-149.6919590718038
 20
-108.324430723448
 30
0.0
 11
-90.69192525502797
 21
-108.324430723448
 31
0.0
  0
LINE
  5
1B5
330
1F
100
AcDbEntity
  8
0-1
  6
Continuous
 62
     2
370
     9
100
AcDbLine
 10
-68.69180318471547
 20
-27.32434906830639
 30
0.0
 11
-68.69191453263562
 21
-86.32442000105561
 31
0.0
  0
LINE
  5
1B6
330
1F
100
AcDbEntity
  8
0-1
  6
Continuous
 62
     2
370
     9
100
AcDbLine
 10
-70.69194587501312
 20
-86.32442000105561
 30
0.0
 11
-70.6918716430664
 21
-27.32434906830639
 31
0.0
  0
LINE
  5
1B7
330
1F
100
AcDbEntity
  8
0-1
  6
Continuous
 62
     2
370
     9
100
AcDbLine
 10
-90.69192525502797
 20
-106.3243622650969
 30
0.0
 11
-149.6919590718038
 21
-106.3243622650969
 31
0.0
  0
LINE
  5
1B8
330
1F
100
AcDbEntity
  8
0-1
  6
Continuous
 62
     2
370
     9
100
AcDbLine
 10
-162.1919879397831
 20
-118.3243647394951
 30
0.0
 11
-90.69192525502797
 21
-118.3243647394951
 31
0.0
  0
LINE
  5
1B9
330
1F
100
AcDbEntity
  8
0-1
  6
Continuous
 62
     2
370
     9
100
AcDbLine
 10
-162.1919879397831
 20
-116.3243705130911
 30
0.0
 11
-90.69192525502797
 21
-116.3243705130911
 31
0.0
  0
LINE
  5
1BA
330
1F
100
AcDbEntity
  8
0-1
  6
Continuous
 62
     2
370
     9
100
AcDbLine
 10
-58.69186916866821
 20
-14.82439443227389
 30
0.0
 11
-58.691943400615
 21
-86.32442000105561
 31
0.0
  0
LINE
  5
1BB
330
1F
100
AcDbEntity
  8
0-1
  6
Continuous
 62
     2
370
     9
100
AcDbLine
 10
-60.6918262790989
 20
-14.82439443227389
 30
0.0
 11
-60.6918262790989
 21
-86.32442000105561
 31
0.0
  0
LINE
  5
1BC
330
1F
100
AcDbEntity
  8
0-1
  6
Continuous
 62
     2
370
     9
100
AcDbLine
 10
-195.6920118589659
 20
316.6754001926733
 30
0.0
 11
-195.6920118589659
 21
322.6754199878591
 31
0.0
  0
LINE
  5
1BD
330
1F
100
AcDbEntity
  8
0-1
  6
Continuous
 62
     2
370
     9
100
AcDbLine
 10
-193.6920176325617
 20
322.6754199878591
 30
0.0
 11
-193.6920176325617
 21
316.6754001926733
 31
0.0
  0
LINE
  5
1BE
330
1F
100
AcDbEntity
  8
0-1
  6
JWW_CENTER1
 62
     2
370
     9
100
AcDbLine
 10
-185.4449596920529
 20
326.6756311365077
 30
0.0
 11
-161.9501773731128
 21
326.6756311365077
 31
0.0
  0
LINE
  5
1BF
330
1F
100
AcDbEntity
  8
0-1
  6
Continuous
 62
     2
370
     9
100
AcDbLine
 10
-151.6284478677285
 20
313.675538758974
 30
0.0
 11
-195.7555544054186
 21
313.675538758974
 31
0.0
  0
LINE
  5
1C0
330
1F
100
AcDbEntity
  8
0-1
  6
JWW_CENTER1
 62
     2
370
     9
100
AcDbLine
 10
-173.6920011365735
 20
315.700883195207
 30
0.0
 11
-173.692038252547
 21
335.4350008577915
 31
0.0
  0
LINE
  5
1C1
330
1F
100
AcDbEntity
  8
0-1
  6
Continuous
 62
     2
370
     9
100
AcDbLine
 10
-164.1920192821606
 20
332.6755024678
 30
0.0
 11
-164.1920192821606
 21
326.6756311365077
 31
0.0
  0
LINE
  5
1C2
330
1F
100
AcDbEntity
  8
0-1
  6
Continuous
 62
     2
370
     9
100
AcDbLine
 10
-166.1919763925913
 20
326.6756311365077
 30
0.0
 11
-166.1920135085647
 21
332.6755024678
 31
0.0
  0
LINE
  5
1C3
330
1F
100
AcDbEntity
  8
0-1
  6
Continuous
 62
     2
370
     9
100
AcDbLine
 10
-181.1919887645825
 20
326.6755569045609
 30
0.0
 11
-181.1920258805558
 21
332.6755024678
 31
0.0
  0
LINE
  5
1C4
330
1F
100
AcDbEntity
  8
0-1
  6
Continuous
 62
     2
370
     9
100
AcDbLine
 10
-183.19202010696
 20
332.6755024678
 30
0.0
 11
-183.19202010696
 21
326.6755569045609
 31
0.0
  0
LINE
  5
1C5
330
1F
100
AcDbEntity
  8
0-1
  6
Continuous
 62
     2
370
     9
100
AcDbLine
 10
-78.69192278062968
 20
199.6756080421243
 30
0.0
 11
-72.6919772173907
 21
199.6756080421243
 31
0.0
  0
LINE
  5
1C6
330
1F
100
AcDbEntity
  8
0-1
  6
Continuous
 62
     2
370
     9
100
AcDbLine
 10
-72.6919772173907
 20
201.675565152555
 30
0.0
 11
-78.69192278062968
 21
201.6756393845018
 31
0.0
  0
LINE
  5
1C7
330
1F
100
AcDbEntity
  8
0-1
  6
JWW_CENTER1
 62
     2
370
     9
100
AcDbLine
 10
-68.69176606874203
 20
209.9225859770905
 30
0.0
 11
-68.69176606874203
 21
233.4174425279774
 31
0.0
  0
LINE
  5
1C8
330
1F
100
AcDbEntity
  8
0-1
  6
Continuous
 62
     2
370
     9
100
AcDbLine
 10
-78.69192278062968
 20
243.6757037188557
 30
0.0
 11
-72.6919772173907
 21
243.6755552549621
 31
0.0
  0
LINE
  5
1C9
330
1F
100
AcDbEntity
  8
0-1
  6
Continuous
 62
     2
370
     9
100
AcDbLine
 10
-72.6919772173907
 20
241.6755981445314
 30
0.0
 11
-78.69192278062968
 21
241.6755981445314
 31
0.0
  0
LINE
  5
1CA
330
1F
100
AcDbEntity
  8
0-1
  6
Continuous
 62
     2
370
     9
100
AcDbLine
 10
-81.69193267822266
 20
243.7390978014149
 30
0.0
 11
-81.69193267822266
 21
199.6120654956716
 31
0.0
  0
LINE
  5
1CB
330
1F
100
AcDbEntity
  8
0-1
  6
JWW_CENTER1
 62
     2
370
     9
100
AcDbLine
 10
-79.66655112601609
 20
221.6755816485432
 30
0.0
 11
-59.93250769537843
 21
221.6755816485432
 31
0.0
  0
LINE
  5
1CC
330
1F
100
AcDbEntity
  8
0-1
  6
Continuous
 62
     2
370
     9
100
AcDbLine
 10
-62.6919318534232
 20
231.175637734903
 30
0.0
 11
-68.69176606874203
 21
231.175637734903
 31
0.0
  0
LINE
  5
1CD
330
1F
100
AcDbEntity
  8
0-1
  6
Continuous
 62
     2
370
     9
100
AcDbLine
 10
-68.69176606874203
 20
229.1756806244723
 30
0.0
 11
-62.6919318534232
 21
229.1755321605787
 31
0.0
  0
LINE
  5
1CE
330
1F
100
AcDbEntity
  8
0-1
  6
Continuous
 62
     2
370
     9
100
AcDbLine
 10
-68.69180318471547
 20
214.1756311365077
 30
0.0
 11
-62.6919318534232
 21
214.1756311365077
 31
0.0
  0
LINE
  5
1CF
330
1F
100
AcDbEntity
  8
0-1
  6
Continuous
 62
     2
370
     9
100
AcDbLine
 10
-62.6919318534232
 20
212.175674026077
 30
0.0
 11
-68.69180318471547
 21
212.175674026077
 31
0.0
  0
LINE
  5
1D0
330
1F
100
AcDbEntity
  8
0-1
  6
Continuous
 62
     2
370
     9
100
AcDbLine
 10
-78.19182215510187
 20
161.1756171149178
 30
0.0
 11
-72.69168028960351
 21
161.1756171149178
 31
0.0
  0
LINE
  5
1D1
330
1F
100
AcDbEntity
  8
0-1
  6
Continuous
 62
     2
370
     9
100
AcDbLine
 10
-80.19200196137297
 20
197.6755024677999
 30
0.0
 11
-80.19200196137297
 21
163.1756484572953
 31
0.0
  0
LINE
  5
1D2
330
1F
100
AcDbEntity
  8
0-1
  6
Continuous
 62
     2
370
     9
100
AcDbLine
 10
-78.19182215510187
 20
159.1756228885137
 30
0.0
 11
-72.69168028960351
 21
159.1756228885137
 31
0.0
  0
LINE
  5
1D3
330
1F
100
AcDbEntity
  8
0-1
  6
Continuous
 62
     2
370
     9
100
AcDbLine
 10
-68.69176606874203
 20
163.1756484572953
 30
0.0
 11
-68.69176606874203
 21
197.6756509316935
 31
0.0
  0
LINE
  5
1D4
330
1F
100
AcDbEntity
  8
0-1
  6
Continuous
 62
     2
370
     9
100
AcDbLine
 10
-70.6917974111197
 20
197.6755766997467
 30
0.0
 11
-70.6917974111197
 21
163.1756484572953
 31
0.0
  0
LINE
  5
1D5
330
1F
100
AcDbEntity
  8
0-1
  6
Continuous
 62
     2
370
     9
100
AcDbLine
 10
-58.69157224088102
 20
109.1756187645166
 30
0.0
 11
-58.69179493672132
 21
210.1756426836995
 31
0.0
  0
LINE
  5
1D6
330
1F
100
AcDbEntity
  8
0-1
  6
Continuous
 62
     2
370
     9
100
AcDbLine
 10
-60.69160358325851
 20
109.1756187645166
 30
0.0
 11
-60.69175204715219
 21
210.1756426836995
 31
0.0
  0
LINE
  5
1D7
330
1F
100
AcDbEntity
  8
0-1
  6
Continuous
 62
     2
370
     9
100
AcDbLine
 10
-151.6919904141812
 20
317.175575050148
 30
0.0
 11
-151.6919904141812
 21
322.6755684517527
 31
0.0
  0
LINE
  5
1D8
330
1F
100
AcDbEntity
  8
0-1
  6
Continuous
 62
     2
370
     9
100
AcDbLine
 10
-153.6920217565587
 20
322.6755684517527
 30
0.0
 11
-153.6919475246119
 21
317.175575050148
 31
0.0
  0
LINE
  5
1D9
330
1F
100
AcDbEntity
  8
0-1
  6
Continuous
 62
     2
370
     9
100
AcDbLine
 10
-82.19192195583031
 20
306.1755882469386
 30
0.0
 11
-82.19155079609632
 21
109.1756187645166
 31
0.0
  0
LINE
  5
1DA
330
1F
100
AcDbEntity
  8
0-1
  6
Continuous
 62
     2
370
     9
100
AcDbLine
 10
-149.6919590718038
 20
315.1756179397172
 30
0.0
 11
-89.19192030623157
 21
315.1756179397172
 31
0.0
  0
LINE
  5
1DB
330
1F
100
AcDbEntity
  8
0-1
  6
Continuous
 62
     2
370
     9
100
AcDbLine
 10
-80.19185349747937
 20
245.6756608292865
 30
0.0
 11
-80.19200196137297
 21
306.1755882469386
 31
0.0
  0
LINE
  5
1DC
330
1F
100
AcDbEntity
  8
0-1
  6
Continuous
 62
     2
370
     9
100
AcDbLine
 10
-149.6919590718038
 20
326.6756311365077
 30
0.0
 11
-90.69192525502797
 21
326.6756311365077
 31
0.0
  0
LINE
  5
1DD
330
1F
100
AcDbEntity
  8
0-1
  6
Continuous
 62
     2
370
     9
100
AcDbLine
 10
-68.69180318471547
 20
245.6756608292865
 30
0.0
 11
-68.69191453263562
 21
304.6756575300889
 31
0.0
  0
LINE
  5
1DE
330
1F
100
AcDbEntity
  8
0-1
  6
Continuous
 62
     2
370
     9
100
AcDbLine
 10
-70.69194587501312
 20
304.6756575300889
 30
0.0
 11
-70.6918716430664
 21
245.6756608292865
 31
0.0
  0
LINE
  5
1DF
330
1F
100
AcDbEntity
  8
0-1
  6
Continuous
 62
     2
370
     9
100
AcDbLine
 10
-90.69192525502797
 20
324.675674026077
 30
0.0
 11
-149.6919590718038
 21
324.675674026077
 31
0.0
  0
LINE
  5
1E0
330
1F
100
AcDbEntity
  8
0-1
  6
Continuous
 62
     2
370
     9
100
AcDbLine
 10
-162.1919879397831
 20
336.675565152555
 30
0.0
 11
-90.69192525502797
 21
336.675565152555
 31
0.0
  0
LINE
  5
1E1
330
1F
100
AcDbEntity
  8
0-1
  6
Continuous
 62
     2
370
     9
100
AcDbLine
 10
-162.1919879397831
 20
334.6756080421243
 30
0.0
 11
-90.69192525502797
 21
334.6756080421243
 31
0.0
  0
LINE
  5
1E2
330
1F
100
AcDbEntity
  8
0-1
  6
Continuous
 62
     2
370
     9
100
AcDbLine
 10
-58.69186916866821
 20
233.1756690772806
 30
0.0
 11
-58.691943400615
 21
304.6756575300889
 31
0.0
  0
LINE
  5
1E3
330
1F
100
AcDbEntity
  8
0-1
  6
Continuous
 62
     2
370
     9
100
AcDbLine
 10
-60.6918262790989
 20
233.1756690772806
 30
0.0
 11
-60.6918262790989
 21
304.6756575300889
 31
0.0
  0
LINE
  5
1E4
330
1F
100
AcDbEntity
  8
0-1
  6
Continuous
 62
     2
370
     9
100
AcDbLine
 10
-94.19199866217531
 20
-87.8243507179053
 30
0.0
 11
-478.1920221689585
 21
-87.8243507179053
 31
0.0
  0
LINE
  5
1E5
330
1F
100
AcDbEntity
  8
0-1
  6
Continuous
 62
     2
370
     9
100
AcDbLine
 10
-185.1919772173907
 20
-118.3243647394951
 30
0.0
 11
-387.1920250557564
 21
-118.3243647394951
 31
0.0
  0
LINE
  5
1E6
330
1F
100
AcDbEntity
  8
0-1
  6
Continuous
 62
     2
370
     9
100
AcDbLine
 10
-94.19199866217531
 20
306.1755882469386
 30
0.0
 11
-478.1920221689585
 21
306.1755882469386
 31
0.0
  0
LINE
  5
1E7
330
1F
100
AcDbEntity
  8
0-1
  6
Continuous
 62
     2
370
     9
100
AcDbLine
 10
-185.1919772173907
 20
336.675565152555
 30
0.0
 11
-387.1920250557564
 21
336.675565152555
 31
0.0
  0
LINE
  5
1E8
330
1F
100
AcDbEntity
  8
0-1
  6
Continuous
 62
     2
370
     9
100
AcDbLine
 10
-185.1919772173907
 20
334.6756080421243
 30
0.0
 11
-387.1920250557564
 21
334.6756080421243
 31
0.0
  0
LINE
  5
1E9
330
1F
100
AcDbEntity
  8
0-1
  6
Continuous
 62
     2
370
     9
100
AcDbLine
 10
-483.1919891769821
 20
313.1756608292865
 30
0.0
 11
-89.19192030623157
 21
313.1756608292865
 31
0.0
  0
LINE
  5
1EA
330
1F
100
AcDbEntity
  8
0-1
  6
Continuous
 62
     2
370
     9
100
AcDbLine
 10
236.4566524608717
 20
167.213606550887
 30
0.0
 11
236.4566524608717
 21
311.8513628985432
 31
0.0
  0
LINE
  5
1EB
330
1F
100
AcDbEntity
  8
0-1
  6
Continuous
 62
     2
370
     9
100
AcDbLine
 10
253.6802456829998
 20
285.4461686417865
 30
0.0
 11
260.4565831777211
 21
284.1755404085727
 31
0.0
  0
LINE
  5
1EC
330
1F
100
AcDbEntity
  8
0-1
  6
Continuous
 62
     2
370
     9
100
AcDbLine
 10
251.6623986733927
 20
334.9167134053
 30
0.0
 11
260.4565831777211
 21
336.675565152555
 31
0.0
  0
LINE
  5
1ED
330
1F
100
AcDbEntity
  8
0-1
  6
Continuous
 62
     2
370
     9
100
AcDbLine
 10
250.4566491616739
 20
327.2968782991977
 30
0.0
 11
250.4566491616739
 21
333.4458816115922
 31
0.0
  0
LINE
  5
1EE
330
1F
100
AcDbEntity
  8
0-1
  6
Continuous
 62
     2
370
     9
100
AcDbLine
 10
252.0173016109983
 20
325.1148302232899
 30
0.0
 11
250.8959538227805
 21
326.2361780115077
 31
0.0
  0
LINE
  5
1EF
330
1F
100
AcDbEntity
  8
0-1
  6
Continuous
 62
     2
370
     9
100
AcDbLine
 10
248.0767729475692
 20
314.6280088682433
 30
0.0
 11
237.7705579190642
 21
313.3397876636403
 31
0.0
  0
LINE
  5
1F0
330
1F
100
AcDbEntity
  8
0-1
  6
Continuous
 62
     2
370
     9
100
AcDbLine
 10
252.4566062721045
 20
319.5894494958827
 30
0.0
 11
252.4566062721045
 21
324.0542041675466
 31
0.0
  0
LINE
  5
1F1
330
1F
100
AcDbEntity
  8
0-1
  6
Continuous
 62
     2
370
     9
100
AcDbLine
 10
250.7046580959011
 20
304.3944669156463
 30
0.0
 11
237.7705579190642
 21
306.0112387167442
 31
0.0
  0
LINE
  5
1F2
330
1F
100
AcDbEntity
  8
0-1
  6
Continuous
 62
     2
370
     9
100
AcDbLine
 10
252.4566062721045
 20
302.409950050148
 30
0.0
 11
252.4566062721045
 21
286.9204151050466
 31
0.0
  0
LINE
  5
1F3
330
1F
100
AcDbEntity
  8
0-1
  6
JWW_CENTER1
 62
     2
370
     9
100
AcDbLine
 10
231.1197466463658
 20
109.1756187645166
 30
0.0
 11
236.4566524608717
 21
109.1756187645166
 31
0.0
  0
LINE
  5
1F4
330
1F
100
AcDbEntity
  8
0-1
  6
Continuous
 62
     2
370
     9
100
AcDbLine
 10
-318.1920201069599
 20
317.1757235140415
 30
0.0
 11
-318.1920201069599
 21
322.6758653795399
 31
0.0
  0
LINE
  5
1F5
330
1F
100
AcDbEntity
  8
0-1
  6
Continuous
 62
     2
370
     9
100
AcDbLine
 10
-316.1920258805559
 20
317.1757235140415
 30
0.0
 11
-316.1920258805559
 21
322.6758653795399
 31
0.0
  0
LINE
  5
1F6
330
1F
100
AcDbEntity
  8
0-1
  6
Continuous
 62
     2
370
     9
100
AcDbLine
 10
-318.2557853492531
 20
313.6756129909208
 30
0.0
 11
-254.1282169238941
 21
313.6756129909208
 31
0.0
  0
LINE
  5
1F7
330
1F
100
AcDbEntity
  8
0-1
  6
Continuous
 62
     2
370
     9
100
AcDbLine
 10
-254.1919821661872
 20
317.1757235140415
 30
0.0
 11
-254.1919821661872
 21
322.6758653795399
 31
0.0
  0
LINE
  5
1F8
330
1F
100
AcDbEntity
  8
0-1
  6
Continuous
 62
     2
370
     9
100
AcDbLine
 10
-256.1920135085647
 20
317.1757235140415
 30
0.0
 11
-256.1920135085647
 21
322.6758653795399
 31
0.0
  0
LINE
  5
1F9
330
1F
100
AcDbEntity
  8
0-1
  6
Continuous
 62
     2
370
     9
100
AcDbLine
 10
-320.1920143333641
 20
315.1756179397172
 30
0.0
 11
-374.6919961877771
 21
315.1756179397172
 31
0.0
  0
LINE
  5
1FA
330
1F
100
AcDbEntity
  8
0-1
  6
Continuous
 62
     2
370
     9
100
AcDbLine
 10
-374.6919961877771
 20
324.675674026077
 30
0.0
 11
-320.1920143333641
 21
324.675674026077
 31
0.0
  0
LINE
  5
1FB
330
1F
100
AcDbEntity
  8
0-1
  6
Continuous
 62
     2
370
     9
100
AcDbLine
 10
-197.69200608537
 20
315.1756179397172
 30
0.0
 11
-252.1919879397831
 21
315.1756179397172
 31
0.0
  0
LINE
  5
1FC
330
1F
100
AcDbEntity
  8
0-1
  6
Continuous
 62
     2
370
     9
100
AcDbLine
 10
-252.1919879397831
 20
324.675674026077
 30
0.0
 11
-197.69200608537
 21
324.675674026077
 31
0.0
  0
LINE
  5
1FD
330
1F
100
AcDbEntity
  8
0-1
  6
Continuous
 62
     2
370
     9
100
AcDbLine
 10
-197.69200608537
 20
326.6756311365077
 30
0.0
 11
-252.1919879397831
 21
326.6756311365077
 31
0.0
  0
LINE
  5
1FE
330
1F
100
AcDbEntity
  8
0-1
  6
Continuous
 62
     2
370
     9
100
AcDbLine
 10
-320.1920143333641
 20
326.6756311365077
 30
0.0
 11
-374.6919961877771
 21
326.6756311365077
 31
0.0
  0
LINE
  5
1FF
330
1F
100
AcDbEntity
  8
0-1
  6
Continuous
 62
     2
370
     9
100
AcDbLine
 10
-481.6919471122122
 20
-106.3243622650969
 30
0.0
 11
-422.6921174332903
 21
-106.3243622650969
 31
0.0
  0
LINE
  5
200
330
1F
100
AcDbEntity
  8
0-1
  6
Continuous
 62
     2
370
     9
100
AcDbLine
 10
-422.6921174332903
 20
-108.324430723448
 30
0.0
 11
-481.6919471122122
 21
-108.324430723448
 31
0.0
  0
LINE
  5
201
330
1F
100
AcDbEntity
  8
0-0
  6
Continuous
 62
     3
370
     9
100
AcDbLine
 10
252.4566062721045
 20
285.6756195893161
 30
0.0
 11
252.4566062721045
 21
272.8076600770694
 31
0.0
  0
LINE
  5
202
330
1F
100
AcDbEntity
  8
0-1
  6
Continuous
 62
     2
370
     9
100
AcDbLine
 10
260.4565831777211
 20
336.675565152555
 30
0.0
 11
260.4565831777211
 21
267.4580605996623
 31
0.0
  0
LINE
  5
203
330
1F
100
AcDbEntity
  8
0-1
  6
Continuous
 62
     2
370
     9
100
AcDbLine
 10
260.4565831777211
 20
-118.3244018554686
 30
0.0
 11
260.4565831777211
 21
-49.10686018660249
 31
0.0
  0
LINE
  5
204
330
1F
100
AcDbEntity
  8
0-0
  6
JWW_CENTER1
 62
     3
370
     9
100
AcDbLine
 10
-520.2034439911713
 20
109.17565588049
 30
0.0
 11
-507.312268437566
 21
109.17565588049
 31
0.0
  0
LINE
  5
205
330
1F
100
AcDbEntity
  8
0-0
  6
JWW_CENTER1
 62
     3
370
     9
100
AcDbLine
 10
-286.1920011365735
 20
-128.6266825907937
 30
0.0
 11
-286.1920011365735
 21
309.7367174303211
 31
0.0
  0
LINE
  5
206
330
1F
100
AcDbEntity
  8
0-0
  6
JWW_CENTER1
 62
     3
370
     9
100
AcDbLine
 10
-286.1920011365735
 20
331.688143343539
 30
0.0
 11
-286.1920011365735
 21
347.5849147487333
 31
0.0
  0
LINE
  5
207
330
1F
100
AcDbEntity
  8
0-0
  6
JWW_CENTER1
 62
     3
370
     9
100
AcDbLine
 10
-457.4320375597155
 20
109.17565588049
 30
0.0
 11
-107.0528690235034
 21
109.17565588049
 31
0.0
  0
LINE
  5
208
330
1F
100
AcDbEntity
  8
0-0
  6
JWW_CENTER1
 62
     3
370
     9
100
AcDbLine
 10
-64.54635723217109
 20
109.17565588049
 30
0.0
 11
-49.89530924204226
 21
109.17565588049
 31
0.0
  0
LINE
  5
209
330
1F
100
AcDbEntity
  8
0-4
  6
Continuous
 62
     7
370
     9
100
AcDbLine
 10
-398.6920011365736
 20
-178.324339995513
 30
0.0
 11
-173.692038252547
 21
-178.324339995513
 31
0.0
  0
LINE
  5
20A
330
1F
100
AcDbEntity
  8
0-4
  6
Continuous
 62
     7
370
     9
100
AcDbLine
 10
-398.6920011365736
 20
-124.5837138407937
 30
0.0
 11
-398.6920011365736
 21
-179.2243652343748
 31
0.0
  0
LINE
  5
20B
330
1F
100
AcDbEntity
  8
0-4
  6
Continuous
 62
     7
370
     9
100
AcDbLine
 10
-398.6920011365736
 20
-178.324339995513
 30
0.0
 11
-391.2561870265652
 21
-177.3454061972126
 31
0.0
  0
LINE
  5
20C
330
1F
100
AcDbEntity
  8
0-4
  6
Continuous
 62
     7
370
     9
100
AcDbLine
 10
-398.6920011365736
 20
-178.324339995513
 30
0.0
 11
-391.2561870265652
 21
-179.3033109097866
 31
0.0
  0
LINE
  5
20D
330
1F
100
AcDbEntity
  8
0-4
  6
Continuous
 62
     7
370
     9
100
AcDbLine
 10
-173.692038252547
 20
-178.324339995513
 30
0.0
 11
-181.1278894785288
 21
-177.3454061972126
 31
0.0
  0
LINE
  5
20E
330
1F
100
AcDbEntity
  8
0-4
  6
Continuous
 62
     7
370
     9
100
AcDbLine
 10
-173.692038252547
 20
-178.324339995513
 30
0.0
 11
-181.1278894785288
 21
-179.3033109097866
 31
0.0
  0
LINE
  5
20F
330
1F
100
AcDbEntity
  8
0-4
  6
Continuous
 62
     7
370
     9
100
AcDbLine
 10
-503.692236204405
 20
-208.3243276235219
 30
0.0
 11
-68.69176606874203
 21
-208.3243276235219
 31
0.0
  0
LINE
  5
210
330
1F
100
AcDbEntity
  8
0-4
  6
Continuous
 62
     7
370
     9
100
AcDbLine
 10
-503.692236204405
 20
-22.5662297429264
 30
0.0
 11
-503.692236204405
 21
-209.2243157464103
 31
0.0
  0
LINE
  5
211
330
1F
100
AcDbEntity
  8
0-4
  6
Continuous
 62
     7
370
     9
100
AcDbLine
 10
-68.69176606874203
 20
-22.5662297429264
 30
0.0
 11
-68.69176606874203
 21
-209.2243157464103
 31
0.0
  0
LINE
  5
212
330
1F
100
AcDbEntity
  8
0-4
  6
Continuous
 62
     7
370
     9
100
AcDbLine
 10
-503.692236204405
 20
-208.3243276235219
 30
0.0
 11
-496.2564035364099
 21
-207.3453567092482
 31
0.0
  0
LINE
  5
213
330
1F
100
AcDbEntity
  8
0-4
  6
Continuous
 62
     7
370
     9
100
AcDbLine
 10
-503.692236204405
 20
-208.3243276235219
 30
0.0
 11
-496.2564035364099
 21
-209.3032985377955
 31
0.0
  0
LINE
  5
214
330
1F
100
AcDbEntity
  8
0-4
  6
Continuous
 62
     7
370
     9
100
AcDbLine
 10
-68.69176606874203
 20
-208.3243276235219
 30
0.0
 11
-76.1276172947239
 21
-207.3453567092482
 31
0.0
  0
LINE
  5
215
330
1F
100
AcDbEntity
  8
0-4
  6
Continuous
 62
     7
370
     9
100
AcDbLine
 10
-68.69176606874203
 20
-208.3243276235219
 30
0.0
 11
-76.1276172947239
 21
-209.3032985377955
 31
0.0
  0
LINE
  5
216
330
1F
100
AcDbEntity
  8
0-4
  6
Continuous
 62
     7
370
     9
100
AcDbLine
 10
1.308254551243124
 20
-3.324381235483429
 30
0.0
 11
1.308254551243124
 21
221.6755816485432
 31
0.0
  0
LINE
  5
217
330
1F
100
AcDbEntity
  8
0-4
  6
Continuous
 62
     7
370
     9
100
AcDbLine
 10
-52.43248295139625
 20
-3.324381235483429
 30
0.0
 11
2.208242674131725
 21
-3.324381235483429
 31
0.0
  0
LINE
  5
218
330
1F
100
AcDbEntity
  8
0-4
  6
Continuous
 62
     7
370
     9
100
AcDbLine
 10
-52.43248295139625
 20
221.6755816485432
 30
0.0
 11
2.208242674131725
 21
221.6755816485432
 31
0.0
  0
LINE
  5
219
330
1F
100
AcDbEntity
  8
0-4
  6
Continuous
 62
     7
370
     9
100
AcDbLine
 10
1.308254551243124
 20
-3.324381235483429
 30
0.0
 11
0.3293578689162473
 21
4.111469990498449
 31
0.0
  0
LINE
  5
21A
330
1F
100
AcDbEntity
  8
0-4
  6
Continuous
 62
     7
370
     9
100
AcDbLine
 10
1.308254551243124
 20
-3.324381235483429
 30
0.0
 11
2.287299697463595
 21
4.111469990498449
 31
0.0
  0
LINE
  5
21B
330
1F
100
AcDbEntity
  8
0-4
  6
Continuous
 62
     7
370
     9
100
AcDbLine
 10
1.308254551243124
 20
221.6755816485432
 30
0.0
 11
0.3293578689162473
 21
214.2397675385348
 31
0.0
  0
LINE
  5
21C
330
1F
100
AcDbEntity
  8
0-4
  6
Continuous
 62
     7
370
     9
100
AcDbLine
 10
1.308254551243124
 20
221.6755816485432
 30
0.0
 11
2.287299697463595
 21
214.2397675385348
 31
0.0
  0
LINE
  5
21D
330
1F
100
AcDbEntity
  8
0-4
  6
Continuous
 62
     7
370
     9
100
AcDbLine
 10
31.30827929522547
 20
-108.324430723448
 30
0.0
 11
31.30827929522547
 21
326.6756311365077
 31
0.0
  0
LINE
  5
21E
330
1F
100
AcDbEntity
  8
0-4
  6
Continuous
 62
     7
370
     9
100
AcDbLine
 10
-154.4501897451041
 20
-108.324430723448
 30
0.0
 11
32.20826741811399
 21
-108.324430723448
 31
0.0
  0
LINE
  5
21F
330
1F
100
AcDbEntity
  8
0-4
  6
Continuous
 62
     7
370
     9
100
AcDbLine
 10
-154.4501897451041
 20
326.6756311365077
 30
0.0
 11
32.20826741811399
 21
326.6756311365077
 31
0.0
  0
LINE
  5
220
330
1F
100
AcDbEntity
  8
0-4
  6
Continuous
 62
     7
370
     9
100
AcDbLine
 10
31.30827929522547
 20
-108.324430723448
 30
0.0
 11
30.3293083809518
 21
-100.8885794974661
 31
0.0
  0
LINE
  5
221
330
1F
100
AcDbEntity
  8
0-4
  6
Continuous
 62
     7
370
     9
100
AcDbLine
 10
31.30827929522547
 20
-108.324430723448
 30
0.0
 11
32.28725020949906
 21
-100.8885794974661
 31
0.0
  0
LINE
  5
222
330
1F
100
AcDbEntity
  8
0-4
  6
Continuous
 62
     7
370
     9
100
AcDbLine
 10
31.30827929522547
 20
326.6756311365077
 30
0.0
 11
30.3293083809518
 21
319.2398170264993
 31
0.0
  0
LINE
  5
223
330
1F
100
AcDbEntity
  8
0-4
  6
Continuous
 62
     7
370
     9
100
AcDbLine
 10
31.30827929522547
 20
326.6756311365077
 30
0.0
 11
32.28725020949906
 21
319.2398170264993
 31
0.0
  0
LINE
  5
224
330
1F
100
AcDbEntity
  8
0-4
  6
Continuous
 62
     7
370
     9
100
AcDbLine
 10
-173.692038252547
 20
-155.4397813951644
 30
0.0
 11
-173.692038252547
 21
-179.2243652343748
 31
0.0
  0
LINE
  5
225
330
1F
100
AcDbEntity
  8
0-4
  6
Continuous
 62
     7
370
     9
100
AcDbLine
 10
-166.1920135085647
 20
-121.8242896827491
 30
0.0
 11
-166.1920135085647
 21
-149.2243033744192
 31
0.0
  0
LINE
  5
226
330
1F
100
AcDbEntity
  8
0-4
  6
Continuous
 62
     7
370
     9
100
AcDbLine
 10
-181.1920258805558
 20
-121.8242525667756
 30
0.0
 11
-181.1920258805558
 21
-149.2243033744192
 31
0.0
  0
LINE
  5
227
330
1F
100
AcDbEntity
  8
0-4
  6
Continuous
 62
     7
370
     9
100
AcDbLine
 10
-166.1920135085647
 20
-148.324352367504
 30
0.0
 11
-158.7561622825828
 21
-147.3453443372569
 31
0.0
  0
LINE
  5
228
330
1F
100
AcDbEntity
  8
0-4
  6
Continuous
 62
     7
370
     9
100
AcDbLine
 10
-166.1920135085647
 20
-148.324352367504
 30
0.0
 11
-158.7561622825828
 21
-149.3032861658044
 31
0.0
  0
LINE
  5
229
330
1F
100
AcDbEntity
  8
0-4
  6
Continuous
 62
     7
370
     9
100
AcDbLine
 10
-181.1920258805558
 20
-148.324352367504
 30
0.0
 11
-188.6278771065377
 21
-147.3453443372569
 31
0.0
  0
LINE
  5
22A
330
1F
100
AcDbEntity
  8
0-4
  6
Continuous
 62
     7
370
     9
100
AcDbLine
 10
-181.1920258805558
 20
-148.324352367504
 30
0.0
 11
-188.6278771065377
 21
-149.3032861658044
 31
0.0
  0
LINE
  5
22B
330
1F
100
AcDbEntity
  8
0-4
  6
Continuous
 62
     7
370
     9
100
AcDbLine
 10
-181.1919887645825
 20
-100.8244059794656
 30
0.0
 11
-212.0920016314532
 21
-100.8244059794656
 31
0.0
  0
LINE
  5
22C
330
1F
100
AcDbEntity
  8
0-4
  6
Continuous
 62
     7
370
     9
100
AcDbLine
 10
-211.1920135085647
 20
-100.8244059794656
 30
0.0
 11
-212.1709473068649
 21
-93.38855475348382
 31
0.0
  0
LINE
  5
22D
330
1F
100
AcDbEntity
  8
0-4
  6
Continuous
 62
     7
370
     9
100
AcDbLine
 10
-211.1920135085647
 20
-100.8244059794656
 30
0.0
 11
-210.2130797102645
 21
-93.38855475348382
 31
0.0
  0
LINE
  5
22E
330
1F
100
AcDbEntity
  8
0-4
  6
Continuous
 62
     7
370
     9
100
AcDbLine
 10
-211.1920135085647
 20
-118.3241791596282
 30
0.0
 11
-212.1709473068649
 21
-125.7600303856101
 31
0.0
  0
LINE
  5
22F
330
1F
100
AcDbEntity
  8
0-4
  6
Continuous
 62
     7
370
     9
100
AcDbLine
 10
-211.1920135085647
 20
-118.3241791596282
 30
0.0
 11
-210.2130797102645
 21
-125.7600303856101
 31
0.0
  0
LINE
  5
230
330
1F
100
AcDbEntity
  8
0-1
  6
Continuous
 62
     2
370
     9
100
AcDbLine
 10
-197.69200608537
 20
-108.324430723448
 30
0.0
 11
-204.6504345455685
 21
-108.324430723448
 31
0.0
  0
LINE
  5
231
330
1F
100
AcDbEntity
  8
0-1
  6
Continuous
 62
     2
370
     9
100
AcDbLine
 10
-219.5732828088709
 20
-108.324430723448
 30
0.0
 11
-374.6919961877771
 21
-108.324430723448
 31
0.0
  0
LINE
  5
232
330
1F
100
AcDbEntity
  8
0-1
  6
Continuous
 62
     2
370
     9
100
AcDbLine
 10
-374.6919961877771
 20
-106.3243622650969
 30
0.0
 11
-219.5732828088709
 21
-106.3243622650969
 31
0.0
  0
LINE
  5
233
330
1F
100
AcDbEntity
  8
0-1
  6
Continuous
 62
     2
370
     9
100
AcDbLine
 10
-204.6504345455685
 20
-106.3243622650969
 30
0.0
 11
-197.69200608537
 21
-106.3243622650969
 31
0.0
  0
LINE
  5
234
330
1F
100
AcDbEntity
  8
0-1
  6
Continuous
 62
     2
370
     9
100
AcDbLine
 10
-197.69200608537
 20
-96.82434329471062
 30
0.0
 11
-204.6504345455685
 21
-96.82434329471062
 31
0.0
  0
LINE
  5
235
330
1F
100
AcDbEntity
  8
0-1
  6
Continuous
 62
     2
370
     9
100
AcDbLine
 10
-219.5732828088709
 20
-96.82434329471062
 30
0.0
 11
-374.6919961877771
 21
-96.82434329471062
 31
0.0
  0
LINE
  5
236
330
1F
100
AcDbEntity
  8
0-1
  6
Continuous
 62
     2
370
     9
100
AcDbLine
 10
-185.1919772173907
 20
-116.3243705130911
 30
0.0
 11
-204.6504345455685
 21
-116.3243705130911
 31
0.0
  0
LINE
  5
237
330
1F
100
AcDbEntity
  8
0-1
  6
Continuous
 62
     2
370
     9
100
AcDbLine
 10
-219.5732828088709
 20
-116.3243705130911
 30
0.0
 11
-387.1920250557564
 21
-116.3243705130911
 31
0.0
  0
LINE
  5
238
330
1F
100
AcDbEntity
  8
0-1
  6
Continuous
 62
     2
370
     9
100
AcDbLine
 10
-483.1919891769821
 20
-94.82434906830639
 30
0.0
 11
-219.5732828088709
 21
-94.82434906830639
 31
0.0
  0
LINE
  5
239
330
1F
100
AcDbEntity
  8
0-1
  6
Continuous
 62
     2
370
     9
100
AcDbLine
 10
-204.6504345455685
 20
-94.82434906830639
 30
0.0
 11
-89.19192030623157
 21
-94.82434906830639
 31
0.0
  0
LINE
  5
23A
330
1F
100
AcDbEntity
  8
0-4
  6
Continuous
 62
     7
370
     9
100
AcDbLine
 10
-211.1920135085647
 20
-88.29331104175452
 30
0.0
 11
-211.1920135085647
 21
-165.9502827412372
 31
0.0
  0
LINE
  5
23B
330
1F
100
AcDbEntity
  8
0-4
  6
Continuous
 62
     7
370
     9
100
AcDbLine
 10
-149.1539630374394
 20
-148.324352367504
 30
0.0
 11
-194.9880331915778
 21
-148.324352367504
 31
0.0
  0
LINE
  5
23C
330
1F
100
AcDbEntity
  8
0-4
  6
Continuous
 62
     7
370
     9
100
AcDbLine
 10
236.4565782289249
 20
-178.324339995513
 30
0.0
 11
260.4565831777211
 21
-178.324339995513
 31
0.0
  0
LINE
  5
23D
330
1F
100
AcDbEntity
  8
0-4
  6
Continuous
 62
     7
370
     9
100
AcDbLine
 10
260.4565831777211
 20
-125.8244265994509
 30
0.0
 11
260.4565831777211
 21
-179.2243652343748
 31
0.0
  0
LINE
  5
23E
330
1F
100
AcDbEntity
  8
0-4
  6
Continuous
 62
     7
370
     9
100
AcDbLine
 10
236.4565782289249
 20
-178.324339995513
 30
0.0
 11
243.8923923389333
 21
-177.3454061972126
 31
0.0
  0
LINE
  5
23F
330
1F
100
AcDbEntity
  8
0-4
  6
Continuous
 62
     7
370
     9
100
AcDbLine
 10
236.4565782289249
 20
-178.324339995513
 30
0.0
 11
243.8923923389333
 21
-179.3033109097866
 31
0.0
  0
LINE
  5
240
330
1F
100
AcDbEntity
  8
0-4
  6
Continuous
 62
     7
370
     9
100
AcDbLine
 10
260.4565831777211
 20
-178.324339995513
 30
0.0
 11
253.0207690677126
 21
-177.3454061972126
 31
0.0
  0
LINE
  5
241
330
1F
100
AcDbEntity
  8
0-4
  6
Continuous
 62
     7
370
     9
100
AcDbLine
 10
260.4565831777211
 20
-178.324339995513
 30
0.0
 11
253.0207690677126
 21
-179.3033109097866
 31
0.0
  0
LINE
  5
242
330
1F
100
AcDbEntity
  8
0-4
  6
Continuous
 62
     7
370
     9
100
AcDbLine
 10
236.4565782289249
 20
-101.0001872294656
 30
0.0
 11
236.4565782289249
 21
-140.0523896088469
 31
0.0
  0
LINE
  5
243
330
1F
100
AcDbEntity
  8
0-4
  6
Continuous
 62
     7
370
     9
100
AcDbLine
 10
236.4565782289249
 20
-156.3252200564822
 30
0.0
 11
236.4565782289249
 21
-179.2243652343748
 31
0.0
  0
LINE
  5
244
330
1F
100
AcDbEntity
  8
0-4
  6
Continuous
 62
     7
370
     9
100
AcDbLine
 10
-54.93640074858789
 20
118.1756484572953
 30
0.0
 11
-27.79178206985063
 21
118.1756484572953
 31
0.0
  0
LINE
  5
245
330
1F
100
AcDbEntity
  8
0-4
  6
Continuous
 62
     7
370
     9
100
AcDbLine
 10
-54.93640074858789
 20
100.1756633036847
 30
0.0
 11
-27.79178206985063
 21
100.1756633036847
 31
0.0
  0
LINE
  5
246
330
1F
100
AcDbEntity
  8
0-4
  6
Continuous
 62
     7
370
     9
100
AcDbLine
 10
228.9566277168892
 20
313.1755865973397
 30
0.0
 11
190.556664337983
 21
313.1755865973397
 31
0.0
  0
LINE
  5
247
330
1F
100
AcDbEntity
  8
0-4
  6
Continuous
 62
     7
370
     9
100
AcDbLine
 10
229.9566805040514
 20
304.1755569045609
 30
0.0
 11
190.556664337983
 21
304.1755569045609
 31
0.0
  0
LINE
  5
248
330
1F
100
AcDbEntity
  8
0-4
  6
Continuous
 62
     7
370
     9
100
AcDbLine
 10
191.4566524608717
 20
313.1755865973397
 30
0.0
 11
190.477681546598
 21
320.6114007073481
 31
0.0
  0
LINE
  5
249
330
1F
100
AcDbEntity
  8
0-4
  6
Continuous
 62
     7
370
     9
100
AcDbLine
 10
191.4566524608717
 20
313.1755865973397
 30
0.0
 11
192.4356233751452
 21
320.6114007073481
 31
0.0
  0
LINE
  5
24A
330
1F
100
AcDbEntity
  8
0-4
  6
Continuous
 62
     7
370
     9
100
AcDbLine
 10
191.4566524608717
 20
304.1755569045609
 30
0.0
 11
190.477681546598
 21
296.7397427945525
 31
0.0
  0
LINE
  5
24B
330
1F
100
AcDbEntity
  8
0-4
  6
Continuous
 62
     7
370
     9
100
AcDbLine
 10
191.4566524608717
 20
304.1755569045609
 30
0.0
 11
192.4356233751452
 21
296.7397427945525
 31
0.0
  0
LINE
  5
24C
330
1F
100
AcDbEntity
  8
0-4
  6
Continuous
 62
     7
370
     9
100
AcDbLine
 10
229.9566805040514
 20
-85.8243193755278
 30
0.0
 11
190.556664337983
 21
-85.8243193755278
 31
0.0
  0
LINE
  5
24D
330
1F
100
AcDbEntity
  8
0-4
  6
Continuous
 62
     7
370
     9
100
AcDbLine
 10
228.9566277168892
 20
-94.82434906830639
 30
0.0
 11
190.556664337983
 21
-94.82434906830639
 31
0.0
  0
LINE
  5
24E
330
1F
100
AcDbEntity
  8
0-4
  6
Continuous
 62
     7
370
     9
100
AcDbLine
 10
191.4566524608717
 20
-85.8243193755278
 30
0.0
 11
190.477681546598
 21
-78.38846814954593
 31
0.0
  0
LINE
  5
24F
330
1F
100
AcDbEntity
  8
0-4
  6
Continuous
 62
     7
370
     9
100
AcDbLine
 10
191.4566524608717
 20
-85.8243193755278
 30
0.0
 11
192.4356233751452
 21
-78.38846814954593
 31
0.0
  0
LINE
  5
250
330
1F
100
AcDbEntity
  8
0-4
  6
Continuous
 62
     7
370
     9
100
AcDbLine
 10
191.4566524608717
 20
-94.82434906830639
 30
0.0
 11
190.477681546598
 21
-102.2602002942882
 31
0.0
  0
LINE
  5
251
330
1F
100
AcDbEntity
  8
0-4
  6
Continuous
 62
     7
370
     9
100
AcDbLine
 10
191.4566524608717
 20
-94.82434906830639
 30
0.0
 11
192.4356233751452
 21
-102.2602002942882
 31
0.0
  0
LINE
  5
252
330
1F
100
AcDbEntity
  8
0-4
  6
Continuous
 62
     7
370
     9
100
AcDbLine
 10
191.4566524608717
 20
-105.8654603700379
 30
0.0
 11
191.4566524608717
 21
328.1650951488599
 31
0.0
  0
LINE
  5
253
330
1F
100
AcDbEntity
  8
0-4
  6
Continuous
 62
     7
370
     9
100
AcDbLine
 10
161.4566277168893
 20
-118.3244018554686
 30
0.0
 11
161.4566277168893
 21
336.675565152555
 31
0.0
  0
LINE
  5
254
330
1F
100
AcDbEntity
  8
0-4
  6
Continuous
 62
     7
370
     9
100
AcDbLine
 10
252.9565584337389
 20
-118.3244018554686
 30
0.0
 11
160.5566395940009
 21
-118.3244018554686
 31
0.0
  0
LINE
  5
255
330
1F
100
AcDbEntity
  8
0-4
  6
Continuous
 62
     7
370
     9
100
AcDbLine
 10
252.9565584337389
 20
336.675565152555
 30
0.0
 11
160.5566395940009
 21
336.675565152555
 31
0.0
  0
LINE
  5
256
330
1F
100
AcDbEntity
  8
0-4
  6
Continuous
 62
     7
370
     9
100
AcDbLine
 10
161.4566277168893
 20
-118.3244018554686
 30
0.0
 11
160.4776568026156
 21
-110.8885506294867
 31
0.0
  0
LINE
  5
257
330
1F
100
AcDbEntity
  8
0-4
  6
Continuous
 62
     7
370
     9
100
AcDbLine
 10
161.4566277168893
 20
-118.3244018554686
 30
0.0
 11
162.4355986311628
 21
-110.8885506294867
 31
0.0
  0
LINE
  5
258
330
1F
100
AcDbEntity
  8
0-4
  6
Continuous
 62
     7
370
     9
100
AcDbLine
 10
161.4566277168893
 20
336.675565152555
 30
0.0
 11
160.4776568026156
 21
329.2397510425466
 31
0.0
  0
LINE
  5
259
330
1F
100
AcDbEntity
  8
0-4
  6
Continuous
 62
     7
370
     9
100
AcDbLine
 10
161.4566277168893
 20
336.675565152555
 30
0.0
 11
162.4355986311628
 21
329.2397510425466
 31
0.0
  0
LINE
  5
25A
330
1F
100
AcDbEntity
  8
0-0
  6
Continuous
 62
     3
370
     9
100
AcDbLine
 10
265.4566986496386
 20
139.3314563648122
 30
0.0
 11
265.4566986496386
 21
124.5461227829393
 31
0.0
  0
LINE
  5
25B
330
1F
100
AcDbEntity
  8
0-0
  6
Continuous
 62
     3
370
     9
100
AcDbLine
 10
265.4566986496386
 20
256.2776901657518
 30
0.0
 11
265.4566986496386
 21
167.213606550887
 31
0.0
  0
LINE
  5
25C
330
1F
100
AcDbEntity
  8
0-E
  6
Continuous
 62
     7
370
     9
100
AcDbLine
 10
237.4567052480336
 20
-75.349300900021
 30
0.0
 11
234.5866012573242
 21
-82.27840774123717
 31
0.0
  0
LINE
  5
25D
330
1F
100
AcDbEntity
  8
0-E
  6
Continuous
 62
     7
370
     9
100
AcDbLine
 10
237.4567052480336
 20
-75.349300900021
 30
0.0
 11
232.8909951287349
 21
-81.29943682696359
 31
0.0
  0
LINE
  5
25E
330
1F
100
AcDbEntity
  8
0-E
  6
Continuous
 62
     7
370
     9
100
AcDbLine
 10
237.4567052480336
 20
-75.349300900021
 30
0.0
 11
195.3245080483927
 21
-148.324352367504
 31
0.0
  0
LINE
  5
25F
330
1F
100
AcDbEntity
  8
0-E
  6
Continuous
 62
     7
370
     9
100
AcDbLine
 10
195.3245080483927
 20
-148.324352367504
 30
0.0
 11
115.576014132113
 21
-148.324352367504
 31
0.0
  0
LINE
  5
260
330
1F
100
AcDbEntity
  8
0-E
  6
Continuous
 62
     7
370
     9
100
AcDbLine
 10
236.4566524608717
 20
311.8513628985432
 30
0.0
 11
231.8909423415727
 21
317.8014988254858
 31
0.0
  0
LINE
  5
261
330
1F
100
AcDbEntity
  8
0-E
  6
Continuous
 62
     7
370
     9
100
AcDbLine
 10
236.4566524608717
 20
311.8513628985432
 30
0.0
 11
233.586548470162
 21
318.7804697397595
 31
0.0
  0
LINE
  5
262
330
1F
100
AcDbEntity
  8
0-E
  6
Continuous
 62
     7
370
     9
100
AcDbLine
 10
236.4566524608717
 20
311.8513628985432
 30
0.0
 11
201.3398196246173
 21
372.6755354597763
 31
0.0
  0
LINE
  5
263
330
1F
100
AcDbEntity
  8
0-E
  6
Continuous
 62
     7
370
     9
100
AcDbLine
 10
201.3398196246173
 20
372.6755354597763
 30
0.0
 11
110.7578411617795
 21
372.6755354597763
 31
0.0
  0
LINE
  5
264
330
1F
100
AcDbEntity
  8
0-E
  6
Continuous
 62
     7
370
     9
100
AcDbLine
 10
319.456728342417
 20
118.1756855732687
 30
0.0
 11
324.0224384617161
 21
124.1258215002113
 31
0.0
  0
LINE
  5
265
330
1F
100
AcDbEntity
  8
0-E
  6
Continuous
 62
     7
370
     9
100
AcDbLine
 10
319.456728342417
 20
118.1756855732687
 30
0.0
 11
325.4068642693599
 21
122.7413956925677
 31
0.0
  0
LINE
  5
266
330
1F
100
AcDbEntity
  8
0-E
  6
Continuous
 62
     7
370
     9
100
AcDbLine
 10
319.456728342417
 20
118.1756855732687
 30
0.0
 11
386.4565534849427
 21
185.1755107157941
 31
0.0
  0
LINE
  5
267
330
1F
100
AcDbEntity
  8
0-E
  6
Continuous
 62
     7
370
     9
100
AcDbLine
 10
386.4565534849427
 20
185.1755107157941
 30
0.0
 11
495.7215994757577
 21
185.1755107157941
 31
0.0
  0
ARC
  5
268
330
1F
100
AcDbEntity
  8
0-0
  6
Continuous
 62
     3
370
     9
100
AcDbCircle
 10
-94.19192443022851
 20
301.1756954708617
 30
0.0
 40
3.000000038662472
100
AcDbArc
 50
0.0
 51
90.0
  0
ARC
  5
269
330
1F
100
AcDbEntity
  8
0-0
  6
Continuous
 62
     3
370
     9
100
AcDbCircle
 10
250.9566755552552
 20
301.0067435599664
 30
0.0
 40
1.500000019331236
100
AcDbArc
 50
0.0
 51
82.99966430664062
  0
ARC
  5
26A
330
1F
100
AcDbEntity
  8
0-0
  6
Continuous
 62
     3
370
     9
100
AcDbCircle
 10
249.4565963745117
 20
284.9647744668498
 30
0.0
 40
1.500000019331236
100
AcDbArc
 50
277.0003356933594
 51
359.9999999999999
  0
ARC
  5
26B
330
1F
100
AcDbEntity
  8
0-0
  6
Continuous
 62
     3
370
     9
100
AcDbCircle
 10
250.9566755552552
 20
285.1490181587839
 30
0.0
 40
1.500000019331236
100
AcDbArc
 50
277.0003356933594
 51
359.9999999999999
  0
ARC
  5
26C
330
1F
100
AcDbEntity
  8
0-0
  6
Continuous
 62
     3
370
     9
100
AcDbCircle
 10
250.5448367144611
 20
209.9801899677999
 30
0.0
 40
1.500000019331236
100
AcDbArc
 50
223.4922485351562
 51
264.6453399658203
  0
ARC
  5
26D
330
1F
100
AcDbEntity
  8
0-0
  6
Continuous
 62
     3
370
     9
100
AcDbCircle
 10
250.5448367144611
 20
192.3710360140415
 30
0.0
 40
1.500000019331236
100
AcDbArc
 50
95.35466003417969
 51
136.5077514648438
  0
ARC
  5
26E
330
1F
100
AcDbEntity
  8
0-0
  6
Continuous
 62
     3
370
     9
100
AcDbCircle
 10
263.9566194688952
 20
205.7096260689402
 30
0.0
 40
1.500000019331236
100
AcDbArc
 50
0.0
 51
84.64533996582031
  0
ARC
  5
26F
330
1F
100
AcDbEntity
  8
0-0
  6
Continuous
 62
     3
370
     9
100
AcDbCircle
 10
263.9566194688952
 20
196.6415999129013
 30
0.0
 40
1.500000019331236
100
AcDbArc
 50
275.3546600341797
 51
1.299041748046889
  0
ARC
  5
270
330
1F
100
AcDbEntity
  8
0-0
  6
Continuous
 62
     3
370
     9
100
AcDbCircle
 10
-273.1919829909866
 20
122.1756369101036
 30
0.0
 40
4.000000051549963
100
AcDbArc
 50
180.0
 51
270.0
  0
ARC
  5
271
330
1F
100
AcDbEntity
  8
0-0
  6
Continuous
 62
     3
370
     9
100
AcDbCircle
 10
-253.1919664949984
 20
122.1756369101036
 30
0.0
 40
4.000000051549963
100
AcDbArc
 50
270.0
 51
0.0
  0
ARC
  5
272
330
1F
100
AcDbEntity
  8
0-0
  6
Continuous
 62
     3
370
     9
100
AcDbCircle
 10
-273.1919829909866
 20
188.1755948453338
 30
0.0
 40
4.000000051549963
100
AcDbArc
 50
90.0
 51
180.0
  0
ARC
  5
273
330
1F
100
AcDbEntity
  8
0-0
  6
Continuous
 62
     3
370
     9
100
AcDbCircle
 10
-253.1919664949984
 20
188.1755948453338
 30
0.0
 40
4.000000051549963
100
AcDbArc
 50
0.0
 51
90.0
  0
ARC
  5
274
330
1F
100
AcDbEntity
  8
0-0
  6
Continuous
 62
     3
370
     9
100
AcDbCircle
 10
-227.1920044357712
 20
188.1755948453338
 30
0.0
 40
4.000000051549963
100
AcDbArc
 50
90.0
 51
180.0
  0
ARC
  5
275
330
1F
100
AcDbEntity
  8
0-0
  6
Continuous
 62
     3
370
     9
100
AcDbCircle
 10
-207.1920621717298
 20
188.1755948453338
 30
0.0
 40
4.000000051549963
100
AcDbArc
 50
0.0
 51
90.0
  0
ARC
  5
276
330
1F
100
AcDbEntity
  8
0-0
  6
Continuous
 62
     3
370
     9
100
AcDbCircle
 10
-227.1920044357712
 20
122.1756369101036
 30
0.0
 40
4.000000051549963
100
AcDbArc
 50
180.0
 51
270.0
  0
ARC
  5
277
330
1F
100
AcDbEntity
  8
0-0
  6
Continuous
 62
     3
370
     9
100
AcDbCircle
 10
-207.1920621717298
 20
122.1756369101036
 30
0.0
 40
4.000000051549963
100
AcDbArc
 50
270.0
 51
0.0
  0
ARC
  5
278
330
1F
100
AcDbEntity
  8
0-0
  6
Continuous
 62
     3
370
     9
100
AcDbCircle
 10
-181.1919516486091
 20
122.1756369101036
 30
0.0
 40
4.000000051549963
100
AcDbArc
 50
180.0
 51
270.0
  0
ARC
  5
279
330
1F
100
AcDbEntity
  8
0-0
  6
Continuous
 62
     3
370
     9
100
AcDbCircle
 10
-161.192046500541
 20
122.1756369101036
 30
0.0
 40
4.000000051549963
100
AcDbArc
 50
270.0
 51
0.0
  0
ARC
  5
27A
330
1F
100
AcDbEntity
  8
0-0
  6
Continuous
 62
     3
370
     9
100
AcDbCircle
 10
-181.1919516486091
 20
188.1755948453338
 30
0.0
 40
4.000000051549963
100
AcDbArc
 50
90.0
 51
180.0
  0
ARC
  5
27B
330
1F
100
AcDbEntity
  8
0-0
  6
Continuous
 62
     3
370
     9
100
AcDbCircle
 10
-161.192046500541
 20
188.1755948453338
 30
0.0
 40
4.000000051549963
100
AcDbArc
 50
0.0
 51
90.0
  0
ARC
  5
27C
330
1F
100
AcDbEntity
  8
0-0
  6
Continuous
 62
     3
370
     9
100
AcDbCircle
 10
-135.1919730933938
 20
188.1755948453338
 30
0.0
 40
4.000000051549963
100
AcDbArc
 50
90.0
 51
180.0
  0
ARC
  5
27D
330
1F
100
AcDbEntity
  8
0-0
  6
Continuous
 62
     3
370
     9
100
AcDbCircle
 10
-115.1919565974055
 20
188.1755948453338
 30
0.0
 40
4.000000051549963
100
AcDbArc
 50
0.0
 51
90.0
  0
ARC
  5
27E
330
1F
100
AcDbEntity
  8
0-0
  6
Continuous
 62
     3
370
     9
100
AcDbCircle
 10
-135.1919730933938
 20
122.1756369101036
 30
0.0
 40
4.000000051549963
100
AcDbArc
 50
180.0
 51
270.0
  0
ARC
  5
27F
330
1F
100
AcDbEntity
  8
0-0
  6
Continuous
 62
     3
370
     9
100
AcDbCircle
 10
-115.1919565974055
 20
122.1756369101036
 30
0.0
 40
4.000000051549963
100
AcDbArc
 50
270.0
 51
0.0
  0
ARC
  5
280
330
1F
100
AcDbEntity
  8
0-0
  6
Continuous
 62
     3
370
     9
100
AcDbCircle
 10
-273.1919829909866
 20
214.1756311365077
 30
0.0
 40
4.000000051549963
100
AcDbArc
 50
180.0
 51
270.0
  0
ARC
  5
281
330
1F
100
AcDbEntity
  8
0-0
  6
Continuous
 62
     3
370
     9
100
AcDbCircle
 10
-273.1919829909866
 20
280.1756261877113
 30
0.0
 40
4.000000051549963
100
AcDbArc
 50
90.0
 51
180.0
  0
ARC
  5
282
330
1F
100
AcDbEntity
  8
0-0
  6
Continuous
 62
     3
370
     9
100
AcDbCircle
 10
-253.1919664949984
 20
280.1756261877113
 30
0.0
 40
4.000000051549963
100
AcDbArc
 50
0.0
 51
90.0
  0
ARC
  5
283
330
1F
100
AcDbEntity
  8
0-0
  6
Continuous
 62
     3
370
     9
100
AcDbCircle
 10
-253.1919664949984
 20
214.1756311365077
 30
0.0
 40
4.000000051549963
100
AcDbArc
 50
270.0
 51
0.0
  0
ARC
  5
284
330
1F
100
AcDbEntity
  8
0-0
  6
Continuous
 62
     3
370
     9
100
AcDbCircle
 10
-227.1920044357712
 20
214.1756311365077
 30
0.0
 40
4.000000051549963
100
AcDbArc
 50
180.0
 51
270.0
  0
ARC
  5
285
330
1F
100
AcDbEntity
  8
0-0
  6
Continuous
 62
     3
370
     9
100
AcDbCircle
 10
-227.1920044357712
 20
280.1756261877113
 30
0.0
 40
4.000000051549963
100
AcDbArc
 50
90.0
 51
180.0
  0
ARC
  5
286
330
1F
100
AcDbEntity
  8
0-0
  6
Continuous
 62
     3
370
     9
100
AcDbCircle
 10
-207.1920621717298
 20
280.1756261877113
 30
0.0
 40
4.000000051549963
100
AcDbArc
 50
0.0
 51
90.0
  0
ARC
  5
287
330
1F
100
AcDbEntity
  8
0-0
  6
Continuous
 62
     3
370
     9
100
AcDbCircle
 10
-207.1920621717298
 20
214.1756311365077
 30
0.0
 40
4.000000051549963
100
AcDbArc
 50
270.0
 51
0.0
  0
ARC
  5
288
330
1F
100
AcDbEntity
  8
0-0
  6
Continuous
 62
     3
370
     9
100
AcDbCircle
 10
-181.1919516486091
 20
214.1756311365077
 30
0.0
 40
4.000000051549963
100
AcDbArc
 50
180.0
 51
270.0
  0
ARC
  5
289
330
1F
100
AcDbEntity
  8
0-0
  6
Continuous
 62
     3
370
     9
100
AcDbCircle
 10
-181.1919516486091
 20
280.1756261877113
 30
0.0
 40
4.000000051549963
100
AcDbArc
 50
90.0
 51
180.0
  0
ARC
  5
28A
330
1F
100
AcDbEntity
  8
0-0
  6
Continuous
 62
     3
370
     9
100
AcDbCircle
 10
-161.192046500541
 20
280.1756261877113
 30
0.0
 40
4.000000051549963
100
AcDbArc
 50
0.0
 51
90.0
  0
ARC
  5
28B
330
1F
100
AcDbEntity
  8
0-0
  6
Continuous
 62
     3
370
     9
100
AcDbCircle
 10
-161.192046500541
 20
214.1756311365077
 30
0.0
 40
4.000000051549963
100
AcDbArc
 50
270.0
 51
0.0
  0
ARC
  5
28C
330
1F
100
AcDbEntity
  8
0-0
  6
Continuous
 62
     3
370
     9
100
AcDbCircle
 10
-135.1919730933938
 20
214.1756311365077
 30
0.0
 40
4.000000051549963
100
AcDbArc
 50
180.0
 51
270.0
  0
ARC
  5
28D
330
1F
100
AcDbEntity
  8
0-0
  6
Continuous
 62
     3
370
     9
100
AcDbCircle
 10
-135.1919730933938
 20
280.1756261877113
 30
0.0
 40
4.000000051549963
100
AcDbArc
 50
90.0
 51
180.0
  0
ARC
  5
28E
330
1F
100
AcDbEntity
  8
0-0
  6
Continuous
 62
     3
370
     9
100
AcDbCircle
 10
-115.1919565974055
 20
280.1756261877113
 30
0.0
 40
4.000000051549963
100
AcDbArc
 50
0.0
 51
90.0
  0
ARC
  5
28F
330
1F
100
AcDbEntity
  8
0-0
  6
Continuous
 62
     3
370
     9
100
AcDbCircle
 10
-115.1919565974055
 20
214.1756311365077
 30
0.0
 40
4.000000051549963
100
AcDbArc
 50
270.0
 51
0.0
  0
ARC
  5
290
330
1F
100
AcDbEntity
  8
0-0
  6
Continuous
 62
     3
370
     9
100
AcDbCircle
 10
-115.1919565974055
 20
280.1756261877113
 30
0.0
 40
5.000000064437454
100
AcDbArc
 50
0.0
 51
90.0
  0
ARC
  5
291
330
1F
100
AcDbEntity
  8
0-0
  6
Continuous
 62
     3
370
     9
100
AcDbCircle
 10
250.4566491616739
 20
256.2776901657518
 30
0.0
 40
14.99999961337528
100
AcDbArc
 50
0.0
 51
59.99998474121094
  0
ARC
  5
292
330
1F
100
AcDbEntity
  8
0-0
  6
Continuous
 62
     3
370
     9
100
AcDbCircle
 10
259.4566788544527
 20
279.9490702861066
 30
0.0
 40
10.00000012887491
100
AcDbArc
 50
180.0
 51
239.9998016357422
  0
ARC
  5
293
330
1F
100
AcDbEntity
  8
0-0
  6
Continuous
 62
     3
370
     9
100
AcDbCircle
 10
-94.19188731425515
 20
-82.82434659390827
 30
0.0
 40
3.000000038662472
100
AcDbArc
 50
270.0
 51
0.0
  0
ARC
  5
294
330
1F
100
AcDbEntity
  8
0-0
  6
Continuous
 62
     3
370
     9
100
AcDbCircle
 10
-273.1919829909866
 20
96.17567485087642
 30
0.0
 40
4.000000051549963
100
AcDbArc
 50
90.0
 51
180.0
  0
ARC
  5
295
330
1F
100
AcDbEntity
  8
0-0
  6
Continuous
 62
     3
370
     9
100
AcDbCircle
 10
-253.1919664949984
 20
96.17567485087642
 30
0.0
 40
4.000000051549963
100
AcDbArc
 50
0.0
 51
90.0
  0
ARC
  5
296
330
1F
100
AcDbEntity
  8
0-0
  6
Continuous
 62
     3
370
     9
100
AcDbCircle
 10
-273.1919829909866
 20
30.17567979967282
 30
0.0
 40
4.000000051549963
100
AcDbArc
 50
180.0
 51
270.0
  0
ARC
  5
297
330
1F
100
AcDbEntity
  8
0-0
  6
Continuous
 62
     3
370
     9
100
AcDbCircle
 10
-253.1919664949984
 20
30.17567979967282
 30
0.0
 40
4.000000051549963
100
AcDbArc
 50
270.0
 51
0.0
  0
ARC
  5
298
330
1F
100
AcDbEntity
  8
0-0
  6
Continuous
 62
     3
370
     9
100
AcDbCircle
 10
-227.1920044357712
 20
30.17567979967282
 30
0.0
 40
4.000000051549963
100
AcDbArc
 50
180.0
 51
270.0
  0
ARC
  5
299
330
1F
100
AcDbEntity
  8
0-0
  6
Continuous
 62
     3
370
     9
100
AcDbCircle
 10
-207.1919879397831
 20
30.17567979967282
 30
0.0
 40
4.000000051549963
100
AcDbArc
 50
270.0
 51
0.0
  0
ARC
  5
29A
330
1F
100
AcDbEntity
  8
0-0
  6
Continuous
 62
     3
370
     9
100
AcDbCircle
 10
-227.1920044357712
 20
96.17567485087642
 30
0.0
 40
4.000000051549963
100
AcDbArc
 50
90.0
 51
180.0
  0
ARC
  5
29B
330
1F
100
AcDbEntity
  8
0-0
  6
Continuous
 62
     3
370
     9
100
AcDbCircle
 10
-207.1919879397831
 20
96.17567485087642
 30
0.0
 40
4.000000051549963
100
AcDbArc
 50
0.0
 51
90.0
  0
ARC
  5
29C
330
1F
100
AcDbEntity
  8
0-0
  6
Continuous
 62
     3
370
     9
100
AcDbCircle
 10
-181.1919516486091
 20
96.17567485087642
 30
0.0
 40
4.000000051549963
100
AcDbArc
 50
90.0
 51
180.0
  0
ARC
  5
29D
330
1F
100
AcDbEntity
  8
0-0
  6
Continuous
 62
     3
370
     9
100
AcDbCircle
 10
-161.192046500541
 20
96.17567485087642
 30
0.0
 40
4.000000051549963
100
AcDbArc
 50
0.0
 51
90.0
  0
ARC
  5
29E
330
1F
100
AcDbEntity
  8
0-0
  6
Continuous
 62
     3
370
     9
100
AcDbCircle
 10
-181.1919516486091
 20
30.17567979967282
 30
0.0
 40
4.000000051549963
100
AcDbArc
 50
180.0
 51
270.0
  0
ARC
  5
29F
330
1F
100
AcDbEntity
  8
0-0
  6
Continuous
 62
     3
370
     9
100
AcDbCircle
 10
-161.192046500541
 20
30.17567979967282
 30
0.0
 40
4.000000051549963
100
AcDbArc
 50
270.0
 51
0.0
  0
ARC
  5
2A0
330
1F
100
AcDbEntity
  8
0-0
  6
Continuous
 62
     3
370
     9
100
AcDbCircle
 10
-135.1918988614469
 20
30.17567979967282
 30
0.0
 40
4.000000051549963
100
AcDbArc
 50
180.0
 51
270.0
  0
ARC
  5
2A1
330
1F
100
AcDbEntity
  8
0-0
  6
Continuous
 62
     3
370
     9
100
AcDbCircle
 10
-115.1919565974055
 20
30.17567979967282
 30
0.0
 40
4.000000051549963
100
AcDbArc
 50
270.0
 51
0.0
  0
ARC
  5
2A2
330
1F
100
AcDbEntity
  8
0-0
  6
Continuous
 62
     3
370
     9
100
AcDbCircle
 10
-135.1918988614469
 20
96.17567485087642
 30
0.0
 40
4.000000051549963
100
AcDbArc
 50
90.0
 51
180.0
  0
ARC
  5
2A3
330
1F
100
AcDbEntity
  8
0-0
  6
Continuous
 62
     3
370
     9
100
AcDbCircle
 10
-115.1919565974055
 20
96.17567485087642
 30
0.0
 40
4.000000051549963
100
AcDbArc
 50
0.0
 51
90.0
  0
ARC
  5
2A4
330
1F
100
AcDbEntity
  8
0-0
  6
Continuous
 62
     3
370
     9
100
AcDbCircle
 10
-273.1919829909866
 20
4.175717740445634
 30
0.0
 40
4.000000051549963
100
AcDbArc
 50
90.0
 51
180.0
  0
ARC
  5
2A5
330
1F
100
AcDbEntity
  8
0-0
  6
Continuous
 62
     3
370
     9
100
AcDbCircle
 10
-273.1919829909866
 20
-61.82435154270468
 30
0.0
 40
4.000000051549963
100
AcDbArc
 50
180.0
 51
270.0
  0
ARC
  5
2A6
330
1F
100
AcDbEntity
  8
0-0
  6
Continuous
 62
     3
370
     9
100
AcDbCircle
 10
-253.1919664949984
 20
-61.82435154270468
 30
0.0
 40
4.000000051549963
100
AcDbArc
 50
270.0
 51
0.0
  0
ARC
  5
2A7
330
1F
100
AcDbEntity
  8
0-0
  6
Continuous
 62
     3
370
     9
100
AcDbCircle
 10
-253.1919664949984
 20
4.175717740445634
 30
0.0
 40
4.000000051549963
100
AcDbArc
 50
0.0
 51
90.0
  0
ARC
  5
2A8
330
1F
100
AcDbEntity
  8
0-0
  6
Continuous
 62
     3
370
     9
100
AcDbCircle
 10
-227.1920044357712
 20
4.175717740445634
 30
0.0
 40
4.000000051549963
100
AcDbArc
 50
90.0
 51
180.0
  0
ARC
  5
2A9
330
1F
100
AcDbEntity
  8
0-0
  6
Continuous
 62
     3
370
     9
100
AcDbCircle
 10
-227.1920044357712
 20
-61.82435154270468
 30
0.0
 40
4.000000051549963
100
AcDbArc
 50
180.0
 51
270.0
  0
ARC
  5
2AA
330
1F
100
AcDbEntity
  8
0-0
  6
Continuous
 62
     3
370
     9
100
AcDbCircle
 10
-207.1919879397831
 20
-61.82435154270468
 30
0.0
 40
4.000000051549963
100
AcDbArc
 50
270.0
 51
0.0
  0
ARC
  5
2AB
330
1F
100
AcDbEntity
  8
0-0
  6
Continuous
 62
     3
370
     9
100
AcDbCircle
 10
-207.1919879397831
 20
4.175717740445634
 30
0.0
 40
4.000000051549963
100
AcDbArc
 50
0.0
 51
90.0
  0
ARC
  5
2AC
330
1F
100
AcDbEntity
  8
0-0
  6
Continuous
 62
     3
370
     9
100
AcDbCircle
 10
-181.1919516486091
 20
4.175717740445634
 30
0.0
 40
4.000000051549963
100
AcDbArc
 50
90.0
 51
180.0
  0
ARC
  5
2AD
330
1F
100
AcDbEntity
  8
0-0
  6
Continuous
 62
     3
370
     9
100
AcDbCircle
 10
-181.1919516486091
 20
-61.82435154270468
 30
0.0
 40
4.000000051549963
100
AcDbArc
 50
180.0
 51
270.0
  0
ARC
  5
2AE
330
1F
100
AcDbEntity
  8
0-0
  6
Continuous
 62
     3
370
     9
100
AcDbCircle
 10
-161.192046500541
 20
-61.82435154270468
 30
0.0
 40
4.000000051549963
100
AcDbArc
 50
270.0
 51
0.0
  0
ARC
  5
2AF
330
1F
100
AcDbEntity
  8
0-0
  6
Continuous
 62
     3
370
     9
100
AcDbCircle
 10
-161.192046500541
 20
4.175717740445634
 30
0.0
 40
4.000000051549963
100
AcDbArc
 50
0.0
 51
90.0
  0
ARC
  5
2B0
330
1F
100
AcDbEntity
  8
0-0
  6
Continuous
 62
     3
370
     9
100
AcDbCircle
 10
-135.1918988614469
 20
4.175717740445634
 30
0.0
 40
4.000000051549963
100
AcDbArc
 50
90.0
 51
180.0
  0
ARC
  5
2B1
330
1F
100
AcDbEntity
  8
0-0
  6
Continuous
 62
     3
370
     9
100
AcDbCircle
 10
-135.1918988614469
 20
-61.82435154270468
 30
0.0
 40
4.000000051549963
100
AcDbArc
 50
180.0
 51
270.0
  0
ARC
  5
2B2
330
1F
100
AcDbEntity
  8
0-0
  6
Continuous
 62
     3
370
     9
100
AcDbCircle
 10
-115.1919565974055
 20
-61.82435154270468
 30
0.0
 40
4.000000051549963
100
AcDbArc
 50
270.0
 51
0.0
  0
ARC
  5
2B3
330
1F
100
AcDbEntity
  8
0-0
  6
Continuous
 62
     3
370
     9
100
AcDbCircle
 10
-115.1919565974055
 20
4.175717740445634
 30
0.0
 40
4.000000051549963
100
AcDbArc
 50
0.0
 51
90.0
  0
ARC
  5
2B4
330
1F
100
AcDbEntity
  8
0-0
  6
Continuous
 62
     3
370
     9
100
AcDbCircle
 10
-115.1919565974055
 20
-61.82435154270468
 30
0.0
 40
5.000000064437454
100
AcDbArc
 50
270.0
 51
0.0
  0
ARC
  5
2B5
330
1F
100
AcDbEntity
  8
0-0
  6
Continuous
 62
     3
370
     9
100
AcDbCircle
 10
-478.1920407269453
 20
301.1756954708617
 30
0.0
 40
3.000000038662472
100
AcDbArc
 50
90.0
 51
180.0
  0
ARC
  5
2B6
330
1F
100
AcDbEntity
  8
0-0
  6
Continuous
 62
     3
370
     9
100
AcDbCircle
 10
-299.1920192821606
 20
122.1756369101036
 30
0.0
 40
4.000000051549963
100
AcDbArc
 50
270.0
 51
0.0
  0
ARC
  5
2B7
330
1F
100
AcDbEntity
  8
0-0
  6
Continuous
 62
     3
370
     9
100
AcDbCircle
 10
-319.1919986621754
 20
122.1756369101036
 30
0.0
 40
4.000000051549963
100
AcDbArc
 50
180.0
 51
270.0
  0
ARC
  5
2B8
330
1F
100
AcDbEntity
  8
0-0
  6
Continuous
 62
     3
370
     9
100
AcDbCircle
 10
-299.1920192821606
 20
188.1756690772806
 30
0.0
 40
4.000000051549963
100
AcDbArc
 50
0.0
 51
90.0
  0
ARC
  5
2B9
330
1F
100
AcDbEntity
  8
0-0
  6
Continuous
 62
     3
370
     9
100
AcDbCircle
 10
-319.1919986621754
 20
188.1756690772806
 30
0.0
 40
4.000000051549963
100
AcDbArc
 50
90.0
 51
180.0
  0
ARC
  5
2BA
330
1F
100
AcDbEntity
  8
0-0
  6
Continuous
 62
     3
370
     9
100
AcDbCircle
 10
-345.1919978373759
 20
188.1756690772806
 30
0.0
 40
4.000000051549963
100
AcDbArc
 50
0.0
 51
90.0
  0
ARC
  5
2BB
330
1F
100
AcDbEntity
  8
0-0
  6
Continuous
 62
     3
370
     9
100
AcDbCircle
 10
-365.1919401014173
 20
188.1756690772806
 30
0.0
 40
4.000000051549963
100
AcDbArc
 50
90.0
 51
180.0
  0
ARC
  5
2BC
330
1F
100
AcDbEntity
  8
0-0
  6
Continuous
 62
     3
370
     9
100
AcDbCircle
 10
-345.1919978373759
 20
122.1756369101036
 30
0.0
 40
4.000000051549963
100
AcDbArc
 50
270.0
 51
0.0
  0
ARC
  5
2BD
330
1F
100
AcDbEntity
  8
0-0
  6
Continuous
 62
     3
370
     9
100
AcDbCircle
 10
-365.1919401014173
 20
122.1756369101036
 30
0.0
 40
4.000000051549963
100
AcDbArc
 50
180.0
 51
270.0
  0
ARC
  5
2BE
330
1F
100
AcDbEntity
  8
0-0
  6
Continuous
 62
     3
370
     9
100
AcDbCircle
 10
-391.1919763925913
 20
122.1756369101036
 30
0.0
 40
4.000000051549963
100
AcDbArc
 50
270.0
 51
0.0
  0
ARC
  5
2BF
330
1F
100
AcDbEntity
  8
0-0
  6
Continuous
 62
     3
370
     9
100
AcDbCircle
 10
-411.1919928885794
 20
122.1756369101036
 30
0.0
 40
4.000000051549963
100
AcDbArc
 50
180.0
 51
270.0
  0
ARC
  5
2C0
330
1F
100
AcDbEntity
  8
0-0
  6
Continuous
 62
     3
370
     9
100
AcDbCircle
 10
-391.1919763925913
 20
188.1756690772806
 30
0.0
 40
4.000000051549963
100
AcDbArc
 50
0.0
 51
90.0
  0
ARC
  5
2C1
330
1F
100
AcDbEntity
  8
0-0
  6
Continuous
 62
     3
370
     9
100
AcDbCircle
 10
-411.1919928885794
 20
188.1756690772806
 30
0.0
 40
4.000000051549963
100
AcDbArc
 50
90.0
 51
180.0
  0
ARC
  5
2C2
330
1F
100
AcDbEntity
  8
0-0
  6
Continuous
 62
     3
370
     9
100
AcDbCircle
 10
-437.1920291797535
 20
188.1756690772806
 30
0.0
 40
4.000000051549963
100
AcDbArc
 50
0.0
 51
90.0
  0
ARC
  5
2C3
330
1F
100
AcDbEntity
  8
0-0
  6
Continuous
 62
     3
370
     9
100
AcDbCircle
 10
-457.1920456757416
 20
188.1756690772806
 30
0.0
 40
4.000000051549963
100
AcDbArc
 50
90.0
 51
180.0
  0
ARC
  5
2C4
330
1F
100
AcDbEntity
  8
0-0
  6
Continuous
 62
     3
370
     9
100
AcDbCircle
 10
-437.1920291797535
 20
122.1756369101036
 30
0.0
 40
4.000000051549963
100
AcDbArc
 50
270.0
 51
0.0
  0
ARC
  5
2C5
330
1F
100
AcDbEntity
  8
0-0
  6
Continuous
 62
     3
370
     9
100
AcDbCircle
 10
-457.1920456757416
 20
122.1756369101036
 30
0.0
 40
4.000000051549963
100
AcDbArc
 50
180.0
 51
270.0
  0
ARC
  5
2C6
330
1F
100
AcDbEntity
  8
0-0
  6
Continuous
 62
     3
370
     9
100
AcDbCircle
 10
-299.1920192821606
 20
214.1756311365077
 30
0.0
 40
4.000000051549963
100
AcDbArc
 50
270.0
 51
0.0
  0
ARC
  5
2C7
330
1F
100
AcDbEntity
  8
0-0
  6
Continuous
 62
     3
370
     9
100
AcDbCircle
 10
-299.1920192821606
 20
280.1756261877113
 30
0.0
 40
4.000000051549963
100
AcDbArc
 50
0.0
 51
90.0
  0
ARC
  5
2C8
330
1F
100
AcDbEntity
  8
0-0
  6
Continuous
 62
     3
370
     9
100
AcDbCircle
 10
-319.1919986621754
 20
280.1756261877113
 30
0.0
 40
4.000000051549963
100
AcDbArc
 50
90.0
 51
180.0
  0
ARC
  5
2C9
330
1F
100
AcDbEntity
  8
0-0
  6
Continuous
 62
     3
370
     9
100
AcDbCircle
 10
-319.1919986621754
 20
214.1756311365077
 30
0.0
 40
4.000000051549963
100
AcDbArc
 50
180.0
 51
270.0
  0
ARC
  5
2CA
330
1F
100
AcDbEntity
  8
0-0
  6
Continuous
 62
     3
370
     9
100
AcDbCircle
 10
-345.1919978373759
 20
214.1756311365077
 30
0.0
 40
4.000000051549963
100
AcDbArc
 50
270.0
 51
0.0
  0
ARC
  5
2CB
330
1F
100
AcDbEntity
  8
0-0
  6
Continuous
 62
     3
370
     9
100
AcDbCircle
 10
-345.1919978373759
 20
280.1756261877113
 30
0.0
 40
4.000000051549963
100
AcDbArc
 50
0.0
 51
90.0
  0
ARC
  5
2CC
330
1F
100
AcDbEntity
  8
0-0
  6
Continuous
 62
     3
370
     9
100
AcDbCircle
 10
-365.1919401014173
 20
280.1756261877113
 30
0.0
 40
4.000000051549963
100
AcDbArc
 50
90.0
 51
180.0
  0
ARC
  5
2CD
330
1F
100
AcDbEntity
  8
0-0
  6
Continuous
 62
     3
370
     9
100
AcDbCircle
 10
-365.1919401014173
 20
214.1756311365077
 30
0.0
 40
4.000000051549963
100
AcDbArc
 50
180.0
 51
270.0
  0
ARC
  5
2CE
330
1F
100
AcDbEntity
  8
0-0
  6
Continuous
 62
     3
370
     9
100
AcDbCircle
 10
-391.1919763925913
 20
214.1756311365077
 30
0.0
 40
4.000000051549963
100
AcDbArc
 50
270.0
 51
0.0
  0
ARC
  5
2CF
330
1F
100
AcDbEntity
  8
0-0
  6
Continuous
 62
     3
370
     9
100
AcDbCircle
 10
-391.1919763925913
 20
280.1756261877113
 30
0.0
 40
4.000000051549963
100
AcDbArc
 50
0.0
 51
90.0
  0
ARC
  5
2D0
330
1F
100
AcDbEntity
  8
0-0
  6
Continuous
 62
     3
370
     9
100
AcDbCircle
 10
-411.1919928885794
 20
280.1756261877113
 30
0.0
 40
4.000000051549963
100
AcDbArc
 50
90.0
 51
180.0
  0
ARC
  5
2D1
330
1F
100
AcDbEntity
  8
0-0
  6
Continuous
 62
     3
370
     9
100
AcDbCircle
 10
-411.1919928885794
 20
214.1756311365077
 30
0.0
 40
4.000000051549963
100
AcDbArc
 50
180.0
 51
270.0
  0
ARC
  5
2D2
330
1F
100
AcDbEntity
  8
0-0
  6
Continuous
 62
     3
370
     9
100
AcDbCircle
 10
-437.1920291797535
 20
214.1756311365077
 30
0.0
 40
4.000000051549963
100
AcDbArc
 50
270.0
 51
0.0
  0
ARC
  5
2D3
330
1F
100
AcDbEntity
  8
0-0
  6
Continuous
 62
     3
370
     9
100
AcDbCircle
 10
-437.1920291797535
 20
280.1756261877113
 30
0.0
 40
4.000000051549963
100
AcDbArc
 50
0.0
 51
90.0
  0
ARC
  5
2D4
330
1F
100
AcDbEntity
  8
0-0
  6
Continuous
 62
     3
370
     9
100
AcDbCircle
 10
-457.1920456757416
 20
280.1756261877113
 30
0.0
 40
4.000000051549963
100
AcDbArc
 50
90.0
 51
180.0
  0
ARC
  5
2D5
330
1F
100
AcDbEntity
  8
0-0
  6
Continuous
 62
     3
370
     9
100
AcDbCircle
 10
-457.1920456757416
 20
214.1756311365077
 30
0.0
 40
4.000000051549963
100
AcDbArc
 50
180.0
 51
270.0
  0
ARC
  5
2D6
330
1F
100
AcDbEntity
  8
0-0
  6
Continuous
 62
     3
370
     9
100
AcDbCircle
 10
-457.1920456757416
 20
280.1756261877113
 30
0.0
 40
5.000000064437454
100
AcDbArc
 50
90.0
 51
180.0
  0
ARC
  5
2D7
330
1F
100
AcDbEntity
  8
0-0
  6
Continuous
 62
     3
370
     9
100
AcDbCircle
 10
-478.1920407269453
 20
-82.82434659390827
 30
0.0
 40
3.000000038662472
100
AcDbArc
 50
180.0
 51
270.0
  0
ARC
  5
2D8
330
1F
100
AcDbEntity
  8
0-0
  6
Continuous
 62
     3
370
     9
100
AcDbCircle
 10
-299.1920192821606
 20
96.17567485087642
 30
0.0
 40
4.000000051549963
100
AcDbArc
 50
0.0
 51
90.0
  0
ARC
  5
2D9
330
1F
100
AcDbEntity
  8
0-0
  6
Continuous
 62
     3
370
     9
100
AcDbCircle
 10
-319.1919986621754
 20
96.17567485087642
 30
0.0
 40
4.000000051549963
100
AcDbArc
 50
90.0
 51
180.0
  0
ARC
  5
2DA
330
1F
100
AcDbEntity
  8
0-0
  6
Continuous
 62
     3
370
     9
100
AcDbCircle
 10
-299.1920192821606
 20
30.17567979967282
 30
0.0
 40
4.000000051549963
100
AcDbArc
 50
270.0
 51
0.0
  0
ARC
  5
2DB
330
1F
100
AcDbEntity
  8
0-0
  6
Continuous
 62
     3
370
     9
100
AcDbCircle
 10
-319.1919986621754
 20
30.17567979967282
 30
0.0
 40
4.000000051549963
100
AcDbArc
 50
180.0
 51
270.0
  0
ARC
  5
2DC
330
1F
100
AcDbEntity
  8
0-0
  6
Continuous
 62
     3
370
     9
100
AcDbCircle
 10
-345.1919978373759
 20
30.17567979967282
 30
0.0
 40
4.000000051549963
100
AcDbArc
 50
270.0
 51
0.0
  0
ARC
  5
2DD
330
1F
100
AcDbEntity
  8
0-0
  6
Continuous
 62
     3
370
     9
100
AcDbCircle
 10
-365.1920143333641
 20
30.17567979967282
 30
0.0
 40
4.000000051549963
100
AcDbArc
 50
180.0
 51
270.0
  0
ARC
  5
2DE
330
1F
100
AcDbEntity
  8
0-0
  6
Continuous
 62
     3
370
     9
100
AcDbCircle
 10
-345.1919978373759
 20
96.17567485087642
 30
0.0
 40
4.000000051549963
100
AcDbArc
 50
0.0
 51
90.0
  0
ARC
  5
2DF
330
1F
100
AcDbEntity
  8
0-0
  6
Continuous
 62
     3
370
     9
100
AcDbCircle
 10
-365.1920143333641
 20
96.17567485087642
 30
0.0
 40
4.000000051549963
100
AcDbArc
 50
90.0
 51
180.0
  0
ARC
  5
2E0
330
1F
100
AcDbEntity
  8
0-0
  6
Continuous
 62
     3
370
     9
100
AcDbCircle
 10
-391.1919763925913
 20
96.17567485087642
 30
0.0
 40
4.000000051549963
100
AcDbArc
 50
0.0
 51
90.0
  0
ARC
  5
2E1
330
1F
100
AcDbEntity
  8
0-0
  6
Continuous
 62
     3
370
     9
100
AcDbCircle
 10
-411.1919928885794
 20
96.17567485087642
 30
0.0
 40
4.000000051549963
100
AcDbArc
 50
90.0
 51
180.0
  0
ARC
  5
2E2
330
1F
100
AcDbEntity
  8
0-0
  6
Continuous
 62
     3
370
     9
100
AcDbCircle
 10
-391.1919763925913
 20
30.17567979967282
 30
0.0
 40
4.000000051549963
100
AcDbArc
 50
270.0
 51
0.0
  0
ARC
  5
2E3
330
1F
100
AcDbEntity
  8
0-0
  6
Continuous
 62
     3
370
     9
100
AcDbCircle
 10
-411.1919928885794
 20
30.17567979967282
 30
0.0
 40
4.000000051549963
100
AcDbArc
 50
180.0
 51
270.0
  0
ARC
  5
2E4
330
1F
100
AcDbEntity
  8
0-0
  6
Continuous
 62
     3
370
     9
100
AcDbCircle
 10
-437.1920291797535
 20
30.17567979967282
 30
0.0
 40
4.000000051549963
100
AcDbArc
 50
270.0
 51
0.0
  0
ARC
  5
2E5
330
1F
100
AcDbEntity
  8
0-0
  6
Continuous
 62
     3
370
     9
100
AcDbCircle
 10
-457.1920456757416
 20
30.17567979967282
 30
0.0
 40
4.000000051549963
100
AcDbArc
 50
180.0
 51
270.0
  0
ARC
  5
2E6
330
1F
100
AcDbEntity
  8
0-0
  6
Continuous
 62
     3
370
     9
100
AcDbCircle
 10
-437.1920291797535
 20
96.17567485087642
 30
0.0
 40
4.000000051549963
100
AcDbArc
 50
0.0
 51
90.0
  0
ARC
  5
2E7
330
1F
100
AcDbEntity
  8
0-0
  6
Continuous
 62
     3
370
     9
100
AcDbCircle
 10
-457.1920456757416
 20
96.17567485087642
 30
0.0
 40
4.000000051549963
100
AcDbArc
 50
90.0
 51
180.0
  0
ARC
  5
2E8
330
1F
100
AcDbEntity
  8
0-0
  6
Continuous
 62
     3
370
     9
100
AcDbCircle
 10
-299.1920192821606
 20
4.175717740445634
 30
0.0
 40
4.000000051549963
100
AcDbArc
 50
0.0
 51
90.0
  0
ARC
  5
2E9
330
1F
100
AcDbEntity
  8
0-0
  6
Continuous
 62
     3
370
     9
100
AcDbCircle
 10
-299.1920192821606
 20
-61.82435154270468
 30
0.0
 40
4.000000051549963
100
AcDbArc
 50
270.0
 51
0.0
  0
ARC
  5
2EA
330
1F
100
AcDbEntity
  8
0-0
  6
Continuous
 62
     3
370
     9
100
AcDbCircle
 10
-319.1919986621754
 20
-61.82435154270468
 30
0.0
 40
4.000000051549963
100
AcDbArc
 50
180.0
 51
270.0
  0
ARC
  5
2EB
330
1F
100
AcDbEntity
  8
0-0
  6
Continuous
 62
     3
370
     9
100
AcDbCircle
 10
-319.1919986621754
 20
4.175717740445634
 30
0.0
 40
4.000000051549963
100
AcDbArc
 50
90.0
 51
180.0
  0
ARC
  5
2EC
330
1F
100
AcDbEntity
  8
0-0
  6
Continuous
 62
     3
370
     9
100
AcDbCircle
 10
-345.1919978373759
 20
4.175717740445634
 30
0.0
 40
4.000000051549963
100
AcDbArc
 50
0.0
 51
90.0
  0
ARC
  5
2ED
330
1F
100
AcDbEntity
  8
0-0
  6
Continuous
 62
     3
370
     9
100
AcDbCircle
 10
-345.1919978373759
 20
-61.82435154270468
 30
0.0
 40
4.000000051549963
100
AcDbArc
 50
270.0
 51
0.0
  0
ARC
  5
2EE
330
1F
100
AcDbEntity
  8
0-0
  6
Continuous
 62
     3
370
     9
100
AcDbCircle
 10
-365.1920143333641
 20
-61.82435154270468
 30
0.0
 40
4.000000051549963
100
AcDbArc
 50
180.0
 51
270.0
  0
ARC
  5
2EF
330
1F
100
AcDbEntity
  8
0-0
  6
Continuous
 62
     3
370
     9
100
AcDbCircle
 10
-365.1920143333641
 20
4.175717740445634
 30
0.0
 40
4.000000051549963
100
AcDbArc
 50
90.0
 51
180.0
  0
ARC
  5
2F0
330
1F
100
AcDbEntity
  8
0-0
  6
Continuous
 62
     3
370
     9
100
AcDbCircle
 10
-391.1919763925913
 20
4.175717740445634
 30
0.0
 40
4.000000051549963
100
AcDbArc
 50
0.0
 51
90.0
  0
ARC
  5
2F1
330
1F
100
AcDbEntity
  8
0-0
  6
Continuous
 62
     3
370
     9
100
AcDbCircle
 10
-391.1919763925913
 20
-61.82435154270468
 30
0.0
 40
4.000000051549963
100
AcDbArc
 50
270.0
 51
0.0
  0
ARC
  5
2F2
330
1F
100
AcDbEntity
  8
0-0
  6
Continuous
 62
     3
370
     9
100
AcDbCircle
 10
-411.1919928885794
 20
-61.82435154270468
 30
0.0
 40
4.000000051549963
100
AcDbArc
 50
180.0
 51
270.0
  0
ARC
  5
2F3
330
1F
100
AcDbEntity
  8
0-0
  6
Continuous
 62
     3
370
     9
100
AcDbCircle
 10
-411.1919928885794
 20
4.175717740445634
 30
0.0
 40
4.000000051549963
100
AcDbArc
 50
90.0
 51
180.0
  0
ARC
  5
2F4
330
1F
100
AcDbEntity
  8
0-0
  6
Continuous
 62
     3
370
     9
100
AcDbCircle
 10
-437.1920291797535
 20
4.175717740445634
 30
0.0
 40
4.000000051549963
100
AcDbArc
 50
0.0
 51
90.0
  0
ARC
  5
2F5
330
1F
100
AcDbEntity
  8
0-0
  6
Continuous
 62
     3
370
     9
100
AcDbCircle
 10
-437.1920291797535
 20
-61.82435154270468
 30
0.0
 40
4.000000051549963
100
AcDbArc
 50
270.0
 51
0.0
  0
ARC
  5
2F6
330
1F
100
AcDbEntity
  8
0-0
  6
Continuous
 62
     3
370
     9
100
AcDbCircle
 10
-457.1920456757416
 20
-61.82435154270468
 30
0.0
 40
4.000000051549963
100
AcDbArc
 50
180.0
 51
270.0
  0
ARC
  5
2F7
330
1F
100
AcDbEntity
  8
0-0
  6
Continuous
 62
     3
370
     9
100
AcDbCircle
 10
-457.1920456757416
 20
4.175717740445634
 30
0.0
 40
4.000000051549963
100
AcDbArc
 50
90.0
 51
180.0
  0
ARC
  5
2F8
330
1F
100
AcDbEntity
  8
0-0
  6
Continuous
 62
     3
370
     9
100
AcDbCircle
 10
-457.1920456757416
 20
-61.82435154270468
 30
0.0
 40
5.000000064437454
100
AcDbArc
 50
180.0
 51
270.0
  0
ARC
  5
2F9
330
1F
100
AcDbEntity
  8
0-0
  6
Continuous
 62
     3
370
     9
100
AcDbCircle
 10
250.9566755552552
 20
-82.65546891495976
 30
0.0
 40
1.500000019331236
100
AcDbArc
 50
277.0003356933594
 51
359.9999999999999
  0
ARC
  5
2FA
330
1F
100
AcDbEntity
  8
0-0
  6
Continuous
 62
     3
370
     9
100
AcDbCircle
 10
249.4565963745117
 20
-66.61346270586984
 30
0.0
 40
1.500000019331236
100
AcDbArc
 50
0.0
 51
82.99966430664062
  0
ARC
  5
2FB
330
1F
100
AcDbEntity
  8
0-0
  6
Continuous
 62
     3
370
     9
100
AcDbCircle
 10
250.9566755552552
 20
-66.79766928183045
 30
0.0
 40
1.500000019331236
100
AcDbArc
 50
0.0
 51
82.99966430664062
  0
ARC
  5
2FC
330
1F
100
AcDbEntity
  8
0-0
  6
Continuous
 62
     3
370
     9
100
AcDbCircle
 10
250.5448367144611
 20
8.37112179318001
 30
0.0
 40
1.500000019331236
100
AcDbArc
 50
95.35466003417969
 51
136.5077514648438
  0
ARC
  5
2FD
330
1F
100
AcDbEntity
  8
0-0
  6
Continuous
 62
     3
370
     9
100
AcDbCircle
 10
250.5448367144611
 20
25.98023863096518
 30
0.0
 40
1.500000019331236
100
AcDbArc
 50
223.4922485351562
 51
264.6453399658203
  0
ARC
  5
2FE
330
1F
100
AcDbEntity
  8
0-0
  6
Continuous
 62
     3
370
     9
100
AcDbCircle
 10
263.9566194688952
 20
12.64164857606642
 30
0.0
 40
1.500000019331236
100
AcDbArc
 50
275.3546600341797
 51
0.0000000000000127
  0
ARC
  5
2FF
330
1F
100
AcDbEntity
  8
0-0
  6
Continuous
 62
     3
370
     9
100
AcDbCircle
 10
263.9566194688952
 20
21.70967473210524
 30
0.0
 40
1.500000019331236
100
AcDbArc
 50
358.7009582519532
 51
84.64533996582036
  0
ARC
  5
300
330
1F
100
AcDbEntity
  8
0-0
  6
Continuous
 62
     3
370
     9
100
AcDbCircle
 10
259.4566788544527
 20
-61.59775852512655
 30
0.0
 40
10.00000012887491
100
AcDbArc
 50
120.0001983642578
 51
180.0
  0
ARC
  5
301
330
1F
100
AcDbEntity
  8
0-0
  6
Continuous
 62
     3
370
     9
100
AcDbCircle
 10
250.4566491616739
 20
-37.92645263671858
 30
0.0
 40
14.99999961337528
100
AcDbArc
 50
300.0000152587891
 51
0.0
  0
ARC
  5
302
330
1F
100
AcDbEntity
  8
0-2
  6
Continuous
 62
     6
370
     5
100
AcDbCircle
 10
466.0160528646933
 20
3.455704972550791
 30
0.0
 40
4.000000051549963
100
AcDbArc
 50
150.0
 51
330.0000000000001
  0
CIRCLE
  5
303
330
1F
100
AcDbEntity
  8
0-2
  6
Continuous
 62
     6
370
     5
100
AcDbCircle
 10
465.2659390423748
 20
2.156645903716424
 30
0.0
 40
2.500000032218727
  0
CIRCLE
  5
304
330
1F
100
AcDbEntity
  8
0-2
  6
Continuous
 62
     6
370
     5
100
AcDbCircle
 10
446.7658532632364
 20
-29.88624201594163
 30
0.0
 40
2.500000032218727
  0
ARC
  5
305
330
1F
100
AcDbEntity
  8
0-2
  6
Continuous
 62
     6
370
     5
100
AcDbCircle
 10
466.0160528646933
 20
3.455704972550791
 30
0.0
 40
9.000000115987417
100
AcDbArc
 50
150.0
 51
330.0000000000001
  0
ARC
  5
306
330
1F
100
AcDbEntity
  8
0-2
  6
Continuous
 62
     6
370
     5
100
AcDbCircle
 10
445.8712098405165
 20
-32.3056096257389
 30
0.0
 40
12.00000015464989
100
AcDbArc
 50
359.9999847412109
 51
180.0
  0
ARC
  5
307
330
1F
100
AcDbEntity
  8
0-2
  6
Continuous
 62
     6
370
     5
100
AcDbCircle
 10
445.8712098405165
 20
-32.3056096257389
 30
0.0
 40
5.000000064437454
100
AcDbArc
 50
8.332473754882812
 51
180.0
  0
ARC
  5
308
330
1F
100
AcDbEntity
  8
0-2
  6
Continuous
 62
     6
370
     5
100
AcDbCircle
 10
455.8711438565641
 20
-59.08819909997874
 30
0.0
 40
5.000000064437454
100
AcDbArc
 50
165.0
 51
180.0
  0
ARC
  5
309
330
1F
100
AcDbEntity
  8
0-2
  6
Continuous
 62
     6
370
     5
100
AcDbCircle
 10
448.8711455061628
 20
-58.16660948057421
 30
0.0
 40
5.000000064437454
100
AcDbArc
 50
165.0
 51
180.0
  0
ARC
  5
30A
330
1F
100
AcDbEntity
  8
0-2
  6
Continuous
 62
     6
370
     5
100
AcDbCircle
 10
441.8711471557617
 20
-136.3056063265412
 30
0.0
 40
2.000000025774982
100
AcDbArc
 50
270.0
 51
0.0
  0
ARC
  5
30B
330
1F
100
AcDbEntity
  8
0-2
  6
Continuous
 62
     6
370
     5
100
AcDbCircle
 10
443.8709558022989
 20
-138.3055634369719
 30
0.0
 40
7.000000090212434
100
AcDbArc
 50
270.0
 51
0.0
  0
ARC
  5
30C
330
1F
100
AcDbEntity
  8
0-2
  6
JWW_CENTER1
 62
     6
370
     5
100
AcDbCircle
 10
441.8711471557617
 20
-136.3056063265412
 30
0.0
 40
5.500000360849742
100
AcDbArc
 50
270.0
 51
0.0
  0
ARC
  5
30D
330
1F
100
AcDbEntity
  8
0-2
  6
JWW_CENTER1
 62
     6
370
     5
100
AcDbCircle
 10
445.8712098405165
 20
-32.3056096257389
 30
0.0
 40
8.49999981957513
100
AcDbArc
 50
2.843826293945312
 51
180.0
  0
ARC
  5
30E
330
1F
100
AcDbEntity
  8
0-2
  6
JWW_CENTER1
 62
     6
370
     5
100
AcDbCircle
 10
423.130178709288
 20
49.17568062447232
 30
0.0
 40
59.99999845350111
100
AcDbArc
 50
329.9999542236329
 51
89.99999999999997
  0
ARC
  5
30F
330
1F
100
AcDbEntity
  8
0-2
  6
JWW_CENTER1
 62
     6
370
     5
100
AcDbCircle
 10
448.8711455061628
 20
-58.16660948057421
 30
0.0
 40
1.500000019331236
100
AcDbArc
 50
165.0
 51
180.0
  0
ARC
  5
310
330
1F
100
AcDbEntity
  8
0-2
  6
Continuous
 62
     6
370
     5
100
AcDbCircle
 10
320.9569559870539
 20
109.1755816485433
 30
0.0
 40
2.500000322187269
100
AcDbArc
 50
90.0
 51
270.0
  0
ARC
  5
311
330
1F
100
AcDbEntity
  8
0-2
  6
Continuous
 62
     6
370
     5
100
AcDbCircle
 10
319.456728342417
 20
109.1755816485433
 30
0.0
 40
8.999998956113249
100
AcDbArc
 50
269.9998321533203
 51
343.8724060058594
  0
ARC
  5
312
330
1F
100
AcDbEntity
  8
0-2
  6
Continuous
 62
     6
370
     5
100
AcDbCircle
 10
319.456728342417
 20
109.1755816485433
 30
0.0
 40
4.000000921455589
100
AcDbArc
 50
270.0
 51
321.3177947998047
  0
ARC
  5
313
330
1F
100
AcDbEntity
  8
0-2
  6
Continuous
 62
     6
370
     5
100
AcDbCircle
 10
319.456728342417
 20
109.1755816485433
 30
0.0
 40
4.000000921455589
100
AcDbArc
 50
38.68220520019531
 51
90.0
  0
ARC
  5
314
330
1F
100
AcDbEntity
  8
0-2
  6
Continuous
 62
     6
370
     5
100
AcDbCircle
 10
319.456728342417
 20
109.1755816485433
 30
0.0
 40
8.999998956113249
100
AcDbArc
 50
16.12759399414062
 51
89.99999999999999
  0
CIRCLE
  5
315
330
1F
100
AcDbEntity
  8
0-2
  6
Continuous
 62
     4
370
     9
100
AcDbCircle
 10
259.4568273183461
 20
109.17565588049
 30
0.0
 40
5.000000064437454
  0
ARC
  5
316
330
1F
100
AcDbEntity
  8
0-2
  6
Continuous
 62
     6
370
     5
100
AcDbCircle
 10
295.4567976255677
 20
109.1755816485433
 30
0.0
 40
9.000001275861585
100
AcDbArc
 50
202.8844451904297
 51
270.0
  0
ARC
  5
317
330
1F
100
AcDbEntity
  8
0-2
  6
Continuous
 62
     6
370
     5
100
AcDbCircle
 10
295.4567976255677
 20
109.1755816485433
 30
0.0
 40
4.000000631487048
100
AcDbArc
 50
241.0411834716797
 51
270.0003814697266
  0
ARC
  5
318
330
1F
100
AcDbEntity
  8
0-2
  6
Continuous
 62
     6
370
     5
100
AcDbCircle
 10
295.4567976255677
 20
109.1755816485433
 30
0.0
 40
9.000001275861585
100
AcDbArc
 50
90.0
 51
157.1138000488282
  0
ARC
  5
319
330
1F
100
AcDbEntity
  8
0-2
  6
Continuous
 62
     6
370
     5
100
AcDbCircle
 10
295.4567976255677
 20
109.1755816485433
 30
0.0
 40
4.000000631487048
100
AcDbArc
 50
89.99961853027342
 51
118.9524536132812
  0
ARC
  5
31A
330
1F
100
AcDbEntity
  8
0-2
  6
Continuous
 62
     4
370
     9
100
AcDbCircle
 10
294.9569196958802
 20
109.1755816485433
 30
0.0
 40
3.500000045106217
100
AcDbArc
 50
270.0
 51
90.0
  0
ARC
  5
31B
330
1F
100
AcDbEntity
  8
0-2
  6
Continuous
 62
     4
370
     9
100
AcDbCircle
 10
259.4568273183461
 20
109.17565588049
 30
0.0
 40
10.49999984535011
100
AcDbArc
 50
19.47117614746094
 51
340.5288238525391
  0
ARC
  5
31C
330
1F
100
AcDbEntity
  8
0-0
  6
Continuous
 62
     3
370
     9
100
AcDbCircle
 10
259.4568273183461
 20
109.17565588049
 30
0.0
 40
16.49999992267505
100
AcDbArc
 50
12.24656677246094
 51
80.07664489746094
  0
ARC
  5
31D
330
1F
100
AcDbEntity
  8
0-0
  6
Continuous
 62
     3
370
     9
100
AcDbCircle
 10
259.4568273183461
 20
109.17565588049
 30
0.0
 40
16.49999992267505
100
AcDbArc
 50
279.9233551025391
 51
347.7536926269531
  0
ARC
  5
31E
330
1F
100
AcDbEntity
  8
0-1
  6
Continuous
 62
     2
370
     9
100
AcDbCircle
 10
237.9565831777211
 20
-93.50027383340358
 30
0.0
 40
1.500000019331236
100
AcDbArc
 50
180.0
 51
262.8750305175781
  0
ARC
  5
31F
330
1F
100
AcDbEntity
  8
0-1
  6
Continuous
 62
     2
370
     9
100
AcDbCircle
 10
237.9565831777211
 20
-89.1485744167017
 30
0.0
 40
1.500000019331236
100
AcDbArc
 50
97.12496948242188
 51
179.9993286132812
  0
ARC
  5
320
330
1F
100
AcDbEntity
  8
0-1
  6
Continuous
 62
     2
370
     9
100
AcDbCircle
 10
253.9566112209011
 20
-68.56925180796014
 30
0.0
 40
1.500000019331236
100
AcDbArc
 50
100.6194152832031
 51
180.0
  0
ARC
  5
321
330
1F
100
AcDbEntity
  8
0-1
  6
Continuous
 62
     2
370
     9
100
AcDbCircle
 10
251.9566541104705
 20
-115.0947554304792
 30
0.0
 40
1.500000019331236
100
AcDbArc
 50
180.0
 51
258.6903228759766
  0
ARC
  5
322
330
1F
100
AcDbEntity
  8
0-1
  6
Continuous
 62
     2
370
     9
100
AcDbCircle
 10
251.9566541104705
 20
-108.945677886138
 30
0.0
 40
1.500000019331236
100
AcDbArc
 50
134.9997711181641
 51
180.0
  0
ARC
  5
323
330
1F
100
AcDbEntity
  8
0-1
  6
Continuous
 62
     2
370
     9
100
AcDbCircle
 10
250.9566013233083
 20
-105.7031522183804
 30
0.0
 40
1.500000019331236
100
AcDbArc
 50
314.9997711181641
 51
0.0
  0
ARC
  5
324
330
1F
100
AcDbEntity
  8
0-1
  6
Continuous
 62
     2
370
     9
100
AcDbCircle
 10
247.4566392640811
 20
-101.2382861987963
 30
0.0
 40
5.000000064437454
100
AcDbArc
 50
0.0
 51
82.8748779296875
  0
ARC
  5
325
330
1F
100
AcDbEntity
  8
0-1
  6
Continuous
 62
     2
370
     9
100
AcDbCircle
 10
250.4566491616739
 20
-84.05886098500827
 30
0.0
 40
2.000000025774982
100
AcDbArc
 50
277.1253204345703
 51
0.0
  0
ARC
  5
326
330
1F
100
AcDbEntity
  8
0-1
  6
Continuous
 62
     2
370
     9
100
AcDbCircle
 10
-478.1920221689585
 20
-82.82438370988163
 30
0.0
 40
5.000000064437454
100
AcDbArc
 50
180.0
 51
270.0
  0
ARC
  5
327
330
1F
100
AcDbEntity
  8
0-1
  6
Continuous
 62
     2
370
     9
100
AcDbCircle
 10
-499.6922848675703
 20
55.17562618771126
 30
0.0
 40
2.000000025774982
100
AcDbArc
 50
90.0
 51
180.0
  0
ARC
  5
328
330
1F
100
AcDbEntity
  8
0-1
  6
Continuous
 62
     2
370
     9
100
AcDbCircle
 10
-374.6919961877771
 20
-104.3241824588259
 30
0.0
 40
2.000000025774982
100
AcDbArc
 50
180.0
 51
270.0
  0
ARC
  5
329
330
1F
100
AcDbEntity
  8
0-1
  6
Continuous
 62
     2
370
     9
100
AcDbCircle
 10
-374.6919961877771
 20
-98.82418905722108
 30
0.0
 40
2.000000025774982
100
AcDbArc
 50
90.0
 51
180.0
  0
ARC
  5
32A
330
1F
100
AcDbEntity
  8
0-1
  6
Continuous
 62
     2
370
     9
100
AcDbCircle
 10
-374.6919961877771
 20
-104.3241824588259
 30
0.0
 40
4.000000051549963
100
AcDbArc
 50
180.0001220703125
 51
270.0001220703125
  0
ARC
  5
32B
330
1F
100
AcDbEntity
  8
0-1
  6
Continuous
 62
     2
370
     9
100
AcDbCircle
 10
-374.6919961877771
 20
-98.82418905722108
 30
0.0
 40
4.000000051549963
100
AcDbArc
 50
118.9553375244141
 51
180.0001220703125
  0
ARC
  5
32C
330
1F
100
AcDbEntity
  8
0-1
  6
Continuous
 62
     2
370
     9
100
AcDbCircle
 10
-422.6921174332903
 20
-104.3242195747992
 30
0.0
 40
2.000000025774982
100
AcDbArc
 50
270.0
 51
0.0
  0
ARC
  5
32D
330
1F
100
AcDbEntity
  8
0-1
  6
Continuous
 62
     2
370
     9
100
AcDbCircle
 10
-422.6921174332903
 20
-104.3242195747992
 30
0.0
 40
4.000000051549963
100
AcDbArc
 50
270.0001220703125
 51
0.0001220703125213
  0
ARC
  5
32E
330
1F
100
AcDbEntity
  8
0-1
  6
Continuous
 62
     2
370
     9
100
AcDbCircle
 10
-499.6922848675703
 20
55.17562618771126
 30
0.0
 40
4.000000051549963
100
AcDbArc
 50
90.0
 51
180.0
  0
ARC
  5
32F
330
1F
100
AcDbEntity
  8
0-1
  6
Continuous
 62
     2
370
     9
100
AcDbCircle
 10
-398.6920382525469
 20
-108.324430723448
 30
0.0
 40
7.500001546498892
100
AcDbArc
 50
0.0001983642578125
 51
180.0001983642578
  0
ARC
  5
330
330
1F
100
AcDbEntity
  8
0-1
  6
Continuous
 62
     2
370
     9
100
AcDbCircle
 10
-398.6920382525469
 20
-108.324430723448
 30
0.0
 40
9.500002152210959
100
AcDbArc
 50
0.000213623046875
 51
180.0002136230469
  0
ARC
  5
331
330
1F
100
AcDbEntity
  8
0-1
  6
Continuous
 62
     2
370
     9
100
AcDbCircle
 10
-410.1920514493375
 20
-114.3243020547401
 30
0.0
 40
2.000000025774982
100
AcDbArc
 50
270.0
 51
0.0002441406249917
  0
ARC
  5
332
330
1F
100
AcDbEntity
  8
0-1
  6
Continuous
 62
     2
370
     9
100
AcDbCircle
 10
-410.1920514493375
 20
-114.3243020547401
 30
0.0
 40
4.000000051549963
100
AcDbArc
 50
270.0001220703125
 51
0.0001220703125213
  0
ARC
  5
333
330
1F
100
AcDbEntity
  8
0-1
  6
Continuous
 62
     2
370
     9
100
AcDbCircle
 10
-387.1920250557564
 20
-114.32419070682
 30
0.0
 40
4.000000051549963
100
AcDbArc
 50
180.0001220703125
 51
270.0001220703125
  0
ARC
  5
334
330
1F
100
AcDbEntity
  8
0-1
  6
Continuous
 62
     2
370
     9
100
AcDbCircle
 10
-387.1920250557564
 20
-114.32419070682
 30
0.0
 40
2.000000025774982
100
AcDbArc
 50
180.000244140625
 51
270.0
  0
ARC
  5
335
330
1F
100
AcDbEntity
  8
0-1
  6
Continuous
 62
     2
370
     9
100
AcDbCircle
 10
-499.6920064977697
 20
20.67566082928641
 30
0.0
 40
2.000000025774982
100
AcDbArc
 50
180.0
 51
270.0
  0
ARC
  5
336
330
1F
100
AcDbEntity
  8
0-1
  6
Continuous
 62
     2
370
     9
100
AcDbCircle
 10
-494.1920502121384
 20
20.67566082928641
 30
0.0
 40
2.000000025774982
100
AcDbArc
 50
270.0
 51
0.0
  0
ARC
  5
337
330
1F
100
AcDbEntity
  8
0-1
  6
Continuous
 62
     2
370
     9
100
AcDbCircle
 10
-499.6920064977697
 20
20.67566082928641
 30
0.0
 40
4.000000051549963
100
AcDbArc
 50
180.0
 51
270.0
  0
ARC
  5
338
330
1F
100
AcDbEntity
  8
0-1
  6
Continuous
 62
     2
370
     9
100
AcDbCircle
 10
-494.1920502121384
 20
20.67566082928641
 30
0.0
 40
4.000000051549963
100
AcDbArc
 50
270.0
 51
331.0447845458984
  0
ARC
  5
339
330
1F
100
AcDbEntity
  8
0-1
  6
Continuous
 62
     2
370
     9
100
AcDbCircle
 10
-494.1920502121384
 20
-27.32442330025327
 30
0.0
 40
4.000000051549963
100
AcDbArc
 50
28.95521545410156
 51
90.0
  0
ARC
  5
33A
330
1F
100
AcDbEntity
  8
0-1
  6
Continuous
 62
     2
370
     9
100
AcDbCircle
 10
-499.6920064977697
 20
-27.32434906830639
 30
0.0
 40
2.000000025774982
100
AcDbArc
 50
90.0
 51
180.0
  0
ARC
  5
33B
330
1F
100
AcDbEntity
  8
0-1
  6
Continuous
 62
     2
370
     9
100
AcDbCircle
 10
-494.1920502121384
 20
-27.32442330025327
 30
0.0
 40
2.000000025774982
100
AcDbArc
 50
0.0
 51
90.0
  0
ARC
  5
33C
330
1F
100
AcDbEntity
  8
0-1
  6
Continuous
 62
     2
370
     9
100
AcDbCircle
 10
-499.6920064977697
 20
-27.32434906830639
 30
0.0
 40
4.000000051549963
100
AcDbArc
 50
90.0
 51
180.0
  0
ARC
  5
33D
330
1F
100
AcDbEntity
  8
0-1
  6
Continuous
 62
     2
370
     9
100
AcDbCircle
 10
-503.6920877405115
 20
-3.324381235483429
 30
0.0
 40
7.500001546498892
100
AcDbArc
 50
269.9999389648438
 51
89.99993896484376
  0
ARC
  5
33E
330
1F
100
AcDbEntity
  8
0-1
  6
Continuous
 62
     2
370
     9
100
AcDbCircle
 10
-503.6920877405115
 20
-3.324381235483429
 30
0.0
 40
9.500002152210959
100
AcDbArc
 50
269.9998931884766
 51
89.99989318847658
  0
ARC
  5
33F
330
1F
100
AcDbEntity
  8
0-1
  6
Continuous
 62
     2
370
     9
100
AcDbCircle
 10
-509.6920518617372
 20
-14.82439443227389
 30
0.0
 40
2.000000025774982
100
AcDbArc
 50
89.99975585937501
 51
180.0
  0
ARC
  5
340
330
1F
100
AcDbEntity
  8
0-1
  6
Continuous
 62
     2
370
     9
100
AcDbCircle
 10
-509.6920518617372
 20
-14.82439443227389
 30
0.0
 40
4.000000051549963
100
AcDbArc
 50
90.0
 51
180.0
  0
ARC
  5
341
330
1F
100
AcDbEntity
  8
0-1
  6
Continuous
 62
     2
370
     9
100
AcDbCircle
 10
-509.6920518617372
 20
8.175631961307118
 30
0.0
 40
4.000000051549963
100
AcDbArc
 50
180.0
 51
270.0
  0
ARC
  5
342
330
1F
100
AcDbEntity
  8
0-1
  6
Continuous
 62
     2
370
     9
100
AcDbCircle
 10
-509.6920518617372
 20
8.175631961307118
 30
0.0
 40
2.000000025774982
100
AcDbArc
 50
180.0
 51
269.999755859375
  0
ARC
  5
343
330
1F
100
AcDbEntity
  8
0-1
  6
Continuous
 62
     2
370
     9
100
AcDbCircle
 10
-494.1921801180453
 20
55.17562618771126
 30
0.0
 40
2.000000025774982
100
AcDbArc
 50
0.0
 51
90.0
  0
ARC
  5
344
330
1F
100
AcDbEntity
  8
0-1
  6
Continuous
 62
     2
370
     9
100
AcDbCircle
 10
-494.1921801180453
 20
55.17562618771126
 30
0.0
 40
4.000000051549963
100
AcDbArc
 50
28.95004272460938
 51
90.0
  0
ARC
  5
345
330
1F
100
AcDbEntity
  8
0-1
  6
Continuous
 62
     2
370
     9
100
AcDbCircle
 10
-422.6921174332903
 20
-98.82422617319443
 30
0.0
 40
2.000000025774982
100
AcDbArc
 50
0.000244140625
 51
90.00000000000001
  0
ARC
  5
346
330
1F
100
AcDbEntity
  8
0-1
  6
Continuous
 62
     2
370
     9
100
AcDbCircle
 10
-422.6921174332903
 20
-98.82422617319443
 30
0.0
 40
4.000000051549963
100
AcDbArc
 50
0.0001220703125
 51
61.04490661621094
  0
ARC
  5
347
330
1F
100
AcDbEntity
  8
0-1
  6
Continuous
 62
     2
370
     9
100
AcDbCircle
 10
-483.1919891769821
 20
-87.8243507179053
 30
0.0
 40
7.000000090212434
100
AcDbArc
 50
180.0001373291016
 51
270.0
  0
ARC
  5
348
330
1F
100
AcDbEntity
  8
0-1
  6
Continuous
 62
     2
370
     9
100
AcDbCircle
 10
-483.1919891769821
 20
-87.8243507179053
 30
0.0
 40
9.000000115987417
100
AcDbArc
 50
180.0000610351562
 51
270.0
  0
ARC
  5
349
330
1F
100
AcDbEntity
  8
0-1
  6
Continuous
 62
     2
370
     9
100
AcDbCircle
 10
-481.6919471122122
 20
-86.32434576910882
 30
0.0
 40
32.00000041239971
100
AcDbArc
 50
180.0000915527344
 51
270.0
  0
ARC
  5
34A
330
1F
100
AcDbEntity
  8
0-1
  6
Continuous
 62
     2
370
     9
100
AcDbCircle
 10
-481.6919471122122
 20
-86.32434576910882
 30
0.0
 40
30.00000154649889
100
AcDbArc
 50
180.0001068115234
 51
270.0
  0
ARC
  5
34B
330
1F
100
AcDbEntity
  8
0-1
  6
Continuous
 62
     2
370
     9
100
AcDbCircle
 10
-478.1920221689585
 20
301.1756212389149
 30
0.0
 40
5.000000064437454
100
AcDbArc
 50
90.0
 51
180.0
  0
ARC
  5
34C
330
1F
100
AcDbEntity
  8
0-1
  6
Continuous
 62
     2
370
     9
100
AcDbCircle
 10
-499.6922848675703
 20
163.1756484572953
 30
0.0
 40
2.000000025774982
100
AcDbArc
 50
180.0
 51
270.0
  0
ARC
  5
34D
330
1F
100
AcDbEntity
  8
0-1
  6
Continuous
 62
     2
370
     9
100
AcDbCircle
 10
-374.6919961877771
 20
322.6754199878591
 30
0.0
 40
2.000000025774982
100
AcDbArc
 50
90.0
 51
180.0
  0
ARC
  5
34E
330
1F
100
AcDbEntity
  8
0-1
  6
Continuous
 62
     2
370
     9
100
AcDbCircle
 10
-374.6919961877771
 20
317.1754265862544
 30
0.0
 40
2.000000025774982
100
AcDbArc
 50
180.0
 51
270.0
  0
ARC
  5
34F
330
1F
100
AcDbEntity
  8
0-1
  6
Continuous
 62
     2
370
     9
100
AcDbCircle
 10
-374.6919961877771
 20
322.6754199878591
 30
0.0
 40
4.000000051549963
100
AcDbArc
 50
90.0
 51
180.0
  0
ARC
  5
350
330
1F
100
AcDbEntity
  8
0-1
  6
Continuous
 62
     2
370
     9
100
AcDbCircle
 10
-374.6919961877771
 20
317.1754265862544
 30
0.0
 40
4.000000051549963
100
AcDbArc
 50
180.0
 51
241.0447845458984
  0
ARC
  5
351
330
1F
100
AcDbEntity
  8
0-1
  6
Continuous
 62
     2
370
     9
100
AcDbCircle
 10
-422.6921174332903
 20
322.6755684517527
 30
0.0
 40
2.000000025774982
100
AcDbArc
 50
0.0
 51
90.0
  0
ARC
  5
352
330
1F
100
AcDbEntity
  8
0-1
  6
Continuous
 62
     2
370
     9
100
AcDbCircle
 10
-422.6921174332903
 20
322.6755684517527
 30
0.0
 40
4.000000051549963
100
AcDbArc
 50
0.0
 51
90.0
  0
ARC
  5
353
330
1F
100
AcDbEntity
  8
0-1
  6
Continuous
 62
     2
370
     9
100
AcDbCircle
 10
-499.6922848675703
 20
163.1756484572953
 30
0.0
 40
4.000000051549963
100
AcDbArc
 50
180.0
 51
270.0
  0
ARC
  5
354
330
1F
100
AcDbEntity
  8
0-1
  6
Continuous
 62
     2
370
     9
100
AcDbCircle
 10
-398.6920382525469
 20
326.6756311365077
 30
0.0
 40
7.500001546498892
100
AcDbArc
 50
179.9996643066406
 51
359.9996643066406
  0
ARC
  5
355
330
1F
100
AcDbEntity
  8
0-1
  6
Continuous
 62
     2
370
     9
100
AcDbCircle
 10
-398.6920382525469
 20
326.6756311365077
 30
0.0
 40
9.500002152210959
100
AcDbArc
 50
179.9996795654297
 51
359.9996795654297
  0
ARC
  5
356
330
1F
100
AcDbEntity
  8
0-1
  6
Continuous
 62
     2
370
     9
100
AcDbCircle
 10
-410.1920514493375
 20
332.6755024678
 30
0.0
 40
2.000000025774982
100
AcDbArc
 50
359.999755859375
 51
90.0
  0
ARC
  5
357
330
1F
100
AcDbEntity
  8
0-1
  6
Continuous
 62
     2
370
     9
100
AcDbCircle
 10
-410.1920514493375
 20
332.6755024678
 30
0.0
 40
4.000000051549963
100
AcDbArc
 50
0.0
 51
90.0
  0
ARC
  5
358
330
1F
100
AcDbEntity
  8
0-1
  6
Continuous
 62
     2
370
     9
100
AcDbCircle
 10
-387.1920250557564
 20
332.6755024678
 30
0.0
 40
4.000000051549963
100
AcDbArc
 50
90.0
 51
180.0
  0
ARC
  5
359
330
1F
100
AcDbEntity
  8
0-1
  6
Continuous
 62
     2
370
     9
100
AcDbCircle
 10
-387.1920250557564
 20
332.6755024678
 30
0.0
 40
2.000000025774982
100
AcDbArc
 50
90.0
 51
179.999755859375
  0
ARC
  5
35A
330
1F
100
AcDbEntity
  8
0-1
  6
Continuous
 62
     2
370
     9
100
AcDbCircle
 10
-499.6920064977697
 20
197.6755766997467
 30
0.0
 40
2.000000025774982
100
AcDbArc
 50
90.0
 51
180.0
  0
ARC
  5
35B
330
1F
100
AcDbEntity
  8
0-1
  6
Continuous
 62
     2
370
     9
100
AcDbCircle
 10
-494.1920502121384
 20
197.6755024677999
 30
0.0
 40
2.000000025774982
100
AcDbArc
 50
0.0
 51
90.0
  0
ARC
  5
35C
330
1F
100
AcDbEntity
  8
0-1
  6
Continuous
 62
     2
370
     9
100
AcDbCircle
 10
-499.6920064977697
 20
197.6755766997467
 30
0.0
 40
4.000000051549963
100
AcDbArc
 50
90.0
 51
180.0
  0
ARC
  5
35D
330
1F
100
AcDbEntity
  8
0-1
  6
Continuous
 62
     2
370
     9
100
AcDbCircle
 10
-494.1920502121384
 20
197.6755024677999
 30
0.0
 40
4.000000051549963
100
AcDbArc
 50
28.95521545410156
 51
90.0
  0
ARC
  5
35E
330
1F
100
AcDbEntity
  8
0-1
  6
Continuous
 62
     2
370
     9
100
AcDbCircle
 10
-494.1920502121384
 20
245.6756608292865
 30
0.0
 40
4.000000051549963
100
AcDbArc
 50
270.0
 51
331.0447845458984
  0
ARC
  5
35F
330
1F
100
AcDbEntity
  8
0-1
  6
Continuous
 62
     2
370
     9
100
AcDbCircle
 10
-499.6920064977697
 20
245.6756608292865
 30
0.0
 40
2.000000025774982
100
AcDbArc
 50
180.0
 51
270.0
  0
ARC
  5
360
330
1F
100
AcDbEntity
  8
0-1
  6
Continuous
 62
     2
370
     9
100
AcDbCircle
 10
-494.1920502121384
 20
245.6756608292865
 30
0.0
 40
2.000000025774982
100
AcDbArc
 50
270.0
 51
0.0
  0
ARC
  5
361
330
1F
100
AcDbEntity
  8
0-1
  6
Continuous
 62
     2
370
     9
100
AcDbCircle
 10
-499.6920064977697
 20
245.6756608292865
 30
0.0
 40
4.000000051549963
100
AcDbArc
 50
180.0
 51
270.0
  0
ARC
  5
362
330
1F
100
AcDbEntity
  8
0-1
  6
Continuous
 62
     2
370
     9
100
AcDbCircle
 10
-503.6920877405115
 20
221.6755816485432
 30
0.0
 40
7.500001546498892
100
AcDbArc
 50
270.0000610351562
 51
90.00006103515624
  0
ARC
  5
363
330
1F
100
AcDbEntity
  8
0-1
  6
Continuous
 62
     2
370
     9
100
AcDbCircle
 10
-503.6920877405115
 20
221.6755816485432
 30
0.0
 40
9.500002152210959
100
AcDbArc
 50
270.0001068115234
 51
90.00010681152342
  0
ARC
  5
364
330
1F
100
AcDbEntity
  8
0-1
  6
Continuous
 62
     2
370
     9
100
AcDbCircle
 10
-509.6920518617372
 20
233.1756690772806
 30
0.0
 40
2.000000025774982
100
AcDbArc
 50
180.0
 51
270.000244140625
  0
ARC
  5
365
330
1F
100
AcDbEntity
  8
0-1
  6
Continuous
 62
     2
370
     9
100
AcDbCircle
 10
-509.6920518617372
 20
233.1756690772806
 30
0.0
 40
4.000000051549963
100
AcDbArc
 50
180.0
 51
270.0
  0
ARC
  5
366
330
1F
100
AcDbEntity
  8
0-1
  6
Continuous
 62
     2
370
     9
100
AcDbCircle
 10
-509.6920518617372
 20
210.1755684517527
 30
0.0
 40
4.000000051549963
100
AcDbArc
 50
90.0
 51
180.0
  0
ARC
  5
367
330
1F
100
AcDbEntity
  8
0-1
  6
Continuous
 62
     2
370
     9
100
AcDbCircle
 10
-509.6920518617372
 20
210.1755684517527
 30
0.0
 40
2.000000025774982
100
AcDbArc
 50
90.00024414062499
 51
180.0
  0
ARC
  5
368
330
1F
100
AcDbEntity
  8
0-1
  6
Continuous
 62
     2
370
     9
100
AcDbCircle
 10
-494.1921801180453
 20
163.1756484572953
 30
0.0
 40
2.000000025774982
100
AcDbArc
 50
270.0
 51
0.0
  0
ARC
  5
369
330
1F
100
AcDbEntity
  8
0-1
  6
Continuous
 62
     2
370
     9
100
AcDbCircle
 10
-494.1921801180453
 20
163.1756484572953
 30
0.0
 40
4.000000051549963
100
AcDbArc
 50
270.0
 51
331.0499572753906
  0
ARC
  5
36A
330
1F
100
AcDbEntity
  8
0-1
  6
Continuous
 62
     2
370
     9
100
AcDbCircle
 10
-422.6921174332903
 20
317.175575050148
 30
0.0
 40
2.000000025774982
100
AcDbArc
 50
270.0
 51
359.999755859375
  0
ARC
  5
36B
330
1F
100
AcDbEntity
  8
0-1
  6
Continuous
 62
     2
370
     9
100
AcDbCircle
 10
-422.6921174332903
 20
317.175575050148
 30
0.0
 40
4.000000051549963
100
AcDbArc
 50
298.9552154541016
 51
0.0
  0
ARC
  5
36C
330
1F
100
AcDbEntity
  8
0-1
  6
Continuous
 62
     2
370
     9
100
AcDbCircle
 10
-483.1919891769821
 20
306.1755882469386
 30
0.0
 40
7.000000090212434
100
AcDbArc
 50
90.0
 51
179.9998626708984
  0
ARC
  5
36D
330
1F
100
AcDbEntity
  8
0-1
  6
Continuous
 62
     2
370
     9
100
AcDbCircle
 10
-483.1919891769821
 20
306.1755882469386
 30
0.0
 40
9.000000115987417
100
AcDbArc
 50
90.0
 51
179.9999389648438
  0
ARC
  5
36E
330
1F
100
AcDbEntity
  8
0-1
  6
Continuous
 62
     2
370
     9
100
AcDbCircle
 10
-481.6919471122122
 20
304.675583298142
 30
0.0
 40
22.00000144339897
100
AcDbArc
 50
90.0
 51
179.9998626708984
  0
ARC
  5
36F
330
1F
100
AcDbEntity
  8
0-1
  6
Continuous
 62
     2
370
     9
100
AcDbCircle
 10
-481.6919471122122
 20
304.675583298142
 30
0.0
 40
20.00000025774982
100
AcDbArc
 50
90.0
 51
179.9998779296875
  0
ARC
  5
370
330
1F
100
AcDbEntity
  8
0-1
  6
Continuous
 62
     2
370
     9
100
AcDbCircle
 10
-481.6919471122122
 20
304.675583298142
 30
0.0
 40
32.00000041239971
100
AcDbArc
 50
90.0
 51
179.9999084472656
  0
ARC
  5
371
330
1F
100
AcDbEntity
  8
0-1
  6
Continuous
 62
     2
370
     9
100
AcDbCircle
 10
-481.6919471122122
 20
304.675583298142
 30
0.0
 40
30.00000154649889
100
AcDbArc
 50
90.0
 51
179.9998931884766
  0
ARC
  5
372
330
1F
100
AcDbEntity
  8
0-1
  6
Continuous
 62
     2
370
     9
100
AcDbCircle
 10
-94.19199866217531
 20
-82.82438370988163
 30
0.0
 40
5.000000064437454
100
AcDbArc
 50
270.0
 51
0.0
  0
ARC
  5
373
330
1F
100
AcDbEntity
  8
0-1
  6
Continuous
 62
     2
370
     9
100
AcDbCircle
 10
-72.69168028960351
 20
55.17562618771126
 30
0.0
 40
2.000000025774982
100
AcDbArc
 50
0.0
 51
90.0
  0
ARC
  5
374
330
1F
100
AcDbEntity
  8
0-1
  6
Continuous
 62
     2
370
     9
100
AcDbCircle
 10
-197.69200608537
 20
-104.3241824588259
 30
0.0
 40
2.000000025774982
100
AcDbArc
 50
270.0
 51
0.0
  0
ARC
  5
375
330
1F
100
AcDbEntity
  8
0-1
  6
Continuous
 62
     2
370
     9
100
AcDbCircle
 10
-197.69200608537
 20
-98.82418905722108
 30
0.0
 40
2.000000025774982
100
AcDbArc
 50
0.0
 51
90.0
  0
ARC
  5
376
330
1F
100
AcDbEntity
  8
0-1
  6
Continuous
 62
     2
370
     9
100
AcDbCircle
 10
-197.69200608537
 20
-104.3241824588259
 30
0.0
 40
4.000000051549963
100
AcDbArc
 50
269.9998779296876
 51
359.9998779296875
  0
ARC
  5
377
330
1F
100
AcDbEntity
  8
0-1
  6
Continuous
 62
     2
370
     9
100
AcDbCircle
 10
-197.69200608537
 20
-98.82418905722108
 30
0.0
 40
4.000000051549963
100
AcDbArc
 50
359.9998779296875
 51
61.04466247558592
  0
ARC
  5
378
330
1F
100
AcDbEntity
  8
0-1
  6
Continuous
 62
     2
370
     9
100
AcDbCircle
 10
-149.6919590718038
 20
-104.3242195747992
 30
0.0
 40
2.000000025774982
100
AcDbArc
 50
180.0
 51
270.0
  0
ARC
  5
379
330
1F
100
AcDbEntity
  8
0-1
  6
Continuous
 62
     2
370
     9
100
AcDbCircle
 10
-149.6919590718038
 20
-104.3242195747992
 30
0.0
 40
4.000000051549963
100
AcDbArc
 50
179.9998779296875
 51
269.9998779296876
  0
ARC
  5
37A
330
1F
100
AcDbEntity
  8
0-1
  6
Continuous
 62
     2
370
     9
100
AcDbCircle
 10
-72.69168028960351
 20
55.17562618771126
 30
0.0
 40
4.000000051549963
100
AcDbArc
 50
0.0
 51
90.0
  0
ARC
  5
37B
330
1F
100
AcDbEntity
  8
0-1
  6
Continuous
 62
     2
370
     9
100
AcDbCircle
 10
-173.6920011365735
 20
-108.324430723448
 30
0.0
 40
7.500001546498892
100
AcDbArc
 50
359.9998016357422
 51
179.9998016357422
  0
ARC
  5
37C
330
1F
100
AcDbEntity
  8
0-1
  6
Continuous
 62
     2
370
     9
100
AcDbCircle
 10
-173.6920011365735
 20
-108.324430723448
 30
0.0
 40
9.500002152210959
100
AcDbArc
 50
359.9997863769531
 51
179.9997863769531
  0
ARC
  5
37D
330
1F
100
AcDbEntity
  8
0-1
  6
Continuous
 62
     2
370
     9
100
AcDbCircle
 10
-162.1919879397831
 20
-114.3243020547401
 30
0.0
 40
2.000000025774982
100
AcDbArc
 50
179.999755859375
 51
270.0
  0
ARC
  5
37E
330
1F
100
AcDbEntity
  8
0-1
  6
Continuous
 62
     2
370
     9
100
AcDbCircle
 10
-162.1919879397831
 20
-114.3243020547401
 30
0.0
 40
4.000000051549963
100
AcDbArc
 50
179.9998779296875
 51
269.9998779296876
  0
ARC
  5
37F
330
1F
100
AcDbEntity
  8
0-1
  6
Continuous
 62
     2
370
     9
100
AcDbCircle
 10
-185.1919772173907
 20
-114.32419070682
 30
0.0
 40
4.000000051549963
100
AcDbArc
 50
269.9998779296876
 51
359.9998779296875
  0
ARC
  5
380
330
1F
100
AcDbEntity
  8
0-1
  6
Continuous
 62
     2
370
     9
100
AcDbCircle
 10
-185.1919772173907
 20
-114.32419070682
 30
0.0
 40
2.000000025774982
100
AcDbArc
 50
270.0
 51
359.999755859375
  0
ARC
  5
381
330
1F
100
AcDbEntity
  8
0-1
  6
Continuous
 62
     2
370
     9
100
AcDbCircle
 10
-72.6919772173907
 20
20.67566082928641
 30
0.0
 40
2.000000025774982
100
AcDbArc
 50
270.0
 51
0.0
  0
ARC
  5
382
330
1F
100
AcDbEntity
  8
0-1
  6
Continuous
 62
     2
370
     9
100
AcDbCircle
 10
-78.19200773496883
 20
20.67566082928641
 30
0.0
 40
2.000000025774982
100
AcDbArc
 50
180.0
 51
270.0
  0
ARC
  5
383
330
1F
100
AcDbEntity
  8
0-1
  6
Continuous
 62
     2
370
     9
100
AcDbCircle
 10
-72.6919772173907
 20
20.67566082928641
 30
0.0
 40
4.000000051549963
100
AcDbArc
 50
270.0
 51
0.0
  0
ARC
  5
384
330
1F
100
AcDbEntity
  8
0-1
  6
Continuous
 62
     2
370
     9
100
AcDbCircle
 10
-78.19200773496883
 20
20.67566082928641
 30
0.0
 40
4.000000051549963
100
AcDbArc
 50
208.9552154541016
 51
270.0
  0
ARC
  5
385
330
1F
100
AcDbEntity
  8
0-1
  6
Continuous
 62
     2
370
     9
100
AcDbCircle
 10
-78.19200773496883
 20
-27.32442330025327
 30
0.0
 40
4.000000051549963
100
AcDbArc
 50
90.0
 51
151.0447845458984
  0
ARC
  5
386
330
1F
100
AcDbEntity
  8
0-1
  6
Continuous
 62
     2
370
     9
100
AcDbCircle
 10
-72.6919772173907
 20
-27.32434906830639
 30
0.0
 40
2.000000025774982
100
AcDbArc
 50
0.0
 51
90.0
  0
ARC
  5
387
330
1F
100
AcDbEntity
  8
0-1
  6
Continuous
 62
     2
370
     9
100
AcDbCircle
 10
-78.19200773496883
 20
-27.32442330025327
 30
0.0
 40
2.000000025774982
100
AcDbArc
 50
90.0
 51
180.0
  0
ARC
  5
388
330
1F
100
AcDbEntity
  8
0-1
  6
Continuous
 62
     2
370
     9
100
AcDbCircle
 10
-72.6919772173907
 20
-27.32434906830639
 30
0.0
 40
4.000000051549963
100
AcDbArc
 50
0.0
 51
90.0
  0
ARC
  5
389
330
1F
100
AcDbEntity
  8
0-1
  6
Continuous
 62
     2
370
     9
100
AcDbCircle
 10
-68.69180318471547
 20
-3.324381235483429
 30
0.0
 40
7.500001546498892
100
AcDbArc
 50
90.00006103515625
 51
270.0000610351562
  0
ARC
  5
38A
330
1F
100
AcDbEntity
  8
0-1
  6
Continuous
 62
     2
370
     9
100
AcDbCircle
 10
-68.69180318471547
 20
-3.324381235483429
 30
0.0
 40
9.500002152210959
100
AcDbArc
 50
90.00010681152345
 51
270.0001068115234
  0
ARC
  5
38B
330
1F
100
AcDbEntity
  8
0-1
  6
Continuous
 62
     2
370
     9
100
AcDbCircle
 10
-62.6919318534232
 20
-14.82439443227389
 30
0.0
 40
2.000000025774982
100
AcDbArc
 50
0.0
 51
90.00024414062499
  0
ARC
  5
38C
330
1F
100
AcDbEntity
  8
0-1
  6
Continuous
 62
     2
370
     9
100
AcDbCircle
 10
-62.6919318534232
 20
-14.82439443227389
 30
0.0
 40
4.000000051549963
100
AcDbArc
 50
0.0
 51
90.0
  0
ARC
  5
38D
330
1F
100
AcDbEntity
  8
0-1
  6
Continuous
 62
     2
370
     9
100
AcDbCircle
 10
-62.6919318534232
 20
8.175631961307118
 30
0.0
 40
4.000000051549963
100
AcDbArc
 50
270.0
 51
0.0
  0
ARC
  5
38E
330
1F
100
AcDbEntity
  8
0-1
  6
Continuous
 62
     2
370
     9
100
AcDbCircle
 10
-62.6919318534232
 20
8.175631961307118
 30
0.0
 40
2.000000025774982
100
AcDbArc
 50
270.000244140625
 51
0.0
  0
ARC
  5
38F
330
1F
100
AcDbEntity
  8
0-1
  6
Continuous
 62
     2
370
     9
100
AcDbCircle
 10
-78.19182215510187
 20
55.17562618771126
 30
0.0
 40
2.000000025774982
100
AcDbArc
 50
90.0
 51
180.0
  0
ARC
  5
390
330
1F
100
AcDbEntity
  8
0-1
  6
Continuous
 62
     2
370
     9
100
AcDbCircle
 10
-78.19182215510187
 20
55.17562618771126
 30
0.0
 40
4.000000051549963
100
AcDbArc
 50
90.0
 51
151.0499572753906
  0
ARC
  5
391
330
1F
100
AcDbEntity
  8
0-1
  6
Continuous
 62
     2
370
     9
100
AcDbCircle
 10
-149.6919590718038
 20
-98.82422617319443
 30
0.0
 40
2.000000025774982
100
AcDbArc
 50
90.0
 51
179.999755859375
  0
ARC
  5
392
330
1F
100
AcDbEntity
  8
0-1
  6
Continuous
 62
     2
370
     9
100
AcDbCircle
 10
-149.6919590718038
 20
-98.82422617319443
 30
0.0
 40
4.000000051549963
100
AcDbArc
 50
118.955093383789
 51
179.9998779296875
  0
ARC
  5
393
330
1F
100
AcDbEntity
  8
0-1
  6
Continuous
 62
     2
370
     9
100
AcDbCircle
 10
-89.19192030623157
 20
-87.8243507179053
 30
0.0
 40
7.000000090212434
100
AcDbArc
 50
270.0
 51
359.9998626708984
  0
ARC
  5
394
330
1F
100
AcDbEntity
  8
0-1
  6
Continuous
 62
     2
370
     9
100
AcDbCircle
 10
-89.19192030623157
 20
-87.8243507179053
 30
0.0
 40
9.000000115987417
100
AcDbArc
 50
270.0
 51
359.9999389648438
  0
ARC
  5
395
330
1F
100
AcDbEntity
  8
0-1
  6
Continuous
 62
     2
370
     9
100
AcDbCircle
 10
-90.69192525502797
 20
-86.32434576910882
 30
0.0
 40
22.00000144339897
100
AcDbArc
 50
270.0
 51
359.9998626708984
  0
ARC
  5
396
330
1F
100
AcDbEntity
  8
0-1
  6
Continuous
 62
     2
370
     9
100
AcDbCircle
 10
-90.69192525502797
 20
-86.32434576910882
 30
0.0
 40
20.00000025774982
100
AcDbArc
 50
270.0
 51
359.9998779296875
  0
ARC
  5
397
330
1F
100
AcDbEntity
  8
0-1
  6
Continuous
 62
     2
370
     9
100
AcDbCircle
 10
-90.69192525502797
 20
-86.32434576910882
 30
0.0
 40
32.00000041239971
100
AcDbArc
 50
270.0
 51
359.9999084472656
  0
ARC
  5
398
330
1F
100
AcDbEntity
  8
0-1
  6
Continuous
 62
     2
370
     9
100
AcDbCircle
 10
-90.69192525502797
 20
-86.32434576910882
 30
0.0
 40
30.00000154649889
100
AcDbArc
 50
270.0
 51
359.9998931884766
  0
ARC
  5
399
330
1F
100
AcDbEntity
  8
0-1
  6
Continuous
 62
     2
370
     9
100
AcDbCircle
 10
-94.19199866217531
 20
301.1756212389149
 30
0.0
 40
5.000000064437454
100
AcDbArc
 50
0.0
 51
90.0
  0
ARC
  5
39A
330
1F
100
AcDbEntity
  8
0-1
  6
Continuous
 62
     2
370
     9
100
AcDbCircle
 10
-72.69168028960351
 20
163.1756484572953
 30
0.0
 40
2.000000025774982
100
AcDbArc
 50
270.0
 51
0.0
  0
ARC
  5
39B
330
1F
100
AcDbEntity
  8
0-1
  6
Continuous
 62
     2
370
     9
100
AcDbCircle
 10
-197.69200608537
 20
322.6754199878591
 30
0.0
 40
2.000000025774982
100
AcDbArc
 50
0.0
 51
90.0
  0
ARC
  5
39C
330
1F
100
AcDbEntity
  8
0-1
  6
Continuous
 62
     2
370
     9
100
AcDbCircle
 10
-197.69200608537
 20
317.1754265862544
 30
0.0
 40
2.000000025774982
100
AcDbArc
 50
270.0
 51
0.0
  0
ARC
  5
39D
330
1F
100
AcDbEntity
  8
0-1
  6
Continuous
 62
     2
370
     9
100
AcDbCircle
 10
-197.69200608537
 20
322.6754199878591
 30
0.0
 40
4.000000051549963
100
AcDbArc
 50
0.0
 51
90.0
  0
ARC
  5
39E
330
1F
100
AcDbEntity
  8
0-1
  6
Continuous
 62
     2
370
     9
100
AcDbCircle
 10
-197.69200608537
 20
317.1754265862544
 30
0.0
 40
4.000000051549963
100
AcDbArc
 50
298.9552154541016
 51
0.0
  0
ARC
  5
39F
330
1F
100
AcDbEntity
  8
0-1
  6
Continuous
 62
     2
370
     9
100
AcDbCircle
 10
-149.6919590718038
 20
322.6755684517527
 30
0.0
 40
2.000000025774982
100
AcDbArc
 50
90.0
 51
180.0
  0
ARC
  5
3A0
330
1F
100
AcDbEntity
  8
0-1
  6
Continuous
 62
     2
370
     9
100
AcDbCircle
 10
-149.6919590718038
 20
322.6755684517527
 30
0.0
 40
4.000000051549963
100
AcDbArc
 50
90.0
 51
180.0
  0
ARC
  5
3A1
330
1F
100
AcDbEntity
  8
0-1
  6
Continuous
 62
     2
370
     9
100
AcDbCircle
 10
-72.69168028960351
 20
163.1756484572953
 30
0.0
 40
4.000000051549963
100
AcDbArc
 50
270.0
 51
0.0
  0
ARC
  5
3A2
330
1F
100
AcDbEntity
  8
0-1
  6
Continuous
 62
     2
370
     9
100
AcDbCircle
 10
-173.6920011365735
 20
326.6756311365077
 30
0.0
 40
7.500001546498892
100
AcDbArc
 50
180.0003356933594
 51
0.0003356933593954
  0
ARC
  5
3A3
330
1F
100
AcDbEntity
  8
0-1
  6
Continuous
 62
     2
370
     9
100
AcDbCircle
 10
-173.6920011365735
 20
326.6756311365077
 30
0.0
 40
9.500002152210959
100
AcDbArc
 50
180.0003204345703
 51
0.0003204345703239
  0
ARC
  5
3A4
330
1F
100
AcDbEntity
  8
0-1
  6
Continuous
 62
     2
370
     9
100
AcDbCircle
 10
-162.1919879397831
 20
332.6755024678
 30
0.0
 40
2.000000025774982
100
AcDbArc
 50
90.0
 51
180.000244140625
  0
ARC
  5
3A5
330
1F
100
AcDbEntity
  8
0-1
  6
Continuous
 62
     2
370
     9
100
AcDbCircle
 10
-162.1919879397831
 20
332.6755024678
 30
0.0
 40
4.000000051549963
100
AcDbArc
 50
90.0
 51
180.0
  0
ARC
  5
3A6
330
1F
100
AcDbEntity
  8
0-1
  6
Continuous
 62
     2
370
     9
100
AcDbCircle
 10
-185.1919772173907
 20
332.6755024678
 30
0.0
 40
4.000000051549963
100
AcDbArc
 50
0.0
 51
90.0
  0
ARC
  5
3A7
330
1F
100
AcDbEntity
  8
0-1
  6
Continuous
 62
     2
370
     9
100
AcDbCircle
 10
-185.1919772173907
 20
332.6755024678
 30
0.0
 40
2.000000025774982
100
AcDbArc
 50
0.000244140625
 51
90.00000000000001
  0
ARC
  5
3A8
330
1F
100
AcDbEntity
  8
0-1
  6
Continuous
 62
     2
370
     9
100
AcDbCircle
 10
-72.6919772173907
 20
197.6755766997467
 30
0.0
 40
2.000000025774982
100
AcDbArc
 50
0.0
 51
90.0
  0
ARC
  5
3A9
330
1F
100
AcDbEntity
  8
0-1
  6
Continuous
 62
     2
370
     9
100
AcDbCircle
 10
-78.19200773496883
 20
197.6755024677999
 30
0.0
 40
2.000000025774982
100
AcDbArc
 50
90.0
 51
180.0
  0
ARC
  5
3AA
330
1F
100
AcDbEntity
  8
0-1
  6
Continuous
 62
     2
370
     9
100
AcDbCircle
 10
-72.6919772173907
 20
197.6755766997467
 30
0.0
 40
4.000000051549963
100
AcDbArc
 50
0.0
 51
90.0
  0
ARC
  5
3AB
330
1F
100
AcDbEntity
  8
0-1
  6
Continuous
 62
     2
370
     9
100
AcDbCircle
 10
-78.19200773496883
 20
197.6755024677999
 30
0.0
 40
4.000000051549963
100
AcDbArc
 50
90.0
 51
151.0447845458984
  0
ARC
  5
3AC
330
1F
100
AcDbEntity
  8
0-1
  6
Continuous
 62
     2
370
     9
100
AcDbCircle
 10
-78.19200773496883
 20
245.6756608292865
 30
0.0
 40
4.000000051549963
100
AcDbArc
 50
208.9552154541016
 51
270.0
  0
ARC
  5
3AD
330
1F
100
AcDbEntity
  8
0-1
  6
Continuous
 62
     2
370
     9
100
AcDbCircle
 10
-72.6919772173907
 20
245.6756608292865
 30
0.0
 40
2.000000025774982
100
AcDbArc
 50
270.0
 51
0.0
  0
ARC
  5
3AE
330
1F
100
AcDbEntity
  8
0-1
  6
Continuous
 62
     2
370
     9
100
AcDbCircle
 10
-78.19200773496883
 20
245.6756608292865
 30
0.0
 40
2.000000025774982
100
AcDbArc
 50
180.0
 51
270.0
  0
ARC
  5
3AF
330
1F
100
AcDbEntity
  8
0-1
  6
Continuous
 62
     2
370
     9
100
AcDbCircle
 10
-72.6919772173907
 20
245.6756608292865
 30
0.0
 40
4.000000051549963
100
AcDbArc
 50
270.0
 51
0.0
  0
ARC
  5
3B0
330
1F
100
AcDbEntity
  8
0-1
  6
Continuous
 62
     2
370
     9
100
AcDbCircle
 10
-68.69180318471547
 20
221.6755816485432
 30
0.0
 40
7.500001546498892
100
AcDbArc
 50
89.99993896484375
 51
269.9999389648438
  0
ARC
  5
3B1
330
1F
100
AcDbEntity
  8
0-1
  6
Continuous
 62
     2
370
     9
100
AcDbCircle
 10
-68.69180318471547
 20
221.6755816485432
 30
0.0
 40
9.500002152210959
100
AcDbArc
 50
89.99989318847656
 51
269.9998931884766
  0
ARC
  5
3B2
330
1F
100
AcDbEntity
  8
0-1
  6
Continuous
 62
     2
370
     9
100
AcDbCircle
 10
-62.6919318534232
 20
233.1756690772806
 30
0.0
 40
2.000000025774982
100
AcDbArc
 50
269.999755859375
 51
0.0
  0
ARC
  5
3B3
330
1F
100
AcDbEntity
  8
0-1
  6
Continuous
 62
     2
370
     9
100
AcDbCircle
 10
-62.6919318534232
 20
233.1756690772806
 30
0.0
 40
4.000000051549963
100
AcDbArc
 50
270.0
 51
0.0
  0
ARC
  5
3B4
330
1F
100
AcDbEntity
  8
0-1
  6
Continuous
 62
     2
370
     9
100
AcDbCircle
 10
-62.6919318534232
 20
210.1755684517527
 30
0.0
 40
4.000000051549963
100
AcDbArc
 50
0.0
 51
90.0
  0
ARC
  5
3B5
330
1F
100
AcDbEntity
  8
0-1
  6
Continuous
 62
     2
370
     9
100
AcDbCircle
 10
-62.6919318534232
 20
210.1755684517527
 30
0.0
 40
2.000000025774982
100
AcDbArc
 50
0.0
 51
89.99975585937501
  0
ARC
  5
3B6
330
1F
100
AcDbEntity
  8
0-1
  6
Continuous
 62
     2
370
     9
100
AcDbCircle
 10
-78.19182215510187
 20
163.1756484572953
 30
0.0
 40
2.000000025774982
100
AcDbArc
 50
180.0
 51
270.0
  0
ARC
  5
3B7
330
1F
100
AcDbEntity
  8
0-1
  6
Continuous
 62
     2
370
     9
100
AcDbCircle
 10
-78.19182215510187
 20
163.1756484572953
 30
0.0
 40
4.000000051549963
100
AcDbArc
 50
208.9500427246094
 51
270.0
  0
ARC
  5
3B8
330
1F
100
AcDbEntity
  8
0-1
  6
Continuous
 62
     2
370
     9
100
AcDbCircle
 10
-149.6919590718038
 20
317.175575050148
 30
0.0
 40
2.000000025774982
100
AcDbArc
 50
180.000244140625
 51
270.0
  0
ARC
  5
3B9
330
1F
100
AcDbEntity
  8
0-1
  6
Continuous
 62
     2
370
     9
100
AcDbCircle
 10
-149.6919590718038
 20
317.175575050148
 30
0.0
 40
4.000000051549963
100
AcDbArc
 50
180.0
 51
241.0447845458984
  0
ARC
  5
3BA
330
1F
100
AcDbEntity
  8
0-1
  6
Continuous
 62
     2
370
     9
100
AcDbCircle
 10
-89.19192030623157
 20
306.1755882469386
 30
0.0
 40
7.000000090212434
100
AcDbArc
 50
0.0001373291015625
 51
90.00000000000001
  0
ARC
  5
3BB
330
1F
100
AcDbEntity
  8
0-1
  6
Continuous
 62
     2
370
     9
100
AcDbCircle
 10
-89.19192030623157
 20
306.1755882469386
 30
0.0
 40
9.000000115987417
100
AcDbArc
 50
0.00006103515625
 51
90.0
  0
ARC
  5
3BC
330
1F
100
AcDbEntity
  8
0-1
  6
Continuous
 62
     2
370
     9
100
AcDbCircle
 10
-90.69192525502797
 20
304.675583298142
 30
0.0
 40
22.00000144339897
100
AcDbArc
 50
0.0001373291015625
 51
90.00000000000001
  0
ARC
  5
3BD
330
1F
100
AcDbEntity
  8
0-1
  6
Continuous
 62
     2
370
     9
100
AcDbCircle
 10
-90.69192525502797
 20
304.675583298142
 30
0.0
 40
20.00000025774982
100
AcDbArc
 50
0.0001220703125
 51
90.0
  0
ARC
  5
3BE
330
1F
100
AcDbEntity
  8
0-1
  6
Continuous
 62
     2
370
     9
100
AcDbCircle
 10
-90.69192525502797
 20
304.675583298142
 30
0.0
 40
32.00000041239971
100
AcDbArc
 50
0.000091552734375
 51
90.0
  0
ARC
  5
3BF
330
1F
100
AcDbEntity
  8
0-1
  6
Continuous
 62
     2
370
     9
100
AcDbCircle
 10
-90.69192525502797
 20
304.675583298142
 30
0.0
 40
30.00000154649889
100
AcDbArc
 50
0.0001068115234375
 51
90.0
  0
ARC
  5
3C0
330
1F
100
AcDbEntity
  8
0-1
  6
Continuous
 62
     2
370
     9
100
AcDbCircle
 10
237.9565831777211
 20
311.8513628985432
 30
0.0
 40
1.500000019331236
100
AcDbArc
 50
97.12496948242188
 51
180.0
  0
ARC
  5
3C1
330
1F
100
AcDbEntity
  8
0-1
  6
Continuous
 62
     2
370
     9
100
AcDbCircle
 10
237.9565831777211
 20
307.4996634818414
 30
0.0
 40
1.500000019331236
100
AcDbArc
 50
180.0006713867188
 51
262.8750305175781
  0
ARC
  5
3C2
330
1F
100
AcDbEntity
  8
0-1
  6
Continuous
 62
     2
370
     9
100
AcDbCircle
 10
253.9566112209011
 20
286.9204151050466
 30
0.0
 40
1.500000019331236
100
AcDbArc
 50
180.0
 51
259.3805847167969
  0
ARC
  5
3C3
330
1F
100
AcDbEntity
  8
0-1
  6
Continuous
 62
     2
370
     9
100
AcDbCircle
 10
251.9566541104705
 20
333.4458816115922
 30
0.0
 40
1.500000019331236
100
AcDbArc
 50
101.3096771240234
 51
180.0
  0
ARC
  5
3C4
330
1F
100
AcDbEntity
  8
0-1
  6
Continuous
 62
     2
370
     9
100
AcDbCircle
 10
251.9566541104705
 20
327.2968782991977
 30
0.0
 40
1.500000019331236
100
AcDbArc
 50
180.0
 51
225.0002288818359
  0
ARC
  5
3C5
330
1F
100
AcDbEntity
  8
0-1
  6
Continuous
 62
     2
370
     9
100
AcDbCircle
 10
250.9566013233083
 20
324.0542041675466
 30
0.0
 40
1.500000019331236
100
AcDbArc
 50
0.0
 51
45.00022888183593
  0
ARC
  5
3C6
330
1F
100
AcDbEntity
  8
0-1
  6
Continuous
 62
     2
370
     9
100
AcDbCircle
 10
247.4566392640811
 20
319.5894494958827
 30
0.0
 40
5.000000064437454
100
AcDbArc
 50
277.1251220703125
 51
0.0000000000000127
  0
ARC
  5
3C7
330
1F
100
AcDbEntity
  8
0-1
  6
Continuous
 62
     2
370
     9
100
AcDbCircle
 10
250.4566491616739
 20
302.409950050148
 30
0.0
 40
2.000000025774982
100
AcDbArc
 50
0.0
 51
82.87467956542969
  0
ARC
  5
3C8
330
1F
100
AcDbEntity
  8
0-1
  6
Continuous
 62
     2
370
     9
100
AcDbCircle
 10
-320.1920143333641
 20
322.6758653795399
 30
0.0
 40
2.000000025774982
100
AcDbArc
 50
0.0
 51
90.0
  0
ARC
  5
3C9
330
1F
100
AcDbEntity
  8
0-1
  6
Continuous
 62
     2
370
     9
100
AcDbCircle
 10
-320.1920143333641
 20
322.6758653795399
 30
0.0
 40
4.000000051549963
100
AcDbArc
 50
0.0
 51
90.0
  0
ARC
  5
3CA
330
1F
100
AcDbEntity
  8
0-1
  6
Continuous
 62
     2
370
     9
100
AcDbCircle
 10
-320.1920143333641
 20
317.1757235140415
 30
0.0
 40
2.000000025774982
100
AcDbArc
 50
270.0
 51
0.0
  0
ARC
  5
3CB
330
1F
100
AcDbEntity
  8
0-1
  6
Continuous
 62
     2
370
     9
100
AcDbCircle
 10
-320.1920143333641
 20
317.1757235140415
 30
0.0
 40
4.000000051549963
100
AcDbArc
 50
298.9500427246094
 51
0.0
  0
ARC
  5
3CC
330
1F
100
AcDbEntity
  8
0-1
  6
Continuous
 62
     2
370
     9
100
AcDbCircle
 10
-252.1919879397831
 20
322.6758653795399
 30
0.0
 40
2.000000025774982
100
AcDbArc
 50
90.0
 51
180.0
  0
ARC
  5
3CD
330
1F
100
AcDbEntity
  8
0-1
  6
Continuous
 62
     2
370
     9
100
AcDbCircle
 10
-252.1919879397831
 20
322.6758653795399
 30
0.0
 40
4.000000051549963
100
AcDbArc
 50
90.0
 51
180.0
  0
ARC
  5
3CE
330
1F
100
AcDbEntity
  8
0-1
  6
Continuous
 62
     2
370
     9
100
AcDbCircle
 10
-252.1919879397831
 20
317.1757235140415
 30
0.0
 40
2.000000025774982
100
AcDbArc
 50
180.0
 51
270.0
  0
ARC
  5
3CF
330
1F
100
AcDbEntity
  8
0-1
  6
Continuous
 62
     2
370
     9
100
AcDbCircle
 10
-252.1919879397831
 20
317.1757235140415
 30
0.0
 40
4.000000051549963
100
AcDbArc
 50
180.0
 51
241.0499572753906
  0
ARC
  5
3D0
330
1F
100
AcDbEntity
  8
0-1
  6
Continuous
 62
     2
370
     9
100
AcDbCircle
 10
-481.6919471122122
 20
-86.32434576910882
 30
0.0
 40
20.00000025774982
100
AcDbArc
 50
180.0001220703125
 51
270.0
  0
ARC
  5
3D1
330
1F
100
AcDbEntity
  8
0-1
  6
Continuous
 62
     2
370
     9
100
AcDbCircle
 10
-481.6919471122122
 20
-86.32434576910882
 30
0.0
 40
22.00000144339897
100
AcDbArc
 50
180.0001373291016
 51
270.0
  0
TEXT
  5
3D2
330
1F
100
AcDbEntity
  8
0-E
  6
Continuous
 62
     7
370
     9
100
AcDbText
 10
389.6001131212389
 20
174.056720551362
 30
0.0
 40
6.858000000000001
  1
ＳＷＲＭ，亜鉛めっき
 41
1.15
  7
ＭＳ ゴシック
100
AcDbText
  0
TEXT
  5
3D3
330
1F
100
AcDbEntity
  8
0-E
  6
Continuous
 62
     7
370
     9
100
AcDbText
 10
116.3176531405062
 20
376.3906265704183
 30
0.0
 40
6.858000000000001
  1
受枠：ＦＣ２００
 41
1.145833333333332
  7
ＭＳ ゴシック
100
AcDbText
  0
TEXT
  5
3D4
330
1F
100
AcDbEntity
  8
0-E
  6
Continuous
 62
     7
370
     9
100
AcDbText
 10
133.3447024371173
 20
362.83854543655
 30
0.0
 40
6.858000000000001
  1
樹脂系塗装
 41
1.133333333333333
  7
ＭＳ ゴシック
100
AcDbText
  0
TEXT
  5
3D5
330
1F
100
AcDbEntity
  8
0-E
  6
Continuous
 62
     7
370
     9
100
AcDbText
 10
128.9770431518555
 20
-159.352616672825
 30
0.0
 40
6.858000000000001
  1
樹脂系塗装
 41
1.133333333333333
  7
ＭＳ ゴシック
100
AcDbText
  0
TEXT
  5
3D6
330
1F
100
AcDbEntity
  8
0-4
  6
Continuous
 62
     2
370
     9
100
AcDbText
 10
-317.0785013147303
 20
-143.6323424699112
 30
0.0
 40
9.144
  1
18
 41
1.0625
  7
ＭＳ ゴシック
100
AcDbText
  0
TEXT
  5
3D7
330
1F
100
AcDbEntity
  8
0-4
  6
Continuous
 62
     2
370
     9
100
AcDbText
 10
-33.38370557972524
 20
102.8006558065303
 30
0.0
 40
9.144
  1
18
 50
90.00000250447752
 41
1.062500000000001
  7
ＭＳ ゴシック
100
AcDbText
  0
TEXT
  5
3D8
330
1F
100
AcDbEntity
  8
0-E
  6
Continuous
 62
     7
370
     9
100
AcDbText
 10
120.9364588969462
 20
-143.7180696196684
 30
0.0
 40
6.858000000000001
  1
蓋：ＦＣ２００
 41
1.142857142857147
  7
ＭＳ ゴシック
100
AcDbText
  0
TEXT
  5
3D9
330
1F
100
AcDbEntity
  8
0-1
  6
Continuous
 62
     7
370
     9
100
AcDbText
 10
-503.4278746382839
 20
155.675617801374
 30
0.0
 40
6.858000000000001
  1
ＧＣＡ－６・ＧＣＢ
 50
269.9999565143868
 41
1.148148148148148
  7
ＭＳ ゴシック
100
AcDbText
  0
TEXT
  5
3DA
330
1F
100
AcDbEntity
  8
0-1
  6
Continuous
 62
     7
370
     9
100
AcDbText
 10
-67.93842668222871
 20
78.42563726703362
 30
0.0
 40
6.858000000000001
  1
ＫＡＮＥＳＯ
 50
90.00000250447832
 41
1.13888888888889
  7
ＭＳ ゴシック
100
AcDbText
  0
TEXT
  5
3DB
330
1F
100
AcDbEntity
  8
0-1
  6
Continuous
 62
     7
370
     9
100
AcDbText
 10
-271.1919824676474
 20
327.3495794231451
 30
0.0
 40
6.858000000000001
  1
３５０
 50
180.0000050089563
 41
1.111111111111109
  7
ＭＳ ゴシック
100
AcDbText
  0
TEXT
  5
3DC
330
1F
100
AcDbEntity
  8
0-0
  6
Continuous
 62
     7
370
     9
100
AcDbText
 10
-97.46099177401236
 20
78.42563651065699
 30
0.0
 40
6.858000000000001
  1
ＫＡＮＥＳＯ
 50
90.00003665542425
 41
1.138888888888888
  7
ＭＳ ゴシック
100
AcDbText
  0
TEXT
  5
3DD
330
1F
100
AcDbEntity
  8
0-4
  6
Continuous
 62
     2
370
     9
100
AcDbText
 10
-269.5670489749393
 20
-143.6323424699112
 30
0.0
 40
9.144
  1
28
 41
1.0625
  7
ＭＳ ゴシック
100
AcDbText
  0
TEXT
  5
3DE
330
1F
100
AcDbEntity
  8
0-4
  6
Continuous
 62
     2
370
     9
100
AcDbText
 10
-295.9420382525469
 20
-173.6323672138934
 30
0.0
 40
9.144
  1
225
 41
1.083333333333333
  7
ＭＳ ゴシック
100
AcDbText
  0
TEXT
  5
3DF
330
1F
100
AcDbEntity
  8
0-4
  6
Continuous
 62
     2
370
     9
100
AcDbText
 10
-180.0670011365736
 20
-143.6323424699112
 30
0.0
 40
9.144
  1
15
 41
1.0625
  7
ＭＳ ゴシック
100
AcDbText
  0
TEXT
  5
3E0
330
1F
100
AcDbEntity
  8
0-4
  6
Continuous
 62
     2
370
     9
100
AcDbText
 10
-215.8840228324455
 20
-160.029434484261
 30
0.0
 40
9.144
  1
17.5
 50
90.00000250447829
 41
1.093750000000001
  7
ＭＳ ゴシック
100
AcDbText
  0
TEXT
  5
3E1
330
1F
100
AcDbEntity
  8
0-4
  6
Continuous
 62
     2
370
     9
100
AcDbText
 10
-295.9420011365735
 20
-203.6323177259288
 30
0.0
 40
9.144
  1
435
 41
1.083333333333333
  7
ＭＳ ゴシック
100
AcDbText
  0
TEXT
  5
3E2
330
1F
100
AcDbEntity
  8
0-4
  6
Continuous
 62
     2
370
     9
100
AcDbText
 10
-33.38370557972524
 20
148.800671477719
 30
0.0
 40
9.144
  1
74
 50
90.00000250447752
 41
1.062500000000001
  7
ＭＳ ゴシック
100
AcDbText
  0
TEXT
  5
3E3
330
1F
100
AcDbEntity
  8
0-4
  6
Continuous
 62
     2
370
     9
100
AcDbText
 10
-3.383754920163872
 20
99.42558157458352
 30
0.0
 40
9.144
  1
225
 50
90.00000250447748
 41
1.083333333333332
  7
ＭＳ ゴシック
100
AcDbText
  0
TEXT
  5
3E4
330
1F
100
AcDbEntity
  8
0-4
  6
Continuous
 62
     2
370
     9
100
AcDbText
 10
26.61626982381839
 20
99.42558157458352
 30
0.0
 40
9.144
  1
435
 50
90.00000250447748
 41
1.083333333333332
  7
ＭＳ ゴシック
100
AcDbText
  0
TEXT
  5
3E5
330
1F
100
AcDbEntity
  8
0-4
  6
Continuous
 62
     2
370
     9
100
AcDbText
 10
242.081580703323
 20
-173.6323672138934
 30
0.0
 40
9.144
  1
24
 41
1.0625
  7
ＭＳ ゴシック
100
AcDbText
  0
TEXT
  5
3E6
330
1F
100
AcDbEntity
  8
0-4
  6
Continuous
 62
     2
370
     9
100
AcDbText
 10
228.0471478024045
 20
153.1214821249474
 30
0.0
 40
9.144
  1
2
  7
ＭＳ ゴシック
100
AcDbText
  0
TEXT
  5
3E7
330
1F
100
AcDbEntity
  8
0-4
  6
Continuous
 62
     2
370
     9
100
AcDbText
 10
255.2533715737833
 20
153.1214821249474
 30
0.0
 40
9.144
  1
10
 41
1.0625
  7
ＭＳ ゴシック
100
AcDbText
  0
TEXT
  5
3E8
330
1F
100
AcDbEntity
  8
0-0
  6
Continuous
 62
     7
370
     9
100
AcDbText
 10
-474.9229549206962
 20
145.1756546147896
 30
0.0
 40
6.858000000000001
  1
ＧＣＢ－３５０
 50
269.9999428540085
 41
1.142857142857143
  7
ＭＳ ゴシック
100
AcDbText
  0
TEXT
  5
3E9
330
1F
100
AcDbEntity
  8
0-4
  6
Continuous
 62
     2
370
     9
100
AcDbText
 10
186.7646426944127
 20
305.6755716769906
 30
0.0
 40
9.144
  1
9
 50
90.00000250447522
 41
1.000000000000001
  7
ＭＳ ゴシック
100
AcDbText
  0
TEXT
  5
3EA
330
1F
100
AcDbEntity
  8
0-4
  6
Continuous
 62
     2
370
     9
100
AcDbText
 10
186.7646426944127
 20
-93.32435285386349
 30
0.0
 40
9.144
  1
9
 50
90.00000250447522
 41
0.9999999999999725
  7
ＭＳ ゴシック
100
AcDbText
  0
TEXT
  5
3EB
330
1F
100
AcDbEntity
  8
0-4
  6
Continuous
 62
     2
370
     9
100
AcDbText
 10
238.5816928760427
 20
-143.6323424699112
 30
0.0
 40
9.144
  1
15
 41
1.0625
  7
ＭＳ ゴシック
100
AcDbText
  0
TEXT
  5
3EC
330
1F
100
AcDbEntity
  8
0-4
  6
Continuous
 62
     2
370
     9
100
AcDbText
 10
156.7646185405343
 20
92.67560013257021
 30
0.0
 40
9.144
  1
□455
 50
90.00000250447833
 41
1.100000000000001
  7
ＭＳ ゴシック
100
AcDbText
  0
TEXT
  5
3ED
330
1F
100
AcDbEntity
  8
0-4
  6
Continuous
 62
     2
370
     9
100
AcDbText
 10
186.7646432845165
 20
92.67560013257018
 30
0.0
 40
9.144
  1
□390
 50
90.00000250447788
 41
1.100000000000001
  7
ＭＳ ゴシック
100
AcDbText
  0
TEXT
  5
3EE
330
1F
100
AcDbEntity
  8
0-4
  6
Continuous
 62
     2
370
     9
100
AcDbText
 10
345.764574001366
 20
57.60813154093167
 30
0.0
 40
9.144
  1
□350
 50
90.00000250447788
 41
1.100000000000001
  7
ＭＳ ゴシック
100
AcDbText
  0
TEXT
  5
3EF
330
1F
100
AcDbEntity
  8
0-E
  6
Continuous
 62
     7
370
     9
100
AcDbText
 10
397.0534484450883
 20
189.3183263038431
 30
0.0
 40
6.858000000000001
  1
鎖：φ５×３００
 41
1.145833333333333
  7
ＭＳ ゴシック
100
AcDbText
  0
LWPOLYLINE
  5
3F0
330
1F
100
AcDbEntity
  8
0-4
  6
Continuous
 62
     7
370
     9
100
AcDbPolyline
 90
        4
 70
     1
 43
0.3
 10
239.6066623584645
 20
148.4294722273545
 42
0.4142135623731
 10
239.4566623584645
 20
148.5794722273545
 42
0.4142135623731
 10
239.3066623584646
 20
148.4294722273545
 42
0.4142135623731
 10
239.4566623584645
 20
148.2794722273545
 42
0.4142135623731
  0
TEXT
  5
3F1
330
1F
100
AcDbEntity
  8
F-5
  6
Continuous
 62
     2
370
     9
100
AcDbText
 10
-203.2501051619245
 20
-404.2404895226635
 30
0.0
 40
9.144
  1
格子型鋳鉄製集水桝蓋　ＧＣＢ－３５０
 41
1.118055555555556
  7
ＭＳ ゴシック
100
AcDbText
  0
TEXT
  5
3F2
330
1F
100
AcDbEntity
  8
0-E
  6
Continuous
 62
     2
370
     9
100
AcDbText
 10
250.8136607400785
 20
-328.044256313069
 30
0.0
 40
9.144
  1
標準質量：１７ｋｇ
 41
1.111111111111111
  7
ＭＳ ゴシック
100
AcDbText
  0
ENDSEC
  0
SECTION
  2
OBJECTS
  0
DICTIONARY
  5
C
330
0
100
AcDbDictionary
281
     1
  3
ACAD_GROUP
350
D
  3
ACAD_LAYOUT
350
1A
  3
ACAD_MLEADERSTYLE
350
3F4
  3
ACAD_MLINESTYLE
350
17
  3
ACAD_PLOTSETTINGS
350
19
  3
ACAD_PLOTSTYLENAME
350
E
  3
ACAD_TABLESTYLE
350
3F3
  3
ACAD_VISUALSTYLE
350
2A
  0
DICTIONARY
  5
D
102
{ACAD_REACTORS
330
C
102
}
330
C
100
AcDbDictionary
281
     1
  0
DICTIONARY
  5
1A
102
{ACAD_REACTORS
330
C
102
}
330
C
100
AcDbDictionary
281
     1
  3
Layout1
350
1E
  3
Layout2
350
26
  3
Model
350
22
  0
DICTIONARY
  5
3F4
102
{ACAD_REACTORS
330
C
102
}
330
C
100
AcDbDictionary
281
     1
  0
DICTIONARY
  5
17
102
{ACAD_REACTORS
330
C
102
}
330
C
100
AcDbDictionary
281
     1
  3
Standard
350
18
  0
DICTIONARY
  5
19
102
{ACAD_REACTORS
330
C
102
}
330
C
100
AcDbDictionary
281
     1
  0
ACDBDICTIONARYWDFLT
  5
E
102
{ACAD_REACTORS
330
C
102
}
330
C
100
AcDbDictionary
281
     1
  3
Normal
350
F
100
AcDbDictionaryWithDefault
340
F
  0
DICTIONARY
  5
3F3
102
{ACAD_REACTORS
330
C
102
}
330
C
100
AcDbDictionary
281
     1
  0
DICTIONARY
  5
2A
102
{ACAD_REACTORS
330
C
102
}
330
C
100
AcDbDictionary
281
     1
  3
2dWireframe
350
2F
  3
3D Hidden
350
31
  3
3dWireframe
350
30
  3
Basic
350
32
  3
Brighten
350
36
  3
ColorChange
350
3A
  3
Conceptual
350
34
  3
Dim
350
35
  3
Facepattern
350
39
  3
Flat
350
2B
  3
FlatWithEdges
350
2C
  3
Gouraud
350
2D
  3
GouraudWithEdges
350
2E
  3
Linepattern
350
38
  3
Realistic
350
33
  3
Thicken
350
37
  0
LAYOUT
  5
1E
102
{ACAD_REACTORS
330
1A
102
}
330
1A
100
AcDbPlotSettings
  1

  2
none_device
  4

  6

 40
0.0
 41
0.0
 42
0.0
 43
0.0
 44
0.0
 45
0.0
 46
0.0
 47
0.0
 48
0.0
 49
0.0
140
0.0
141
0.0
142
1.0
143
1.0
 70
   688
 72
     0
 73
     0
 74
     5
  7

 75
    16
 76
     0
 77
     5
 78
   300
147
1.0
148
0.0
149
0.0
100
AcDbLayout
  1
Layout1
 70
     1
 71
     1
 10
0.0
 20
0.0
 11
420.0
 21
297.0
 12
0.0
 22
0.0
 32
0.0
 14
1.000000000000000E+20
 24
1.000000000000000E+20
 34
1.000000000000000E+20
 15
-1.000000000000000E+20
 25
-1.000000000000000E+20
 35
-1.000000000000000E+20
146
0.0
 13
0.0
 23
0.0
 33
0.0
 16
1.0
 26
0.0
 36
0.0
 17
0.0
 27
1.0
 37
0.0
 76
     0
330
1B
  0
LAYOUT
  5
26
102
{ACAD_REACTORS
330
1A
102
}
330
1A
100
AcDbPlotSettings
  1

  2
none_device
  4

  6

 40
0.0
 41
0.0
 42
0.0
 43
0.0
 44
0.0
 45
0.0
 46
0.0
 47
0.0
 48
0.0
 49
0.0
140
0.0
141
0.0
142
1.0
143
1.0
 70
   688
 72
     0
 73
     0
 74
     5
  7

 75
    16
 76
     0
 77
     5
 78
   300
147
1.0
148
0.0
149
0.0
100
AcDbLayout
  1
Layout2
 70
     1
 71
     2
 10
0.0
 20
0.0
 11
0.0
 21
0.0
 12
0.0
 22
0.0
 32
0.0
 14
0.0
 24
0.0
 34
0.0
 15
0.0
 25
0.0
 35
0.0
146
0.0
 13
0.0
 23
0.0
 33
0.0
 16
1.0
 26
0.0
 36
0.0
 17
0.0
 27
1.0
 37
0.0
 76
     0
330
23
  0
LAYOUT
  5
22
102
{ACAD_REACTORS
330
1A
102
}
330
1A
100
AcDbPlotSettings
  1

  2
none_device
  4

  6

 40
0.0
 41
0.0
 42
0.0
 43
0.0
 44
0.0
 45
0.0
 46
0.0
 47
0.0
 48
0.0
 49
0.0
140
0.0
141
0.0
142
1.0
143
1.0
 70
  1712
 72
     0
 73
     0
 74
     0
  7

 75
     0
 76
     0
 77
     5
 78
   300
147
1.0
148
0.0
149
0.0
100
AcDbLayout
  1
Model
 70
     1
 71
     0
 10
-630.0
 20
-445.5
 11
630.0
 21
445.5
 12
0.0
 22
0.0
 32
0.0
 14
-630.0
 24
-445.5
 34
0.0
 15
630.0
 25
445.5
 35
0.0
146
0.0
 13
0.0
 23
0.0
 33
0.0
 16
1.0
 26
0.0
 36
0.0
 17
0.0
 27
1.0
 37
0.0
 76
     0
330
1F
331
29
  0
MLINESTYLE
  5
18
102
{ACAD_REACTORS
330
17
102
}
330
17
100
AcDbMlineStyle
  2
Standard
 70
     0
  3

 62
   256
 51
90.0
 52
90.0
 71
     2
 49
0.5
 62
   256
  6
BYLAYER
 49
-0.5
 62
   256
  6
BYLAYER
  0
ACDBPLACEHOLDER
  5
F
102
{ACAD_REACTORS
330
E
102
}
330
E
  0
VISUALSTYLE
  5
2F
102
{ACAD_REACTORS
330
2A
102
}
330
2A
100
AcDbVisualStyle
  2
2dWireframe
 70
     4
 71
     0
 72
     2
 73
     0
 90
        0
 40
-0.6
 41
-30.0
 62
     5
 63
     7
421
 16777215
 74
     1
 91
        4
 64
     7
 65
   257
 75
     1
175
     1
 42
1.0
 92
        0
 66
   257
 43
1.0
 76
     1
 77
     6
 78
     2
 67
     7
 79
     5
170
     0
171
     0
290
     0
174
     0
 93
        1
 44
0.0
173
     0
291
     0
 45
0.0
1001
ACAD
1000
AcDbSavedByObjectVersion
1070
     0
  0
VISUALSTYLE
  5
31
102
{ACAD_REACTORS
330
2A
102
}
330
2A
100
AcDbVisualStyle
  2
3D Hidden
 70
     6
 71
     1
 72
     2
 73
     2
 90
        0
 40
-0.6
 41
-30.0
 62
     5
 63
     7
421
 16777215
 74
     2
 91
        2
 64
     7
 65
   257
 75
     2
175
     1
 42
40.0
 92
        0
 66
   257
 43
1.0
 76
     1
 77
     6
 78
     2
 67
     7
 79
     3
170
     0
171
     0
290
     0
174
     0
 93
        1
 44
0.0
173
     0
291
     0
 45
0.0
1001
ACAD
1000
AcDbSavedByObjectVersion
1070
     0
  0
VISUALSTYLE
  5
30
102
{ACAD_REACTORS
330
2A
102
}
330
2A
100
AcDbVisualStyle
  2
3dWireframe
 70
     5
 71
     0
 72
     2
 73
     0
 90
        0
 40
-0.6
 41
-30.0
 62
     5
 63
     7
421
 16777215
 74
     1
 91
        4
 64
     7
 65
   257
 75
     1
175
     1
 42
1.0
 92
        0
 66
   257
 43
1.0
 76
     1
 77
     6
 78
     2
 67
     7
 79
     5
170
     0
171
     0
290
     0
174
     0
 93
        1
 44
0.0
173
     0
291
     0
 45
0.0
1001
ACAD
1000
AcDbSavedByObjectVersion
1070
     0
  0
VISUALSTYLE
  5
32
102
{ACAD_REACTORS
330
2A
102
}
330
2A
100
AcDbVisualStyle
  2
Basic
 70
     7
 71
     1
 72
     0
 73
     1
 90
        0
 40
-0.6
 41
-30.0
 62
     5
 63
     7
421
 16777215
 74
     0
 91
        4
 64
     7
 65
   257
 75
     1
175
     1
 42
1.0
 92
        8
 66
     7
 43
1.0
 76
     1
 77
     6
 78
     2
 67
     7
 79
     5
170
     0
171
     0
290
     0
174
     0
 93
        1
 44
0.0
173
     0
291
     1
 45
0.0
1001
ACAD
1000
AcDbSavedByObjectVersion
1070
     0
  0
VISUALSTYLE
  5
36
102
{ACAD_REACTORS
330
2A
102
}
330
2A
100
AcDbVisualStyle
  2
Brighten
 70
    12
 71
     2
 72
     2
 73
     0
 90
        0
 40
-0.6
 41
-30.0
 62
     5
 63
     7
421
 16777215
 74
     1
 91
        4
 64
     7
 65
   257
 75
     1
175
     1
 42
1.0
 92
        8
 66
     7
 43
1.0
 76
     1
 77
     6
 78
     2
 67
     7
 79
     5
170
     0
171
     0
290
     0
174
     0
 93
        1
 44
50.0
173
     0
291
     1
 45
0.0
1001
ACAD
1000
AcDbSavedByObjectVersion
1070
     0
  0
VISUALSTYLE
  5
3A
102
{ACAD_REACTORS
330
2A
102
}
330
2A
100
AcDbVisualStyle
  2
ColorChange
 70
    16
 71
     2
 72
     2
 73
     3
 90
        0
 40
-0.6
 41
-30.0
 62
     5
 63
     8
421
  8421504
 74
     1
 91
        4
 64
     7
 65
   257
 75
     1
175
     1
 42
1.0
 92
        8
 66
     8
424
  8421504
 43
1.0
 76
     1
 77
     6
 78
     2
 67
     7
 79
     5
170
     0
171
     0
290
     0
174
     0
 93
        1
 44
0.0
173
     0
291
     1
 45
0.0
1001
ACAD
1000
AcDbSavedByObjectVersion
1070
     0
  0
VISUALSTYLE
  5
34
102
{ACAD_REACTORS
330
2A
102
}
330
2A
100
AcDbVisualStyle
  2
Conceptual
 70
     9
 71
     3
 72
     2
 73
     0
 90
        0
 40
-0.6
 41
-30.0
 62
     5
 63
     7
421
 16777215
 74
     2
 91
        2
 64
     7
 65
   257
 75
     1
175
     1
 42
40.0
 92
        8
 66
     7
 43
1.0
 76
     1
 77
     6
 78
     2
 67
     7
 79
     3
170
     0
171
     0
290
     0
174
     0
 93
        1
 44
0.0
173
     0
291
     0
 45
0.0
1001
ACAD
1000
AcDbSavedByObjectVersion
1070
     0
  0
VISUALSTYLE
  5
35
102
{ACAD_REACTORS
330
2A
102
}
330
2A
100
AcDbVisualStyle
  2
Dim
 70
    11
 71
     2
 72
     2
 73
     0
 90
        0
 40
-0.6
 41
-30.0
 62
     5
 63
     7
421
 16777215
 74
     1
 91
        4
 64
     7
 65
   257
 75
     1
175
     1
 42
1.0
 92
        8
 66
     7
 43
1.0
 76
     1
 77
     6
 78
     2
 67
     7
 79
     5
170
     0
171
     0
290
     0
174
     0
 93
        1
 44
-50.0
173
     0
291
     1
 45
0.0
1001
ACAD
1000
AcDbSavedByObjectVersion
1070
     0
  0
VISUALSTYLE
  5
39
102
{ACAD_REACTORS
330
2A
102
}
330
2A
100
AcDbVisualStyle
  2
Facepattern
 70
    15
 71
     2
 72
     2
 73
     0
 90
        0
 40
-0.6
 41
-30.0
 62
     5
 63
     7
421
 16777215
 74
     1
 91
        4
 64
     7
 65
   257
 75
     1
175
     1
 42
1.0
 92
        8
 66
     7
 43
1.0
 76
     1
 77
     6
 78
     2
 67
     7
 79
     5
170
     0
171
     0
290
     0
174
     0
 93
        1
 44
0.0
173
     0
291
     1
 45
0.0
1001
ACAD
1000
AcDbSavedByObjectVersion
1070
     0
  0
VISUALSTYLE
  5
2B
102
{ACAD_REACTORS
330
2A
102
}
330
2A
100
AcDbVisualStyle
  2
Flat
 70
     0
 71
     2
 72
     1
 73
     1
 90
        2
 40
-0.6
 41
30.0
 62
     5
 63
     7
421
 16777215
 74
     0
 91
        4
 64
     7
 65
   257
 75
     1
175
     1
 42
1.0
 92
        8
 66
     7
 43
1.0
 76
     1
 77
     6
 78
     2
 67
     7
 79
     5
170
     0
171
     0
290
     0
174
     0
 93
       13
 44
0.0
173
     0
291
     1
 45
0.0
1001
ACAD
1000
AcDbSavedByObjectVersion
1070
     0
  0
VISUALSTYLE
  5
2C
102
{ACAD_REACTORS
330
2A
102
}
330
2A
100
AcDbVisualStyle
  2
FlatWithEdges
 70
     1
 71
     2
 72
     1
 73
     1
 90
        2
 40
-0.6
 41
30.0
 62
     5
 63
     7
421
 16777215
 74
     1
 91
        4
 64
     7
 65
   257
 75
     1
175
     1
 42
1.0
 92
        0
 66
   257
 43
1.0
 76
     1
 77
     6
 78
     2
 67
     7
 79
     5
170
     0
171
     0
290
     0
174
     0
 93
       13
 44
0.0
173
     0
291
     1
 45
0.0
1001
ACAD
1000
AcDbSavedByObjectVersion
1070
     0
  0
VISUALSTYLE
  5
2D
102
{ACAD_REACTORS
330
2A
102
}
330
2A
100
AcDbVisualStyle
  2
Gouraud
 70
     2
 71
     2
 72
     2
 73
     1
 90
        2
 40
-0.6
 41
30.0
 62
     5
 63
     7
421
 16777215
 74
     0
 91
        4
 64
     7
 65
   257
 75
     1
175
     1
 42
1.0
 92
        0
 66
     7
 43
1.0
 76
     1
 77
     6
 78
     2
 67
     7
 79
     5
170
     0
171
     0
290
     0
174
     0
 93
       13
 44
0.0
173
     0
291
     1
 45
0.0
1001
ACAD
1000
AcDbSavedByObjectVersion
1070
     0
  0
VISUALSTYLE
  5
2E
102
{ACAD_REACTORS
330
2A
102
}
330
2A
100
AcDbVisualStyle
  2
GouraudWithEdges
 70
     3
 71
     2
 72
     2
 73
     1
 90
        2
 40
-0.6
 41
30.0
 62
     5
 63
     7
421
 16777215
 74
     1
 91
        4
 64
     7
 65
   257
 75
     1
175
     1
 42
1.0
 92
        0
 66
   257
 43
1.0
 76
     1
 77
     6
 78
     2
 67
     7
 79
     5
170
     0
171
     0
290
     0
174
     0
 93
       13
 44
0.0
173
     0
291
     1
 45
0.0
1001
ACAD
1000
AcDbSavedByObjectVersion
1070
     0
  0
VISUALSTYLE
  5
38
102
{ACAD_REACTORS
330
2A
102
}
330
2A
100
AcDbVisualStyle
  2
Linepattern
 70
    14
 71
     2
 72
     2
 73
     0
 90
        0
 40
-0.6
 41
-30.0
 62
     5
 63
     7
421
 16777215
 74
     1
 91
        4
 64
     7
 65
   257
 75
     7
175
     7
 42
1.0
 92
        8
 66
     7
 43
1.0
 76
     1
 77
     6
 78
     2
 67
     7
 79
     5
170
     0
171
     0
290
     0
174
     0
 93
        1
 44
0.0
173
     0
291
     1
 45
0.0
1001
ACAD
1000
AcDbSavedByObjectVersion
1070
     0
  0
VISUALSTYLE
  5
33
102
{ACAD_REACTORS
330
2A
102
}
330
2A
100
AcDbVisualStyle
  2
Realistic
 70
     8
 71
     2
 72
     2
 73
     0
 90
        0
 40
-0.6
 41
-30.0
 62
     5
 63
     7
421
 16777215
 74
     1
 91
        0
 64
     7
 65
   257
 75
     1
175
     1
 42
1.0
 92
        8
 66
     8
424
  7895160
 43
1.0
 76
     1
 77
     6
 78
     2
 67
     7
 79
     5
170
     0
171
     0
290
     0
174
     0
 93
       13
 44
0.0
173
     0
291
     0
 45
0.0
1001
ACAD
1000
AcDbSavedByObjectVersion
1070
     0
  0
VISUALSTYLE
  5
37
102
{ACAD_REACTORS
330
2A
102
}
330
2A
100
AcDbVisualStyle
  2
Thicken
 70
    13
 71
     2
 72
     2
 73
     0
 90
        0
 40
-0.6
 41
-30.0
 62
     5
 63
     7
421
 16777215
 74
     1
 91
        4
 64
     7
 65
   257
 75
     1
175
     1
 42
1.0
 92
       12
 66
     7
 43
1.0
 76
     1
 77
     6
 78
     2
 67
     7
 79
     5
170
     0
171
     0
290
     0
174
     0
 93
        1
 44
0.0
173
     0
291
     1
 45
0.0
1001
ACAD
1000
AcDbSavedByObjectVersion
1070
     0
  0
ENDSEC
  0
EOF
