  0
SECTION
  2
HEADER
  9
$ACADVER
  1
AC1018
  9
$ACADMAINTVER
 70
     0
  9
$DWGCODEPAGE
  3
ANSI_932
  9
$INSBASE
 10
0.0
 20
0.0
 30
0.0
  9
$EXTMIN
 10
-630.0
 20
-445.5
 30
0.0
  9
$EXTMAX
 10
630.0
 20
445.5
 30
0.0
  9
$LIMMIN
 10
-630.0
 20
-445.5
  9
$LIMMAX
 10
630.0
 20
445.5
  9
$ORTHOMODE
 70
     0
  9
$REGENMODE
 70
     1
  9
$FILLMODE
 70
     1
  9
$QTEXTMODE
 70
     0
  9
$MIRRTEXT
 70
     1
  9
$LTSCALE
 40
3.0
  9
$ATTMODE
 70
     1
  9
$TEXTSIZE
 40
2.5
  9
$TRACEWID
 40
1.0
  9
$TEXTSTYLE
  7
Standard
  9
$CLAYER
  8
0
  9
$CELTYPE
  6
ByLayer
  9
$CECOLOR
 62
   256
  9
$CELTSCALE
 40
1.0
  9
$DISPSILH
 70
     0
  9
$DIMSCALE
 40
1.0
  9
$DIMASZ
 40
2.5
  9
$DIMEXO
 40
0.625
  9
$DIMDLI
 40
3.75
  9
$DIMRND
 40
0.0
  9
$DIMDLE
 40
0.0
  9
$DIMEXE
 40
1.25
  9
$DIMTP
 40
0.0
  9
$DIMTM
 40
0.0
  9
$DIMTXT
 40
2.5
  9
$DIMCEN
 40
2.5
  9
$DIMTSZ
 40
0.0
  9
$DIMTOL
 70
     0
  9
$DIMLIM
 70
     0
  9
$DIMTIH
 70
     0
  9
$DIMTOH
 70
     0
  9
$DIMSE1
 70
     0
  9
$DIMSE2
 70
     0
  9
$DIMTAD
 70
     1
  9
$DIMZIN
 70
     8
  9
$DIMBLK
  1

  9
$DIMASO
 70
     1
  9
$DIMSHO
 70
     1
  9
$DIMPOST
  1

  9
$DIMAPOST
  1

  9
$DIMALT
 70
     0
  9
$DIMALTD
 70
     3
  9
$DIMALTF
 40
0.03937007874016
  9
$DIMLFAC
 40
1.0
  9
$DIMTOFL
 70
     1
  9
$DIMTVP
 40
0.0
  9
$DIMTIX
 70
     0
  9
$DIMSOXD
 70
     0
  9
$DIMSAH
 70
     0
  9
$DIMBLK1
  1

  9
$DIMBLK2
  1

  9
$DIMSTYLE
  2
ISO-25
  9
$DIMCLRD
 70
     0
  9
$DIMCLRE
 70
     0
  9
$DIMCLRT
 70
     0
  9
$DIMTFAC
 40
1.0
  9
$DIMGAP
 40
0.625
  9
$DIMJUST
 70
     0
  9
$DIMSD1
 70
     0
  9
$DIMSD2
 70
     0
  9
$DIMTOLJ
 70
     0
  9
$DIMTZIN
 70
     8
  9
$DIMALTZ
 70
     0
  9
$DIMALTTZ
 70
     0
  9
$DIMUPT
 70
     0
  9
$DIMDEC
 70
     2
  9
$DIMTDEC
 70
     2
  9
$DIMALTU
 70
     2
  9
$DIMALTTD
 70
     3
  9
$DIMTXSTY
  7
Standard
  9
$DIMAUNIT
 70
     0
  9
$DIMADEC
 70
     0
  9
$DIMALTRND
 40
0.0
  9
$DIMAZIN
 70
     0
  9
$DIMDSEP
 70
    44
  9
$DIMATFIT
 70
     3
  9
$DIMFRAC
 70
     0
  9
$DIMLDRBLK
  1

  9
$DIMLUNIT
 70
     2
  9
$DIMLWD
 70
    -2
  9
$DIMLWE
 70
    -2
  9
$DIMTMOVE
 70
     0
  9
$LUNITS
 70
     2
  9
$LUPREC
 70
     4
  9
$SKETCHINC
 40
1.0
  9
$FILLETRAD
 40
10.0
  9
$AUNITS
 70
     0
  9
$AUPREC
 70
     0
  9
$MENU
  1
.
  9
$ELEVATION
 40
0.0
  9
$PELEVATION
 40
0.0
  9
$THICKNESS
 40
0.0
  9
$LIMCHECK
 70
     0
  9
$CHAMFERA
 40
10.0
  9
$CHAMFERB
 40
10.0
  9
$CHAMFERC
 40
20.0
  9
$CHAMFERD
 40
0.0
  9
$SKPOLY
 70
     0
  9
$TDCREATE
 40
2456498.823413704
  9
$TDUCREATE
 40
2456498.448413704
  9
$TDUPDATE
 40
2456498.823413715
  9
$TDUUPDATE
 40
2456498.448413715
  9
$TDINDWG
 40
0.0000000116
  9
$TDUSRTIMER
 40
0.0000000116
  9
$USRTIMER
 70
     1
  9
$ANGBASE
 50
0.0
  9
$ANGDIR
 70
     0
  9
$PDMODE
 70
     0
  9
$PDSIZE
 40
0.0
  9
$PLINEWID
 40
0.0
  9
$SPLFRAME
 70
     0
  9
$SPLINETYPE
 70
     6
  9
$SPLINESEGS
 70
     8
  9
$HANDSEED
  5
411
  9
$SURFTAB1
 70
     6
  9
$SURFTAB2
 70
     6
  9
$SURFTYPE
 70
     6
  9
$SURFU
 70
     6
  9
$SURFV
 70
     6
  9
$UCSBASE
  2

  9
$UCSNAME
  2

  9
$UCSORG
 10
0.0
 20
0.0
 30
0.0
  9
$UCSXDIR
 10
1.0
 20
0.0
 30
0.0
  9
$UCSYDIR
 10
0.0
 20
1.0
 30
0.0
  9
$UCSORTHOREF
  2

  9
$UCSORTHOVIEW
 70
     0
  9
$UCSORGTOP
 10
0.0
 20
0.0
 30
0.0
  9
$UCSORGBOTTOM
 10
0.0
 20
0.0
 30
0.0
  9
$UCSORGLEFT
 10
0.0
 20
0.0
 30
0.0
  9
$UCSORGRIGHT
 10
0.0
 20
0.0
 30
0.0
  9
$UCSORGFRONT
 10
0.0
 20
0.0
 30
0.0
  9
$UCSORGBACK
 10
0.0
 20
0.0
 30
0.0
  9
$PUCSBASE
  2

  9
$PUCSNAME
  2

  9
$PUCSORG
 10
0.0
 20
0.0
 30
0.0
  9
$PUCSXDIR
 10
1.0
 20
0.0
 30
0.0
  9
$PUCSYDIR
 10
0.0
 20
1.0
 30
0.0
  9
$PUCSORTHOREF
  2

  9
$PUCSORTHOVIEW
 70
     0
  9
$PUCSORGTOP
 10
0.0
 20
0.0
 30
0.0
  9
$PUCSORGBOTTOM
 10
0.0
 20
0.0
 30
0.0
  9
$PUCSORGLEFT
 10
0.0
 20
0.0
 30
0.0
  9
$PUCSORGRIGHT
 10
0.0
 20
0.0
 30
0.0
  9
$PUCSORGFRONT
 10
0.0
 20
0.0
 30
0.0
  9
$PUCSORGBACK
 10
0.0
 20
0.0
 30
0.0
  9
$USERI1
 70
     0
  9
$USERI2
 70
     0
  9
$USERI3
 70
     0
  9
$USERI4
 70
     0
  9
$USERI5
 70
     0
  9
$USERR1
 40
0.0
  9
$USERR2
 40
0.0
  9
$USERR3
 40
0.0
  9
$USERR4
 40
0.0
  9
$USERR5
 40
0.0
  9
$WORLDVIEW
 70
     1
  9
$SHADEDGE
 70
     3
  9
$SHADEDIF
 70
    70
  9
$TILEMODE
 70
     1
  9
$MAXACTVP
 70
    64
  9
$PINSBASE
 10
0.0
 20
0.0
 30
0.0
  9
$PLIMCHECK
 70
     0
  9
$PEXTMIN
 10
1.000000000000000E+20
 20
1.000000000000000E+20
 30
1.000000000000000E+20
  9
$PEXTMAX
 10
-1.000000000000000E+20
 20
-1.000000000000000E+20
 30
-1.000000000000000E+20
  9
$PLIMMIN
 10
0.0
 20
0.0
  9
$PLIMMAX
 10
420.0
 20
297.0
  9
$UNITMODE
 70
     0
  9
$VISRETAIN
 70
     1
  9
$PLINEGEN
 70
     0
  9
$PSLTSCALE
 70
     1
  9
$TREEDEPTH
 70
  3020
  9
$CMLSTYLE
  2
Standard
  9
$CMLJUST
 70
     0
  9
$CMLSCALE
 40
20.0
  9
$PROXYGRAPHICS
 70
     1
  9
$MEASUREMENT
 70
     1
  9
$CELWEIGHT
370
    -1
  9
$ENDCAPS
280
     0
  9
$JOINSTYLE
280
     0
  9
$LWDISPLAY
290
     0
  9
$INSUNITS
 70
     4
  9
$HYPERLINKBASE
  1

  9
$STYLESHEET
  1

  9
$XEDIT
290
     1
  9
$CEPSNTYPE
380
     0
  9
$PSTYLEMODE
290
     1
  9
$FINGERPRINTGUID
  2
{82CB1209-C85A-414E-A750-5C808D8C40AF}
  9
$VERSIONGUID
  2
{FAEB1C32-E019-11D5-929B-00C0DF256EC4}
  9
$EXTNAMES
290
     1
  9
$PSVPSCALE
 40
0.0
  9
$OLESTARTUP
290
     0
  9
$SORTENTS
280
   127
  9
$INDEXCTL
280
     0
  9
$HIDETEXT
280
     1
  9
$XCLIPFRAME
290
     0
  9
$HALOGAP
280
     0
  9
$OBSCOLOR
 70
   257
  9
$OBSLTYPE
280
     0
  9
$INTERSECTIONDISPLAY
280
     0
  9
$INTERSECTIONCOLOR
 70
   257
  9
$DIMASSOC
280
     2
  9
$PROJECTNAME
  1

  0
ENDSEC
  0
SECTION
  2
CLASSES
  0
CLASS
  1
ACDBDICTIONARYWDFLT
  2
AcDbDictionaryWithDefault
  3
ObjectDBX Classes
 90
        0
 91
        4
280
     0
281
     0
  0
CLASS
  1
VISUALSTYLE
  2
AcDbVisualStyle
  3
ObjectDBX Classes
 90
     4095
 91
        4
280
     0
281
     0
  0
ENDSEC
  0
SECTION
  2
TABLES
  0
TABLE
  2
VPORT
  5
8
330
0
100
AcDbSymbolTable
 70
     1
  0
VPORT
  5
29
330
8
100
AcDbSymbolTableRecord
100
AcDbViewportTableRecord
  2
*Active
 70
     0
 10
0.0
 20
0.0
 11
1.0
 21
1.0
 12
0.0
 22
0.0
 13
0.0
 23
0.0
 14
10.0
 24
10.0
 15
10.0
 25
10.0
 16
0.0
 26
0.0
 36
1.0
 17
0.0
 27
0.0
 37
0.0
 40
980.1
 41
1.414141414141414
 42
50.0
 43
0.0
 44
0.0
 50
0.0
 51
0.0
 71
     0
 72
 10000
 73
     1
 74
     3
 75
     0
 76
     0
 77
     0
 78
     0
281
     0
 65
     1
110
0.0
120
0.0
130
0.0
111
1.0
121
0.0
131
0.0
112
0.0
122
1.0
132
0.0
 79
     0
146
0.0
  0
ENDTAB
  0
TABLE
  2
LTYPE
  5
5
330
0
100
AcDbSymbolTable
 70
     2
  0
LTYPE
  5
14
330
5
100
AcDbSymbolTableRecord
100
AcDbLinetypeTableRecord
  2
ByBlock
 70
     0
  3

 72
    65
 73
     0
 40
0.0
  0
LTYPE
  5
15
330
5
100
AcDbSymbolTableRecord
100
AcDbLinetypeTableRecord
  2
ByLayer
 70
     0
  3

 72
    65
 73
     0
 40
0.0
  0
LTYPE
  5
16
330
5
100
AcDbSymbolTableRecord
100
AcDbLinetypeTableRecord
  2
Continuous
 70
     0
  3
Solid line
 72
    65
 73
     0
 40
0.0
  0
LTYPE
  5
3C
330
5
100
AcDbSymbolTableRecord
100
AcDbLinetypeTableRecord
  2
JWW_CENTER1
 70
     0
  3
-----  --  ----------  --  -----
 72
    65
 73
     4
 40
6.773333333333333
 49
4.233333333333333
 74
     0
 49
-0.8466666666666667
 74
     0
 49
0.8466666666666667
 74
     0
 49
-0.8466666666666667
 74
     0
  0
ENDTAB
  0
TABLE
  2
LAYER
  5
2
330
0
100
AcDbSymbolTable
 70
     7
  0
LAYER
  5
10
330
2
100
AcDbSymbolTableRecord
100
AcDbLayerTableRecord
  2
0
 70
     0
 62
     7
  6
Continuous
370
    -3
390
F
  0
LAYER
  5
3D
330
2
100
AcDbSymbolTableRecord
100
AcDbLayerTableRecord
  2
0-E
 70
     0
 62
     7
  6
Continuous
370
    -3
390
F
  0
LAYER
  5
3E
330
2
100
AcDbSymbolTableRecord
100
AcDbLayerTableRecord
  2
0-0
 70
     0
 62
     7
  6
Continuous
370
    -3
390
F
  0
LAYER
  5
3F
330
2
100
AcDbSymbolTableRecord
100
AcDbLayerTableRecord
  2
0-4
 70
     0
 62
     7
  6
Continuous
370
    -3
390
F
  0
LAYER
  5
40
330
2
100
AcDbSymbolTableRecord
100
AcDbLayerTableRecord
  2
0-2
 70
     0
 62
     7
  6
Continuous
370
    -3
390
F
  0
LAYER
  5
41
330
2
100
AcDbSymbolTableRecord
100
AcDbLayerTableRecord
  2
0-1
 70
     0
 62
     7
  6
Continuous
370
    -3
390
F
  0
LAYER
  5
42
330
2
100
AcDbSymbolTableRecord
100
AcDbLayerTableRecord
  2
F-5
 70
     0
 62
     7
  6
Continuous
370
    -3
390
F
  0
ENDTAB
  0
TABLE
  2
STYLE
  5
3
330
0
100
AcDbSymbolTable
 70
     2
  0
STYLE
  5
11
330
3
100
AcDbSymbolTableRecord
100
AcDbTextStyleTableRecord
  2
Standard
 70
     0
 40
0.0
 41
1.0
 50
0.0
 71
     0
 42
2.5
  3
txt
  4

1001
ACAD
1000

1071
        0
  0
STYLE
  5
3B
330
3
100
AcDbSymbolTableRecord
100
AcDbTextStyleTableRecord
  2
ＭＳ ゴシック
 70
     0
 40
1.0
 41
1.0
 50
0.0
 71
     0
 42
10.0
  3

  4

1001
ACAD
1000
MS Gothic
1071
    32817
  0
ENDTAB
  0
TABLE
  2
VIEW
  5
6
330
0
100
AcDbSymbolTable
 70
     0
  0
ENDTAB
  0
TABLE
  2
UCS
  5
7
330
0
100
AcDbSymbolTable
 70
     0
  0
ENDTAB
  0
TABLE
  2
APPID
  5
9
330
0
100
AcDbSymbolTable
 70
     1
  0
APPID
  5
12
330
9
100
AcDbSymbolTableRecord
100
AcDbRegAppTableRecord
  2
ACAD
 70
     0
  0
ENDTAB
  0
TABLE
  2
DIMSTYLE
  5
A
330
0
100
AcDbSymbolTable
 70
     1
100
AcDbDimStyleTable
  0
DIMSTYLE
105
27
330
A
100
AcDbSymbolTableRecord
100
AcDbDimStyleTableRecord
  2
ISO-25
 70
     0
 41
2.5
 42
0.625
 43
3.75
 44
1.25
 73
     0
 74
     0
 77
     1
 78
     8
140
2.5
141
2.5
143
0.03937007874016
147
0.625
171
     3
172
     1
271
     2
272
     2
274
     3
278
    44
283
     0
284
     8
340
11
  0
ENDTAB
  0
TABLE
  2
BLOCK_RECORD
  5
1
330
0
100
AcDbSymbolTable
 70
     1
  0
BLOCK_RECORD
  5
1F
330
1
100
AcDbSymbolTableRecord
100
AcDbBlockTableRecord
  2
*Model_Space
340
22
  0
BLOCK_RECORD
  5
1B
330
1
100
AcDbSymbolTableRecord
100
AcDbBlockTableRecord
  2
*Paper_Space
340
1E
  0
BLOCK_RECORD
  5
23
330
1
100
AcDbSymbolTableRecord
100
AcDbBlockTableRecord
  2
*Paper_Space0
340
26
  0
ENDTAB
  0
ENDSEC
  0
SECTION
  2
BLOCKS
  0
BLOCK
  5
20
330
1F
100
AcDbEntity
  8
0
100
AcDbBlockBegin
  2
*Model_Space
 70
     0
 10
0.0
 20
0.0
 30
0.0
  3
*Model_Space
  1

  0
ENDBLK
  5
21
330
1F
100
AcDbEntity
  8
0
100
AcDbBlockEnd
  0
BLOCK
  5
1C
330
1B
100
AcDbEntity
 67
     1
  8
0
100
AcDbBlockBegin
  2
*Paper_Space
 70
     0
 10
0.0
 20
0.0
 30
0.0
  3
*Paper_Space
  1

  0
ENDBLK
  5
1D
330
1B
100
AcDbEntity
 67
     1
  8
0
100
AcDbBlockEnd
  0
BLOCK
  5
24
330
23
100
AcDbEntity
  8
0
100
AcDbBlockBegin
  2
*Paper_Space0
 70
     0
 10
0.0
 20
0.0
 30
0.0
  3
*Paper_Space0
  1

  0
ENDBLK
  5
25
330
23
100
AcDbEntity
  8
0
100
AcDbBlockEnd
  0
ENDSEC
  0
SECTION
  2
ENTITIES
  0
TEXT
  5
43
330
1F
100
AcDbEntity
  8
0-E
  6
Continuous
 62
     2
370
     9
100
AcDbText
 10
250.8136533168839
 20
-256.0442414666796
 30
0.0
 40
9.144
  1
仕様
 41
1.0625
  7
ＭＳ ゴシック
100
AcDbText
  0
TEXT
  5
44
330
1F
100
AcDbEntity
  8
0-E
  6
Continuous
 62
     2
370
     9
100
AcDbText
 10
250.8136372911601
 20
-274.0443008522446
 30
0.0
 40
9.144
  1
適応荷重：Ｔ－２
 50
0.0000399359442499
 41
1.109375
  7
ＭＳ ゴシック
100
AcDbText
  0
TEXT
  5
45
330
1F
100
AcDbEntity
  8
0-E
  6
Continuous
 62
     2
370
     9
100
AcDbText
 10
250.8136681632732
 20
-310.0442711594584
 30
0.0
 40
9.144
  1
接触圧子：φ１５０ｍｍ
 41
1.113636363636363
  7
ＭＳ ゴシック
100
AcDbText
  0
TEXT
  5
46
330
1F
100
AcDbEntity
  8
0-E
  6
Continuous
 62
     2
370
     9
100
AcDbText
 10
250.8136681632732
 20
-292.0442860058478
 30
0.0
 40
9.144
  1
破壊荷重：２０ｋＮ（２，０４１ｋｇｆ）以上
 41
1.119047619047619
  7
ＭＳ ゴシック
100
AcDbText
  0
LINE
  5
47
330
1F
100
AcDbEntity
  8
0-0
  6
Continuous
 62
     3
370
     9
100
AcDbLine
 10
-49.66270343677414
 20
319.6891430004224
 30
0.0
 11
-49.66270343677414
 21
-114.3107918404242
 31
0.0
  0
LINE
  5
48
330
1F
100
AcDbEntity
  8
0-0
  6
Continuous
 62
     3
370
     9
100
AcDbLine
 10
-52.66278756631382
 20
322.6890786660686
 30
0.0
 11
-486.6627966391073
 21
322.6890786660686
 31
0.0
  0
LINE
  5
49
330
1F
100
AcDbEntity
  8
0-0
  6
Continuous
 62
     3
370
     9
100
AcDbLine
 10
230.3372676952467
 20
301.7391159470018
 30
0.0
 11
232.3372248056774
 21
300.7391373917865
 31
0.0
  0
LINE
  5
4A
330
1F
100
AcDbEntity
  8
0-0
  6
Continuous
 62
     3
370
     9
100
AcDbLine
 10
230.3372676952467
 20
322.6890786660686
 30
0.0
 11
244.020071287413
 21
321.009061246305
 31
0.0
  0
LINE
  5
4B
330
1F
100
AcDbEntity
  8
0-0
  6
Continuous
 62
     3
370
     9
100
AcDbLine
 10
232.3372248056774
 20
300.7391373917865
 30
0.0
 11
244.020071287413
 21
302.1735955315669
 31
0.0
  0
LINE
  5
4C
330
1F
100
AcDbEntity
  8
0-0
  6
Continuous
 62
     3
370
     9
100
AcDbLine
 10
230.3372676952467
 20
322.6890786660686
 30
0.0
 11
230.3372676952467
 21
-117.3107646220437
 31
0.0
  0
LINE
  5
4D
330
1F
100
AcDbEntity
  8
0-0
  6
Continuous
 62
     3
370
     9
100
AcDbLine
 10
232.3372248056774
 20
300.7391373917865
 30
0.0
 11
232.3372248056774
 21
-95.36074911581483
 31
0.0
  0
LINE
  5
4E
330
1F
100
AcDbEntity
  8
0-0
  6
Continuous
 62
     3
370
     9
100
AcDbLine
 10
-259.4627473161028
 20
198.0891228753169
 30
0.0
 11
-279.862799773345
 21
198.0891228753169
 31
0.0
  0
LINE
  5
4F
330
1F
100
AcDbEntity
  8
0-0
  6
Continuous
 62
     3
370
     9
100
AcDbLine
 10
-255.4627588632945
 20
115.6891380516259
 30
0.0
 11
-255.4627588632945
 21
194.0891344225086
 31
0.0
  0
LINE
  5
50
330
1F
100
AcDbEntity
  8
0-0
  6
Continuous
 62
     3
370
     9
100
AcDbLine
 10
-259.4627473161028
 20
111.6891495988177
 30
0.0
 11
-279.862799773345
 21
111.6891495988177
 31
0.0
  0
LINE
  5
51
330
1F
100
AcDbEntity
  8
0-0
  6
Continuous
 62
     3
370
     9
100
AcDbLine
 10
-259.4627473161028
 20
302.4892297693202
 30
0.0
 11
-279.862799773345
 21
302.4892297693202
 31
0.0
  0
LINE
  5
52
330
1F
100
AcDbEntity
  8
0-0
  6
Continuous
 62
     3
370
     9
100
AcDbLine
 10
-255.4627588632945
 20
220.0892449456294
 30
0.0
 11
-255.4627588632945
 21
298.4891670845652
 31
0.0
  0
LINE
  5
53
330
1F
100
AcDbEntity
  8
0-0
  6
Continuous
 62
     3
370
     9
100
AcDbLine
 10
-259.4627473161028
 20
216.0891822608743
 30
0.0
 11
-279.862799773345
 21
216.0891822608743
 31
0.0
  0
LINE
  5
54
330
1F
100
AcDbEntity
  8
0-0
  6
Continuous
 62
     3
370
     9
100
AcDbLine
 10
-213.0627327996331
 20
198.0891228753169
 30
0.0
 11
-233.4627481409021
 21
198.0891228753169
 31
0.0
  0
LINE
  5
55
330
1F
100
AcDbEntity
  8
0-0
  6
Continuous
 62
     3
370
     9
100
AcDbLine
 10
-209.0627443468248
 20
115.6891380516259
 30
0.0
 11
-209.0627443468248
 21
194.0891344225086
 31
0.0
  0
LINE
  5
56
330
1F
100
AcDbEntity
  8
0-0
  6
Continuous
 62
     3
370
     9
100
AcDbLine
 10
-213.0627327996331
 20
111.6891495988177
 30
0.0
 11
-233.4627481409021
 21
111.6891495988177
 31
0.0
  0
LINE
  5
57
330
1F
100
AcDbEntity
  8
0-0
  6
Continuous
 62
     3
370
     9
100
AcDbLine
 10
-213.0627327996331
 20
302.4892297693202
 30
0.0
 11
-233.4627481409021
 21
302.4892297693202
 31
0.0
  0
LINE
  5
58
330
1F
100
AcDbEntity
  8
0-0
  6
Continuous
 62
     3
370
     9
100
AcDbLine
 10
-209.0627443468248
 20
220.0892449456294
 30
0.0
 11
-209.0627443468248
 21
298.4891670845652
 31
0.0
  0
LINE
  5
59
330
1F
100
AcDbEntity
  8
0-0
  6
Continuous
 62
     3
370
     9
100
AcDbLine
 10
-213.0627327996331
 20
216.0891822608743
 30
0.0
 11
-233.4627481409021
 21
216.0891822608743
 31
0.0
  0
LINE
  5
5A
330
1F
100
AcDbEntity
  8
0-0
  6
Continuous
 62
     3
370
     9
100
AcDbLine
 10
-237.4627737096837
 20
115.6891380516259
 30
0.0
 11
-237.4627737096837
 21
194.0891344225086
 31
0.0
  0
LINE
  5
5B
330
1F
100
AcDbEntity
  8
0-0
  6
Continuous
 62
     3
370
     9
100
AcDbLine
 10
-237.4627737096837
 20
220.0892449456294
 30
0.0
 11
-237.4627737096837
 21
298.4891670845652
 31
0.0
  0
LINE
  5
5C
330
1F
100
AcDbEntity
  8
0-0
  6
Continuous
 62
     3
370
     9
100
AcDbLine
 10
-166.6627553991369
 20
198.0891228753169
 30
0.0
 11
-187.0627336244325
 21
198.0891228753169
 31
0.0
  0
LINE
  5
5D
330
1F
100
AcDbEntity
  8
0-0
  6
Continuous
 62
     3
370
     9
100
AcDbLine
 10
-162.6626927143819
 20
115.6891380516259
 30
0.0
 11
-162.6626927143819
 21
194.0891344225086
 31
0.0
  0
LINE
  5
5E
330
1F
100
AcDbEntity
  8
0-0
  6
Continuous
 62
     3
370
     9
100
AcDbLine
 10
-166.6627553991369
 20
111.6891495988177
 30
0.0
 11
-187.0627336244325
 21
111.6891495988177
 31
0.0
  0
LINE
  5
5F
330
1F
100
AcDbEntity
  8
0-0
  6
Continuous
 62
     3
370
     9
100
AcDbLine
 10
-166.6627553991369
 20
302.4892297693202
 30
0.0
 11
-187.0627336244325
 21
302.4892297693202
 31
0.0
  0
LINE
  5
60
330
1F
100
AcDbEntity
  8
0-0
  6
Continuous
 62
     3
370
     9
100
AcDbLine
 10
-162.6626927143819
 20
220.0892449456294
 30
0.0
 11
-162.6626927143819
 21
298.4891670845652
 31
0.0
  0
LINE
  5
61
330
1F
100
AcDbEntity
  8
0-0
  6
Continuous
 62
     3
370
     9
100
AcDbLine
 10
-166.6627553991369
 20
216.0891822608743
 30
0.0
 11
-187.0627336244325
 21
216.0891822608743
 31
0.0
  0
LINE
  5
62
330
1F
100
AcDbEntity
  8
0-0
  6
Continuous
 62
     3
370
     9
100
AcDbLine
 10
-191.0627220772408
 20
115.6891380516259
 30
0.0
 11
-191.0627220772408
 21
194.0891344225086
 31
0.0
  0
LINE
  5
63
330
1F
100
AcDbEntity
  8
0-0
  6
Continuous
 62
     3
370
     9
100
AcDbLine
 10
-191.0627220772408
 20
220.0892449456294
 30
0.0
 11
-191.0627220772408
 21
298.4891670845652
 31
0.0
  0
LINE
  5
64
330
1F
100
AcDbEntity
  8
0-0
  6
Continuous
 62
     3
370
     9
100
AcDbLine
 10
-120.2627037666939
 20
198.0891228753169
 30
0.0
 11
-140.6627562239363
 21
198.0891228753169
 31
0.0
  0
LINE
  5
65
330
1F
100
AcDbEntity
  8
0-0
  6
Continuous
 62
     3
370
     9
100
AcDbLine
 10
-116.2627895458325
 20
115.6891380516259
 30
0.0
 11
-116.2627895458325
 21
194.0891344225086
 31
0.0
  0
LINE
  5
66
330
1F
100
AcDbEntity
  8
0-0
  6
Continuous
 62
     3
370
     9
100
AcDbLine
 10
-120.2627037666939
 20
111.6891495988177
 30
0.0
 11
-140.6627562239363
 21
111.6891495988177
 31
0.0
  0
LINE
  5
67
330
1F
100
AcDbEntity
  8
0-0
  6
Continuous
 62
     3
370
     9
100
AcDbLine
 10
-120.2627037666939
 20
302.4892297693202
 30
0.0
 11
-140.6627562239363
 21
302.4892297693202
 31
0.0
  0
LINE
  5
68
330
1F
100
AcDbEntity
  8
0-0
  6
Continuous
 62
     3
370
     9
100
AcDbLine
 10
-116.2627895458325
 20
220.0892449456294
 30
0.0
 11
-116.2627895458325
 21
298.4891670845652
 31
0.0
  0
LINE
  5
69
330
1F
100
AcDbEntity
  8
0-0
  6
Continuous
 62
     3
370
     9
100
AcDbLine
 10
-120.2627037666939
 20
216.0891822608743
 30
0.0
 11
-140.6627562239363
 21
216.0891822608743
 31
0.0
  0
LINE
  5
6A
330
1F
100
AcDbEntity
  8
0-0
  6
Continuous
 62
     3
370
     9
100
AcDbLine
 10
-144.6627446767447
 20
115.6891380516259
 30
0.0
 11
-144.6627446767447
 21
194.0891344225086
 31
0.0
  0
LINE
  5
6B
330
1F
100
AcDbEntity
  8
0-0
  6
Continuous
 62
     3
370
     9
100
AcDbLine
 10
-144.6627446767447
 20
220.0892449456294
 30
0.0
 11
-144.6627446767447
 21
298.4891670845652
 31
0.0
  0
LINE
  5
6C
330
1F
100
AcDbEntity
  8
0-0
  6
Continuous
 62
     3
370
     9
100
AcDbLine
 10
-73.86276348217109
 20
198.0891228753169
 30
0.0
 11
-94.26277882344007
 21
198.0891228753169
 31
0.0
  0
LINE
  5
6D
330
1F
100
AcDbEntity
  8
0-0
  6
Continuous
 62
     3
370
     9
100
AcDbLine
 10
-69.86273791338945
 20
115.6891380516259
 30
0.0
 11
-69.86273791338945
 21
194.0891344225086
 31
0.0
  0
LINE
  5
6E
330
1F
100
AcDbEntity
  8
0-0
  6
Continuous
 62
     3
370
     9
100
AcDbLine
 10
-73.86276348217109
 20
111.6891495988177
 30
0.0
 11
-94.26277882344007
 21
111.6891495988177
 31
0.0
  0
LINE
  5
6F
330
1F
100
AcDbEntity
  8
0-0
  6
Continuous
 62
     3
370
     9
100
AcDbLine
 10
-73.86276348217109
 20
302.4892297693202
 30
0.0
 11
-94.26277882344007
 21
302.4892297693202
 31
0.0
  0
LINE
  5
70
330
1F
100
AcDbEntity
  8
0-0
  6
Continuous
 62
     3
370
     9
100
AcDbLine
 10
-69.86273791338945
 20
220.0892449456294
 30
0.0
 11
-69.86273791338945
 21
298.4891670845652
 31
0.0
  0
LINE
  5
71
330
1F
100
AcDbEntity
  8
0-0
  6
Continuous
 62
     3
370
     9
100
AcDbLine
 10
-73.86276348217109
 20
216.0891822608743
 30
0.0
 11
-94.26277882344007
 21
216.0891822608743
 31
0.0
  0
LINE
  5
72
330
1F
100
AcDbEntity
  8
0-0
  6
Continuous
 62
     3
370
     9
100
AcDbLine
 10
-98.26276727624844
 20
115.6891380516259
 30
0.0
 11
-98.26276727624844
 21
194.0891344225086
 31
0.0
  0
LINE
  5
73
330
1F
100
AcDbEntity
  8
0-0
  6
Continuous
 62
     3
370
     9
100
AcDbLine
 10
-98.26276727624844
 20
220.0892449456294
 30
0.0
 11
-98.26276727624844
 21
298.4891670845652
 31
0.0
  0
LINE
  5
74
330
1F
100
AcDbEntity
  8
0-0
  6
Continuous
 62
     3
370
     9
100
AcDbLine
 10
-73.86276348217109
 20
303.4892083245356
 30
0.0
 11
-465.46282072325
 21
303.4892083245356
 31
0.0
  0
LINE
  5
75
330
1F
100
AcDbEntity
  8
0-0
  6
Continuous
 62
     3
370
     9
100
AcDbLine
 10
-68.86275935817406
 20
298.4891670845652
 30
0.0
 11
-68.86275935817406
 21
-93.11077880859358
 31
0.0
  0
LINE
  5
76
330
1F
100
AcDbEntity
  8
0-0
  6
Continuous
 62
     3
370
     9
100
AcDbLine
 10
-52.66278756631382
 20
-117.3107646220437
 30
0.0
 11
-486.6627966391073
 21
-117.3107646220437
 31
0.0
  0
LINE
  5
77
330
1F
100
AcDbEntity
  8
0-0
  6
Continuous
 62
     3
370
     9
100
AcDbLine
 10
-259.4627473161028
 20
7.289154052734546
 30
0.0
 11
-279.862799773345
 21
7.289154052734546
 31
0.0
  0
LINE
  5
78
330
1F
100
AcDbEntity
  8
0-0
  6
Continuous
 62
     3
370
     9
100
AcDbLine
 10
-255.4627588632945
 20
89.68917599239876
 30
0.0
 11
-255.4627588632945
 21
11.28917962151618
 31
0.0
  0
LINE
  5
79
330
1F
100
AcDbEntity
  8
0-0
  6
Continuous
 62
     3
370
     9
100
AcDbLine
 10
-259.4627473161028
 20
93.68916444520704
 30
0.0
 11
-279.862799773345
 21
93.68916444520704
 31
0.0
  0
LINE
  5
7A
330
1F
100
AcDbEntity
  8
0-0
  6
Continuous
 62
     3
370
     9
100
AcDbLine
 10
-259.4627473161028
 20
-97.11084149334874
 30
0.0
 11
-279.862799773345
 21
-97.11084149334874
 31
0.0
  0
LINE
  5
7B
330
1F
100
AcDbEntity
  8
0-0
  6
Continuous
 62
     3
370
     9
100
AcDbLine
 10
-255.4627588632945
 20
-14.7108566696578
 30
0.0
 11
-255.4627588632945
 21
-93.11077880859358
 31
0.0
  0
LINE
  5
7C
330
1F
100
AcDbEntity
  8
0-0
  6
Continuous
 62
     3
370
     9
100
AcDbLine
 10
-259.4627473161028
 20
-10.71086821684952
 30
0.0
 11
-279.862799773345
 21
-10.71086821684952
 31
0.0
  0
LINE
  5
7D
330
1F
100
AcDbEntity
  8
0-0
  6
Continuous
 62
     3
370
     9
100
AcDbLine
 10
-213.0627327996331
 20
7.289154052734546
 30
0.0
 11
-233.4627481409021
 21
7.289154052734546
 31
0.0
  0
LINE
  5
7E
330
1F
100
AcDbEntity
  8
0-0
  6
Continuous
 62
     3
370
     9
100
AcDbLine
 10
-209.0627443468248
 20
89.68917599239876
 30
0.0
 11
-209.0627443468248
 21
11.28917962151618
 31
0.0
  0
LINE
  5
7F
330
1F
100
AcDbEntity
  8
0-0
  6
Continuous
 62
     3
370
     9
100
AcDbLine
 10
-213.0627327996331
 20
93.68916444520704
 30
0.0
 11
-233.4627481409021
 21
93.68916444520704
 31
0.0
  0
LINE
  5
80
330
1F
100
AcDbEntity
  8
0-0
  6
Continuous
 62
     3
370
     9
100
AcDbLine
 10
-213.0627327996331
 20
-97.11084149334874
 30
0.0
 11
-233.4627481409021
 21
-97.11084149334874
 31
0.0
  0
LINE
  5
81
330
1F
100
AcDbEntity
  8
0-0
  6
Continuous
 62
     3
370
     9
100
AcDbLine
 10
-209.0627443468248
 20
-14.7108566696578
 30
0.0
 11
-209.0627443468248
 21
-93.11077880859358
 31
0.0
  0
LINE
  5
82
330
1F
100
AcDbEntity
  8
0-0
  6
Continuous
 62
     3
370
     9
100
AcDbLine
 10
-213.0627327996331
 20
-10.71086821684952
 30
0.0
 11
-233.4627481409021
 21
-10.71086821684952
 31
0.0
  0
LINE
  5
83
330
1F
100
AcDbEntity
  8
0-0
  6
Continuous
 62
     3
370
     9
100
AcDbLine
 10
-237.4627737096837
 20
89.68917599239876
 30
0.0
 11
-237.4627737096837
 21
11.28917962151618
 31
0.0
  0
LINE
  5
84
330
1F
100
AcDbEntity
  8
0-0
  6
Continuous
 62
     3
370
     9
100
AcDbLine
 10
-237.4627737096837
 20
-14.7108566696578
 30
0.0
 11
-237.4627737096837
 21
-93.11077880859358
 31
0.0
  0
LINE
  5
85
330
1F
100
AcDbEntity
  8
0-0
  6
Continuous
 62
     3
370
     9
100
AcDbLine
 10
-166.6627553991369
 20
7.289154052734546
 30
0.0
 11
-187.0627336244325
 21
7.289154052734546
 31
0.0
  0
LINE
  5
86
330
1F
100
AcDbEntity
  8
0-0
  6
Continuous
 62
     3
370
     9
100
AcDbLine
 10
-162.6626927143819
 20
89.68917599239876
 30
0.0
 11
-162.6626927143819
 21
11.28917962151618
 31
0.0
  0
LINE
  5
87
330
1F
100
AcDbEntity
  8
0-0
  6
Continuous
 62
     3
370
     9
100
AcDbLine
 10
-166.6627553991369
 20
93.68916444520704
 30
0.0
 11
-187.0627336244325
 21
93.68916444520704
 31
0.0
  0
LINE
  5
88
330
1F
100
AcDbEntity
  8
0-0
  6
Continuous
 62
     3
370
     9
100
AcDbLine
 10
-166.6627553991369
 20
-97.11084149334874
 30
0.0
 11
-187.0627336244325
 21
-97.11084149334874
 31
0.0
  0
LINE
  5
89
330
1F
100
AcDbEntity
  8
0-0
  6
Continuous
 62
     3
370
     9
100
AcDbLine
 10
-162.6626927143819
 20
-14.7108566696578
 30
0.0
 11
-162.6626927143819
 21
-93.11077880859358
 31
0.0
  0
LINE
  5
8A
330
1F
100
AcDbEntity
  8
0-0
  6
Continuous
 62
     3
370
     9
100
AcDbLine
 10
-166.6627553991369
 20
-10.71086821684952
 30
0.0
 11
-187.0627336244325
 21
-10.71086821684952
 31
0.0
  0
LINE
  5
8B
330
1F
100
AcDbEntity
  8
0-0
  6
Continuous
 62
     3
370
     9
100
AcDbLine
 10
-191.0627220772408
 20
89.68917599239876
 30
0.0
 11
-191.0627220772408
 21
11.28917962151618
 31
0.0
  0
LINE
  5
8C
330
1F
100
AcDbEntity
  8
0-0
  6
Continuous
 62
     3
370
     9
100
AcDbLine
 10
-191.0627220772408
 20
-14.7108566696578
 30
0.0
 11
-191.0627220772408
 21
-93.11077880859358
 31
0.0
  0
LINE
  5
8D
330
1F
100
AcDbEntity
  8
0-0
  6
Continuous
 62
     3
370
     9
100
AcDbLine
 10
-120.2627037666939
 20
7.289154052734546
 30
0.0
 11
-140.6627562239363
 21
7.289154052734546
 31
0.0
  0
LINE
  5
8E
330
1F
100
AcDbEntity
  8
0-0
  6
Continuous
 62
     3
370
     9
100
AcDbLine
 10
-116.2626410819388
 20
89.68917599239876
 30
0.0
 11
-116.2626410819388
 21
11.28917962151618
 31
0.0
  0
LINE
  5
8F
330
1F
100
AcDbEntity
  8
0-0
  6
Continuous
 62
     3
370
     9
100
AcDbLine
 10
-120.2627037666939
 20
93.68916444520704
 30
0.0
 11
-140.6627562239363
 21
93.68916444520704
 31
0.0
  0
LINE
  5
90
330
1F
100
AcDbEntity
  8
0-0
  6
Continuous
 62
     3
370
     9
100
AcDbLine
 10
-120.2627037666939
 20
-97.11084149334874
 30
0.0
 11
-140.6627562239363
 21
-97.11084149334874
 31
0.0
  0
LINE
  5
91
330
1F
100
AcDbEntity
  8
0-0
  6
Continuous
 62
     3
370
     9
100
AcDbLine
 10
-116.2626410819388
 20
-14.7108566696578
 30
0.0
 11
-116.2626410819388
 21
-93.11077880859358
 31
0.0
  0
LINE
  5
92
330
1F
100
AcDbEntity
  8
0-0
  6
Continuous
 62
     3
370
     9
100
AcDbLine
 10
-120.2627037666939
 20
-10.71086821684952
 30
0.0
 11
-140.6627562239363
 21
-10.71086821684952
 31
0.0
  0
LINE
  5
93
330
1F
100
AcDbEntity
  8
0-0
  6
Continuous
 62
     3
370
     9
100
AcDbLine
 10
-144.6626704447978
 20
89.68917599239876
 30
0.0
 11
-144.6626704447978
 21
11.28917962151618
 31
0.0
  0
LINE
  5
94
330
1F
100
AcDbEntity
  8
0-0
  6
Continuous
 62
     3
370
     9
100
AcDbLine
 10
-144.6626704447978
 20
-14.7108566696578
 30
0.0
 11
-144.6626704447978
 21
-93.11077880859358
 31
0.0
  0
LINE
  5
95
330
1F
100
AcDbEntity
  8
0-0
  6
Continuous
 62
     3
370
     9
100
AcDbLine
 10
-73.86276348217109
 20
7.289154052734546
 30
0.0
 11
-94.26277882344007
 21
7.289154052734546
 31
0.0
  0
LINE
  5
96
330
1F
100
AcDbEntity
  8
0-0
  6
Continuous
 62
     3
370
     9
100
AcDbLine
 10
-69.86273791338945
 20
89.68917599239876
 30
0.0
 11
-69.86273791338945
 21
11.28917962151618
 31
0.0
  0
LINE
  5
97
330
1F
100
AcDbEntity
  8
0-0
  6
Continuous
 62
     3
370
     9
100
AcDbLine
 10
-73.86276348217109
 20
93.68916444520704
 30
0.0
 11
-94.26277882344007
 21
93.68916444520704
 31
0.0
  0
LINE
  5
98
330
1F
100
AcDbEntity
  8
0-0
  6
Continuous
 62
     3
370
     9
100
AcDbLine
 10
-73.86276348217109
 20
-97.11084149334874
 30
0.0
 11
-94.26277882344007
 21
-97.11084149334874
 31
0.0
  0
LINE
  5
99
330
1F
100
AcDbEntity
  8
0-0
  6
Continuous
 62
     3
370
     9
100
AcDbLine
 10
-69.86273791338945
 20
-14.7108566696578
 30
0.0
 11
-69.86273791338945
 21
-93.11077880859358
 31
0.0
  0
LINE
  5
9A
330
1F
100
AcDbEntity
  8
0-0
  6
Continuous
 62
     3
370
     9
100
AcDbLine
 10
-73.86276348217109
 20
-10.71086821684952
 30
0.0
 11
-94.26277882344007
 21
-10.71086821684952
 31
0.0
  0
LINE
  5
9B
330
1F
100
AcDbEntity
  8
0-0
  6
Continuous
 62
     3
370
     9
100
AcDbLine
 10
-98.26276727624844
 20
89.68917599239876
 30
0.0
 11
-98.26276727624844
 21
11.28917962151618
 31
0.0
  0
LINE
  5
9C
330
1F
100
AcDbEntity
  8
0-0
  6
Continuous
 62
     3
370
     9
100
AcDbLine
 10
-98.26276727624844
 20
-14.7108566696578
 30
0.0
 11
-98.26276727624844
 21
-93.11077880859358
 31
0.0
  0
LINE
  5
9D
330
1F
100
AcDbEntity
  8
0-0
  6
Continuous
 62
     3
370
     9
100
AcDbLine
 10
-73.86276348217109
 20
-98.1109313964842
 30
0.0
 11
-465.46282072325
 21
-98.1109313964842
 31
0.0
  0
LINE
  5
9E
330
1F
100
AcDbEntity
  8
0-0
  6
Continuous
 62
     3
370
     9
100
AcDbLine
 10
-489.6628065367003
 20
319.6891430004224
 30
0.0
 11
-489.6628065367003
 21
-114.3107918404242
 31
0.0
  0
LINE
  5
9F
330
1F
100
AcDbEntity
  8
0-0
  6
Continuous
 62
     3
370
     9
100
AcDbLine
 10
-283.8627882261534
 20
115.6891380516259
 30
0.0
 11
-283.8627882261534
 21
194.0892086544554
 31
0.0
  0
LINE
  5
A0
330
1F
100
AcDbEntity
  8
0-0
  6
Continuous
 62
     3
370
     9
100
AcDbLine
 10
-283.8627882261534
 20
220.0892449456294
 30
0.0
 11
-283.8627882261534
 21
298.4891670845652
 31
0.0
  0
LINE
  5
A1
330
1F
100
AcDbEntity
  8
0-0
  6
Continuous
 62
     3
370
     9
100
AcDbLine
 10
-326.2627771738413
 20
198.0891971072637
 30
0.0
 11
-305.8627989485457
 21
198.0891971072637
 31
0.0
  0
LINE
  5
A2
330
1F
100
AcDbEntity
  8
0-0
  6
Continuous
 62
     3
370
     9
100
AcDbLine
 10
-330.262802742623
 20
115.6891380516259
 30
0.0
 11
-330.262802742623
 21
194.0892086544554
 31
0.0
  0
LINE
  5
A3
330
1F
100
AcDbEntity
  8
0-0
  6
Continuous
 62
     3
370
     9
100
AcDbLine
 10
-326.2627771738413
 20
111.6891495988177
 30
0.0
 11
-305.8627989485457
 21
111.6891495988177
 31
0.0
  0
LINE
  5
A4
330
1F
100
AcDbEntity
  8
0-0
  6
Continuous
 62
     3
370
     9
100
AcDbLine
 10
-326.2627771738413
 20
302.4892297693202
 30
0.0
 11
-305.8627989485457
 21
302.4892297693202
 31
0.0
  0
LINE
  5
A5
330
1F
100
AcDbEntity
  8
0-0
  6
Continuous
 62
     3
370
     9
100
AcDbLine
 10
-330.262802742623
 20
220.0892449456294
 30
0.0
 11
-330.262802742623
 21
298.4891670845652
 31
0.0
  0
LINE
  5
A6
330
1F
100
AcDbEntity
  8
0-0
  6
Continuous
 62
     3
370
     9
100
AcDbLine
 10
-326.2627771738413
 20
216.0891822608743
 30
0.0
 11
-305.8627989485457
 21
216.0891822608743
 31
0.0
  0
LINE
  5
A7
330
1F
100
AcDbEntity
  8
0-0
  6
Continuous
 62
     3
370
     9
100
AcDbLine
 10
-301.8627362637906
 20
115.6891380516259
 30
0.0
 11
-301.8627362637906
 21
194.0892086544554
 31
0.0
  0
LINE
  5
A8
330
1F
100
AcDbEntity
  8
0-0
  6
Continuous
 62
     3
370
     9
100
AcDbLine
 10
-301.8627362637906
 20
220.0892449456294
 30
0.0
 11
-301.8627362637906
 21
298.4891670845652
 31
0.0
  0
LINE
  5
A9
330
1F
100
AcDbEntity
  8
0-0
  6
Continuous
 62
     3
370
     9
100
AcDbLine
 10
-372.6628288062843
 20
198.0891971072637
 30
0.0
 11
-352.2628134650153
 21
198.0891971072637
 31
0.0
  0
LINE
  5
AA
330
1F
100
AcDbEntity
  8
0-0
  6
Continuous
 62
     3
370
     9
100
AcDbLine
 10
-376.662854375066
 20
115.6891380516259
 30
0.0
 11
-376.662854375066
 21
194.0892086544554
 31
0.0
  0
LINE
  5
AB
330
1F
100
AcDbEntity
  8
0-0
  6
Continuous
 62
     3
370
     9
100
AcDbLine
 10
-372.6628288062843
 20
111.6891495988177
 30
0.0
 11
-352.2628134650153
 21
111.6891495988177
 31
0.0
  0
LINE
  5
AC
330
1F
100
AcDbEntity
  8
0-0
  6
Continuous
 62
     3
370
     9
100
AcDbLine
 10
-372.6628288062843
 20
302.4892297693202
 30
0.0
 11
-352.2628134650153
 21
302.4892297693202
 31
0.0
  0
LINE
  5
AD
330
1F
100
AcDbEntity
  8
0-0
  6
Continuous
 62
     3
370
     9
100
AcDbLine
 10
-376.662854375066
 20
220.0892449456294
 30
0.0
 11
-376.662854375066
 21
298.4891670845652
 31
0.0
  0
LINE
  5
AE
330
1F
100
AcDbEntity
  8
0-0
  6
Continuous
 62
     3
370
     9
100
AcDbLine
 10
-372.6628288062843
 20
216.0891822608743
 30
0.0
 11
-352.2628134650153
 21
216.0891822608743
 31
0.0
  0
LINE
  5
AF
330
1F
100
AcDbEntity
  8
0-0
  6
Continuous
 62
     3
370
     9
100
AcDbLine
 10
-348.262825012207
 20
115.6891380516259
 30
0.0
 11
-348.262825012207
 21
194.0892086544554
 31
0.0
  0
LINE
  5
B0
330
1F
100
AcDbEntity
  8
0-0
  6
Continuous
 62
     3
370
     9
100
AcDbLine
 10
-348.262825012207
 20
220.0892449456294
 30
0.0
 11
-348.262825012207
 21
298.4891670845652
 31
0.0
  0
LINE
  5
B1
330
1F
100
AcDbEntity
  8
0-0
  6
Continuous
 62
     3
370
     9
100
AcDbLine
 10
-419.0628062067806
 20
198.0891971072637
 30
0.0
 11
-398.6627537495381
 21
198.0891971072637
 31
0.0
  0
LINE
  5
B2
330
1F
100
AcDbEntity
  8
0-0
  6
Continuous
 62
     3
370
     9
100
AcDbLine
 10
-423.0627946595888
 20
115.6891380516259
 30
0.0
 11
-423.0627946595888
 21
194.0892086544554
 31
0.0
  0
LINE
  5
B3
330
1F
100
AcDbEntity
  8
0-0
  6
Continuous
 62
     3
370
     9
100
AcDbLine
 10
-419.0628062067806
 20
111.6891495988177
 30
0.0
 11
-398.6627537495381
 21
111.6891495988177
 31
0.0
  0
LINE
  5
B4
330
1F
100
AcDbEntity
  8
0-0
  6
Continuous
 62
     3
370
     9
100
AcDbLine
 10
-419.0628062067806
 20
302.4892297693202
 30
0.0
 11
-398.6627537495381
 21
302.4892297693202
 31
0.0
  0
LINE
  5
B5
330
1F
100
AcDbEntity
  8
0-0
  6
Continuous
 62
     3
370
     9
100
AcDbLine
 10
-423.0627946595888
 20
220.0892449456294
 30
0.0
 11
-423.0627946595888
 21
298.4891670845652
 31
0.0
  0
LINE
  5
B6
330
1F
100
AcDbEntity
  8
0-0
  6
Continuous
 62
     3
370
     9
100
AcDbLine
 10
-419.0628062067806
 20
216.0891822608743
 30
0.0
 11
-398.6627537495381
 21
216.0891822608743
 31
0.0
  0
LINE
  5
B7
330
1F
100
AcDbEntity
  8
0-0
  6
Continuous
 62
     3
370
     9
100
AcDbLine
 10
-394.6628024127032
 20
115.6891380516259
 30
0.0
 11
-394.6628024127032
 21
194.0892086544554
 31
0.0
  0
LINE
  5
B8
330
1F
100
AcDbEntity
  8
0-0
  6
Continuous
 62
     3
370
     9
100
AcDbLine
 10
-394.6628024127032
 20
220.0892449456294
 30
0.0
 11
-394.6628024127032
 21
298.4891670845652
 31
0.0
  0
LINE
  5
B9
330
1F
100
AcDbEntity
  8
0-0
  6
Continuous
 62
     3
370
     9
100
AcDbLine
 10
-465.46282072325
 20
198.0891971072637
 30
0.0
 11
-445.0627682660078
 21
198.0891971072637
 31
0.0
  0
LINE
  5
BA
330
1F
100
AcDbEntity
  8
0-0
  6
Continuous
 62
     3
370
     9
100
AcDbLine
 10
-469.4628091760584
 20
115.6891380516259
 30
0.0
 11
-469.4628091760584
 21
194.0892086544554
 31
0.0
  0
LINE
  5
BB
330
1F
100
AcDbEntity
  8
0-0
  6
Continuous
 62
     3
370
     9
100
AcDbLine
 10
-465.46282072325
 20
111.6891495988177
 30
0.0
 11
-445.0627682660078
 21
111.6891495988177
 31
0.0
  0
LINE
  5
BC
330
1F
100
AcDbEntity
  8
0-0
  6
Continuous
 62
     3
370
     9
100
AcDbLine
 10
-465.46282072325
 20
302.4892297693202
 30
0.0
 11
-445.0627682660078
 21
302.4892297693202
 31
0.0
  0
LINE
  5
BD
330
1F
100
AcDbEntity
  8
0-0
  6
Continuous
 62
     3
370
     9
100
AcDbLine
 10
-469.4628091760584
 20
220.0892449456294
 30
0.0
 11
-469.4628091760584
 21
298.4891670845652
 31
0.0
  0
LINE
  5
BE
330
1F
100
AcDbEntity
  8
0-0
  6
Continuous
 62
     3
370
     9
100
AcDbLine
 10
-465.46282072325
 20
216.0891822608743
 30
0.0
 11
-445.0627682660078
 21
216.0891822608743
 31
0.0
  0
LINE
  5
BF
330
1F
100
AcDbEntity
  8
0-0
  6
Continuous
 62
     3
370
     9
100
AcDbLine
 10
-441.0627798131994
 20
115.6891380516259
 30
0.0
 11
-441.0627798131994
 21
194.0892086544554
 31
0.0
  0
LINE
  5
C0
330
1F
100
AcDbEntity
  8
0-0
  6
Continuous
 62
     3
370
     9
100
AcDbLine
 10
-441.0627798131994
 20
220.0892449456294
 30
0.0
 11
-441.0627798131994
 21
298.4891670845652
 31
0.0
  0
LINE
  5
C1
330
1F
100
AcDbEntity
  8
0-0
  6
Continuous
 62
     3
370
     9
100
AcDbLine
 10
-470.4627877312737
 20
298.4891670845652
 30
0.0
 11
-470.4627877312737
 21
-93.11077880859358
 31
0.0
  0
LINE
  5
C2
330
1F
100
AcDbEntity
  8
0-0
  6
Continuous
 62
     3
370
     9
100
AcDbLine
 10
-283.8627882261534
 20
89.68917599239876
 30
0.0
 11
-283.8627882261534
 21
11.28917962151618
 31
0.0
  0
LINE
  5
C3
330
1F
100
AcDbEntity
  8
0-0
  6
Continuous
 62
     3
370
     9
100
AcDbLine
 10
-283.8627882261534
 20
-14.7108566696578
 30
0.0
 11
-283.8627882261534
 21
-93.11077880859358
 31
0.0
  0
LINE
  5
C4
330
1F
100
AcDbEntity
  8
0-0
  6
Continuous
 62
     3
370
     9
100
AcDbLine
 10
-326.2627771738413
 20
7.289154052734546
 30
0.0
 11
-305.8627989485457
 21
7.289154052734546
 31
0.0
  0
LINE
  5
C5
330
1F
100
AcDbEntity
  8
0-0
  6
Continuous
 62
     3
370
     9
100
AcDbLine
 10
-330.262802742623
 20
89.68917599239876
 30
0.0
 11
-330.262802742623
 21
11.28917962151618
 31
0.0
  0
LINE
  5
C6
330
1F
100
AcDbEntity
  8
0-0
  6
Continuous
 62
     3
370
     9
100
AcDbLine
 10
-326.2627771738413
 20
93.68916444520704
 30
0.0
 11
-305.8627989485457
 21
93.68916444520704
 31
0.0
  0
LINE
  5
C7
330
1F
100
AcDbEntity
  8
0-0
  6
Continuous
 62
     3
370
     9
100
AcDbLine
 10
-326.2627771738413
 20
-97.11084149334874
 30
0.0
 11
-305.8627989485457
 21
-97.11084149334874
 31
0.0
  0
LINE
  5
C8
330
1F
100
AcDbEntity
  8
0-0
  6
Continuous
 62
     3
370
     9
100
AcDbLine
 10
-330.262802742623
 20
-14.7108566696578
 30
0.0
 11
-330.262802742623
 21
-93.11077880859358
 31
0.0
  0
LINE
  5
C9
330
1F
100
AcDbEntity
  8
0-0
  6
Continuous
 62
     3
370
     9
100
AcDbLine
 10
-326.2627771738413
 20
-10.71086821684952
 30
0.0
 11
-305.8627989485457
 21
-10.71086821684952
 31
0.0
  0
LINE
  5
CA
330
1F
100
AcDbEntity
  8
0-0
  6
Continuous
 62
     3
370
     9
100
AcDbLine
 10
-301.8627362637906
 20
89.68917599239876
 30
0.0
 11
-301.8627362637906
 21
11.28917962151618
 31
0.0
  0
LINE
  5
CB
330
1F
100
AcDbEntity
  8
0-0
  6
Continuous
 62
     3
370
     9
100
AcDbLine
 10
-301.8627362637906
 20
-14.7108566696578
 30
0.0
 11
-301.8627362637906
 21
-93.11077880859358
 31
0.0
  0
LINE
  5
CC
330
1F
100
AcDbEntity
  8
0-0
  6
Continuous
 62
     3
370
     9
100
AcDbLine
 10
-372.6628288062843
 20
7.289154052734546
 30
0.0
 11
-352.2628134650153
 21
7.289154052734546
 31
0.0
  0
LINE
  5
CD
330
1F
100
AcDbEntity
  8
0-0
  6
Continuous
 62
     3
370
     9
100
AcDbLine
 10
-376.662854375066
 20
89.68917599239876
 30
0.0
 11
-376.662854375066
 21
11.28917962151618
 31
0.0
  0
LINE
  5
CE
330
1F
100
AcDbEntity
  8
0-0
  6
Continuous
 62
     3
370
     9
100
AcDbLine
 10
-372.6628288062843
 20
93.68916444520704
 30
0.0
 11
-352.2628134650153
 21
93.68916444520704
 31
0.0
  0
LINE
  5
CF
330
1F
100
AcDbEntity
  8
0-0
  6
Continuous
 62
     3
370
     9
100
AcDbLine
 10
-372.6628288062843
 20
-97.11084149334874
 30
0.0
 11
-352.2628134650153
 21
-97.11084149334874
 31
0.0
  0
LINE
  5
D0
330
1F
100
AcDbEntity
  8
0-0
  6
Continuous
 62
     3
370
     9
100
AcDbLine
 10
-376.662854375066
 20
-14.7108566696578
 30
0.0
 11
-376.662854375066
 21
-93.11077880859358
 31
0.0
  0
LINE
  5
D1
330
1F
100
AcDbEntity
  8
0-0
  6
Continuous
 62
     3
370
     9
100
AcDbLine
 10
-372.6628288062843
 20
-10.71086821684952
 30
0.0
 11
-352.2628134650153
 21
-10.71086821684952
 31
0.0
  0
LINE
  5
D2
330
1F
100
AcDbEntity
  8
0-0
  6
Continuous
 62
     3
370
     9
100
AcDbLine
 10
-348.262825012207
 20
89.68917599239876
 30
0.0
 11
-348.262825012207
 21
11.28917962151618
 31
0.0
  0
LINE
  5
D3
330
1F
100
AcDbEntity
  8
0-0
  6
Continuous
 62
     3
370
     9
100
AcDbLine
 10
-348.262825012207
 20
-14.7108566696578
 30
0.0
 11
-348.262825012207
 21
-93.11077880859358
 31
0.0
  0
LINE
  5
D4
330
1F
100
AcDbEntity
  8
0-0
  6
Continuous
 62
     3
370
     9
100
AcDbLine
 10
-419.0628062067806
 20
7.289154052734546
 30
0.0
 11
-398.662827981485
 21
7.289154052734546
 31
0.0
  0
LINE
  5
D5
330
1F
100
AcDbEntity
  8
0-0
  6
Continuous
 62
     3
370
     9
100
AcDbLine
 10
-423.0628688915356
 20
89.68917599239876
 30
0.0
 11
-423.0628688915356
 21
11.28917962151618
 31
0.0
  0
LINE
  5
D6
330
1F
100
AcDbEntity
  8
0-0
  6
Continuous
 62
     3
370
     9
100
AcDbLine
 10
-419.0628062067806
 20
93.68916444520704
 30
0.0
 11
-398.662827981485
 21
93.68916444520704
 31
0.0
  0
LINE
  5
D7
330
1F
100
AcDbEntity
  8
0-0
  6
Continuous
 62
     3
370
     9
100
AcDbLine
 10
-419.0628062067806
 20
-97.11084149334874
 30
0.0
 11
-398.662827981485
 21
-97.11084149334874
 31
0.0
  0
LINE
  5
D8
330
1F
100
AcDbEntity
  8
0-0
  6
Continuous
 62
     3
370
     9
100
AcDbLine
 10
-423.0628688915356
 20
-14.7108566696578
 30
0.0
 11
-423.0628688915356
 21
-93.11077880859358
 31
0.0
  0
LINE
  5
D9
330
1F
100
AcDbEntity
  8
0-0
  6
Continuous
 62
     3
370
     9
100
AcDbLine
 10
-419.0628062067806
 20
-10.71086821684952
 30
0.0
 11
-398.662827981485
 21
-10.71086821684952
 31
0.0
  0
LINE
  5
DA
330
1F
100
AcDbEntity
  8
0-0
  6
Continuous
 62
     3
370
     9
100
AcDbLine
 10
-394.6628395286766
 20
89.68917599239876
 30
0.0
 11
-394.6628395286766
 21
11.28917962151618
 31
0.0
  0
LINE
  5
DB
330
1F
100
AcDbEntity
  8
0-0
  6
Continuous
 62
     3
370
     9
100
AcDbLine
 10
-394.6628395286766
 20
-14.7108566696578
 30
0.0
 11
-394.6628395286766
 21
-93.11077880859358
 31
0.0
  0
LINE
  5
DC
330
1F
100
AcDbEntity
  8
0-0
  6
Continuous
 62
     3
370
     9
100
AcDbLine
 10
-465.46282072325
 20
7.289154052734546
 30
0.0
 11
-445.0627682660078
 21
7.289154052734546
 31
0.0
  0
LINE
  5
DD
330
1F
100
AcDbEntity
  8
0-0
  6
Continuous
 62
     3
370
     9
100
AcDbLine
 10
-469.4628091760584
 20
89.68917599239876
 30
0.0
 11
-469.4628091760584
 21
11.28917962151618
 31
0.0
  0
LINE
  5
DE
330
1F
100
AcDbEntity
  8
0-0
  6
Continuous
 62
     3
370
     9
100
AcDbLine
 10
-465.46282072325
 20
93.68916444520704
 30
0.0
 11
-445.0627682660078
 21
93.68916444520704
 31
0.0
  0
LINE
  5
DF
330
1F
100
AcDbEntity
  8
0-0
  6
Continuous
 62
     3
370
     9
100
AcDbLine
 10
-465.46282072325
 20
-97.11084149334874
 30
0.0
 11
-445.0627682660078
 21
-97.11084149334874
 31
0.0
  0
LINE
  5
E0
330
1F
100
AcDbEntity
  8
0-0
  6
Continuous
 62
     3
370
     9
100
AcDbLine
 10
-469.4628091760584
 20
-14.7108566696578
 30
0.0
 11
-469.4628091760584
 21
-93.11077880859358
 31
0.0
  0
LINE
  5
E1
330
1F
100
AcDbEntity
  8
0-0
  6
Continuous
 62
     3
370
     9
100
AcDbLine
 10
-465.46282072325
 20
-10.71086821684952
 30
0.0
 11
-445.0627682660078
 21
-10.71086821684952
 31
0.0
  0
LINE
  5
E2
330
1F
100
AcDbEntity
  8
0-0
  6
Continuous
 62
     3
370
     9
100
AcDbLine
 10
-441.0627798131994
 20
89.68917599239876
 30
0.0
 11
-441.0627798131994
 21
11.28917962151618
 31
0.0
  0
LINE
  5
E3
330
1F
100
AcDbEntity
  8
0-0
  6
Continuous
 62
     3
370
     9
100
AcDbLine
 10
-441.0627798131994
 20
-14.7108566696578
 30
0.0
 11
-441.0627798131994
 21
-93.11077880859358
 31
0.0
  0
LINE
  5
E4
330
1F
100
AcDbEntity
  8
0-0
  6
Continuous
 62
     3
370
     9
100
AcDbLine
 10
232.3372248056774
 20
216.0891822608743
 30
0.0
 11
243.3372116088867
 21
214.7385319890204
 31
0.0
  0
LINE
  5
E5
330
1F
100
AcDbEntity
  8
0-0
  6
Continuous
 62
     3
370
     9
100
AcDbLine
 10
232.3372248056774
 20
198.0891228753169
 30
0.0
 11
243.3372116088867
 21
199.4398473791175
 31
0.0
  0
LINE
  5
E6
330
1F
100
AcDbEntity
  8
0-0
  6
Continuous
 62
     3
370
     9
100
AcDbLine
 10
244.1389166342245
 20
214.4183696025128
 30
0.0
 11
258.9690491959855
 21
213.1099573083827
 31
0.0
  0
LINE
  5
E7
330
1F
100
AcDbEntity
  8
0-0
  6
Continuous
 62
     3
370
     9
100
AcDbLine
 10
244.1389166342245
 20
199.7599355336784
 30
0.0
 11
258.9690491959855
 21
201.0684220597552
 31
0.0
  0
LINE
  5
E8
330
1F
100
AcDbEntity
  8
0-0
  6
Continuous
 62
     3
370
     9
100
AcDbLine
 10
230.3372676952467
 20
-96.36069055505686
 30
0.0
 11
232.3372248056774
 21
-95.36074911581483
 31
0.0
  0
LINE
  5
E9
330
1F
100
AcDbEntity
  8
0-0
  6
Continuous
 62
     3
370
     9
100
AcDbLine
 10
230.3372676952467
 20
-117.3107646220437
 30
0.0
 11
244.020071287413
 21
-115.6307100863069
 31
0.0
  0
LINE
  5
EA
330
1F
100
AcDbEntity
  8
0-0
  6
Continuous
 62
     3
370
     9
100
AcDbLine
 10
232.3372248056774
 20
-95.36074911581483
 30
0.0
 11
244.020071287413
 21
-96.79531860351545
 31
0.0
  0
LINE
  5
EB
330
1F
100
AcDbEntity
  8
0-0
  6
Continuous
 62
     3
370
     9
100
AcDbLine
 10
232.3372248056774
 20
-10.71086821684952
 30
0.0
 11
243.3372116088867
 21
-9.360143713048899
 31
0.0
  0
LINE
  5
EC
330
1F
100
AcDbEntity
  8
0-0
  6
Continuous
 62
     3
370
     9
100
AcDbLine
 10
232.3372248056774
 20
7.289154052734546
 30
0.0
 11
243.3372116088867
 21
5.938503780880637
 31
0.0
  0
LINE
  5
ED
330
1F
100
AcDbEntity
  8
0-0
  6
Continuous
 62
     3
370
     9
100
AcDbLine
 10
244.1389166342245
 20
-9.040018442514679
 30
0.0
 11
258.9690491959855
 21
-7.731569032411073
 31
0.0
  0
LINE
  5
EE
330
1F
100
AcDbEntity
  8
0-0
  6
Continuous
 62
     3
370
     9
100
AcDbLine
 10
244.1389166342245
 20
5.618415626319859
 30
0.0
 11
258.9690491959855
 21
4.309891984269541
 31
0.0
  0
LINE
  5
EF
330
1F
100
AcDbEntity
  8
0-0
  6
Continuous
 62
     3
370
     9
100
AcDbLine
 10
232.3372248056774
 20
111.6891495988177
 30
0.0
 11
242.0200399450355
 21
110.500213623047
 31
0.0
  0
LINE
  5
F0
330
1F
100
AcDbEntity
  8
0-0
  6
Continuous
 62
     3
370
     9
100
AcDbLine
 10
232.3372248056774
 20
93.68916444520704
 30
0.0
 11
242.0200399450355
 21
94.87810042097774
 31
0.0
  0
LINE
  5
F1
330
1F
100
AcDbEntity
  8
0-0
  6
Continuous
 62
     3
370
     9
100
AcDbLine
 10
250.8372363528689
 20
288.3589560019005
 30
0.0
 11
255.3372511992583
 21
285.7609120961783
 31
0.0
  0
LINE
  5
F2
330
1F
100
AcDbEntity
  8
0-0
  6
Continuous
 62
     3
370
     9
100
AcDbLine
 10
245.3373171832111
 20
304.1891413508236
 30
0.0
 11
245.3373171832111
 21
293.8660014384503
 31
0.0
  0
LINE
  5
F3
330
1F
100
AcDbEntity
  8
0-0
  6
Continuous
 62
     3
370
     9
100
AcDbLine
 10
250.8372363528689
 20
-82.98056772592889
 30
0.0
 11
255.3372511992583
 21
-80.38256093618014
 31
0.0
  0
LINE
  5
F4
330
1F
100
AcDbEntity
  8
0-0
  6
Continuous
 62
     3
370
     9
100
AcDbLine
 10
245.3373171832111
 20
-98.81079019082546
 30
0.0
 11
245.3373171832111
 21
-88.48753893053203
 31
0.0
  0
LINE
  5
F5
330
1F
100
AcDbEntity
  8
0-4
  6
Continuous
 62
     7
370
     9
100
AcDbLine
 10
-283.8627882261534
 20
-179.8108161720069
 30
0.0
 11
-212.5530191369959
 21
-179.8108161720069
 31
0.0
  0
LINE
  5
F6
330
1F
100
AcDbEntity
  8
0-4
  6
Continuous
 62
     7
370
     9
100
AcDbLine
 10
-283.8627882261534
 20
-96.11086293813318
 30
0.0
 11
-283.8627882261534
 21
-180.7108785268422
 31
0.0
  0
LINE
  5
F7
330
1F
100
AcDbEntity
  8
0-4
  6
Continuous
 62
     7
370
     9
100
AcDbLine
 10
-283.8627882261534
 20
-179.8108161720069
 30
0.0
 11
-274.9397741781698
 21
-178.6360956140466
 31
0.0
  0
LINE
  5
F8
330
1F
100
AcDbEntity
  8
0-4
  6
Continuous
 62
     7
370
     9
100
AcDbLine
 10
-283.8627882261534
 20
-179.8108161720069
 30
0.0
 11
-274.9397741781698
 21
-180.9855367299672
 31
0.0
  0
LINE
  5
F9
330
1F
100
AcDbEntity
  8
0-4
  6
Continuous
 62
     7
370
     9
100
AcDbLine
 10
-237.4627737096837
 20
-96.11086293813318
 30
0.0
 11
-237.4627737096837
 21
-180.7108785268422
 31
0.0
  0
LINE
  5
FA
330
1F
100
AcDbEntity
  8
0-4
  6
Continuous
 62
     7
370
     9
100
AcDbLine
 10
-237.4627737096837
 20
-179.8108161720069
 30
0.0
 11
-228.5397596617003
 21
-178.6360956140466
 31
0.0
  0
LINE
  5
FB
330
1F
100
AcDbEntity
  8
0-4
  6
Continuous
 62
     7
370
     9
100
AcDbLine
 10
-237.4627737096837
 20
-179.8108161720069
 30
0.0
 11
-228.5397596617003
 21
-180.9855367299672
 31
0.0
  0
LINE
  5
FC
330
1F
100
AcDbEntity
  8
0-4
  6
Continuous
 62
     7
370
     9
100
AcDbLine
 10
-255.4627588632945
 20
-96.11086293813318
 30
0.0
 11
-255.4627588632945
 21
-180.7108785268422
 31
0.0
  0
LINE
  5
FD
330
1F
100
AcDbEntity
  8
0-4
  6
Continuous
 62
     7
370
     9
100
AcDbLine
 10
-255.4627588632945
 20
-179.8108161720069
 30
0.0
 11
-264.385772911278
 21
-180.9855367299672
 31
0.0
  0
LINE
  5
FE
330
1F
100
AcDbEntity
  8
0-4
  6
Continuous
 62
     7
370
     9
100
AcDbLine
 10
-255.4627588632945
 20
-179.8108161720069
 30
0.0
 11
-264.385772911278
 21
-178.6360956140466
 31
0.0
  0
LINE
  5
FF
330
1F
100
AcDbEntity
  8
0-4
  6
Continuous
 62
     7
370
     9
100
AcDbLine
 10
12.83751513506922
 20
93.68916444520704
 30
0.0
 11
11.66279457710891
 21
84.76615039722357
 31
0.0
  0
LINE
  5
100
330
1F
100
AcDbEntity
  8
0-4
  6
Continuous
 62
     7
370
     9
100
AcDbLine
 10
12.83751513506922
 20
93.68916444520704
 30
0.0
 11
14.01230992497617
 21
84.76615039722357
 31
0.0
  0
LINE
  5
101
330
1F
100
AcDbEntity
  8
0-4
  6
Continuous
 62
     7
370
     9
100
AcDbLine
 10
12.83751513506922
 20
76.59922584327501
 30
0.0
 11
12.83751513506922
 21
198.0891228753169
 31
0.0
  0
LINE
  5
102
330
1F
100
AcDbEntity
  8
0-4
  6
Continuous
 62
     7
370
     9
100
AcDbLine
 10
-70.86271646860476
 20
198.0891228753169
 30
0.0
 11
13.73750325795774
 21
198.0891228753169
 31
0.0
  0
LINE
  5
103
330
1F
100
AcDbEntity
  8
0-4
  6
Continuous
 62
     7
370
     9
100
AcDbLine
 10
12.83751513506922
 20
198.0891228753169
 30
0.0
 11
11.66279457710891
 21
189.1661459433067
 31
0.0
  0
LINE
  5
104
330
1F
100
AcDbEntity
  8
0-4
  6
Continuous
 62
     7
370
     9
100
AcDbLine
 10
12.83751513506922
 20
198.0891228753169
 30
0.0
 11
14.01230992497617
 21
189.1661459433067
 31
0.0
  0
LINE
  5
105
330
1F
100
AcDbEntity
  8
0-4
  6
Continuous
 62
     7
370
     9
100
AcDbLine
 10
12.83751513506922
 20
111.6891495988177
 30
0.0
 11
11.66279457710891
 21
120.6121636468013
 31
0.0
  0
LINE
  5
106
330
1F
100
AcDbEntity
  8
0-4
  6
Continuous
 62
     7
370
     9
100
AcDbLine
 10
12.83751513506922
 20
111.6891495988177
 30
0.0
 11
14.01230992497617
 21
120.6121636468013
 31
0.0
  0
LINE
  5
107
330
1F
100
AcDbEntity
  8
0-4
  6
Continuous
 62
     7
370
     9
100
AcDbLine
 10
343.3372198568808
 20
-97.31082235800233
 30
0.0
 11
343.3372198568808
 21
302.6891364020272
 31
0.0
  0
LINE
  5
108
330
1F
100
AcDbEntity
  8
0-4
  6
Continuous
 62
     7
370
     9
100
AcDbLine
 10
256.3373039864205
 20
-97.31082235800233
 30
0.0
 11
344.2372822117161
 21
-97.31082235800233
 31
0.0
  0
LINE
  5
109
330
1F
100
AcDbEntity
  8
0-4
  6
Continuous
 62
     7
370
     9
100
AcDbLine
 10
256.3373039864205
 20
302.6891364020272
 30
0.0
 11
344.2372822117161
 21
302.6891364020272
 31
0.0
  0
LINE
  5
10A
330
1F
100
AcDbEntity
  8
0-4
  6
Continuous
 62
     7
370
     9
100
AcDbLine
 10
343.3372198568808
 20
-97.31082235800233
 30
0.0
 11
342.1625735308673
 21
-88.38773407807201
 31
0.0
  0
LINE
  5
10B
330
1F
100
AcDbEntity
  8
0-4
  6
Continuous
 62
     7
370
     9
100
AcDbLine
 10
343.3372198568808
 20
-97.31082235800233
 30
0.0
 11
344.5119404148411
 21
-88.38773407807201
 31
0.0
  0
LINE
  5
10C
330
1F
100
AcDbEntity
  8
0-4
  6
Continuous
 62
     7
370
     9
100
AcDbLine
 10
343.3372198568808
 20
302.6891364020272
 30
0.0
 11
342.1625735308673
 21
293.766159470017
 31
0.0
  0
LINE
  5
10D
330
1F
100
AcDbEntity
  8
0-4
  6
Continuous
 62
     7
370
     9
100
AcDbLine
 10
343.3372198568808
 20
302.6891364020272
 30
0.0
 11
344.5119404148411
 21
293.766159470017
 31
0.0
  0
LINE
  5
10E
330
1F
100
AcDbEntity
  8
0-4
  6
Continuous
 62
     7
370
     9
100
AcDbLine
 10
245.3373171832111
 20
-120.3108858675569
 30
0.0
 11
245.3373171832111
 21
-180.7108414108687
 31
0.0
  0
LINE
  5
10F
330
1F
100
AcDbEntity
  8
0-4
  6
Continuous
 62
     7
370
     9
100
AcDbLine
 10
230.3372676952467
 20
-120.3107374036632
 30
0.0
 11
230.3372676952467
 21
-180.7108414108687
 31
0.0
  0
LINE
  5
110
330
1F
100
AcDbEntity
  8
0-4
  6
Continuous
 62
     7
370
     9
100
AcDbLine
 10
245.3373171832111
 20
-179.8108161720069
 30
0.0
 11
254.2602941152211
 21
-178.63613273002
 31
0.0
  0
LINE
  5
111
330
1F
100
AcDbEntity
  8
0-4
  6
Continuous
 62
     7
370
     9
100
AcDbLine
 10
245.3373171832111
 20
-179.8108161720069
 30
0.0
 11
254.2602941152211
 21
-180.9855367299672
 31
0.0
  0
LINE
  5
112
330
1F
100
AcDbEntity
  8
0-4
  6
Continuous
 62
     7
370
     9
100
AcDbLine
 10
230.3372676952467
 20
-179.8108161720069
 30
0.0
 11
221.4142907632364
 21
-178.63613273002
 31
0.0
  0
LINE
  5
113
330
1F
100
AcDbEntity
  8
0-4
  6
Continuous
 62
     7
370
     9
100
AcDbLine
 10
230.3372676952467
 20
-179.8108161720069
 30
0.0
 11
221.4142907632364
 21
-180.9855367299672
 31
0.0
  0
LINE
  5
114
330
1F
100
AcDbEntity
  8
0-4
  6
Continuous
 62
     7
370
     9
100
AcDbLine
 10
261.9894728789458
 20
-179.8108161720069
 30
0.0
 11
213.4552156603014
 21
-179.8108161720069
 31
0.0
  0
LINE
  5
115
330
1F
100
AcDbEntity
  8
0-4
  6
Continuous
 62
     7
370
     9
100
AcDbLine
 10
243.3373600727805
 20
141.5728899981526
 30
0.0
 11
252.2603370047905
 21
142.7475734401395
 31
0.0
  0
LINE
  5
116
330
1F
100
AcDbEntity
  8
0-4
  6
Continuous
 62
     7
370
     9
100
AcDbLine
 10
243.3373600727805
 20
141.5728899981526
 30
0.0
 11
252.2603370047905
 21
140.3980952082455
 31
0.0
  0
LINE
  5
117
330
1F
100
AcDbEntity
  8
0-4
  6
Continuous
 62
     7
370
     9
100
AcDbLine
 10
230.337119231353
 20
141.5728899981526
 30
0.0
 11
221.414142299343
 21
142.7476105561129
 31
0.0
  0
LINE
  5
118
330
1F
100
AcDbEntity
  8
0-4
  6
Continuous
 62
     7
370
     9
100
AcDbLine
 10
230.337119231353
 20
141.5728899981526
 30
0.0
 11
221.414142299343
 21
140.3981694401923
 31
0.0
  0
LINE
  5
119
330
1F
100
AcDbEntity
  8
0-4
  6
Continuous
 62
     7
370
     9
100
AcDbLine
 10
264.7874234173748
 20
141.5728899981526
 30
0.0
 11
213.3558933154958
 21
141.5728899981526
 31
0.0
  0
LINE
  5
11A
330
1F
100
AcDbEntity
  8
0-2
  6
JWW_CENTER1
 62
     6
370
     5
100
AcDbLine
 10
-107.2627598530538
 20
131.879793734164
 30
0.0
 11
-107.2627598530538
 21
74.91661030537388
 31
0.0
  0
LINE
  5
11B
330
1F
100
AcDbEntity
  8
0-2
  6
Continuous
 62
     6
370
     5
100
AcDbLine
 10
484.6823439726958
 20
9.602555558488291
 30
0.0
 11
449.9600539336333
 21
9.602555558488291
 31
0.0
  0
LINE
  5
11C
330
1F
100
AcDbEntity
  8
0-2
  6
Continuous
 62
     6
370
     5
100
AcDbLine
 10
460.5003222903689
 20
-6.984906995618502
 30
0.0
 11
461.3116032368428
 21
-5.579733358847022
 31
0.0
  0
LINE
  5
11D
330
1F
100
AcDbEntity
  8
0-2
  6
JWW_CENTER1
 62
     6
370
     5
100
AcDbLine
 10
435.7514654623495
 20
-148.2920614706501
 30
0.0
 11
406.7799243411501
 21
-148.2920614706501
 31
0.0
  0
LINE
  5
11E
330
1F
100
AcDbEntity
  8
0-2
  6
Continuous
 62
     6
370
     5
100
AcDbLine
 10
456.1700016743428
 20
-4.484960607580149
 30
0.0
 11
456.9816537805508
 21
-3.07982408678194
 31
0.0
  0
LINE
  5
11F
330
1F
100
AcDbEntity
  8
0-2
  6
Continuous
 62
     6
370
     5
100
AcDbLine
 10
462.5716163016653
 20
9.602555558488291
 30
0.0
 11
456.4323373743008
 21
-1.030688311602489
 31
0.0
  0
LINE
  5
120
330
1F
100
AcDbEntity
  8
0-2
  6
Continuous
 62
     6
370
     5
100
AcDbLine
 10
471.809410920014
 20
9.602555558488291
 30
0.0
 11
463.3605534321553
 21
-5.030676764410771
 31
0.0
  0
LINE
  5
121
330
1F
100
AcDbEntity
  8
0-2
  6
Continuous
 62
     6
370
     5
100
AcDbLine
 10
456.7979297122439
 20
9.602555558488291
 30
0.0
 11
452.1023879180083
 21
1.469332308382747
 31
0.0
  0
LINE
  5
122
330
1F
100
AcDbEntity
  8
0-2
  6
Continuous
 62
     6
370
     5
100
AcDbLine
 10
477.5827263497015
 20
9.602555558488291
 30
0.0
 11
467.6907255842878
 21
-7.530771616342804
 31
0.0
  0
LINE
  5
123
330
1F
100
AcDbEntity
  8
0-2
  6
Continuous
 62
     6
370
     5
100
AcDbLine
 10
442.8115174577042
 20
-37.62265839447826
 30
0.0
 11
443.8169149450355
 21
-35.88128827069232
 31
0.0
  0
LINE
  5
124
330
1F
100
AcDbEntity
  8
0-2
  6
Continuous
 62
     6
370
     5
100
AcDbLine
 10
438.4813453055717
 20
-35.12267489046639
 30
0.0
 11
439.2341314779745
 21
-33.81890209301076
 31
0.0
  0
LINE
  5
125
330
1F
100
AcDbEntity
  8
0-2
  6
Continuous
 62
     6
370
     5
100
AcDbLine
 10
447.4506429723791
 20
-29.58745843010968
 30
0.0
 11
457.7389681017077
 21
-11.76830229888077
 31
0.0
  0
LINE
  5
126
330
1F
100
AcDbEntity
  8
0-2
  6
Continuous
 62
     6
370
     5
100
AcDbLine
 10
444.6989389368008
 20
-38.0674191036739
 30
0.0
 11
437.9220075865052
 21
-63.35898569467889
 31
0.0
  0
LINE
  5
127
330
1F
100
AcDbEntity
  8
0-2
  6
Continuous
 62
     6
370
     5
100
AcDbLine
 10
443.027829350652
 20
-27.24792727908562
 30
0.0
 11
453.4084990217878
 21
-9.268207446948736
 31
0.0
  0
LINE
  5
128
330
1F
100
AcDbEntity
  8
0-2
  6
Continuous
 62
     6
370
     5
100
AcDbLine
 10
427.7517112525733
 20
-56.79198228990703
 30
0.0
 11
427.7517112525733
 21
-38.79210848421639
 31
0.0
  0
LINE
  5
129
330
1F
100
AcDbEntity
  8
0-2
  6
Continuous
 62
     6
370
     5
100
AcDbLine
 10
434.7517096029745
 20
-56.79198228990703
 30
0.0
 11
434.7517096029745
 21
-38.79210848421639
 31
0.0
  0
LINE
  5
12A
330
1F
100
AcDbEntity
  8
0-2
  6
Continuous
 62
     6
370
     5
100
AcDbLine
 10
451.7514192735827
 20
-38.79210848421639
 30
0.0
 11
444.922080168853
 21
-64.2805753140835
 31
0.0
  0
LINE
  5
12B
330
1F
100
AcDbEntity
  8
0-2
  6
Continuous
 62
     6
370
     5
100
AcDbLine
 10
434.7517096029745
 20
-56.79198228990703
 30
0.0
 11
427.7517112525733
 21
-56.79198228990703
 31
0.0
  0
LINE
  5
12C
330
1F
100
AcDbEntity
  8
0-2
  6
Continuous
 62
     6
370
     5
100
AcDbLine
 10
414.7511734833589
 20
-151.7920235298773
 30
0.0
 11
414.7511734833589
 21
-144.7920251794762
 31
0.0
  0
LINE
  5
12D
330
1F
100
AcDbEntity
  8
0-2
  6
Continuous
 62
     6
370
     5
100
AcDbLine
 10
437.7513483408336
 20
-142.7920680690455
 30
0.0
 11
437.7513483408336
 21
-64.65307122307843
 31
0.0
  0
LINE
  5
12E
330
1F
100
AcDbEntity
  8
0-2
  6
Continuous
 62
     6
370
     5
100
AcDbLine
 10
435.7514654623495
 20
-144.7920251794762
 30
0.0
 11
414.7511734833589
 21
-144.7920251794762
 31
0.0
  0
LINE
  5
12F
330
1F
100
AcDbEntity
  8
0-2
  6
Continuous
 62
     6
370
     5
100
AcDbLine
 10
437.7513483408336
 20
-151.7920235298773
 30
0.0
 11
414.7511734833589
 21
-151.7920235298773
 31
0.0
  0
LINE
  5
130
330
1F
100
AcDbEntity
  8
0-2
  6
Continuous
 62
     6
370
     5
100
AcDbLine
 10
444.7513466912349
 20
-144.7920251794762
 30
0.0
 11
444.7513466912349
 21
-65.57462372650951
 31
0.0
  0
LINE
  5
131
330
1F
100
AcDbEntity
  8
0-2
  6
JWW_CENTER1
 62
     6
370
     5
100
AcDbLine
 10
431.2515990798539
 20
-67.02292612436639
 30
0.0
 11
431.2515990798539
 21
-38.79210848421639
 31
0.0
  0
LINE
  5
132
330
1F
100
AcDbEntity
  8
0-2
  6
JWW_CENTER1
 62
     6
370
     5
100
AcDbLine
 10
468.9723401456266
 20
12.68915702201235
 30
0.0
 11
437.7647843232027
 21
-41.36398562869499
 31
0.0
  0
LINE
  5
133
330
1F
100
AcDbEntity
  8
0-2
  6
JWW_CENTER1
 62
     6
370
     5
100
AcDbLine
 10
448.2411389737516
 20
-38.37021121463249
 30
0.0
 11
441.3024562113995
 21
-64.26480102539045
 31
0.0
  0
LINE
  5
134
330
1F
100
AcDbEntity
  8
0-2
  6
JWW_CENTER1
 62
     6
370
     5
100
AcDbLine
 10
441.2518300236883
 20
-142.7920680690455
 30
0.0
 11
441.2518300236883
 21
-64.65307122307843
 31
0.0
  0
LINE
  5
135
330
1F
100
AcDbEntity
  8
0-2
  6
Continuous
 62
     6
370
     5
100
AcDbLine
 10
289.3372643960489
 20
111.6892238307645
 30
0.0
 11
313.3370466490052
 21
111.6892238307645
 31
0.0
  0
LINE
  5
136
330
1F
100
AcDbEntity
  8
0-2
  6
Continuous
 62
     6
370
     5
100
AcDbLine
 10
289.3372643960489
 20
106.6891825907941
 30
0.0
 11
313.3370466490052
 21
106.6891825907941
 31
0.0
  0
LINE
  5
137
330
1F
100
AcDbEntity
  8
0-2
  6
Continuous
 62
     6
370
     5
100
AcDbLine
 10
289.3372643960489
 20
98.68898298933712
 30
0.0
 11
313.3370466490052
 21
98.68898298933712
 31
0.0
  0
LINE
  5
138
330
1F
100
AcDbEntity
  8
0-2
  6
Continuous
 62
     6
370
     5
100
AcDbLine
 10
289.3372643960489
 20
93.68923867715388
 30
0.0
 11
313.3370466490052
 21
93.68923867715388
 31
0.0
  0
LINE
  5
139
330
1F
100
AcDbEntity
  8
0-2
  6
Continuous
 62
     6
370
     5
100
AcDbLine
 10
314.8374227575355
 20
105.1894745697848
 30
0.0
 11
334.8372907896302
 21
105.1894745697848
 31
0.0
  0
LINE
  5
13A
330
1F
100
AcDbEntity
  8
0-2
  6
Continuous
 62
     6
370
     5
100
AcDbLine
 10
314.8374227575355
 20
100.1892106339739
 30
0.0
 11
329.4810104370117
 21
100.1892106339739
 31
0.0
  0
LINE
  5
13B
330
1F
100
AcDbEntity
  8
0-2
  6
JWW_CENTER1
 62
     6
370
     5
100
AcDbLine
 10
339.1428179354283
 20
109.2085406329183
 30
0.0
 11
325.4199290919948
 21
96.39840780722142
 31
0.0
  0
LINE
  5
13C
330
1F
100
AcDbEntity
  8
0-0
  6
Continuous
 62
     3
370
     9
100
AcDbLine
 10
243.3372116088867
 20
121.1892799171243
 30
0.0
 11
256.1805261147989
 21
118.9424644676416
 31
0.0
  0
LINE
  5
13D
330
1F
100
AcDbEntity
  8
0-0
  6
Continuous
 62
     3
370
     9
100
AcDbLine
 10
243.3372116088867
 20
84.18918259079408
 30
0.0
 11
256.1808230425861
 21
86.43610938819688
 31
0.0
  0
LINE
  5
13E
330
1F
100
AcDbEntity
  8
0-0
  6
Continuous
 62
     3
370
     9
100
AcDbLine
 10
243.3372116088867
 20
110.6891710436024
 30
0.0
 11
246.0410360387855
 21
110.2403646933067
 31
0.0
  0
LINE
  5
13F
330
1F
100
AcDbEntity
  8
0-0
  6
Continuous
 62
     3
370
     9
100
AcDbLine
 10
243.3372116088867
 20
94.68921723236923
 30
0.0
 11
246.0410360387855
 21
95.13824627850516
 31
0.0
  0
LINE
  5
140
330
1F
100
AcDbEntity
  8
0-2
  6
Continuous
 62
     4
370
     9
100
AcDbLine
 10
263.2367180489205
 20
106.189156197213
 30
0.0
 11
288.837238002468
 21
106.189156197213
 31
0.0
  0
LINE
  5
141
330
1F
100
AcDbEntity
  8
0-2
  6
Continuous
 62
     4
370
     9
100
AcDbLine
 10
263.2367180489205
 20
99.18930631070545
 30
0.0
 11
288.837238002468
 21
99.18930631070545
 31
0.0
  0
LINE
  5
142
330
1F
100
AcDbEntity
  8
0-2
  6
JWW_CENTER1
 62
     6
370
     5
100
AcDbLine
 10
228.5885114927552
 20
102.6891941379858
 30
0.0
 11
417.0105712478227
 21
102.6891941379858
 31
0.0
  0
LINE
  5
143
330
1F
100
AcDbEntity
  8
0-0
  6
Continuous
 62
     3
370
     9
100
AcDbLine
 10
243.3372116088867
 20
321.0929433461783
 30
0.0
 11
243.3372116088867
 21
105.8909664669554
 31
0.0
  0
LINE
  5
144
330
1F
100
AcDbEntity
  8
0-0
  6
Continuous
 62
     3
370
     9
100
AcDbLine
 10
243.3372116088867
 20
99.48742180901618
 30
0.0
 11
243.3372116088867
 21
-115.7146293021536
 31
0.0
  0
LINE
  5
145
330
1F
100
AcDbEntity
  8
0-0
  6
Continuous
 62
     3
370
     9
100
AcDbLine
 10
260.337218207282
 20
87.74767654006556
 30
0.0
 11
260.337218207282
 21
-71.72232797983514
 31
0.0
  0
LINE
  5
146
330
1F
100
AcDbEntity
  8
0-1
  6
Continuous
 62
     2
370
     9
100
AcDbLine
 10
229.3372891400311
 20
133.1198755212734
 30
0.0
 11
229.3372891400311
 21
-124.9867190799197
 31
0.0
  0
LINE
  5
147
330
1F
100
AcDbEntity
  8
0-1
  6
Continuous
 62
     2
370
     9
100
AcDbLine
 10
246.5608823621595
 20
-98.58152482316288
 30
0.0
 11
253.3372198568808
 21
-97.31089658994921
 31
0.0
  0
LINE
  5
148
330
1F
100
AcDbEntity
  8
0-1
  6
Continuous
 62
     2
370
     9
100
AcDbLine
 10
244.5431095844992
 20
-148.0520695866763
 30
0.0
 11
253.3372198568808
 21
-149.8109213339314
 31
0.0
  0
LINE
  5
149
330
1F
100
AcDbEntity
  8
0-1
  6
Continuous
 62
     2
370
     9
100
AcDbLine
 10
243.3372858408336
 20
-140.4322344805742
 30
0.0
 11
243.3372858408336
 21
-146.5812377929686
 31
0.0
  0
LINE
  5
14A
330
1F
100
AcDbEntity
  8
0-1
  6
Continuous
 62
     2
370
     9
100
AcDbLine
 10
244.897938290158
 20
-138.2502235206397
 30
0.0
 11
243.7765905019398
 21
-139.3715341928842
 31
0.0
  0
LINE
  5
14B
330
1F
100
AcDbEntity
  8
0-1
  6
Continuous
 62
     2
370
     9
100
AcDbLine
 10
240.9574838586755
 20
-127.7634021655932
 30
0.0
 11
230.6511945982239
 21
-126.4751438450167
 31
0.0
  0
LINE
  5
14C
330
1F
100
AcDbEntity
  8
0-1
  6
Continuous
 62
     2
370
     9
100
AcDbLine
 10
245.3373171832111
 20
-132.7248056772592
 30
0.0
 11
245.3373171832111
 21
-137.1895974648963
 31
0.0
  0
LINE
  5
14D
330
1F
100
AcDbEntity
  8
0-1
  6
Continuous
 62
     2
370
     9
100
AcDbLine
 10
243.5852947750608
 20
-117.5298602129961
 30
0.0
 11
230.6511945982239
 21
-119.1466320140941
 31
0.0
  0
LINE
  5
14E
330
1F
100
AcDbEntity
  8
0-1
  6
Continuous
 62
     2
370
     9
100
AcDbLine
 10
245.3373171832111
 20
-115.5453804634711
 30
0.0
 11
245.3373171832111
 21
-100.055771286423
 31
0.0
  0
LINE
  5
14F
330
1F
100
AcDbEntity
  8
0-1
  6
Continuous
 62
     2
370
     9
100
AcDbLine
 10
-372.6627545743375
 20
-129.8106450261294
 30
0.0
 11
-372.6627545743375
 21
-135.8106091473551
 31
0.0
  0
LINE
  5
150
330
1F
100
AcDbEntity
  8
0-1
  6
Continuous
 62
     2
370
     9
100
AcDbLine
 10
-374.6627488007416
 20
-135.8106091473551
 30
0.0
 11
-374.6627488007416
 21
-129.8106450261294
 31
0.0
  0
LINE
  5
151
330
1F
100
AcDbEntity
  8
0-1
  6
JWW_CENTER1
 62
     2
370
     9
100
AcDbLine
 10
-382.9098067412506
 20
-139.8108388539906
 30
0.0
 11
-406.4046076181772
 21
-139.8108388539906
 31
0.0
  0
LINE
  5
152
330
1F
100
AcDbEntity
  8
0-1
  6
Continuous
 62
     2
370
     9
100
AcDbLine
 10
-416.7263185655748
 20
-126.8107279184701
 30
0.0
 11
-372.5992491438582
 21
-126.8106536865233
 31
0.0
  0
LINE
  5
153
330
1F
100
AcDbEntity
  8
0-1
  6
JWW_CENTER1
 62
     2
370
     9
100
AcDbLine
 10
-394.6628024127032
 20
-128.8361837026234
 30
0.0
 11
-394.6628024127032
 21
-148.5701714593009
 31
0.0
  0
LINE
  5
154
330
1F
100
AcDbEntity
  8
0-1
  6
Continuous
 62
     2
370
     9
100
AcDbLine
 10
-404.1627471511428
 20
-145.8107473012562
 30
0.0
 11
-404.1627471511428
 21
-139.8108388539906
 31
0.0
  0
LINE
  5
155
330
1F
100
AcDbEntity
  8
0-1
  6
Continuous
 62
     2
370
     9
100
AcDbLine
 10
-402.1627900407121
 20
-139.8108388539906
 30
0.0
 11
-402.1627900407121
 21
-145.8107473012562
 31
0.0
  0
LINE
  5
156
330
1F
100
AcDbEntity
  8
0-1
  6
Continuous
 62
     2
370
     9
100
AcDbLine
 10
-387.1627776687209
 20
-139.8107646220437
 30
0.0
 11
-387.1627776687209
 21
-145.8106545113226
 31
0.0
  0
LINE
  5
157
330
1F
100
AcDbEntity
  8
0-1
  6
Continuous
 62
     2
370
     9
100
AcDbLine
 10
-385.1627463263434
 20
-145.8106545113226
 30
0.0
 11
-385.1627463263434
 21
-139.8107646220437
 31
0.0
  0
LINE
  5
158
330
1F
100
AcDbEntity
  8
0-1
  6
Continuous
 62
     2
370
     9
100
AcDbLine
 10
-502.1628539626662
 20
-0.3107868916277994
 30
0.0
 11
-508.1628180838919
 21
-0.3107868916277994
 31
0.0
  0
LINE
  5
159
330
1F
100
AcDbEntity
  8
0-1
  6
Continuous
 62
     2
370
     9
100
AcDbLine
 10
-508.1628180838919
 20
-2.310818234005382
 30
0.0
 11
-502.1628539626662
 21
-2.310818234005382
 31
0.0
  0
LINE
  5
15A
330
1F
100
AcDbEntity
  8
0-1
  6
JWW_CENTER1
 62
     2
370
     9
100
AcDbLine
 10
-512.1630292325406
 20
-10.55783905854076
 30
0.0
 11
-512.1630292325406
 21
-34.0526584934542
 31
0.0
  0
LINE
  5
15B
330
1F
100
AcDbEntity
  8
0-1
  6
Continuous
 62
     2
370
     9
100
AcDbLine
 10
-502.1628539626662
 20
-44.31084545238576
 30
0.0
 11
-508.1628180838919
 21
-44.31084545238576
 31
0.0
  0
LINE
  5
15C
330
1F
100
AcDbEntity
  8
0-1
  6
Continuous
 62
     2
370
     9
100
AcDbLine
 10
-508.1628180838919
 20
-42.31081411000827
 30
0.0
 11
-502.1628539626662
 21
-42.31081411000827
 31
0.0
  0
LINE
  5
15D
330
1F
100
AcDbEntity
  8
0-1
  6
Continuous
 62
     2
370
     9
100
AcDbLine
 10
-499.1627883911133
 20
-44.3743137668917
 30
0.0
 11
-499.1627883911133
 21
-0.2472814611485035
 31
0.0
  0
LINE
  5
15E
330
1F
100
AcDbEntity
  8
0-1
  6
JWW_CENTER1
 62
     2
370
     9
100
AcDbLine
 10
-501.1883184072134
 20
-22.3108347299935
 30
0.0
 11
-520.9223061638909
 21
-22.3108347299935
 31
0.0
  0
LINE
  5
15F
330
1F
100
AcDbEntity
  8
0-1
  6
Continuous
 62
     2
370
     9
100
AcDbLine
 10
-518.1628820058462
 20
-31.81081658440655
 30
0.0
 11
-512.1630292325406
 21
-31.81081658440655
 31
0.0
  0
LINE
  5
160
330
1F
100
AcDbEntity
  8
0-1
  6
Continuous
 62
     2
370
     9
100
AcDbLine
 10
-512.1630292325406
 20
-29.81082235800233
 30
0.0
 11
-518.1628820058462
 21
-29.81074812605561
 31
0.0
  0
LINE
  5
161
330
1F
100
AcDbEntity
  8
0-1
  6
Continuous
 62
     2
370
     9
100
AcDbLine
 10
-512.1628993266338
 20
-14.81084710198468
 30
0.0
 11
-518.1628820058462
 21
-14.81080998601124
 31
0.0
  0
LINE
  5
162
330
1F
100
AcDbEntity
  8
0-1
  6
Continuous
 62
     2
370
     9
100
AcDbLine
 10
-518.1628820058462
 20
-12.81077864363374
 30
0.0
 11
-512.1628993266338
 21
-12.81077864363374
 31
0.0
  0
LINE
  5
163
330
1F
100
AcDbEntity
  8
0-1
  6
Continuous
 62
     2
370
     9
100
AcDbLine
 10
-502.6630102621542
 20
50.68919578758462
 30
0.0
 11
-508.1631150116791
 21
50.68919578758462
 31
0.0
  0
LINE
  5
164
330
1F
100
AcDbEntity
  8
0-1
  6
Continuous
 62
     2
370
     9
100
AcDbLine
 10
-500.6628304558831
 20
1.689244450749698
 30
0.0
 11
-500.6628304558831
 21
48.68920156118048
 31
0.0
  0
LINE
  5
165
330
1F
100
AcDbEntity
  8
0-1
  6
Continuous
 62
     2
370
     9
100
AcDbLine
 10
-502.6630102621542
 20
52.68919001398876
 30
0.0
 11
-508.1631150116791
 21
52.68919001398876
 31
0.0
  0
LINE
  5
166
330
1F
100
AcDbEntity
  8
0-1
  6
Continuous
 62
     2
370
     9
100
AcDbLine
 10
-499.1627883911133
 20
50.62539342931814
 30
0.0
 11
-499.1627883911133
 21
154.7529948466535
 31
0.0
  0
LINE
  5
167
330
1F
100
AcDbEntity
  8
0-1
  6
Continuous
 62
     2
370
     9
100
AcDbLine
 10
-512.1630292325406
 20
48.68920156118048
 30
0.0
 11
-512.1630292325406
 21
1.689207334776427
 31
0.0
  0
LINE
  5
168
330
1F
100
AcDbEntity
  8
0-1
  6
Continuous
 62
     2
370
     9
100
AcDbLine
 10
-510.1629978901631
 20
1.689207334776427
 30
0.0
 11
-510.1629978901631
 21
48.68920156118048
 31
0.0
  0
LINE
  5
169
330
1F
100
AcDbEntity
  8
0-1
  6
Continuous
 62
     2
370
     9
100
AcDbLine
 10
-522.1630931544947
 20
102.6891941379858
 30
0.0
 11
-522.1629446906013
 21
-10.81082153320295
 31
0.0
  0
LINE
  5
16A
330
1F
100
AcDbEntity
  8
0-1
  6
Continuous
 62
     2
370
     9
100
AcDbLine
 10
-520.1631917180241
 20
102.6891941379858
 30
0.0
 11
-520.1630432541306
 21
-10.81082153320295
 31
0.0
  0
LINE
  5
16B
330
1F
100
AcDbEntity
  8
0-1
  6
Continuous
 62
     2
370
     9
100
AcDbLine
 10
-416.6627760191221
 20
-130.3107270936707
 30
0.0
 11
-416.6627760191221
 21
-135.8107019372887
 31
0.0
  0
LINE
  5
16C
330
1F
100
AcDbEntity
  8
0-1
  6
Continuous
 62
     2
370
     9
100
AcDbLine
 10
-414.6627446767446
 20
-135.8107019372887
 30
0.0
 11
-414.6628189086914
 21
-130.3107270936707
 31
0.0
  0
LINE
  5
16D
330
1F
100
AcDbEntity
  8
0-1
  6
Continuous
 62
     2
370
     9
100
AcDbLine
 10
-498.6627991135056
 20
-119.3108701963681
 30
0.0
 11
-498.6632073892129
 21
102.6891941379858
 31
0.0
  0
LINE
  5
16E
330
1F
100
AcDbEntity
  8
0-1
  6
Continuous
 62
     2
370
     9
100
AcDbLine
 10
-418.6628815934465
 20
-128.3108256572
 30
0.0
 11
-491.6628007631044
 21
-128.3108256572
 31
0.0
  0
LINE
  5
16F
330
1F
100
AcDbEntity
  8
0-1
  6
Continuous
 62
     2
370
     9
100
AcDbLine
 10
-500.66296036179
 20
-46.31087679476343
 30
0.0
 11
-500.6628304558831
 21
-119.3107959644213
 31
0.0
  0
LINE
  5
170
330
1F
100
AcDbEntity
  8
0-1
  6
Continuous
 62
     2
370
     9
100
AcDbLine
 10
-512.1628993266338
 20
-46.31080256281655
 30
0.0
 11
-512.1628993266338
 21
-117.8108281315982
 31
0.0
  0
LINE
  5
171
330
1F
100
AcDbEntity
  8
0-1
  6
Continuous
 62
     2
370
     9
100
AcDbLine
 10
-510.1628679842562
 20
-117.8108281315982
 30
0.0
 11
-510.1628679842562
 21
-46.31080256281655
 31
0.0
  0
LINE
  5
172
330
1F
100
AcDbEntity
  8
0-1
  6
Continuous
 62
     2
370
     9
100
AcDbLine
 10
-406.1627784935204
 20
-149.8108099860112
 30
0.0
 11
-490.1627586983345
 21
-149.8107914280245
 31
0.0
  0
LINE
  5
173
330
1F
100
AcDbEntity
  8
0-1
  6
Continuous
 62
     2
370
     9
100
AcDbLine
 10
-406.1627784935204
 20
-147.8108528755805
 30
0.0
 11
-490.1627586983345
 21
-147.8108343175939
 31
0.0
  0
LINE
  5
174
330
1F
100
AcDbEntity
  8
0-1
  6
Continuous
 62
     2
370
     9
100
AcDbLine
 10
-522.1629446906013
 20
-33.81084792678405
 30
0.0
 11
-522.1628147846943
 21
-117.8108281315982
 31
0.0
  0
LINE
  5
175
330
1F
100
AcDbEntity
  8
0-1
  6
Continuous
 62
     2
370
     9
100
AcDbLine
 10
-520.1629133482237
 20
-33.81084792678405
 30
0.0
 11
-520.1629133482237
 21
-117.8108281315982
 31
0.0
  0
LINE
  5
176
330
1F
100
AcDbEntity
  8
0-1
  6
Continuous
 62
     2
370
     9
100
AcDbLine
 10
-491.6628007631044
 20
319.6892172323692
 30
0.0
 11
-491.6628007631044
 21
-114.3108660723711
 31
0.0
  0
LINE
  5
177
330
1F
100
AcDbEntity
  8
0-1
  6
Continuous
 62
     2
370
     9
100
AcDbLine
 10
-372.6627545743375
 20
335.1889961861277
 30
0.0
 11
-372.6627545743375
 21
341.1890159813134
 31
0.0
  0
LINE
  5
178
330
1F
100
AcDbEntity
  8
0-1
  6
Continuous
 62
     2
370
     9
100
AcDbLine
 10
-374.6627488007416
 20
341.1890159813134
 30
0.0
 11
-374.6627488007416
 21
335.1889961861277
 31
0.0
  0
LINE
  5
179
330
1F
100
AcDbEntity
  8
0-1
  6
JWW_CENTER1
 62
     2
370
     9
100
AcDbLine
 10
-382.9098067412506
 20
345.1892271299622
 30
0.0
 11
-406.4046076181772
 21
345.1892271299622
 31
0.0
  0
LINE
  5
17A
330
1F
100
AcDbEntity
  8
0-1
  6
Continuous
 62
     2
370
     9
100
AcDbLine
 10
-416.7263185655748
 20
332.1891347524283
 30
0.0
 11
-372.5992491438582
 21
332.1889862885348
 31
0.0
  0
LINE
  5
17B
330
1F
100
AcDbEntity
  8
0-1
  6
JWW_CENTER1
 62
     2
370
     9
100
AcDbLine
 10
-394.6628024127032
 20
334.2144791886615
 30
0.0
 11
-394.6628024127032
 21
353.948596851246
 31
0.0
  0
LINE
  5
17C
330
1F
100
AcDbEntity
  8
0-1
  6
Continuous
 62
     2
370
     9
100
AcDbLine
 10
-404.1627471511428
 20
351.1890984612544
 30
0.0
 11
-404.1627471511428
 21
345.1892271299622
 31
0.0
  0
LINE
  5
17D
330
1F
100
AcDbEntity
  8
0-1
  6
Continuous
 62
     2
370
     9
100
AcDbLine
 10
-402.1627900407121
 20
345.1892271299622
 30
0.0
 11
-402.1627900407121
 21
351.1890984612544
 31
0.0
  0
LINE
  5
17E
330
1F
100
AcDbEntity
  8
0-1
  6
Continuous
 62
     2
370
     9
100
AcDbLine
 10
-387.1627776687209
 20
345.1892271299622
 30
0.0
 11
-387.1627776687209
 21
351.1890984612544
 31
0.0
  0
LINE
  5
17F
330
1F
100
AcDbEntity
  8
0-1
  6
Continuous
 62
     2
370
     9
100
AcDbLine
 10
-385.1627463263434
 20
351.1890984612544
 30
0.0
 11
-385.1627463263434
 21
345.1892271299622
 31
0.0
  0
LINE
  5
180
330
1F
100
AcDbEntity
  8
0-1
  6
Continuous
 62
     2
370
     9
100
AcDbLine
 10
-502.1628539626662
 20
205.6891380516259
 30
0.0
 11
-508.1628180838919
 21
205.6891380516259
 31
0.0
  0
LINE
  5
181
330
1F
100
AcDbEntity
  8
0-1
  6
Continuous
 62
     2
370
     9
100
AcDbLine
 10
-508.1628180838919
 20
207.6890951620567
 30
0.0
 11
-502.1628539626662
 21
207.6891693940035
 31
0.0
  0
LINE
  5
182
330
1F
100
AcDbEntity
  8
0-1
  6
JWW_CENTER1
 62
     2
370
     9
100
AcDbLine
 10
-512.1630292325406
 20
215.936190218539
 30
0.0
 11
-512.1630292325406
 21
239.430972537479
 31
0.0
  0
LINE
  5
183
330
1F
100
AcDbEntity
  8
0-1
  6
Continuous
 62
     2
370
     9
100
AcDbLine
 10
-502.1628539626662
 20
249.6892337283574
 30
0.0
 11
-508.1628180838919
 21
249.6891594964106
 31
0.0
  0
LINE
  5
184
330
1F
100
AcDbEntity
  8
0-1
  6
Continuous
 62
     2
370
     9
100
AcDbLine
 10
-508.1628180838919
 20
247.6891281540331
 30
0.0
 11
-502.1628539626662
 21
247.6891281540331
 31
0.0
  0
LINE
  5
185
330
1F
100
AcDbEntity
  8
0-1
  6
Continuous
 62
     2
370
     9
100
AcDbLine
 10
-499.1627883911133
 20
249.7526278109165
 30
0.0
 11
-499.1627883911133
 21
205.6256697371201
 31
0.0
  0
LINE
  5
186
330
1F
100
AcDbEntity
  8
0-1
  6
JWW_CENTER1
 62
     2
370
     9
100
AcDbLine
 10
-501.1883184072134
 20
227.6891858899917
 30
0.0
 11
-520.9223061638909
 21
227.6891858899917
 31
0.0
  0
LINE
  5
187
330
1F
100
AcDbEntity
  8
0-1
  6
Continuous
 62
     2
370
     9
100
AcDbLine
 10
-518.1628820058462
 20
237.1891677444047
 30
0.0
 11
-512.1630292325406
 21
237.1891677444047
 31
0.0
  0
LINE
  5
188
330
1F
100
AcDbEntity
  8
0-1
  6
Continuous
 62
     2
370
     9
100
AcDbLine
 10
-512.1630292325406
 20
235.189210633974
 30
0.0
 11
-518.1628820058462
 21
235.1891364020272
 31
0.0
  0
LINE
  5
189
330
1F
100
AcDbEntity
  8
0-1
  6
Continuous
 62
     2
370
     9
100
AcDbLine
 10
-512.1628993266338
 20
220.1891611460095
 30
0.0
 11
-518.1628820058462
 21
220.1891611460095
 31
0.0
  0
LINE
  5
18A
330
1F
100
AcDbEntity
  8
0-1
  6
Continuous
 62
     2
370
     9
100
AcDbLine
 10
-518.1628820058462
 20
218.1892040355787
 30
0.0
 11
-512.1628993266338
 21
218.1892040355787
 31
0.0
  0
LINE
  5
18B
330
1F
100
AcDbEntity
  8
0-1
  6
Continuous
 62
     2
370
     9
100
AcDbLine
 10
-502.6630102621542
 20
154.689192488387
 30
0.0
 11
-508.1631150116791
 21
154.689192488387
 31
0.0
  0
LINE
  5
18C
330
1F
100
AcDbEntity
  8
0-1
  6
Continuous
 62
     2
370
     9
100
AcDbLine
 10
-500.6628304558831
 20
203.6891067092484
 30
0.0
 11
-500.6628304558831
 21
156.6891867147911
 31
0.0
  0
LINE
  5
18D
330
1F
100
AcDbEntity
  8
0-1
  6
Continuous
 62
     2
370
     9
100
AcDbLine
 10
-502.6630102621542
 20
152.6891982619828
 30
0.0
 11
-508.1631150116791
 21
152.6891982619828
 31
0.0
  0
LINE
  5
18E
330
1F
100
AcDbEntity
  8
0-1
  6
Continuous
 62
     2
370
     9
100
AcDbLine
 10
-512.1630292325406
 20
156.6891867147911
 30
0.0
 11
-512.1630292325406
 21
203.6891809411952
 31
0.0
  0
LINE
  5
18F
330
1F
100
AcDbEntity
  8
0-1
  6
Continuous
 62
     2
370
     9
100
AcDbLine
 10
-510.1629978901631
 20
203.6891809411952
 30
0.0
 11
-510.1629978901631
 21
156.6891867147911
 31
0.0
  0
LINE
  5
190
330
1F
100
AcDbEntity
  8
0-1
  6
Continuous
 62
     2
370
     9
100
AcDbLine
 10
-522.1630931544947
 20
102.6891941379858
 30
0.0
 11
-522.1629446906013
 21
216.189246925148
 31
0.0
  0
LINE
  5
191
330
1F
100
AcDbEntity
  8
0-1
  6
Continuous
 62
     2
370
     9
100
AcDbLine
 10
-520.1631917180241
 20
102.6891941379858
 30
0.0
 11
-520.1630432541306
 21
216.189246925148
 31
0.0
  0
LINE
  5
192
330
1F
100
AcDbEntity
  8
0-1
  6
Continuous
 62
     2
370
     9
100
AcDbLine
 10
-416.6627760191221
 20
335.6890225797088
 30
0.0
 11
-416.6627760191221
 21
341.189164445207
 31
0.0
  0
LINE
  5
193
330
1F
100
AcDbEntity
  8
0-1
  6
Continuous
 62
     2
370
     9
100
AcDbLine
 10
-414.6627446767446
 20
341.189164445207
 30
0.0
 11
-414.6628189086914
 21
335.6890225797088
 31
0.0
  0
LINE
  5
194
330
1F
100
AcDbEntity
  8
0-1
  6
Continuous
 62
     2
370
     9
100
AcDbLine
 10
-498.6627991135056
 20
324.6891842403929
 30
0.0
 11
-498.6632073892129
 21
102.6891941379858
 31
0.0
  0
LINE
  5
195
330
1F
100
AcDbEntity
  8
0-1
  6
Continuous
 62
     2
370
     9
100
AcDbLine
 10
-418.6628815934465
 20
333.6892139331716
 30
0.0
 11
-491.6628007631044
 21
333.6892139331716
 31
0.0
  0
LINE
  5
196
330
1F
100
AcDbEntity
  8
0-1
  6
Continuous
 62
     2
370
     9
100
AcDbLine
 10
-500.66296036179
 20
251.6891908387881
 30
0.0
 11
-500.6628304558831
 21
324.6891842403929
 31
0.0
  0
LINE
  5
197
330
1F
100
AcDbEntity
  8
0-1
  6
Continuous
 62
     2
370
     9
100
AcDbLine
 10
-418.6628815934465
 20
345.1892271299622
 30
0.0
 11
-490.1627586983345
 21
345.1892271299622
 31
0.0
  0
LINE
  5
198
330
1F
100
AcDbEntity
  8
0-1
  6
Continuous
 62
     2
370
     9
100
AcDbLine
 10
-512.1628993266338
 20
251.6891908387881
 30
0.0
 11
-512.1628993266338
 21
323.1892535235432
 31
0.0
  0
LINE
  5
199
330
1F
100
AcDbEntity
  8
0-1
  6
Continuous
 62
     2
370
     9
100
AcDbLine
 10
-510.1628679842562
 20
323.1892535235432
 30
0.0
 11
-510.1628679842562
 21
251.6891908387881
 31
0.0
  0
LINE
  5
19A
330
1F
100
AcDbEntity
  8
0-1
  6
Continuous
 62
     2
370
     9
100
AcDbLine
 10
-490.1627586983345
 20
343.1892700195314
 30
0.0
 11
-418.6628815934465
 21
343.1892700195314
 31
0.0
  0
LINE
  5
19B
330
1F
100
AcDbEntity
  8
0-1
  6
Continuous
 62
     2
370
     9
100
AcDbLine
 10
-406.1627784935204
 20
355.189309609903
 30
0.0
 11
-490.1627586983345
 21
355.189309609903
 31
0.0
  0
LINE
  5
19C
330
1F
100
AcDbEntity
  8
0-1
  6
Continuous
 62
     2
370
     9
100
AcDbLine
 10
-406.1627784935204
 20
353.1892040355788
 30
0.0
 11
-490.1627586983345
 21
353.1892040355788
 31
0.0
  0
LINE
  5
19D
330
1F
100
AcDbEntity
  8
0-1
  6
Continuous
 62
     2
370
     9
100
AcDbLine
 10
-522.1629446906013
 20
239.189273318729
 30
0.0
 11
-522.1628147846943
 21
323.1892535235432
 31
0.0
  0
LINE
  5
19E
330
1F
100
AcDbEntity
  8
0-1
  6
Continuous
 62
     2
370
     9
100
AcDbLine
 10
-520.1629133482237
 20
239.189273318729
 30
0.0
 11
-520.1629133482237
 21
323.1892535235432
 31
0.0
  0
LINE
  5
19F
330
1F
100
AcDbEntity
  8
0-1
  6
Continuous
 62
     2
370
     9
100
AcDbLine
 10
-47.66267209439664
 20
-114.3108660723711
 30
0.0
 11
-47.66267209439664
 21
319.6892172323692
 31
0.0
  0
LINE
  5
1A0
330
1F
100
AcDbEntity
  8
0-1
  6
Continuous
 62
     2
370
     9
100
AcDbLine
 10
-166.6627925151103
 20
-129.8106450261294
 30
0.0
 11
-166.6627925151103
 21
-135.8106091473551
 31
0.0
  0
LINE
  5
1A1
330
1F
100
AcDbEntity
  8
0-1
  6
Continuous
 62
     2
370
     9
100
AcDbLine
 10
-164.6627982887063
 20
-135.8106091473551
 30
0.0
 11
-164.6627982887063
 21
-129.8106450261294
 31
0.0
  0
LINE
  5
1A2
330
1F
100
AcDbEntity
  8
0-1
  6
JWW_CENTER1
 62
     2
370
     9
100
AcDbLine
 10
-156.4157403481973
 20
-139.8108388539906
 30
0.0
 11
-132.9209209132838
 21
-139.8108388539906
 31
0.0
  0
LINE
  5
1A3
330
1F
100
AcDbEntity
  8
0-1
  6
Continuous
 62
     2
370
     9
100
AcDbLine
 10
-122.599228523873
 20
-126.8107279184701
 30
0.0
 11
-166.7262979455897
 21
-126.8106536865233
 31
0.0
  0
LINE
  5
1A4
330
1F
100
AcDbEntity
  8
0-1
  6
JWW_CENTER1
 62
     2
370
     9
100
AcDbLine
 10
-144.6627446767447
 20
-128.8361837026234
 30
0.0
 11
-144.662781792718
 21
-148.5701714593009
 31
0.0
  0
LINE
  5
1A5
330
1F
100
AcDbEntity
  8
0-1
  6
Continuous
 62
     2
370
     9
100
AcDbLine
 10
-135.162799938305
 20
-145.8107473012562
 30
0.0
 11
-135.162799938305
 21
-139.8108388539906
 31
0.0
  0
LINE
  5
1A6
330
1F
100
AcDbEntity
  8
0-1
  6
Continuous
 62
     2
370
     9
100
AcDbLine
 10
-137.1627570487357
 20
-139.8108388539906
 30
0.0
 11
-137.1627941647091
 21
-145.8107473012562
 31
0.0
  0
LINE
  5
1A7
330
1F
100
AcDbEntity
  8
0-1
  6
Continuous
 62
     2
370
     9
100
AcDbLine
 10
-152.1627694207269
 20
-139.8107646220437
 30
0.0
 11
-152.1628065367003
 21
-145.8106545113226
 31
0.0
  0
LINE
  5
1A8
330
1F
100
AcDbEntity
  8
0-1
  6
Continuous
 62
     2
370
     9
100
AcDbLine
 10
-154.1628007631044
 20
-145.8106545113226
 30
0.0
 11
-154.1628007631044
 21
-139.8107646220437
 31
0.0
  0
LINE
  5
1A9
330
1F
100
AcDbEntity
  8
0-1
  6
Continuous
 62
     2
370
     9
100
AcDbLine
 10
-37.16267456879484
 20
-0.3107868916277994
 30
0.0
 11
-31.16272900555578
 21
-0.3107868916277994
 31
0.0
  0
LINE
  5
1AA
330
1F
100
AcDbEntity
  8
0-1
  6
Continuous
 62
     2
370
     9
100
AcDbLine
 10
-31.16272900555578
 20
-2.310818234005382
 30
0.0
 11
-37.16267456879484
 21
-2.310818234005382
 31
0.0
  0
LINE
  5
1AB
330
1F
100
AcDbEntity
  8
0-1
  6
JWW_CENTER1
 62
     2
370
     9
100
AcDbLine
 10
-27.16251785690719
 20
-10.55783905854076
 30
0.0
 11
-27.16251785690719
 21
-34.0526584934542
 31
0.0
  0
LINE
  5
1AC
330
1F
100
AcDbEntity
  8
0-1
  6
Continuous
 62
     2
370
     9
100
AcDbLine
 10
-37.16267456879484
 20
-44.31084545238576
 30
0.0
 11
-31.16272900555578
 21
-44.31084545238576
 31
0.0
  0
LINE
  5
1AD
330
1F
100
AcDbEntity
  8
0-1
  6
Continuous
 62
     2
370
     9
100
AcDbLine
 10
-31.16272900555578
 20
-42.31081411000827
 30
0.0
 11
-37.16267456879484
 21
-42.31081411000827
 31
0.0
  0
LINE
  5
1AE
330
1F
100
AcDbEntity
  8
0-1
  6
Continuous
 62
     2
370
     9
100
AcDbLine
 10
-40.16268446638782
 20
-44.3743137668917
 30
0.0
 11
-40.16268446638782
 21
-0.2472814611485035
 31
0.0
  0
LINE
  5
1AF
330
1F
100
AcDbEntity
  8
0-1
  6
JWW_CENTER1
 62
     2
370
     9
100
AcDbLine
 10
-38.13722868223445
 20
-22.3108347299935
 30
0.0
 11
-18.40322236757015
 21
-22.3108347299935
 31
0.0
  0
LINE
  5
1B0
330
1F
100
AcDbEntity
  8
0-1
  6
Continuous
 62
     2
370
     9
100
AcDbLine
 10
-21.162646525615
 20
-31.81081658440655
 30
0.0
 11
-27.16251785690719
 21
-31.81081658440655
 31
0.0
  0
LINE
  5
1B1
330
1F
100
AcDbEntity
  8
0-1
  6
Continuous
 62
     2
370
     9
100
AcDbLine
 10
-27.16251785690719
 20
-29.81082235800233
 30
0.0
 11
-21.162646525615
 21
-29.81074812605561
 31
0.0
  0
LINE
  5
1B2
330
1F
100
AcDbEntity
  8
0-1
  6
Continuous
 62
     2
370
     9
100
AcDbLine
 10
-27.16259208885407
 20
-14.81084710198468
 30
0.0
 11
-21.162646525615
 21
-14.81080998601124
 31
0.0
  0
LINE
  5
1B3
330
1F
100
AcDbEntity
  8
0-1
  6
Continuous
 62
     2
370
     9
100
AcDbLine
 10
-21.162646525615
 20
-12.81077864363374
 30
0.0
 11
-27.16259208885407
 21
-12.81077864363374
 31
0.0
  0
LINE
  5
1B4
330
1F
100
AcDbEntity
  8
0-1
  6
Continuous
 62
     2
370
     9
100
AcDbLine
 10
-36.66253682729359
 20
50.68919578758462
 30
0.0
 11
-31.16243207776876
 21
50.68919578758462
 31
0.0
  0
LINE
  5
1B5
330
1F
100
AcDbEntity
  8
0-1
  6
Continuous
 62
     2
370
     9
100
AcDbLine
 10
-38.66271663356468
 20
1.689244450749698
 30
0.0
 11
-38.66271663356468
 21
48.68920156118048
 31
0.0
  0
LINE
  5
1B6
330
1F
100
AcDbEntity
  8
0-1
  6
Continuous
 62
     2
370
     9
100
AcDbLine
 10
-36.66253682729359
 20
52.68919001398876
 30
0.0
 11
-31.16243207776876
 21
52.68919001398876
 31
0.0
  0
LINE
  5
1B7
330
1F
100
AcDbEntity
  8
0-1
  6
Continuous
 62
     2
370
     9
100
AcDbLine
 10
-40.16268446638782
 20
50.62539342931814
 30
0.0
 11
-40.16268446638782
 21
154.7529948466535
 31
0.0
  0
LINE
  5
1B8
330
1F
100
AcDbEntity
  8
0-1
  6
Continuous
 62
     2
370
     9
100
AcDbLine
 10
-27.16251785690719
 20
48.68920156118048
 30
0.0
 11
-27.16251785690719
 21
1.689207334776427
 31
0.0
  0
LINE
  5
1B9
330
1F
100
AcDbEntity
  8
0-1
  6
Continuous
 62
     2
370
     9
100
AcDbLine
 10
-29.16254919928468
 20
1.689207334776427
 30
0.0
 11
-29.16254919928468
 21
48.68920156118048
 31
0.0
  0
LINE
  5
1BA
330
1F
100
AcDbEntity
  8
0-1
  6
Continuous
 62
     2
370
     9
100
AcDbLine
 10
-17.16236114501953
 20
102.6891941379858
 30
0.0
 11
-17.16250960891313
 21
-10.81082153320295
 31
0.0
  0
LINE
  5
1BB
330
1F
100
AcDbEntity
  8
0-1
  6
Continuous
 62
     2
370
     9
100
AcDbLine
 10
-19.16239248739703
 20
102.6891941379858
 30
0.0
 11
-19.16254095129071
 21
-10.81082153320295
 31
0.0
  0
LINE
  5
1BC
330
1F
100
AcDbEntity
  8
0-1
  6
Continuous
 62
     2
370
     9
100
AcDbLine
 10
-122.6627710703256
 20
-130.3107270936707
 30
0.0
 11
-122.6627710703256
 21
-135.8107019372887
 31
0.0
  0
LINE
  5
1BD
330
1F
100
AcDbEntity
  8
0-1
  6
Continuous
 62
     2
370
     9
100
AcDbLine
 10
-124.6628024127032
 20
-135.8107019372887
 30
0.0
 11
-124.6627281807564
 21
-130.3107270936707
 31
0.0
  0
LINE
  5
1BE
330
1F
100
AcDbEntity
  8
0-1
  6
Continuous
 62
     2
370
     9
100
AcDbLine
 10
-40.66271085996883
 20
-119.3108701963681
 30
0.0
 11
-40.66233970023484
 21
102.6891941379858
 31
0.0
  0
LINE
  5
1BF
330
1F
100
AcDbEntity
  8
0-1
  6
Continuous
 62
     2
370
     9
100
AcDbLine
 10
-120.6627397279481
 20
-128.3108256572
 30
0.0
 11
-47.66267209439664
 21
-128.3108256572
 31
0.0
  0
LINE
  5
1C0
330
1F
100
AcDbEntity
  8
0-1
  6
Continuous
 62
     2
370
     9
100
AcDbLine
 10
-38.66260528564453
 20
-46.31087679476343
 30
0.0
 11
-38.66271663356468
 21
-119.3107959644213
 31
0.0
  0
LINE
  5
1C1
330
1F
100
AcDbEntity
  8
0-1
  6
Continuous
 62
     2
370
     9
100
AcDbLine
 10
-120.6627397279481
 20
-139.8108388539906
 30
0.0
 11
-49.16271415916657
 21
-139.8108388539906
 31
0.0
  0
LINE
  5
1C2
330
1F
100
AcDbEntity
  8
0-1
  6
Continuous
 62
     2
370
     9
100
AcDbLine
 10
-27.16259208885407
 20
-46.31080256281655
 30
0.0
 11
-27.16266632080078
 21
-117.8108281315982
 31
0.0
  0
LINE
  5
1C3
330
1F
100
AcDbEntity
  8
0-1
  6
Continuous
 62
     2
370
     9
100
AcDbLine
 10
-29.16269766317828
 20
-117.8108281315982
 30
0.0
 11
-29.16262343123157
 21
-46.31080256281655
 31
0.0
  0
LINE
  5
1C4
330
1F
100
AcDbEntity
  8
0-1
  6
Continuous
 62
     2
370
     9
100
AcDbLine
 10
-49.16271415916657
 20
-137.8108075116129
 30
0.0
 11
-120.6627397279481
 21
-137.8108075116129
 31
0.0
  0
LINE
  5
1C5
330
1F
100
AcDbEntity
  8
0-1
  6
Continuous
 62
     2
370
     9
100
AcDbLine
 10
-133.1627685959275
 20
-149.8108099860112
 30
0.0
 11
-49.16271415916657
 21
-149.8108099860112
 31
0.0
  0
LINE
  5
1C6
330
1F
100
AcDbEntity
  8
0-1
  6
Continuous
 62
     2
370
     9
100
AcDbLine
 10
-133.1627685959275
 20
-147.8108528755805
 30
0.0
 11
-49.16271415916657
 21
-147.8108528755805
 31
0.0
  0
LINE
  5
1C7
330
1F
100
AcDbEntity
  8
0-1
  6
Continuous
 62
     2
370
     9
100
AcDbLine
 10
-17.16258384085984
 20
-33.81084792678405
 30
0.0
 11
-17.16265807280664
 21
-117.8108281315982
 31
0.0
  0
LINE
  5
1C8
330
1F
100
AcDbEntity
  8
0-1
  6
Continuous
 62
     2
370
     9
100
AcDbLine
 10
-19.16254095129071
 20
-33.81084792678405
 30
0.0
 11
-19.16261518323751
 21
-117.8108281315982
 31
0.0
  0
LINE
  5
1C9
330
1F
100
AcDbEntity
  8
0-1
  6
Continuous
 62
     2
370
     9
100
AcDbLine
 10
-166.6627925151103
 20
335.1889961861277
 30
0.0
 11
-166.6627925151103
 21
341.1890159813134
 31
0.0
  0
LINE
  5
1CA
330
1F
100
AcDbEntity
  8
0-1
  6
Continuous
 62
     2
370
     9
100
AcDbLine
 10
-164.6627982887063
 20
341.1890159813134
 30
0.0
 11
-164.6627982887063
 21
335.1889961861277
 31
0.0
  0
LINE
  5
1CB
330
1F
100
AcDbEntity
  8
0-1
  6
JWW_CENTER1
 62
     2
370
     9
100
AcDbLine
 10
-156.4157403481973
 20
345.1892271299622
 30
0.0
 11
-132.9209209132838
 21
345.1892271299622
 31
0.0
  0
LINE
  5
1CC
330
1F
100
AcDbEntity
  8
0-1
  6
Continuous
 62
     2
370
     9
100
AcDbLine
 10
-122.599228523873
 20
332.1891347524283
 30
0.0
 11
-166.7262979455897
 21
332.1889862885348
 31
0.0
  0
LINE
  5
1CD
330
1F
100
AcDbEntity
  8
0-1
  6
JWW_CENTER1
 62
     2
370
     9
100
AcDbLine
 10
-144.6627446767447
 20
334.2144791886615
 30
0.0
 11
-144.662781792718
 21
353.948596851246
 31
0.0
  0
LINE
  5
1CE
330
1F
100
AcDbEntity
  8
0-1
  6
Continuous
 62
     2
370
     9
100
AcDbLine
 10
-135.162799938305
 20
351.1890984612544
 30
0.0
 11
-135.162799938305
 21
345.1892271299622
 31
0.0
  0
LINE
  5
1CF
330
1F
100
AcDbEntity
  8
0-1
  6
Continuous
 62
     2
370
     9
100
AcDbLine
 10
-137.1627570487357
 20
345.1892271299622
 30
0.0
 11
-137.1627941647091
 21
351.1890984612544
 31
0.0
  0
LINE
  5
1D0
330
1F
100
AcDbEntity
  8
0-1
  6
Continuous
 62
     2
370
     9
100
AcDbLine
 10
-152.1627694207269
 20
345.1892271299622
 30
0.0
 11
-152.1628065367003
 21
351.1890984612544
 31
0.0
  0
LINE
  5
1D1
330
1F
100
AcDbEntity
  8
0-1
  6
Continuous
 62
     2
370
     9
100
AcDbLine
 10
-154.1628007631044
 20
351.1890984612544
 30
0.0
 11
-154.1628007631044
 21
345.1892271299622
 31
0.0
  0
LINE
  5
1D2
330
1F
100
AcDbEntity
  8
0-1
  6
Continuous
 62
     2
370
     9
100
AcDbLine
 10
-37.16267456879484
 20
205.6891380516259
 30
0.0
 11
-31.16272900555578
 21
205.6891380516259
 31
0.0
  0
LINE
  5
1D3
330
1F
100
AcDbEntity
  8
0-1
  6
Continuous
 62
     2
370
     9
100
AcDbLine
 10
-31.16272900555578
 20
207.6890951620567
 30
0.0
 11
-37.16267456879484
 21
207.6891693940035
 31
0.0
  0
LINE
  5
1D4
330
1F
100
AcDbEntity
  8
0-1
  6
JWW_CENTER1
 62
     2
370
     9
100
AcDbLine
 10
-27.16251785690719
 20
215.936190218539
 30
0.0
 11
-27.16251785690719
 21
239.430972537479
 31
0.0
  0
LINE
  5
1D5
330
1F
100
AcDbEntity
  8
0-1
  6
Continuous
 62
     2
370
     9
100
AcDbLine
 10
-37.16267456879484
 20
249.6892337283574
 30
0.0
 11
-31.16272900555578
 21
249.6891594964106
 31
0.0
  0
LINE
  5
1D6
330
1F
100
AcDbEntity
  8
0-1
  6
Continuous
 62
     2
370
     9
100
AcDbLine
 10
-31.16272900555578
 20
247.6891281540331
 30
0.0
 11
-37.16267456879484
 21
247.6891281540331
 31
0.0
  0
LINE
  5
1D7
330
1F
100
AcDbEntity
  8
0-1
  6
Continuous
 62
     2
370
     9
100
AcDbLine
 10
-40.16268446638782
 20
249.7526278109165
 30
0.0
 11
-40.16268446638782
 21
205.6256697371201
 31
0.0
  0
LINE
  5
1D8
330
1F
100
AcDbEntity
  8
0-1
  6
JWW_CENTER1
 62
     2
370
     9
100
AcDbLine
 10
-38.13722868223445
 20
227.6891858899917
 30
0.0
 11
-18.40322236757015
 21
227.6891858899917
 31
0.0
  0
LINE
  5
1D9
330
1F
100
AcDbEntity
  8
0-1
  6
Continuous
 62
     2
370
     9
100
AcDbLine
 10
-21.162646525615
 20
237.1891677444047
 30
0.0
 11
-27.16251785690719
 21
237.1891677444047
 31
0.0
  0
LINE
  5
1DA
330
1F
100
AcDbEntity
  8
0-1
  6
Continuous
 62
     2
370
     9
100
AcDbLine
 10
-27.16251785690719
 20
235.189210633974
 30
0.0
 11
-21.162646525615
 21
235.1891364020272
 31
0.0
  0
LINE
  5
1DB
330
1F
100
AcDbEntity
  8
0-1
  6
Continuous
 62
     2
370
     9
100
AcDbLine
 10
-27.16259208885407
 20
220.1891611460095
 30
0.0
 11
-21.162646525615
 21
220.1891611460095
 31
0.0
  0
LINE
  5
1DC
330
1F
100
AcDbEntity
  8
0-1
  6
Continuous
 62
     2
370
     9
100
AcDbLine
 10
-21.162646525615
 20
218.1892040355787
 30
0.0
 11
-27.16259208885407
 21
218.1892040355787
 31
0.0
  0
LINE
  5
1DD
330
1F
100
AcDbEntity
  8
0-1
  6
Continuous
 62
     2
370
     9
100
AcDbLine
 10
-36.66253682729359
 20
154.689192488387
 30
0.0
 11
-31.16243207776876
 21
154.689192488387
 31
0.0
  0
LINE
  5
1DE
330
1F
100
AcDbEntity
  8
0-1
  6
Continuous
 62
     2
370
     9
100
AcDbLine
 10
-38.66271663356468
 20
203.6891067092484
 30
0.0
 11
-38.66271663356468
 21
156.6891867147911
 31
0.0
  0
LINE
  5
1DF
330
1F
100
AcDbEntity
  8
0-1
  6
Continuous
 62
     2
370
     9
100
AcDbLine
 10
-36.66253682729359
 20
152.6891982619828
 30
0.0
 11
-31.16243207776876
 21
152.6891982619828
 31
0.0
  0
LINE
  5
1E0
330
1F
100
AcDbEntity
  8
0-1
  6
Continuous
 62
     2
370
     9
100
AcDbLine
 10
-27.16251785690719
 20
156.6891867147911
 30
0.0
 11
-27.16251785690719
 21
203.6891809411952
 31
0.0
  0
LINE
  5
1E1
330
1F
100
AcDbEntity
  8
0-1
  6
Continuous
 62
     2
370
     9
100
AcDbLine
 10
-29.16254919928468
 20
203.6891809411952
 30
0.0
 11
-29.16254919928468
 21
156.6891867147911
 31
0.0
  0
LINE
  5
1E2
330
1F
100
AcDbEntity
  8
0-1
  6
Continuous
 62
     2
370
     9
100
AcDbLine
 10
-17.16236114501953
 20
102.6891941379858
 30
0.0
 11
-17.16250960891313
 21
216.189246925148
 31
0.0
  0
LINE
  5
1E3
330
1F
100
AcDbEntity
  8
0-1
  6
Continuous
 62
     2
370
     9
100
AcDbLine
 10
-19.16239248739703
 20
102.6891941379858
 30
0.0
 11
-19.16254095129071
 21
216.189246925148
 31
0.0
  0
LINE
  5
1E4
330
1F
100
AcDbEntity
  8
0-1
  6
Continuous
 62
     2
370
     9
100
AcDbLine
 10
-122.6627710703256
 20
335.6890225797088
 30
0.0
 11
-122.6627710703256
 21
341.189164445207
 31
0.0
  0
LINE
  5
1E5
330
1F
100
AcDbEntity
  8
0-1
  6
Continuous
 62
     2
370
     9
100
AcDbLine
 10
-124.6628024127032
 20
341.189164445207
 30
0.0
 11
-124.6627281807564
 21
335.6890225797088
 31
0.0
  0
LINE
  5
1E6
330
1F
100
AcDbEntity
  8
0-1
  6
Continuous
 62
     2
370
     9
100
AcDbLine
 10
-40.66271085996883
 20
324.6891842403929
 30
0.0
 11
-40.66233970023484
 21
102.6891941379858
 31
0.0
  0
LINE
  5
1E7
330
1F
100
AcDbEntity
  8
0-1
  6
Continuous
 62
     2
370
     9
100
AcDbLine
 10
-120.6627397279481
 20
333.6892139331716
 30
0.0
 11
-47.66267209439664
 21
333.6892139331716
 31
0.0
  0
LINE
  5
1E8
330
1F
100
AcDbEntity
  8
0-1
  6
Continuous
 62
     2
370
     9
100
AcDbLine
 10
-38.66260528564453
 20
251.6891908387881
 30
0.0
 11
-38.66271663356468
 21
324.6891842403929
 31
0.0
  0
LINE
  5
1E9
330
1F
100
AcDbEntity
  8
0-1
  6
Continuous
 62
     2
370
     9
100
AcDbLine
 10
-120.6627397279481
 20
345.1892271299622
 30
0.0
 11
-49.16271415916657
 21
345.1892271299622
 31
0.0
  0
LINE
  5
1EA
330
1F
100
AcDbEntity
  8
0-1
  6
Continuous
 62
     2
370
     9
100
AcDbLine
 10
-27.16259208885407
 20
251.6891908387881
 30
0.0
 11
-27.16266632080078
 21
323.1892535235432
 31
0.0
  0
LINE
  5
1EB
330
1F
100
AcDbEntity
  8
0-1
  6
Continuous
 62
     2
370
     9
100
AcDbLine
 10
-29.16269766317828
 20
323.1892535235432
 30
0.0
 11
-29.16262343123157
 21
251.6891908387881
 31
0.0
  0
LINE
  5
1EC
330
1F
100
AcDbEntity
  8
0-1
  6
Continuous
 62
     2
370
     9
100
AcDbLine
 10
-49.16271415916657
 20
343.1892700195314
 30
0.0
 11
-120.6627397279481
 21
343.1892700195314
 31
0.0
  0
LINE
  5
1ED
330
1F
100
AcDbEntity
  8
0-1
  6
Continuous
 62
     2
370
     9
100
AcDbLine
 10
-133.1627685959275
 20
355.189309609903
 30
0.0
 11
-49.16271415916657
 21
355.189309609903
 31
0.0
  0
LINE
  5
1EE
330
1F
100
AcDbEntity
  8
0-1
  6
Continuous
 62
     2
370
     9
100
AcDbLine
 10
-133.1627685959275
 20
353.1892040355788
 30
0.0
 11
-49.16271415916657
 21
353.1892040355788
 31
0.0
  0
LINE
  5
1EF
330
1F
100
AcDbEntity
  8
0-1
  6
Continuous
 62
     2
370
     9
100
AcDbLine
 10
-17.16258384085984
 20
239.189273318729
 30
0.0
 11
-17.16265807280664
 21
323.1892535235432
 31
0.0
  0
LINE
  5
1F0
330
1F
100
AcDbEntity
  8
0-1
  6
Continuous
 62
     2
370
     9
100
AcDbLine
 10
-19.16254095129071
 20
239.189273318729
 30
0.0
 11
-19.16261518323751
 21
323.1892535235432
 31
0.0
  0
LINE
  5
1F1
330
1F
100
AcDbEntity
  8
0-1
  6
Continuous
 62
     2
370
     9
100
AcDbLine
 10
-52.66271333436703
 20
-119.3107959644213
 30
0.0
 11
-486.6628337550807
 21
-119.3107959644213
 31
0.0
  0
LINE
  5
1F2
330
1F
100
AcDbEntity
  8
0-1
  6
Continuous
 62
     2
370
     9
100
AcDbLine
 10
-156.1627578735352
 20
-149.8108099860112
 30
0.0
 11
-383.1627892159127
 21
-149.8108099860112
 31
0.0
  0
LINE
  5
1F3
330
1F
100
AcDbEntity
  8
0-1
  6
Continuous
 62
     2
370
     9
100
AcDbLine
 10
-52.66271333436703
 20
324.6891842403929
 30
0.0
 11
-486.6628337550807
 21
324.6891842403929
 31
0.0
  0
LINE
  5
1F4
330
1F
100
AcDbEntity
  8
0-1
  6
Continuous
 62
     2
370
     9
100
AcDbLine
 10
-156.1627578735352
 20
355.189309609903
 30
0.0
 11
-383.1627892159127
 21
355.189309609903
 31
0.0
  0
LINE
  5
1F5
330
1F
100
AcDbEntity
  8
0-1
  6
Continuous
 62
     2
370
     9
100
AcDbLine
 10
-156.1627578735352
 20
353.1892040355788
 30
0.0
 11
-383.1627892159127
 21
353.1892040355788
 31
0.0
  0
LINE
  5
1F6
330
1F
100
AcDbEntity
  8
0-1
  6
Continuous
 62
     2
370
     9
100
AcDbLine
 10
-491.6628007631044
 20
331.6891083588473
 30
0.0
 11
-47.66267209439664
 21
331.6891083588473
 31
0.0
  0
LINE
  5
1F7
330
1F
100
AcDbEntity
  8
0-1
  6
JWW_CENTER1
 62
     2
370
     9
100
AcDbLine
 10
224.000457557472
 20
102.6891941379858
 30
0.0
 11
229.3372891400311
 21
102.6891941379858
 31
0.0
  0
LINE
  5
1F8
330
1F
100
AcDbEntity
  8
0-1
  6
Continuous
 62
     2
370
     9
100
AcDbLine
 10
229.3372891400311
 20
154.3289448506124
 30
0.0
 11
229.3372891400311
 21
330.3651073558912
 31
0.0
  0
LINE
  5
1F9
330
1F
100
AcDbEntity
  8
0-1
  6
Continuous
 62
     2
370
     9
100
AcDbLine
 10
246.5608823621595
 20
303.9598388671877
 30
0.0
 11
253.3372198568808
 21
302.689210633974
 31
0.0
  0
LINE
  5
1FA
330
1F
100
AcDbEntity
  8
0-1
  6
Continuous
 62
     2
370
     9
100
AcDbLine
 10
244.5431095844992
 20
353.4303836307011
 30
0.0
 11
253.3372198568808
 21
355.1892353779563
 31
0.0
  0
LINE
  5
1FB
330
1F
100
AcDbEntity
  8
0-1
  6
Continuous
 62
     2
370
     9
100
AcDbLine
 10
243.3372858408336
 20
345.8105485245989
 30
0.0
 11
243.3372858408336
 21
351.9595518369935
 31
0.0
  0
LINE
  5
1FC
330
1F
100
AcDbEntity
  8
0-1
  6
Continuous
 62
     2
370
     9
100
AcDbLine
 10
244.897938290158
 20
343.6285746806378
 30
0.0
 11
243.7765905019398
 21
344.7498482369089
 31
0.0
  0
LINE
  5
1FD
330
1F
100
AcDbEntity
  8
0-1
  6
Continuous
 62
     2
370
     9
100
AcDbLine
 10
240.9574838586755
 20
333.1416790936445
 30
0.0
 11
230.6511945982239
 21
331.8534578890415
 31
0.0
  0
LINE
  5
1FE
330
1F
100
AcDbEntity
  8
0-1
  6
Continuous
 62
     2
370
     9
100
AcDbLine
 10
245.3373171832111
 20
338.1031939532307
 30
0.0
 11
245.3373171832111
 21
342.5679486248945
 31
0.0
  0
LINE
  5
1FF
330
1F
100
AcDbEntity
  8
0-1
  6
Continuous
 62
     2
370
     9
100
AcDbLine
 10
243.5852947750608
 20
322.9082113729942
 30
0.0
 11
230.6511945982239
 21
324.5249831740922
 31
0.0
  0
LINE
  5
200
330
1F
100
AcDbEntity
  8
0-1
  6
Continuous
 62
     2
370
     9
100
AcDbLine
 10
-301.6627553991369
 20
335.689319507496
 30
0.0
 11
-301.6627553991369
 21
341.1894613729942
 31
0.0
  0
LINE
  5
201
330
1F
100
AcDbEntity
  8
0-1
  6
Continuous
 62
     2
370
     9
100
AcDbLine
 10
-299.6627982887062
 20
335.689319507496
 30
0.0
 11
-299.6627982887062
 21
341.1894613729942
 31
0.0
  0
LINE
  5
202
330
1F
100
AcDbEntity
  8
0-1
  6
Continuous
 62
     2
370
     9
100
AcDbLine
 10
-301.7265948733768
 20
332.1891347524283
 30
0.0
 11
-237.598952216071
 21
332.1891347524283
 31
0.0
  0
LINE
  5
203
330
1F
100
AcDbEntity
  8
0-1
  6
Continuous
 62
     2
370
     9
100
AcDbLine
 10
-237.6627916903109
 20
335.689319507496
 30
0.0
 11
-237.6627916903109
 21
341.1894613729942
 31
0.0
  0
LINE
  5
204
330
1F
100
AcDbEntity
  8
0-1
  6
Continuous
 62
     2
370
     9
100
AcDbLine
 10
-239.6627488007416
 20
335.689319507496
 30
0.0
 11
-239.6627488007416
 21
341.1894613729942
 31
0.0
  0
LINE
  5
205
330
1F
100
AcDbEntity
  8
0-1
  6
Continuous
 62
     2
370
     9
100
AcDbLine
 10
-303.6627867415144
 20
333.6892139331716
 30
0.0
 11
-370.6627603479334
 21
333.6892139331716
 31
0.0
  0
LINE
  5
206
330
1F
100
AcDbEntity
  8
0-1
  6
Continuous
 62
     2
370
     9
100
AcDbLine
 10
-370.6627603479334
 20
343.1892700195314
 30
0.0
 11
-303.6627867415144
 21
343.1892700195314
 31
0.0
  0
LINE
  5
207
330
1F
100
AcDbEntity
  8
0-1
  6
Continuous
 62
     2
370
     9
100
AcDbLine
 10
-168.6627867415145
 20
333.6892139331716
 30
0.0
 11
-235.6627603479334
 21
333.6892139331716
 31
0.0
  0
LINE
  5
208
330
1F
100
AcDbEntity
  8
0-1
  6
Continuous
 62
     2
370
     9
100
AcDbLine
 10
-235.6627603479334
 20
343.1892700195314
 30
0.0
 11
-168.6627867415145
 21
343.1892700195314
 31
0.0
  0
LINE
  5
209
330
1F
100
AcDbEntity
  8
0-1
  6
Continuous
 62
     2
370
     9
100
AcDbLine
 10
-168.6627867415145
 20
345.1892271299622
 30
0.0
 11
-235.6627603479334
 21
345.1892271299622
 31
0.0
  0
LINE
  5
20A
330
1F
100
AcDbEntity
  8
0-1
  6
Continuous
 62
     2
370
     9
100
AcDbLine
 10
-303.6627867415144
 20
345.1892271299622
 30
0.0
 11
-370.6627603479334
 21
345.1892271299622
 31
0.0
  0
LINE
  5
20B
330
1F
100
AcDbEntity
  8
0-1
  6
Continuous
 62
     2
370
     9
100
AcDbLine
 10
-490.1627586983345
 20
-137.8108075116129
 30
0.0
 11
-418.6628815934465
 21
-137.8108075116129
 31
0.0
  0
LINE
  5
20C
330
1F
100
AcDbEntity
  8
0-1
  6
Continuous
 62
     2
370
     9
100
AcDbLine
 10
-418.6628815934465
 20
-139.8108388539906
 30
0.0
 11
-490.1627586983345
 21
-139.8108388539906
 31
0.0
  0
LINE
  5
20D
330
1F
100
AcDbEntity
  8
0-1
  6
Continuous
 62
     2
370
     9
100
AcDbLine
 10
245.3373171832111
 20
320.923694507496
 30
0.0
 11
245.3373171832111
 21
305.4340853304477
 31
0.0
  0
LINE
  5
20E
330
1F
100
AcDbEntity
  8
0-1
  6
Continuous
 62
     2
370
     9
100
AcDbLine
 10
253.3372198568808
 20
355.1892353779563
 30
0.0
 11
253.3372198568808
 21
286.9155900285052
 31
0.0
  0
LINE
  5
20F
330
1F
100
AcDbEntity
  8
0-1
  6
Continuous
 62
     2
370
     9
100
AcDbLine
 10
253.3372198568808
 20
-149.8109213339314
 30
0.0
 11
253.3372198568808
 21
-81.53723886850702
 31
0.0
  0
LINE
  5
210
330
1F
100
AcDbEntity
  8
0-0
  6
JWW_CENTER1
 62
     3
370
     9
100
AcDbLine
 10
-269.6627735447239
 20
-156.9142691122517
 30
0.0
 11
-269.6627735447239
 21
334.3431231524495
 31
0.0
  0
LINE
  5
211
330
1F
100
AcDbEntity
  8
0-0
  6
JWW_CENTER1
 62
     3
370
     9
100
AcDbLine
 10
-269.6627735447239
 20
352.3751022751269
 30
0.0
 11
-269.6627735447239
 21
361.8418282173777
 31
0.0
  0
LINE
  5
212
330
1F
100
AcDbEntity
  8
0-0
  6
JWW_CENTER1
 62
     3
370
     9
100
AcDbLine
 10
-535.4193507014095
 20
102.6891941379858
 30
0.0
 11
-518.7444150770033
 21
102.6891941379858
 31
0.0
  0
LINE
  5
213
330
1F
100
AcDbEntity
  8
0-0
  6
JWW_CENTER1
 62
     3
370
     9
100
AcDbLine
 10
-466.6772182567699
 20
102.6891941379858
 30
0.0
 11
-79.25367303796719
 21
102.6891941379858
 31
0.0
  0
LINE
  5
214
330
1F
100
AcDbEntity
  8
0-0
  6
JWW_CENTER1
 62
     3
370
     9
100
AcDbLine
 10
-22.5094367362357
 20
102.6891941379858
 30
0.0
 11
-9.551285408638591
 21
102.6891941379858
 31
0.0
  0
LINE
  5
215
330
1F
100
AcDbEntity
  8
0-4
  6
Continuous
 62
     7
370
     9
100
AcDbLine
 10
-10.87832992141313
 20
111.6891495988177
 30
0.0
 11
13.73750325795774
 21
111.6891495988177
 31
0.0
  0
LINE
  5
216
330
1F
100
AcDbEntity
  8
0-4
  6
Continuous
 62
     7
370
     9
100
AcDbLine
 10
-10.87832992141313
 20
93.68916444520704
 30
0.0
 11
13.73750325795774
 21
93.68916444520704
 31
0.0
  0
LINE
  5
217
330
1F
100
AcDbEntity
  8
0-4
  6
Continuous
 62
     7
370
     9
100
AcDbLine
 10
-137.1627941647091
 20
-153.3107534872517
 30
0.0
 11
-137.1627941647091
 21
-180.7108228528819
 31
0.0
  0
LINE
  5
218
330
1F
100
AcDbEntity
  8
0-4
  6
Continuous
 62
     7
370
     9
100
AcDbLine
 10
-152.1628065367003
 20
-153.310679255305
 30
0.0
 11
-152.1628065367003
 21
-180.7108228528819
 31
0.0
  0
LINE
  5
219
330
1F
100
AcDbEntity
  8
0-4
  6
Continuous
 62
     7
370
     9
100
AcDbLine
 10
-137.1627941647091
 20
-179.8108161720069
 30
0.0
 11
-129.7269429387273
 21
-178.8318638157198
 31
0.0
  0
LINE
  5
21A
330
1F
100
AcDbEntity
  8
0-4
  6
Continuous
 62
     7
370
     9
100
AcDbLine
 10
-137.1627941647091
 20
-179.8108161720069
 30
0.0
 11
-129.7269429387273
 21
-180.7897685282938
 31
0.0
  0
LINE
  5
21B
330
1F
100
AcDbEntity
  8
0-4
  6
Continuous
 62
     7
370
     9
100
AcDbLine
 10
-152.1628065367003
 20
-179.8108161720069
 30
0.0
 11
-159.5986577626822
 21
-178.8318638157198
 31
0.0
  0
LINE
  5
21C
330
1F
100
AcDbEntity
  8
0-4
  6
Continuous
 62
     7
370
     9
100
AcDbLine
 10
-152.1628065367003
 20
-179.8108161720069
 30
0.0
 11
-159.5986577626822
 21
-180.7897685282938
 31
0.0
  0
LINE
  5
21D
330
1F
100
AcDbEntity
  8
0-4
  6
Continuous
 62
     7
370
     9
100
AcDbLine
 10
-152.1627323047534
 20
-132.310832667995
 30
0.0
 11
-185.0627765140019
 21
-132.310832667995
 31
0.0
  0
LINE
  5
21E
330
1F
100
AcDbEntity
  8
0-4
  6
Continuous
 62
     7
370
     9
100
AcDbLine
 10
-184.1627883911133
 20
-132.310832667995
 30
0.0
 11
-185.1417221894135
 21
-124.8749999999998
 31
0.0
  0
LINE
  5
21F
330
1F
100
AcDbEntity
  8
0-4
  6
Continuous
 62
     7
370
     9
100
AcDbLine
 10
-184.1627883911133
 20
-132.310832667995
 30
0.0
 11
-183.183854592813
 21
-124.8749999999998
 31
0.0
  0
LINE
  5
220
330
1F
100
AcDbEntity
  8
0-4
  6
Continuous
 62
     7
370
     9
100
AcDbLine
 10
-184.1627883911133
 20
-149.8106615221176
 30
0.0
 11
-185.1417221894135
 21
-157.2464941901128
 31
0.0
  0
LINE
  5
221
330
1F
100
AcDbEntity
  8
0-4
  6
Continuous
 62
     7
370
     9
100
AcDbLine
 10
221.8372643960489
 20
331.6892568227408
 30
0.0
 11
183.4373010171427
 21
331.6892568227408
 31
0.0
  0
LINE
  5
222
330
1F
100
AcDbEntity
  8
0-4
  6
Continuous
 62
     7
370
     9
100
AcDbLine
 10
222.8372429512642
 20
322.6890786660686
 30
0.0
 11
183.4373010171427
 21
322.6890786660686
 31
0.0
  0
LINE
  5
223
330
1F
100
AcDbEntity
  8
0-4
  6
Continuous
 62
     7
370
     9
100
AcDbLine
 10
184.3372891400312
 20
331.6892568227408
 30
0.0
 11
183.3583182257575
 21
339.1250709327493
 31
0.0
  0
LINE
  5
224
330
1F
100
AcDbEntity
  8
0-4
  6
Continuous
 62
     7
370
     9
100
AcDbLine
 10
184.3372891400312
 20
331.6892568227408
 30
0.0
 11
185.3162600543047
 21
339.1250709327493
 31
0.0
  0
LINE
  5
225
330
1F
100
AcDbEntity
  8
0-4
  6
Continuous
 62
     7
370
     9
100
AcDbLine
 10
184.3372891400312
 20
322.6890786660686
 30
0.0
 11
183.3583182257575
 21
315.2532645560601
 31
0.0
  0
LINE
  5
226
330
1F
100
AcDbEntity
  8
0-4
  6
Continuous
 62
     7
370
     9
100
AcDbLine
 10
184.3372891400312
 20
322.6890786660686
 30
0.0
 11
185.3162600543047
 21
315.2532645560601
 31
0.0
  0
LINE
  5
227
330
1F
100
AcDbEntity
  8
0-4
  6
Continuous
 62
     7
370
     9
100
AcDbLine
 10
222.8372429512642
 20
-117.3107646220437
 30
0.0
 11
183.4373010171427
 21
-117.3107646220437
 31
0.0
  0
LINE
  5
228
330
1F
100
AcDbEntity
  8
0-4
  6
Continuous
 62
     7
370
     9
100
AcDbLine
 10
221.8372643960489
 20
-126.3109056627426
 30
0.0
 11
183.4373010171427
 21
-126.3109056627426
 31
0.0
  0
LINE
  5
229
330
1F
100
AcDbEntity
  8
0-4
  6
Continuous
 62
     7
370
     9
100
AcDbLine
 10
184.3372891400312
 20
-117.3107646220437
 30
0.0
 11
183.3583182257575
 21
-109.8749133960619
 31
0.0
  0
LINE
  5
22A
330
1F
100
AcDbEntity
  8
0-4
  6
Continuous
 62
     7
370
     9
100
AcDbLine
 10
184.3372891400312
 20
-117.3107646220437
 30
0.0
 11
185.3162600543047
 21
-109.8749133960619
 31
0.0
  0
LINE
  5
22B
330
1F
100
AcDbEntity
  8
0-4
  6
Continuous
 62
     7
370
     9
100
AcDbLine
 10
184.3372891400312
 20
-126.3109056627426
 30
0.0
 11
183.3583182257575
 21
-133.7467383307378
 31
0.0
  0
LINE
  5
22C
330
1F
100
AcDbEntity
  8
0-4
  6
Continuous
 62
     7
370
     9
100
AcDbLine
 10
184.3372891400312
 20
-126.3109056627426
 30
0.0
 11
185.3162600543047
 21
-133.7467383307378
 31
0.0
  0
LINE
  5
22D
330
1F
100
AcDbEntity
  8
0-4
  6
Continuous
 62
     7
370
     9
100
AcDbLine
 10
184.3372891400312
 20
-141.322813704207
 30
0.0
 11
184.3372891400312
 21
347.0428730732688
 31
0.0
  0
LINE
  5
22E
330
1F
100
AcDbEntity
  8
0-4
  6
Continuous
 62
     7
370
     9
100
AcDbLine
 10
154.337264396049
 20
-149.8109213339314
 30
0.0
 11
154.337264396049
 21
355.1892353779563
 31
0.0
  0
LINE
  5
22F
330
1F
100
AcDbEntity
  8
0-4
  6
Continuous
 62
     7
370
     9
100
AcDbLine
 10
245.8371951128986
 20
-149.8109213339314
 30
0.0
 11
153.4372762731603
 21
-149.8109213339314
 31
0.0
  0
LINE
  5
230
330
1F
100
AcDbEntity
  8
0-4
  6
Continuous
 62
     7
370
     9
100
AcDbLine
 10
245.8371951128986
 20
355.1892353779563
 30
0.0
 11
153.4372762731603
 21
355.1892353779563
 31
0.0
  0
LINE
  5
231
330
1F
100
AcDbEntity
  8
0-4
  6
Continuous
 62
     7
370
     9
100
AcDbLine
 10
154.337264396049
 20
-149.8109213339314
 30
0.0
 11
153.3582934817752
 21
-142.3750886659363
 31
0.0
  0
LINE
  5
232
330
1F
100
AcDbEntity
  8
0-4
  6
Continuous
 62
     7
370
     9
100
AcDbLine
 10
154.337264396049
 20
-149.8109213339314
 30
0.0
 11
155.3162353103225
 21
-142.3750886659363
 31
0.0
  0
LINE
  5
233
330
1F
100
AcDbEntity
  8
0-4
  6
Continuous
 62
     7
370
     9
100
AcDbLine
 10
154.337264396049
 20
355.1892353779563
 30
0.0
 11
153.3582934817752
 21
347.7534212679478
 31
0.0
  0
LINE
  5
234
330
1F
100
AcDbEntity
  8
0-4
  6
Continuous
 62
     7
370
     9
100
AcDbLine
 10
154.337264396049
 20
355.1892353779563
 30
0.0
 11
155.3162353103225
 21
347.7534212679478
 31
0.0
  0
LINE
  5
235
330
1F
100
AcDbEntity
  8
0-4
  6
Continuous
 62
     7
370
     9
100
AcDbLine
 10
229.3372891400311
 20
-209.8108223580023
 30
0.0
 11
253.3372198568808
 21
-209.8108223580023
 31
0.0
  0
LINE
  5
236
330
1F
100
AcDbEntity
  8
0-4
  6
Continuous
 62
     7
370
     9
100
AcDbLine
 10
253.3372198568808
 20
-157.310927519927
 30
0.0
 11
253.3372198568808
 21
-210.7108290388776
 31
0.0
  0
LINE
  5
237
330
1F
100
AcDbEntity
  8
0-4
  6
Continuous
 62
     7
370
     9
100
AcDbLine
 10
229.3372891400311
 20
-209.8108223580023
 30
0.0
 11
236.7731032500395
 21
-208.8318700017154
 31
0.0
  0
LINE
  5
238
330
1F
100
AcDbEntity
  8
0-4
  6
Continuous
 62
     7
370
     9
100
AcDbLine
 10
229.3372891400311
 20
-209.8108223580023
 30
0.0
 11
236.7731032500395
 21
-210.7897747142894
 31
0.0
  0
LINE
  5
239
330
1F
100
AcDbEntity
  8
0-4
  6
Continuous
 62
     7
370
     9
100
AcDbLine
 10
253.3372198568808
 20
-209.8108223580023
 30
0.0
 11
245.9014057468723
 21
-208.8318700017154
 31
0.0
  0
LINE
  5
23A
330
1F
100
AcDbEntity
  8
0-4
  6
Continuous
 62
     7
370
     9
100
AcDbLine
 10
253.3372198568808
 20
-209.8108223580023
 30
0.0
 11
245.9014057468723
 21
-210.7897747142894
 31
0.0
  0
LINE
  5
23B
330
1F
100
AcDbEntity
  8
0-4
  6
Continuous
 62
     7
370
     9
100
AcDbLine
 10
-394.6628024127032
 20
-209.8108223580023
 30
0.0
 11
-144.662781792718
 21
-209.8108223580023
 31
0.0
  0
LINE
  5
23C
330
1F
100
AcDbEntity
  8
0-4
  6
Continuous
 62
     7
370
     9
100
AcDbLine
 10
-394.6628024127032
 20
-156.0701776452966
 30
0.0
 11
-394.6628024127032
 21
-210.7108290388776
 31
0.0
  0
LINE
  5
23D
330
1F
100
AcDbEntity
  8
0-4
  6
Continuous
 62
     7
370
     9
100
AcDbLine
 10
-394.6628024127032
 20
-209.8108223580023
 30
0.0
 11
-387.2269697447081
 21
-208.8318700017154
 31
0.0
  0
LINE
  5
23E
330
1F
100
AcDbEntity
  8
0-4
  6
Continuous
 62
     7
370
     9
100
AcDbLine
 10
-394.6628024127032
 20
-209.8108223580023
 30
0.0
 11
-387.2269697447081
 21
-210.7897747142894
 31
0.0
  0
LINE
  5
23F
330
1F
100
AcDbEntity
  8
0-4
  6
Continuous
 62
     7
370
     9
100
AcDbLine
 10
-144.662781792718
 20
-209.8108223580023
 30
0.0
 11
-152.0986330186998
 21
-208.8318700017154
 31
0.0
  0
LINE
  5
240
330
1F
100
AcDbEntity
  8
0-4
  6
Continuous
 62
     7
370
     9
100
AcDbLine
 10
-144.662781792718
 20
-209.8108223580023
 30
0.0
 11
-152.0986330186998
 21
-210.7897747142894
 31
0.0
  0
LINE
  5
241
330
1F
100
AcDbEntity
  8
0-4
  6
Continuous
 62
     7
370
     9
100
AcDbLine
 10
-512.1630292325406
 20
-239.8108285439979
 30
0.0
 11
-27.16251785690719
 21
-239.8108285439979
 31
0.0
  0
LINE
  5
242
330
1F
100
AcDbEntity
  8
0-4
  6
Continuous
 62
     7
370
     9
100
AcDbLine
 10
-512.1630292325406
 20
-41.55268323743655
 30
0.0
 11
-512.1630292325406
 21
-240.7108352248732
 31
0.0
  0
LINE
  5
243
330
1F
100
AcDbEntity
  8
0-4
  6
Continuous
 62
     7
370
     9
100
AcDbLine
 10
-27.16251785690719
 20
-41.55268323743655
 30
0.0
 11
-27.16251785690719
 21
-240.7108352248732
 31
0.0
  0
LINE
  5
244
330
1F
100
AcDbEntity
  8
0-4
  6
Continuous
 62
     7
370
     9
100
AcDbLine
 10
-512.1630292325406
 20
-239.8108285439979
 30
0.0
 11
-504.7271965645455
 21
-238.831876187711
 31
0.0
  0
LINE
  5
245
330
1F
100
AcDbEntity
  8
0-4
  6
Continuous
 62
     7
370
     9
100
AcDbLine
 10
-512.1630292325406
 20
-239.8108285439979
 30
0.0
 11
-504.7271965645455
 21
-240.7897809002848
 31
0.0
  0
LINE
  5
246
330
1F
100
AcDbEntity
  8
0-4
  6
Continuous
 62
     7
370
     9
100
AcDbLine
 10
-27.16251785690719
 20
-239.8108285439979
 30
0.0
 11
-34.59836908288906
 21
-238.831876187711
 31
0.0
  0
LINE
  5
247
330
1F
100
AcDbEntity
  8
0-4
  6
Continuous
 62
     7
370
     9
100
AcDbLine
 10
-27.16251785690719
 20
-239.8108285439979
 30
0.0
 11
-34.59836908288906
 21
-240.7897809002848
 31
0.0
  0
LINE
  5
248
330
1F
100
AcDbEntity
  8
0-4
  6
Continuous
 62
     7
370
     9
100
AcDbLine
 10
42.83746564710469
 20
-22.3108347299935
 30
0.0
 11
42.83746564710469
 21
227.6891858899917
 31
0.0
  0
LINE
  5
249
330
1F
100
AcDbEntity
  8
0-4
  6
Continuous
 62
     7
370
     9
100
AcDbLine
 10
-10.90319762358789
 20
-22.3108347299935
 30
0.0
 11
43.73745376999312
 21
-22.3108347299935
 31
0.0
  0
LINE
  5
24A
330
1F
100
AcDbEntity
  8
0-4
  6
Continuous
 62
     7
370
     9
100
AcDbLine
 10
-10.90319762358789
 20
227.6891858899917
 30
0.0
 11
43.73745376999312
 21
227.6891858899917
 31
0.0
  0
LINE
  5
24B
330
1F
100
AcDbEntity
  8
0-4
  6
Continuous
 62
     7
370
     9
100
AcDbLine
 10
42.83746564710469
 20
-22.3108347299935
 30
0.0
 11
41.85849473283093
 21
-14.87498350401171
 31
0.0
  0
LINE
  5
24C
330
1F
100
AcDbEntity
  8
0-4
  6
Continuous
 62
     7
370
     9
100
AcDbLine
 10
42.83746564710469
 20
-22.3108347299935
 30
0.0
 11
43.81643656137828
 21
-14.87498350401171
 31
0.0
  0
LINE
  5
24D
330
1F
100
AcDbEntity
  8
0-4
  6
Continuous
 62
     7
370
     9
100
AcDbLine
 10
42.83746564710469
 20
227.6891858899917
 30
0.0
 11
41.85849473283093
 21
220.2533717799832
 31
0.0
  0
LINE
  5
24E
330
1F
100
AcDbEntity
  8
0-4
  6
Continuous
 62
     7
370
     9
100
AcDbLine
 10
42.83746564710469
 20
227.6891858899917
 30
0.0
 11
43.81643656137828
 21
220.2533717799832
 31
0.0
  0
LINE
  5
24F
330
1F
100
AcDbEntity
  8
0-4
  6
Continuous
 62
     7
370
     9
100
AcDbLine
 10
72.83756462303367
 20
-139.8108388539906
 30
0.0
 11
72.83756462303367
 21
345.1892271299622
 31
0.0
  0
LINE
  5
250
330
1F
100
AcDbEntity
  8
0-4
  6
Continuous
 62
     7
370
     9
100
AcDbLine
 10
-125.4208961693016
 20
-139.8108388539906
 30
0.0
 11
73.73755274592219
 21
-139.8108388539906
 31
0.0
  0
LINE
  5
251
330
1F
100
AcDbEntity
  8
0-4
  6
Continuous
 62
     7
370
     9
100
AcDbLine
 10
-125.4208961693016
 20
345.1892271299622
 30
0.0
 11
73.73755274592219
 21
345.1892271299622
 31
0.0
  0
LINE
  5
252
330
1F
100
AcDbEntity
  8
0-4
  6
Continuous
 62
     7
370
     9
100
AcDbLine
 10
72.83756462303367
 20
-139.8108388539906
 30
0.0
 11
71.85859370876
 21
-132.3750061859954
 31
0.0
  0
LINE
  5
253
330
1F
100
AcDbEntity
  8
0-4
  6
Continuous
 62
     7
370
     9
100
AcDbLine
 10
72.83756462303367
 20
-139.8108388539906
 30
0.0
 11
73.81653553730735
 21
-132.3750061859954
 31
0.0
  0
LINE
  5
254
330
1F
100
AcDbEntity
  8
0-4
  6
Continuous
 62
     7
370
     9
100
AcDbLine
 10
72.83756462303367
 20
345.1892271299622
 30
0.0
 11
71.85859370876
 21
337.7534130199537
 31
0.0
  0
LINE
  5
255
330
1F
100
AcDbEntity
  8
0-4
  6
Continuous
 62
     7
370
     9
100
AcDbLine
 10
72.83756462303367
 20
345.1892271299622
 30
0.0
 11
73.81653553730735
 21
337.7534130199537
 31
0.0
  0
LINE
  5
256
330
1F
100
AcDbEntity
  8
0-4
  6
Continuous
 62
     7
370
     9
100
AcDbLine
 10
-144.662781792718
 20
-189.1830819619666
 30
0.0
 11
-144.662781792718
 21
-210.7108290388776
 31
0.0
  0
LINE
  5
257
330
1F
100
AcDbEntity
  8
0-4
  6
Continuous
 62
     7
370
     9
100
AcDbLine
 10
-121.6842084317594
 20
-179.8108161720069
 30
0.0
 11
-167.6787309388856
 21
-179.8108161720069
 31
0.0
  0
LINE
  5
258
330
1F
100
AcDbEntity
  8
0-4
  6
Continuous
 62
     7
370
     9
100
AcDbLine
 10
-184.1627883911133
 20
-149.8106615221176
 30
0.0
 11
-183.183854592813
 21
-157.2464941901128
 31
0.0
  0
LINE
  5
259
330
1F
100
AcDbEntity
  8
0-4
  6
Continuous
 62
     7
370
     9
100
AcDbLine
 10
-184.1627883911133
 20
-121.4227690825591
 30
0.0
 11
-184.1627883911133
 21
-191.1728878536738
 31
0.0
  0
LINE
  5
25A
330
1F
100
AcDbEntity
  8
0-1
  6
Continuous
 62
     2
370
     9
100
AcDbLine
 10
-168.6627867415145
 20
-139.8108388539906
 30
0.0
 11
-178.5916065525364
 21
-139.8108388539906
 31
0.0
  0
LINE
  5
25B
330
1F
100
AcDbEntity
  8
0-1
  6
Continuous
 62
     2
370
     9
100
AcDbLine
 10
-190.8671580134211
 20
-139.8108388539906
 30
0.0
 11
-370.6627603479334
 21
-139.8108388539906
 31
0.0
  0
LINE
  5
25C
330
1F
100
AcDbEntity
  8
0-1
  6
Continuous
 62
     2
370
     9
100
AcDbLine
 10
-370.6627603479334
 20
-137.8108075116129
 30
0.0
 11
-190.8671580134211
 21
-137.8108075116129
 31
0.0
  0
LINE
  5
25D
330
1F
100
AcDbEntity
  8
0-1
  6
Continuous
 62
     2
370
     9
100
AcDbLine
 10
-178.5916065525364
 20
-137.8108075116129
 30
0.0
 11
-168.6627867415145
 21
-137.8108075116129
 31
0.0
  0
LINE
  5
25E
330
1F
100
AcDbEntity
  8
0-1
  6
Continuous
 62
     2
370
     9
100
AcDbLine
 10
-168.6627867415145
 20
-128.3108256572
 30
0.0
 11
-178.5916065525364
 21
-128.3108256572
 31
0.0
  0
LINE
  5
25F
330
1F
100
AcDbEntity
  8
0-1
  6
Continuous
 62
     2
370
     9
100
AcDbLine
 10
-190.8671580134211
 20
-128.3108256572
 30
0.0
 11
-370.6627603479334
 21
-128.3108256572
 31
0.0
  0
LINE
  5
260
330
1F
100
AcDbEntity
  8
0-1
  6
Continuous
 62
     2
370
     9
100
AcDbLine
 10
-156.1627578735352
 20
-147.8108528755805
 30
0.0
 11
-178.5916065525364
 21
-147.8108528755805
 31
0.0
  0
LINE
  5
261
330
1F
100
AcDbEntity
  8
0-1
  6
Continuous
 62
     2
370
     9
100
AcDbLine
 10
-190.8671580134211
 20
-147.8108528755805
 30
0.0
 11
-383.1627892159127
 21
-147.8108528755805
 31
0.0
  0
LINE
  5
262
330
1F
100
AcDbEntity
  8
0-1
  6
Continuous
 62
     2
370
     9
100
AcDbLine
 10
-491.6628007631044
 20
-126.3107757568358
 30
0.0
 11
-190.8671580134211
 21
-126.3107757568358
 31
0.0
  0
LINE
  5
263
330
1F
100
AcDbEntity
  8
0-1
  6
Continuous
 62
     2
370
     9
100
AcDbLine
 10
-178.5916065525364
 20
-126.3107757568358
 30
0.0
 11
-47.66267209439664
 21
-126.3107757568358
 31
0.0
  0
LINE
  5
264
330
1F
100
AcDbEntity
  8
0-4
  6
Continuous
 62
     7
370
     9
100
AcDbLine
 10
229.3372891400311
 20
-133.8109118487383
 30
0.0
 11
229.3372891400311
 21
-174.1564759950379
 31
0.0
  0
LINE
  5
265
330
1F
100
AcDbEntity
  8
0-4
  6
Continuous
 62
     7
370
     9
100
AcDbLine
 10
229.3372891400311
 20
-185.8756033407673
 30
0.0
 11
229.3372891400311
 21
-210.7108290388776
 31
0.0
  0
LINE
  5
266
330
1F
100
AcDbEntity
  8
0-0
  6
Continuous
 62
     3
370
     9
100
AcDbLine
 10
260.337218207282
 20
133.1198755212734
 30
0.0
 11
260.337218207282
 21
117.6307488518794
 31
0.0
  0
LINE
  5
267
330
1F
100
AcDbEntity
  8
0-0
  6
Continuous
 62
     3
370
     9
100
AcDbLine
 10
260.337218207282
 20
277.1007162558067
 30
0.0
 11
260.337218207282
 21
163.1229437750741
 31
0.0
  0
LINE
  5
268
330
1F
100
AcDbEntity
  8
0-E
  6
Continuous
 62
     7
370
     9
100
AcDbLine
 10
230.4941940307617
 20
-107.7536984005488
 30
0.0
 11
227.6240900400524
 21
-114.6828052417651
 31
0.0
  0
LINE
  5
269
330
1F
100
AcDbEntity
  8
0-E
  6
Continuous
 62
     7
370
     9
100
AcDbLine
 10
230.4941940307617
 20
-107.7536984005488
 30
0.0
 11
225.9284839114626
 21
-113.7038343274913
 31
0.0
  0
LINE
  5
26A
330
1F
100
AcDbEntity
  8
0-E
  6
Continuous
 62
     7
370
     9
100
AcDbLine
 10
229.3372149080845
 20
330.3651073558912
 30
0.0
 11
224.7715047887855
 21
336.3152432828338
 31
0.0
  0
LINE
  5
26B
330
1F
100
AcDbEntity
  8
0-E
  6
Continuous
 62
     7
370
     9
100
AcDbLine
 10
229.3372149080845
 20
330.3651073558912
 30
0.0
 11
226.4671109173748
 21
337.2942141971074
 31
0.0
  0
LINE
  5
26C
330
1F
100
AcDbEntity
  8
0-E
  6
Continuous
 62
     7
370
     9
100
AcDbLine
 10
313.3370466490052
 20
111.6891124828443
 30
0.0
 11
317.9027567683039
 21
117.6392484097869
 31
0.0
  0
LINE
  5
26D
330
1F
100
AcDbEntity
  8
0-E
  6
Continuous
 62
     7
370
     9
100
AcDbLine
 10
313.3370466490052
 20
111.6891124828443
 30
0.0
 11
319.2871825759477
 21
116.2548226021433
 31
0.0
  0
LINE
  5
26E
330
1F
100
AcDbEntity
  8
0-E
  6
Continuous
 62
     7
370
     9
100
AcDbLine
 10
313.3370466490052
 20
111.6891124828443
 30
0.0
 11
379.337190164102
 21
177.6892931139149
 31
0.0
  0
LINE
  5
26F
330
1F
100
AcDbEntity
  8
0-E
  6
Continuous
 62
     7
370
     9
100
AcDbLine
 10
379.337190164102
 20
177.6892931139149
 30
0.0
 11
485.8771071562895
 21
177.6892931139149
 31
0.0
  0
LINE
  5
270
330
1F
100
AcDbEntity
  8
0-E
  6
Continuous
 62
     7
370
     9
100
AcDbLine
 10
229.3372149080845
 20
330.3651073558912
 30
0.0
 11
194.220456303777
 21
391.1892056851775
 31
0.0
  0
LINE
  5
271
330
1F
100
AcDbEntity
  8
0-E
  6
Continuous
 62
     7
370
     9
100
AcDbLine
 10
104.7201857695709
 20
391.1892056851775
 30
0.0
 11
194.220456303777
 21
391.1892056851775
 31
0.0
  0
LINE
  5
272
330
1F
100
AcDbEntity
  8
0-E
  6
Continuous
 62
     7
370
     9
100
AcDbLine
 10
230.4941940307617
 20
-107.7536984005488
 30
0.0
 11
171.5714727865684
 21
-209.8108223580023
 31
0.0
  0
LINE
  5
273
330
1F
100
AcDbEntity
  8
0-E
  6
Continuous
 62
     7
370
     9
100
AcDbLine
 10
171.5714727865684
 20
-209.8108223580023
 30
0.0
 11
90.13383092107
 21
-209.8108223580023
 31
0.0
  0
ARC
  5
274
330
1F
100
AcDbEntity
  8
0-0
  6
Continuous
 62
     3
370
     9
100
AcDbCircle
 10
-52.66278756631382
 20
319.6891430004224
 30
0.0
 40
3.000000038662472
100
AcDbArc
 50
0.0
 51
90.0
  0
ARC
  5
275
330
1F
100
AcDbEntity
  8
0-0
  6
Continuous
 62
     3
370
     9
100
AcDbCircle
 10
243.837238002468
 20
319.520265321474
 30
0.0
 40
1.500000019331236
100
AcDbArc
 50
0.0
 51
82.99966430664062
  0
ARC
  5
276
330
1F
100
AcDbEntity
  8
0-0
  6
Continuous
 62
     3
370
     9
100
AcDbCircle
 10
243.837238002468
 20
303.662391456398
 30
0.0
 40
1.500000019331236
100
AcDbArc
 50
277.0003356933594
 51
359.9999999999999
  0
ARC
  5
277
330
1F
100
AcDbEntity
  8
0-0
  6
Continuous
 62
     3
370
     9
100
AcDbCircle
 10
-259.4627473161028
 20
194.0891344225086
 30
0.0
 40
4.000000051549963
100
AcDbArc
 50
0.0
 51
90.0
  0
ARC
  5
278
330
1F
100
AcDbEntity
  8
0-0
  6
Continuous
 62
     3
370
     9
100
AcDbCircle
 10
-259.4627473161028
 20
115.6891380516259
 30
0.0
 40
4.000000051549963
100
AcDbArc
 50
270.0
 51
0.0
  0
ARC
  5
279
330
1F
100
AcDbEntity
  8
0-0
  6
Continuous
 62
     3
370
     9
100
AcDbCircle
 10
-259.4627473161028
 20
298.4891670845652
 30
0.0
 40
4.000000051549963
100
AcDbArc
 50
0.0
 51
90.0
  0
ARC
  5
27A
330
1F
100
AcDbEntity
  8
0-0
  6
Continuous
 62
     3
370
     9
100
AcDbCircle
 10
-259.4627473161028
 20
220.0892449456294
 30
0.0
 40
4.000000051549963
100
AcDbArc
 50
270.0
 51
0.0
  0
ARC
  5
27B
330
1F
100
AcDbEntity
  8
0-0
  6
Continuous
 62
     3
370
     9
100
AcDbCircle
 10
-213.0627327996331
 20
194.0891344225086
 30
0.0
 40
4.000000051549963
100
AcDbArc
 50
0.0
 51
90.0
  0
ARC
  5
27C
330
1F
100
AcDbEntity
  8
0-0
  6
Continuous
 62
     3
370
     9
100
AcDbCircle
 10
-213.0627327996331
 20
115.6891380516259
 30
0.0
 40
4.000000051549963
100
AcDbArc
 50
270.0
 51
0.0
  0
ARC
  5
27D
330
1F
100
AcDbEntity
  8
0-0
  6
Continuous
 62
     3
370
     9
100
AcDbCircle
 10
-213.0627327996331
 20
298.4891670845652
 30
0.0
 40
4.000000051549963
100
AcDbArc
 50
0.0
 51
90.0
  0
ARC
  5
27E
330
1F
100
AcDbEntity
  8
0-0
  6
Continuous
 62
     3
370
     9
100
AcDbCircle
 10
-213.0627327996331
 20
220.0892449456294
 30
0.0
 40
4.000000051549963
100
AcDbArc
 50
270.0
 51
0.0
  0
ARC
  5
27F
330
1F
100
AcDbEntity
  8
0-0
  6
Continuous
 62
     3
370
     9
100
AcDbCircle
 10
-233.4627481409021
 20
194.0891344225086
 30
0.0
 40
4.000000051549963
100
AcDbArc
 50
90.0
 51
180.0
  0
ARC
  5
280
330
1F
100
AcDbEntity
  8
0-0
  6
Continuous
 62
     3
370
     9
100
AcDbCircle
 10
-233.4627481409021
 20
115.6891380516259
 30
0.0
 40
4.000000051549963
100
AcDbArc
 50
180.0
 51
270.0
  0
ARC
  5
281
330
1F
100
AcDbEntity
  8
0-0
  6
Continuous
 62
     3
370
     9
100
AcDbCircle
 10
-233.4627481409021
 20
298.4891670845652
 30
0.0
 40
4.000000051549963
100
AcDbArc
 50
90.0
 51
180.0
  0
ARC
  5
282
330
1F
100
AcDbEntity
  8
0-0
  6
Continuous
 62
     3
370
     9
100
AcDbCircle
 10
-233.4627481409021
 20
220.0892449456294
 30
0.0
 40
4.000000051549963
100
AcDbArc
 50
180.0
 51
270.0
  0
ARC
  5
283
330
1F
100
AcDbEntity
  8
0-0
  6
Continuous
 62
     3
370
     9
100
AcDbCircle
 10
-166.6627553991369
 20
194.0891344225086
 30
0.0
 40
4.000000051549963
100
AcDbArc
 50
0.0
 51
90.0
  0
ARC
  5
284
330
1F
100
AcDbEntity
  8
0-0
  6
Continuous
 62
     3
370
     9
100
AcDbCircle
 10
-166.6627553991369
 20
115.6891380516259
 30
0.0
 40
4.000000051549963
100
AcDbArc
 50
270.0
 51
0.0
  0
ARC
  5
285
330
1F
100
AcDbEntity
  8
0-0
  6
Continuous
 62
     3
370
     9
100
AcDbCircle
 10
-166.6627553991369
 20
298.4891670845652
 30
0.0
 40
4.000000051549963
100
AcDbArc
 50
0.0
 51
90.0
  0
ARC
  5
286
330
1F
100
AcDbEntity
  8
0-0
  6
Continuous
 62
     3
370
     9
100
AcDbCircle
 10
-166.6627553991369
 20
220.0892449456294
 30
0.0
 40
4.000000051549963
100
AcDbArc
 50
270.0
 51
0.0
  0
ARC
  5
287
330
1F
100
AcDbEntity
  8
0-0
  6
Continuous
 62
     3
370
     9
100
AcDbCircle
 10
-187.0627336244325
 20
194.0891344225086
 30
0.0
 40
4.000000051549963
100
AcDbArc
 50
90.0
 51
180.0
  0
ARC
  5
288
330
1F
100
AcDbEntity
  8
0-0
  6
Continuous
 62
     3
370
     9
100
AcDbCircle
 10
-187.0627336244325
 20
115.6891380516259
 30
0.0
 40
4.000000051549963
100
AcDbArc
 50
180.0
 51
270.0
  0
ARC
  5
289
330
1F
100
AcDbEntity
  8
0-0
  6
Continuous
 62
     3
370
     9
100
AcDbCircle
 10
-187.0627336244325
 20
298.4891670845652
 30
0.0
 40
4.000000051549963
100
AcDbArc
 50
90.0
 51
180.0
  0
ARC
  5
28A
330
1F
100
AcDbEntity
  8
0-0
  6
Continuous
 62
     3
370
     9
100
AcDbCircle
 10
-187.0627336244325
 20
220.0892449456294
 30
0.0
 40
4.000000051549963
100
AcDbArc
 50
180.0
 51
270.0
  0
ARC
  5
28B
330
1F
100
AcDbEntity
  8
0-0
  6
Continuous
 62
     3
370
     9
100
AcDbCircle
 10
-120.2627037666939
 20
194.0891344225086
 30
0.0
 40
4.000000051549963
100
AcDbArc
 50
0.0
 51
90.0
  0
ARC
  5
28C
330
1F
100
AcDbEntity
  8
0-0
  6
Continuous
 62
     3
370
     9
100
AcDbCircle
 10
-120.2627037666939
 20
115.6891380516259
 30
0.0
 40
4.000000051549963
100
AcDbArc
 50
270.0
 51
0.0
  0
ARC
  5
28D
330
1F
100
AcDbEntity
  8
0-0
  6
Continuous
 62
     3
370
     9
100
AcDbCircle
 10
-120.2627037666939
 20
298.4891670845652
 30
0.0
 40
4.000000051549963
100
AcDbArc
 50
0.0
 51
90.0
  0
ARC
  5
28E
330
1F
100
AcDbEntity
  8
0-0
  6
Continuous
 62
     3
370
     9
100
AcDbCircle
 10
-120.2627037666939
 20
220.0892449456294
 30
0.0
 40
4.000000051549963
100
AcDbArc
 50
270.0
 51
0.0
  0
ARC
  5
28F
330
1F
100
AcDbEntity
  8
0-0
  6
Continuous
 62
     3
370
     9
100
AcDbCircle
 10
-140.6627562239363
 20
194.0891344225086
 30
0.0
 40
4.000000051549963
100
AcDbArc
 50
90.0
 51
180.0
  0
ARC
  5
290
330
1F
100
AcDbEntity
  8
0-0
  6
Continuous
 62
     3
370
     9
100
AcDbCircle
 10
-140.6627562239363
 20
115.6891380516259
 30
0.0
 40
4.000000051549963
100
AcDbArc
 50
180.0
 51
270.0
  0
ARC
  5
291
330
1F
100
AcDbEntity
  8
0-0
  6
Continuous
 62
     3
370
     9
100
AcDbCircle
 10
-140.6627562239363
 20
298.4891670845652
 30
0.0
 40
4.000000051549963
100
AcDbArc
 50
90.0
 51
180.0
  0
ARC
  5
292
330
1F
100
AcDbEntity
  8
0-0
  6
Continuous
 62
     3
370
     9
100
AcDbCircle
 10
-140.6627562239363
 20
220.0892449456294
 30
0.0
 40
4.000000051549963
100
AcDbArc
 50
180.0
 51
270.0
  0
ARC
  5
293
330
1F
100
AcDbEntity
  8
0-0
  6
Continuous
 62
     3
370
     9
100
AcDbCircle
 10
-73.86276348217109
 20
194.0891344225086
 30
0.0
 40
4.000000051549963
100
AcDbArc
 50
0.0
 51
90.0
  0
ARC
  5
294
330
1F
100
AcDbEntity
  8
0-0
  6
Continuous
 62
     3
370
     9
100
AcDbCircle
 10
-73.86276348217109
 20
115.6891380516259
 30
0.0
 40
4.000000051549963
100
AcDbArc
 50
270.0
 51
0.0
  0
ARC
  5
295
330
1F
100
AcDbEntity
  8
0-0
  6
Continuous
 62
     3
370
     9
100
AcDbCircle
 10
-73.86276348217109
 20
298.4891670845652
 30
0.0
 40
4.000000051549963
100
AcDbArc
 50
0.0
 51
90.0
  0
ARC
  5
296
330
1F
100
AcDbEntity
  8
0-0
  6
Continuous
 62
     3
370
     9
100
AcDbCircle
 10
-73.86276348217109
 20
220.0892449456294
 30
0.0
 40
4.000000051549963
100
AcDbArc
 50
270.0
 51
0.0
  0
ARC
  5
297
330
1F
100
AcDbEntity
  8
0-0
  6
Continuous
 62
     3
370
     9
100
AcDbCircle
 10
-94.26277882344007
 20
194.0891344225086
 30
0.0
 40
4.000000051549963
100
AcDbArc
 50
90.0
 51
180.0
  0
ARC
  5
298
330
1F
100
AcDbEntity
  8
0-0
  6
Continuous
 62
     3
370
     9
100
AcDbCircle
 10
-94.26277882344007
 20
115.6891380516259
 30
0.0
 40
4.000000051549963
100
AcDbArc
 50
180.0
 51
270.0
  0
ARC
  5
299
330
1F
100
AcDbEntity
  8
0-0
  6
Continuous
 62
     3
370
     9
100
AcDbCircle
 10
-94.26277882344007
 20
298.4891670845652
 30
0.0
 40
4.000000051549963
100
AcDbArc
 50
90.0
 51
180.0
  0
ARC
  5
29A
330
1F
100
AcDbEntity
  8
0-0
  6
Continuous
 62
     3
370
     9
100
AcDbCircle
 10
-94.26277882344007
 20
220.0892449456294
 30
0.0
 40
4.000000051549963
100
AcDbArc
 50
180.0
 51
270.0
  0
ARC
  5
29B
330
1F
100
AcDbEntity
  8
0-0
  6
Continuous
 62
     3
370
     9
100
AcDbCircle
 10
-73.86276348217109
 20
298.4891670845652
 30
0.0
 40
5.000000064437454
100
AcDbArc
 50
0.0
 51
90.0
  0
ARC
  5
29C
330
1F
100
AcDbEntity
  8
0-0
  6
Continuous
 62
     3
370
     9
100
AcDbCircle
 10
-52.66278756631382
 20
-114.3107918404242
 30
0.0
 40
3.000000038662472
100
AcDbArc
 50
270.0
 51
0.0
  0
ARC
  5
29D
330
1F
100
AcDbEntity
  8
0-0
  6
Continuous
 62
     3
370
     9
100
AcDbCircle
 10
-259.4627473161028
 20
11.28917962151618
 30
0.0
 40
4.000000051549963
100
AcDbArc
 50
270.0
 51
0.0
  0
ARC
  5
29E
330
1F
100
AcDbEntity
  8
0-0
  6
Continuous
 62
     3
370
     9
100
AcDbCircle
 10
-259.4627473161028
 20
89.68917599239876
 30
0.0
 40
4.000000051549963
100
AcDbArc
 50
0.0
 51
90.0
  0
ARC
  5
29F
330
1F
100
AcDbEntity
  8
0-0
  6
Continuous
 62
     3
370
     9
100
AcDbCircle
 10
-259.4627473161028
 20
-93.11077880859358
 30
0.0
 40
4.000000051549963
100
AcDbArc
 50
270.0
 51
0.0
  0
ARC
  5
2A0
330
1F
100
AcDbEntity
  8
0-0
  6
Continuous
 62
     3
370
     9
100
AcDbCircle
 10
-259.4627473161028
 20
-14.7108566696578
 30
0.0
 40
4.000000051549963
100
AcDbArc
 50
0.0
 51
90.0
  0
ARC
  5
2A1
330
1F
100
AcDbEntity
  8
0-0
  6
Continuous
 62
     3
370
     9
100
AcDbCircle
 10
-213.0627327996331
 20
11.28917962151618
 30
0.0
 40
4.000000051549963
100
AcDbArc
 50
270.0
 51
0.0
  0
ARC
  5
2A2
330
1F
100
AcDbEntity
  8
0-0
  6
Continuous
 62
     3
370
     9
100
AcDbCircle
 10
-213.0627327996331
 20
89.68917599239876
 30
0.0
 40
4.000000051549963
100
AcDbArc
 50
0.0
 51
90.0
  0
ARC
  5
2A3
330
1F
100
AcDbEntity
  8
0-0
  6
Continuous
 62
     3
370
     9
100
AcDbCircle
 10
-213.0627327996331
 20
-93.11077880859358
 30
0.0
 40
4.000000051549963
100
AcDbArc
 50
270.0
 51
0.0
  0
ARC
  5
2A4
330
1F
100
AcDbEntity
  8
0-0
  6
Continuous
 62
     3
370
     9
100
AcDbCircle
 10
-213.0627327996331
 20
-14.7108566696578
 30
0.0
 40
4.000000051549963
100
AcDbArc
 50
0.0
 51
90.0
  0
ARC
  5
2A5
330
1F
100
AcDbEntity
  8
0-0
  6
Continuous
 62
     3
370
     9
100
AcDbCircle
 10
-233.4627481409021
 20
11.28917962151618
 30
0.0
 40
4.000000051549963
100
AcDbArc
 50
180.0
 51
270.0
  0
ARC
  5
2A6
330
1F
100
AcDbEntity
  8
0-0
  6
Continuous
 62
     3
370
     9
100
AcDbCircle
 10
-233.4627481409021
 20
89.68917599239876
 30
0.0
 40
4.000000051549963
100
AcDbArc
 50
90.0
 51
180.0
  0
ARC
  5
2A7
330
1F
100
AcDbEntity
  8
0-0
  6
Continuous
 62
     3
370
     9
100
AcDbCircle
 10
-233.4627481409021
 20
-93.11077880859358
 30
0.0
 40
4.000000051549963
100
AcDbArc
 50
180.0
 51
270.0
  0
ARC
  5
2A8
330
1F
100
AcDbEntity
  8
0-0
  6
Continuous
 62
     3
370
     9
100
AcDbCircle
 10
-233.4627481409021
 20
-14.7108566696578
 30
0.0
 40
4.000000051549963
100
AcDbArc
 50
90.0
 51
180.0
  0
ARC
  5
2A9
330
1F
100
AcDbEntity
  8
0-0
  6
Continuous
 62
     3
370
     9
100
AcDbCircle
 10
-166.6627553991369
 20
11.28917962151618
 30
0.0
 40
4.000000051549963
100
AcDbArc
 50
270.0
 51
0.0
  0
ARC
  5
2AA
330
1F
100
AcDbEntity
  8
0-0
  6
Continuous
 62
     3
370
     9
100
AcDbCircle
 10
-166.6627553991369
 20
89.68917599239876
 30
0.0
 40
4.000000051549963
100
AcDbArc
 50
0.0
 51
90.0
  0
ARC
  5
2AB
330
1F
100
AcDbEntity
  8
0-0
  6
Continuous
 62
     3
370
     9
100
AcDbCircle
 10
-166.6627553991369
 20
-93.11077880859358
 30
0.0
 40
4.000000051549963
100
AcDbArc
 50
270.0
 51
0.0
  0
ARC
  5
2AC
330
1F
100
AcDbEntity
  8
0-0
  6
Continuous
 62
     3
370
     9
100
AcDbCircle
 10
-166.6627553991369
 20
-14.7108566696578
 30
0.0
 40
4.000000051549963
100
AcDbArc
 50
0.0
 51
90.0
  0
ARC
  5
2AD
330
1F
100
AcDbEntity
  8
0-0
  6
Continuous
 62
     3
370
     9
100
AcDbCircle
 10
-187.0627336244325
 20
11.28917962151618
 30
0.0
 40
4.000000051549963
100
AcDbArc
 50
180.0
 51
270.0
  0
ARC
  5
2AE
330
1F
100
AcDbEntity
  8
0-0
  6
Continuous
 62
     3
370
     9
100
AcDbCircle
 10
-187.0627336244325
 20
89.68917599239876
 30
0.0
 40
4.000000051549963
100
AcDbArc
 50
90.0
 51
180.0
  0
ARC
  5
2AF
330
1F
100
AcDbEntity
  8
0-0
  6
Continuous
 62
     3
370
     9
100
AcDbCircle
 10
-187.0627336244325
 20
-93.11077880859358
 30
0.0
 40
4.000000051549963
100
AcDbArc
 50
180.0
 51
270.0
  0
ARC
  5
2B0
330
1F
100
AcDbEntity
  8
0-0
  6
Continuous
 62
     3
370
     9
100
AcDbCircle
 10
-187.0627336244325
 20
-14.7108566696578
 30
0.0
 40
4.000000051549963
100
AcDbArc
 50
90.0
 51
180.0
  0
ARC
  5
2B1
330
1F
100
AcDbEntity
  8
0-0
  6
Continuous
 62
     3
370
     9
100
AcDbCircle
 10
-120.2627037666939
 20
11.28917962151618
 30
0.0
 40
4.000000051549963
100
AcDbArc
 50
270.0
 51
0.0
  0
ARC
  5
2B2
330
1F
100
AcDbEntity
  8
0-0
  6
Continuous
 62
     3
370
     9
100
AcDbCircle
 10
-120.2627037666939
 20
89.68917599239876
 30
0.0
 40
4.000000051549963
100
AcDbArc
 50
0.0
 51
90.0
  0
ARC
  5
2B3
330
1F
100
AcDbEntity
  8
0-0
  6
Continuous
 62
     3
370
     9
100
AcDbCircle
 10
-120.2627037666939
 20
-93.11077880859358
 30
0.0
 40
4.000000051549963
100
AcDbArc
 50
270.0
 51
0.0
  0
ARC
  5
2B4
330
1F
100
AcDbEntity
  8
0-0
  6
Continuous
 62
     3
370
     9
100
AcDbCircle
 10
-120.2627037666939
 20
-14.7108566696578
 30
0.0
 40
4.000000051549963
100
AcDbArc
 50
0.0
 51
90.0
  0
ARC
  5
2B5
330
1F
100
AcDbEntity
  8
0-0
  6
Continuous
 62
     3
370
     9
100
AcDbCircle
 10
-140.6627562239363
 20
11.28917962151618
 30
0.0
 40
4.000000051549963
100
AcDbArc
 50
180.0
 51
270.0
  0
ARC
  5
2B6
330
1F
100
AcDbEntity
  8
0-0
  6
Continuous
 62
     3
370
     9
100
AcDbCircle
 10
-140.6627562239363
 20
89.68917599239876
 30
0.0
 40
4.000000051549963
100
AcDbArc
 50
90.0
 51
180.0
  0
ARC
  5
2B7
330
1F
100
AcDbEntity
  8
0-0
  6
Continuous
 62
     3
370
     9
100
AcDbCircle
 10
-140.6627562239363
 20
-93.11077880859358
 30
0.0
 40
4.000000051549963
100
AcDbArc
 50
180.0
 51
270.0
  0
ARC
  5
2B8
330
1F
100
AcDbEntity
  8
0-0
  6
Continuous
 62
     3
370
     9
100
AcDbCircle
 10
-140.6627562239363
 20
-14.7108566696578
 30
0.0
 40
4.000000051549963
100
AcDbArc
 50
90.0
 51
180.0
  0
ARC
  5
2B9
330
1F
100
AcDbEntity
  8
0-0
  6
Continuous
 62
     3
370
     9
100
AcDbCircle
 10
-73.86276348217109
 20
11.28917962151618
 30
0.0
 40
4.000000051549963
100
AcDbArc
 50
270.0
 51
0.0
  0
ARC
  5
2BA
330
1F
100
AcDbEntity
  8
0-0
  6
Continuous
 62
     3
370
     9
100
AcDbCircle
 10
-73.86276348217109
 20
89.68917599239876
 30
0.0
 40
4.000000051549963
100
AcDbArc
 50
0.0
 51
90.0
  0
ARC
  5
2BB
330
1F
100
AcDbEntity
  8
0-0
  6
Continuous
 62
     3
370
     9
100
AcDbCircle
 10
-73.86276348217109
 20
-93.11077880859358
 30
0.0
 40
4.000000051549963
100
AcDbArc
 50
270.0
 51
0.0
  0
ARC
  5
2BC
330
1F
100
AcDbEntity
  8
0-0
  6
Continuous
 62
     3
370
     9
100
AcDbCircle
 10
-73.86276348217109
 20
-14.7108566696578
 30
0.0
 40
4.000000051549963
100
AcDbArc
 50
0.0
 51
90.0
  0
ARC
  5
2BD
330
1F
100
AcDbEntity
  8
0-0
  6
Continuous
 62
     3
370
     9
100
AcDbCircle
 10
-94.26277882344007
 20
11.28917962151618
 30
0.0
 40
4.000000051549963
100
AcDbArc
 50
180.0
 51
270.0
  0
ARC
  5
2BE
330
1F
100
AcDbEntity
  8
0-0
  6
Continuous
 62
     3
370
     9
100
AcDbCircle
 10
-94.26277882344007
 20
89.68917599239876
 30
0.0
 40
4.000000051549963
100
AcDbArc
 50
90.0
 51
180.0
  0
ARC
  5
2BF
330
1F
100
AcDbEntity
  8
0-0
  6
Continuous
 62
     3
370
     9
100
AcDbCircle
 10
-94.26277882344007
 20
-93.11077880859358
 30
0.0
 40
4.000000051549963
100
AcDbArc
 50
180.0
 51
270.0
  0
ARC
  5
2C0
330
1F
100
AcDbEntity
  8
0-0
  6
Continuous
 62
     3
370
     9
100
AcDbCircle
 10
-94.26277882344007
 20
-14.7108566696578
 30
0.0
 40
4.000000051549963
100
AcDbArc
 50
90.0
 51
180.0
  0
ARC
  5
2C1
330
1F
100
AcDbEntity
  8
0-0
  6
Continuous
 62
     3
370
     9
100
AcDbCircle
 10
-73.86276348217109
 20
-93.11077880859358
 30
0.0
 40
5.000000064437454
100
AcDbArc
 50
270.0
 51
0.0
  0
ARC
  5
2C2
330
1F
100
AcDbEntity
  8
0-0
  6
Continuous
 62
     3
370
     9
100
AcDbCircle
 10
-486.6627966391073
 20
319.6891430004224
 30
0.0
 40
3.000000038662472
100
AcDbArc
 50
90.0
 51
180.0
  0
ARC
  5
2C3
330
1F
100
AcDbEntity
  8
0-0
  6
Continuous
 62
     3
370
     9
100
AcDbCircle
 10
-279.862799773345
 20
194.0892086544554
 30
0.0
 40
4.000000051549963
100
AcDbArc
 50
90.0
 51
180.0
  0
ARC
  5
2C4
330
1F
100
AcDbEntity
  8
0-0
  6
Continuous
 62
     3
370
     9
100
AcDbCircle
 10
-279.862799773345
 20
115.6891380516259
 30
0.0
 40
4.000000051549963
100
AcDbArc
 50
180.0
 51
270.0
  0
ARC
  5
2C5
330
1F
100
AcDbEntity
  8
0-0
  6
Continuous
 62
     3
370
     9
100
AcDbCircle
 10
-279.862799773345
 20
298.4891670845652
 30
0.0
 40
4.000000051549963
100
AcDbArc
 50
90.0
 51
180.0
  0
ARC
  5
2C6
330
1F
100
AcDbEntity
  8
0-0
  6
Continuous
 62
     3
370
     9
100
AcDbCircle
 10
-279.862799773345
 20
220.0892449456294
 30
0.0
 40
4.000000051549963
100
AcDbArc
 50
180.0
 51
270.0
  0
ARC
  5
2C7
330
1F
100
AcDbEntity
  8
0-0
  6
Continuous
 62
     3
370
     9
100
AcDbCircle
 10
-326.2627771738413
 20
194.0892086544554
 30
0.0
 40
4.000000051549963
100
AcDbArc
 50
90.0
 51
180.0
  0
ARC
  5
2C8
330
1F
100
AcDbEntity
  8
0-0
  6
Continuous
 62
     3
370
     9
100
AcDbCircle
 10
-326.2627771738413
 20
115.6891380516259
 30
0.0
 40
4.000000051549963
100
AcDbArc
 50
180.0
 51
270.0
  0
ARC
  5
2C9
330
1F
100
AcDbEntity
  8
0-0
  6
Continuous
 62
     3
370
     9
100
AcDbCircle
 10
-326.2627771738413
 20
298.4891670845652
 30
0.0
 40
4.000000051549963
100
AcDbArc
 50
90.0
 51
180.0
  0
ARC
  5
2CA
330
1F
100
AcDbEntity
  8
0-0
  6
Continuous
 62
     3
370
     9
100
AcDbCircle
 10
-326.2627771738413
 20
220.0892449456294
 30
0.0
 40
4.000000051549963
100
AcDbArc
 50
180.0
 51
270.0
  0
ARC
  5
2CB
330
1F
100
AcDbEntity
  8
0-0
  6
Continuous
 62
     3
370
     9
100
AcDbCircle
 10
-305.8627989485457
 20
194.0892086544554
 30
0.0
 40
4.000000051549963
100
AcDbArc
 50
0.0
 51
90.0
  0
ARC
  5
2CC
330
1F
100
AcDbEntity
  8
0-0
  6
Continuous
 62
     3
370
     9
100
AcDbCircle
 10
-305.8627989485457
 20
115.6891380516259
 30
0.0
 40
4.000000051549963
100
AcDbArc
 50
270.0
 51
0.0
  0
ARC
  5
2CD
330
1F
100
AcDbEntity
  8
0-0
  6
Continuous
 62
     3
370
     9
100
AcDbCircle
 10
-305.8627989485457
 20
298.4891670845652
 30
0.0
 40
4.000000051549963
100
AcDbArc
 50
0.0
 51
90.0
  0
ARC
  5
2CE
330
1F
100
AcDbEntity
  8
0-0
  6
Continuous
 62
     3
370
     9
100
AcDbCircle
 10
-305.8627989485457
 20
220.0892449456294
 30
0.0
 40
4.000000051549963
100
AcDbArc
 50
270.0
 51
0.0
  0
ARC
  5
2CF
330
1F
100
AcDbEntity
  8
0-0
  6
Continuous
 62
     3
370
     9
100
AcDbCircle
 10
-372.6628288062843
 20
194.0892086544554
 30
0.0
 40
4.000000051549963
100
AcDbArc
 50
90.0
 51
180.0
  0
ARC
  5
2D0
330
1F
100
AcDbEntity
  8
0-0
  6
Continuous
 62
     3
370
     9
100
AcDbCircle
 10
-372.6628288062843
 20
115.6891380516259
 30
0.0
 40
4.000000051549963
100
AcDbArc
 50
180.0
 51
270.0
  0
ARC
  5
2D1
330
1F
100
AcDbEntity
  8
0-0
  6
Continuous
 62
     3
370
     9
100
AcDbCircle
 10
-372.6628288062843
 20
298.4891670845652
 30
0.0
 40
4.000000051549963
100
AcDbArc
 50
90.0
 51
180.0
  0
ARC
  5
2D2
330
1F
100
AcDbEntity
  8
0-0
  6
Continuous
 62
     3
370
     9
100
AcDbCircle
 10
-372.6628288062843
 20
220.0892449456294
 30
0.0
 40
4.000000051549963
100
AcDbArc
 50
180.0
 51
270.0
  0
ARC
  5
2D3
330
1F
100
AcDbEntity
  8
0-0
  6
Continuous
 62
     3
370
     9
100
AcDbCircle
 10
-352.2628134650153
 20
194.0892086544554
 30
0.0
 40
4.000000051549963
100
AcDbArc
 50
0.0
 51
90.0
  0
ARC
  5
2D4
330
1F
100
AcDbEntity
  8
0-0
  6
Continuous
 62
     3
370
     9
100
AcDbCircle
 10
-352.2628134650153
 20
115.6891380516259
 30
0.0
 40
4.000000051549963
100
AcDbArc
 50
270.0
 51
0.0
  0
ARC
  5
2D5
330
1F
100
AcDbEntity
  8
0-0
  6
Continuous
 62
     3
370
     9
100
AcDbCircle
 10
-352.2628134650153
 20
298.4891670845652
 30
0.0
 40
4.000000051549963
100
AcDbArc
 50
0.0
 51
90.0
  0
ARC
  5
2D6
330
1F
100
AcDbEntity
  8
0-0
  6
Continuous
 62
     3
370
     9
100
AcDbCircle
 10
-352.2628134650153
 20
220.0892449456294
 30
0.0
 40
4.000000051549963
100
AcDbArc
 50
270.0
 51
0.0
  0
ARC
  5
2D7
330
1F
100
AcDbEntity
  8
0-0
  6
Continuous
 62
     3
370
     9
100
AcDbCircle
 10
-419.0628062067806
 20
194.0892086544554
 30
0.0
 40
4.000000051549963
100
AcDbArc
 50
90.0
 51
180.0
  0
ARC
  5
2D8
330
1F
100
AcDbEntity
  8
0-0
  6
Continuous
 62
     3
370
     9
100
AcDbCircle
 10
-419.0628062067806
 20
115.6891380516259
 30
0.0
 40
4.000000051549963
100
AcDbArc
 50
180.0
 51
270.0
  0
ARC
  5
2D9
330
1F
100
AcDbEntity
  8
0-0
  6
Continuous
 62
     3
370
     9
100
AcDbCircle
 10
-419.0628062067806
 20
298.4891670845652
 30
0.0
 40
4.000000051549963
100
AcDbArc
 50
90.0
 51
180.0
  0
ARC
  5
2DA
330
1F
100
AcDbEntity
  8
0-0
  6
Continuous
 62
     3
370
     9
100
AcDbCircle
 10
-419.0628062067806
 20
220.0892449456294
 30
0.0
 40
4.000000051549963
100
AcDbArc
 50
180.0
 51
270.0
  0
ARC
  5
2DB
330
1F
100
AcDbEntity
  8
0-0
  6
Continuous
 62
     3
370
     9
100
AcDbCircle
 10
-398.6627537495381
 20
194.0892086544554
 30
0.0
 40
4.000000051549963
100
AcDbArc
 50
0.0
 51
90.0
  0
ARC
  5
2DC
330
1F
100
AcDbEntity
  8
0-0
  6
Continuous
 62
     3
370
     9
100
AcDbCircle
 10
-398.6627537495381
 20
115.6891380516259
 30
0.0
 40
4.000000051549963
100
AcDbArc
 50
270.0
 51
0.0
  0
ARC
  5
2DD
330
1F
100
AcDbEntity
  8
0-0
  6
Continuous
 62
     3
370
     9
100
AcDbCircle
 10
-398.6627537495381
 20
298.4891670845652
 30
0.0
 40
4.000000051549963
100
AcDbArc
 50
0.0
 51
90.0
  0
ARC
  5
2DE
330
1F
100
AcDbEntity
  8
0-0
  6
Continuous
 62
     3
370
     9
100
AcDbCircle
 10
-398.6627537495381
 20
220.0892449456294
 30
0.0
 40
4.000000051549963
100
AcDbArc
 50
270.0
 51
0.0
  0
ARC
  5
2DF
330
1F
100
AcDbEntity
  8
0-0
  6
Continuous
 62
     3
370
     9
100
AcDbCircle
 10
-465.46282072325
 20
194.0892086544554
 30
0.0
 40
4.000000051549963
100
AcDbArc
 50
90.0
 51
180.0
  0
ARC
  5
2E0
330
1F
100
AcDbEntity
  8
0-0
  6
Continuous
 62
     3
370
     9
100
AcDbCircle
 10
-465.46282072325
 20
115.6891380516259
 30
0.0
 40
4.000000051549963
100
AcDbArc
 50
180.0
 51
270.0
  0
ARC
  5
2E1
330
1F
100
AcDbEntity
  8
0-0
  6
Continuous
 62
     3
370
     9
100
AcDbCircle
 10
-465.46282072325
 20
298.4891670845652
 30
0.0
 40
4.000000051549963
100
AcDbArc
 50
90.0
 51
180.0
  0
ARC
  5
2E2
330
1F
100
AcDbEntity
  8
0-0
  6
Continuous
 62
     3
370
     9
100
AcDbCircle
 10
-465.46282072325
 20
220.0892449456294
 30
0.0
 40
4.000000051549963
100
AcDbArc
 50
180.0
 51
270.0
  0
ARC
  5
2E3
330
1F
100
AcDbEntity
  8
0-0
  6
Continuous
 62
     3
370
     9
100
AcDbCircle
 10
-445.0627682660078
 20
194.0892086544554
 30
0.0
 40
4.000000051549963
100
AcDbArc
 50
0.0
 51
90.0
  0
ARC
  5
2E4
330
1F
100
AcDbEntity
  8
0-0
  6
Continuous
 62
     3
370
     9
100
AcDbCircle
 10
-445.0627682660078
 20
115.6891380516259
 30
0.0
 40
4.000000051549963
100
AcDbArc
 50
270.0
 51
0.0
  0
ARC
  5
2E5
330
1F
100
AcDbEntity
  8
0-0
  6
Continuous
 62
     3
370
     9
100
AcDbCircle
 10
-445.0627682660078
 20
298.4891670845652
 30
0.0
 40
4.000000051549963
100
AcDbArc
 50
0.0
 51
90.0
  0
ARC
  5
2E6
330
1F
100
AcDbEntity
  8
0-0
  6
Continuous
 62
     3
370
     9
100
AcDbCircle
 10
-445.0627682660078
 20
220.0892449456294
 30
0.0
 40
4.000000051549963
100
AcDbArc
 50
270.0
 51
0.0
  0
ARC
  5
2E7
330
1F
100
AcDbEntity
  8
0-0
  6
Continuous
 62
     3
370
     9
100
AcDbCircle
 10
-465.46282072325
 20
298.4891670845652
 30
0.0
 40
5.000000064437454
100
AcDbArc
 50
90.0
 51
180.0
  0
ARC
  5
2E8
330
1F
100
AcDbEntity
  8
0-0
  6
Continuous
 62
     3
370
     9
100
AcDbCircle
 10
-486.6627966391073
 20
-114.3107918404242
 30
0.0
 40
3.000000038662472
100
AcDbArc
 50
180.0
 51
270.0
  0
ARC
  5
2E9
330
1F
100
AcDbEntity
  8
0-0
  6
Continuous
 62
     3
370
     9
100
AcDbCircle
 10
-279.862799773345
 20
11.28917962151618
 30
0.0
 40
4.000000051549963
100
AcDbArc
 50
180.0
 51
270.0
  0
ARC
  5
2EA
330
1F
100
AcDbEntity
  8
0-0
  6
Continuous
 62
     3
370
     9
100
AcDbCircle
 10
-279.862799773345
 20
89.68917599239876
 30
0.0
 40
4.000000051549963
100
AcDbArc
 50
90.0
 51
180.0
  0
ARC
  5
2EB
330
1F
100
AcDbEntity
  8
0-0
  6
Continuous
 62
     3
370
     9
100
AcDbCircle
 10
-279.862799773345
 20
-93.11077880859358
 30
0.0
 40
4.000000051549963
100
AcDbArc
 50
180.0
 51
270.0
  0
ARC
  5
2EC
330
1F
100
AcDbEntity
  8
0-0
  6
Continuous
 62
     3
370
     9
100
AcDbCircle
 10
-279.862799773345
 20
-14.7108566696578
 30
0.0
 40
4.000000051549963
100
AcDbArc
 50
90.0
 51
180.0
  0
ARC
  5
2ED
330
1F
100
AcDbEntity
  8
0-0
  6
Continuous
 62
     3
370
     9
100
AcDbCircle
 10
-326.2627771738413
 20
11.28917962151618
 30
0.0
 40
4.000000051549963
100
AcDbArc
 50
180.0
 51
270.0
  0
ARC
  5
2EE
330
1F
100
AcDbEntity
  8
0-0
  6
Continuous
 62
     3
370
     9
100
AcDbCircle
 10
-326.2627771738413
 20
89.68917599239876
 30
0.0
 40
4.000000051549963
100
AcDbArc
 50
90.0
 51
180.0
  0
ARC
  5
2EF
330
1F
100
AcDbEntity
  8
0-0
  6
Continuous
 62
     3
370
     9
100
AcDbCircle
 10
-326.2627771738413
 20
-93.11077880859358
 30
0.0
 40
4.000000051549963
100
AcDbArc
 50
180.0
 51
270.0
  0
ARC
  5
2F0
330
1F
100
AcDbEntity
  8
0-0
  6
Continuous
 62
     3
370
     9
100
AcDbCircle
 10
-326.2627771738413
 20
-14.7108566696578
 30
0.0
 40
4.000000051549963
100
AcDbArc
 50
90.0
 51
180.0
  0
ARC
  5
2F1
330
1F
100
AcDbEntity
  8
0-0
  6
Continuous
 62
     3
370
     9
100
AcDbCircle
 10
-305.8627989485457
 20
11.28917962151618
 30
0.0
 40
4.000000051549963
100
AcDbArc
 50
270.0
 51
0.0
  0
ARC
  5
2F2
330
1F
100
AcDbEntity
  8
0-0
  6
Continuous
 62
     3
370
     9
100
AcDbCircle
 10
-305.8627989485457
 20
89.68917599239876
 30
0.0
 40
4.000000051549963
100
AcDbArc
 50
0.0
 51
90.0
  0
ARC
  5
2F3
330
1F
100
AcDbEntity
  8
0-0
  6
Continuous
 62
     3
370
     9
100
AcDbCircle
 10
-305.8627989485457
 20
-93.11077880859358
 30
0.0
 40
4.000000051549963
100
AcDbArc
 50
270.0
 51
0.0
  0
ARC
  5
2F4
330
1F
100
AcDbEntity
  8
0-0
  6
Continuous
 62
     3
370
     9
100
AcDbCircle
 10
-305.8627989485457
 20
-14.7108566696578
 30
0.0
 40
4.000000051549963
100
AcDbArc
 50
0.0
 51
90.0
  0
ARC
  5
2F5
330
1F
100
AcDbEntity
  8
0-0
  6
Continuous
 62
     3
370
     9
100
AcDbCircle
 10
-372.6628288062843
 20
11.28917962151618
 30
0.0
 40
4.000000051549963
100
AcDbArc
 50
180.0
 51
270.0
  0
ARC
  5
2F6
330
1F
100
AcDbEntity
  8
0-0
  6
Continuous
 62
     3
370
     9
100
AcDbCircle
 10
-372.6628288062843
 20
89.68917599239876
 30
0.0
 40
4.000000051549963
100
AcDbArc
 50
90.0
 51
180.0
  0
ARC
  5
2F7
330
1F
100
AcDbEntity
  8
0-0
  6
Continuous
 62
     3
370
     9
100
AcDbCircle
 10
-372.6628288062843
 20
-93.11077880859358
 30
0.0
 40
4.000000051549963
100
AcDbArc
 50
180.0
 51
270.0
  0
ARC
  5
2F8
330
1F
100
AcDbEntity
  8
0-0
  6
Continuous
 62
     3
370
     9
100
AcDbCircle
 10
-372.6628288062843
 20
-14.7108566696578
 30
0.0
 40
4.000000051549963
100
AcDbArc
 50
90.0
 51
180.0
  0
ARC
  5
2F9
330
1F
100
AcDbEntity
  8
0-0
  6
Continuous
 62
     3
370
     9
100
AcDbCircle
 10
-352.2628134650153
 20
11.28917962151618
 30
0.0
 40
4.000000051549963
100
AcDbArc
 50
270.0
 51
0.0
  0
ARC
  5
2FA
330
1F
100
AcDbEntity
  8
0-0
  6
Continuous
 62
     3
370
     9
100
AcDbCircle
 10
-352.2628134650153
 20
89.68917599239876
 30
0.0
 40
4.000000051549963
100
AcDbArc
 50
0.0
 51
90.0
  0
ARC
  5
2FB
330
1F
100
AcDbEntity
  8
0-0
  6
Continuous
 62
     3
370
     9
100
AcDbCircle
 10
-352.2628134650153
 20
-93.11077880859358
 30
0.0
 40
4.000000051549963
100
AcDbArc
 50
270.0
 51
0.0
  0
ARC
  5
2FC
330
1F
100
AcDbEntity
  8
0-0
  6
Continuous
 62
     3
370
     9
100
AcDbCircle
 10
-352.2628134650153
 20
-14.7108566696578
 30
0.0
 40
4.000000051549963
100
AcDbArc
 50
0.0
 51
90.0
  0
ARC
  5
2FD
330
1F
100
AcDbEntity
  8
0-0
  6
Continuous
 62
     3
370
     9
100
AcDbCircle
 10
-419.0628062067806
 20
11.28917962151618
 30
0.0
 40
4.000000051549963
100
AcDbArc
 50
180.0
 51
270.0
  0
ARC
  5
2FE
330
1F
100
AcDbEntity
  8
0-0
  6
Continuous
 62
     3
370
     9
100
AcDbCircle
 10
-419.0628062067806
 20
89.68917599239876
 30
0.0
 40
4.000000051549963
100
AcDbArc
 50
90.0
 51
180.0
  0
ARC
  5
2FF
330
1F
100
AcDbEntity
  8
0-0
  6
Continuous
 62
     3
370
     9
100
AcDbCircle
 10
-419.0628062067806
 20
-93.11077880859358
 30
0.0
 40
4.000000051549963
100
AcDbArc
 50
180.0
 51
270.0
  0
ARC
  5
300
330
1F
100
AcDbEntity
  8
0-0
  6
Continuous
 62
     3
370
     9
100
AcDbCircle
 10
-419.0628062067806
 20
-14.7108566696578
 30
0.0
 40
4.000000051549963
100
AcDbArc
 50
90.0
 51
180.0
  0
ARC
  5
301
330
1F
100
AcDbEntity
  8
0-0
  6
Continuous
 62
     3
370
     9
100
AcDbCircle
 10
-398.662827981485
 20
11.28917962151618
 30
0.0
 40
4.000000051549963
100
AcDbArc
 50
270.0
 51
0.0
  0
ARC
  5
302
330
1F
100
AcDbEntity
  8
0-0
  6
Continuous
 62
     3
370
     9
100
AcDbCircle
 10
-398.662827981485
 20
89.68917599239876
 30
0.0
 40
4.000000051549963
100
AcDbArc
 50
0.0
 51
90.0
  0
ARC
  5
303
330
1F
100
AcDbEntity
  8
0-0
  6
Continuous
 62
     3
370
     9
100
AcDbCircle
 10
-398.662827981485
 20
-93.11077880859358
 30
0.0
 40
4.000000051549963
100
AcDbArc
 50
270.0
 51
0.0
  0
ARC
  5
304
330
1F
100
AcDbEntity
  8
0-0
  6
Continuous
 62
     3
370
     9
100
AcDbCircle
 10
-398.662827981485
 20
-14.7108566696578
 30
0.0
 40
4.000000051549963
100
AcDbArc
 50
0.0
 51
90.0
  0
ARC
  5
305
330
1F
100
AcDbEntity
  8
0-0
  6
Continuous
 62
     3
370
     9
100
AcDbCircle
 10
-465.46282072325
 20
11.28917962151618
 30
0.0
 40
4.000000051549963
100
AcDbArc
 50
180.0
 51
270.0
  0
ARC
  5
306
330
1F
100
AcDbEntity
  8
0-0
  6
Continuous
 62
     3
370
     9
100
AcDbCircle
 10
-465.46282072325
 20
89.68917599239876
 30
0.0
 40
4.000000051549963
100
AcDbArc
 50
90.0
 51
180.0
  0
ARC
  5
307
330
1F
100
AcDbEntity
  8
0-0
  6
Continuous
 62
     3
370
     9
100
AcDbCircle
 10
-465.46282072325
 20
-93.11077880859358
 30
0.0
 40
4.000000051549963
100
AcDbArc
 50
180.0
 51
270.0
  0
ARC
  5
308
330
1F
100
AcDbEntity
  8
0-0
  6
Continuous
 62
     3
370
     9
100
AcDbCircle
 10
-465.46282072325
 20
-14.7108566696578
 30
0.0
 40
4.000000051549963
100
AcDbArc
 50
90.0
 51
180.0
  0
ARC
  5
309
330
1F
100
AcDbEntity
  8
0-0
  6
Continuous
 62
     3
370
     9
100
AcDbCircle
 10
-445.0627682660078
 20
11.28917962151618
 30
0.0
 40
4.000000051549963
100
AcDbArc
 50
270.0
 51
0.0
  0
ARC
  5
30A
330
1F
100
AcDbEntity
  8
0-0
  6
Continuous
 62
     3
370
     9
100
AcDbCircle
 10
-445.0627682660078
 20
89.68917599239876
 30
0.0
 40
4.000000051549963
100
AcDbArc
 50
0.0
 51
90.0
  0
ARC
  5
30B
330
1F
100
AcDbEntity
  8
0-0
  6
Continuous
 62
     3
370
     9
100
AcDbCircle
 10
-445.0627682660078
 20
-93.11077880859358
 30
0.0
 40
4.000000051549963
100
AcDbArc
 50
270.0
 51
0.0
  0
ARC
  5
30C
330
1F
100
AcDbEntity
  8
0-0
  6
Continuous
 62
     3
370
     9
100
AcDbCircle
 10
-445.0627682660078
 20
-14.7108566696578
 30
0.0
 40
4.000000051549963
100
AcDbArc
 50
0.0
 51
90.0
  0
ARC
  5
30D
330
1F
100
AcDbEntity
  8
0-0
  6
Continuous
 62
     3
370
     9
100
AcDbCircle
 10
-465.46282072325
 20
-93.11077880859358
 30
0.0
 40
5.000000064437454
100
AcDbArc
 50
180.0
 51
270.0
  0
ARC
  5
30E
330
1F
100
AcDbEntity
  8
0-0
  6
Continuous
 62
     3
370
     9
100
AcDbCircle
 10
244.2707525717245
 20
215.9126586914064
 30
0.0
 40
1.500000019331236
100
AcDbArc
 50
231.5113830566407
 51
264.9568481445312
  0
ARC
  5
30F
330
1F
100
AcDbEntity
  8
0-0
  6
Continuous
 62
     3
370
     9
100
AcDbCircle
 10
244.2707525717245
 20
198.2657949086784
 30
0.0
 40
1.500000019331236
100
AcDbArc
 50
95.04315185546874
 51
128.4886169433593
  0
ARC
  5
310
330
1F
100
AcDbEntity
  8
0-0
  6
Continuous
 62
     3
370
     9
100
AcDbCircle
 10
258.8371390265389
 20
211.6157424514359
 30
0.0
 40
1.500000019331236
100
AcDbArc
 50
0.0
 51
84.95684814453125
  0
ARC
  5
311
330
1F
100
AcDbEntity
  8
0-0
  6
Continuous
 62
     3
370
     9
100
AcDbCircle
 10
258.8371390265389
 20
202.562636916702
 30
0.0
 40
1.500000019331236
100
AcDbArc
 50
275.0431518554688
 51
0.0000000000000127
  0
ARC
  5
312
330
1F
100
AcDbEntity
  8
0-0
  6
Continuous
 62
     3
370
     9
100
AcDbCircle
 10
243.837238002468
 20
-114.1418770455023
 30
0.0
 40
1.500000019331236
100
AcDbArc
 50
277.0003356933594
 51
359.9999999999999
  0
ARC
  5
313
330
1F
100
AcDbEntity
  8
0-0
  6
Continuous
 62
     3
370
     9
100
AcDbCircle
 10
243.837238002468
 20
-98.28415164431999
 30
0.0
 40
1.500000019331236
100
AcDbArc
 50
0.0
 51
82.99966430664062
  0
ARC
  5
314
330
1F
100
AcDbEntity
  8
0-0
  6
Continuous
 62
     3
370
     9
100
AcDbCircle
 10
244.2707525717245
 20
-10.53427041543483
 30
0.0
 40
1.500000019331236
100
AcDbArc
 50
95.04315185546874
 51
128.4886169433593
  0
ARC
  5
315
330
1F
100
AcDbEntity
  8
0-0
  6
Continuous
 62
     3
370
     9
100
AcDbCircle
 10
244.2707525717245
 20
7.112630483266571
 30
0.0
 40
1.500000019331236
100
AcDbArc
 50
231.5113830566407
 51
264.9568481445312
  0
ARC
  5
316
330
1F
100
AcDbEntity
  8
0-0
  6
Continuous
 62
     3
370
     9
100
AcDbCircle
 10
258.8371390265389
 20
-6.237354175464361
 30
0.0
 40
1.500000019331236
100
AcDbArc
 50
275.0431518554688
 51
0.0000000000000127
  0
ARC
  5
317
330
1F
100
AcDbEntity
  8
0-0
  6
Continuous
 62
     3
370
     9
100
AcDbCircle
 10
258.8371390265389
 20
2.815677127322743
 30
0.0
 40
1.500000019331236
100
AcDbArc
 50
0.0
 51
84.95684814453125
  0
ARC
  5
318
330
1F
100
AcDbEntity
  8
0-0
  6
Continuous
 62
     3
370
     9
100
AcDbCircle
 10
241.8372066600905
 20
109.011417698216
 30
0.0
 40
1.500000019331236
100
AcDbArc
 50
0.0
 51
82.99966430664062
  0
ARC
  5
319
330
1F
100
AcDbEntity
  8
0-0
  6
Continuous
 62
     3
370
     9
100
AcDbCircle
 10
241.8372066600905
 20
96.3669334617822
 30
0.0
 40
1.500000019331236
100
AcDbArc
 50
277.0003356933594
 51
359.9999999999999
  0
ARC
  5
31A
330
1F
100
AcDbEntity
  8
0-0
  6
Continuous
 62
     3
370
     9
100
AcDbCircle
 10
258.3372610968514
 20
301.3493239944047
 30
0.0
 40
14.99999961337528
100
AcDbArc
 50
180.0
 51
239.9999847412109
  0
ARC
  5
31B
330
1F
100
AcDbEntity
  8
0-0
  6
Continuous
 62
     3
370
     9
100
AcDbCircle
 10
250.3372841912349
 20
277.1007162558067
 30
0.0
 40
10.00000012887491
100
AcDbArc
 50
0.0
 51
60.00015258789063
  0
ARC
  5
31C
330
1F
100
AcDbEntity
  8
0-0
  6
Continuous
 62
     3
370
     9
100
AcDbCircle
 10
258.3372610968514
 20
-95.97097283440655
 30
0.0
 40
14.99999961337528
100
AcDbArc
 50
120.0000152587891
 51
180.0
  0
ARC
  5
31D
330
1F
100
AcDbEntity
  8
0-0
  6
Continuous
 62
     3
370
     9
100
AcDbCircle
 10
250.3372841912349
 20
-71.72232797983514
 30
0.0
 40
10.00000012887491
100
AcDbArc
 50
299.9998474121094
 51
0.0
  0
ARC
  5
31E
330
1F
100
AcDbEntity
  8
0-2
  6
Continuous
 62
     6
370
     5
100
AcDbCircle
 10
459.8964454032278
 20
-3.030756769953427
 30
0.0
 40
4.000000051549963
100
AcDbArc
 50
150.0
 51
330.0000000000001
  0
CIRCLE
  5
31F
330
1F
100
AcDbEntity
  8
0-2
  6
Continuous
 62
     6
370
     5
100
AcDbCircle
 10
459.1464058128564
 20
-4.32981583878788
 30
0.0
 40
2.500000032218727
  0
CIRCLE
  5
320
330
1F
100
AcDbEntity
  8
0-2
  6
Continuous
 62
     6
370
     5
100
AcDbCircle
 10
440.646320033718
 20
-36.37274087441921
 30
0.0
 40
2.500000032218727
  0
ARC
  5
321
330
1F
100
AcDbEntity
  8
0-2
  6
Continuous
 62
     6
370
     5
100
AcDbCircle
 10
459.8964454032278
 20
-3.030756769953427
 30
0.0
 40
9.000000115987417
100
AcDbArc
 50
150.0
 51
330.0000000000001
  0
ARC
  5
322
330
1F
100
AcDbEntity
  8
0-2
  6
Continuous
 62
     6
370
     5
100
AcDbCircle
 10
439.7516766109983
 20
-38.79210848421639
 30
0.0
 40
12.00000015464989
100
AcDbArc
 50
359.9999847412109
 51
180.0
  0
ARC
  5
323
330
1F
100
AcDbEntity
  8
0-2
  6
Continuous
 62
     6
370
     5
100
AcDbCircle
 10
439.7516766109983
 20
-38.79210848421639
 30
0.0
 40
5.000000064437454
100
AcDbArc
 50
8.332473754882812
 51
180.0
  0
ARC
  5
324
330
1F
100
AcDbEntity
  8
0-2
  6
Continuous
 62
     6
370
     5
100
AcDbCircle
 10
449.7515363950989
 20
-65.57462372650951
 30
0.0
 40
5.000000064437454
100
AcDbArc
 50
165.0
 51
180.0
  0
ARC
  5
325
330
1F
100
AcDbEntity
  8
0-2
  6
Continuous
 62
     6
370
     5
100
AcDbCircle
 10
442.7515380446977
 20
-64.65307122307843
 30
0.0
 40
5.000000064437454
100
AcDbArc
 50
165.0
 51
180.0
  0
ARC
  5
326
330
1F
100
AcDbEntity
  8
0-2
  6
Continuous
 62
     6
370
     5
100
AcDbCircle
 10
435.7514654623495
 20
-142.7920680690455
 30
0.0
 40
2.000000025774982
100
AcDbArc
 50
270.0
 51
0.0
  0
ARC
  5
327
330
1F
100
AcDbEntity
  8
0-2
  6
Continuous
 62
     6
370
     5
100
AcDbCircle
 10
437.7513483408336
 20
-144.7920251794762
 30
0.0
 40
7.000000090212434
100
AcDbArc
 50
270.0
 51
0.0
  0
ARC
  5
328
330
1F
100
AcDbEntity
  8
0-2
  6
JWW_CENTER1
 62
     6
370
     5
100
AcDbCircle
 10
435.7514654623495
 20
-142.7920680690455
 30
0.0
 40
5.500000360849742
100
AcDbArc
 50
270.0
 51
0.0
  0
ARC
  5
329
330
1F
100
AcDbEntity
  8
0-2
  6
JWW_CENTER1
 62
     6
370
     5
100
AcDbCircle
 10
439.7516766109983
 20
-38.79210848421639
 30
0.0
 40
8.49999981957513
100
AcDbArc
 50
2.843826293945312
 51
180.0
  0
ARC
  5
32A
330
1F
100
AcDbEntity
  8
0-2
  6
JWW_CENTER1
 62
     6
370
     5
100
AcDbCircle
 10
417.0105712478227
 20
42.68921888196806
 30
0.0
 40
59.99999845350111
100
AcDbArc
 50
329.9999542236329
 51
89.99999999999997
  0
ARC
  5
32B
330
1F
100
AcDbEntity
  8
0-2
  6
JWW_CENTER1
 62
     6
370
     5
100
AcDbCircle
 10
442.7515380446977
 20
-64.65307122307843
 30
0.0
 40
1.500000019331236
100
AcDbArc
 50
165.0
 51
180.0
  0
ARC
  5
32C
330
1F
100
AcDbEntity
  8
0-2
  6
Continuous
 62
     6
370
     5
100
AcDbCircle
 10
314.8374227575355
 20
102.689119906039
 30
0.0
 40
2.500000322187269
100
AcDbArc
 50
90.0
 51
270.0
  0
ARC
  5
32D
330
1F
100
AcDbEntity
  8
0-2
  6
Continuous
 62
     6
370
     5
100
AcDbCircle
 10
313.3370466490052
 20
102.689119906039
 30
0.0
 40
8.999998956113249
100
AcDbArc
 50
269.9998321533203
 51
343.8724060058594
  0
ARC
  5
32E
330
1F
100
AcDbEntity
  8
0-2
  6
Continuous
 62
     6
370
     5
100
AcDbCircle
 10
313.3370466490052
 20
102.689119906039
 30
0.0
 40
4.000000921455589
100
AcDbArc
 50
270.0
 51
321.3177947998047
  0
ARC
  5
32F
330
1F
100
AcDbEntity
  8
0-2
  6
Continuous
 62
     6
370
     5
100
AcDbCircle
 10
313.3370466490052
 20
102.689119906039
 30
0.0
 40
4.000000921455589
100
AcDbArc
 50
38.68220520019531
 51
90.0
  0
ARC
  5
330
330
1F
100
AcDbEntity
  8
0-2
  6
Continuous
 62
     6
370
     5
100
AcDbCircle
 10
313.3370466490052
 20
102.689119906039
 30
0.0
 40
8.999998956113249
100
AcDbArc
 50
16.12759399414062
 51
89.99999999999999
  0
CIRCLE
  5
331
330
1F
100
AcDbEntity
  8
0-2
  6
Continuous
 62
     4
370
     9
100
AcDbCircle
 10
253.3371456249342
 20
102.6891941379858
 30
0.0
 40
5.000000064437454
  0
ARC
  5
332
330
1F
100
AcDbEntity
  8
0-2
  6
Continuous
 62
     6
370
     5
100
AcDbCircle
 10
289.3372643960489
 20
102.689119906039
 30
0.0
 40
9.000001275861585
100
AcDbArc
 50
202.8844451904297
 51
270.0
  0
ARC
  5
333
330
1F
100
AcDbEntity
  8
0-2
  6
Continuous
 62
     6
370
     5
100
AcDbCircle
 10
289.3372643960489
 20
102.689119906039
 30
0.0
 40
4.000000631487048
100
AcDbArc
 50
241.0411834716797
 51
270.0003814697266
  0
ARC
  5
334
330
1F
100
AcDbEntity
  8
0-2
  6
Continuous
 62
     6
370
     5
100
AcDbCircle
 10
289.3372643960489
 20
102.689119906039
 30
0.0
 40
9.000001275861585
100
AcDbArc
 50
90.0
 51
157.1138000488282
  0
ARC
  5
335
330
1F
100
AcDbEntity
  8
0-2
  6
Continuous
 62
     6
370
     5
100
AcDbCircle
 10
289.3372643960489
 20
102.689119906039
 30
0.0
 40
4.000000631487048
100
AcDbArc
 50
89.99961853027342
 51
118.9524536132812
  0
ARC
  5
336
330
1F
100
AcDbEntity
  8
0-2
  6
Continuous
 62
     4
370
     9
100
AcDbCircle
 10
288.837238002468
 20
102.689119906039
 30
0.0
 40
3.500000045106217
100
AcDbArc
 50
270.0
 51
90.0
  0
ARC
  5
337
330
1F
100
AcDbEntity
  8
0-2
  6
Continuous
 62
     4
370
     9
100
AcDbCircle
 10
253.3371456249342
 20
102.6891941379858
 30
0.0
 40
10.49999984535011
100
AcDbArc
 50
19.47117614746094
 51
340.5288238525391
  0
ARC
  5
338
330
1F
100
AcDbEntity
  8
0-0
  6
Continuous
 62
     3
370
     9
100
AcDbCircle
 10
253.3371456249342
 20
102.6891941379858
 30
0.0
 40
16.49999992267505
100
AcDbArc
 50
12.24656677246094
 51
80.07664489746094
  0
ARC
  5
339
330
1F
100
AcDbEntity
  8
0-0
  6
Continuous
 62
     3
370
     9
100
AcDbCircle
 10
253.3371456249342
 20
102.6891941379858
 30
0.0
 40
16.49999992267505
100
AcDbArc
 50
279.9233551025391
 51
347.7536926269531
  0
ARC
  5
33A
330
1F
100
AcDbEntity
  8
0-1
  6
Continuous
 62
     2
370
     9
100
AcDbCircle
 10
230.8372198568808
 20
-124.9867190799197
 30
0.0
 40
1.500000019331236
100
AcDbArc
 50
180.0
 51
262.8750305175781
  0
ARC
  5
33B
330
1F
100
AcDbEntity
  8
0-1
  6
Continuous
 62
     2
370
     9
100
AcDbCircle
 10
230.8372198568808
 20
-120.6350196632178
 30
0.0
 40
1.500000019331236
100
AcDbArc
 50
97.12496948242188
 51
179.9993286132812
  0
ARC
  5
33C
330
1F
100
AcDbEntity
  8
0-1
  6
Continuous
 62
     2
370
     9
100
AcDbCircle
 10
246.8372479000608
 20
-100.055771286423
 30
0.0
 40
1.500000019331236
100
AcDbArc
 50
100.6194152832031
 51
180.0
  0
ARC
  5
33D
330
1F
100
AcDbEntity
  8
0-1
  6
Continuous
 62
     2
370
     9
100
AcDbCircle
 10
244.8372907896302
 20
-146.5812377929686
 30
0.0
 40
1.500000019331236
100
AcDbArc
 50
180.0
 51
258.6903228759766
  0
ARC
  5
33E
330
1F
100
AcDbEntity
  8
0-1
  6
Continuous
 62
     2
370
     9
100
AcDbCircle
 10
244.8372907896302
 20
-140.4322344805742
 30
0.0
 40
1.500000019331236
100
AcDbArc
 50
134.9997711181641
 51
180.0
  0
ARC
  5
33F
330
1F
100
AcDbEntity
  8
0-1
  6
Continuous
 62
     2
370
     9
100
AcDbCircle
 10
243.8373122344145
 20
-137.1895974648963
 30
0.0
 40
1.500000019331236
100
AcDbArc
 50
314.9997711181641
 51
0.0
  0
ARC
  5
340
330
1F
100
AcDbEntity
  8
0-1
  6
Continuous
 62
     2
370
     9
100
AcDbCircle
 10
240.3372759432408
 20
-132.7248056772592
 30
0.0
 40
5.000000064437454
100
AcDbArc
 50
0.0
 51
82.8748779296875
  0
ARC
  5
341
330
1F
100
AcDbEntity
  8
0-1
  6
Continuous
 62
     2
370
     9
100
AcDbCircle
 10
243.3372858408336
 20
-115.5453804634711
 30
0.0
 40
2.000000025774982
100
AcDbArc
 50
277.1253204345703
 51
0.0
  0
ARC
  5
342
330
1F
100
AcDbEntity
  8
0-1
  6
Continuous
 62
     2
370
     9
100
AcDbCircle
 10
-486.6628337550807
 20
-114.3108660723711
 30
0.0
 40
5.000000064437454
100
AcDbArc
 50
180.0
 51
270.0
  0
ARC
  5
343
330
1F
100
AcDbEntity
  8
0-1
  6
Continuous
 62
     2
370
     9
100
AcDbCircle
 10
-508.1631150116791
 20
48.68920156118048
 30
0.0
 40
2.000000025774982
100
AcDbArc
 50
90.0
 51
180.0
  0
ARC
  5
344
330
1F
100
AcDbEntity
  8
0-1
  6
Continuous
 62
     2
370
     9
100
AcDbCircle
 10
-370.6627603479334
 20
-135.8106091473551
 30
0.0
 40
2.000000025774982
100
AcDbArc
 50
180.0
 51
270.0
  0
ARC
  5
345
330
1F
100
AcDbEntity
  8
0-1
  6
Continuous
 62
     2
370
     9
100
AcDbCircle
 10
-370.6627603479334
 20
-130.3106528617239
 30
0.0
 40
2.000000025774982
100
AcDbArc
 50
90.0
 51
180.0
  0
ARC
  5
346
330
1F
100
AcDbEntity
  8
0-1
  6
Continuous
 62
     2
370
     9
100
AcDbCircle
 10
-370.6627603479334
 20
-135.8106091473551
 30
0.0
 40
4.000000051549963
100
AcDbArc
 50
180.0001220703125
 51
270.0001220703125
  0
ARC
  5
347
330
1F
100
AcDbEntity
  8
0-1
  6
Continuous
 62
     2
370
     9
100
AcDbCircle
 10
-370.6627603479334
 20
-130.3106528617239
 30
0.0
 40
4.000000051549963
100
AcDbArc
 50
118.9553375244141
 51
180.0001220703125
  0
ARC
  5
348
330
1F
100
AcDbEntity
  8
0-1
  6
Continuous
 62
     2
370
     9
100
AcDbCircle
 10
-418.6628815934465
 20
-135.8107019372887
 30
0.0
 40
2.000000025774982
100
AcDbArc
 50
270.0
 51
0.0
  0
ARC
  5
349
330
1F
100
AcDbEntity
  8
0-1
  6
Continuous
 62
     2
370
     9
100
AcDbCircle
 10
-418.6628815934465
 20
-135.8107019372887
 30
0.0
 40
4.000000051549963
100
AcDbArc
 50
270.0001220703125
 51
0.0001220703125213
  0
ARC
  5
34A
330
1F
100
AcDbEntity
  8
0-1
  6
Continuous
 62
     2
370
     9
100
AcDbCircle
 10
-508.1631150116791
 20
48.68920156118048
 30
0.0
 40
4.000000051549963
100
AcDbArc
 50
90.0
 51
180.0
  0
ARC
  5
34B
330
1F
100
AcDbEntity
  8
0-1
  6
Continuous
 62
     2
370
     9
100
AcDbCircle
 10
-394.6628024127032
 20
-139.8108388539906
 30
0.0
 40
7.500001546498892
100
AcDbArc
 50
0.0001983642578125
 51
180.0001983642578
  0
ARC
  5
34C
330
1F
100
AcDbEntity
  8
0-1
  6
Continuous
 62
     2
370
     9
100
AcDbCircle
 10
-394.6628024127032
 20
-139.8108388539906
 30
0.0
 40
9.500002152210959
100
AcDbArc
 50
0.000213623046875
 51
180.0002136230469
  0
ARC
  5
34D
330
1F
100
AcDbEntity
  8
0-1
  6
Continuous
 62
     2
370
     9
100
AcDbCircle
 10
-406.1627784935204
 20
-145.8107473012562
 30
0.0
 40
2.000000025774982
100
AcDbArc
 50
270.0
 51
0.0002441406249917
  0
ARC
  5
34E
330
1F
100
AcDbEntity
  8
0-1
  6
Continuous
 62
     2
370
     9
100
AcDbCircle
 10
-406.1627784935204
 20
-145.8107473012562
 30
0.0
 40
4.000000051549963
100
AcDbArc
 50
270.0001220703125
 51
0.0001220703125213
  0
ARC
  5
34F
330
1F
100
AcDbEntity
  8
0-1
  6
Continuous
 62
     2
370
     9
100
AcDbCircle
 10
-383.1627892159127
 20
-145.8106545113226
 30
0.0
 40
4.000000051549963
100
AcDbArc
 50
180.0001220703125
 51
270.0001220703125
  0
ARC
  5
350
330
1F
100
AcDbEntity
  8
0-1
  6
Continuous
 62
     2
370
     9
100
AcDbCircle
 10
-383.1627892159127
 20
-145.8106545113226
 30
0.0
 40
2.000000025774982
100
AcDbArc
 50
180.000244140625
 51
270.0
  0
ARC
  5
351
330
1F
100
AcDbEntity
  8
0-1
  6
Continuous
 62
     2
370
     9
100
AcDbCircle
 10
-508.1628180838919
 20
1.689207334776427
 30
0.0
 40
2.000000025774982
100
AcDbArc
 50
180.0
 51
270.0
  0
ARC
  5
352
330
1F
100
AcDbEntity
  8
0-1
  6
Continuous
 62
     2
370
     9
100
AcDbCircle
 10
-502.6628617982606
 20
1.689244450749698
 30
0.0
 40
2.000000025774982
100
AcDbArc
 50
270.0
 51
0.0
  0
ARC
  5
353
330
1F
100
AcDbEntity
  8
0-1
  6
Continuous
 62
     2
370
     9
100
AcDbCircle
 10
-508.1628180838919
 20
1.689207334776427
 30
0.0
 40
4.000000051549963
100
AcDbArc
 50
180.0
 51
270.0
  0
ARC
  5
354
330
1F
100
AcDbEntity
  8
0-1
  6
Continuous
 62
     2
370
     9
100
AcDbCircle
 10
-502.6628617982606
 20
1.689244450749698
 30
0.0
 40
4.000000051549963
100
AcDbArc
 50
270.0
 51
331.0447845458984
  0
ARC
  5
355
330
1F
100
AcDbEntity
  8
0-1
  6
Continuous
 62
     2
370
     9
100
AcDbCircle
 10
-502.6628617982606
 20
-46.31087679476343
 30
0.0
 40
4.000000051549963
100
AcDbArc
 50
28.95521545410156
 51
90.0
  0
ARC
  5
356
330
1F
100
AcDbEntity
  8
0-1
  6
Continuous
 62
     2
370
     9
100
AcDbCircle
 10
-508.1628180838919
 20
-46.31080256281655
 30
0.0
 40
2.000000025774982
100
AcDbArc
 50
90.0
 51
180.0
  0
ARC
  5
357
330
1F
100
AcDbEntity
  8
0-1
  6
Continuous
 62
     2
370
     9
100
AcDbCircle
 10
-502.6628617982606
 20
-46.31087679476343
 30
0.0
 40
2.000000025774982
100
AcDbArc
 50
0.0
 51
90.0
  0
ARC
  5
358
330
1F
100
AcDbEntity
  8
0-1
  6
Continuous
 62
     2
370
     9
100
AcDbCircle
 10
-508.1628180838919
 20
-46.31080256281655
 30
0.0
 40
4.000000051549963
100
AcDbArc
 50
90.0
 51
180.0
  0
ARC
  5
359
330
1F
100
AcDbEntity
  8
0-1
  6
Continuous
 62
     2
370
     9
100
AcDbCircle
 10
-512.1628993266338
 20
-22.3108347299935
 30
0.0
 40
7.500001546498892
100
AcDbArc
 50
269.9999389648438
 51
89.99993896484376
  0
ARC
  5
35A
330
1F
100
AcDbEntity
  8
0-1
  6
Continuous
 62
     2
370
     9
100
AcDbCircle
 10
-512.1628993266338
 20
-22.3108347299935
 30
0.0
 40
9.500002152210959
100
AcDbArc
 50
269.9998931884766
 51
89.99989318847658
  0
ARC
  5
35B
330
1F
100
AcDbEntity
  8
0-1
  6
Continuous
 62
     2
370
     9
100
AcDbCircle
 10
-518.1628820058462
 20
-33.81084792678405
 30
0.0
 40
2.000000025774982
100
AcDbArc
 50
89.99975585937501
 51
180.0
  0
ARC
  5
35C
330
1F
100
AcDbEntity
  8
0-1
  6
Continuous
 62
     2
370
     9
100
AcDbCircle
 10
-518.1628820058462
 20
-33.81084792678405
 30
0.0
 40
4.000000051549963
100
AcDbArc
 50
90.0
 51
180.0
  0
ARC
  5
35D
330
1F
100
AcDbEntity
  8
0-1
  6
Continuous
 62
     2
370
     9
100
AcDbCircle
 10
-518.1628820058462
 20
-10.81082153320295
 30
0.0
 40
4.000000051549963
100
AcDbArc
 50
180.0
 51
270.0
  0
ARC
  5
35E
330
1F
100
AcDbEntity
  8
0-1
  6
Continuous
 62
     2
370
     9
100
AcDbCircle
 10
-518.1628820058462
 20
-10.81082153320295
 30
0.0
 40
2.000000025774982
100
AcDbArc
 50
180.0
 51
269.999755859375
  0
ARC
  5
35F
330
1F
100
AcDbEntity
  8
0-1
  6
Continuous
 62
     2
370
     9
100
AcDbCircle
 10
-502.6630102621542
 20
48.68920156118048
 30
0.0
 40
2.000000025774982
100
AcDbArc
 50
0.0
 51
90.0
  0
ARC
  5
360
330
1F
100
AcDbEntity
  8
0-1
  6
Continuous
 62
     2
370
     9
100
AcDbCircle
 10
-502.6630102621542
 20
48.68920156118048
 30
0.0
 40
4.000000051549963
100
AcDbArc
 50
28.95004272460938
 51
90.0
  0
ARC
  5
361
330
1F
100
AcDbEntity
  8
0-1
  6
Continuous
 62
     2
370
     9
100
AcDbCircle
 10
-418.6628815934465
 20
-130.3107270936707
 30
0.0
 40
2.000000025774982
100
AcDbArc
 50
0.000244140625
 51
90.00000000000001
  0
ARC
  5
362
330
1F
100
AcDbEntity
  8
0-1
  6
Continuous
 62
     2
370
     9
100
AcDbCircle
 10
-418.6628815934465
 20
-130.3107270936707
 30
0.0
 40
4.000000051549963
100
AcDbArc
 50
0.0001220703125
 51
61.04490661621094
  0
ARC
  5
363
330
1F
100
AcDbEntity
  8
0-1
  6
Continuous
 62
     2
370
     9
100
AcDbCircle
 10
-491.6628007631044
 20
-119.3107959644213
 30
0.0
 40
7.000000090212434
100
AcDbArc
 50
180.0001373291016
 51
270.0
  0
ARC
  5
364
330
1F
100
AcDbEntity
  8
0-1
  6
Continuous
 62
     2
370
     9
100
AcDbCircle
 10
-491.6628007631044
 20
-119.3107959644213
 30
0.0
 40
9.000000115987417
100
AcDbArc
 50
180.0000610351562
 51
270.0
  0
ARC
  5
365
330
1F
100
AcDbEntity
  8
0-1
  6
Continuous
 62
     2
370
     9
100
AcDbCircle
 10
-490.1627586983345
 20
-117.8107724576382
 30
0.0
 40
32.00000041239971
100
AcDbArc
 50
180.0000915527344
 51
270.0
  0
ARC
  5
366
330
1F
100
AcDbEntity
  8
0-1
  6
Continuous
 62
     2
370
     9
100
AcDbCircle
 10
-490.1627586983345
 20
-117.8107724576382
 30
0.0
 40
30.00000154649889
100
AcDbArc
 50
180.0001068115234
 51
270.0
  0
ARC
  5
367
330
1F
100
AcDbEntity
  8
0-1
  6
Continuous
 62
     2
370
     9
100
AcDbCircle
 10
-486.6628337550807
 20
319.6892172323692
 30
0.0
 40
5.000000064437454
100
AcDbArc
 50
90.0
 51
180.0
  0
ARC
  5
368
330
1F
100
AcDbEntity
  8
0-1
  6
Continuous
 62
     2
370
     9
100
AcDbCircle
 10
-508.1631150116791
 20
156.6891867147911
 30
0.0
 40
2.000000025774982
100
AcDbArc
 50
180.0
 51
270.0
  0
ARC
  5
369
330
1F
100
AcDbEntity
  8
0-1
  6
Continuous
 62
     2
370
     9
100
AcDbCircle
 10
-370.6627603479334
 20
341.1890159813134
 30
0.0
 40
2.000000025774982
100
AcDbArc
 50
90.0
 51
180.0
  0
ARC
  5
36A
330
1F
100
AcDbEntity
  8
0-1
  6
Continuous
 62
     2
370
     9
100
AcDbCircle
 10
-370.6627603479334
 20
335.6890225797088
 30
0.0
 40
2.000000025774982
100
AcDbArc
 50
180.0
 51
270.0
  0
ARC
  5
36B
330
1F
100
AcDbEntity
  8
0-1
  6
Continuous
 62
     2
370
     9
100
AcDbCircle
 10
-370.6627603479334
 20
341.1890159813134
 30
0.0
 40
4.000000051549963
100
AcDbArc
 50
90.0
 51
180.0
  0
ARC
  5
36C
330
1F
100
AcDbEntity
  8
0-1
  6
Continuous
 62
     2
370
     9
100
AcDbCircle
 10
-370.6627603479334
 20
335.6890225797088
 30
0.0
 40
4.000000051549963
100
AcDbArc
 50
180.0
 51
241.0447845458984
  0
ARC
  5
36D
330
1F
100
AcDbEntity
  8
0-1
  6
Continuous
 62
     2
370
     9
100
AcDbCircle
 10
-418.6628815934465
 20
341.189164445207
 30
0.0
 40
2.000000025774982
100
AcDbArc
 50
0.0
 51
90.0
  0
ARC
  5
36E
330
1F
100
AcDbEntity
  8
0-1
  6
Continuous
 62
     2
370
     9
100
AcDbCircle
 10
-418.6628815934465
 20
341.189164445207
 30
0.0
 40
4.000000051549963
100
AcDbArc
 50
0.0
 51
90.0
  0
ARC
  5
36F
330
1F
100
AcDbEntity
  8
0-1
  6
Continuous
 62
     2
370
     9
100
AcDbCircle
 10
-508.1631150116791
 20
156.6891867147911
 30
0.0
 40
4.000000051549963
100
AcDbArc
 50
180.0
 51
270.0
  0
ARC
  5
370
330
1F
100
AcDbEntity
  8
0-1
  6
Continuous
 62
     2
370
     9
100
AcDbCircle
 10
-394.6628024127032
 20
345.1892271299622
 30
0.0
 40
7.500001546498892
100
AcDbArc
 50
179.9996643066406
 51
359.9996643066406
  0
ARC
  5
371
330
1F
100
AcDbEntity
  8
0-1
  6
Continuous
 62
     2
370
     9
100
AcDbCircle
 10
-394.6628024127032
 20
345.1892271299622
 30
0.0
 40
9.500002152210959
100
AcDbArc
 50
179.9996795654297
 51
359.9996795654297
  0
ARC
  5
372
330
1F
100
AcDbEntity
  8
0-1
  6
Continuous
 62
     2
370
     9
100
AcDbCircle
 10
-406.1627784935204
 20
351.1890984612544
 30
0.0
 40
2.000000025774982
100
AcDbArc
 50
359.999755859375
 51
90.0
  0
ARC
  5
373
330
1F
100
AcDbEntity
  8
0-1
  6
Continuous
 62
     2
370
     9
100
AcDbCircle
 10
-406.1627784935204
 20
351.1890984612544
 30
0.0
 40
4.000000051549963
100
AcDbArc
 50
0.0
 51
90.0
  0
ARC
  5
374
330
1F
100
AcDbEntity
  8
0-1
  6
Continuous
 62
     2
370
     9
100
AcDbCircle
 10
-383.1627892159127
 20
351.1890984612544
 30
0.0
 40
4.000000051549963
100
AcDbArc
 50
90.0
 51
180.0
  0
ARC
  5
375
330
1F
100
AcDbEntity
  8
0-1
  6
Continuous
 62
     2
370
     9
100
AcDbCircle
 10
-383.1627892159127
 20
351.1890984612544
 30
0.0
 40
2.000000025774982
100
AcDbArc
 50
90.0
 51
179.999755859375
  0
ARC
  5
376
330
1F
100
AcDbEntity
  8
0-1
  6
Continuous
 62
     2
370
     9
100
AcDbCircle
 10
-508.1628180838919
 20
203.6891809411952
 30
0.0
 40
2.000000025774982
100
AcDbArc
 50
90.0
 51
180.0
  0
ARC
  5
377
330
1F
100
AcDbEntity
  8
0-1
  6
Continuous
 62
     2
370
     9
100
AcDbCircle
 10
-502.6628617982606
 20
203.6891067092484
 30
0.0
 40
2.000000025774982
100
AcDbArc
 50
0.0
 51
90.0
  0
ARC
  5
378
330
1F
100
AcDbEntity
  8
0-1
  6
Continuous
 62
     2
370
     9
100
AcDbCircle
 10
-508.1628180838919
 20
203.6891809411952
 30
0.0
 40
4.000000051549963
100
AcDbArc
 50
90.0
 51
180.0
  0
ARC
  5
379
330
1F
100
AcDbEntity
  8
0-1
  6
Continuous
 62
     2
370
     9
100
AcDbCircle
 10
-502.6628617982606
 20
203.6891067092484
 30
0.0
 40
4.000000051549963
100
AcDbArc
 50
28.95521545410156
 51
90.0
  0
ARC
  5
37A
330
1F
100
AcDbEntity
  8
0-1
  6
Continuous
 62
     2
370
     9
100
AcDbCircle
 10
-502.6628617982606
 20
251.6891908387881
 30
0.0
 40
4.000000051549963
100
AcDbArc
 50
270.0
 51
331.0447845458984
  0
ARC
  5
37B
330
1F
100
AcDbEntity
  8
0-1
  6
Continuous
 62
     2
370
     9
100
AcDbCircle
 10
-508.1628180838919
 20
251.6891908387881
 30
0.0
 40
2.000000025774982
100
AcDbArc
 50
180.0
 51
270.0
  0
ARC
  5
37C
330
1F
100
AcDbEntity
  8
0-1
  6
Continuous
 62
     2
370
     9
100
AcDbCircle
 10
-502.6628617982606
 20
251.6891908387881
 30
0.0
 40
2.000000025774982
100
AcDbArc
 50
270.0
 51
0.0
  0
ARC
  5
37D
330
1F
100
AcDbEntity
  8
0-1
  6
Continuous
 62
     2
370
     9
100
AcDbCircle
 10
-508.1628180838919
 20
251.6891908387881
 30
0.0
 40
4.000000051549963
100
AcDbArc
 50
180.0
 51
270.0
  0
ARC
  5
37E
330
1F
100
AcDbEntity
  8
0-1
  6
Continuous
 62
     2
370
     9
100
AcDbCircle
 10
-512.1628993266338
 20
227.6891858899917
 30
0.0
 40
7.500001546498892
100
AcDbArc
 50
270.0000610351562
 51
90.00006103515624
  0
ARC
  5
37F
330
1F
100
AcDbEntity
  8
0-1
  6
Continuous
 62
     2
370
     9
100
AcDbCircle
 10
-512.1628993266338
 20
227.6891858899917
 30
0.0
 40
9.500002152210959
100
AcDbArc
 50
270.0001068115234
 51
90.00010681152342
  0
ARC
  5
380
330
1F
100
AcDbEntity
  8
0-1
  6
Continuous
 62
     2
370
     9
100
AcDbCircle
 10
-518.1628820058462
 20
239.189273318729
 30
0.0
 40
2.000000025774982
100
AcDbArc
 50
180.0
 51
270.000244140625
  0
ARC
  5
381
330
1F
100
AcDbEntity
  8
0-1
  6
Continuous
 62
     2
370
     9
100
AcDbCircle
 10
-518.1628820058462
 20
239.189273318729
 30
0.0
 40
4.000000051549963
100
AcDbArc
 50
180.0
 51
270.0
  0
ARC
  5
382
330
1F
100
AcDbEntity
  8
0-1
  6
Continuous
 62
     2
370
     9
100
AcDbCircle
 10
-518.1628820058462
 20
216.1891726932012
 30
0.0
 40
4.000000051549963
100
AcDbArc
 50
90.0
 51
180.0
  0
ARC
  5
383
330
1F
100
AcDbEntity
  8
0-1
  6
Continuous
 62
     2
370
     9
100
AcDbCircle
 10
-518.1628820058462
 20
216.1891726932012
 30
0.0
 40
2.000000025774982
100
AcDbArc
 50
90.00024414062499
 51
180.0
  0
ARC
  5
384
330
1F
100
AcDbEntity
  8
0-1
  6
Continuous
 62
     2
370
     9
100
AcDbCircle
 10
-502.6630102621542
 20
156.6891867147911
 30
0.0
 40
2.000000025774982
100
AcDbArc
 50
270.0
 51
0.0
  0
ARC
  5
385
330
1F
100
AcDbEntity
  8
0-1
  6
Continuous
 62
     2
370
     9
100
AcDbCircle
 10
-502.6630102621542
 20
156.6891867147911
 30
0.0
 40
4.000000051549963
100
AcDbArc
 50
270.0
 51
331.0499572753906
  0
ARC
  5
386
330
1F
100
AcDbEntity
  8
0-1
  6
Continuous
 62
     2
370
     9
100
AcDbCircle
 10
-418.6628815934465
 20
335.6890225797088
 30
0.0
 40
2.000000025774982
100
AcDbArc
 50
270.0
 51
359.999755859375
  0
ARC
  5
387
330
1F
100
AcDbEntity
  8
0-1
  6
Continuous
 62
     2
370
     9
100
AcDbCircle
 10
-418.6628815934465
 20
335.6890225797088
 30
0.0
 40
4.000000051549963
100
AcDbArc
 50
298.9552154541016
 51
0.0
  0
ARC
  5
388
330
1F
100
AcDbEntity
  8
0-1
  6
Continuous
 62
     2
370
     9
100
AcDbCircle
 10
-491.6628007631044
 20
324.6891842403929
 30
0.0
 40
7.000000090212434
100
AcDbArc
 50
90.0
 51
179.9998626708984
  0
ARC
  5
389
330
1F
100
AcDbEntity
  8
0-1
  6
Continuous
 62
     2
370
     9
100
AcDbCircle
 10
-491.6628007631044
 20
324.6891842403929
 30
0.0
 40
9.000000115987417
100
AcDbArc
 50
90.0
 51
179.9999389648438
  0
ARC
  5
38A
330
1F
100
AcDbEntity
  8
0-1
  6
Continuous
 62
     2
370
     9
100
AcDbCircle
 10
-490.1627586983345
 20
323.1891050596496
 30
0.0
 40
22.00000144339897
100
AcDbArc
 50
90.0
 51
179.9998626708984
  0
ARC
  5
38B
330
1F
100
AcDbEntity
  8
0-1
  6
Continuous
 62
     2
370
     9
100
AcDbCircle
 10
-490.1627586983345
 20
323.1891050596496
 30
0.0
 40
20.00000025774982
100
AcDbArc
 50
90.0
 51
179.9998779296875
  0
ARC
  5
38C
330
1F
100
AcDbEntity
  8
0-1
  6
Continuous
 62
     2
370
     9
100
AcDbCircle
 10
-490.1627586983345
 20
323.1891050596496
 30
0.0
 40
32.00000041239971
100
AcDbArc
 50
90.0
 51
179.9999084472656
  0
ARC
  5
38D
330
1F
100
AcDbEntity
  8
0-1
  6
Continuous
 62
     2
370
     9
100
AcDbCircle
 10
-490.1627586983345
 20
323.1891050596496
 30
0.0
 40
30.00000154649889
100
AcDbArc
 50
90.0
 51
179.9998931884766
  0
ARC
  5
38E
330
1F
100
AcDbEntity
  8
0-1
  6
Continuous
 62
     2
370
     9
100
AcDbCircle
 10
-52.66271333436703
 20
-114.3108660723711
 30
0.0
 40
5.000000064437454
100
AcDbArc
 50
270.0
 51
0.0
  0
ARC
  5
38F
330
1F
100
AcDbEntity
  8
0-1
  6
Continuous
 62
     2
370
     9
100
AcDbCircle
 10
-31.16243207776876
 20
48.68920156118048
 30
0.0
 40
2.000000025774982
100
AcDbArc
 50
0.0
 51
90.0
  0
ARC
  5
390
330
1F
100
AcDbEntity
  8
0-1
  6
Continuous
 62
     2
370
     9
100
AcDbCircle
 10
-168.6627867415145
 20
-135.8106091473551
 30
0.0
 40
2.000000025774982
100
AcDbArc
 50
270.0
 51
0.0
  0
ARC
  5
391
330
1F
100
AcDbEntity
  8
0-1
  6
Continuous
 62
     2
370
     9
100
AcDbCircle
 10
-168.6627867415145
 20
-130.3106528617239
 30
0.0
 40
2.000000025774982
100
AcDbArc
 50
0.0
 51
90.0
  0
ARC
  5
392
330
1F
100
AcDbEntity
  8
0-1
  6
Continuous
 62
     2
370
     9
100
AcDbCircle
 10
-168.6627867415145
 20
-135.8106091473551
 30
0.0
 40
4.000000051549963
100
AcDbArc
 50
269.9998779296876
 51
359.9998779296875
  0
ARC
  5
393
330
1F
100
AcDbEntity
  8
0-1
  6
Continuous
 62
     2
370
     9
100
AcDbCircle
 10
-168.6627867415145
 20
-130.3106528617239
 30
0.0
 40
4.000000051549963
100
AcDbArc
 50
359.9998779296875
 51
61.04466247558592
  0
ARC
  5
394
330
1F
100
AcDbEntity
  8
0-1
  6
Continuous
 62
     2
370
     9
100
AcDbCircle
 10
-120.6627397279481
 20
-135.8107019372887
 30
0.0
 40
2.000000025774982
100
AcDbArc
 50
180.0
 51
270.0
  0
ARC
  5
395
330
1F
100
AcDbEntity
  8
0-1
  6
Continuous
 62
     2
370
     9
100
AcDbCircle
 10
-120.6627397279481
 20
-135.8107019372887
 30
0.0
 40
4.000000051549963
100
AcDbArc
 50
179.9998779296875
 51
269.9998779296876
  0
ARC
  5
396
330
1F
100
AcDbEntity
  8
0-1
  6
Continuous
 62
     2
370
     9
100
AcDbCircle
 10
-31.16243207776876
 20
48.68920156118048
 30
0.0
 40
4.000000051549963
100
AcDbArc
 50
0.0
 51
90.0
  0
ARC
  5
397
330
1F
100
AcDbEntity
  8
0-1
  6
Continuous
 62
     2
370
     9
100
AcDbCircle
 10
-144.6627446767447
 20
-139.8108388539906
 30
0.0
 40
7.500001546498892
100
AcDbArc
 50
359.9998016357422
 51
179.9998016357422
  0
ARC
  5
398
330
1F
100
AcDbEntity
  8
0-1
  6
Continuous
 62
     2
370
     9
100
AcDbCircle
 10
-144.6627446767447
 20
-139.8108388539906
 30
0.0
 40
9.500002152210959
100
AcDbArc
 50
359.9997863769531
 51
179.9997863769531
  0
ARC
  5
399
330
1F
100
AcDbEntity
  8
0-1
  6
Continuous
 62
     2
370
     9
100
AcDbCircle
 10
-133.1627685959275
 20
-145.8107473012562
 30
0.0
 40
2.000000025774982
100
AcDbArc
 50
179.999755859375
 51
270.0
  0
ARC
  5
39A
330
1F
100
AcDbEntity
  8
0-1
  6
Continuous
 62
     2
370
     9
100
AcDbCircle
 10
-133.1627685959275
 20
-145.8107473012562
 30
0.0
 40
4.000000051549963
100
AcDbArc
 50
179.9998779296875
 51
269.9998779296876
  0
ARC
  5
39B
330
1F
100
AcDbEntity
  8
0-1
  6
Continuous
 62
     2
370
     9
100
AcDbCircle
 10
-156.1627578735352
 20
-145.8106545113226
 30
0.0
 40
4.000000051549963
100
AcDbArc
 50
269.9998779296876
 51
359.9998779296875
  0
ARC
  5
39C
330
1F
100
AcDbEntity
  8
0-1
  6
Continuous
 62
     2
370
     9
100
AcDbCircle
 10
-156.1627578735352
 20
-145.8106545113226
 30
0.0
 40
2.000000025774982
100
AcDbArc
 50
270.0
 51
359.999755859375
  0
ARC
  5
39D
330
1F
100
AcDbEntity
  8
0-1
  6
Continuous
 62
     2
370
     9
100
AcDbCircle
 10
-31.16272900555578
 20
1.689207334776427
 30
0.0
 40
2.000000025774982
100
AcDbArc
 50
270.0
 51
0.0
  0
ARC
  5
39E
330
1F
100
AcDbEntity
  8
0-1
  6
Continuous
 62
     2
370
     9
100
AcDbCircle
 10
-36.66268529118719
 20
1.689244450749698
 30
0.0
 40
2.000000025774982
100
AcDbArc
 50
180.0
 51
270.0
  0
ARC
  5
39F
330
1F
100
AcDbEntity
  8
0-1
  6
Continuous
 62
     2
370
     9
100
AcDbCircle
 10
-31.16272900555578
 20
1.689207334776427
 30
0.0
 40
4.000000051549963
100
AcDbArc
 50
270.0
 51
0.0
  0
ARC
  5
3A0
330
1F
100
AcDbEntity
  8
0-1
  6
Continuous
 62
     2
370
     9
100
AcDbCircle
 10
-36.66268529118719
 20
1.689244450749698
 30
0.0
 40
4.000000051549963
100
AcDbArc
 50
208.9552154541016
 51
270.0
  0
ARC
  5
3A1
330
1F
100
AcDbEntity
  8
0-1
  6
Continuous
 62
     2
370
     9
100
AcDbCircle
 10
-36.66268529118719
 20
-46.31087679476343
 30
0.0
 40
4.000000051549963
100
AcDbArc
 50
90.0
 51
151.0447845458984
  0
ARC
  5
3A2
330
1F
100
AcDbEntity
  8
0-1
  6
Continuous
 62
     2
370
     9
100
AcDbCircle
 10
-31.16272900555578
 20
-46.31080256281655
 30
0.0
 40
2.000000025774982
100
AcDbArc
 50
0.0
 51
90.0
  0
ARC
  5
3A3
330
1F
100
AcDbEntity
  8
0-1
  6
Continuous
 62
     2
370
     9
100
AcDbCircle
 10
-36.66268529118719
 20
-46.31087679476343
 30
0.0
 40
2.000000025774982
100
AcDbArc
 50
90.0
 51
180.0
  0
ARC
  5
3A4
330
1F
100
AcDbEntity
  8
0-1
  6
Continuous
 62
     2
370
     9
100
AcDbCircle
 10
-31.16272900555578
 20
-46.31080256281655
 30
0.0
 40
4.000000051549963
100
AcDbArc
 50
0.0
 51
90.0
  0
ARC
  5
3A5
330
1F
100
AcDbEntity
  8
0-1
  6
Continuous
 62
     2
370
     9
100
AcDbCircle
 10
-27.16259208885407
 20
-22.3108347299935
 30
0.0
 40
7.500001546498892
100
AcDbArc
 50
90.00006103515625
 51
270.0000610351562
  0
ARC
  5
3A6
330
1F
100
AcDbEntity
  8
0-1
  6
Continuous
 62
     2
370
     9
100
AcDbCircle
 10
-27.16259208885407
 20
-22.3108347299935
 30
0.0
 40
9.500002152210959
100
AcDbArc
 50
90.00010681152345
 51
270.0001068115234
  0
ARC
  5
3A7
330
1F
100
AcDbEntity
  8
0-1
  6
Continuous
 62
     2
370
     9
100
AcDbCircle
 10
-21.162646525615
 20
-33.81084792678405
 30
0.0
 40
2.000000025774982
100
AcDbArc
 50
0.0
 51
90.00024414062499
  0
ARC
  5
3A8
330
1F
100
AcDbEntity
  8
0-1
  6
Continuous
 62
     2
370
     9
100
AcDbCircle
 10
-21.162646525615
 20
-33.81084792678405
 30
0.0
 40
4.000000051549963
100
AcDbArc
 50
0.0
 51
90.0
  0
ARC
  5
3A9
330
1F
100
AcDbEntity
  8
0-1
  6
Continuous
 62
     2
370
     9
100
AcDbCircle
 10
-21.162646525615
 20
-10.81082153320295
 30
0.0
 40
4.000000051549963
100
AcDbArc
 50
270.0
 51
0.0
  0
ARC
  5
3AA
330
1F
100
AcDbEntity
  8
0-1
  6
Continuous
 62
     2
370
     9
100
AcDbCircle
 10
-21.162646525615
 20
-10.81082153320295
 30
0.0
 40
2.000000025774982
100
AcDbArc
 50
270.000244140625
 51
0.0
  0
ARC
  5
3AB
330
1F
100
AcDbEntity
  8
0-1
  6
Continuous
 62
     2
370
     9
100
AcDbCircle
 10
-36.66253682729359
 20
48.68920156118048
 30
0.0
 40
2.000000025774982
100
AcDbArc
 50
90.0
 51
180.0
  0
ARC
  5
3AC
330
1F
100
AcDbEntity
  8
0-1
  6
Continuous
 62
     2
370
     9
100
AcDbCircle
 10
-36.66253682729359
 20
48.68920156118048
 30
0.0
 40
4.000000051549963
100
AcDbArc
 50
90.0
 51
151.0499572753906
  0
ARC
  5
3AD
330
1F
100
AcDbEntity
  8
0-1
  6
Continuous
 62
     2
370
     9
100
AcDbCircle
 10
-120.6627397279481
 20
-130.3107270936707
 30
0.0
 40
2.000000025774982
100
AcDbArc
 50
90.0
 51
179.999755859375
  0
ARC
  5
3AE
330
1F
100
AcDbEntity
  8
0-1
  6
Continuous
 62
     2
370
     9
100
AcDbCircle
 10
-120.6627397279481
 20
-130.3107270936707
 30
0.0
 40
4.000000051549963
100
AcDbArc
 50
118.955093383789
 51
179.9998779296875
  0
ARC
  5
3AF
330
1F
100
AcDbEntity
  8
0-1
  6
Continuous
 62
     2
370
     9
100
AcDbCircle
 10
-47.66267209439664
 20
-119.3107959644213
 30
0.0
 40
7.000000090212434
100
AcDbArc
 50
270.0
 51
359.9998626708984
  0
ARC
  5
3B0
330
1F
100
AcDbEntity
  8
0-1
  6
Continuous
 62
     2
370
     9
100
AcDbCircle
 10
-47.66267209439664
 20
-119.3107959644213
 30
0.0
 40
9.000000115987417
100
AcDbArc
 50
270.0
 51
359.9999389648438
  0
ARC
  5
3B1
330
1F
100
AcDbEntity
  8
0-1
  6
Continuous
 62
     2
370
     9
100
AcDbCircle
 10
-49.16271415916657
 20
-117.8107724576382
 30
0.0
 40
22.00000144339897
100
AcDbArc
 50
270.0
 51
359.9998626708984
  0
ARC
  5
3B2
330
1F
100
AcDbEntity
  8
0-1
  6
Continuous
 62
     2
370
     9
100
AcDbCircle
 10
-49.16271415916657
 20
-117.8107724576382
 30
0.0
 40
20.00000025774982
100
AcDbArc
 50
270.0
 51
359.9998779296875
  0
ARC
  5
3B3
330
1F
100
AcDbEntity
  8
0-1
  6
Continuous
 62
     2
370
     9
100
AcDbCircle
 10
-49.16271415916657
 20
-117.8107724576382
 30
0.0
 40
32.00000041239971
100
AcDbArc
 50
270.0
 51
359.9999084472656
  0
ARC
  5
3B4
330
1F
100
AcDbEntity
  8
0-1
  6
Continuous
 62
     2
370
     9
100
AcDbCircle
 10
-49.16271415916657
 20
-117.8107724576382
 30
0.0
 40
30.00000154649889
100
AcDbArc
 50
270.0
 51
359.9998931884766
  0
ARC
  5
3B5
330
1F
100
AcDbEntity
  8
0-1
  6
Continuous
 62
     2
370
     9
100
AcDbCircle
 10
-52.66271333436703
 20
319.6892172323692
 30
0.0
 40
5.000000064437454
100
AcDbArc
 50
0.0
 51
90.0
  0
ARC
  5
3B6
330
1F
100
AcDbEntity
  8
0-1
  6
Continuous
 62
     2
370
     9
100
AcDbCircle
 10
-31.16243207776876
 20
156.6891867147911
 30
0.0
 40
2.000000025774982
100
AcDbArc
 50
270.0
 51
0.0
  0
ARC
  5
3B7
330
1F
100
AcDbEntity
  8
0-1
  6
Continuous
 62
     2
370
     9
100
AcDbCircle
 10
-168.6627867415145
 20
341.1890159813134
 30
0.0
 40
2.000000025774982
100
AcDbArc
 50
0.0
 51
90.0
  0
ARC
  5
3B8
330
1F
100
AcDbEntity
  8
0-1
  6
Continuous
 62
     2
370
     9
100
AcDbCircle
 10
-168.6627867415145
 20
335.6890225797088
 30
0.0
 40
2.000000025774982
100
AcDbArc
 50
270.0
 51
0.0
  0
ARC
  5
3B9
330
1F
100
AcDbEntity
  8
0-1
  6
Continuous
 62
     2
370
     9
100
AcDbCircle
 10
-168.6627867415145
 20
341.1890159813134
 30
0.0
 40
4.000000051549963
100
AcDbArc
 50
0.0
 51
90.0
  0
ARC
  5
3BA
330
1F
100
AcDbEntity
  8
0-1
  6
Continuous
 62
     2
370
     9
100
AcDbCircle
 10
-168.6627867415145
 20
335.6890225797088
 30
0.0
 40
4.000000051549963
100
AcDbArc
 50
298.9552154541016
 51
0.0
  0
ARC
  5
3BB
330
1F
100
AcDbEntity
  8
0-1
  6
Continuous
 62
     2
370
     9
100
AcDbCircle
 10
-120.6627397279481
 20
341.189164445207
 30
0.0
 40
2.000000025774982
100
AcDbArc
 50
90.0
 51
180.0
  0
ARC
  5
3BC
330
1F
100
AcDbEntity
  8
0-1
  6
Continuous
 62
     2
370
     9
100
AcDbCircle
 10
-120.6627397279481
 20
341.189164445207
 30
0.0
 40
4.000000051549963
100
AcDbArc
 50
90.0
 51
180.0
  0
ARC
  5
3BD
330
1F
100
AcDbEntity
  8
0-1
  6
Continuous
 62
     2
370
     9
100
AcDbCircle
 10
-31.16243207776876
 20
156.6891867147911
 30
0.0
 40
4.000000051549963
100
AcDbArc
 50
270.0
 51
0.0
  0
ARC
  5
3BE
330
1F
100
AcDbEntity
  8
0-1
  6
Continuous
 62
     2
370
     9
100
AcDbCircle
 10
-144.6627446767447
 20
345.1892271299622
 30
0.0
 40
7.500001546498892
100
AcDbArc
 50
180.0003356933594
 51
0.0003356933593954
  0
ARC
  5
3BF
330
1F
100
AcDbEntity
  8
0-1
  6
Continuous
 62
     2
370
     9
100
AcDbCircle
 10
-144.6627446767447
 20
345.1892271299622
 30
0.0
 40
9.500002152210959
100
AcDbArc
 50
180.0003204345703
 51
0.0003204345703239
  0
ARC
  5
3C0
330
1F
100
AcDbEntity
  8
0-1
  6
Continuous
 62
     2
370
     9
100
AcDbCircle
 10
-133.1627685959275
 20
351.1890984612544
 30
0.0
 40
2.000000025774982
100
AcDbArc
 50
90.0
 51
180.000244140625
  0
ARC
  5
3C1
330
1F
100
AcDbEntity
  8
0-1
  6
Continuous
 62
     2
370
     9
100
AcDbCircle
 10
-133.1627685959275
 20
351.1890984612544
 30
0.0
 40
4.000000051549963
100
AcDbArc
 50
90.0
 51
180.0
  0
ARC
  5
3C2
330
1F
100
AcDbEntity
  8
0-1
  6
Continuous
 62
     2
370
     9
100
AcDbCircle
 10
-156.1627578735352
 20
351.1890984612544
 30
0.0
 40
4.000000051549963
100
AcDbArc
 50
0.0
 51
90.0
  0
ARC
  5
3C3
330
1F
100
AcDbEntity
  8
0-1
  6
Continuous
 62
     2
370
     9
100
AcDbCircle
 10
-156.1627578735352
 20
351.1890984612544
 30
0.0
 40
2.000000025774982
100
AcDbArc
 50
0.000244140625
 51
90.00000000000001
  0
ARC
  5
3C4
330
1F
100
AcDbEntity
  8
0-1
  6
Continuous
 62
     2
370
     9
100
AcDbCircle
 10
-31.16272900555578
 20
203.6891809411952
 30
0.0
 40
2.000000025774982
100
AcDbArc
 50
0.0
 51
90.0
  0
ARC
  5
3C5
330
1F
100
AcDbEntity
  8
0-1
  6
Continuous
 62
     2
370
     9
100
AcDbCircle
 10
-36.66268529118719
 20
203.6891067092484
 30
0.0
 40
2.000000025774982
100
AcDbArc
 50
90.0
 51
180.0
  0
ARC
  5
3C6
330
1F
100
AcDbEntity
  8
0-1
  6
Continuous
 62
     2
370
     9
100
AcDbCircle
 10
-31.16272900555578
 20
203.6891809411952
 30
0.0
 40
4.000000051549963
100
AcDbArc
 50
0.0
 51
90.0
  0
ARC
  5
3C7
330
1F
100
AcDbEntity
  8
0-1
  6
Continuous
 62
     2
370
     9
100
AcDbCircle
 10
-36.66268529118719
 20
203.6891067092484
 30
0.0
 40
4.000000051549963
100
AcDbArc
 50
90.0
 51
151.0447845458984
  0
ARC
  5
3C8
330
1F
100
AcDbEntity
  8
0-1
  6
Continuous
 62
     2
370
     9
100
AcDbCircle
 10
-36.66268529118719
 20
251.6891908387881
 30
0.0
 40
4.000000051549963
100
AcDbArc
 50
208.9552154541016
 51
270.0
  0
ARC
  5
3C9
330
1F
100
AcDbEntity
  8
0-1
  6
Continuous
 62
     2
370
     9
100
AcDbCircle
 10
-31.16272900555578
 20
251.6891908387881
 30
0.0
 40
2.000000025774982
100
AcDbArc
 50
270.0
 51
0.0
  0
ARC
  5
3CA
330
1F
100
AcDbEntity
  8
0-1
  6
Continuous
 62
     2
370
     9
100
AcDbCircle
 10
-36.66268529118719
 20
251.6891908387881
 30
0.0
 40
2.000000025774982
100
AcDbArc
 50
180.0
 51
270.0
  0
ARC
  5
3CB
330
1F
100
AcDbEntity
  8
0-1
  6
Continuous
 62
     2
370
     9
100
AcDbCircle
 10
-31.16272900555578
 20
251.6891908387881
 30
0.0
 40
4.000000051549963
100
AcDbArc
 50
270.0
 51
0.0
  0
ARC
  5
3CC
330
1F
100
AcDbEntity
  8
0-1
  6
Continuous
 62
     2
370
     9
100
AcDbCircle
 10
-27.16259208885407
 20
227.6891858899917
 30
0.0
 40
7.500001546498892
100
AcDbArc
 50
89.99993896484375
 51
269.9999389648438
  0
ARC
  5
3CD
330
1F
100
AcDbEntity
  8
0-1
  6
Continuous
 62
     2
370
     9
100
AcDbCircle
 10
-27.16259208885407
 20
227.6891858899917
 30
0.0
 40
9.500002152210959
100
AcDbArc
 50
89.99989318847656
 51
269.9998931884766
  0
ARC
  5
3CE
330
1F
100
AcDbEntity
  8
0-1
  6
Continuous
 62
     2
370
     9
100
AcDbCircle
 10
-21.162646525615
 20
239.189273318729
 30
0.0
 40
2.000000025774982
100
AcDbArc
 50
269.999755859375
 51
0.0
  0
ARC
  5
3CF
330
1F
100
AcDbEntity
  8
0-1
  6
Continuous
 62
     2
370
     9
100
AcDbCircle
 10
-21.162646525615
 20
239.189273318729
 30
0.0
 40
4.000000051549963
100
AcDbArc
 50
270.0
 51
0.0
  0
ARC
  5
3D0
330
1F
100
AcDbEntity
  8
0-1
  6
Continuous
 62
     2
370
     9
100
AcDbCircle
 10
-21.162646525615
 20
216.1891726932012
 30
0.0
 40
4.000000051549963
100
AcDbArc
 50
0.0
 51
90.0
  0
ARC
  5
3D1
330
1F
100
AcDbEntity
  8
0-1
  6
Continuous
 62
     2
370
     9
100
AcDbCircle
 10
-21.162646525615
 20
216.1891726932012
 30
0.0
 40
2.000000025774982
100
AcDbArc
 50
0.0
 51
89.99975585937501
  0
ARC
  5
3D2
330
1F
100
AcDbEntity
  8
0-1
  6
Continuous
 62
     2
370
     9
100
AcDbCircle
 10
-36.66253682729359
 20
156.6891867147911
 30
0.0
 40
2.000000025774982
100
AcDbArc
 50
180.0
 51
270.0
  0
ARC
  5
3D3
330
1F
100
AcDbEntity
  8
0-1
  6
Continuous
 62
     2
370
     9
100
AcDbCircle
 10
-36.66253682729359
 20
156.6891867147911
 30
0.0
 40
4.000000051549963
100
AcDbArc
 50
208.9500427246094
 51
270.0
  0
ARC
  5
3D4
330
1F
100
AcDbEntity
  8
0-1
  6
Continuous
 62
     2
370
     9
100
AcDbCircle
 10
-120.6627397279481
 20
335.6890225797088
 30
0.0
 40
2.000000025774982
100
AcDbArc
 50
180.000244140625
 51
270.0
  0
ARC
  5
3D5
330
1F
100
AcDbEntity
  8
0-1
  6
Continuous
 62
     2
370
     9
100
AcDbCircle
 10
-120.6627397279481
 20
335.6890225797088
 30
0.0
 40
4.000000051549963
100
AcDbArc
 50
180.0
 51
241.0447845458984
  0
ARC
  5
3D6
330
1F
100
AcDbEntity
  8
0-1
  6
Continuous
 62
     2
370
     9
100
AcDbCircle
 10
-47.66267209439664
 20
324.6891842403929
 30
0.0
 40
7.000000090212434
100
AcDbArc
 50
0.0001373291015625
 51
90.00000000000001
  0
ARC
  5
3D7
330
1F
100
AcDbEntity
  8
0-1
  6
Continuous
 62
     2
370
     9
100
AcDbCircle
 10
-47.66267209439664
 20
324.6891842403929
 30
0.0
 40
9.000000115987417
100
AcDbArc
 50
0.00006103515625
 51
90.0
  0
ARC
  5
3D8
330
1F
100
AcDbEntity
  8
0-1
  6
Continuous
 62
     2
370
     9
100
AcDbCircle
 10
-49.16271415916657
 20
323.1891050596496
 30
0.0
 40
22.00000144339897
100
AcDbArc
 50
0.0001373291015625
 51
90.00000000000001
  0
ARC
  5
3D9
330
1F
100
AcDbEntity
  8
0-1
  6
Continuous
 62
     2
370
     9
100
AcDbCircle
 10
-49.16271415916657
 20
323.1891050596496
 30
0.0
 40
20.00000025774982
100
AcDbArc
 50
0.0001220703125
 51
90.0
  0
ARC
  5
3DA
330
1F
100
AcDbEntity
  8
0-1
  6
Continuous
 62
     2
370
     9
100
AcDbCircle
 10
-49.16271415916657
 20
323.1891050596496
 30
0.0
 40
32.00000041239971
100
AcDbArc
 50
0.000091552734375
 51
90.0
  0
ARC
  5
3DB
330
1F
100
AcDbEntity
  8
0-1
  6
Continuous
 62
     2
370
     9
100
AcDbCircle
 10
-49.16271415916657
 20
323.1891050596496
 30
0.0
 40
30.00000154649889
100
AcDbArc
 50
0.0001068115234375
 51
90.0
  0
ARC
  5
3DC
330
1F
100
AcDbEntity
  8
0-1
  6
Continuous
 62
     2
370
     9
100
AcDbCircle
 10
230.8372198568808
 20
330.3651073558912
 30
0.0
 40
1.500000019331236
100
AcDbArc
 50
97.12496948242188
 51
180.0
  0
ARC
  5
3DD
330
1F
100
AcDbEntity
  8
0-1
  6
Continuous
 62
     2
370
     9
100
AcDbCircle
 10
230.8372198568808
 20
326.0133337072425
 30
0.0
 40
1.500000019331236
100
AcDbArc
 50
180.0006713867188
 51
262.8750305175781
  0
ARC
  5
3DE
330
1F
100
AcDbEntity
  8
0-1
  6
Continuous
 62
     2
370
     9
100
AcDbCircle
 10
246.8372479000608
 20
305.4340853304477
 30
0.0
 40
1.500000019331236
100
AcDbArc
 50
180.0
 51
259.3805847167969
  0
ARC
  5
3DF
330
1F
100
AcDbEntity
  8
0-1
  6
Continuous
 62
     2
370
     9
100
AcDbCircle
 10
244.8372907896302
 20
351.9595518369935
 30
0.0
 40
1.500000019331236
100
AcDbArc
 50
101.3096771240234
 51
180.0
  0
ARC
  5
3E0
330
1F
100
AcDbEntity
  8
0-1
  6
Continuous
 62
     2
370
     9
100
AcDbCircle
 10
244.8372907896302
 20
345.8105485245989
 30
0.0
 40
1.500000019331236
100
AcDbArc
 50
180.0
 51
225.0002288818359
  0
ARC
  5
3E1
330
1F
100
AcDbEntity
  8
0-1
  6
Continuous
 62
     2
370
     9
100
AcDbCircle
 10
243.8373122344145
 20
342.5679486248945
 30
0.0
 40
1.500000019331236
100
AcDbArc
 50
0.0
 51
45.00022888183593
  0
ARC
  5
3E2
330
1F
100
AcDbEntity
  8
0-1
  6
Continuous
 62
     2
370
     9
100
AcDbCircle
 10
240.3372759432408
 20
338.1031939532307
 30
0.0
 40
5.000000064437454
100
AcDbArc
 50
277.1251220703125
 51
0.0000000000000127
  0
ARC
  5
3E3
330
1F
100
AcDbEntity
  8
0-1
  6
Continuous
 62
     2
370
     9
100
AcDbCircle
 10
243.3372858408336
 20
320.923694507496
 30
0.0
 40
2.000000025774982
100
AcDbArc
 50
0.0
 51
82.87467956542969
  0
ARC
  5
3E4
330
1F
100
AcDbEntity
  8
0-1
  6
Continuous
 62
     2
370
     9
100
AcDbCircle
 10
-303.6627867415144
 20
341.1894613729942
 30
0.0
 40
2.000000025774982
100
AcDbArc
 50
0.0
 51
90.0
  0
ARC
  5
3E5
330
1F
100
AcDbEntity
  8
0-1
  6
Continuous
 62
     2
370
     9
100
AcDbCircle
 10
-303.6627867415144
 20
341.1894613729942
 30
0.0
 40
4.000000051549963
100
AcDbArc
 50
0.0
 51
90.0
  0
ARC
  5
3E6
330
1F
100
AcDbEntity
  8
0-1
  6
Continuous
 62
     2
370
     9
100
AcDbCircle
 10
-303.6627867415144
 20
335.689319507496
 30
0.0
 40
2.000000025774982
100
AcDbArc
 50
270.0
 51
0.0
  0
ARC
  5
3E7
330
1F
100
AcDbEntity
  8
0-1
  6
Continuous
 62
     2
370
     9
100
AcDbCircle
 10
-303.6627867415144
 20
335.689319507496
 30
0.0
 40
4.000000051549963
100
AcDbArc
 50
298.9500427246094
 51
0.0
  0
ARC
  5
3E8
330
1F
100
AcDbEntity
  8
0-1
  6
Continuous
 62
     2
370
     9
100
AcDbCircle
 10
-235.6627603479334
 20
341.1894613729942
 30
0.0
 40
2.000000025774982
100
AcDbArc
 50
90.0
 51
180.0
  0
ARC
  5
3E9
330
1F
100
AcDbEntity
  8
0-1
  6
Continuous
 62
     2
370
     9
100
AcDbCircle
 10
-235.6627603479334
 20
341.1894613729942
 30
0.0
 40
4.000000051549963
100
AcDbArc
 50
90.0
 51
180.0
  0
ARC
  5
3EA
330
1F
100
AcDbEntity
  8
0-1
  6
Continuous
 62
     2
370
     9
100
AcDbCircle
 10
-235.6627603479334
 20
335.689319507496
 30
0.0
 40
2.000000025774982
100
AcDbArc
 50
180.0
 51
270.0
  0
ARC
  5
3EB
330
1F
100
AcDbEntity
  8
0-1
  6
Continuous
 62
     2
370
     9
100
AcDbCircle
 10
-235.6627603479334
 20
335.689319507496
 30
0.0
 40
4.000000051549963
100
AcDbArc
 50
180.0
 51
241.0499572753906
  0
ARC
  5
3EC
330
1F
100
AcDbEntity
  8
0-1
  6
Continuous
 62
     2
370
     9
100
AcDbCircle
 10
-490.1627586983345
 20
-117.8107724576382
 30
0.0
 40
20.00000025774982
100
AcDbArc
 50
180.0001220703125
 51
270.0
  0
ARC
  5
3ED
330
1F
100
AcDbEntity
  8
0-1
  6
Continuous
 62
     2
370
     9
100
AcDbCircle
 10
-490.1627586983345
 20
-117.8107724576382
 30
0.0
 40
22.00000144339897
100
AcDbArc
 50
180.0001373291016
 51
270.0
  0
TEXT
  5
3EE
330
1F
100
AcDbEntity
  8
0-E
  6
Continuous
 62
     7
370
     9
100
AcDbText
 10
381.0237993807408
 20
167.154300095017
 30
0.0
 40
6.858000000000001
  1
ＳＷＲＭ，亜鉛めっき
 41
1.15
  7
ＭＳ ゴシック
100
AcDbText
  0
TEXT
  5
3EF
330
1F
100
AcDbEntity
  8
0-E
  6
Continuous
 62
     7
370
     9
100
AcDbText
 10
109.611464835502
 20
395.704665646115
 30
0.0
 40
6.858000000000001
  1
受枠：ＦＣ２００
 41
1.145833333333333
  7
ＭＳ ゴシック
100
AcDbText
  0
TEXT
  5
3F0
330
1F
100
AcDbEntity
  8
0-E
  6
Continuous
 62
     7
370
     9
100
AcDbText
 10
125.2636642456055
 20
380.5416028029985
 30
0.0
 40
6.858000000000001
  1
樹脂系塗装
 41
1.133333333333333
  7
ＭＳ ゴシック
100
AcDbText
  0
TEXT
  5
3F1
330
1F
100
AcDbEntity
  8
0-E
  6
Continuous
 62
     7
370
     9
100
AcDbText
 10
102.500883153967
 20
-221.2210100295607
 30
0.0
 40
6.858000000000001
  1
樹脂系塗装
 41
1.133333333333333
  7
ＭＳ ゴシック
100
AcDbText
  0
TEXT
  5
3F2
330
1F
100
AcDbEntity
  8
0-E
  6
Continuous
 62
     7
370
     9
100
AcDbText
 10
394.6594681610933
 20
182.2005218538852
 30
0.0
 40
6.858000000000001
  1
鎖：φ５×５００
 41
1.145833333333333
  7
ＭＳ ゴシック
100
AcDbText
  0
TEXT
  5
3F3
330
1F
100
AcDbEntity
  8
0-4
  6
Continuous
 62
     2
370
     9
100
AcDbText
 10
-226.8086310721732
 20
-175.1188248324006
 30
0.0
 40
9.144
  1
18
 41
1.0625
  7
ＭＳ ゴシック
100
AcDbText
  0
TEXT
  5
3F4
330
1F
100
AcDbEntity
  8
0-4
  6
Continuous
 62
     2
370
     9
100
AcDbText
 10
8.145505516136334
 20
96.31415694805276
 30
0.0
 40
9.144
  1
18
 50
90.00000250447867
 41
1.062500000000001
  7
ＭＳ ゴシック
100
AcDbText
  0
TEXT
  5
3F5
330
1F
100
AcDbEntity
  8
0-4
  6
Continuous
 62
     2
370
     9
100
AcDbText
 10
214.9413491326409
 20
146.2648998957455
 30
0.0
 40
9.144
  1
2
  7
ＭＳ ゴシック
100
AcDbText
  0
TEXT
  5
3F6
330
1F
100
AcDbEntity
  8
0-1
  6
Continuous
 62
     7
370
     9
100
AcDbText
 10
-511.8986658589491
 20
149.1891928722802
 30
0.0
 40
6.858000000000001
  1
ＧＣＡ－６・ＧＣＢ
 50
269.9999428540085
 41
1.148148148148148
  7
ＭＳ ゴシック
100
AcDbText
  0
TEXT
  5
3F7
330
1F
100
AcDbEntity
  8
0-1
  6
Continuous
 62
     7
370
     9
100
AcDbText
 10
-26.40914135442051
 20
71.93917552452945
 30
0.0
 40
6.858000000000001
  1
ＫＡＮＥＳＯ
 50
90.00000250447808
 41
1.138888888888886
  7
ＭＳ ゴシック
100
AcDbText
  0
TEXT
  5
3F8
330
1F
100
AcDbEntity
  8
0-1
  6
Continuous
 62
     7
370
     9
100
AcDbText
 10
-254.6627548757978
 20
345.8631754165995
 30
0.0
 40
6.858000000000001
  1
４００
 50
180.0000050089563
 41
1.111111111111109
  7
ＭＳ ゴシック
100
AcDbText
  0
TEXT
  5
3F9
330
1F
100
AcDbEntity
  8
0-0
  6
Continuous
 62
     7
370
     9
100
AcDbText
 10
-56.03169664897276
 20
71.93917552452949
 30
0.0
 40
6.858000000000001
  1
ＫＡＮＥＳＯ
 50
90.00000250447832
 41
1.138888888888886
  7
ＭＳ ゴシック
100
AcDbText
  0
TEXT
  5
3FA
330
1F
100
AcDbEntity
  8
0-4
  6
Continuous
 62
     2
370
     9
100
AcDbText
 10
-151.037781792718
 20
-175.1188248324006
 30
0.0
 40
9.144
  1
15
 41
1.0625
  7
ＭＳ ゴシック
100
AcDbText
  0
TEXT
  5
3FB
330
1F
100
AcDbEntity
  8
0-4
  6
Continuous
 62
     2
370
     9
100
AcDbText
 10
-188.8547977149942
 20
-186.5558866260999
 30
0.0
 40
9.144
  1
17.5
 50
90.000002504478
 41
1.093750000000001
  7
ＭＳ ゴシック
100
AcDbText
  0
TEXT
  5
3FC
330
1F
100
AcDbEntity
  8
0-4
  6
Continuous
 62
     2
370
     9
100
AcDbText
 10
179.6452793735724
 20
324.1891676704449
 30
0.0
 40
9.144
  1
9
 50
90.00000250447522
 41
1.000000000000001
  7
ＭＳ ゴシック
100
AcDbText
  0
TEXT
  5
3FD
330
1F
100
AcDbEntity
  8
0-4
  6
Continuous
 62
     2
370
     9
100
AcDbText
 10
179.6452793735724
 20
-124.8108259373596
 30
0.0
 40
9.144
  1
9
 50
90.00000250447522
 41
0.9999999999999867
  7
ＭＳ ゴシック
100
AcDbText
  0
TEXT
  5
3FE
330
1F
100
AcDbEntity
  8
0-4
  6
Continuous
 62
     2
370
     9
100
AcDbText
 10
234.9622916144292
 20
-205.1188310183962
 30
0.0
 40
9.144
  1
24
 41
1.0625
  7
ＭＳ ゴシック
100
AcDbText
  0
TEXT
  5
3FF
330
1F
100
AcDbEntity
  8
0-4
  6
Continuous
 62
     2
370
     9
100
AcDbText
 10
-279.4128106606973
 20
-205.1188310183962
 30
0.0
 40
9.144
  1
250
 41
1.083333333333333
  7
ＭＳ ゴシック
100
AcDbText
  0
TEXT
  5
400
330
1F
100
AcDbEntity
  8
0-4
  6
Continuous
 62
     2
370
     9
100
AcDbText
 10
-279.4127735447239
 20
-235.1188372043917
 30
0.0
 40
9.144
  1
485
 41
1.083333333333333
  7
ＭＳ ゴシック
100
AcDbText
  0
TEXT
  5
401
330
1F
100
AcDbEntity
  8
0-4
  6
Continuous
 62
     2
370
     9
100
AcDbText
 10
38.14545617569787
 20
92.93915694805273
 30
0.0
 40
9.144
  1
250
 50
90.00000250447822
 41
1.083333333333334
  7
ＭＳ ゴシック
100
AcDbText
  0
TEXT
  5
402
330
1F
100
AcDbEntity
  8
0-4
  6
Continuous
 62
     2
370
     9
100
AcDbText
 10
68.14555515162694
 20
92.93919406402618
 30
0.0
 40
9.144
  1
485
 50
90.00000250447899
 41
1.083333333333334
  7
ＭＳ ゴシック
100
AcDbText
  0
TEXT
  5
403
330
1F
100
AcDbEntity
  8
0-4
  6
Continuous
 62
     2
370
     9
100
AcDbText
 10
-282.7877549867372
 20
-175.1188248324006
 30
0.0
 40
9.144
  1
28.4
 41
1.09375
  7
ＭＳ ゴシック
100
AcDbText
  0
TEXT
  5
404
330
1F
100
AcDbEntity
  8
0-4
  6
Continuous
 62
     2
370
     9
100
AcDbText
 10
8.145505811188295
 20
141.7641547210943
 30
0.0
 40
9.144
  1
86.4
 50
90.00000250447856
 41
1.093750000000001
  7
ＭＳ ゴシック
100
AcDbText
  0
TEXT
  5
405
330
1F
100
AcDbEntity
  8
0-4
  6
Continuous
 62
     2
370
     9
100
AcDbText
 10
149.645255219694
 20
86.18913839006608
 30
0.0
 40
9.144
  1
□505
 50
90.00000250447833
 41
1.100000000000001
  7
ＭＳ ゴシック
100
AcDbText
  0
TEXT
  5
406
330
1F
100
AcDbEntity
  8
0-4
  6
Continuous
 62
     2
370
     9
100
AcDbText
 10
179.6452799636762
 20
86.18913839006605
 30
0.0
 40
9.144
  1
□440
 50
90.00000250447788
 41
1.100000000000001
  7
ＭＳ ゴシック
100
AcDbText
  0
TEXT
  5
407
330
1F
100
AcDbEntity
  8
0-4
  6
Continuous
 62
     2
370
     9
100
AcDbText
 10
338.6452106805257
 20
57.17187038964371
 30
0.0
 40
9.144
  1
□400
 50
90.00000250447788
 41
1.100000000000001
  7
ＭＳ ゴシック
100
AcDbText
  0
TEXT
  5
408
330
1F
100
AcDbEntity
  8
0-4
  6
Continuous
 62
     2
370
     9
100
AcDbText
 10
231.4623295552022
 20
-175.1188248324006
 30
0.0
 40
9.144
  1
15
 41
1.0625
  7
ＭＳ ゴシック
100
AcDbText
  0
TEXT
  5
409
330
1F
100
AcDbEntity
  8
0-4
  6
Continuous
 62
     2
370
     9
100
AcDbText
 10
248.8027638615789
 20
146.2648998957455
 30
0.0
 40
9.144
  1
11
 41
1.0625
  7
ＭＳ ゴシック
100
AcDbText
  0
TEXT
  5
40A
330
1F
100
AcDbEntity
  8
0-0
  6
Continuous
 62
     7
370
     9
100
AcDbText
 10
-483.2937575165047
 20
138.6891928722854
 30
0.0
 40
6.858000000000001
  1
ＧＣＢ－４００
 50
269.9999428540085
 41
1.142857142857143
  7
ＭＳ ゴシック
100
AcDbText
  0
TEXT
  5
40B
330
1F
100
AcDbEntity
  8
0-E
  6
Continuous
 62
     7
370
     9
100
AcDbText
 10
92.90246726371149
 20
-204.0882395943304
 30
0.0
 40
6.858000000000001
  1
蓋：ＦＣ２００
 41
1.142857142857143
  7
ＭＳ ゴシック
100
AcDbText
  0
LWPOLYLINE
  5
40C
330
1F
100
AcDbEntity
  8
0-4
  6
Continuous
 62
     7
370
     9
100
AcDbPolyline
 90
        4
 70
     1
 43
0.3
 10
232.4872248056773
 20
141.5728899981526
 42
0.4142135623731
 10
232.3372248056774
 20
141.7228899981526
 42
0.4142135623731
 10
232.1872248056774
 20
141.5728899981526
 42
0.4142135623731
 10
232.3372248056774
 20
141.4228899981526
 42
0.4142135623731
  0
TEXT
  5
40D
330
1F
100
AcDbEntity
  8
F-5
  6
Continuous
 62
     2
370
     9
100
AcDbText
 10
-203.2501051619245
 20
-404.2404895226635
 30
0.0
 40
9.144
  1
格子型鋳鉄製集水桝蓋　ＧＣＢ－４００
 41
1.118055555555556
  7
ＭＳ ゴシック
100
AcDbText
  0
TEXT
  5
40E
330
1F
100
AcDbEntity
  8
0-E
  6
Continuous
 62
     2
370
     9
100
AcDbText
 10
250.8136607400785
 20
-328.044256313069
 30
0.0
 40
9.144
  1
標準質量：２０ｋｇ
 41
1.111111111111111
  7
ＭＳ ゴシック
100
AcDbText
  0
ENDSEC
  0
SECTION
  2
OBJECTS
  0
DICTIONARY
  5
C
330
0
100
AcDbDictionary
281
     1
  3
ACAD_GROUP
350
D
  3
ACAD_LAYOUT
350
1A
  3
ACAD_MLEADERSTYLE
350
410
  3
ACAD_MLINESTYLE
350
17
  3
ACAD_PLOTSETTINGS
350
19
  3
ACAD_PLOTSTYLENAME
350
E
  3
ACAD_TABLESTYLE
350
40F
  3
ACAD_VISUALSTYLE
350
2A
  0
DICTIONARY
  5
D
102
{ACAD_REACTORS
330
C
102
}
330
C
100
AcDbDictionary
281
     1
  0
DICTIONARY
  5
1A
102
{ACAD_REACTORS
330
C
102
}
330
C
100
AcDbDictionary
281
     1
  3
Layout1
350
1E
  3
Layout2
350
26
  3
Model
350
22
  0
DICTIONARY
  5
410
102
{ACAD_REACTORS
330
C
102
}
330
C
100
AcDbDictionary
281
     1
  0
DICTIONARY
  5
17
102
{ACAD_REACTORS
330
C
102
}
330
C
100
AcDbDictionary
281
     1
  3
Standard
350
18
  0
DICTIONARY
  5
19
102
{ACAD_REACTORS
330
C
102
}
330
C
100
AcDbDictionary
281
     1
  0
ACDBDICTIONARYWDFLT
  5
E
102
{ACAD_REACTORS
330
C
102
}
330
C
100
AcDbDictionary
281
     1
  3
Normal
350
F
100
AcDbDictionaryWithDefault
340
F
  0
DICTIONARY
  5
40F
102
{ACAD_REACTORS
330
C
102
}
330
C
100
AcDbDictionary
281
     1
  0
DICTIONARY
  5
2A
102
{ACAD_REACTORS
330
C
102
}
330
C
100
AcDbDictionary
281
     1
  3
2dWireframe
350
2F
  3
3D Hidden
350
31
  3
3dWireframe
350
30
  3
Basic
350
32
  3
Brighten
350
36
  3
ColorChange
350
3A
  3
Conceptual
350
34
  3
Dim
350
35
  3
Facepattern
350
39
  3
Flat
350
2B
  3
FlatWithEdges
350
2C
  3
Gouraud
350
2D
  3
GouraudWithEdges
350
2E
  3
Linepattern
350
38
  3
Realistic
350
33
  3
Thicken
350
37
  0
LAYOUT
  5
1E
102
{ACAD_REACTORS
330
1A
102
}
330
1A
100
AcDbPlotSettings
  1

  2
none_device
  4

  6

 40
0.0
 41
0.0
 42
0.0
 43
0.0
 44
0.0
 45
0.0
 46
0.0
 47
0.0
 48
0.0
 49
0.0
140
0.0
141
0.0
142
1.0
143
1.0
 70
   688
 72
     0
 73
     0
 74
     5
  7

 75
    16
 76
     0
 77
     5
 78
   300
147
1.0
148
0.0
149
0.0
100
AcDbLayout
  1
Layout1
 70
     1
 71
     1
 10
0.0
 20
0.0
 11
420.0
 21
297.0
 12
0.0
 22
0.0
 32
0.0
 14
1.000000000000000E+20
 24
1.000000000000000E+20
 34
1.000000000000000E+20
 15
-1.000000000000000E+20
 25
-1.000000000000000E+20
 35
-1.000000000000000E+20
146
0.0
 13
0.0
 23
0.0
 33
0.0
 16
1.0
 26
0.0
 36
0.0
 17
0.0
 27
1.0
 37
0.0
 76
     0
330
1B
  0
LAYOUT
  5
26
102
{ACAD_REACTORS
330
1A
102
}
330
1A
100
AcDbPlotSettings
  1

  2
none_device
  4

  6

 40
0.0
 41
0.0
 42
0.0
 43
0.0
 44
0.0
 45
0.0
 46
0.0
 47
0.0
 48
0.0
 49
0.0
140
0.0
141
0.0
142
1.0
143
1.0
 70
   688
 72
     0
 73
     0
 74
     5
  7

 75
    16
 76
     0
 77
     5
 78
   300
147
1.0
148
0.0
149
0.0
100
AcDbLayout
  1
Layout2
 70
     1
 71
     2
 10
0.0
 20
0.0
 11
0.0
 21
0.0
 12
0.0
 22
0.0
 32
0.0
 14
0.0
 24
0.0
 34
0.0
 15
0.0
 25
0.0
 35
0.0
146
0.0
 13
0.0
 23
0.0
 33
0.0
 16
1.0
 26
0.0
 36
0.0
 17
0.0
 27
1.0
 37
0.0
 76
     0
330
23
  0
LAYOUT
  5
22
102
{ACAD_REACTORS
330
1A
102
}
330
1A
100
AcDbPlotSettings
  1

  2
none_device
  4

  6

 40
0.0
 41
0.0
 42
0.0
 43
0.0
 44
0.0
 45
0.0
 46
0.0
 47
0.0
 48
0.0
 49
0.0
140
0.0
141
0.0
142
1.0
143
1.0
 70
  1712
 72
     0
 73
     0
 74
     0
  7

 75
     0
 76
     0
 77
     5
 78
   300
147
1.0
148
0.0
149
0.0
100
AcDbLayout
  1
Model
 70
     1
 71
     0
 10
-630.0
 20
-445.5
 11
630.0
 21
445.5
 12
0.0
 22
0.0
 32
0.0
 14
-630.0
 24
-445.5
 34
0.0
 15
630.0
 25
445.5
 35
0.0
146
0.0
 13
0.0
 23
0.0
 33
0.0
 16
1.0
 26
0.0
 36
0.0
 17
0.0
 27
1.0
 37
0.0
 76
     0
330
1F
331
29
  0
MLINESTYLE
  5
18
102
{ACAD_REACTORS
330
17
102
}
330
17
100
AcDbMlineStyle
  2
Standard
 70
     0
  3

 62
   256
 51
90.0
 52
90.0
 71
     2
 49
0.5
 62
   256
  6
BYLAYER
 49
-0.5
 62
   256
  6
BYLAYER
  0
ACDBPLACEHOLDER
  5
F
102
{ACAD_REACTORS
330
E
102
}
330
E
  0
VISUALSTYLE
  5
2F
102
{ACAD_REACTORS
330
2A
102
}
330
2A
100
AcDbVisualStyle
  2
2dWireframe
 70
     4
 71
     0
 72
     2
 73
     0
 90
        0
 40
-0.6
 41
-30.0
 62
     5
 63
     7
421
 16777215
 74
     1
 91
        4
 64
     7
 65
   257
 75
     1
175
     1
 42
1.0
 92
        0
 66
   257
 43
1.0
 76
     1
 77
     6
 78
     2
 67
     7
 79
     5
170
     0
171
     0
290
     0
174
     0
 93
        1
 44
0.0
173
     0
291
     0
 45
0.0
1001
ACAD
1000
AcDbSavedByObjectVersion
1070
     0
  0
VISUALSTYLE
  5
31
102
{ACAD_REACTORS
330
2A
102
}
330
2A
100
AcDbVisualStyle
  2
3D Hidden
 70
     6
 71
     1
 72
     2
 73
     2
 90
        0
 40
-0.6
 41
-30.0
 62
     5
 63
     7
421
 16777215
 74
     2
 91
        2
 64
     7
 65
   257
 75
     2
175
     1
 42
40.0
 92
        0
 66
   257
 43
1.0
 76
     1
 77
     6
 78
     2
 67
     7
 79
     3
170
     0
171
     0
290
     0
174
     0
 93
        1
 44
0.0
173
     0
291
     0
 45
0.0
1001
ACAD
1000
AcDbSavedByObjectVersion
1070
     0
  0
VISUALSTYLE
  5
30
102
{ACAD_REACTORS
330
2A
102
}
330
2A
100
AcDbVisualStyle
  2
3dWireframe
 70
     5
 71
     0
 72
     2
 73
     0
 90
        0
 40
-0.6
 41
-30.0
 62
     5
 63
     7
421
 16777215
 74
     1
 91
        4
 64
     7
 65
   257
 75
     1
175
     1
 42
1.0
 92
        0
 66
   257
 43
1.0
 76
     1
 77
     6
 78
     2
 67
     7
 79
     5
170
     0
171
     0
290
     0
174
     0
 93
        1
 44
0.0
173
     0
291
     0
 45
0.0
1001
ACAD
1000
AcDbSavedByObjectVersion
1070
     0
  0
VISUALSTYLE
  5
32
102
{ACAD_REACTORS
330
2A
102
}
330
2A
100
AcDbVisualStyle
  2
Basic
 70
     7
 71
     1
 72
     0
 73
     1
 90
        0
 40
-0.6
 41
-30.0
 62
     5
 63
     7
421
 16777215
 74
     0
 91
        4
 64
     7
 65
   257
 75
     1
175
     1
 42
1.0
 92
        8
 66
     7
 43
1.0
 76
     1
 77
     6
 78
     2
 67
     7
 79
     5
170
     0
171
     0
290
     0
174
     0
 93
        1
 44
0.0
173
     0
291
     1
 45
0.0
1001
ACAD
1000
AcDbSavedByObjectVersion
1070
     0
  0
VISUALSTYLE
  5
36
102
{ACAD_REACTORS
330
2A
102
}
330
2A
100
AcDbVisualStyle
  2
Brighten
 70
    12
 71
     2
 72
     2
 73
     0
 90
        0
 40
-0.6
 41
-30.0
 62
     5
 63
     7
421
 16777215
 74
     1
 91
        4
 64
     7
 65
   257
 75
     1
175
     1
 42
1.0
 92
        8
 66
     7
 43
1.0
 76
     1
 77
     6
 78
     2
 67
     7
 79
     5
170
     0
171
     0
290
     0
174
     0
 93
        1
 44
50.0
173
     0
291
     1
 45
0.0
1001
ACAD
1000
AcDbSavedByObjectVersion
1070
     0
  0
VISUALSTYLE
  5
3A
102
{ACAD_REACTORS
330
2A
102
}
330
2A
100
AcDbVisualStyle
  2
ColorChange
 70
    16
 71
     2
 72
     2
 73
     3
 90
        0
 40
-0.6
 41
-30.0
 62
     5
 63
     8
421
  8421504
 74
     1
 91
        4
 64
     7
 65
   257
 75
     1
175
     1
 42
1.0
 92
        8
 66
     8
424
  8421504
 43
1.0
 76
     1
 77
     6
 78
     2
 67
     7
 79
     5
170
     0
171
     0
290
     0
174
     0
 93
        1
 44
0.0
173
     0
291
     1
 45
0.0
1001
ACAD
1000
AcDbSavedByObjectVersion
1070
     0
  0
VISUALSTYLE
  5
34
102
{ACAD_REACTORS
330
2A
102
}
330
2A
100
AcDbVisualStyle
  2
Conceptual
 70
     9
 71
     3
 72
     2
 73
     0
 90
        0
 40
-0.6
 41
-30.0
 62
     5
 63
     7
421
 16777215
 74
     2
 91
        2
 64
     7
 65
   257
 75
     1
175
     1
 42
40.0
 92
        8
 66
     7
 43
1.0
 76
     1
 77
     6
 78
     2
 67
     7
 79
     3
170
     0
171
     0
290
     0
174
     0
 93
        1
 44
0.0
173
     0
291
     0
 45
0.0
1001
ACAD
1000
AcDbSavedByObjectVersion
1070
     0
  0
VISUALSTYLE
  5
35
102
{ACAD_REACTORS
330
2A
102
}
330
2A
100
AcDbVisualStyle
  2
Dim
 70
    11
 71
     2
 72
     2
 73
     0
 90
        0
 40
-0.6
 41
-30.0
 62
     5
 63
     7
421
 16777215
 74
     1
 91
        4
 64
     7
 65
   257
 75
     1
175
     1
 42
1.0
 92
        8
 66
     7
 43
1.0
 76
     1
 77
     6
 78
     2
 67
     7
 79
     5
170
     0
171
     0
290
     0
174
     0
 93
        1
 44
-50.0
173
     0
291
     1
 45
0.0
1001
ACAD
1000
AcDbSavedByObjectVersion
1070
     0
  0
VISUALSTYLE
  5
39
102
{ACAD_REACTORS
330
2A
102
}
330
2A
100
AcDbVisualStyle
  2
Facepattern
 70
    15
 71
     2
 72
     2
 73
     0
 90
        0
 40
-0.6
 41
-30.0
 62
     5
 63
     7
421
 16777215
 74
     1
 91
        4
 64
     7
 65
   257
 75
     1
175
     1
 42
1.0
 92
        8
 66
     7
 43
1.0
 76
     1
 77
     6
 78
     2
 67
     7
 79
     5
170
     0
171
     0
290
     0
174
     0
 93
        1
 44
0.0
173
     0
291
     1
 45
0.0
1001
ACAD
1000
AcDbSavedByObjectVersion
1070
     0
  0
VISUALSTYLE
  5
2B
102
{ACAD_REACTORS
330
2A
102
}
330
2A
100
AcDbVisualStyle
  2
Flat
 70
     0
 71
     2
 72
     1
 73
     1
 90
        2
 40
-0.6
 41
30.0
 62
     5
 63
     7
421
 16777215
 74
     0
 91
        4
 64
     7
 65
   257
 75
     1
175
     1
 42
1.0
 92
        8
 66
     7
 43
1.0
 76
     1
 77
     6
 78
     2
 67
     7
 79
     5
170
     0
171
     0
290
     0
174
     0
 93
       13
 44
0.0
173
     0
291
     1
 45
0.0
1001
ACAD
1000
AcDbSavedByObjectVersion
1070
     0
  0
VISUALSTYLE
  5
2C
102
{ACAD_REACTORS
330
2A
102
}
330
2A
100
AcDbVisualStyle
  2
FlatWithEdges
 70
     1
 71
     2
 72
     1
 73
     1
 90
        2
 40
-0.6
 41
30.0
 62
     5
 63
     7
421
 16777215
 74
     1
 91
        4
 64
     7
 65
   257
 75
     1
175
     1
 42
1.0
 92
        0
 66
   257
 43
1.0
 76
     1
 77
     6
 78
     2
 67
     7
 79
     5
170
     0
171
     0
290
     0
174
     0
 93
       13
 44
0.0
173
     0
291
     1
 45
0.0
1001
ACAD
1000
AcDbSavedByObjectVersion
1070
     0
  0
VISUALSTYLE
  5
2D
102
{ACAD_REACTORS
330
2A
102
}
330
2A
100
AcDbVisualStyle
  2
Gouraud
 70
     2
 71
     2
 72
     2
 73
     1
 90
        2
 40
-0.6
 41
30.0
 62
     5
 63
     7
421
 16777215
 74
     0
 91
        4
 64
     7
 65
   257
 75
     1
175
     1
 42
1.0
 92
        0
 66
     7
 43
1.0
 76
     1
 77
     6
 78
     2
 67
     7
 79
     5
170
     0
171
     0
290
     0
174
     0
 93
       13
 44
0.0
173
     0
291
     1
 45
0.0
1001
ACAD
1000
AcDbSavedByObjectVersion
1070
     0
  0
VISUALSTYLE
  5
2E
102
{ACAD_REACTORS
330
2A
102
}
330
2A
100
AcDbVisualStyle
  2
GouraudWithEdges
 70
     3
 71
     2
 72
     2
 73
     1
 90
        2
 40
-0.6
 41
30.0
 62
     5
 63
     7
421
 16777215
 74
     1
 91
        4
 64
     7
 65
   257
 75
     1
175
     1
 42
1.0
 92
        0
 66
   257
 43
1.0
 76
     1
 77
     6
 78
     2
 67
     7
 79
     5
170
     0
171
     0
290
     0
174
     0
 93
       13
 44
0.0
173
     0
291
     1
 45
0.0
1001
ACAD
1000
AcDbSavedByObjectVersion
1070
     0
  0
VISUALSTYLE
  5
38
102
{ACAD_REACTORS
330
2A
102
}
330
2A
100
AcDbVisualStyle
  2
Linepattern
 70
    14
 71
     2
 72
     2
 73
     0
 90
        0
 40
-0.6
 41
-30.0
 62
     5
 63
     7
421
 16777215
 74
     1
 91
        4
 64
     7
 65
   257
 75
     7
175
     7
 42
1.0
 92
        8
 66
     7
 43
1.0
 76
     1
 77
     6
 78
     2
 67
     7
 79
     5
170
     0
171
     0
290
     0
174
     0
 93
        1
 44
0.0
173
     0
291
     1
 45
0.0
1001
ACAD
1000
AcDbSavedByObjectVersion
1070
     0
  0
VISUALSTYLE
  5
33
102
{ACAD_REACTORS
330
2A
102
}
330
2A
100
AcDbVisualStyle
  2
Realistic
 70
     8
 71
     2
 72
     2
 73
     0
 90
        0
 40
-0.6
 41
-30.0
 62
     5
 63
     7
421
 16777215
 74
     1
 91
        0
 64
     7
 65
   257
 75
     1
175
     1
 42
1.0
 92
        8
 66
     8
424
  7895160
 43
1.0
 76
     1
 77
     6
 78
     2
 67
     7
 79
     5
170
     0
171
     0
290
     0
174
     0
 93
       13
 44
0.0
173
     0
291
     0
 45
0.0
1001
ACAD
1000
AcDbSavedByObjectVersion
1070
     0
  0
VISUALSTYLE
  5
37
102
{ACAD_REACTORS
330
2A
102
}
330
2A
100
AcDbVisualStyle
  2
Thicken
 70
    13
 71
     2
 72
     2
 73
     0
 90
        0
 40
-0.6
 41
-30.0
 62
     5
 63
     7
421
 16777215
 74
     1
 91
        4
 64
     7
 65
   257
 75
     1
175
     1
 42
1.0
 92
       12
 66
     7
 43
1.0
 76
     1
 77
     6
 78
     2
 67
     7
 79
     5
170
     0
171
     0
290
     0
174
     0
 93
        1
 44
0.0
173
     0
291
     1
 45
0.0
1001
ACAD
1000
AcDbSavedByObjectVersion
1070
     0
  0
ENDSEC
  0
EOF
