  0
SECTION
  2
HEADER
  9
$ACADVER
  1
AC1018
  9
$ACADMAINTVER
 70
     0
  9
$DWGCODEPAGE
  3
ANSI_932
  9
$INSBASE
 10
0.0
 20
0.0
 30
0.0
  9
$EXTMIN
 10
-630.0
 20
-445.5
 30
0.0
  9
$EXTMAX
 10
630.0
 20
445.5
 30
0.0
  9
$LIMMIN
 10
-630.0
 20
-445.5
  9
$LIMMAX
 10
630.0
 20
445.5
  9
$ORTHOMODE
 70
     0
  9
$REGENMODE
 70
     1
  9
$FILLMODE
 70
     1
  9
$QTEXTMODE
 70
     0
  9
$MIRRTEXT
 70
     1
  9
$LTSCALE
 40
3.0
  9
$ATTMODE
 70
     1
  9
$TEXTSIZE
 40
2.5
  9
$TRACEWID
 40
1.0
  9
$TEXTSTYLE
  7
Standard
  9
$CLAYER
  8
0
  9
$CELTYPE
  6
ByLayer
  9
$CECOLOR
 62
   256
  9
$CELTSCALE
 40
1.0
  9
$DISPSILH
 70
     0
  9
$DIMSCALE
 40
1.0
  9
$DIMASZ
 40
2.5
  9
$DIMEXO
 40
0.625
  9
$DIMDLI
 40
3.75
  9
$DIMRND
 40
0.0
  9
$DIMDLE
 40
0.0
  9
$DIMEXE
 40
1.25
  9
$DIMTP
 40
0.0
  9
$DIMTM
 40
0.0
  9
$DIMTXT
 40
2.5
  9
$DIMCEN
 40
2.5
  9
$DIMTSZ
 40
0.0
  9
$DIMTOL
 70
     0
  9
$DIMLIM
 70
     0
  9
$DIMTIH
 70
     0
  9
$DIMTOH
 70
     0
  9
$DIMSE1
 70
     0
  9
$DIMSE2
 70
     0
  9
$DIMTAD
 70
     1
  9
$DIMZIN
 70
     8
  9
$DIMBLK
  1

  9
$DIMASO
 70
     1
  9
$DIMSHO
 70
     1
  9
$DIMPOST
  1

  9
$DIMAPOST
  1

  9
$DIMALT
 70
     0
  9
$DIMALTD
 70
     3
  9
$DIMALTF
 40
0.03937007874016
  9
$DIMLFAC
 40
1.0
  9
$DIMTOFL
 70
     1
  9
$DIMTVP
 40
0.0
  9
$DIMTIX
 70
     0
  9
$DIMSOXD
 70
     0
  9
$DIMSAH
 70
     0
  9
$DIMBLK1
  1

  9
$DIMBLK2
  1

  9
$DIMSTYLE
  2
ISO-25
  9
$DIMCLRD
 70
     0
  9
$DIMCLRE
 70
     0
  9
$DIMCLRT
 70
     0
  9
$DIMTFAC
 40
1.0
  9
$DIMGAP
 40
0.625
  9
$DIMJUST
 70
     0
  9
$DIMSD1
 70
     0
  9
$DIMSD2
 70
     0
  9
$DIMTOLJ
 70
     0
  9
$DIMTZIN
 70
     8
  9
$DIMALTZ
 70
     0
  9
$DIMALTTZ
 70
     0
  9
$DIMUPT
 70
     0
  9
$DIMDEC
 70
     2
  9
$DIMTDEC
 70
     2
  9
$DIMALTU
 70
     2
  9
$DIMALTTD
 70
     3
  9
$DIMTXSTY
  7
Standard
  9
$DIMAUNIT
 70
     0
  9
$DIMADEC
 70
     0
  9
$DIMALTRND
 40
0.0
  9
$DIMAZIN
 70
     0
  9
$DIMDSEP
 70
    44
  9
$DIMATFIT
 70
     3
  9
$DIMFRAC
 70
     0
  9
$DIMLDRBLK
  1

  9
$DIMLUNIT
 70
     2
  9
$DIMLWD
 70
    -2
  9
$DIMLWE
 70
    -2
  9
$DIMTMOVE
 70
     0
  9
$LUNITS
 70
     2
  9
$LUPREC
 70
     4
  9
$SKETCHINC
 40
1.0
  9
$FILLETRAD
 40
10.0
  9
$AUNITS
 70
     0
  9
$AUPREC
 70
     0
  9
$MENU
  1
.
  9
$ELEVATION
 40
0.0
  9
$PELEVATION
 40
0.0
  9
$THICKNESS
 40
0.0
  9
$LIMCHECK
 70
     0
  9
$CHAMFERA
 40
10.0
  9
$CHAMFERB
 40
10.0
  9
$CHAMFERC
 40
20.0
  9
$CHAMFERD
 40
0.0
  9
$SKPOLY
 70
     0
  9
$TDCREATE
 40
2457983.396882812
  9
$TDUCREATE
 40
2457983.021882812
  9
$TDUPDATE
 40
2457983.396882824
  9
$TDUUPDATE
 40
2457983.021882824
  9
$TDINDWG
 40
0.0000000116
  9
$TDUSRTIMER
 40
0.0000000116
  9
$USRTIMER
 70
     1
  9
$ANGBASE
 50
0.0
  9
$ANGDIR
 70
     0
  9
$PDMODE
 70
     0
  9
$PDSIZE
 40
0.0
  9
$PLINEWID
 40
0.0
  9
$SPLFRAME
 70
     0
  9
$SPLINETYPE
 70
     6
  9
$SPLINESEGS
 70
     8
  9
$HANDSEED
  5
23A
  9
$SURFTAB1
 70
     6
  9
$SURFTAB2
 70
     6
  9
$SURFTYPE
 70
     6
  9
$SURFU
 70
     6
  9
$SURFV
 70
     6
  9
$UCSBASE
  2

  9
$UCSNAME
  2

  9
$UCSORG
 10
0.0
 20
0.0
 30
0.0
  9
$UCSXDIR
 10
1.0
 20
0.0
 30
0.0
  9
$UCSYDIR
 10
0.0
 20
1.0
 30
0.0
  9
$UCSORTHOREF
  2

  9
$UCSORTHOVIEW
 70
     0
  9
$UCSORGTOP
 10
0.0
 20
0.0
 30
0.0
  9
$UCSORGBOTTOM
 10
0.0
 20
0.0
 30
0.0
  9
$UCSORGLEFT
 10
0.0
 20
0.0
 30
0.0
  9
$UCSORGRIGHT
 10
0.0
 20
0.0
 30
0.0
  9
$UCSORGFRONT
 10
0.0
 20
0.0
 30
0.0
  9
$UCSORGBACK
 10
0.0
 20
0.0
 30
0.0
  9
$PUCSBASE
  2

  9
$PUCSNAME
  2

  9
$PUCSORG
 10
0.0
 20
0.0
 30
0.0
  9
$PUCSXDIR
 10
1.0
 20
0.0
 30
0.0
  9
$PUCSYDIR
 10
0.0
 20
1.0
 30
0.0
  9
$PUCSORTHOREF
  2

  9
$PUCSORTHOVIEW
 70
     0
  9
$PUCSORGTOP
 10
0.0
 20
0.0
 30
0.0
  9
$PUCSORGBOTTOM
 10
0.0
 20
0.0
 30
0.0
  9
$PUCSORGLEFT
 10
0.0
 20
0.0
 30
0.0
  9
$PUCSORGRIGHT
 10
0.0
 20
0.0
 30
0.0
  9
$PUCSORGFRONT
 10
0.0
 20
0.0
 30
0.0
  9
$PUCSORGBACK
 10
0.0
 20
0.0
 30
0.0
  9
$USERI1
 70
     0
  9
$USERI2
 70
     0
  9
$USERI3
 70
     0
  9
$USERI4
 70
     0
  9
$USERI5
 70
     0
  9
$USERR1
 40
0.0
  9
$USERR2
 40
0.0
  9
$USERR3
 40
0.0
  9
$USERR4
 40
0.0
  9
$USERR5
 40
0.0
  9
$WORLDVIEW
 70
     1
  9
$SHADEDGE
 70
     3
  9
$SHADEDIF
 70
    70
  9
$TILEMODE
 70
     1
  9
$MAXACTVP
 70
    64
  9
$PINSBASE
 10
0.0
 20
0.0
 30
0.0
  9
$PLIMCHECK
 70
     0
  9
$PEXTMIN
 10
1.000000000000000E+20
 20
1.000000000000000E+20
 30
1.000000000000000E+20
  9
$PEXTMAX
 10
-1.000000000000000E+20
 20
-1.000000000000000E+20
 30
-1.000000000000000E+20
  9
$PLIMMIN
 10
0.0
 20
0.0
  9
$PLIMMAX
 10
420.0
 20
297.0
  9
$UNITMODE
 70
     0
  9
$VISRETAIN
 70
     1
  9
$PLINEGEN
 70
     0
  9
$PSLTSCALE
 70
     1
  9
$TREEDEPTH
 70
  3020
  9
$CMLSTYLE
  2
Standard
  9
$CMLJUST
 70
     0
  9
$CMLSCALE
 40
20.0
  9
$PROXYGRAPHICS
 70
     1
  9
$MEASUREMENT
 70
     1
  9
$CELWEIGHT
370
    -1
  9
$ENDCAPS
280
     0
  9
$JOINSTYLE
280
     0
  9
$LWDISPLAY
290
     0
  9
$INSUNITS
 70
     4
  9
$HYPERLINKBASE
  1

  9
$STYLESHEET
  1

  9
$XEDIT
290
     1
  9
$CEPSNTYPE
380
     0
  9
$PSTYLEMODE
290
     1
  9
$FINGERPRINTGUID
  2
{04E55945-30D0-4C3C-B71D-CA233C02A2DF}
  9
$VERSIONGUID
  2
{FAEB1C32-E019-11D5-929B-00C0DF256EC4}
  9
$EXTNAMES
290
     1
  9
$PSVPSCALE
 40
0.0
  9
$OLESTARTUP
290
     0
  9
$SORTENTS
280
   127
  9
$INDEXCTL
280
     0
  9
$HIDETEXT
280
     1
  9
$XCLIPFRAME
290
     0
  9
$HALOGAP
280
     0
  9
$OBSCOLOR
 70
   257
  9
$OBSLTYPE
280
     0
  9
$INTERSECTIONDISPLAY
280
     0
  9
$INTERSECTIONCOLOR
 70
   257
  9
$DIMASSOC
280
     2
  9
$PROJECTNAME
  1

  0
ENDSEC
  0
SECTION
  2
CLASSES
  0
CLASS
  1
ACDBDICTIONARYWDFLT
  2
AcDbDictionaryWithDefault
  3
ObjectDBX Classes
 90
        0
 91
        4
280
     0
281
     0
  0
CLASS
  1
VISUALSTYLE
  2
AcDbVisualStyle
  3
ObjectDBX Classes
 90
     4095
 91
        4
280
     0
281
     0
  0
ENDSEC
  0
SECTION
  2
TABLES
  0
TABLE
  2
VPORT
  5
8
330
0
100
AcDbSymbolTable
 70
     1
  0
VPORT
  5
29
330
8
100
AcDbSymbolTableRecord
100
AcDbViewportTableRecord
  2
*Active
 70
     0
 10
0.0
 20
0.0
 11
1.0
 21
1.0
 12
0.0
 22
0.0
 13
0.0
 23
0.0
 14
10.0
 24
10.0
 15
10.0
 25
10.0
 16
0.0
 26
0.0
 36
1.0
 17
0.0
 27
0.0
 37
0.0
 40
980.1
 41
1.414141414141414
 42
50.0
 43
0.0
 44
0.0
 50
0.0
 51
0.0
 71
     0
 72
 10000
 73
     1
 74
     3
 75
     0
 76
     0
 77
     0
 78
     0
281
     0
 65
     1
110
0.0
120
0.0
130
0.0
111
1.0
121
0.0
131
0.0
112
0.0
122
1.0
132
0.0
 79
     0
146
0.0
  0
ENDTAB
  0
TABLE
  2
LTYPE
  5
5
330
0
100
AcDbSymbolTable
 70
     3
  0
LTYPE
  5
14
330
5
100
AcDbSymbolTableRecord
100
AcDbLinetypeTableRecord
  2
ByBlock
 70
     0
  3

 72
    65
 73
     0
 40
0.0
  0
LTYPE
  5
15
330
5
100
AcDbSymbolTableRecord
100
AcDbLinetypeTableRecord
  2
ByLayer
 70
     0
  3

 72
    65
 73
     0
 40
0.0
  0
LTYPE
  5
16
330
5
100
AcDbSymbolTableRecord
100
AcDbLinetypeTableRecord
  2
Continuous
 70
     0
  3
Solid line
 72
    65
 73
     0
 40
0.0
  0
LTYPE
  5
3D
330
5
100
AcDbSymbolTableRecord
100
AcDbLinetypeTableRecord
  2
JWW_CENTER1
 70
     0
  3
-----  --  ----------  --  -----
 72
    65
 73
     4
 40
6.773333333333333
 49
4.233333333333333
 74
     0
 49
-0.8466666666666667
 74
     0
 49
0.8466666666666667
 74
     0
 49
-0.8466666666666667
 74
     0
  0
LTYPE
  5
3E
330
5
100
AcDbSymbolTableRecord
100
AcDbLinetypeTableRecord
  2
JWW_DASHED1
 70
     0
  3
-  --  --  --  --  --  --  --  -
 72
    65
 73
     2
 40
1.693333333333333
 49
0.8466666666666667
 74
     0
 49
-0.8466666666666667
 74
     0
  0
ENDTAB
  0
TABLE
  2
LAYER
  5
2
330
0
100
AcDbSymbolTable
 70
     8
  0
LAYER
  5
10
330
2
100
AcDbSymbolTableRecord
100
AcDbLayerTableRecord
  2
0
 70
     0
 62
     7
  6
Continuous
370
    -3
390
F
  0
LAYER
  5
3F
330
2
100
AcDbSymbolTableRecord
100
AcDbLayerTableRecord
  2
F-0ﾚｲﾔ
 70
     0
 62
     7
  6
Continuous
370
    -3
390
F
  0
LAYER
  5
40
330
2
100
AcDbSymbolTableRecord
100
AcDbLayerTableRecord
  2
F-4ﾚｲﾔ
 70
     0
 62
     7
  6
Continuous
370
    -3
390
F
  0
LAYER
  5
41
330
2
100
AcDbSymbolTableRecord
100
AcDbLayerTableRecord
  2
F-5ﾚｲﾔ
 70
     0
 62
     7
  6
Continuous
370
    -3
390
F
  0
LAYER
  5
42
330
2
100
AcDbSymbolTableRecord
100
AcDbLayerTableRecord
  2
0-2_本体（蓋）
 70
     0
 62
     7
  6
Continuous
370
    -3
390
F
  0
LAYER
  5
43
330
2
100
AcDbSymbolTableRecord
100
AcDbLayerTableRecord
  2
0-1_ピット
 70
     0
 62
     7
  6
Continuous
370
    -3
390
F
  0
LAYER
  5
44
330
2
100
AcDbSymbolTableRecord
100
AcDbLayerTableRecord
  2
0-4_寸法
 70
     0
 62
     7
  6
Continuous
370
    -3
390
F
  0
LAYER
  5
45
330
2
100
AcDbSymbolTableRecord
100
AcDbLayerTableRecord
  2
0-E
 70
     0
 62
     7
  6
Continuous
370
    -3
390
F
  0
ENDTAB
  0
TABLE
  2
STYLE
  5
3
330
0
100
AcDbSymbolTable
 70
     3
  0
STYLE
  5
11
330
3
100
AcDbSymbolTableRecord
100
AcDbTextStyleTableRecord
  2
Standard
 70
     0
 40
0.0
 41
1.0
 50
0.0
 71
     0
 42
2.5
  3
txt
  4

1001
ACAD
1000

1071
        0
  0
STYLE
  5
3B
330
3
100
AcDbSymbolTableRecord
100
AcDbTextStyleTableRecord
  2
ＭＳ ゴシック
 70
     0
 40
1.0
 41
1.0
 50
0.0
 71
     0
 42
10.0
  3

  4

1001
ACAD
1000
MS Gothic
1071
    32817
  0
STYLE
  5
3C
330
3
100
AcDbSymbolTableRecord
100
AcDbTextStyleTableRecord
  2
ＤＦＰ平成丸ゴシック体W4
 70
     0
 40
1.0
 41
1.0
 50
0.0
 71
     0
 42
10.0
  3

  4

1001
ACAD
1000
ＤＦＰ平成丸ゴシック体W4
1071
    32818
  0
ENDTAB
  0
TABLE
  2
VIEW
  5
6
330
0
100
AcDbSymbolTable
 70
     0
  0
ENDTAB
  0
TABLE
  2
UCS
  5
7
330
0
100
AcDbSymbolTable
 70
     0
  0
ENDTAB
  0
TABLE
  2
APPID
  5
9
330
0
100
AcDbSymbolTable
 70
     1
  0
APPID
  5
12
330
9
100
AcDbSymbolTableRecord
100
AcDbRegAppTableRecord
  2
ACAD
 70
     0
  0
ENDTAB
  0
TABLE
  2
DIMSTYLE
  5
A
330
0
100
AcDbSymbolTable
 70
     1
100
AcDbDimStyleTable
  0
DIMSTYLE
105
27
330
A
100
AcDbSymbolTableRecord
100
AcDbDimStyleTableRecord
  2
ISO-25
 70
     0
 41
2.5
 42
0.625
 43
3.75
 44
1.25
 73
     0
 74
     0
 77
     1
 78
     8
140
2.5
141
2.5
143
0.03937007874016
147
0.625
171
     3
172
     1
271
     2
272
     2
274
     3
278
    44
283
     0
284
     8
340
11
  0
ENDTAB
  0
TABLE
  2
BLOCK_RECORD
  5
1
330
0
100
AcDbSymbolTable
 70
     1
  0
BLOCK_RECORD
  5
1F
330
1
100
AcDbSymbolTableRecord
100
AcDbBlockTableRecord
  2
*Model_Space
340
22
  0
BLOCK_RECORD
  5
1B
330
1
100
AcDbSymbolTableRecord
100
AcDbBlockTableRecord
  2
*Paper_Space
340
1E
  0
BLOCK_RECORD
  5
23
330
1
100
AcDbSymbolTableRecord
100
AcDbBlockTableRecord
  2
*Paper_Space0
340
26
  0
ENDTAB
  0
ENDSEC
  0
SECTION
  2
BLOCKS
  0
BLOCK
  5
20
330
1F
100
AcDbEntity
  8
0
100
AcDbBlockBegin
  2
*Model_Space
 70
     0
 10
0.0
 20
0.0
 30
0.0
  3
*Model_Space
  1

  0
ENDBLK
  5
21
330
1F
100
AcDbEntity
  8
0
100
AcDbBlockEnd
  0
BLOCK
  5
1C
330
1B
100
AcDbEntity
 67
     1
  8
0
100
AcDbBlockBegin
  2
*Paper_Space
 70
     0
 10
0.0
 20
0.0
 30
0.0
  3
*Paper_Space
  1

  0
ENDBLK
  5
1D
330
1B
100
AcDbEntity
 67
     1
  8
0
100
AcDbBlockEnd
  0
BLOCK
  5
24
330
23
100
AcDbEntity
  8
0
100
AcDbBlockBegin
  2
*Paper_Space0
 70
     0
 10
0.0
 20
0.0
 30
0.0
  3
*Paper_Space0
  1

  0
ENDBLK
  5
25
330
23
100
AcDbEntity
  8
0
100
AcDbBlockEnd
  0
ENDSEC
  0
SECTION
  2
ENTITIES
  0
LINE
  5
46
330
1F
100
AcDbEntity
  8
F-0ﾚｲﾔ
  6
Continuous
 62
     7
370
     9
100
AcDbLine
 10
230.5135221739073
 20
374.3107565093684
 30
0.0
 11
230.5135221739073
 21
422.3108406389081
 31
0.0
  0
LINE
  5
47
330
1F
100
AcDbEntity
  8
F-0ﾚｲﾔ
  6
Continuous
 62
     7
370
     9
100
AcDbLine
 10
11.51346773714641
 20
422.3108406389081
 30
0.0
 11
230.5135221739073
 21
422.3108406389081
 31
0.0
  0
LINE
  5
48
330
1F
100
AcDbEntity
  8
F-0ﾚｲﾔ
  6
Continuous
 62
     7
370
     9
100
AcDbLine
 10
230.5135221739073
 20
398.310761458165
 30
0.0
 11
11.51346773714641
 21
398.310761458165
 31
0.0
  0
LINE
  5
49
330
1F
100
AcDbEntity
  8
F-0ﾚｲﾔ
  6
Continuous
 62
     7
370
     9
100
AcDbLine
 10
11.51346773714641
 20
374.3107565093684
 30
0.0
 11
11.51346773714641
 21
422.3108406389081
 31
0.0
  0
LINE
  5
4A
330
1F
100
AcDbEntity
  8
F-0ﾚｲﾔ
  6
Continuous
 62
     7
370
     9
100
AcDbLine
 10
71.5134801091375
 20
374.3107565093684
 30
0.0
 11
71.5134801091375
 21
422.3108406389081
 31
0.0
  0
TEXT
  5
4B
330
1F
100
AcDbEntity
  8
F-4ﾚｲﾔ
  6
Continuous
 62
     2
370
     9
100
AcDbText
 10
15.26351103911536
 20
406.0027812533508
 30
0.0
 40
9.144
  1
適用荷重
 41
1.09375
  7
ＭＳ ゴシック
100
AcDbText
  0
TEXT
  5
4C
330
1F
100
AcDbEntity
  8
F-4ﾚｲﾔ
  6
Continuous
 62
     2
370
     9
100
AcDbText
 10
129.2635122763145
 20
406.0027812533508
 30
0.0
 40
9.144
  1
歩行用
 41
1.083333333333333
  7
ＭＳ ゴシック
100
AcDbText
  0
TEXT
  5
4D
330
1F
100
AcDbEntity
  8
F-4ﾚｲﾔ
  6
Continuous
 62
     2
370
     9
100
AcDbText
 10
15.26351103911536
 20
382.0027020726075
 30
0.0
 40
9.144
  1
標準質量
 41
1.09375
  7
ＭＳ ゴシック
100
AcDbText
  0
TEXT
  5
4E
330
1F
100
AcDbEntity
  8
F-4ﾚｲﾔ
  6
Continuous
 62
     2
370
     9
100
AcDbText
 10
115.7635493922879
 20
382.0027020726075
 30
0.0
 40
9.144
  1
５．０ｋｇ
 41
1.1
  7
ＭＳ ゴシック
100
AcDbText
  0
TEXT
  5
4F
330
1F
100
AcDbEntity
  8
F-4ﾚｲﾔ
  6
Continuous
 62
     2
370
     9
100
AcDbText
 10
-279.381874298541
 20
395.6381562219959
 30
0.0
 40
9.144
  1
ＪＣＷ１０３　Ｂ－１
 41
1.1125
  7
ＭＳ ゴシック
100
AcDbText
  0
LINE
  5
50
330
1F
100
AcDbEntity
  8
F-0ﾚｲﾔ
  6
Continuous
 62
     7
370
     9
100
AcDbLine
 10
11.51346773714641
 20
374.3107565093684
 30
0.0
 11
230.5135221739073
 21
374.3107565093684
 31
0.0
  0
TEXT
  5
51
330
1F
100
AcDbEntity
  8
F-4ﾚｲﾔ
  6
Continuous
 62
     6
370
     5
100
AcDbText
 10
-15.49119097956302
 20
-339.7883852478271
 30
0.0
 40
9.144
  1
弁桝ふた　Ｂ－１　１５０　（ＨＫＢ－１Ｓ）
 41
0.7976190476190477
  7
ＭＳ ゴシック
100
AcDbText
  0
TEXT
  5
52
330
1F
100
AcDbEntity
  8
F-5ﾚｲﾔ
  6
Continuous
 62
     7
370
     9
100
AcDbText
 10
-23.57893820798628
 20
-255.8675256487925
 30
0.0
 40
6.858000000000001
  1
呼び
 41
1.083333333333333
  7
ＭＳ ゴシック
100
AcDbText
  0
TEXT
  5
53
330
1F
100
AcDbEntity
  8
F-5ﾚｲﾔ
  6
Continuous
 62
     7
370
     9
100
AcDbText
 10
-81.32901862592863
 20
-236.3675355463855
 30
0.0
 40
6.858000000000001
  1
寸法・
 41
1.111111111111111
  7
ＭＳ ゴシック
100
AcDbText
  0
TEXT
  5
54
330
1F
100
AcDbEntity
  8
F-5ﾚｲﾔ
  6
Continuous
 62
     7
370
     9
100
AcDbText
 10
-70.82905821630027
 20
-255.8675256487925
 30
0.0
 40
6.858000000000001
  1
種　類
 41
1.111111111111111
  7
ＭＳ ゴシック
100
AcDbText
  0
TEXT
  5
55
330
1F
100
AcDbEntity
  8
F-5ﾚｲﾔ
  6
Continuous
 62
     6
370
     5
100
AcDbText
 10
-69.92896542636676
 20
-276.4445380207837
 30
0.0
 40
9.144
  1
Ｂ－１
 41
0.7833333333333338
  7
ＭＳ ゴシック
100
AcDbText
  0
TEXT
  5
56
330
1F
100
AcDbEntity
  8
F-5ﾚｲﾔ
  6
Continuous
 62
     6
370
     5
100
AcDbText
 10
-21.6291237878533
 20
-275.3675157511997
 30
0.0
 40
6.858000000000001
  1
１５０
 41
0.8777777777777782
  7
ＭＳ ゴシック
100
AcDbText
  0
LINE
  5
57
330
1F
100
AcDbEntity
  8
F-5ﾚｲﾔ
  6
Continuous
 62
     7
370
     9
100
AcDbLine
 10
-81.32901243993308
 20
-242.8865528671731
 30
0.0
 11
-81.32901243993308
 21
-281.8865330719872
 31
0.0
  0
LINE
  5
58
330
1F
100
AcDbEntity
  8
F-5ﾚｲﾔ
  6
Continuous
 62
     7
370
     9
100
AcDbLine
 10
-30.3289926447473
 20
-242.8865528671731
 30
0.0
 11
-30.3289926447473
 21
-281.8865330719872
 31
0.0
  0
LINE
  5
59
330
1F
100
AcDbEntity
  8
F-5ﾚｲﾔ
  6
Continuous
 62
     7
370
     9
100
AcDbLine
 10
2.670967764881141
 20
-242.8865528671731
 30
0.0
 11
2.670967764881141
 21
-281.8865330719872
 31
0.0
  0
LINE
  5
5A
330
1F
100
AcDbEntity
  8
F-5ﾚｲﾔ
  6
Continuous
 62
     7
370
     9
100
AcDbLine
 10
29.67096776488114
 20
-242.8865528671731
 30
0.0
 11
29.67096776488114
 21
-281.8865330719872
 31
0.0
  0
TEXT
  5
5B
330
1F
100
AcDbEntity
  8
F-5ﾚｲﾔ
  6
Continuous
 62
     7
370
     9
100
AcDbText
 10
11.67096776488114
 20
-255.8675256487925
 30
0.0
 40
6.858000000000001
  1
Ｄ
 41
0.9999999999999998
  7
ＭＳ ゴシック
100
AcDbText
  0
TEXT
  5
5C
330
1F
100
AcDbEntity
  8
F-5ﾚｲﾔ
  6
Continuous
 62
     6
370
     5
100
AcDbText
 10
4.320967764881175
 20
-275.3675157511997
 30
0.0
 40
6.858000000000001
  1
１５０
 41
0.8777777777777782
  7
ＭＳ ゴシック
100
AcDbText
  0
LINE
  5
5D
330
1F
100
AcDbEntity
  8
F-5ﾚｲﾔ
  6
Continuous
 62
     7
370
     9
100
AcDbLine
 10
56.67096776488114
 20
-242.8865528671731
 30
0.0
 11
56.67096776488114
 21
-281.8865330719872
 31
0.0
  0
LINE
  5
5E
330
1F
100
AcDbEntity
  8
F-5ﾚｲﾔ
  6
Continuous
 62
     7
370
     9
100
AcDbLine
 10
83.67096776488114
 20
-242.8865528671731
 30
0.0
 11
83.67096776488114
 21
-281.8865330719872
 31
0.0
  0
LINE
  5
5F
330
1F
100
AcDbEntity
  8
F-5ﾚｲﾔ
  6
Continuous
 62
     7
370
     9
100
AcDbLine
 10
110.6709677648811
 20
-242.8865528671731
 30
0.0
 11
110.6709677648811
 21
-281.8865330719872
 31
0.0
  0
LINE
  5
60
330
1F
100
AcDbEntity
  8
F-5ﾚｲﾔ
  6
Continuous
 62
     7
370
     9
100
AcDbLine
 10
137.6709677648811
 20
-242.8865528671731
 30
0.0
 11
137.6709677648811
 21
-281.8865330719872
 31
0.0
  0
LINE
  5
61
330
1F
100
AcDbEntity
  8
F-5ﾚｲﾔ
  6
Continuous
 62
     7
370
     9
100
AcDbLine
 10
164.6709677648811
 20
-242.8865528671731
 30
0.0
 11
164.6709677648811
 21
-281.8865330719872
 31
0.0
  0
TEXT
  5
62
330
1F
100
AcDbEntity
  8
F-5ﾚｲﾔ
  6
Continuous
 62
     7
370
     9
100
AcDbText
 10
38.67096776488114
 20
-255.8675256487925
 30
0.0
 40
6.858000000000001
  1
Ａ
 41
0.9999999999999998
  7
ＭＳ ゴシック
100
AcDbText
  0
TEXT
  5
63
330
1F
100
AcDbEntity
  8
F-5ﾚｲﾔ
  6
Continuous
 62
     7
370
     9
100
AcDbText
 10
65.67096776488114
 20
-255.8675256487925
 30
0.0
 40
6.858000000000001
  1
Ｂ
 41
0.9999999999999998
  7
ＭＳ ゴシック
100
AcDbText
  0
TEXT
  5
64
330
1F
100
AcDbEntity
  8
F-5ﾚｲﾔ
  6
Continuous
 62
     6
370
     5
100
AcDbText
 10
58.32096776488117
 20
-275.3675157511997
 30
0.0
 40
6.858000000000001
  1
２４０
 41
0.8777777777777774
  7
ＭＳ ゴシック
100
AcDbText
  0
TEXT
  5
65
330
1F
100
AcDbEntity
  8
F-5ﾚｲﾔ
  6
Continuous
 62
     7
370
     9
100
AcDbText
 10
92.67096776488114
 20
-255.8675256487925
 30
0.0
 40
6.858000000000001
  1
Ｈ
 41
0.9999999999999998
  7
ＭＳ ゴシック
100
AcDbText
  0
TEXT
  5
66
330
1F
100
AcDbEntity
  8
F-5ﾚｲﾔ
  6
Continuous
 62
     7
370
     9
100
AcDbText
 10
119.6709677648811
 20
-255.8675256487925
 30
0.0
 40
6.858000000000001
  1
ｔ
 41
0.9999999999999998
  7
ＭＳ ゴシック
100
AcDbText
  0
TEXT
  5
67
330
1F
100
AcDbEntity
  8
F-5ﾚｲﾔ
  6
Continuous
 62
     7
370
     9
100
AcDbText
 10
146.6709677648811
 20
-255.8675256487925
 30
0.0
 40
6.858000000000001
  1
Ａ'
 41
1.111111111111111
  7
ＭＳ ゴシック
100
AcDbText
  0
TEXT
  5
68
330
1F
100
AcDbEntity
  8
F-5ﾚｲﾔ
  6
Continuous
 62
     6
370
     5
100
AcDbText
 10
139.3209677648812
 20
-275.3675157511997
 30
0.0
 40
6.858000000000001
  1
１７０
 41
0.8777777777777782
  7
ＭＳ ゴシック
100
AcDbText
  0
TEXT
  5
69
330
1F
100
AcDbEntity
  8
F-5ﾚｲﾔ
  6
Continuous
 62
     7
370
     9
100
AcDbText
 10
173.6709677648811
 20
-255.8675256487925
 30
0.0
 40
6.858000000000001
  1
Ｂ'
 41
1.111111111111111
  7
ＭＳ ゴシック
100
AcDbText
  0
TEXT
  5
6A
330
1F
100
AcDbEntity
  8
F-5ﾚｲﾔ
  6
Continuous
 62
     6
370
     5
100
AcDbText
 10
166.3209677648812
 20
-275.3675157511997
 30
0.0
 40
6.858000000000001
  1
２００
 41
0.8777777777777782
  7
ＭＳ ゴシック
100
AcDbText
  0
LINE
  5
6B
330
1F
100
AcDbEntity
  8
F-5ﾚｲﾔ
  6
Continuous
 62
     7
370
     9
100
AcDbLine
 10
191.6709677648811
 20
-242.8865528671731
 30
0.0
 11
191.6709677648811
 21
-281.8865330719872
 31
0.0
  0
LINE
  5
6C
330
1F
100
AcDbEntity
  8
F-5ﾚｲﾔ
  6
Continuous
 62
     7
370
     9
100
AcDbLine
 10
218.6709677648811
 20
-242.8865528671731
 30
0.0
 11
218.6709677648811
 21
-281.8865330719872
 31
0.0
  0
LINE
  5
6D
330
1F
100
AcDbEntity
  8
F-5ﾚｲﾔ
  6
Continuous
 62
     7
370
     9
100
AcDbLine
 10
-81.32901243993308
 20
-242.8865528671731
 30
0.0
 11
218.6709677648811
 21
-242.8865528671731
 31
0.0
  0
LINE
  5
6E
330
1F
100
AcDbEntity
  8
F-5ﾚｲﾔ
  6
Continuous
 62
     7
370
     9
100
AcDbLine
 10
-81.32901243993308
 20
-262.3865429695801
 30
0.0
 11
218.6709677648811
 21
-262.3865429695801
 31
0.0
  0
LINE
  5
6F
330
1F
100
AcDbEntity
  8
F-5ﾚｲﾔ
  6
Continuous
 62
     7
370
     9
100
AcDbLine
 10
-81.32901243993308
 20
-281.8865330719872
 30
0.0
 11
218.6709677648811
 21
-281.8865330719872
 31
0.0
  0
TEXT
  5
70
330
1F
100
AcDbEntity
  8
F-5ﾚｲﾔ
  6
Continuous
 62
     7
370
     9
100
AcDbText
 10
200.6709677648811
 20
-255.8675256487925
 30
0.0
 40
6.858000000000001
  1
ｔ'
 41
1.111111111111111
  7
ＭＳ ゴシック
100
AcDbText
  0
TEXT
  5
71
330
1F
100
AcDbEntity
  8
F-5ﾚｲﾔ
  6
Continuous
 62
     6
370
     5
100
AcDbText
 10
193.3209677648812
 20
-275.3675157511997
 30
0.0
 40
6.858000000000001
  1
１．５
 41
0.8777777777777782
  7
ＭＳ ゴシック
100
AcDbText
  0
LINE
  5
72
330
1F
100
AcDbEntity
  8
0-2_本体（蓋）
  6
Continuous
 62
     3
370
     9
100
AcDbLine
 10
53.01354279389258
 20
6.357538704795166
 30
0.0
 11
52.01349000673039
 21
-3.642469543198937
 31
0.0
  0
LINE
  5
73
330
1F
100
AcDbEntity
  8
0-1_ピット
  6
Continuous
 62
     2
370
     9
100
AcDbLine
 10
52.15601534456829
 20
-3.642469543198937
 30
0.0
 11
11.51476679621524
 21
-3.642469543198937
 31
0.0
  0
LINE
  5
74
330
1F
100
AcDbEntity
  8
0-2_本体（蓋）
  6
Continuous
 62
     3
370
     9
100
AcDbLine
 10
45.01356588827602
 20
2.090834867168487
 30
0.0
 11
47.0135229987068
 21
-3.642469543198937
 31
0.0
  0
LINE
  5
75
330
1F
100
AcDbEntity
  8
0-2_本体（蓋）
  6
Continuous
 62
     3
370
     9
100
AcDbLine
 10
30.76689642828867
 20
5.511183163462823
 30
0.0
 11
36.51356258907845
 21
5.34219413659415
 31
0.0
  0
LINE
  5
76
330
1F
100
AcDbEntity
  8
0-2_本体（蓋）
  6
JWW_CENTER1
 62
     3
370
     9
100
AcDbLine
 10
16.01351969950915
 20
8.670457702894813
 30
0.0
 11
16.01351969950915
 21
1.101211668530402
 31
0.0
  0
LINE
  5
77
330
1F
100
AcDbEntity
  8
0-2_本体（蓋）
  6
Continuous
 62
     3
370
     9
100
AcDbLine
 10
-29.75656251649593
 20
1.489704562058682
 30
0.0
 11
-30.48655948123414
 21
-6.056269756986945
 31
0.0
  0
LINE
  5
78
330
1F
100
AcDbEntity
  8
0-2_本体（蓋）
  6
Continuous
 62
     3
370
     9
100
AcDbLine
 10
-26.6823206721125
 20
4.19961601159415
 30
0.0
 11
45.01356588827602
 21
2.090834867168487
 31
0.0
  0
LINE
  5
79
330
1F
100
AcDbEntity
  8
0-2_本体（蓋）
  6
Continuous
 62
     3
370
     9
100
AcDbLine
 10
-108.9865462844436
 20
2.090834867168487
 30
0.0
 11
-110.9865033948743
 21
-3.642469543198937
 31
0.0
  0
LINE
  5
7A
330
1F
100
AcDbEntity
  8
0-2_本体（蓋）
  6
Continuous
 62
     3
370
     9
100
AcDbLine
 10
-34.21641787967164
 20
1.489704562058682
 30
0.0
 11
-33.48649514688023
 21
-6.056269756986945
 31
0.0
  0
LINE
  5
7B
330
1F
100
AcDbEntity
  8
0-2_本体（蓋）
  6
Continuous
 62
     3
370
     9
100
AcDbLine
 10
-37.29065972405508
 20
4.19961601159415
 30
0.0
 11
-108.9865462844436
 21
2.090834867168487
 31
0.0
  0
LINE
  5
7C
330
1F
100
AcDbEntity
  8
0-1_ピット
  6
Continuous
 62
     2
370
     9
100
AcDbLine
 10
43.01346031395173
 20
-33.6424571712078
 30
0.0
 11
68.01359228185711
 21
-58.642477791193
 31
0.0
  0
LINE
  5
7D
330
1F
100
AcDbEntity
  8
0-1_ピット
  6
Continuous
 62
     2
370
     9
100
AcDbLine
 10
47.89703162940782
 20
-32.14248933838476
 30
0.0
 11
69.48308790052266
 21
-53.64243655122257
 31
0.0
  0
LINE
  5
7E
330
1F
100
AcDbEntity
  8
0-1_ピット
  6
Continuous
 62
     2
370
     9
100
AcDbLine
 10
72.5135328962997
 20
-2.642453872010146
 30
0.0
 11
71.5134801091375
 21
6.357538704795166
 31
0.0
  0
LINE
  5
7F
330
1F
100
AcDbEntity
  8
0-1_ピット
  6
Continuous
 62
     2
370
     9
100
AcDbLine
 10
71.5134801091375
 20
6.357538704795166
 30
0.0
 11
54.51347351074227
 21
6.357538704795166
 31
0.0
  0
LINE
  5
80
330
1F
100
AcDbEntity
  8
0-1_ピット
  6
Continuous
 62
     2
370
     9
100
AcDbLine
 10
64.51355599068313
 20
-2.642453872010146
 30
0.0
 11
72.5135328962997
 21
-2.642453872010146
 31
0.0
  0
LINE
  5
81
330
1F
100
AcDbEntity
  8
0-1_ピット
  6
Continuous
 62
     2
370
     9
100
AcDbLine
 10
57.71598815917977
 20
-6.841458174163856
 30
0.0
 11
58.15588667586047
 21
-2.443475138638115
 31
0.0
  0
LINE
  5
82
330
1F
100
AcDbEntity
  8
0-1_ピット
  6
Continuous
 62
     2
370
     9
100
AcDbLine
 10
49.51024029705985
 20
-10.49381842015206
 30
0.0
 11
47.89703162940782
 21
-32.14248933838476
 31
0.0
  0
LINE
  5
83
330
1F
100
AcDbEntity
  8
0-1_ピット
  6
Continuous
 62
     2
370
     9
100
AcDbLine
 10
51.50470424342805
 20
-8.642473667195967
 30
0.0
 11
55.72597812961891
 21
-8.642473667195967
 31
0.0
  0
LINE
  5
84
330
1F
100
AcDbEntity
  8
0-1_ピット
  6
Continuous
 62
     2
370
     9
100
AcDbLine
 10
53.64852286673892
 20
-2.291745039398231
 30
0.0
 11
54.51347351074227
 21
6.357538704795166
 31
0.0
  0
LINE
  5
85
330
1F
100
AcDbEntity
  8
0-1_ピット
  6
Continuous
 62
     2
370
     9
100
AcDbLine
 10
64.51355599068313
 20
-2.142464594402492
 30
0.0
 11
64.51355599068313
 21
-2.642453872010146
 31
0.0
  0
LINE
  5
86
330
1F
100
AcDbEntity
  8
0-1_ピット
  6
Continuous
 62
     2
370
     9
100
AcDbLine
 10
63.01347680993993
 20
-0.6424596456060048
 30
0.0
 11
60.14589670542134
 21
-0.6424596456060048
 31
0.0
  0
LINE
  5
87
330
1F
100
AcDbEntity
  8
0-2_本体（蓋）
  6
JWW_CENTER1
 62
     3
370
     9
100
AcDbLine
 10
-31.98649019808374
 20
18.85753045680107
 30
0.0
 11
-31.98649019808374
 21
-66.05628212897808
 31
0.0
  0
LINE
  5
88
330
1F
100
AcDbEntity
  8
0-1_ピット
  6
Continuous
 62
     2
370
     9
100
AcDbLine
 10
-168.9865957724081
 20
6.357538704795166
 30
0.0
 11
-169.9865000956767
 21
-0.6424596456060048
 31
0.0
  0
LINE
  5
89
330
1F
100
AcDbEntity
  8
0-1_ピット
  6
Continuous
 62
     2
370
     9
100
AcDbLine
 10
-155.2097403036581
 20
-16.62689897995991
 30
0.0
 11
-156.9865561820365
 21
6.357538704795166
 31
0.0
  0
LINE
  5
8A
330
1F
100
AcDbEntity
  8
0-1_ピット
  6
Continuous
 62
     2
370
     9
100
AcDbLine
 10
-162.3474389153557
 20
-0.6424596456060048
 30
0.0
 11
-169.9865000956767
 21
-0.6424596456060048
 31
0.0
  0
LINE
  5
8B
330
1F
100
AcDbEntity
  8
0-1_ピット
  6
Continuous
 62
     2
370
     9
100
AcDbLine
 10
-160.8518136514199
 20
-2.0268854532496
 30
0.0
 11
-159.6964676315719
 21
-16.9737106353653
 31
0.0
  0
LINE
  5
8C
330
1F
100
AcDbEntity
  8
0-1_ピット
  6
Continuous
 62
     2
370
     9
100
AcDbLine
 10
-117.3961350724503
 20
-31.78172207698272
 30
0.0
 11
-145.2645894643422
 21
-30.80850413858534
 31
0.0
  0
LINE
  5
8D
330
1F
100
AcDbEntity
  8
0-1_ピット
  6
Continuous
 62
     2
370
     9
100
AcDbLine
 10
-145.1075146649334
 20
-26.31127299020061
 30
0.0
 11
-114.0983066043337
 21
-27.39409439803425
 31
0.0
  0
LINE
  5
8E
330
1F
100
AcDbEntity
  8
0-1_ピット
  6
Continuous
 62
     2
370
     9
100
AcDbLine
 10
-116.0111154092324
 20
-35.15296594047511
 30
0.0
 11
-133.4559198327966
 21
-53.64243655122257
 31
0.0
  0
LINE
  5
8F
330
1F
100
AcDbEntity
  8
0-1_ピット
  6
Continuous
 62
     2
370
     9
100
AcDbLine
 10
43.01346031395173
 20
-33.6424571712078
 30
0.0
 11
-109.2560082512932
 21
-33.6424571712078
 31
0.0
  0
LINE
  5
90
330
1F
100
AcDbEntity
  8
0-1_ピット
  6
Continuous
 62
     2
370
     9
100
AcDbLine
 10
-110.4616835310651
 20
-35.82847665626901
 30
0.0
 11
-131.9865726780246
 21
-58.642477791193
 31
0.0
  0
LINE
  5
91
330
1F
100
AcDbEntity
  8
0-1_ピット
  6
Continuous
 62
     2
370
     9
100
AcDbLine
 10
88.01346031395173
 20
-58.642477791193
 30
0.0
 11
-151.9865891740128
 21
-58.642477791193
 31
0.0
  0
LINE
  5
92
330
1F
100
AcDbEntity
  8
0-1_ピット
  6
Continuous
 62
     2
370
     9
100
AcDbLine
 10
-151.9865891740128
 20
-58.642477791193
 30
0.0
 11
-150.4865099932696
 21
-49.64244809841429
 31
0.0
  0
LINE
  5
93
330
1F
100
AcDbEntity
  8
0-1_ピット
  6
Continuous
 62
     2
370
     9
100
AcDbLine
 10
-150.4865099932696
 20
-49.64244809841429
 30
0.0
 11
-141.9865066940719
 21
-49.64244809841429
 31
0.0
  0
LINE
  5
94
330
1F
100
AcDbEntity
  8
0-1_ピット
  6
Continuous
 62
     2
370
     9
100
AcDbLine
 10
-141.9865066940719
 20
-49.64244809841429
 30
0.0
 11
-139.9865495836412
 21
-53.64243655122257
 31
0.0
  0
LINE
  5
95
330
1F
100
AcDbEntity
  8
0-1_ピット
  6
Continuous
 62
     2
370
     9
100
AcDbLine
 10
-133.4560682966902
 20
-53.64243655122257
 30
0.0
 11
-139.9865495836412
 21
-53.64243655122257
 31
0.0
  0
LINE
  5
96
330
1F
100
AcDbEntity
  8
0-1_ピット
  6
Continuous
 62
     2
370
     9
100
AcDbLine
 10
88.01346031395173
 20
-58.642477791193
 30
0.0
 11
86.51352959710204
 21
-49.64244809841429
 31
0.0
  0
LINE
  5
97
330
1F
100
AcDbEntity
  8
0-1_ピット
  6
Continuous
 62
     2
370
     9
100
AcDbLine
 10
86.51352959710204
 20
-49.64244809841429
 30
0.0
 11
78.01352629790446
 21
-49.64244809841429
 31
0.0
  0
LINE
  5
98
330
1F
100
AcDbEntity
  8
0-1_ピット
  6
Continuous
 62
     2
370
     9
100
AcDbLine
 10
78.01352629790446
 20
-49.64244809841429
 30
0.0
 11
76.01342072358008
 21
-53.64243655122257
 31
0.0
  0
LINE
  5
99
330
1F
100
AcDbEntity
  8
0-1_ピット
  6
Continuous
 62
     2
370
     9
100
AcDbLine
 10
69.48308790052266
 20
-53.64243655122257
 30
0.0
 11
76.01342072358008
 21
-53.64243655122257
 31
0.0
  0
LINE
  5
9A
330
1F
100
AcDbEntity
  8
0-2_本体（蓋）
  6
Continuous
 62
     3
370
     9
100
AcDbLine
 10
6.356388813740551
 20
8.759016415415948
 30
0.0
 11
4.513506502718599
 21
3.282034917316258
 31
0.0
  0
LINE
  5
9B
330
1F
100
AcDbEntity
  8
0-2_本体（蓋）
  6
Continuous
 62
     3
370
     9
100
AcDbLine
 10
25.73938936800579
 20
7.982476020040087
 30
0.0
 11
27.5134586643529
 21
2.60559630218747
 31
0.0
  0
LINE
  5
9C
330
1F
100
AcDbEntity
  8
0-2_本体（蓋）
  6
Continuous
 62
     3
370
     9
100
AcDbLine
 10
30.02205307419243
 20
7.768539549389777
 30
0.0
 11
30.76689642828867
 21
5.511183163462823
 31
0.0
  0
LINE
  5
9D
330
1F
100
AcDbEntity
  8
0-2_本体（蓋）
  6
Continuous
 62
     3
370
     9
100
AcDbLine
 10
38.52792069718649
 20
7.298131702578095
 30
0.0
 11
36.51356258907845
 21
5.34219413659415
 31
0.0
  0
LINE
  5
9E
330
1F
100
AcDbEntity
  8
0-2_本体（蓋）
  6
Continuous
 62
     3
370
     9
100
AcDbLine
 10
2.178540616422111
 20
8.88528495690665
 30
0.0
 11
1.488183511270165
 21
6.833736643456495
 31
0.0
  0
LINE
  5
9F
330
1F
100
AcDbEntity
  8
0-2_本体（蓋）
  6
Continuous
 62
     3
370
     9
100
AcDbLine
 10
-102.5009010933541
 20
7.298131702578095
 30
0.0
 11
-100.4865429852459
 21
5.34219413659415
 31
0.0
  0
LINE
  5
A0
330
1F
100
AcDbEntity
  8
0-2_本体（蓋）
  6
JWW_DASHED1
 62
     3
370
     9
100
AcDbLine
 10
-116.9865231900602
 20
6.357538704795166
 30
0.0
 11
-115.986470402898
 21
-3.642469543198937
 31
0.0
  0
LINE
  5
A1
330
1F
100
AcDbEntity
  8
0-1_ピット
  6
Continuous
 62
     2
370
     9
100
AcDbLine
 10
43.01346031395173
 20
-33.6424571712078
 30
0.0
 11
45.55590449152774
 21
-3.642469543198937
 31
0.0
  0
LINE
  5
A2
330
1F
100
AcDbEntity
  8
0-1_ピット
  6
Continuous
 62
     2
370
     9
100
AcDbLine
 10
-168.9865957724081
 20
6.357538704795166
 30
0.0
 11
-116.9865231900602
 21
6.357538704795166
 31
0.0
  0
LINE
  5
A3
330
1F
100
AcDbEntity
  8
0-2_本体（蓋）
  6
Continuous
 62
     3
370
     9
100
AcDbLine
 10
-110.2888715589368
 20
-1.642438200821397
 30
0.0
 11
-31.98649019808374
 21
-6.14249016318413
 31
0.0
  0
LINE
  5
A4
330
1F
100
AcDbEntity
  8
0-2_本体（蓋）
  6
Continuous
 62
     3
370
     9
100
AcDbLine
 10
-125.4946920034047
 20
-3.642469543198937
 30
0.0
 11
-75.48767296043593
 21
-3.642469543198937
 31
0.0
  0
LINE
  5
A5
330
1F
100
AcDbEntity
  8
0-4_寸法
  6
Continuous
 62
     7
370
     9
100
AcDbLine
 10
53.01365414181282
 20
10.85729373937075
 30
0.0
 11
53.01365414181282
 21
37.25751445569256
 31
0.0
  0
LINE
  5
A6
330
1F
100
AcDbEntity
  8
0-4_寸法
  6
Continuous
 62
     7
370
     9
100
AcDbLine
 10
53.01365414181282
 20
36.35752633280404
 30
0.0
 11
45.57780291583094
 21
37.33646013110427
 31
0.0
  0
LINE
  5
A7
330
1F
100
AcDbEntity
  8
0-4_寸法
  6
Continuous
 62
     7
370
     9
100
AcDbLine
 10
53.01365414181282
 20
36.35752633280404
 30
0.0
 11
45.57780291583094
 21
35.37859253450377
 31
0.0
  0
LINE
  5
A8
330
1F
100
AcDbEntity
  8
0-4_寸法
  6
Continuous
 62
     7
370
     9
100
AcDbLine
 10
-109.0984509442303
 20
-88.64248397718856
 30
0.0
 11
43.01346031395173
 21
-88.64248397718856
 31
0.0
  0
LINE
  5
A9
330
1F
100
AcDbEntity
  8
0-4_寸法
  6
Continuous
 62
     7
370
     9
100
AcDbLine
 10
-109.0984509442303
 20
-36.89717543622573
 30
0.0
 11
-109.0984509442303
 21
-89.54249065806377
 31
0.0
  0
LINE
  5
AA
330
1F
100
AcDbEntity
  8
0-4_寸法
  6
Continuous
 62
     7
370
     9
100
AcDbLine
 10
43.01346031395173
 20
-38.14245345961046
 30
0.0
 11
43.01346031395173
 21
-89.54249065806377
 31
0.0
  0
LINE
  5
AB
330
1F
100
AcDbEntity
  8
0-4_寸法
  6
Continuous
 62
     7
370
     9
100
AcDbLine
 10
-109.0984509442303
 20
-88.64248397718856
 30
0.0
 11
-101.6625997182484
 21
-87.66353162090161
 31
0.0
  0
LINE
  5
AC
330
1F
100
AcDbEntity
  8
0-4_寸法
  6
Continuous
 62
     7
370
     9
100
AcDbLine
 10
-109.0984509442303
 20
-88.64248397718856
 30
0.0
 11
-101.6625997182484
 21
-89.62143633347551
 31
0.0
  0
LINE
  5
AD
330
1F
100
AcDbEntity
  8
0-4_寸法
  6
Continuous
 62
     7
370
     9
100
AcDbLine
 10
43.01346031395173
 20
-88.64248397718856
 30
0.0
 11
35.57760908796985
 21
-87.66353162090161
 31
0.0
  0
LINE
  5
AE
330
1F
100
AcDbEntity
  8
0-4_寸法
  6
Continuous
 62
     7
370
     9
100
AcDbLine
 10
43.01346031395173
 20
-88.64248397718856
 30
0.0
 11
35.57760908796985
 21
-89.62143633347551
 31
0.0
  0
LINE
  5
AF
330
1F
100
AcDbEntity
  8
0-4_寸法
  6
Continuous
 62
     7
370
     9
100
AcDbLine
 10
118.0134479419605
 20
-58.642477791193
 30
0.0
 11
118.0134479419605
 21
6.357538704795166
 31
0.0
  0
LINE
  5
B0
330
1F
100
AcDbEntity
  8
0-4_寸法
  6
Continuous
 62
     7
370
     9
100
AcDbLine
 10
92.5134751603411
 20
-58.642477791193
 30
0.0
 11
118.9134360648491
 21
-58.642477791193
 31
0.0
  0
LINE
  5
B1
330
1F
100
AcDbEntity
  8
0-4_寸法
  6
Continuous
 62
     7
370
     9
100
AcDbLine
 10
76.01349495552688
 20
6.357538704795166
 30
0.0
 11
118.9134360648491
 21
6.357538704795166
 31
0.0
  0
LINE
  5
B2
330
1F
100
AcDbEntity
  8
0-4_寸法
  6
Continuous
 62
     7
370
     9
100
AcDbLine
 10
118.0134479419605
 20
-58.642477791193
 30
0.0
 11
117.034477027687
 21
-51.20664512319789
 31
0.0
  0
LINE
  5
B3
330
1F
100
AcDbEntity
  8
0-4_寸法
  6
Continuous
 62
     7
370
     9
100
AcDbLine
 10
118.0134479419605
 20
-58.642477791193
 30
0.0
 11
118.9924188562342
 21
-51.20664512319789
 31
0.0
  0
LINE
  5
B4
330
1F
100
AcDbEntity
  8
0-4_寸法
  6
Continuous
 62
     7
370
     9
100
AcDbLine
 10
118.0134479419605
 20
6.357538704795166
 30
0.0
 11
117.034477027687
 21
-1.078312521186669
 31
0.0
  0
LINE
  5
B5
330
1F
100
AcDbEntity
  8
0-4_寸法
  6
Continuous
 62
     7
370
     9
100
AcDbLine
 10
118.0134479419605
 20
6.357538704795166
 30
0.0
 11
118.9924188562342
 21
-1.078312521186669
 31
0.0
  0
LINE
  5
B6
330
1F
100
AcDbEntity
  8
0-4_寸法
  6
Continuous
 62
     7
370
     9
100
AcDbLine
 10
-116.9864860740867
 20
36.35752633280404
 30
0.0
 11
53.01365414181282
 21
36.35752633280404
 31
0.0
  0
LINE
  5
B7
330
1F
100
AcDbEntity
  8
0-4_寸法
  6
Continuous
 62
     7
370
     9
100
AcDbLine
 10
-1.945044027792335
 20
8.995408049970399
 30
0.0
 11
-2.737544291728199
 21
16.45341751206923
 31
0.0
  0
LINE
  5
B8
330
1F
100
AcDbEntity
  8
0-4_寸法
  6
Continuous
 62
     7
370
     9
100
AcDbLine
 10
-1.945044027792335
 20
8.995408049970399
 30
0.0
 11
-0.7802334347285864
 21
16.40442442718747
 31
0.0
  0
LINE
  5
B9
330
1F
100
AcDbEntity
  8
0-4_寸法
  6
Continuous
 62
     7
370
     9
100
AcDbLine
 10
-2.083263912716319
 20
3.476077226226769
 30
0.0
 11
-1.290763648780541
 21
-3.98193223587206
 31
0.0
  0
LINE
  5
BA
330
1F
100
AcDbEntity
  8
0-4_寸法
  6
Continuous
 62
     7
370
     9
100
AcDbLine
 10
-2.083263912716319
 20
3.476077226226769
 30
0.0
 11
-3.248037389806711
 21
-3.932939150990302
 31
0.0
  0
LINE
  5
BB
330
1F
100
AcDbEntity
  8
0-2_本体（蓋）
  6
Continuous
 62
     3
370
     9
100
AcDbLine
 10
46.3158911627693
 20
-1.642438200821397
 30
0.0
 11
4.073199710330556
 21
-4.07011978865925
 31
0.0
  0
LINE
  5
BC
330
1F
100
AcDbEntity
  8
0-2_本体（蓋）
  6
Continuous
 62
     3
370
     9
100
AcDbLine
 10
-21.31238164128476
 20
-5.529037354907141
 30
0.0
 11
-31.98649019808374
 21
-6.14249016318413
 31
0.0
  0
LINE
  5
BD
330
1F
100
AcDbEntity
  8
0-2_本体（蓋）
  6
JWW_CENTER1
 62
     3
370
     9
100
AcDbLine
 10
-149.0073642215213
 20
-4.642448098414286
 30
0.0
 11
-132.9658405200855
 21
-4.642448098414286
 31
0.0
  0
LINE
  5
BE
330
1F
100
AcDbEntity
  8
0-2_本体（蓋）
  6
JWW_CENTER1
 62
     3
370
     9
100
AcDbLine
 10
-140.9866023708034
 20
3.378313752303603
 30
0.0
 11
-140.9866023708034
 21
-12.66320994913222
 31
0.0
  0
LINE
  5
BF
330
1F
100
AcDbEntity
  8
0-E
  6
Continuous
 62
     7
370
     9
100
AcDbLine
 10
71.5134801091375
 20
6.357538704795166
 30
0.0
 11
74.3836212158204
 21
13.28664554601138
 31
0.0
  0
LINE
  5
C0
330
1F
100
AcDbEntity
  8
0-E
  6
Continuous
 62
     7
370
     9
100
AcDbLine
 10
71.5134801091375
 20
6.357538704795166
 30
0.0
 11
76.07919022843649
 21
12.30767463173775
 31
0.0
  0
LINE
  5
C1
330
1F
100
AcDbEntity
  8
0-E
  6
Continuous
 62
     7
370
     9
100
AcDbLine
 10
46.41732911805852
 20
6.807495650266025
 30
0.0
 11
49.28747022474141
 21
13.73660249148224
 31
0.0
  0
LINE
  5
C2
330
1F
100
AcDbEntity
  8
0-E
  6
Continuous
 62
     7
370
     9
100
AcDbLine
 10
46.41732911805852
 20
6.807495650266025
 30
0.0
 11
50.9830392373575
 21
12.7576315772086
 31
0.0
  0
LINE
  5
C3
330
1F
100
AcDbEntity
  8
0-E
  6
Continuous
 62
     7
370
     9
100
AcDbLine
 10
-142.4866073195998
 20
-2.04436707671878
 30
0.0
 11
-147.0523174388988
 21
3.905768850223799
 31
0.0
  0
LINE
  5
C4
330
1F
100
AcDbEntity
  8
0-E
  6
Continuous
 62
     7
370
     9
100
AcDbLine
 10
-142.4866073195998
 20
-2.04436707671878
 30
0.0
 11
-145.3567484262826
 21
4.88473976449743
 31
0.0
  0
LINE
  5
C5
330
1F
100
AcDbEntity
  8
0-E
  6
Continuous
 62
     7
370
     9
100
AcDbLine
 10
71.5134801091375
 20
6.357538704795166
 30
0.0
 11
88.83398313780094
 21
36.35752633280404
 31
0.0
  0
LINE
  5
C6
330
1F
100
AcDbEntity
  8
0-E
  6
Continuous
 62
     7
370
     9
100
AcDbLine
 10
46.41732911805852
 20
6.807495650266025
 30
0.0
 11
84.03054187630487
 21
71.95547871562167
 31
0.0
  0
LINE
  5
C7
330
1F
100
AcDbEntity
  8
0-E
  6
Continuous
 62
     7
370
     9
100
AcDbLine
 10
-142.4866073195998
 20
-2.04436707671878
 30
0.0
 11
-164.0266956416646
 21
35.26416945372652
 31
0.0
  0
LINE
  5
C8
330
1F
100
AcDbEntity
  8
0-4_寸法
  6
Continuous
 62
     7
370
     9
100
AcDbLine
 10
-2.598470739416086
 20
-17.09827184207983
 30
0.0
 11
-1.442813187913922
 21
29.05062490154203
 31
0.0
  0
LINE
  5
C9
330
1F
100
AcDbEntity
  8
0-4_寸法
  6
Continuous
 62
     7
370
     9
100
AcDbLine
 10
-131.9865726780246
 20
-63.1424740795957
 30
0.0
 11
-131.9865726780246
 21
-110.5424956068603
 31
0.0
  0
LINE
  5
CA
330
1F
100
AcDbEntity
  8
0-4_寸法
  6
Continuous
 62
     7
370
     9
100
AcDbLine
 10
68.01359228185711
 20
-63.1424740795957
 30
0.0
 11
68.01359228185711
 21
-110.5424956068603
 31
0.0
  0
LINE
  5
CB
330
1F
100
AcDbEntity
  8
0-4_寸法
  6
Continuous
 62
     7
370
     9
100
AcDbLine
 10
-151.9865891740128
 20
-63.1424740795957
 30
0.0
 11
-151.9865891740128
 21
-131.5425005556567
 31
0.0
  0
LINE
  5
CC
330
1F
100
AcDbEntity
  8
0-4_寸法
  6
Continuous
 62
     7
370
     9
100
AcDbLine
 10
88.01346031395173
 20
-63.1424740795957
 30
0.0
 11
88.01346031395173
 21
-131.5425005556567
 31
0.0
  0
LINE
  5
CD
330
1F
100
AcDbEntity
  8
0-4_寸法
  6
Continuous
 62
     7
370
     9
100
AcDbLine
 10
72.5135328962997
 20
1.857560974379188
 30
0.0
 11
72.5135328962997
 21
58.25751940448905
 31
0.0
  0
LINE
  5
CE
330
1F
100
AcDbEntity
  8
0-4_寸法
  6
Continuous
 62
     7
370
     9
100
AcDbLine
 10
72.5135328962997
 20
57.35753128160054
 30
0.0
 11
65.07768167031782
 21
58.33646507990077
 31
0.0
  0
LINE
  5
CF
330
1F
100
AcDbEntity
  8
0-4_寸法
  6
Continuous
 62
     7
370
     9
100
AcDbLine
 10
72.5135328962997
 20
57.35753128160054
 30
0.0
 11
65.07768167031782
 21
56.37859748330022
 31
0.0
  0
LINE
  5
D0
330
1F
100
AcDbEntity
  8
0-4_寸法
  6
Continuous
 62
     7
370
     9
100
AcDbLine
 10
-135.9864868988861
 20
57.35753128160054
 30
0.0
 11
72.5135328962997
 21
57.35753128160054
 31
0.0
  0
ARC
  5
D1
330
1F
100
AcDbEntity
  8
0-2_本体（蓋）
  6
Continuous
 62
     3
370
     9
100
AcDbCircle
 10
-26.7705082248996
 20
1.20086805709669
 30
0.0
 40
3.000000038662472
100
AcDbArc
 50
88.31530761718751
 51
174.47509765625
  0
ARC
  5
D2
330
1F
100
AcDbEntity
  8
0-2_本体（蓋）
  6
Continuous
 62
     3
370
     9
100
AcDbCircle
 10
-37.20247217126789
 20
1.20086805709669
 30
0.0
 40
3.000000038662472
100
AcDbArc
 50
5.524887084960938
 51
91.68467712402344
  0
CIRCLE
  5
D3
330
1F
100
AcDbEntity
  8
0-2_本体（蓋）
  6
Continuous
 62
     3
370
     9
100
AcDbCircle
 10
-140.9866023708034
 20
-4.642448098414286
 30
0.0
 40
3.000000038662472
  0
ARC
  5
D4
330
1F
100
AcDbEntity
  8
0-2_本体（蓋）
  6
Continuous
 62
     3
370
     9
100
AcDbCircle
 10
-140.9866023708034
 20
-4.642448098414286
 30
0.0
 40
11.00000072169948
100
AcDbArc
 50
90.0
 51
345.5224761962891
  0
ARC
  5
D5
330
1F
100
AcDbEntity
  8
0-2_本体（蓋）
  6
Continuous
 62
     3
370
     9
100
AcDbCircle
 10
-125.4946920034047
 20
-8.642473667195967
 30
0.0
 40
5.000000644374539
100
AcDbArc
 50
90.0
 51
165.5224761962891
  0
ARC
  5
D6
330
1F
100
AcDbEntity
  8
0-1_ピット
  6
Continuous
 62
     2
370
     9
100
AcDbCircle
 10
60.14589670542134
 20
-2.642453872010146
 30
0.0
 40
2.000000025774982
100
AcDbArc
 50
90.0
 51
174.2893981933594
  0
ARC
  5
D7
330
1F
100
AcDbEntity
  8
0-1_ピット
  6
Continuous
 62
     2
370
     9
100
AcDbCircle
 10
55.72597812961891
 20
-6.642479440791826
 30
0.0
 40
2.000000025774982
100
AcDbArc
 50
270.0
 51
354.2893981933594
  0
ARC
  5
D8
330
1F
100
AcDbEntity
  8
0-1_ピット
  6
Continuous
 62
     2
370
     9
100
AcDbCircle
 10
51.50470424342805
 20
-10.64246789360011
 30
0.0
 40
2.000000025774982
100
AcDbArc
 50
90.0
 51
175.7378845214844
  0
ARC
  5
D9
330
1F
100
AcDbEntity
  8
0-1_ピット
  6
Continuous
 62
     2
370
     9
100
AcDbCircle
 10
52.15601534456829
 20
-2.142464594402492
 30
0.0
 40
1.500000019331236
100
AcDbArc
 50
270.0
 51
354.2893981933594
  0
ARC
  5
DA
330
1F
100
AcDbEntity
  8
0-1_ピット
  6
Continuous
 62
     2
370
     9
100
AcDbCircle
 10
63.01347680993993
 20
-2.142464594402492
 30
0.0
 40
1.500000019331236
100
AcDbArc
 50
0.0
 51
90.0
  0
ARC
  5
DB
330
1F
100
AcDbEntity
  8
0-1_ピット
  6
Continuous
 62
     2
370
     9
100
AcDbCircle
 10
-144.7411057755753
 20
-15.81765941202284
 30
0.0
 40
10.49999984535011
100
AcDbArc
 50
184.4201965332032
 51
268.0
  0
ARC
  5
DC
330
1F
100
AcDbEntity
  8
0-1_ピット
  6
Continuous
 62
     2
370
     9
100
AcDbCircle
 10
-144.7411057755753
 20
-15.81765941202284
 30
0.0
 40
15.00000077324945
100
AcDbArc
 50
184.4201965332032
 51
268.0
  0
ARC
  5
DD
330
1F
100
AcDbEntity
  8
0-1_ピット
  6
Continuous
 62
     2
370
     9
100
AcDbCircle
 10
-162.3474389153557
 20
-2.142464594402492
 30
0.0
 40
1.500000019331236
100
AcDbArc
 50
4.420196533203125
 51
90.00000000000001
  0
ARC
  5
DE
330
1F
100
AcDbEntity
  8
0-1_ピット
  6
Continuous
 62
     2
370
     9
100
AcDbCircle
 10
-117.4659131024334
 20
-33.78049147626479
 30
0.0
 40
2.000000025774982
100
AcDbArc
 50
316.6653747558594
 51
88.0
  0
ARC
  5
DF
330
1F
100
AcDbEntity
  8
0-1_ピット
  6
Continuous
 62
     2
370
     9
100
AcDbCircle
 10
-114.0984550682273
 20
-32.39717914782307
 30
0.0
 40
5.000000644374539
100
AcDbArc
 50
316.6653747558594
 51
89.99999999999997
  0
ARC
  5
E0
330
1F
100
AcDbEntity
  8
0-2_本体（蓋）
  6
Continuous
 62
     3
370
     9
100
AcDbCircle
 10
-31.98649019808374
 20
-1191.198584770976
 30
0.0
 40
1198.500019795186
100
AcDbArc
 50
88.39949035644531
 51
93.27650451660156
  0
ARC
  5
E1
330
1F
100
AcDbEntity
  8
0-2_本体（蓋）
  6
Continuous
 62
     3
370
     9
100
AcDbCircle
 10
-31.98649019808374
 20
-1190.628483419624
 30
0.0
 40
1200.000024743982
100
AcDbArc
 50
85.93814086914064
 51
94.06185913085938
  0
TEXT
  5
E2
330
1F
100
AcDbEntity
  8
0-E
  6
Continuous
 62
     2
370
     9
100
AcDbText
 10
85.30099364324263
 20
75.22318528263591
 30
0.0
 40
9.144
  1
１
  7
ＭＳ ゴシック
100
AcDbText
  0
CIRCLE
  5
E3
330
1F
100
AcDbEntity
  8
0-E
  6
Continuous
 62
     7
370
     9
100
AcDbCircle
 10
96.10439778876534
 20
43.93321557903074
 30
0.0
 40
10.49999984535011
  0
TEXT
  5
E4
330
1F
100
AcDbEntity
  8
0-E
  6
Continuous
 62
     2
370
     9
100
AcDbText
 10
90.10443490473872
 20
39.62523289981832
 30
0.0
 40
9.144
  1
２
 41
1.000000000000001
  7
ＭＳ ゴシック
100
AcDbText
  0
CIRCLE
  5
E5
330
1F
100
AcDbEntity
  8
0-E
  6
Continuous
 62
     7
370
     9
100
AcDbCircle
 10
-171.6970685120994
 20
42.4346210978596
 30
0.0
 40
10.49999984535011
  0
TEXT
  5
E6
330
1F
100
AcDbEntity
  8
0-E
  6
Continuous
 62
     2
370
     9
100
AcDbText
 10
-177.697031396126
 20
38.12663841864718
 30
0.0
 40
9.144
  1
３
  7
ＭＳ ゴシック
100
AcDbText
  0
TEXT
  5
E7
330
1F
100
AcDbEntity
  8
0-4_寸法
  6
Continuous
 62
     3
370
     9
100
AcDbText
 10
-6.547725928066348
 20
16.17700071323824
 30
0.0
 40
9.144
  1
ｔ’
 50
88.56548262999999
 41
0.6875000000000006
  7
ＭＳ ゴシック
100
AcDbText
  0
TEXT
  5
E8
330
1F
100
AcDbEntity
  8
0-4_寸法
  6
Continuous
 62
     3
370
     9
100
AcDbText
 10
-7.147610684186713
 20
-11.3347499178679
 30
0.0
 40
9.144
  1
ｔ
 50
88.56531858126723
 41
0.6750000000000002
  7
ＭＳ ゴシック
100
AcDbText
  0
TEXT
  5
E9
330
1F
100
AcDbEntity
  8
0-4_寸法
  6
Continuous
 62
     3
370
     9
100
AcDbText
 10
-37.09247675709165
 20
-83.95049263763966
 30
0.0
 40
9.144
  1
Ｄ
 50
0.000000000810644
 41
0.6749999999999998
  7
ＭＳ ゴシック
100
AcDbText
  0
TEXT
  5
EA
330
1F
100
AcDbEntity
  8
0-4_寸法
  6
Continuous
 62
     3
370
     9
100
AcDbText
 10
-36.83322675506131
 20
41.04953623039693
 30
0.0
 40
9.144
  1
Ａ’
 41
0.6875
  7
ＭＳ ゴシック
100
AcDbText
  0
TEXT
  5
EB
330
1F
100
AcDbEntity
  8
0-4_寸法
  6
Continuous
 62
     3
370
     9
100
AcDbText
 10
113.3214380443677
 20
-30.19245098521222
 30
0.0
 40
9.144
  1
Ｈ
 50
90.0
 41
0.6749999999999998
  7
ＭＳ ゴシック
100
AcDbText
  0
LWPOLYLINE
  5
EC
330
1F
100
AcDbEntity
  8
0-4_寸法
  6
Continuous
 62
     7
370
     9
100
AcDbPolyline
 90
        4
 70
     1
 43
0.3
 10
-1.846852384664887
 20
6.926166276627482
 42
0.4142135623731
 10
-1.996852384664887
 20
7.076166276627482
 42
0.4142135623731
 10
-2.146852384664887
 20
6.926166276627482
 42
0.4142135623731
 10
-1.996852384664887
 20
6.776166276627483
 42
0.4142135623731
  0
LINE
  5
ED
330
1F
100
AcDbEntity
  8
0-4_寸法
  6
Continuous
 62
     7
370
     9
100
AcDbLine
 10
-131.9865726780246
 20
-109.642488925985
 30
0.0
 11
68.01359228185711
 21
-109.642488925985
 31
0.0
  0
LINE
  5
EE
330
1F
100
AcDbEntity
  8
0-4_寸法
  6
Continuous
 62
     7
370
     9
100
AcDbLine
 10
-131.9865726780246
 20
-109.642488925985
 30
0.0
 11
-124.5507214520428
 21
-108.6635365696981
 31
0.0
  0
LINE
  5
EF
330
1F
100
AcDbEntity
  8
0-4_寸法
  6
Continuous
 62
     7
370
     9
100
AcDbLine
 10
-131.9865726780246
 20
-109.642488925985
 30
0.0
 11
-124.5507214520428
 21
-110.621441282272
 31
0.0
  0
LINE
  5
F0
330
1F
100
AcDbEntity
  8
0-4_寸法
  6
Continuous
 62
     7
370
     9
100
AcDbLine
 10
68.01359228185711
 20
-109.642488925985
 30
0.0
 11
60.57774105587532
 21
-108.6635365696981
 31
0.0
  0
LINE
  5
F1
330
1F
100
AcDbEntity
  8
0-4_寸法
  6
Continuous
 62
     7
370
     9
100
AcDbLine
 10
68.01359228185711
 20
-109.642488925985
 30
0.0
 11
60.57774105587532
 21
-110.621441282272
 31
0.0
  0
TEXT
  5
F2
330
1F
100
AcDbEntity
  8
0-4_寸法
  6
Continuous
 62
     3
370
     9
100
AcDbText
 10
-37.09632283211086
 20
-104.9504975863788
 30
0.0
 40
9.144
  1
Ｂ’
 41
0.6875
  7
ＭＳ ゴシック
100
AcDbText
  0
LINE
  5
F3
330
1F
100
AcDbEntity
  8
0-4_寸法
  6
Continuous
 62
     7
370
     9
100
AcDbLine
 10
-151.9865891740128
 20
-130.6424938747815
 30
0.0
 11
88.01346031395173
 21
-130.6424938747815
 31
0.0
  0
LINE
  5
F4
330
1F
100
AcDbEntity
  8
0-4_寸法
  6
Continuous
 62
     7
370
     9
100
AcDbLine
 10
-151.9865891740128
 20
-130.6424938747815
 30
0.0
 11
-144.550737948031
 21
-129.6635415184945
 31
0.0
  0
LINE
  5
F5
330
1F
100
AcDbEntity
  8
0-4_寸法
  6
Continuous
 62
     7
370
     9
100
AcDbLine
 10
-151.9865891740128
 20
-130.6424938747815
 30
0.0
 11
-144.550737948031
 21
-131.6214462310684
 31
0.0
  0
LINE
  5
F6
330
1F
100
AcDbEntity
  8
0-4_寸法
  6
Continuous
 62
     7
370
     9
100
AcDbLine
 10
88.01346031395173
 20
-130.6424938747815
 30
0.0
 11
80.57760908796985
 21
-129.6635415184945
 31
0.0
  0
LINE
  5
F7
330
1F
100
AcDbEntity
  8
0-4_寸法
  6
Continuous
 62
     7
370
     9
100
AcDbLine
 10
88.01346031395173
 20
-130.6424938747815
 30
0.0
 11
80.57760908796985
 21
-131.6214462310684
 31
0.0
  0
TEXT
  5
F8
330
1F
100
AcDbEntity
  8
0-4_寸法
  6
Continuous
 62
     3
370
     9
100
AcDbText
 10
-36.03652731405713
 20
-125.9505025351753
 30
0.0
 40
9.144
  1
Ｂ
 41
0.6749999999999998
  7
ＭＳ ゴシック
100
AcDbText
  0
TEXT
  5
F9
330
1F
100
AcDbEntity
  8
0-4_寸法
  6
Continuous
 62
     3
370
     9
100
AcDbText
 10
-36.03649019808373
 20
62.04954117919343
 30
0.0
 40
9.144
  1
Ａ
 41
0.6749999999999998
  7
ＭＳ ゴシック
100
AcDbText
  0
CIRCLE
  5
FA
330
1F
100
AcDbEntity
  8
0-E
  6
Continuous
 62
     7
370
     9
100
AcDbCircle
 10
91.30095652726925
 20
79.53116796184833
 30
0.0
 40
10.49999984535011
  0
LINE
  5
FB
330
1F
100
AcDbEntity
  8
0-2_本体（蓋）
  6
Continuous
 62
     3
370
     9
100
AcDbLine
 10
-53.98646380450265
 20
267.03216870112
 30
0.0
 11
-53.98646380450265
 21
169.0321175635567
 31
0.0
  0
LINE
  5
FC
330
1F
100
AcDbEntity
  8
0-2_本体（蓋）
  6
Continuous
 62
     3
370
     9
100
AcDbLine
 10
-53.98646380450265
 20
169.0321175635567
 30
0.0
 11
-9.986516591664838
 21
169.0321175635567
 31
0.0
  0
LINE
  5
FD
330
1F
100
AcDbEntity
  8
0-2_本体（蓋）
  6
Continuous
 62
     3
370
     9
100
AcDbLine
 10
-9.986516591664838
 20
169.0321175635567
 30
0.0
 11
-9.986516591664838
 21
267.03216870112
 31
0.0
  0
LINE
  5
FE
330
1F
100
AcDbEntity
  8
0-2_本体（蓋）
  6
Continuous
 62
     3
370
     9
100
AcDbLine
 10
-9.986516591664838
 20
267.03216870112
 30
0.0
 11
-53.98646380450265
 21
267.03216870112
 31
0.0
  0
LINE
  5
FF
330
1F
100
AcDbEntity
  8
0-2_本体（蓋）
  6
Continuous
 62
     3
370
     9
100
AcDbLine
 10
-57.98652648925773
 20
283.0244766218337
 30
0.0
 11
-57.98652648925773
 21
271.0321571539283
 31
0.0
  0
LINE
  5
100
330
1F
100
AcDbEntity
  8
0-2_本体（蓋）
  6
Continuous
 62
     3
370
     9
100
AcDbLine
 10
-57.98652648925773
 20
271.0321571539283
 30
0.0
 11
-69.98656607962937
 21
271.0321571539283
 31
0.0
  0
LINE
  5
101
330
1F
100
AcDbEntity
  8
0-2_本体（蓋）
  6
Continuous
 62
     3
370
     9
100
AcDbLine
 10
-69.98656607962937
 20
271.0321571539283
 30
0.0
 11
-69.98656607962937
 21
276.8198735812931
 31
0.0
  0
LINE
  5
102
330
1F
100
AcDbEntity
  8
0-2_本体（蓋）
  6
Continuous
 62
     3
370
     9
100
AcDbLine
 10
-69.98656607962937
 20
267.03216870112
 30
0.0
 11
-69.98656607962937
 21
237.0321439571377
 31
0.0
  0
LINE
  5
103
330
1F
100
AcDbEntity
  8
0-2_本体（蓋）
  6
Continuous
 62
     3
370
     9
100
AcDbLine
 10
-69.98656607962937
 20
237.0321439571377
 30
0.0
 11
-57.98652648925773
 21
237.0321439571377
 31
0.0
  0
LINE
  5
104
330
1F
100
AcDbEntity
  8
0-2_本体（蓋）
  6
Continuous
 62
     3
370
     9
100
AcDbLine
 10
-57.98652648925773
 20
237.0321439571377
 30
0.0
 11
-57.98652648925773
 21
267.03216870112
 31
0.0
  0
LINE
  5
105
330
1F
100
AcDbEntity
  8
0-2_本体（蓋）
  6
Continuous
 62
     3
370
     9
100
AcDbLine
 10
-57.98652648925773
 20
267.03216870112
 30
0.0
 11
-69.98656607962937
 21
267.03216870112
 31
0.0
  0
LINE
  5
106
330
1F
100
AcDbEntity
  8
0-2_本体（蓋）
  6
Continuous
 62
     3
370
     9
100
AcDbLine
 10
-69.98656607962937
 20
233.0321555043295
 30
0.0
 11
-69.98656607962937
 21
203.0321307603472
 31
0.0
  0
LINE
  5
107
330
1F
100
AcDbEntity
  8
0-2_本体（蓋）
  6
Continuous
 62
     3
370
     9
100
AcDbLine
 10
-69.98656607962937
 20
203.0321307603472
 30
0.0
 11
-57.98652648925773
 21
203.0321307603472
 31
0.0
  0
LINE
  5
108
330
1F
100
AcDbEntity
  8
0-2_本体（蓋）
  6
Continuous
 62
     3
370
     9
100
AcDbLine
 10
-57.98652648925773
 20
203.0321307603472
 30
0.0
 11
-57.98652648925773
 21
233.0321555043295
 31
0.0
  0
LINE
  5
109
330
1F
100
AcDbEntity
  8
0-2_本体（蓋）
  6
Continuous
 62
     3
370
     9
100
AcDbLine
 10
-57.98652648925773
 20
233.0321555043295
 30
0.0
 11
-69.98656607962937
 21
233.0321555043295
 31
0.0
  0
LINE
  5
10A
330
1F
100
AcDbEntity
  8
0-2_本体（蓋）
  6
Continuous
 62
     3
370
     9
100
AcDbLine
 10
-69.98656607962937
 20
199.0321423075389
 30
0.0
 11
-69.98656607962937
 21
169.0321175635567
 31
0.0
  0
LINE
  5
10B
330
1F
100
AcDbEntity
  8
0-2_本体（蓋）
  6
Continuous
 62
     3
370
     9
100
AcDbLine
 10
-69.98656607962937
 20
169.0321175635567
 30
0.0
 11
-57.98652648925773
 21
169.0321175635567
 31
0.0
  0
LINE
  5
10C
330
1F
100
AcDbEntity
  8
0-2_本体（蓋）
  6
Continuous
 62
     3
370
     9
100
AcDbLine
 10
-57.98652648925773
 20
169.0321175635567
 30
0.0
 11
-57.98652648925773
 21
199.0321423075389
 31
0.0
  0
LINE
  5
10D
330
1F
100
AcDbEntity
  8
0-2_本体（蓋）
  6
Continuous
 62
     3
370
     9
100
AcDbLine
 10
-57.98652648925773
 20
199.0321423075389
 30
0.0
 11
-69.98656607962937
 21
199.0321423075389
 31
0.0
  0
LINE
  5
10E
330
1F
100
AcDbEntity
  8
0-2_本体（蓋）
  6
Continuous
 62
     3
370
     9
100
AcDbLine
 10
-69.98656607962937
 20
165.0322033426952
 30
0.0
 11
-69.98656607962937
 21
159.2444126833835
 31
0.0
  0
LINE
  5
10F
330
1F
100
AcDbEntity
  8
0-2_本体（蓋）
  6
Continuous
 62
     3
370
     9
100
AcDbLine
 10
-69.98656607962937
 20
165.0322033426952
 30
0.0
 11
-57.98652648925773
 21
165.0322033426952
 31
0.0
  0
LINE
  5
110
330
1F
100
AcDbEntity
  8
0-2_本体（蓋）
  6
Continuous
 62
     3
370
     9
100
AcDbLine
 10
-57.98652648925773
 20
165.0322033426952
 30
0.0
 11
-57.98652648925773
 21
153.0398467588163
 31
0.0
  0
LINE
  5
111
330
1F
100
AcDbEntity
  8
0-2_本体（蓋）
  6
Continuous
 62
     3
370
     9
100
AcDbLine
 10
-85.9865198908625
 20
221.0321901459046
 30
0.0
 11
-85.9865198908625
 21
215.0321703507188
 31
0.0
  0
LINE
  5
112
330
1F
100
AcDbEntity
  8
0-2_本体（蓋）
  6
Continuous
 62
     3
370
     9
100
AcDbLine
 10
-85.9865198908625
 20
215.0321703507188
 30
0.0
 11
-73.98648030049085
 21
215.0321703507188
 31
0.0
  0
LINE
  5
113
330
1F
100
AcDbEntity
  8
0-2_本体（蓋）
  6
Continuous
 62
     3
370
     9
100
AcDbLine
 10
-73.98648030049085
 20
215.0321703507188
 30
0.0
 11
-73.98648030049085
 21
221.0321901459046
 31
0.0
  0
LINE
  5
114
330
1F
100
AcDbEntity
  8
0-2_本体（蓋）
  6
Continuous
 62
     3
370
     9
100
AcDbLine
 10
-73.98648030049085
 20
221.0321901459046
 30
0.0
 11
-85.9865198908625
 21
221.0321901459046
 31
0.0
  0
LINE
  5
115
330
1F
100
AcDbEntity
  8
0-2_本体（蓋）
  6
Continuous
 62
     3
370
     9
100
AcDbLine
 10
-85.9865198908625
 20
224.0322000434975
 30
0.0
 11
-73.98648030049085
 21
224.0322000434975
 31
0.0
  0
LINE
  5
116
330
1F
100
AcDbEntity
  8
0-2_本体（蓋）
  6
Continuous
 62
     3
370
     9
100
AcDbLine
 10
-73.98648030049085
 20
224.0322000434975
 30
0.0
 11
-73.98648030049085
 21
246.0321736499164
 31
0.0
  0
LINE
  5
117
330
1F
100
AcDbEntity
  8
0-2_本体（蓋）
  6
Continuous
 62
     3
370
     9
100
AcDbLine
 10
-73.98648030049085
 20
246.0321736499164
 30
0.0
 11
-85.9865198908625
 21
246.0321736499164
 31
0.0
  0
LINE
  5
118
330
1F
100
AcDbEntity
  8
0-2_本体（蓋）
  6
Continuous
 62
     3
370
     9
100
AcDbLine
 10
-85.9865198908625
 20
246.0321736499164
 30
0.0
 11
-85.9865198908625
 21
224.0322000434975
 31
0.0
  0
LINE
  5
119
330
1F
100
AcDbEntity
  8
0-2_本体（蓋）
  6
Continuous
 62
     3
370
     9
100
AcDbLine
 10
-85.9865198908625
 20
255.0322033426952
 30
0.0
 11
-85.9865198908625
 21
249.0321835475093
 31
0.0
  0
LINE
  5
11A
330
1F
100
AcDbEntity
  8
0-2_本体（蓋）
  6
Continuous
 62
     3
370
     9
100
AcDbLine
 10
-85.9865198908625
 20
249.0321835475093
 30
0.0
 11
-73.98648030049085
 21
249.0321835475093
 31
0.0
  0
LINE
  5
11B
330
1F
100
AcDbEntity
  8
0-2_本体（蓋）
  6
Continuous
 62
     3
370
     9
100
AcDbLine
 10
-73.98648030049085
 20
249.0321835475093
 30
0.0
 11
-73.98648030049085
 21
255.0322033426952
 31
0.0
  0
LINE
  5
11C
330
1F
100
AcDbEntity
  8
0-2_本体（蓋）
  6
Continuous
 62
     3
370
     9
100
AcDbLine
 10
-73.98648030049085
 20
255.0322033426952
 30
0.0
 11
-85.9865198908625
 21
255.0322033426952
 31
0.0
  0
LINE
  5
11D
330
1F
100
AcDbEntity
  8
0-2_本体（蓋）
  6
Continuous
 62
     3
370
     9
100
AcDbLine
 10
-85.9865198908625
 20
262.5743176005077
 30
0.0
 11
-85.9865198908625
 21
258.0321390083412
 31
0.0
  0
LINE
  5
11E
330
1F
100
AcDbEntity
  8
0-2_本体（蓋）
  6
Continuous
 62
     3
370
     9
100
AcDbLine
 10
-85.9865198908625
 20
258.0321390083412
 30
0.0
 11
-73.98648030049085
 21
258.0321390083412
 31
0.0
  0
LINE
  5
11F
330
1F
100
AcDbEntity
  8
0-2_本体（蓋）
  6
Continuous
 62
     3
370
     9
100
AcDbLine
 10
-73.98648030049085
 20
258.0321390083412
 30
0.0
 11
-73.98648030049085
 21
274.0321670515212
 31
0.0
  0
LINE
  5
120
330
1F
100
AcDbEntity
  8
0-2_本体（蓋）
  6
Continuous
 62
     3
370
     9
100
AcDbLine
 10
-85.9865198908625
 20
212.0321604531259
 30
0.0
 11
-85.9865198908625
 21
190.032186846707
 31
0.0
  0
LINE
  5
121
330
1F
100
AcDbEntity
  8
0-2_本体（蓋）
  6
Continuous
 62
     3
370
     9
100
AcDbLine
 10
-85.9865198908625
 20
190.032186846707
 30
0.0
 11
-73.98648030049085
 21
190.032186846707
 31
0.0
  0
LINE
  5
122
330
1F
100
AcDbEntity
  8
0-2_本体（蓋）
  6
Continuous
 62
     3
370
     9
100
AcDbLine
 10
-73.98648030049085
 20
190.032186846707
 30
0.0
 11
-73.98648030049085
 21
212.0321604531259
 31
0.0
  0
LINE
  5
123
330
1F
100
AcDbEntity
  8
0-2_本体（蓋）
  6
Continuous
 62
     3
370
     9
100
AcDbLine
 10
-73.98648030049085
 20
212.0321604531259
 30
0.0
 11
-85.9865198908625
 21
212.0321604531259
 31
0.0
  0
LINE
  5
124
330
1F
100
AcDbEntity
  8
0-2_本体（蓋）
  6
Continuous
 62
     3
370
     9
100
AcDbLine
 10
-85.9865198908625
 20
187.0321769491141
 30
0.0
 11
-85.9865198908625
 21
181.0321571539283
 31
0.0
  0
LINE
  5
125
330
1F
100
AcDbEntity
  8
0-2_本体（蓋）
  6
Continuous
 62
     3
370
     9
100
AcDbLine
 10
-85.9865198908625
 20
181.0321571539283
 30
0.0
 11
-73.98648030049085
 21
181.0321571539283
 31
0.0
  0
LINE
  5
126
330
1F
100
AcDbEntity
  8
0-2_本体（蓋）
  6
Continuous
 62
     3
370
     9
100
AcDbLine
 10
-73.98648030049085
 20
181.0321571539283
 30
0.0
 11
-73.98648030049085
 21
187.0321769491141
 31
0.0
  0
LINE
  5
127
330
1F
100
AcDbEntity
  8
0-2_本体（蓋）
  6
Continuous
 62
     3
370
     9
100
AcDbLine
 10
-73.98648030049085
 20
187.0321769491141
 30
0.0
 11
-85.9865198908625
 21
187.0321769491141
 31
0.0
  0
LINE
  5
128
330
1F
100
AcDbEntity
  8
0-2_本体（蓋）
  6
Continuous
 62
     3
370
     9
100
AcDbLine
 10
-85.9865198908625
 20
178.0321472563353
 30
0.0
 11
-85.9865198908625
 21
173.4900428961158
 31
0.0
  0
LINE
  5
129
330
1F
100
AcDbEntity
  8
0-2_本体（蓋）
  6
Continuous
 62
     3
370
     9
100
AcDbLine
 10
-85.9865198908625
 20
178.0321472563353
 30
0.0
 11
-73.98648030049085
 21
178.0321472563353
 31
0.0
  0
LINE
  5
12A
330
1F
100
AcDbEntity
  8
0-2_本体（蓋）
  6
Continuous
 62
     3
370
     9
100
AcDbLine
 10
-73.98648030049085
 20
178.0321472563353
 30
0.0
 11
-73.98648030049085
 21
162.0321934451023
 31
0.0
  0
LINE
  5
12B
330
1F
100
AcDbEntity
  8
0-2_本体（蓋）
  6
Continuous
 62
     3
370
     9
100
AcDbLine
 10
-89.98658257561758
 20
257.2239758036327
 30
0.0
 11
-89.98658257561758
 21
237.0321439571377
 31
0.0
  0
LINE
  5
12C
330
1F
100
AcDbEntity
  8
0-2_本体（蓋）
  6
Continuous
 62
     3
370
     9
100
AcDbLine
 10
-89.98658257561758
 20
237.0321439571377
 30
0.0
 11
-99.35866278571046
 21
237.0321439571377
 31
0.0
  0
LINE
  5
12D
330
1F
100
AcDbEntity
  8
0-2_本体（蓋）
  6
Continuous
 62
     3
370
     9
100
AcDbLine
 10
-100.3604971395956
 20
233.0321555043295
 30
0.0
 11
-89.98658257561758
 21
233.0321555043295
 31
0.0
  0
LINE
  5
12E
330
1F
100
AcDbEntity
  8
0-2_本体（蓋）
  6
Continuous
 62
     3
370
     9
100
AcDbLine
 10
-89.98658257561758
 20
233.0321555043295
 30
0.0
 11
-89.98658257561758
 21
203.0321307603472
 31
0.0
  0
LINE
  5
12F
330
1F
100
AcDbEntity
  8
0-2_本体（蓋）
  6
Continuous
 62
     3
370
     9
100
AcDbLine
 10
-99.35866278571046
 20
199.0321423075389
 30
0.0
 11
-89.98658257561758
 21
199.0321423075389
 31
0.0
  0
LINE
  5
130
330
1F
100
AcDbEntity
  8
0-2_本体（蓋）
  6
Continuous
 62
     3
370
     9
100
AcDbLine
 10
-89.98658257561758
 20
199.0321423075389
 30
0.0
 11
-89.98658257561758
 21
178.8403846929908
 31
0.0
  0
LINE
  5
131
330
1F
100
AcDbEntity
  8
0-2_本体（蓋）
  6
Continuous
 62
     3
370
     9
100
AcDbLine
 10
-5.986528138856556
 20
283.0244766218337
 30
0.0
 11
-5.986528138856556
 21
271.0321571539283
 31
0.0
  0
LINE
  5
132
330
1F
100
AcDbEntity
  8
0-2_本体（蓋）
  6
Continuous
 62
     3
370
     9
100
AcDbLine
 10
-5.986528138856556
 20
271.0321571539283
 30
0.0
 11
6.013511451515086
 21
271.0321571539283
 31
0.0
  0
LINE
  5
133
330
1F
100
AcDbEntity
  8
0-2_本体（蓋）
  6
Continuous
 62
     3
370
     9
100
AcDbLine
 10
6.013511451515086
 20
271.0321571539283
 30
0.0
 11
6.013511451515086
 21
276.8198735812931
 31
0.0
  0
LINE
  5
134
330
1F
100
AcDbEntity
  8
0-2_本体（蓋）
  6
Continuous
 62
     3
370
     9
100
AcDbLine
 10
6.013511451515086
 20
267.03216870112
 30
0.0
 11
6.013511451515086
 21
237.0321439571377
 31
0.0
  0
LINE
  5
135
330
1F
100
AcDbEntity
  8
0-2_本体（蓋）
  6
Continuous
 62
     3
370
     9
100
AcDbLine
 10
6.013511451515086
 20
237.0321439571377
 30
0.0
 11
-5.986528138856556
 21
237.0321439571377
 31
0.0
  0
LINE
  5
136
330
1F
100
AcDbEntity
  8
0-2_本体（蓋）
  6
Continuous
 62
     3
370
     9
100
AcDbLine
 10
-5.986528138856556
 20
237.0321439571377
 30
0.0
 11
-5.986528138856556
 21
267.03216870112
 31
0.0
  0
LINE
  5
137
330
1F
100
AcDbEntity
  8
0-2_本体（蓋）
  6
Continuous
 62
     3
370
     9
100
AcDbLine
 10
-5.986528138856556
 20
267.03216870112
 30
0.0
 11
6.013511451515086
 21
267.03216870112
 31
0.0
  0
LINE
  5
138
330
1F
100
AcDbEntity
  8
0-2_本体（蓋）
  6
Continuous
 62
     3
370
     9
100
AcDbLine
 10
6.013511451515086
 20
203.0321307603472
 30
0.0
 11
-5.986528138856556
 21
203.0321307603472
 31
0.0
  0
LINE
  5
139
330
1F
100
AcDbEntity
  8
0-2_本体（蓋）
  6
Continuous
 62
     3
370
     9
100
AcDbLine
 10
-5.986528138856556
 20
203.0321307603472
 30
0.0
 11
-5.986528138856556
 21
233.0321555043295
 31
0.0
  0
LINE
  5
13A
330
1F
100
AcDbEntity
  8
0-2_本体（蓋）
  6
Continuous
 62
     3
370
     9
100
AcDbLine
 10
-5.986528138856556
 20
233.0321555043295
 30
0.0
 11
6.013511451515086
 21
233.0321555043295
 31
0.0
  0
LINE
  5
13B
330
1F
100
AcDbEntity
  8
0-2_本体（蓋）
  6
Continuous
 62
     3
370
     9
100
AcDbLine
 10
6.013511451515086
 20
199.0321423075389
 30
0.0
 11
6.013511451515086
 21
169.0321175635567
 31
0.0
  0
LINE
  5
13C
330
1F
100
AcDbEntity
  8
0-2_本体（蓋）
  6
Continuous
 62
     3
370
     9
100
AcDbLine
 10
6.013511451515086
 20
169.0321175635567
 30
0.0
 11
-5.986528138856556
 21
169.0321175635567
 31
0.0
  0
LINE
  5
13D
330
1F
100
AcDbEntity
  8
0-2_本体（蓋）
  6
Continuous
 62
     3
370
     9
100
AcDbLine
 10
-5.986528138856556
 20
169.0321175635567
 30
0.0
 11
-5.986528138856556
 21
199.0321423075389
 31
0.0
  0
LINE
  5
13E
330
1F
100
AcDbEntity
  8
0-2_本体（蓋）
  6
Continuous
 62
     3
370
     9
100
AcDbLine
 10
-5.986528138856556
 20
199.0321423075389
 30
0.0
 11
6.013511451515086
 21
199.0321423075389
 31
0.0
  0
LINE
  5
13F
330
1F
100
AcDbEntity
  8
0-2_本体（蓋）
  6
Continuous
 62
     3
370
     9
100
AcDbLine
 10
6.013511451515086
 20
165.0322033426952
 30
0.0
 11
6.013511451515086
 21
159.2444126833835
 31
0.0
  0
LINE
  5
140
330
1F
100
AcDbEntity
  8
0-2_本体（蓋）
  6
Continuous
 62
     3
370
     9
100
AcDbLine
 10
6.013511451515086
 20
165.0322033426952
 30
0.0
 11
-5.986528138856556
 21
165.0322033426952
 31
0.0
  0
LINE
  5
141
330
1F
100
AcDbEntity
  8
0-2_本体（蓋）
  6
Continuous
 62
     3
370
     9
100
AcDbLine
 10
-5.986528138856556
 20
165.0322033426952
 30
0.0
 11
-5.986528138856556
 21
153.0398467588163
 31
0.0
  0
LINE
  5
142
330
1F
100
AcDbEntity
  8
0-2_本体（蓋）
  6
Continuous
 62
     3
370
     9
100
AcDbLine
 10
10.01349990432337
 20
246.0321736499164
 30
0.0
 11
22.01346526274813
 21
246.0321736499164
 31
0.0
  0
LINE
  5
143
330
1F
100
AcDbEntity
  8
0-2_本体（蓋）
  6
Continuous
 62
     3
370
     9
100
AcDbLine
 10
22.01346526274813
 20
255.0322033426952
 30
0.0
 11
22.01346526274813
 21
249.0321835475093
 31
0.0
  0
LINE
  5
144
330
1F
100
AcDbEntity
  8
0-2_本体（蓋）
  6
Continuous
 62
     3
370
     9
100
AcDbLine
 10
22.01346526274813
 20
249.0321835475093
 30
0.0
 11
10.01349990432337
 21
249.0321835475093
 31
0.0
  0
LINE
  5
145
330
1F
100
AcDbEntity
  8
0-2_本体（蓋）
  6
Continuous
 62
     3
370
     9
100
AcDbLine
 10
10.01349990432337
 20
249.0321835475093
 30
0.0
 11
10.01349990432337
 21
255.0322033426952
 31
0.0
  0
LINE
  5
146
330
1F
100
AcDbEntity
  8
0-2_本体（蓋）
  6
Continuous
 62
     3
370
     9
100
AcDbLine
 10
10.01349990432337
 20
255.0322033426952
 30
0.0
 11
22.01346526274813
 21
255.0322033426952
 31
0.0
  0
LINE
  5
147
330
1F
100
AcDbEntity
  8
0-2_本体（蓋）
  6
Continuous
 62
     3
370
     9
100
AcDbLine
 10
22.01346526274813
 20
262.5743176005077
 30
0.0
 11
22.01346526274813
 21
258.0321390083412
 31
0.0
  0
LINE
  5
148
330
1F
100
AcDbEntity
  8
0-2_本体（蓋）
  6
Continuous
 62
     3
370
     9
100
AcDbLine
 10
22.01346526274813
 20
258.0321390083412
 30
0.0
 11
10.01349990432337
 21
258.0321390083412
 31
0.0
  0
LINE
  5
149
330
1F
100
AcDbEntity
  8
0-2_本体（蓋）
  6
Continuous
 62
     3
370
     9
100
AcDbLine
 10
10.01349990432337
 20
258.0321390083412
 30
0.0
 11
10.01349990432337
 21
274.0321670515212
 31
0.0
  0
LINE
  5
14A
330
1F
100
AcDbEntity
  8
0-2_本体（蓋）
  6
Continuous
 62
     3
370
     9
100
AcDbLine
 10
22.01346526274813
 20
190.032186846707
 30
0.0
 11
10.01349990432337
 21
190.032186846707
 31
0.0
  0
LINE
  5
14B
330
1F
100
AcDbEntity
  8
0-2_本体（蓋）
  6
Continuous
 62
     3
370
     9
100
AcDbLine
 10
22.01346526274813
 20
187.0321769491141
 30
0.0
 11
22.01346526274813
 21
181.0321571539283
 31
0.0
  0
LINE
  5
14C
330
1F
100
AcDbEntity
  8
0-2_本体（蓋）
  6
Continuous
 62
     3
370
     9
100
AcDbLine
 10
22.01346526274813
 20
181.0321571539283
 30
0.0
 11
10.01349990432337
 21
181.0321571539283
 31
0.0
  0
LINE
  5
14D
330
1F
100
AcDbEntity
  8
0-2_本体（蓋）
  6
Continuous
 62
     3
370
     9
100
AcDbLine
 10
10.01349990432337
 20
181.0321571539283
 30
0.0
 11
10.01349990432337
 21
187.0321769491141
 31
0.0
  0
LINE
  5
14E
330
1F
100
AcDbEntity
  8
0-2_本体（蓋）
  6
Continuous
 62
     3
370
     9
100
AcDbLine
 10
10.01349990432337
 20
187.0321769491141
 30
0.0
 11
22.01346526274813
 21
187.0321769491141
 31
0.0
  0
LINE
  5
14F
330
1F
100
AcDbEntity
  8
0-2_本体（蓋）
  6
Continuous
 62
     3
370
     9
100
AcDbLine
 10
22.01346526274813
 20
178.0321472563353
 30
0.0
 11
22.01346526274813
 21
173.4900428961158
 31
0.0
  0
LINE
  5
150
330
1F
100
AcDbEntity
  8
0-2_本体（蓋）
  6
Continuous
 62
     3
370
     9
100
AcDbLine
 10
22.01346526274813
 20
178.0321472563353
 30
0.0
 11
10.01349990432337
 21
178.0321472563353
 31
0.0
  0
LINE
  5
151
330
1F
100
AcDbEntity
  8
0-2_本体（蓋）
  6
Continuous
 62
     3
370
     9
100
AcDbLine
 10
10.01349990432337
 20
178.0321472563353
 30
0.0
 11
10.01349990432337
 21
162.0321934451023
 31
0.0
  0
LINE
  5
152
330
1F
100
AcDbEntity
  8
0-2_本体（蓋）
  6
Continuous
 62
     3
370
     9
100
AcDbLine
 10
26.01345371555641
 20
257.2239758036327
 30
0.0
 11
26.01345371555641
 21
237.0321439571377
 31
0.0
  0
LINE
  5
153
330
1F
100
AcDbEntity
  8
0-2_本体（蓋）
  6
Continuous
 62
     3
370
     9
100
AcDbLine
 10
26.01345371555641
 20
237.0321439571377
 30
0.0
 11
35.38568238954289
 21
237.0321439571377
 31
0.0
  0
LINE
  5
154
330
1F
100
AcDbEntity
  8
0-2_本体（蓋）
  6
Continuous
 62
     3
370
     9
100
AcDbLine
 10
36.38751674342805
 20
233.0321555043295
 30
0.0
 11
26.01345371555641
 21
233.0321555043295
 31
0.0
  0
LINE
  5
155
330
1F
100
AcDbEntity
  8
0-2_本体（蓋）
  6
Continuous
 62
     3
370
     9
100
AcDbLine
 10
35.38568238954289
 20
199.0321423075389
 30
0.0
 11
26.01345371555641
 21
199.0321423075389
 31
0.0
  0
LINE
  5
156
330
1F
100
AcDbEntity
  8
0-2_本体（蓋）
  6
Continuous
 62
     3
370
     9
100
AcDbLine
 10
26.01345371555641
 20
199.0321423075389
 30
0.0
 11
26.01345371555641
 21
178.8403846929908
 31
0.0
  0
LINE
  5
157
330
1F
100
AcDbEntity
  8
0-2_本体（蓋）
  6
Continuous
 62
     3
370
     9
100
AcDbLine
 10
-37.98643576132281
 20
287.7745046650136
 30
0.0
 11
-37.98643576132281
 21
271.0321571539283
 31
0.0
  0
LINE
  5
158
330
1F
100
AcDbEntity
  8
0-2_本体（蓋）
  6
Continuous
 62
     3
370
     9
100
AcDbLine
 10
-37.98643576132281
 20
271.0321571539283
 30
0.0
 11
-25.98647040289796
 21
271.0321571539283
 31
0.0
  0
LINE
  5
159
330
1F
100
AcDbEntity
  8
0-2_本体（蓋）
  6
Continuous
 62
     3
370
     9
100
AcDbLine
 10
-25.98647040289796
 20
271.0321571539283
 30
0.0
 11
-25.98647040289796
 21
287.7745046650136
 31
0.0
  0
LINE
  5
15A
330
1F
100
AcDbEntity
  8
0-2_本体（蓋）
  6
Continuous
 62
     3
370
     9
100
AcDbLine
 10
-37.98643576132281
 20
165.0322033426952
 30
0.0
 11
-37.98643576132281
 21
148.2897815996631
 31
0.0
  0
LINE
  5
15B
330
1F
100
AcDbEntity
  8
0-2_本体（蓋）
  6
Continuous
 62
     3
370
     9
100
AcDbLine
 10
-37.98643576132281
 20
165.0322033426952
 30
0.0
 11
-25.98647040289796
 21
165.0322033426952
 31
0.0
  0
LINE
  5
15C
330
1F
100
AcDbEntity
  8
0-2_本体（蓋）
  6
Continuous
 62
     3
370
     9
100
AcDbLine
 10
-25.98647040289796
 20
165.0322033426952
 30
0.0
 11
-25.98647040289796
 21
148.2897815996631
 31
0.0
  0
LINE
  5
15D
330
1F
100
AcDbEntity
  8
0-2_本体（蓋）
  6
Continuous
 62
     3
370
     9
100
AcDbLine
 10
-53.98646380450265
 20
165.0322033426952
 30
0.0
 11
-53.98646380450265
 21
156.0321736499164
 31
0.0
  0
LINE
  5
15E
330
1F
100
AcDbEntity
  8
0-2_本体（蓋）
  6
Continuous
 62
     3
370
     9
100
AcDbLine
 10
-53.98646380450265
 20
156.0321736499164
 30
0.0
 11
-41.98649844607789
 21
156.0321736499164
 31
0.0
  0
LINE
  5
15F
330
1F
100
AcDbEntity
  8
0-2_本体（蓋）
  6
Continuous
 62
     3
370
     9
100
AcDbLine
 10
-41.98649844607789
 20
156.0321736499164
 30
0.0
 11
-41.98649844607789
 21
165.0322033426952
 31
0.0
  0
LINE
  5
160
330
1F
100
AcDbEntity
  8
0-2_本体（蓋）
  6
Continuous
 62
     3
370
     9
100
AcDbLine
 10
-41.98649844607789
 20
165.0322033426952
 30
0.0
 11
-53.98646380450265
 21
165.0322033426952
 31
0.0
  0
LINE
  5
161
330
1F
100
AcDbEntity
  8
0-2_本体（蓋）
  6
Continuous
 62
     3
370
     9
100
AcDbLine
 10
-53.98646380450265
 20
151.5791476258455
 30
0.0
 11
-53.98646380450265
 21
153.0321637523235
 31
0.0
  0
LINE
  5
162
330
1F
100
AcDbEntity
  8
0-2_本体（蓋）
  6
Continuous
 62
     3
370
     9
100
AcDbLine
 10
-53.98646380450265
 20
153.0321637523235
 30
0.0
 11
-41.98649844607789
 21
153.0321637523235
 31
0.0
  0
LINE
  5
163
330
1F
100
AcDbEntity
  8
0-2_本体（蓋）
  6
Continuous
 62
     3
370
     9
100
AcDbLine
 10
-41.98649844607789
 20
153.0321637523235
 30
0.0
 11
-41.98649844607789
 21
148.7500939017112
 31
0.0
  0
LINE
  5
164
330
1F
100
AcDbEntity
  8
0-2_本体（蓋）
  6
Continuous
 62
     3
370
     9
100
AcDbLine
 10
-21.98655618203648
 20
148.7500939017112
 30
0.0
 11
-21.98655618203648
 21
153.0321637523235
 31
0.0
  0
LINE
  5
165
330
1F
100
AcDbEntity
  8
0-2_本体（蓋）
  6
Continuous
 62
     3
370
     9
100
AcDbLine
 10
-21.98655618203648
 20
153.0321637523235
 30
0.0
 11
-9.986516591664838
 21
153.0321637523235
 31
0.0
  0
LINE
  5
166
330
1F
100
AcDbEntity
  8
0-2_本体（蓋）
  6
Continuous
 62
     3
370
     9
100
AcDbLine
 10
-9.986516591664838
 20
153.0321637523235
 30
0.0
 11
-9.986516591664838
 21
151.5791476258455
 31
0.0
  0
LINE
  5
167
330
1F
100
AcDbEntity
  8
0-2_本体（蓋）
  6
Continuous
 62
     3
370
     9
100
AcDbLine
 10
-21.98655618203648
 20
165.0322033426952
 30
0.0
 11
-21.98655618203648
 21
156.0321736499164
 31
0.0
  0
LINE
  5
168
330
1F
100
AcDbEntity
  8
0-2_本体（蓋）
  6
Continuous
 62
     3
370
     9
100
AcDbLine
 10
-21.98655618203648
 20
156.0321736499164
 30
0.0
 11
-9.986516591664838
 21
156.0321736499164
 31
0.0
  0
LINE
  5
169
330
1F
100
AcDbEntity
  8
0-2_本体（蓋）
  6
Continuous
 62
     3
370
     9
100
AcDbLine
 10
-9.986516591664838
 20
156.0321736499164
 30
0.0
 11
-9.986516591664838
 21
165.0322033426952
 31
0.0
  0
LINE
  5
16A
330
1F
100
AcDbEntity
  8
0-2_本体（蓋）
  6
Continuous
 62
     3
370
     9
100
AcDbLine
 10
-9.986516591664838
 20
165.0322033426952
 30
0.0
 11
-21.98655618203648
 21
165.0322033426952
 31
0.0
  0
LINE
  5
16B
330
1F
100
AcDbEntity
  8
0-2_本体（蓋）
  6
Continuous
 62
     3
370
     9
100
AcDbLine
 10
-53.98646380450265
 20
271.0321571539283
 30
0.0
 11
-53.98646380450265
 21
280.032186846707
 31
0.0
  0
LINE
  5
16C
330
1F
100
AcDbEntity
  8
0-2_本体（蓋）
  6
Continuous
 62
     3
370
     9
100
AcDbLine
 10
-53.98646380450265
 20
280.032186846707
 30
0.0
 11
-41.98649844607789
 21
280.032186846707
 31
0.0
  0
LINE
  5
16D
330
1F
100
AcDbEntity
  8
0-2_本体（蓋）
  6
Continuous
 62
     3
370
     9
100
AcDbLine
 10
-41.98649844607789
 20
280.032186846707
 30
0.0
 11
-41.98649844607789
 21
271.0321571539283
 31
0.0
  0
LINE
  5
16E
330
1F
100
AcDbEntity
  8
0-2_本体（蓋）
  6
Continuous
 62
     3
370
     9
100
AcDbLine
 10
-41.98649844607789
 20
271.0321571539283
 30
0.0
 11
-53.98646380450265
 21
271.0321571539283
 31
0.0
  0
LINE
  5
16F
330
1F
100
AcDbEntity
  8
0-2_本体（蓋）
  6
Continuous
 62
     3
370
     9
100
AcDbLine
 10
-53.98646380450265
 20
284.4851386388311
 30
0.0
 11
-53.98646380450265
 21
283.0321967442999
 31
0.0
  0
LINE
  5
170
330
1F
100
AcDbEntity
  8
0-2_本体（蓋）
  6
Continuous
 62
     3
370
     9
100
AcDbLine
 10
-53.98646380450265
 20
283.0321967442999
 30
0.0
 11
-41.98649844607789
 21
283.0321967442999
 31
0.0
  0
LINE
  5
171
330
1F
100
AcDbEntity
  8
0-2_本体（蓋）
  6
Continuous
 62
     3
370
     9
100
AcDbLine
 10
-41.98649844607789
 20
283.0321967442999
 30
0.0
 11
-41.98649844607789
 21
287.3141923629654
 31
0.0
  0
LINE
  5
172
330
1F
100
AcDbEntity
  8
0-2_本体（蓋）
  6
Continuous
 62
     3
370
     9
100
AcDbLine
 10
-21.98655618203648
 20
287.3141923629654
 30
0.0
 11
-21.98655618203648
 21
283.0321967442999
 31
0.0
  0
LINE
  5
173
330
1F
100
AcDbEntity
  8
0-2_本体（蓋）
  6
Continuous
 62
     3
370
     9
100
AcDbLine
 10
-21.98655618203648
 20
283.0321967442999
 30
0.0
 11
-9.986516591664838
 21
283.0321967442999
 31
0.0
  0
LINE
  5
174
330
1F
100
AcDbEntity
  8
0-2_本体（蓋）
  6
Continuous
 62
     3
370
     9
100
AcDbLine
 10
-9.986516591664838
 20
283.0321967442999
 30
0.0
 11
-9.986516591664838
 21
284.4851386388311
 31
0.0
  0
LINE
  5
175
330
1F
100
AcDbEntity
  8
0-2_本体（蓋）
  6
Continuous
 62
     3
370
     9
100
AcDbLine
 10
-21.98655618203648
 20
271.0321571539283
 30
0.0
 11
-21.98655618203648
 21
280.032186846707
 31
0.0
  0
LINE
  5
176
330
1F
100
AcDbEntity
  8
0-2_本体（蓋）
  6
Continuous
 62
     3
370
     9
100
AcDbLine
 10
-21.98655618203648
 20
280.032186846707
 30
0.0
 11
-9.986516591664838
 21
280.032186846707
 31
0.0
  0
LINE
  5
177
330
1F
100
AcDbEntity
  8
0-2_本体（蓋）
  6
Continuous
 62
     3
370
     9
100
AcDbLine
 10
-9.986516591664838
 20
280.032186846707
 30
0.0
 11
-9.986516591664838
 21
271.0321571539283
 31
0.0
  0
LINE
  5
178
330
1F
100
AcDbEntity
  8
0-2_本体（蓋）
  6
Continuous
 62
     3
370
     9
100
AcDbLine
 10
-9.986516591664838
 20
271.0321571539283
 30
0.0
 11
-21.98655618203648
 21
271.0321571539283
 31
0.0
  0
LINE
  5
179
330
1F
100
AcDbEntity
  8
0-2_本体（蓋）
  6
Continuous
 62
     3
370
     9
100
AcDbLine
 10
-89.98658257561758
 20
203.0321307603472
 30
0.0
 11
-100.3604971395956
 21
203.0321307603472
 31
0.0
  0
LINE
  5
17A
330
1F
100
AcDbEntity
  8
0-2_本体（蓋）
  6
Continuous
 62
     3
370
     9
100
AcDbLine
 10
26.01345371555641
 20
203.0321307603472
 30
0.0
 11
36.38751674342805
 21
203.0321307603472
 31
0.0
  0
LINE
  5
17B
330
1F
100
AcDbEntity
  8
0-2_本体（蓋）
  6
Continuous
 62
     3
370
     9
100
AcDbLine
 10
10.01349990432337
 20
230.6813039814198
 30
0.0
 11
10.01349990432337
 21
246.0321736499164
 31
0.0
  0
LINE
  5
17C
330
1F
100
AcDbEntity
  8
0-2_本体（蓋）
  6
Continuous
 62
     3
370
     9
100
AcDbLine
 10
22.01346526274813
 20
246.0321736499164
 30
0.0
 11
22.01346526274813
 21
230.6813039814198
 31
0.0
  0
LINE
  5
17D
330
1F
100
AcDbEntity
  8
0-2_本体（蓋）
  6
Continuous
 62
     3
370
     9
100
AcDbLine
 10
22.01346526274813
 20
205.3830565152036
 30
0.0
 11
22.01346526274813
 21
190.032186846707
 31
0.0
  0
LINE
  5
17E
330
1F
100
AcDbEntity
  8
0-2_本体（蓋）
  6
Continuous
 62
     3
370
     9
100
AcDbLine
 10
10.01349990432337
 20
190.032186846707
 30
0.0
 11
10.01349990432337
 21
205.3830565152036
 31
0.0
  0
LINE
  5
17F
330
1F
100
AcDbEntity
  8
0-2_本体（蓋）
  6
Continuous
 62
     3
370
     9
100
AcDbLine
 10
6.013511451515086
 20
233.0321555043295
 30
0.0
 11
6.013511451515086
 21
227.8300549051952
 31
0.0
  0
LINE
  5
180
330
1F
100
AcDbEntity
  8
0-2_本体（蓋）
  6
Continuous
 62
     3
370
     9
100
AcDbLine
 10
6.013511451515086
 20
208.2341571275347
 30
0.0
 11
6.013511451515086
 21
203.0321307603472
 31
0.0
  0
LINE
  5
181
330
1F
100
AcDbEntity
  8
0-2_本体（蓋）
  6
Continuous
 62
     3
370
     9
100
AcDbLine
 10
26.01345371555641
 20
233.0321555043295
 30
0.0
 11
26.01345371555641
 21
227.8300549051952
 31
0.0
  0
LINE
  5
182
330
1F
100
AcDbEntity
  8
0-2_本体（蓋）
  6
Continuous
 62
     3
370
     9
100
AcDbLine
 10
26.01345371555641
 20
208.2341571275347
 30
0.0
 11
26.01345371555641
 21
203.0321307603472
 31
0.0
  0
LINE
  5
183
330
1F
100
AcDbEntity
  8
0-2_本体（蓋）
  6
JWW_CENTER1
 62
     3
370
     9
100
AcDbLine
 10
-140.9866023708034
 20
240.393514971707
 30
0.0
 11
-140.9866023708034
 21
195.380375917125
 31
0.0
  0
LINE
  5
184
330
1F
100
AcDbEntity
  8
0-2_本体（蓋）
  6
JWW_CENTER1
 62
     3
370
     9
100
AcDbLine
 10
16.01351969950915
 20
235.4079489613607
 30
0.0
 11
16.01351969950915
 21
202.5387110100305
 31
0.0
  0
LINE
  5
185
330
1F
100
AcDbEntity
  8
0-1_ピット
  6
Continuous
 62
     2
370
     9
100
AcDbLine
 10
58.01350980191626
 20
336.5322000434975
 30
0.0
 11
-121.9864901980837
 21
336.5322000434975
 31
0.0
  0
LINE
  5
186
330
1F
100
AcDbEntity
  8
0-1_ピット
  6
Continuous
 62
     2
370
     9
100
AcDbLine
 10
86.51352959710204
 20
128.0321802483117
 30
0.0
 11
86.51352959710204
 21
308.0321802483118
 31
0.0
  0
LINE
  5
187
330
1F
100
AcDbEntity
  8
0-1_ピット
  6
Continuous
 62
     2
370
     9
100
AcDbLine
 10
-121.9864901980837
 20
99.53216045312587
 30
0.0
 11
58.01350980191626
 21
99.53216045312587
 31
0.0
  0
LINE
  5
188
330
1F
100
AcDbEntity
  8
0-1_ピット
  6
Continuous
 62
     2
370
     9
100
AcDbLine
 10
58.01350980191626
 20
338.032204992294
 30
0.0
 11
-121.9864901980837
 21
338.032204992294
 31
0.0
  0
LINE
  5
189
330
1F
100
AcDbEntity
  8
0-1_ピット
  6
Continuous
 62
     2
370
     9
100
AcDbLine
 10
88.01346031395173
 20
128.0321802483117
 30
0.0
 11
88.01346031395173
 21
308.0321802483118
 31
0.0
  0
LINE
  5
18A
330
1F
100
AcDbEntity
  8
0-1_ピット
  6
Continuous
 62
     2
370
     9
100
AcDbLine
 10
-121.9864901980837
 20
98.03215550432947
 30
0.0
 11
58.01350980191626
 21
98.03215550432947
 31
0.0
  0
LINE
  5
18B
330
1F
100
AcDbEntity
  8
0-1_ピット
  6
Continuous
 62
     2
370
     9
100
AcDbLine
 10
-150.4865099932696
 20
128.0321802483117
 30
0.0
 11
-150.4865099932696
 21
188.0321555043295
 31
0.0
  0
LINE
  5
18C
330
1F
100
AcDbEntity
  8
0-1_ピット
  6
Continuous
 62
     2
370
     9
100
AcDbLine
 10
-150.4865099932696
 20
248.0321307603472
 30
0.0
 11
-150.4865099932696
 21
308.0321802483118
 31
0.0
  0
LINE
  5
18D
330
1F
100
AcDbEntity
  8
0-1_ピット
  6
Continuous
 62
     2
370
     9
100
AcDbLine
 10
-151.9865891740128
 20
128.0321802483117
 30
0.0
 11
-151.9865891740128
 21
188.0321555043295
 31
0.0
  0
LINE
  5
18E
330
1F
100
AcDbEntity
  8
0-1_ピット
  6
Continuous
 62
     2
370
     9
100
AcDbLine
 10
-151.9865891740128
 20
248.0321307603472
 30
0.0
 11
-151.9865891740128
 21
308.0321802483118
 31
0.0
  0
LINE
  5
18F
330
1F
100
AcDbEntity
  8
0-1_ピット
  6
Continuous
 62
     2
370
     9
100
AcDbLine
 10
-157.9866089691986
 20
248.0321307603472
 30
0.0
 11
-132.6096756393844
 21
248.0321307603472
 31
0.0
  0
LINE
  5
190
330
1F
100
AcDbEntity
  8
0-1_ピット
  6
Continuous
 62
     2
370
     9
100
AcDbLine
 10
-157.9866089691986
 20
188.0321555043295
 30
0.0
 11
-132.6096756393844
 21
188.0321555043295
 31
0.0
  0
LINE
  5
191
330
1F
100
AcDbEntity
  8
0-1_ピット
  6
Continuous
 62
     2
370
     9
100
AcDbLine
 10
-167.9865429852459
 20
198.0321637523235
 30
0.0
 11
-167.9865429852459
 21
238.0321967442999
 31
0.0
  0
LINE
  5
192
330
1F
100
AcDbEntity
  8
0-1_ピット
  6
Continuous
 62
     2
370
     9
100
AcDbLine
 10
-157.9866089691986
 20
247.0322264370786
 30
0.0
 11
-131.8614176157358
 21
247.0322264370786
 31
0.0
  0
LINE
  5
193
330
1F
100
AcDbEntity
  8
0-1_ピット
  6
Continuous
 62
     2
370
     9
100
AcDbLine
 10
-157.9866089691986
 20
189.0321340595448
 30
0.0
 11
-131.8614176157358
 21
189.0321340595448
 31
0.0
  0
LINE
  5
194
330
1F
100
AcDbEntity
  8
0-1_ピット
  6
Continuous
 62
     2
370
     9
100
AcDbLine
 10
-166.9864901980838
 20
198.0321637523235
 30
0.0
 11
-166.9864901980838
 21
238.0321967442999
 31
0.0
  0
LINE
  5
195
330
1F
100
AcDbEntity
  8
0-1_ピット
  6
Continuous
 62
     2
370
     9
100
AcDbLine
 10
-152.9864934972814
 20
235.032186846707
 30
0.0
 11
-116.7996071480416
 21
235.032186846707
 31
0.0
  0
LINE
  5
196
330
1F
100
AcDbEntity
  8
0-1_ピット
  6
Continuous
 62
     2
370
     9
100
AcDbLine
 10
-152.9864934972814
 20
201.0321736499164
 30
0.0
 11
-116.7996071480416
 21
201.0321736499164
 31
0.0
  0
LINE
  5
197
330
1F
100
AcDbEntity
  8
0-1_ピット
  6
Continuous
 62
     2
370
     9
100
AcDbLine
 10
-154.9865990716057
 20
203.0321307603472
 30
0.0
 11
-154.9865990716057
 21
233.0321555043295
 31
0.0
  0
LINE
  5
198
330
1F
100
AcDbEntity
  8
0-1_ピット
  6
Continuous
 62
     2
370
     9
100
AcDbLine
 10
-104.4439965325432
 20
294.0250572806174
 30
0.0
 11
-132.9466886778135
 21
322.5278236578346
 31
0.0
  0
LINE
  5
199
330
1F
100
AcDbEntity
  8
0-1_ピット
  6
Continuous
 62
     2
370
     9
100
AcDbLine
 10
-132.9466886778135
 20
322.5278236578346
 30
0.0
 11
-136.4822078395534
 21
318.9923044960946
 31
0.0
  0
LINE
  5
19A
330
1F
100
AcDbEntity
  8
0-1_ピット
  6
Continuous
 62
     2
370
     9
100
AcDbLine
 10
-136.4822078395534
 20
318.9923044960946
 30
0.0
 11
-107.9795156942831
 21
290.4895381188776
 31
0.0
  0
LINE
  5
19B
330
1F
100
AcDbEntity
  8
0-1_ピット
  6
Continuous
 62
     2
370
     9
100
AcDbLine
 10
-109.3465712263776
 20
289.028208014359
 30
0.0
 11
-136.4822078395534
 21
318.9923044960946
 31
0.0
  0
LINE
  5
19C
330
1F
100
AcDbEntity
  8
0-1_ピット
  6
Continuous
 62
     2
370
     9
100
AcDbLine
 10
-132.9466886778135
 20
322.5278236578346
 30
0.0
 11
-102.9825179641311
 21
295.3921128127121
 31
0.0
  0
LINE
  5
19D
330
1F
100
AcDbEntity
  8
0-1_ピット
  6
Continuous
 62
     2
370
     9
100
AcDbLine
 10
-144.9219347979571
 20
309.7543614138523
 30
0.0
 11
-116.0777756974503
 21
280.9102765452923
 31
0.0
  0
LINE
  5
19E
330
1F
100
AcDbEntity
  8
0-1_ピット
  6
Continuous
 62
     2
370
     9
100
AcDbLine
 10
-145.9393578606682
 20
309.535080243033
 30
0.0
 11
-133.30018120843
 21
296.7184892379654
 31
0.0
  0
LINE
  5
19F
330
1F
100
AcDbEntity
  8
0-1_ピット
  6
Continuous
 62
     2
370
     9
100
AcDbLine
 10
-123.7086713636243
 20
330.967624848185
 30
0.0
 11
-94.86466072701117
 21
302.1234657476783
 31
0.0
  0
LINE
  5
1A0
330
1F
100
AcDbEntity
  8
0-1_ピット
  6
Continuous
 62
     2
370
     9
100
AcDbLine
 10
-123.3219229208456
 20
331.9949949917661
 30
0.0
 11
-110.6727991877375
 21
319.345871258658
 31
0.0
  0
LINE
  5
1A1
330
1F
100
AcDbEntity
  8
0-1_ピット
  6
Continuous
 62
     2
370
     9
100
AcDbLine
 10
-141.9865066940719
 20
293.3355909588269
 30
0.0
 11
-141.9865066940719
 21
248.0321307603472
 31
0.0
  0
LINE
  5
1A2
330
1F
100
AcDbEntity
  8
0-1_ピット
  6
Continuous
 62
     2
370
     9
100
AcDbLine
 10
-139.9865495836412
 20
248.0321307603472
 30
0.0
 11
-139.9865495836412
 21
292.333682372995
 31
0.0
  0
LINE
  5
1A3
330
1F
100
AcDbEntity
  8
0-1_ピット
  6
Continuous
 62
     2
370
     9
100
AcDbLine
 10
-133.158101262273
 20
295.1621422415549
 30
0.0
 11
-117.2739492880331
 21
279.2779902673151
 31
0.0
  0
LINE
  5
1A4
330
1F
100
AcDbEntity
  8
0-1_ピット
  6
Continuous
 62
     2
370
     9
100
AcDbLine
 10
-109.116452191327
 20
319.2037913125009
 30
0.0
 11
-93.2323002170871
 21
303.319639338261
 31
0.0
  0
LINE
  5
1A5
330
1F
100
AcDbEntity
  8
0-1_ピット
  6
Continuous
 62
     2
370
     9
100
AcDbLine
 10
-107.2879708779824
 20
328.0321967442999
 30
0.0
 11
43.31499048181493
 21
328.0321967442999
 31
0.0
  0
LINE
  5
1A6
330
1F
100
AcDbEntity
  8
0-1_ピット
  6
Continuous
 62
     2
370
     9
100
AcDbLine
 10
42.31508615854634
 20
326.0321654019224
 30
0.0
 11
-106.2880665547138
 21
326.0321654019224
 31
0.0
  0
LINE
  5
1A7
330
1F
100
AcDbEntity
  8
0-1_ピット
  6
Continuous
 62
     2
370
     9
100
AcDbLine
 10
-104.4439965325432
 20
142.0392289840592
 30
0.0
 11
-132.9466886778135
 21
113.5364626068421
 31
0.0
  0
LINE
  5
1A8
330
1F
100
AcDbEntity
  8
0-1_ピット
  6
Continuous
 62
     2
370
     9
100
AcDbLine
 10
-132.9466886778135
 20
113.5364626068421
 30
0.0
 11
-136.4822078395534
 21
117.071981768582
 31
0.0
  0
LINE
  5
1A9
330
1F
100
AcDbEntity
  8
0-1_ピット
  6
Continuous
 62
     2
370
     9
100
AcDbLine
 10
-136.4822078395534
 20
117.071981768582
 30
0.0
 11
-107.9795156942831
 21
145.574748145799
 31
0.0
  0
LINE
  5
1AA
330
1F
100
AcDbEntity
  8
0-1_ピット
  6
Continuous
 62
     2
370
     9
100
AcDbLine
 10
-109.3465712263776
 20
147.036115366291
 30
0.0
 11
-136.4822078395534
 21
117.071981768582
 31
0.0
  0
LINE
  5
1AB
330
1F
100
AcDbEntity
  8
0-1_ピット
  6
Continuous
 62
     2
370
     9
100
AcDbLine
 10
-132.9466886778135
 20
113.5364626068421
 30
0.0
 11
-102.9825179641311
 21
140.6721734519645
 31
0.0
  0
LINE
  5
1AC
330
1F
100
AcDbEntity
  8
0-1_ピット
  6
Continuous
 62
     2
370
     9
100
AcDbLine
 10
-144.9219347979571
 20
126.3099248508244
 30
0.0
 11
-116.0777756974503
 21
155.1540468353577
 31
0.0
  0
LINE
  5
1AD
330
1F
100
AcDbEntity
  8
0-1_ピット
  6
Continuous
 62
     2
370
     9
100
AcDbLine
 10
-145.9393578606682
 20
126.5292060216436
 30
0.0
 11
-133.30018120843
 21
139.3458341426846
 31
0.0
  0
LINE
  5
1AE
330
1F
100
AcDbEntity
  8
0-1_ピット
  6
Continuous
 62
     2
370
     9
100
AcDbLine
 10
-123.7086713636243
 20
105.0967356484384
 30
0.0
 11
-94.86466072701117
 21
133.9408576329717
 31
0.0
  0
LINE
  5
1AF
330
1F
100
AcDbEntity
  8
0-1_ピット
  6
Continuous
 62
     2
370
     9
100
AcDbLine
 10
-123.3219229208456
 20
104.0692912729105
 30
0.0
 11
-110.6727991877375
 21
116.718452121992
 31
0.0
  0
LINE
  5
1B0
330
1F
100
AcDbEntity
  8
0-1_ピット
  6
Continuous
 62
     2
370
     9
100
AcDbLine
 10
-141.9865066940719
 20
142.7286953058497
 30
0.0
 11
-141.9865066940719
 21
188.0321555043295
 31
0.0
  0
LINE
  5
1B1
330
1F
100
AcDbEntity
  8
0-1_ピット
  6
Continuous
 62
     2
370
     9
100
AcDbLine
 10
-139.9865495836412
 20
188.0321555043295
 30
0.0
 11
-139.9865495836412
 21
143.730641007655
 31
0.0
  0
LINE
  5
1B2
330
1F
100
AcDbEntity
  8
0-1_ピット
  6
Continuous
 62
     2
370
     9
100
AcDbLine
 10
-133.158101262273
 20
140.9022182550684
 30
0.0
 11
-117.2739492880331
 21
156.7863702293083
 31
0.0
  0
LINE
  5
1B3
330
1F
100
AcDbEntity
  8
0-1_ピット
  6
Continuous
 62
     2
370
     9
100
AcDbLine
 10
-109.116452191327
 20
116.8605691841225
 30
0.0
 11
-93.2323002170871
 21
132.744684042389
 31
0.0
  0
LINE
  5
1B4
330
1F
100
AcDbEntity
  8
0-1_ピット
  6
Continuous
 62
     2
370
     9
100
AcDbLine
 10
-107.2879708779824
 20
108.0321637523235
 30
0.0
 11
43.31499048181493
 21
108.0321637523235
 31
0.0
  0
LINE
  5
1B5
330
1F
100
AcDbEntity
  8
0-1_ピット
  6
Continuous
 62
     2
370
     9
100
AcDbLine
 10
42.31508615854634
 20
110.0321208627542
 30
0.0
 11
-106.2880665547138
 21
110.0321208627542
 31
0.0
  0
LINE
  5
1B6
330
1F
100
AcDbEntity
  8
0-1_ピット
  6
Continuous
 62
     2
370
     9
100
AcDbLine
 10
40.47086767248211
 20
294.0250572806174
 30
0.0
 11
68.97370828164594
 21
322.5278236578346
 31
0.0
  0
LINE
  5
1B7
330
1F
100
AcDbEntity
  8
0-1_ピット
  6
Continuous
 62
     2
370
     9
100
AcDbLine
 10
68.97370828164594
 20
322.5278236578346
 30
0.0
 11
72.50922744338587
 21
318.9923044960946
 31
0.0
  0
LINE
  5
1B8
330
1F
100
AcDbEntity
  8
0-1_ピット
  6
Continuous
 62
     2
370
     9
100
AcDbLine
 10
72.50922744338587
 20
318.9923044960946
 30
0.0
 11
44.00638683422196
 21
290.4895381188776
 31
0.0
  0
LINE
  5
1B9
330
1F
100
AcDbEntity
  8
0-1_ピット
  6
Continuous
 62
     2
370
     9
100
AcDbLine
 10
45.37344236631657
 20
289.028208014359
 30
0.0
 11
72.50922744338587
 21
318.9923044960946
 31
0.0
  0
LINE
  5
1BA
330
1F
100
AcDbEntity
  8
0-1_ピット
  6
Continuous
 62
     2
370
     9
100
AcDbLine
 10
68.97370828164594
 20
322.5278236578346
 30
0.0
 11
39.00953756796352
 21
295.3921128127121
 31
0.0
  0
LINE
  5
1BB
330
1F
100
AcDbEntity
  8
0-1_ピット
  6
Continuous
 62
     2
370
     9
100
AcDbLine
 10
80.94895440178954
 20
309.7543614138523
 30
0.0
 11
52.10479530128282
 21
280.9102765452923
 31
0.0
  0
LINE
  5
1BC
330
1F
100
AcDbEntity
  8
0-1_ピット
  6
Continuous
 62
     2
370
     9
100
AcDbLine
 10
81.96637746450071
 20
309.535080243033
 30
0.0
 11
69.3272008122625
 21
296.7184892379654
 31
0.0
  0
LINE
  5
1BD
330
1F
100
AcDbEntity
  8
0-1_ピット
  6
Continuous
 62
     2
370
     9
100
AcDbLine
 10
59.7356909674568
 20
330.967624848185
 30
0.0
 11
30.8916060988968
 21
302.1234657476783
 31
0.0
  0
LINE
  5
1BE
330
1F
100
AcDbEntity
  8
0-1_ピット
  6
Continuous
 62
     2
370
     9
100
AcDbLine
 10
59.34894252467805
 20
331.9949949917661
 30
0.0
 11
46.69981879156992
 21
319.345871258658
 31
0.0
  0
LINE
  5
1BF
330
1F
100
AcDbEntity
  8
0-1_ピット
  6
Continuous
 62
     2
370
     9
100
AcDbLine
 10
69.1851208661054
 20
295.1621422415549
 30
0.0
 11
53.30096889186555
 21
279.2779902673151
 31
0.0
  0
LINE
  5
1C0
330
1F
100
AcDbEntity
  8
0-1_ピット
  6
Continuous
 62
     2
370
     9
100
AcDbLine
 10
45.14347179515946
 20
319.2037913125009
 30
0.0
 11
29.25931982091961
 21
303.319639338261
 31
0.0
  0
LINE
  5
1C1
330
1F
100
AcDbEntity
  8
0-1_ピット
  6
Continuous
 62
     2
370
     9
100
AcDbLine
 10
40.47086767248211
 20
142.0392289840592
 30
0.0
 11
68.97370828164594
 21
113.5364626068421
 31
0.0
  0
LINE
  5
1C2
330
1F
100
AcDbEntity
  8
0-1_ピット
  6
Continuous
 62
     2
370
     9
100
AcDbLine
 10
68.97370828164594
 20
113.5364626068421
 30
0.0
 11
72.50922744338587
 21
117.071981768582
 31
0.0
  0
LINE
  5
1C3
330
1F
100
AcDbEntity
  8
0-1_ピット
  6
Continuous
 62
     2
370
     9
100
AcDbLine
 10
72.50922744338587
 20
117.071981768582
 30
0.0
 11
44.00638683422196
 21
145.574748145799
 31
0.0
  0
LINE
  5
1C4
330
1F
100
AcDbEntity
  8
0-1_ピット
  6
Continuous
 62
     2
370
     9
100
AcDbLine
 10
45.37344236631657
 20
147.036115366291
 30
0.0
 11
72.50922744338587
 21
117.071981768582
 31
0.0
  0
LINE
  5
1C5
330
1F
100
AcDbEntity
  8
0-1_ピット
  6
Continuous
 62
     2
370
     9
100
AcDbLine
 10
68.97370828164594
 20
113.5364626068421
 30
0.0
 11
39.00953756796352
 21
140.6721734519645
 31
0.0
  0
LINE
  5
1C6
330
1F
100
AcDbEntity
  8
0-1_ピット
  6
Continuous
 62
     2
370
     9
100
AcDbLine
 10
80.94895440178954
 20
126.3099248508244
 30
0.0
 11
52.10479530128282
 21
155.1540468353577
 31
0.0
  0
LINE
  5
1C7
330
1F
100
AcDbEntity
  8
0-1_ピット
  6
Continuous
 62
     2
370
     9
100
AcDbLine
 10
81.96637746450071
 20
126.5292060216436
 30
0.0
 11
69.3272008122625
 21
139.3458341426846
 31
0.0
  0
LINE
  5
1C8
330
1F
100
AcDbEntity
  8
0-1_ピット
  6
Continuous
 62
     2
370
     9
100
AcDbLine
 10
59.7356909674568
 20
105.0967356484384
 30
0.0
 11
30.8916060988968
 21
133.9408576329717
 31
0.0
  0
LINE
  5
1C9
330
1F
100
AcDbEntity
  8
0-1_ピット
  6
Continuous
 62
     2
370
     9
100
AcDbLine
 10
59.34894252467805
 20
104.0692912729105
 30
0.0
 11
46.69981879156992
 21
116.718452121992
 31
0.0
  0
LINE
  5
1CA
330
1F
100
AcDbEntity
  8
0-1_ピット
  6
Continuous
 62
     2
370
     9
100
AcDbLine
 10
69.1851208661054
 20
140.9022182550684
 30
0.0
 11
53.30096889186555
 21
156.7863702293083
 31
0.0
  0
LINE
  5
1CB
330
1F
100
AcDbEntity
  8
0-1_ピット
  6
Continuous
 62
     2
370
     9
100
AcDbLine
 10
45.14347179515946
 20
116.8605691841225
 30
0.0
 11
29.25931982091961
 21
132.744684042389
 31
0.0
  0
LINE
  5
1CC
330
1F
100
AcDbEntity
  8
0-1_ピット
  6
Continuous
 62
     2
370
     9
100
AcDbLine
 10
76.01342072358008
 20
143.730641007655
 30
0.0
 11
76.01342072358008
 21
292.333682372995
 31
0.0
  0
LINE
  5
1CD
330
1F
100
AcDbEntity
  8
0-1_ピット
  6
Continuous
 62
     2
370
     9
100
AcDbLine
 10
78.01352629790446
 20
293.3355909588269
 30
0.0
 11
78.01352629790446
 21
142.7286953058497
 31
0.0
  0
LINE
  5
1CE
330
1F
100
AcDbEntity
  8
0-2_本体（蓋）
  6
Continuous
 62
     3
370
     9
100
AcDbLine
 10
-115.5612698116817
 20
233.5321818979106
 30
0.0
 11
-150.8365878543338
 21
233.5321818979106
 31
0.0
  0
LINE
  5
1CF
330
1F
100
AcDbEntity
  8
0-2_本体（蓋）
  6
Continuous
 62
     3
370
     9
100
AcDbLine
 10
-150.8365878543338
 20
233.5321818979106
 30
0.0
 11
-150.8365878543338
 21
202.5321785987129
 31
0.0
  0
LINE
  5
1D0
330
1F
100
AcDbEntity
  8
0-2_本体（蓋）
  6
Continuous
 62
     3
370
     9
100
AcDbLine
 10
-150.8365878543338
 20
202.5321785987129
 30
0.0
 11
-115.5612698116817
 21
202.5321785987129
 31
0.0
  0
LINE
  5
1D1
330
1F
100
AcDbEntity
  8
0-2_本体（蓋）
  6
JWW_CENTER1
 62
     3
370
     9
100
AcDbLine
 10
-31.98649019808374
 20
347.0321604531259
 30
0.0
 11
-31.98649019808374
 21
89.03223715947087
 31
0.0
  0
LINE
  5
1D2
330
1F
100
AcDbEntity
  8
0-2_本体（蓋）
  6
JWW_CENTER1
 62
     3
370
     9
100
AcDbLine
 10
-176.9865355620512
 20
218.0321802483117
 30
0.0
 11
97.01345289075704
 21
218.0321802483117
 31
0.0
  0
ARC
  5
1D3
330
1F
100
AcDbEntity
  8
0-2_本体（蓋）
  6
Continuous
 62
     3
370
     9
100
AcDbCircle
 10
-31.98649019808374
 20
218.0321802483117
 30
0.0
 40
85.0000051549963
100
AcDbArc
 50
190.5068359375
 51
169.493148803711
  0
ARC
  5
1D4
330
1F
100
AcDbEntity
  8
0-2_本体（蓋）
  6
Continuous
 62
     3
370
     9
100
AcDbCircle
 10
-31.98649019808374
 20
218.0321802483117
 30
0.0
 40
70.00000206199853
100
AcDbArc
 50
195.7492828369141
 51
214.0477294921875
  0
ARC
  5
1D5
330
1F
100
AcDbEntity
  8
0-2_本体（蓋）
  6
Continuous
 62
     3
370
     9
100
AcDbCircle
 10
-31.98649019808374
 20
218.0321802483117
 30
0.0
 40
70.00000206199853
100
AcDbArc
 50
219.5176391601562
 51
233.1300964355469
  0
ARC
  5
1D6
330
1F
100
AcDbEntity
  8
0-2_本体（蓋）
  6
Continuous
 62
     3
370
     9
100
AcDbCircle
 10
-31.98649019808374
 20
218.0321802483117
 30
0.0
 40
70.00000206199853
100
AcDbArc
 50
237.1216430664062
 51
248.1962432861328
  0
ARC
  5
1D7
330
1F
100
AcDbEntity
  8
0-2_本体（蓋）
  6
Continuous
 62
     3
370
     9
100
AcDbCircle
 10
-31.98649019808374
 20
218.0321802483117
 30
0.0
 40
70.00000206199853
100
AcDbArc
 50
251.6822967529297
 51
261.7867889404297
  0
ARC
  5
1D8
330
1F
100
AcDbEntity
  8
0-2_本体（蓋）
  6
Continuous
 62
     3
370
     9
100
AcDbCircle
 10
-31.98649019808374
 20
218.0321802483117
 30
0.0
 40
70.00000206199853
100
AcDbArc
 50
265.0828857421875
 51
274.9170989990234
  0
ARC
  5
1D9
330
1F
100
AcDbEntity
  8
0-2_本体（蓋）
  6
Continuous
 62
     3
370
     9
100
AcDbCircle
 10
-31.98649019808374
 20
218.0321802483117
 30
0.0
 40
70.00000206199853
100
AcDbArc
 50
278.2131958007812
 51
288.3176879882812
  0
ARC
  5
1DA
330
1F
100
AcDbEntity
  8
0-2_本体（蓋）
  6
Continuous
 62
     3
370
     9
100
AcDbCircle
 10
-31.98649019808374
 20
218.0321802483117
 30
0.0
 40
70.00000206199853
100
AcDbArc
 50
291.8037414550781
 51
302.8783416748047
  0
ARC
  5
1DB
330
1F
100
AcDbEntity
  8
0-2_本体（蓋）
  6
Continuous
 62
     3
370
     9
100
AcDbCircle
 10
-31.98649019808374
 20
218.0321802483117
 30
0.0
 40
70.00000206199853
100
AcDbArc
 50
306.8698883056641
 51
320.4823455810547
  0
ARC
  5
1DC
330
1F
100
AcDbEntity
  8
0-2_本体（蓋）
  6
Continuous
 62
     3
370
     9
100
AcDbCircle
 10
-31.98649019808374
 20
218.0321802483117
 30
0.0
 40
70.00000206199853
100
AcDbArc
 50
325.9522552490234
 51
344.2507019042969
  0
ARC
  5
1DD
330
1F
100
AcDbEntity
  8
0-2_本体（蓋）
  6
Continuous
 62
     3
370
     9
100
AcDbCircle
 10
-31.98649019808374
 20
218.0321802483117
 30
0.0
 40
70.00000206199853
100
AcDbArc
 50
347.6263732910157
 51
12.37361145019534
  0
ARC
  5
1DE
330
1F
100
AcDbEntity
  8
0-2_本体（蓋）
  6
Continuous
 62
     3
370
     9
100
AcDbCircle
 10
-31.98649019808374
 20
218.0321802483117
 30
0.0
 40
70.00000206199853
100
AcDbArc
 50
15.74928283691406
 51
34.0477294921875
  0
ARC
  5
1DF
330
1F
100
AcDbEntity
  8
0-2_本体（蓋）
  6
Continuous
 62
     3
370
     9
100
AcDbCircle
 10
-31.98649019808374
 20
218.0321802483117
 30
0.0
 40
70.00000206199853
100
AcDbArc
 50
39.51763916015625
 51
53.13009643554688
  0
ARC
  5
1E0
330
1F
100
AcDbEntity
  8
0-2_本体（蓋）
  6
Continuous
 62
     3
370
     9
100
AcDbCircle
 10
-31.98649019808374
 20
218.0321802483117
 30
0.0
 40
70.00000206199853
100
AcDbArc
 50
57.12164306640626
 51
68.19624328613283
  0
ARC
  5
1E1
330
1F
100
AcDbEntity
  8
0-2_本体（蓋）
  6
Continuous
 62
     3
370
     9
100
AcDbCircle
 10
-31.98649019808374
 20
218.0321802483117
 30
0.0
 40
70.00000206199853
100
AcDbArc
 50
71.68229675292969
 51
81.78678894042969
  0
ARC
  5
1E2
330
1F
100
AcDbEntity
  8
0-2_本体（蓋）
  6
Continuous
 62
     3
370
     9
100
AcDbCircle
 10
-31.98649019808374
 20
218.0321802483117
 30
0.0
 40
70.00000206199853
100
AcDbArc
 50
85.0828857421875
 51
94.91709899902344
  0
ARC
  5
1E3
330
1F
100
AcDbEntity
  8
0-2_本体（蓋）
  6
Continuous
 62
     3
370
     9
100
AcDbCircle
 10
-31.98649019808374
 20
218.0321802483117
 30
0.0
 40
70.00000206199853
100
AcDbArc
 50
98.21319580078125
 51
108.3176879882812
  0
ARC
  5
1E4
330
1F
100
AcDbEntity
  8
0-2_本体（蓋）
  6
Continuous
 62
     3
370
     9
100
AcDbCircle
 10
-31.98649019808374
 20
218.0321802483117
 30
0.0
 40
70.00000206199853
100
AcDbArc
 50
111.8037414550781
 51
122.8783416748047
  0
ARC
  5
1E5
330
1F
100
AcDbEntity
  8
0-2_本体（蓋）
  6
Continuous
 62
     3
370
     9
100
AcDbCircle
 10
-31.98649019808374
 20
218.0321802483117
 30
0.0
 40
70.00000206199853
100
AcDbArc
 50
126.8698883056641
 51
140.4823455810547
  0
ARC
  5
1E6
330
1F
100
AcDbEntity
  8
0-2_本体（蓋）
  6
Continuous
 62
     3
370
     9
100
AcDbCircle
 10
-31.98649019808374
 20
218.0321802483117
 30
0.0
 40
70.00000206199853
100
AcDbArc
 50
145.9522552490235
 51
164.2507019042969
  0
ARC
  5
1E7
330
1F
100
AcDbEntity
  8
0-2_本体（蓋）
  6
Continuous
 62
     3
370
     9
100
AcDbCircle
 10
-31.98649019808374
 20
218.0321802483117
 30
0.0
 40
70.00000206199853
100
AcDbArc
 50
167.6263732910156
 51
192.3736114501953
  0
CIRCLE
  5
1E8
330
1F
100
AcDbEntity
  8
0-2_本体（蓋）
  6
Continuous
 62
     3
370
     9
100
AcDbCircle
 10
16.01351969950915
 20
218.0321802483117
 30
0.0
 40
10.00000128874908
  0
ARC
  5
1E9
330
1F
100
AcDbEntity
  8
0-2_本体（蓋）
  6
Continuous
 62
     3
370
     9
100
AcDbCircle
 10
16.01351969950915
 20
218.0321802483117
 30
0.0
 40
14.00000134029904
100
AcDbArc
 50
135.5846862792969
 51
224.4152984619141
  0
ARC
  5
1EA
330
1F
100
AcDbEntity
  8
0-2_本体（蓋）
  6
Continuous
 62
     3
370
     9
100
AcDbCircle
 10
16.01351969950915
 20
218.0321802483117
 30
0.0
 40
14.00000134029904
100
AcDbArc
 50
244.6230621337891
 51
295.3769226074219
  0
ARC
  5
1EB
330
1F
100
AcDbEntity
  8
0-2_本体（蓋）
  6
Continuous
 62
     3
370
     9
100
AcDbCircle
 10
16.01351969950915
 20
218.0321802483117
 30
0.0
 40
14.00000134029904
100
AcDbArc
 50
315.5846862792969
 51
44.41529846191408
  0
ARC
  5
1EC
330
1F
100
AcDbEntity
  8
0-2_本体（蓋）
  6
Continuous
 62
     3
370
     9
100
AcDbCircle
 10
16.01351969950915
 20
218.0321802483117
 30
0.0
 40
14.00000134029904
100
AcDbArc
 50
64.62306213378906
 51
115.3769226074219
  0
ARC
  5
1ED
330
1F
100
AcDbEntity
  8
0-1_ピット
  6
Continuous
 62
     2
370
     9
100
AcDbCircle
 10
-121.9864901980837
 20
308.0321802483118
 30
0.0
 40
28.50000123719911
100
AcDbArc
 50
90.0
 51
180.0
  0
ARC
  5
1EE
330
1F
100
AcDbEntity
  8
0-1_ピット
  6
Continuous
 62
     2
370
     9
100
AcDbCircle
 10
58.01350980191626
 20
308.0321802483118
 30
0.0
 40
28.50000123719911
100
AcDbArc
 50
0.0
 51
90.0
  0
ARC
  5
1EF
330
1F
100
AcDbEntity
  8
0-1_ピット
  6
Continuous
 62
     2
370
     9
100
AcDbCircle
 10
58.01350980191626
 20
128.0321802483117
 30
0.0
 40
28.50000123719911
100
AcDbArc
 50
270.0
 51
0.0
  0
ARC
  5
1F0
330
1F
100
AcDbEntity
  8
0-1_ピット
  6
Continuous
 62
     2
370
     9
100
AcDbCircle
 10
-121.9864901980837
 20
128.0321802483117
 30
0.0
 40
28.50000123719911
100
AcDbArc
 50
180.0
 51
270.0
  0
ARC
  5
1F1
330
1F
100
AcDbEntity
  8
0-1_ピット
  6
Continuous
 62
     2
370
     9
100
AcDbCircle
 10
-121.9864901980837
 20
308.0321802483118
 30
0.0
 40
30.00000154649889
100
AcDbArc
 50
90.0
 51
180.0
  0
ARC
  5
1F2
330
1F
100
AcDbEntity
  8
0-1_ピット
  6
Continuous
 62
     2
370
     9
100
AcDbCircle
 10
58.01350980191626
 20
308.0321802483118
 30
0.0
 40
30.00000154649889
100
AcDbArc
 50
0.0
 51
90.0
  0
ARC
  5
1F3
330
1F
100
AcDbEntity
  8
0-1_ピット
  6
Continuous
 62
     2
370
     9
100
AcDbCircle
 10
58.01350980191626
 20
128.0321802483117
 30
0.0
 40
30.00000154649889
100
AcDbArc
 50
270.0
 51
0.0
  0
ARC
  5
1F4
330
1F
100
AcDbEntity
  8
0-1_ピット
  6
Continuous
 62
     2
370
     9
100
AcDbCircle
 10
-121.9864901980837
 20
128.0321802483117
 30
0.0
 40
30.00000154649889
100
AcDbArc
 50
180.0
 51
270.0
  0
ARC
  5
1F5
330
1F
100
AcDbEntity
  8
0-1_ピット
  6
Continuous
 62
     2
370
     9
100
AcDbCircle
 10
-31.98649019808374
 20
218.0321802483117
 30
0.0
 40
105.0000030929978
100
AcDbArc
 50
196.6015472412109
 51
163.3984375
  0
ARC
  5
1F6
330
1F
100
AcDbEntity
  8
0-1_ピット
  6
Continuous
 62
     2
370
     9
100
AcDbCircle
 10
-31.98649019808374
 20
218.0321802483117
 30
0.0
 40
103.9999967008024
100
AcDbArc
 50
196.1913452148438
 51
163.8086395263672
  0
ARC
  5
1F7
330
1F
100
AcDbEntity
  8
0-1_ピット
  6
Continuous
 62
     2
370
     9
100
AcDbCircle
 10
-157.9866089691986
 20
238.0321967442999
 30
0.0
 40
10.00000128874908
100
AcDbArc
 50
90.0
 51
180.0
  0
ARC
  5
1F8
330
1F
100
AcDbEntity
  8
0-1_ピット
  6
Continuous
 62
     2
370
     9
100
AcDbCircle
 10
-157.9866089691986
 20
198.0321637523235
 30
0.0
 40
10.00000128874908
100
AcDbArc
 50
180.0
 51
270.0
  0
ARC
  5
1F9
330
1F
100
AcDbEntity
  8
0-1_ピット
  6
Continuous
 62
     2
370
     9
100
AcDbCircle
 10
-157.9866089691986
 20
238.0321967442999
 30
0.0
 40
8.999998956113249
100
AcDbArc
 50
90.0
 51
180.0
  0
ARC
  5
1FA
330
1F
100
AcDbEntity
  8
0-1_ピット
  6
Continuous
 62
     2
370
     9
100
AcDbCircle
 10
-157.9866089691986
 20
198.0321637523235
 30
0.0
 40
8.999998956113249
100
AcDbArc
 50
180.0
 51
270.0
  0
ARC
  5
1FB
330
1F
100
AcDbEntity
  8
0-1_ピット
  6
Continuous
 62
     2
370
     9
100
AcDbCircle
 10
-152.9864934972814
 20
233.0321555043295
 30
0.0
 40
2.000000025774982
100
AcDbArc
 50
90.0
 51
180.0
  0
ARC
  5
1FC
330
1F
100
AcDbEntity
  8
0-1_ピット
  6
Continuous
 62
     2
370
     9
100
AcDbCircle
 10
-152.9864934972814
 20
203.0321307603472
 30
0.0
 40
2.000000025774982
100
AcDbArc
 50
180.0
 51
270.0
  0
ARC
  5
1FD
330
1F
100
AcDbEntity
  8
0-1_ピット
  6
Continuous
 62
     2
370
     9
100
AcDbCircle
 10
-31.98649019808374
 20
218.0321802483117
 30
0.0
 40
86.50000082479941
100
AcDbArc
 50
191.3342132568359
 51
168.6657714843751
  0
ARC
  5
1FE
330
1F
100
AcDbEntity
  8
0-1_ピット
  6
Continuous
 62
     2
370
     9
100
AcDbCircle
 10
-121.9864901980837
 20
308.0321802483118
 30
0.0
 40
24.00000030929978
100
AcDbArc
 50
93.18968200683595
 51
176.4096069335938
  0
ARC
  5
1FF
330
1F
100
AcDbEntity
  8
0-1_ピット
  6
Continuous
 62
     2
370
     9
100
AcDbCircle
 10
-121.9864901980837
 20
308.0321802483118
 30
0.0
 40
22.99999855660104
100
AcDbArc
 50
94.29428100585938
 51
175.7057037353516
  0
ARC
  5
200
330
1F
100
AcDbEntity
  8
0-1_ピット
  6
Continuous
 62
     2
370
     9
100
AcDbCircle
 10
-135.9866353627797
 20
292.333682372995
 30
0.0
 40
4.000000051549963
100
AcDbArc
 50
45.0
 51
180.0
  0
ARC
  5
201
330
1F
100
AcDbEntity
  8
0-1_ピット
  6
Continuous
 62
     2
370
     9
100
AcDbCircle
 10
-136.9865396860483
 20
293.3355909588269
 30
0.0
 40
5.000000644374539
100
AcDbArc
 50
42.54194641113281
 51
180.0
  0
ARC
  5
202
330
1F
100
AcDbEntity
  8
0-1_ピット
  6
Continuous
 62
     2
370
     9
100
AcDbCircle
 10
-107.2879708779824
 20
323.0321555043295
 30
0.0
 40
5.000000644374539
100
AcDbArc
 50
90.0
 51
225.0
  0
ARC
  5
203
330
1F
100
AcDbEntity
  8
0-1_ピット
  6
Continuous
 62
     2
370
     9
100
AcDbCircle
 10
-106.2880665547138
 20
322.032176949114
 30
0.0
 40
4.000000051549963
100
AcDbArc
 50
90.0
 51
225.0
  0
ARC
  5
204
330
1F
100
AcDbEntity
  8
0-1_ピット
  6
Continuous
 62
     2
370
     9
100
AcDbCircle
 10
-121.9864901980837
 20
128.0321802483117
 30
0.0
 40
24.00000030929978
100
AcDbArc
 50
183.5903778076172
 51
266.810302734375
  0
ARC
  5
205
330
1F
100
AcDbEntity
  8
0-1_ピット
  6
Continuous
 62
     2
370
     9
100
AcDbCircle
 10
-121.9864901980837
 20
128.0321802483117
 30
0.0
 40
22.99999855660104
100
AcDbArc
 50
184.2942810058594
 51
265.7057037353516
  0
ARC
  5
206
330
1F
100
AcDbEntity
  8
0-1_ピット
  6
Continuous
 62
     2
370
     9
100
AcDbCircle
 10
-135.9866353627797
 20
143.730641007655
 30
0.0
 40
4.000000051549963
100
AcDbArc
 50
180.0
 51
315.0
  0
ARC
  5
207
330
1F
100
AcDbEntity
  8
0-1_ピット
  6
Continuous
 62
     2
370
     9
100
AcDbCircle
 10
-136.9865396860483
 20
142.7286953058497
 30
0.0
 40
5.000000644374539
100
AcDbArc
 50
180.0
 51
317.4580383300781
  0
ARC
  5
208
330
1F
100
AcDbEntity
  8
0-1_ピット
  6
Continuous
 62
     2
370
     9
100
AcDbCircle
 10
-107.2879708779824
 20
113.0321307603472
 30
0.0
 40
5.000000644374539
100
AcDbArc
 50
135.0
 51
270.0
  0
ARC
  5
209
330
1F
100
AcDbEntity
  8
0-1_ピット
  6
Continuous
 62
     2
370
     9
100
AcDbCircle
 10
-106.2880665547138
 20
114.0321464315359
 30
0.0
 40
4.000000051549963
100
AcDbArc
 50
135.0
 51
270.0
  0
ARC
  5
20A
330
1F
100
AcDbEntity
  8
0-1_ピット
  6
Continuous
 62
     2
370
     9
100
AcDbCircle
 10
58.01350980191626
 20
308.0321802483118
 30
0.0
 40
24.00000030929978
100
AcDbArc
 50
3.590377807617188
 51
86.810302734375
  0
ARC
  5
20B
330
1F
100
AcDbEntity
  8
0-1_ピット
  6
Continuous
 62
     2
370
     9
100
AcDbCircle
 10
58.01350980191626
 20
308.0321802483118
 30
0.0
 40
22.99999855660104
100
AcDbArc
 50
4.294281005859375
 51
85.70570373535156
  0
ARC
  5
20C
330
1F
100
AcDbEntity
  8
0-1_ピット
  6
Continuous
 62
     2
370
     9
100
AcDbCircle
 10
72.0135065027186
 20
292.333682372995
 30
0.0
 40
4.000000051549963
100
AcDbArc
 50
0.0
 51
135.0
  0
ARC
  5
20D
330
1F
100
AcDbEntity
  8
0-1_ピット
  6
Continuous
 62
     2
370
     9
100
AcDbCircle
 10
73.01355928988079
 20
293.3355909588269
 30
0.0
 40
5.000000644374539
100
AcDbArc
 50
0.0
 51
137.4580383300781
  0
ARC
  5
20E
330
1F
100
AcDbEntity
  8
0-1_ピット
  6
Continuous
 62
     2
370
     9
100
AcDbCircle
 10
43.31499048181493
 20
323.0321555043295
 30
0.0
 40
5.000000644374539
100
AcDbArc
 50
315.0000000000001
 51
90.00000000000006
  0
ARC
  5
20F
330
1F
100
AcDbEntity
  8
0-1_ピット
  6
Continuous
 62
     2
370
     9
100
AcDbCircle
 10
42.31508615854634
 20
322.032176949114
 30
0.0
 40
4.000000051549963
100
AcDbArc
 50
315.0000000000001
 51
90.00000000000006
  0
ARC
  5
210
330
1F
100
AcDbEntity
  8
0-1_ピット
  6
Continuous
 62
     2
370
     9
100
AcDbCircle
 10
58.01350980191626
 20
128.0321802483117
 30
0.0
 40
24.00000030929978
100
AcDbArc
 50
273.1896820068359
 51
356.4096069335938
  0
ARC
  5
211
330
1F
100
AcDbEntity
  8
0-1_ピット
  6
Continuous
 62
     2
370
     9
100
AcDbCircle
 10
58.01350980191626
 20
128.0321802483117
 30
0.0
 40
22.99999855660104
100
AcDbArc
 50
274.2942810058594
 51
355.7057037353516
  0
ARC
  5
212
330
1F
100
AcDbEntity
  8
0-1_ピット
  6
Continuous
 62
     2
370
     9
100
AcDbCircle
 10
72.0135065027186
 20
143.730641007655
 30
0.0
 40
4.000000051549963
100
AcDbArc
 50
225.0
 51
0.0
  0
ARC
  5
213
330
1F
100
AcDbEntity
  8
0-1_ピット
  6
Continuous
 62
     2
370
     9
100
AcDbCircle
 10
73.01355928988079
 20
142.7286953058497
 30
0.0
 40
5.000000644374539
100
AcDbArc
 50
222.5419464111328
 51
0.0
  0
ARC
  5
214
330
1F
100
AcDbEntity
  8
0-1_ピット
  6
Continuous
 62
     2
370
     9
100
AcDbCircle
 10
43.31499048181493
 20
113.0321307603472
 30
0.0
 40
5.000000644374539
100
AcDbArc
 50
270.0
 51
45.0
  0
ARC
  5
215
330
1F
100
AcDbEntity
  8
0-1_ピット
  6
Continuous
 62
     2
370
     9
100
AcDbCircle
 10
42.31508615854634
 20
114.0321464315359
 30
0.0
 40
4.000000051549963
100
AcDbArc
 50
270.0
 51
45.0
  0
TEXT
  5
216
330
1F
100
AcDbEntity
  8
0-4_寸法
  6
Continuous
 62
     6
370
     5
100
AcDbText
 10
-23.48810824337515
 20
175.5043168746842
 30
0.0
 40
17.928
  1
止水弁
 50
90.0
 41
1.166666666666667
  7
ＤＦＰ平成丸ゴシック体W4
100
AcDbText
  0
TEXT
  5
217
330
1F
100
AcDbEntity
  8
F-5ﾚｲﾔ
  6
Continuous
 62
     7
370
     9
100
AcDbText
 10
28.41776423480188
 20
-190.4292894139562
 30
0.0
 40
6.858000000000001
  1
枠
 41
0.9999999999999998
  7
ＭＳ ゴシック
100
AcDbText
  0
TEXT
  5
218
330
1F
100
AcDbEntity
  8
F-5ﾚｲﾔ
  6
Continuous
 62
     7
370
     9
100
AcDbText
 10
17.91776423480188
 20
-209.9293166323367
 30
0.0
 40
6.858000000000001
  1
ふ　た
 41
1.111111111111111
  7
ＭＳ ゴシック
100
AcDbText
  0
CIRCLE
  5
219
330
1F
100
AcDbEntity
  8
F-5ﾚｲﾔ
  6
Continuous
 62
     7
370
     9
100
AcDbCircle
 10
-11.36257682707409
 20
-206.6983389019207
 30
0.0
 40
7.499999806687639
  0
CIRCLE
  5
21A
330
1F
100
AcDbEntity
  8
F-5ﾚｲﾔ
  6
Continuous
 62
     7
370
     9
100
AcDbCircle
 10
-11.36257682707409
 20
-187.1983116835402
 30
0.0
 40
7.499999806687639
  0
CIRCLE
  5
21B
330
1F
100
AcDbEntity
  8
F-5ﾚｲﾔ
  6
Continuous
 62
     7
370
     9
100
AcDbCircle
 10
-11.36257682707409
 20
-167.6983215811332
 30
0.0
 40
7.499999806687639
  0
TEXT
  5
21C
330
1F
100
AcDbEntity
  8
F-5ﾚｲﾔ
  6
Continuous
 62
     7
370
     9
100
AcDbText
 10
-21.11257682707409
 20
-229.4293438507172
 30
0.0
 40
6.858000000000001
  1
番号
 41
1.083333333333333
  7
ＭＳ ゴシック
100
AcDbText
  0
TEXT
  5
21D
330
1F
100
AcDbEntity
  8
F-5ﾚｲﾔ
  6
Continuous
 62
     7
370
     9
100
AcDbText
 10
-15.86259538506081
 20
-209.9293166323368
 30
0.0
 40
6.858000000000001
  1
１
 41
0.9999999999999998
  7
ＭＳ ゴシック
100
AcDbText
  0
TEXT
  5
21E
330
1F
100
AcDbEntity
  8
F-5ﾚｲﾔ
  6
Continuous
 62
     7
370
     9
100
AcDbText
 10
-15.86259538506081
 20
-170.9292993115491
 30
0.0
 40
6.858000000000001
  1
３
 41
0.9999999999999998
  7
ＭＳ ゴシック
100
AcDbText
  0
TEXT
  5
21F
330
1F
100
AcDbEntity
  8
F-5ﾚｲﾔ
  6
Continuous
 62
     7
370
     9
100
AcDbText
 10
-15.86259538506081
 20
-190.4292894139562
 30
0.0
 40
6.858000000000001
  1
２
 41
0.9999999999999998
  7
ＭＳ ゴシック
100
AcDbText
  0
TEXT
  5
220
330
1F
100
AcDbEntity
  8
F-5ﾚｲﾔ
  6
Continuous
 62
     7
370
     9
100
AcDbText
 10
-26.36255826908742
 20
-151.429309209142
 30
0.0
 40
6.858000000000001
  1
材料・
 41
1.111111111111111
  7
ＭＳ ゴシック
100
AcDbText
  0
LINE
  5
221
330
1F
100
AcDbEntity
  8
F-5ﾚｲﾔ
  6
Continuous
 62
     7
370
     9
100
AcDbLine
 10
-26.36255208309183
 20
-235.9483240555314
 30
0.0
 11
-26.36255208309183
 21
-157.9483265299296
 31
0.0
  0
LINE
  5
222
330
1F
100
AcDbEntity
  8
F-5ﾚｲﾔ
  6
Continuous
 62
     7
370
     9
100
AcDbLine
 10
3.637398428943641
 20
-235.9483240555314
 30
0.0
 11
3.637398428943641
 21
-157.9483265299296
 31
0.0
  0
LINE
  5
223
330
1F
100
AcDbEntity
  8
F-5ﾚｲﾔ
  6
Continuous
 62
     7
370
     9
100
AcDbLine
 10
-26.36255208309183
 20
-235.9483240555314
 30
0.0
 11
218.6709677648811
 21
-235.9483240555314
 31
0.0
  0
LINE
  5
224
330
1F
100
AcDbEntity
  8
F-5ﾚｲﾔ
  6
Continuous
 62
     7
370
     9
100
AcDbLine
 10
-26.36255208309183
 20
-216.4483339531243
 30
0.0
 11
218.6709677648811
 21
-216.4483339531243
 31
0.0
  0
LINE
  5
225
330
1F
100
AcDbEntity
  8
F-5ﾚｲﾔ
  6
Continuous
 62
     7
370
     9
100
AcDbLine
 10
-26.36255208309183
 20
-196.9483438507172
 30
0.0
 11
218.6709677648811
 21
-196.9483438507172
 31
0.0
  0
LINE
  5
226
330
1F
100
AcDbEntity
  8
F-5ﾚｲﾔ
  6
Continuous
 62
     7
370
     9
100
AcDbLine
 10
-26.36255208309183
 20
-177.4483166323367
 30
0.0
 11
218.6709677648811
 21
-177.4483166323367
 31
0.0
  0
LINE
  5
227
330
1F
100
AcDbEntity
  8
F-5ﾚｲﾔ
  6
Continuous
 62
     7
370
     9
100
AcDbLine
 10
-26.36255208309183
 20
-157.9483265299296
 30
0.0
 11
218.6709677648811
 21
-157.9483265299296
 31
0.0
  0
TEXT
  5
228
330
1F
100
AcDbEntity
  8
F-5ﾚｲﾔ
  6
Continuous
 62
     7
370
     9
100
AcDbText
 10
72.63736378736849
 20
-229.4293438507172
 30
0.0
 40
6.858000000000001
  1
材料名・・
 41
1.133333333333334
  7
ＭＳ ゴシック
100
AcDbText
  0
TEXT
  5
229
330
1F
100
AcDbEntity
  8
F-5ﾚｲﾔ
  6
Continuous
 62
     7
370
     9
100
AcDbText
 10
148.4261029660002
 20
-229.4293438507172
 30
0.0
 40
6.858000000000001
  1
表面処理・
 41
1.133333333333333
  7
ＭＳ ゴシック
100
AcDbText
  0
TEXT
  5
22A
330
1F
100
AcDbEntity
  8
F-5ﾚｲﾔ
  6
Continuous
 62
     6
370
     5
100
AcDbText
 10
154.5417504005442
 20
-190.4293265299296
 30
0.0
 40
6.858000000000001
  1
樹脂系塗装
 41
0.8866666666666673
  7
ＭＳ ゴシック
100
AcDbText
  0
TEXT
  5
22B
330
1F
100
AcDbEntity
  8
F-5ﾚｲﾔ
  6
Continuous
 62
     6
370
     5
100
AcDbText
 10
154.5417504005442
 20
-209.9293166323368
 30
0.0
 40
6.858000000000001
  1
樹脂系塗装
 41
0.8866666666666673
  7
ＭＳ ゴシック
100
AcDbText
  0
LINE
  5
22C
330
1F
100
AcDbEntity
  8
F-5ﾚｲﾔ
  6
Continuous
 62
     7
370
     9
100
AcDbLine
 10
63.63739842894364
 20
-235.9483240555314
 30
0.0
 11
63.63739842894364
 21
-157.9483265299296
 31
0.0
  0
LINE
  5
22D
330
1F
100
AcDbEntity
  8
F-5ﾚｲﾔ
  6
Continuous
 62
     7
370
     9
100
AcDbLine
 10
132.6374033777401
 20
-235.9483240555314
 30
0.0
 11
132.6374033777401
 21
-157.9483265299296
 31
0.0
  0
LINE
  5
22E
330
1F
100
AcDbEntity
  8
F-5ﾚｲﾔ
  6
Continuous
 62
     7
370
     9
100
AcDbLine
 10
218.6709677648811
 20
-235.9483240555314
 30
0.0
 11
218.6709677648811
 21
-157.9483265299296
 31
0.0
  0
TEXT
  5
22F
330
1F
100
AcDbEntity
  8
F-5ﾚｲﾔ
  6
Continuous
 62
     7
370
     9
100
AcDbText
 10
17.91776423480188
 20
-229.4293067347438
 30
0.0
 40
6.858000000000001
  1
名　称
 41
1.111111111111111
  7
ＭＳ ゴシック
100
AcDbText
  0
TEXT
  5
230
330
1F
100
AcDbEntity
  8
F-5ﾚｲﾔ
  6
Continuous
 62
     7
370
     9
100
AcDbText
 10
72.63736378736849
 20
-190.4293265299296
 30
0.0
 40
6.858000000000001
  1
ＦＣ２００
 41
1.133333333333333
  7
ＭＳ ゴシック
100
AcDbText
  0
TEXT
  5
231
330
1F
100
AcDbEntity
  8
F-5ﾚｲﾔ
  6
Continuous
 62
     7
370
     9
100
AcDbText
 10
72.63736378736849
 20
-209.9293166323368
 30
0.0
 40
6.858000000000001
  1
ＦＣ２００
 41
1.133333333333333
  7
ＭＳ ゴシック
100
AcDbText
  0
TEXT
  5
232
330
1F
100
AcDbEntity
  8
F-5ﾚｲﾔ
  6
Continuous
 62
     7
370
     9
100
AcDbText
 10
17.91776423480188
 20
-170.9292993115491
 30
0.0
 40
6.858000000000001
  1
ヒンジ
 41
1.111111111111111
  7
ＭＳ ゴシック
100
AcDbText
  0
TEXT
  5
233
330
1F
100
AcDbEntity
  8
F-5ﾚｲﾔ
  6
Continuous
 62
     7
370
     9
100
AcDbText
 10
74.46147500139661
 20
-170.9293364275225
 30
0.0
 40
6.858000000000001
  1
ＳＳ４００
 41
1.133333333333333
  7
ＭＳ ゴシック
100
AcDbText
  0
TEXT
  5
234
330
1F
100
AcDbEntity
  8
F-5ﾚｲﾔ
  6
Continuous
 62
     6
370
     5
100
AcDbText
 10
154.5417504005442
 20
-170.9293364275225
 30
0.0
 40
6.858000000000001
  1
樹脂系塗装
 41
0.8866666666666673
  7
ＭＳ ゴシック
100
AcDbText
  0
TEXT
  5
235
330
1F
100
AcDbEntity
  8
F-5ﾚｲﾔ
  6
Continuous
 62
     6
370
     5
100
AcDbText
 10
31.32096776488117
 20
-275.3675157511997
 30
0.0
 40
6.858000000000001
  1
２１０
 41
0.8777777777777778
  7
ＭＳ ゴシック
100
AcDbText
  0
TEXT
  5
236
330
1F
100
AcDbEntity
  8
F-5ﾚｲﾔ
  6
Continuous
 62
     6
370
     5
100
AcDbText
 10
93.42096776488117
 20
-275.3675157511997
 30
0.0
 40
6.858000000000001
  1
６５
 41
0.8666666666666664
  7
ＭＳ ゴシック
100
AcDbText
  0
TEXT
  5
237
330
1F
100
AcDbEntity
  8
F-5ﾚｲﾔ
  6
Continuous
 62
     6
370
     5
100
AcDbText
 10
128.5209677648812
 20
-275.3675157511997
 30
0.0
 40
6.858000000000001
  1
３
 41
0.8333333333333331
  7
ＭＳ ゴシック
100
AcDbText
  0
ENDSEC
  0
SECTION
  2
OBJECTS
  0
DICTIONARY
  5
C
330
0
100
AcDbDictionary
281
     1
  3
ACAD_GROUP
350
D
  3
ACAD_LAYOUT
350
1A
  3
ACAD_MLEADERSTYLE
350
239
  3
ACAD_MLINESTYLE
350
17
  3
ACAD_PLOTSETTINGS
350
19
  3
ACAD_PLOTSTYLENAME
350
E
  3
ACAD_TABLESTYLE
350
238
  3
ACAD_VISUALSTYLE
350
2A
  0
DICTIONARY
  5
D
102
{ACAD_REACTORS
330
C
102
}
330
C
100
AcDbDictionary
281
     1
  0
DICTIONARY
  5
1A
102
{ACAD_REACTORS
330
C
102
}
330
C
100
AcDbDictionary
281
     1
  3
Layout1
350
1E
  3
Layout2
350
26
  3
Model
350
22
  0
DICTIONARY
  5
239
102
{ACAD_REACTORS
330
C
102
}
330
C
100
AcDbDictionary
281
     1
  0
DICTIONARY
  5
17
102
{ACAD_REACTORS
330
C
102
}
330
C
100
AcDbDictionary
281
     1
  3
Standard
350
18
  0
DICTIONARY
  5
19
102
{ACAD_REACTORS
330
C
102
}
330
C
100
AcDbDictionary
281
     1
  0
ACDBDICTIONARYWDFLT
  5
E
102
{ACAD_REACTORS
330
C
102
}
330
C
100
AcDbDictionary
281
     1
  3
Normal
350
F
100
AcDbDictionaryWithDefault
340
F
  0
DICTIONARY
  5
238
102
{ACAD_REACTORS
330
C
102
}
330
C
100
AcDbDictionary
281
     1
  0
DICTIONARY
  5
2A
102
{ACAD_REACTORS
330
C
102
}
330
C
100
AcDbDictionary
281
     1
  3
2dWireframe
350
2F
  3
3D Hidden
350
31
  3
3dWireframe
350
30
  3
Basic
350
32
  3
Brighten
350
36
  3
ColorChange
350
3A
  3
Conceptual
350
34
  3
Dim
350
35
  3
Facepattern
350
39
  3
Flat
350
2B
  3
FlatWithEdges
350
2C
  3
Gouraud
350
2D
  3
GouraudWithEdges
350
2E
  3
Linepattern
350
38
  3
Realistic
350
33
  3
Thicken
350
37
  0
LAYOUT
  5
1E
102
{ACAD_REACTORS
330
1A
102
}
330
1A
100
AcDbPlotSettings
  1

  2
none_device
  4

  6

 40
0.0
 41
0.0
 42
0.0
 43
0.0
 44
0.0
 45
0.0
 46
0.0
 47
0.0
 48
0.0
 49
0.0
140
0.0
141
0.0
142
1.0
143
1.0
 70
   688
 72
     0
 73
     0
 74
     5
  7

 75
    16
 76
     0
 77
     5
 78
   300
147
1.0
148
0.0
149
0.0
100
AcDbLayout
  1
Layout1
 70
     1
 71
     1
 10
0.0
 20
0.0
 11
420.0
 21
297.0
 12
0.0
 22
0.0
 32
0.0
 14
1.000000000000000E+20
 24
1.000000000000000E+20
 34
1.000000000000000E+20
 15
-1.000000000000000E+20
 25
-1.000000000000000E+20
 35
-1.000000000000000E+20
146
0.0
 13
0.0
 23
0.0
 33
0.0
 16
1.0
 26
0.0
 36
0.0
 17
0.0
 27
1.0
 37
0.0
 76
     0
330
1B
  0
LAYOUT
  5
26
102
{ACAD_REACTORS
330
1A
102
}
330
1A
100
AcDbPlotSettings
  1

  2
none_device
  4

  6

 40
0.0
 41
0.0
 42
0.0
 43
0.0
 44
0.0
 45
0.0
 46
0.0
 47
0.0
 48
0.0
 49
0.0
140
0.0
141
0.0
142
1.0
143
1.0
 70
   688
 72
     0
 73
     0
 74
     5
  7

 75
    16
 76
     0
 77
     5
 78
   300
147
1.0
148
0.0
149
0.0
100
AcDbLayout
  1
Layout2
 70
     1
 71
     2
 10
0.0
 20
0.0
 11
0.0
 21
0.0
 12
0.0
 22
0.0
 32
0.0
 14
0.0
 24
0.0
 34
0.0
 15
0.0
 25
0.0
 35
0.0
146
0.0
 13
0.0
 23
0.0
 33
0.0
 16
1.0
 26
0.0
 36
0.0
 17
0.0
 27
1.0
 37
0.0
 76
     0
330
23
  0
LAYOUT
  5
22
102
{ACAD_REACTORS
330
1A
102
}
330
1A
100
AcDbPlotSettings
  1

  2
none_device
  4

  6

 40
0.0
 41
0.0
 42
0.0
 43
0.0
 44
0.0
 45
0.0
 46
0.0
 47
0.0
 48
0.0
 49
0.0
140
0.0
141
0.0
142
1.0
143
1.0
 70
  1712
 72
     0
 73
     0
 74
     0
  7

 75
     0
 76
     0
 77
     5
 78
   300
147
1.0
148
0.0
149
0.0
100
AcDbLayout
  1
Model
 70
     1
 71
     0
 10
-630.0
 20
-445.5
 11
630.0
 21
445.5
 12
0.0
 22
0.0
 32
0.0
 14
-630.0
 24
-445.5
 34
0.0
 15
630.0
 25
445.5
 35
0.0
146
0.0
 13
0.0
 23
0.0
 33
0.0
 16
1.0
 26
0.0
 36
0.0
 17
0.0
 27
1.0
 37
0.0
 76
     0
330
1F
331
29
  0
MLINESTYLE
  5
18
102
{ACAD_REACTORS
330
17
102
}
330
17
100
AcDbMlineStyle
  2
Standard
 70
     0
  3

 62
   256
 51
90.0
 52
90.0
 71
     2
 49
0.5
 62
   256
  6
BYLAYER
 49
-0.5
 62
   256
  6
BYLAYER
  0
ACDBPLACEHOLDER
  5
F
102
{ACAD_REACTORS
330
E
102
}
330
E
  0
VISUALSTYLE
  5
2F
102
{ACAD_REACTORS
330
2A
102
}
330
2A
100
AcDbVisualStyle
  2
2dWireframe
 70
     4
 71
     0
 72
     2
 73
     0
 90
        0
 40
-0.6
 41
-30.0
 62
     5
 63
     7
421
 16777215
 74
     1
 91
        4
 64
     7
 65
   257
 75
     1
175
     1
 42
1.0
 92
        0
 66
   257
 43
1.0
 76
     1
 77
     6
 78
     2
 67
     7
 79
     5
170
     0
171
     0
290
     0
174
     0
 93
        1
 44
0.0
173
     0
291
     0
 45
0.0
1001
ACAD
1000
AcDbSavedByObjectVersion
1070
     0
  0
VISUALSTYLE
  5
31
102
{ACAD_REACTORS
330
2A
102
}
330
2A
100
AcDbVisualStyle
  2
3D Hidden
 70
     6
 71
     1
 72
     2
 73
     2
 90
        0
 40
-0.6
 41
-30.0
 62
     5
 63
     7
421
 16777215
 74
     2
 91
        2
 64
     7
 65
   257
 75
     2
175
     1
 42
40.0
 92
        0
 66
   257
 43
1.0
 76
     1
 77
     6
 78
     2
 67
     7
 79
     3
170
     0
171
     0
290
     0
174
     0
 93
        1
 44
0.0
173
     0
291
     0
 45
0.0
1001
ACAD
1000
AcDbSavedByObjectVersion
1070
     0
  0
VISUALSTYLE
  5
30
102
{ACAD_REACTORS
330
2A
102
}
330
2A
100
AcDbVisualStyle
  2
3dWireframe
 70
     5
 71
     0
 72
     2
 73
     0
 90
        0
 40
-0.6
 41
-30.0
 62
     5
 63
     7
421
 16777215
 74
     1
 91
        4
 64
     7
 65
   257
 75
     1
175
     1
 42
1.0
 92
        0
 66
   257
 43
1.0
 76
     1
 77
     6
 78
     2
 67
     7
 79
     5
170
     0
171
     0
290
     0
174
     0
 93
        1
 44
0.0
173
     0
291
     0
 45
0.0
1001
ACAD
1000
AcDbSavedByObjectVersion
1070
     0
  0
VISUALSTYLE
  5
32
102
{ACAD_REACTORS
330
2A
102
}
330
2A
100
AcDbVisualStyle
  2
Basic
 70
     7
 71
     1
 72
     0
 73
     1
 90
        0
 40
-0.6
 41
-30.0
 62
     5
 63
     7
421
 16777215
 74
     0
 91
        4
 64
     7
 65
   257
 75
     1
175
     1
 42
1.0
 92
        8
 66
     7
 43
1.0
 76
     1
 77
     6
 78
     2
 67
     7
 79
     5
170
     0
171
     0
290
     0
174
     0
 93
        1
 44
0.0
173
     0
291
     1
 45
0.0
1001
ACAD
1000
AcDbSavedByObjectVersion
1070
     0
  0
VISUALSTYLE
  5
36
102
{ACAD_REACTORS
330
2A
102
}
330
2A
100
AcDbVisualStyle
  2
Brighten
 70
    12
 71
     2
 72
     2
 73
     0
 90
        0
 40
-0.6
 41
-30.0
 62
     5
 63
     7
421
 16777215
 74
     1
 91
        4
 64
     7
 65
   257
 75
     1
175
     1
 42
1.0
 92
        8
 66
     7
 43
1.0
 76
     1
 77
     6
 78
     2
 67
     7
 79
     5
170
     0
171
     0
290
     0
174
     0
 93
        1
 44
50.0
173
     0
291
     1
 45
0.0
1001
ACAD
1000
AcDbSavedByObjectVersion
1070
     0
  0
VISUALSTYLE
  5
3A
102
{ACAD_REACTORS
330
2A
102
}
330
2A
100
AcDbVisualStyle
  2
ColorChange
 70
    16
 71
     2
 72
     2
 73
     3
 90
        0
 40
-0.6
 41
-30.0
 62
     5
 63
     8
421
  8421504
 74
     1
 91
        4
 64
     7
 65
   257
 75
     1
175
     1
 42
1.0
 92
        8
 66
     8
424
  8421504
 43
1.0
 76
     1
 77
     6
 78
     2
 67
     7
 79
     5
170
     0
171
     0
290
     0
174
     0
 93
        1
 44
0.0
173
     0
291
     1
 45
0.0
1001
ACAD
1000
AcDbSavedByObjectVersion
1070
     0
  0
VISUALSTYLE
  5
34
102
{ACAD_REACTORS
330
2A
102
}
330
2A
100
AcDbVisualStyle
  2
Conceptual
 70
     9
 71
     3
 72
     2
 73
     0
 90
        0
 40
-0.6
 41
-30.0
 62
     5
 63
     7
421
 16777215
 74
     2
 91
        2
 64
     7
 65
   257
 75
     1
175
     1
 42
40.0
 92
        8
 66
     7
 43
1.0
 76
     1
 77
     6
 78
     2
 67
     7
 79
     3
170
     0
171
     0
290
     0
174
     0
 93
        1
 44
0.0
173
     0
291
     0
 45
0.0
1001
ACAD
1000
AcDbSavedByObjectVersion
1070
     0
  0
VISUALSTYLE
  5
35
102
{ACAD_REACTORS
330
2A
102
}
330
2A
100
AcDbVisualStyle
  2
Dim
 70
    11
 71
     2
 72
     2
 73
     0
 90
        0
 40
-0.6
 41
-30.0
 62
     5
 63
     7
421
 16777215
 74
     1
 91
        4
 64
     7
 65
   257
 75
     1
175
     1
 42
1.0
 92
        8
 66
     7
 43
1.0
 76
     1
 77
     6
 78
     2
 67
     7
 79
     5
170
     0
171
     0
290
     0
174
     0
 93
        1
 44
-50.0
173
     0
291
     1
 45
0.0
1001
ACAD
1000
AcDbSavedByObjectVersion
1070
     0
  0
VISUALSTYLE
  5
39
102
{ACAD_REACTORS
330
2A
102
}
330
2A
100
AcDbVisualStyle
  2
Facepattern
 70
    15
 71
     2
 72
     2
 73
     0
 90
        0
 40
-0.6
 41
-30.0
 62
     5
 63
     7
421
 16777215
 74
     1
 91
        4
 64
     7
 65
   257
 75
     1
175
     1
 42
1.0
 92
        8
 66
     7
 43
1.0
 76
     1
 77
     6
 78
     2
 67
     7
 79
     5
170
     0
171
     0
290
     0
174
     0
 93
        1
 44
0.0
173
     0
291
     1
 45
0.0
1001
ACAD
1000
AcDbSavedByObjectVersion
1070
     0
  0
VISUALSTYLE
  5
2B
102
{ACAD_REACTORS
330
2A
102
}
330
2A
100
AcDbVisualStyle
  2
Flat
 70
     0
 71
     2
 72
     1
 73
     1
 90
        2
 40
-0.6
 41
30.0
 62
     5
 63
     7
421
 16777215
 74
     0
 91
        4
 64
     7
 65
   257
 75
     1
175
     1
 42
1.0
 92
        8
 66
     7
 43
1.0
 76
     1
 77
     6
 78
     2
 67
     7
 79
     5
170
     0
171
     0
290
     0
174
     0
 93
       13
 44
0.0
173
     0
291
     1
 45
0.0
1001
ACAD
1000
AcDbSavedByObjectVersion
1070
     0
  0
VISUALSTYLE
  5
2C
102
{ACAD_REACTORS
330
2A
102
}
330
2A
100
AcDbVisualStyle
  2
FlatWithEdges
 70
     1
 71
     2
 72
     1
 73
     1
 90
        2
 40
-0.6
 41
30.0
 62
     5
 63
     7
421
 16777215
 74
     1
 91
        4
 64
     7
 65
   257
 75
     1
175
     1
 42
1.0
 92
        0
 66
   257
 43
1.0
 76
     1
 77
     6
 78
     2
 67
     7
 79
     5
170
     0
171
     0
290
     0
174
     0
 93
       13
 44
0.0
173
     0
291
     1
 45
0.0
1001
ACAD
1000
AcDbSavedByObjectVersion
1070
     0
  0
VISUALSTYLE
  5
2D
102
{ACAD_REACTORS
330
2A
102
}
330
2A
100
AcDbVisualStyle
  2
Gouraud
 70
     2
 71
     2
 72
     2
 73
     1
 90
        2
 40
-0.6
 41
30.0
 62
     5
 63
     7
421
 16777215
 74
     0
 91
        4
 64
     7
 65
   257
 75
     1
175
     1
 42
1.0
 92
        0
 66
     7
 43
1.0
 76
     1
 77
     6
 78
     2
 67
     7
 79
     5
170
     0
171
     0
290
     0
174
     0
 93
       13
 44
0.0
173
     0
291
     1
 45
0.0
1001
ACAD
1000
AcDbSavedByObjectVersion
1070
     0
  0
VISUALSTYLE
  5
2E
102
{ACAD_REACTORS
330
2A
102
}
330
2A
100
AcDbVisualStyle
  2
GouraudWithEdges
 70
     3
 71
     2
 72
     2
 73
     1
 90
        2
 40
-0.6
 41
30.0
 62
     5
 63
     7
421
 16777215
 74
     1
 91
        4
 64
     7
 65
   257
 75
     1
175
     1
 42
1.0
 92
        0
 66
   257
 43
1.0
 76
     1
 77
     6
 78
     2
 67
     7
 79
     5
170
     0
171
     0
290
     0
174
     0
 93
       13
 44
0.0
173
     0
291
     1
 45
0.0
1001
ACAD
1000
AcDbSavedByObjectVersion
1070
     0
  0
VISUALSTYLE
  5
38
102
{ACAD_REACTORS
330
2A
102
}
330
2A
100
AcDbVisualStyle
  2
Linepattern
 70
    14
 71
     2
 72
     2
 73
     0
 90
        0
 40
-0.6
 41
-30.0
 62
     5
 63
     7
421
 16777215
 74
     1
 91
        4
 64
     7
 65
   257
 75
     7
175
     7
 42
1.0
 92
        8
 66
     7
 43
1.0
 76
     1
 77
     6
 78
     2
 67
     7
 79
     5
170
     0
171
     0
290
     0
174
     0
 93
        1
 44
0.0
173
     0
291
     1
 45
0.0
1001
ACAD
1000
AcDbSavedByObjectVersion
1070
     0
  0
VISUALSTYLE
  5
33
102
{ACAD_REACTORS
330
2A
102
}
330
2A
100
AcDbVisualStyle
  2
Realistic
 70
     8
 71
     2
 72
     2
 73
     0
 90
        0
 40
-0.6
 41
-30.0
 62
     5
 63
     7
421
 16777215
 74
     1
 91
        0
 64
     7
 65
   257
 75
     1
175
     1
 42
1.0
 92
        8
 66
     8
424
  7895160
 43
1.0
 76
     1
 77
     6
 78
     2
 67
     7
 79
     5
170
     0
171
     0
290
     0
174
     0
 93
       13
 44
0.0
173
     0
291
     0
 45
0.0
1001
ACAD
1000
AcDbSavedByObjectVersion
1070
     0
  0
VISUALSTYLE
  5
37
102
{ACAD_REACTORS
330
2A
102
}
330
2A
100
AcDbVisualStyle
  2
Thicken
 70
    13
 71
     2
 72
     2
 73
     0
 90
        0
 40
-0.6
 41
-30.0
 62
     5
 63
     7
421
 16777215
 74
     1
 91
        4
 64
     7
 65
   257
 75
     1
175
     1
 42
1.0
 92
       12
 66
     7
 43
1.0
 76
     1
 77
     6
 78
     2
 67
     7
 79
     5
170
     0
171
     0
290
     0
174
     0
 93
        1
 44
0.0
173
     0
291
     1
 45
0.0
1001
ACAD
1000
AcDbSavedByObjectVersion
1070
     0
  0
ENDSEC
  0
EOF
