  0
SECTION
  2
HEADER
  9
$ACADVER
  1
AC1018
  9
$ACADMAINTVER
 70
     0
  9
$DWGCODEPAGE
  3
ANSI_932
  9
$INSBASE
 10
0.0
 20
0.0
 30
0.0
  9
$EXTMIN
 10
-630.0
 20
-445.5
 30
0.0
  9
$EXTMAX
 10
630.0
 20
445.5
 30
0.0
  9
$LIMMIN
 10
-630.0
 20
-445.5
  9
$LIMMAX
 10
630.0
 20
445.5
  9
$ORTHOMODE
 70
     0
  9
$REGENMODE
 70
     1
  9
$FILLMODE
 70
     1
  9
$QTEXTMODE
 70
     0
  9
$MIRRTEXT
 70
     1
  9
$LTSCALE
 40
3.0
  9
$ATTMODE
 70
     1
  9
$TEXTSIZE
 40
2.5
  9
$TRACEWID
 40
1.0
  9
$TEXTSTYLE
  7
Standard
  9
$CLAYER
  8
0
  9
$CELTYPE
  6
ByLayer
  9
$CECOLOR
 62
   256
  9
$CELTSCALE
 40
1.0
  9
$DISPSILH
 70
     0
  9
$DIMSCALE
 40
1.0
  9
$DIMASZ
 40
2.5
  9
$DIMEXO
 40
0.625
  9
$DIMDLI
 40
3.75
  9
$DIMRND
 40
0.0
  9
$DIMDLE
 40
0.0
  9
$DIMEXE
 40
1.25
  9
$DIMTP
 40
0.0
  9
$DIMTM
 40
0.0
  9
$DIMTXT
 40
2.5
  9
$DIMCEN
 40
2.5
  9
$DIMTSZ
 40
0.0
  9
$DIMTOL
 70
     0
  9
$DIMLIM
 70
     0
  9
$DIMTIH
 70
     0
  9
$DIMTOH
 70
     0
  9
$DIMSE1
 70
     0
  9
$DIMSE2
 70
     0
  9
$DIMTAD
 70
     1
  9
$DIMZIN
 70
     8
  9
$DIMBLK
  1

  9
$DIMASO
 70
     1
  9
$DIMSHO
 70
     1
  9
$DIMPOST
  1

  9
$DIMAPOST
  1

  9
$DIMALT
 70
     0
  9
$DIMALTD
 70
     3
  9
$DIMALTF
 40
0.03937007874016
  9
$DIMLFAC
 40
1.0
  9
$DIMTOFL
 70
     1
  9
$DIMTVP
 40
0.0
  9
$DIMTIX
 70
     0
  9
$DIMSOXD
 70
     0
  9
$DIMSAH
 70
     0
  9
$DIMBLK1
  1

  9
$DIMBLK2
  1

  9
$DIMSTYLE
  2
ISO-25
  9
$DIMCLRD
 70
     0
  9
$DIMCLRE
 70
     0
  9
$DIMCLRT
 70
     0
  9
$DIMTFAC
 40
1.0
  9
$DIMGAP
 40
0.625
  9
$DIMJUST
 70
     0
  9
$DIMSD1
 70
     0
  9
$DIMSD2
 70
     0
  9
$DIMTOLJ
 70
     0
  9
$DIMTZIN
 70
     8
  9
$DIMALTZ
 70
     0
  9
$DIMALTTZ
 70
     0
  9
$DIMUPT
 70
     0
  9
$DIMDEC
 70
     2
  9
$DIMTDEC
 70
     2
  9
$DIMALTU
 70
     2
  9
$DIMALTTD
 70
     3
  9
$DIMTXSTY
  7
Standard
  9
$DIMAUNIT
 70
     0
  9
$DIMADEC
 70
     0
  9
$DIMALTRND
 40
0.0
  9
$DIMAZIN
 70
     0
  9
$DIMDSEP
 70
    44
  9
$DIMATFIT
 70
     3
  9
$DIMFRAC
 70
     0
  9
$DIMLDRBLK
  1

  9
$DIMLUNIT
 70
     2
  9
$DIMLWD
 70
    -2
  9
$DIMLWE
 70
    -2
  9
$DIMTMOVE
 70
     0
  9
$LUNITS
 70
     2
  9
$LUPREC
 70
     4
  9
$SKETCHINC
 40
1.0
  9
$FILLETRAD
 40
10.0
  9
$AUNITS
 70
     0
  9
$AUPREC
 70
     0
  9
$MENU
  1
.
  9
$ELEVATION
 40
0.0
  9
$PELEVATION
 40
0.0
  9
$THICKNESS
 40
0.0
  9
$LIMCHECK
 70
     0
  9
$CHAMFERA
 40
10.0
  9
$CHAMFERB
 40
10.0
  9
$CHAMFERC
 40
20.0
  9
$CHAMFERD
 40
0.0
  9
$SKPOLY
 70
     0
  9
$TDCREATE
 40
2456498.824135243
  9
$TDUCREATE
 40
2456498.449135243
  9
$TDUPDATE
 40
2456498.824135255
  9
$TDUUPDATE
 40
2456498.449135255
  9
$TDINDWG
 40
0.0000000116
  9
$TDUSRTIMER
 40
0.0000000116
  9
$USRTIMER
 70
     1
  9
$ANGBASE
 50
0.0
  9
$ANGDIR
 70
     0
  9
$PDMODE
 70
     0
  9
$PDSIZE
 40
0.0
  9
$PLINEWID
 40
0.0
  9
$SPLFRAME
 70
     0
  9
$SPLINETYPE
 70
     6
  9
$SPLINESEGS
 70
     8
  9
$HANDSEED
  5
2F5
  9
$SURFTAB1
 70
     6
  9
$SURFTAB2
 70
     6
  9
$SURFTYPE
 70
     6
  9
$SURFU
 70
     6
  9
$SURFV
 70
     6
  9
$UCSBASE
  2

  9
$UCSNAME
  2

  9
$UCSORG
 10
0.0
 20
0.0
 30
0.0
  9
$UCSXDIR
 10
1.0
 20
0.0
 30
0.0
  9
$UCSYDIR
 10
0.0
 20
1.0
 30
0.0
  9
$UCSORTHOREF
  2

  9
$UCSORTHOVIEW
 70
     0
  9
$UCSORGTOP
 10
0.0
 20
0.0
 30
0.0
  9
$UCSORGBOTTOM
 10
0.0
 20
0.0
 30
0.0
  9
$UCSORGLEFT
 10
0.0
 20
0.0
 30
0.0
  9
$UCSORGRIGHT
 10
0.0
 20
0.0
 30
0.0
  9
$UCSORGFRONT
 10
0.0
 20
0.0
 30
0.0
  9
$UCSORGBACK
 10
0.0
 20
0.0
 30
0.0
  9
$PUCSBASE
  2

  9
$PUCSNAME
  2

  9
$PUCSORG
 10
0.0
 20
0.0
 30
0.0
  9
$PUCSXDIR
 10
1.0
 20
0.0
 30
0.0
  9
$PUCSYDIR
 10
0.0
 20
1.0
 30
0.0
  9
$PUCSORTHOREF
  2

  9
$PUCSORTHOVIEW
 70
     0
  9
$PUCSORGTOP
 10
0.0
 20
0.0
 30
0.0
  9
$PUCSORGBOTTOM
 10
0.0
 20
0.0
 30
0.0
  9
$PUCSORGLEFT
 10
0.0
 20
0.0
 30
0.0
  9
$PUCSORGRIGHT
 10
0.0
 20
0.0
 30
0.0
  9
$PUCSORGFRONT
 10
0.0
 20
0.0
 30
0.0
  9
$PUCSORGBACK
 10
0.0
 20
0.0
 30
0.0
  9
$USERI1
 70
     0
  9
$USERI2
 70
     0
  9
$USERI3
 70
     0
  9
$USERI4
 70
     0
  9
$USERI5
 70
     0
  9
$USERR1
 40
0.0
  9
$USERR2
 40
0.0
  9
$USERR3
 40
0.0
  9
$USERR4
 40
0.0
  9
$USERR5
 40
0.0
  9
$WORLDVIEW
 70
     1
  9
$SHADEDGE
 70
     3
  9
$SHADEDIF
 70
    70
  9
$TILEMODE
 70
     1
  9
$MAXACTVP
 70
    64
  9
$PINSBASE
 10
0.0
 20
0.0
 30
0.0
  9
$PLIMCHECK
 70
     0
  9
$PEXTMIN
 10
1.000000000000000E+20
 20
1.000000000000000E+20
 30
1.000000000000000E+20
  9
$PEXTMAX
 10
-1.000000000000000E+20
 20
-1.000000000000000E+20
 30
-1.000000000000000E+20
  9
$PLIMMIN
 10
0.0
 20
0.0
  9
$PLIMMAX
 10
420.0
 20
297.0
  9
$UNITMODE
 70
     0
  9
$VISRETAIN
 70
     1
  9
$PLINEGEN
 70
     0
  9
$PSLTSCALE
 70
     1
  9
$TREEDEPTH
 70
  3020
  9
$CMLSTYLE
  2
Standard
  9
$CMLJUST
 70
     0
  9
$CMLSCALE
 40
20.0
  9
$PROXYGRAPHICS
 70
     1
  9
$MEASUREMENT
 70
     1
  9
$CELWEIGHT
370
    -1
  9
$ENDCAPS
280
     0
  9
$JOINSTYLE
280
     0
  9
$LWDISPLAY
290
     0
  9
$INSUNITS
 70
     4
  9
$HYPERLINKBASE
  1

  9
$STYLESHEET
  1

  9
$XEDIT
290
     1
  9
$CEPSNTYPE
380
     0
  9
$PSTYLEMODE
290
     1
  9
$FINGERPRINTGUID
  2
{54BA6EFA-013B-4F02-84BE-2D366B54EDDB}
  9
$VERSIONGUID
  2
{FAEB1C32-E019-11D5-929B-00C0DF256EC4}
  9
$EXTNAMES
290
     1
  9
$PSVPSCALE
 40
0.0
  9
$OLESTARTUP
290
     0
  9
$SORTENTS
280
   127
  9
$INDEXCTL
280
     0
  9
$HIDETEXT
280
     1
  9
$XCLIPFRAME
290
     0
  9
$HALOGAP
280
     0
  9
$OBSCOLOR
 70
   257
  9
$OBSLTYPE
280
     0
  9
$INTERSECTIONDISPLAY
280
     0
  9
$INTERSECTIONCOLOR
 70
   257
  9
$DIMASSOC
280
     2
  9
$PROJECTNAME
  1

  0
ENDSEC
  0
SECTION
  2
CLASSES
  0
CLASS
  1
ACDBDICTIONARYWDFLT
  2
AcDbDictionaryWithDefault
  3
ObjectDBX Classes
 90
        0
 91
        4
280
     0
281
     0
  0
CLASS
  1
VISUALSTYLE
  2
AcDbVisualStyle
  3
ObjectDBX Classes
 90
     4095
 91
        4
280
     0
281
     0
  0
ENDSEC
  0
SECTION
  2
TABLES
  0
TABLE
  2
VPORT
  5
8
330
0
100
AcDbSymbolTable
 70
     1
  0
VPORT
  5
29
330
8
100
AcDbSymbolTableRecord
100
AcDbViewportTableRecord
  2
*Active
 70
     0
 10
0.0
 20
0.0
 11
1.0
 21
1.0
 12
0.0
 22
0.0
 13
0.0
 23
0.0
 14
10.0
 24
10.0
 15
10.0
 25
10.0
 16
0.0
 26
0.0
 36
1.0
 17
0.0
 27
0.0
 37
0.0
 40
980.1
 41
1.414141414141414
 42
50.0
 43
0.0
 44
0.0
 50
0.0
 51
0.0
 71
     0
 72
 10000
 73
     1
 74
     3
 75
     0
 76
     0
 77
     0
 78
     0
281
     0
 65
     1
110
0.0
120
0.0
130
0.0
111
1.0
121
0.0
131
0.0
112
0.0
122
1.0
132
0.0
 79
     0
146
0.0
  0
ENDTAB
  0
TABLE
  2
LTYPE
  5
5
330
0
100
AcDbSymbolTable
 70
     4
  0
LTYPE
  5
14
330
5
100
AcDbSymbolTableRecord
100
AcDbLinetypeTableRecord
  2
ByBlock
 70
     0
  3

 72
    65
 73
     0
 40
0.0
  0
LTYPE
  5
15
330
5
100
AcDbSymbolTableRecord
100
AcDbLinetypeTableRecord
  2
ByLayer
 70
     0
  3

 72
    65
 73
     0
 40
0.0
  0
LTYPE
  5
16
330
5
100
AcDbSymbolTableRecord
100
AcDbLinetypeTableRecord
  2
Continuous
 70
     0
  3
Solid line
 72
    65
 73
     0
 40
0.0
  0
LTYPE
  5
3D
330
5
100
AcDbSymbolTableRecord
100
AcDbLinetypeTableRecord
  2
JWW_CENTER1
 70
     0
  3
-----  --  ----------  --  -----
 72
    65
 73
     4
 40
6.773333333333333
 49
4.233333333333333
 74
     0
 49
-0.8466666666666667
 74
     0
 49
0.8466666666666667
 74
     0
 49
-0.8466666666666667
 74
     0
  0
LTYPE
  5
3E
330
5
100
AcDbSymbolTableRecord
100
AcDbLinetypeTableRecord
  2
JWW_CENTER2
 70
     0
  3
-------------  --  -------------
 72
    65
 73
     4
 40
13.54666666666667
 49
11.00666666666667
 74
     0
 49
-0.8466666666666667
 74
     0
 49
0.8466666666666667
 74
     0
 49
-0.8466666666666667
 74
     0
  0
LTYPE
  5
3F
330
5
100
AcDbSymbolTableRecord
100
AcDbLinetypeTableRecord
  2
JWW_DASHED1
 70
     0
  3
-  --  --  --  --  --  --  --  -
 72
    65
 73
     2
 40
1.693333333333333
 49
0.8466666666666667
 74
     0
 49
-0.8466666666666667
 74
     0
  0
ENDTAB
  0
TABLE
  2
LAYER
  5
2
330
0
100
AcDbSymbolTable
 70
    11
  0
LAYER
  5
10
330
2
100
AcDbSymbolTableRecord
100
AcDbLayerTableRecord
  2
0
 70
     0
 62
     7
  6
Continuous
370
    -3
390
F
  0
LAYER
  5
40
330
2
100
AcDbSymbolTableRecord
100
AcDbLayerTableRecord
  2
F-F
 70
     0
 62
     7
  6
Continuous
370
    -3
390
F
  0
LAYER
  5
41
330
2
100
AcDbSymbolTableRecord
100
AcDbLayerTableRecord
  2
0-E
 70
     0
 62
     7
  6
Continuous
370
    -3
390
F
  0
LAYER
  5
42
330
2
100
AcDbSymbolTableRecord
100
AcDbLayerTableRecord
  2
0-1
 70
     0
 62
     7
  6
Continuous
370
    -3
390
F
  0
LAYER
  5
43
330
2
100
AcDbSymbolTableRecord
100
AcDbLayerTableRecord
  2
0-2
 70
     0
 62
     7
  6
Continuous
370
    -3
390
F
  0
LAYER
  5
44
330
2
100
AcDbSymbolTableRecord
100
AcDbLayerTableRecord
  2
0-0
 70
     0
 62
     7
  6
Continuous
370
    -3
390
F
  0
LAYER
  5
45
330
2
100
AcDbSymbolTableRecord
100
AcDbLayerTableRecord
  2
0-3
 70
     0
 62
     7
  6
Continuous
370
    -3
390
F
  0
LAYER
  5
46
330
2
100
AcDbSymbolTableRecord
100
AcDbLayerTableRecord
  2
0-F
 70
     0
 62
     7
  6
Continuous
370
    -3
390
F
  0
LAYER
  5
47
330
2
100
AcDbSymbolTableRecord
100
AcDbLayerTableRecord
  2
F-4
 70
     0
 62
     7
  6
Continuous
370
    -3
390
F
  0
LAYER
  5
48
330
2
100
AcDbSymbolTableRecord
100
AcDbLayerTableRecord
  2
0-5
 70
     0
 62
     7
  6
Continuous
370
    -3
390
F
  0
LAYER
  5
49
330
2
100
AcDbSymbolTableRecord
100
AcDbLayerTableRecord
  2
0-4
 70
     0
 62
     7
  6
Continuous
370
    -3
390
F
  0
ENDTAB
  0
TABLE
  2
STYLE
  5
3
330
0
100
AcDbSymbolTable
 70
     3
  0
STYLE
  5
11
330
3
100
AcDbSymbolTableRecord
100
AcDbTextStyleTableRecord
  2
Standard
 70
     0
 40
0.0
 41
1.0
 50
0.0
 71
     0
 42
2.5
  3
txt
  4

1001
ACAD
1000

1071
        0
  0
STYLE
  5
3B
330
3
100
AcDbSymbolTableRecord
100
AcDbTextStyleTableRecord
  2
ＤＦＰ平成丸ゴシック体W4
 70
     0
 40
1.0
 41
1.0
 50
0.0
 71
     0
 42
10.0
  3

  4

1001
ACAD
1000
ＤＦＰ平成丸ゴシック体W4
1071
        0
  0
STYLE
  5
3C
330
3
100
AcDbSymbolTableRecord
100
AcDbTextStyleTableRecord
  2
ＭＳ ゴシック
 70
     0
 40
1.0
 41
1.0
 50
0.0
 71
     0
 42
10.0
  3

  4

1001
ACAD
1000
MS Gothic
1071
    32817
  0
ENDTAB
  0
TABLE
  2
VIEW
  5
6
330
0
100
AcDbSymbolTable
 70
     0
  0
ENDTAB
  0
TABLE
  2
UCS
  5
7
330
0
100
AcDbSymbolTable
 70
     0
  0
ENDTAB
  0
TABLE
  2
APPID
  5
9
330
0
100
AcDbSymbolTable
 70
     1
  0
APPID
  5
12
330
9
100
AcDbSymbolTableRecord
100
AcDbRegAppTableRecord
  2
ACAD
 70
     0
  0
ENDTAB
  0
TABLE
  2
DIMSTYLE
  5
A
330
0
100
AcDbSymbolTable
 70
     1
100
AcDbDimStyleTable
  0
DIMSTYLE
105
27
330
A
100
AcDbSymbolTableRecord
100
AcDbDimStyleTableRecord
  2
ISO-25
 70
     0
 41
2.5
 42
0.625
 43
3.75
 44
1.25
 73
     0
 74
     0
 77
     1
 78
     8
140
2.5
141
2.5
143
0.03937007874016
147
0.625
171
     3
172
     1
271
     2
272
     2
274
     3
278
    44
283
     0
284
     8
340
11
  0
ENDTAB
  0
TABLE
  2
BLOCK_RECORD
  5
1
330
0
100
AcDbSymbolTable
 70
     1
  0
BLOCK_RECORD
  5
1F
330
1
100
AcDbSymbolTableRecord
100
AcDbBlockTableRecord
  2
*Model_Space
340
22
  0
BLOCK_RECORD
  5
1B
330
1
100
AcDbSymbolTableRecord
100
AcDbBlockTableRecord
  2
*Paper_Space
340
1E
  0
BLOCK_RECORD
  5
23
330
1
100
AcDbSymbolTableRecord
100
AcDbBlockTableRecord
  2
*Paper_Space0
340
26
  0
ENDTAB
  0
ENDSEC
  0
SECTION
  2
BLOCKS
  0
BLOCK
  5
20
330
1F
100
AcDbEntity
  8
0
100
AcDbBlockBegin
  2
*Model_Space
 70
     0
 10
0.0
 20
0.0
 30
0.0
  3
*Model_Space
  1

  0
ENDBLK
  5
21
330
1F
100
AcDbEntity
  8
0
100
AcDbBlockEnd
  0
BLOCK
  5
1C
330
1B
100
AcDbEntity
 67
     1
  8
0
100
AcDbBlockBegin
  2
*Paper_Space
 70
     0
 10
0.0
 20
0.0
 30
0.0
  3
*Paper_Space
  1

  0
ENDBLK
  5
1D
330
1B
100
AcDbEntity
 67
     1
  8
0
100
AcDbBlockEnd
  0
BLOCK
  5
24
330
23
100
AcDbEntity
  8
0
100
AcDbBlockBegin
  2
*Paper_Space0
 70
     0
 10
0.0
 20
0.0
 30
0.0
  3
*Paper_Space0
  1

  0
ENDBLK
  5
25
330
23
100
AcDbEntity
  8
0
100
AcDbBlockEnd
  0
ENDSEC
  0
SECTION
  2
ENTITIES
  0
TEXT
  5
4A
330
1F
100
AcDbEntity
  8
F-F
  6
Continuous
 62
     4
370
     9
100
AcDbText
 10
-120.7493508612549
 20
210.4161077885054
 30
0.0
 40
30.0
  1
散水栓
 41
0.9333333333333333
  7
ＤＦＰ平成丸ゴシック体W4
100
AcDbText
  0
LINE
  5
4B
330
1F
100
AcDbEntity
  8
0-E
  6
Continuous
 62
     7
370
     9
100
AcDbLine
 10
81.95939927071299
 20
-11.92208306347935
 30
0.0
 11
84.82950326142245
 21
-4.992976222263181
 31
0.0
  0
LINE
  5
4C
330
1F
100
AcDbEntity
  8
0-E
  6
Continuous
 62
     7
370
     9
100
AcDbLine
 10
81.95939927071299
 20
-11.92208306347935
 30
0.0
 11
86.52510939001198
 21
-5.971947136536855
 31
0.0
  0
LINE
  5
4D
330
1F
100
AcDbEntity
  8
0-E
  6
Continuous
 62
     7
370
     9
100
AcDbLine
 10
56.86317404768721
 20
-11.47212611800849
 30
0.0
 11
59.73335227034346
 21
-4.543019276792322
 31
0.0
  0
LINE
  5
4E
330
1F
100
AcDbEntity
  8
0-E
  6
Continuous
 62
     7
370
     9
100
AcDbLine
 10
56.86317404768721
 20
-11.47212611800849
 30
0.0
 11
61.42892128295955
 21
-5.521990191065996
 31
0.0
  0
LINE
  5
4F
330
1F
100
AcDbEntity
  8
0-E
  6
Continuous
 62
     7
370
     9
100
AcDbLine
 10
81.95939927071299
 20
-11.92208306347935
 30
0.0
 11
99.27993941534979
 21
18.07790456452948
 31
0.0
  0
LINE
  5
50
330
1F
100
AcDbEntity
  8
0-E
  6
Continuous
 62
     7
370
     9
100
AcDbLine
 10
56.86317404768721
 20
-11.47212611800849
 30
0.0
 11
94.70858766809471
 21
54.07791198772416
 31
0.0
  0
LINE
  5
51
330
1F
100
AcDbEntity
  8
0-E
  6
Continuous
 62
     7
370
     9
100
AcDbLine
 10
102.7620115754005
 20
-167.5956431286716
 30
0.0
 11
67.72007877345791
 21
-106.9011166625081
 31
0.0
  0
LINE
  5
52
330
1F
100
AcDbEntity
  8
0-E
  6
Continuous
 62
     7
370
     9
100
AcDbLine
 10
94.70858766809471
 20
54.07791198772416
 30
0.0
 11
167.6269259282299
 21
54.07791198772416
 31
0.0
  0
LINE
  5
53
330
1F
100
AcDbEntity
  8
0-E
  6
Continuous
 62
     7
370
     9
100
AcDbLine
 10
99.27993941534979
 20
18.07790456452948
 30
0.0
 11
171.345946462436
 21
18.07790456452948
 31
0.0
  0
LINE
  5
54
330
1F
100
AcDbEntity
  8
0-1
  6
Continuous
 62
     3
370
     9
100
AcDbLine
 10
-241.7493442628597
 20
-8.176932884003023
 30
0.0
 11
-240.2493393140632
 21
-21.17695102959006
 31
0.0
  0
LINE
  5
55
330
1F
100
AcDbEntity
  8
0-1
  6
Continuous
 62
     3
370
     9
100
AcDbLine
 10
-217.0516703621523
 20
-28.89781581527416
 30
0.0
 11
-216.2493343652668
 21
-21.67697742317115
 31
0.0
  0
LINE
  5
56
330
1F
100
AcDbEntity
  8
0-1
  6
Continuous
 62
     3
370
     9
100
AcDbLine
 10
-226.8412310409952
 20
-34.58286946022771
 30
0.0
 11
-229.7493417884615
 21
-158.1769823719675
 31
0.0
  0
LINE
  5
57
330
1F
100
AcDbEntity
  8
0-1
  6
Continuous
 62
     3
370
     9
100
AcDbLine
 10
-240.1735484963901
 20
-21.17695102959006
 30
0.0
 11
-240.2493393140632
 21
-21.17695102959006
 31
0.0
  0
LINE
  5
58
330
1F
100
AcDbEntity
  8
0-1
  6
Continuous
 62
     3
370
     9
100
AcDbLine
 10
-236.6744029885776
 20
-24.60030571972943
 30
0.0
 11
-233.7493673572432
 21
-158.1769823719675
 31
0.0
  0
LINE
  5
59
330
1F
100
AcDbEntity
  8
0-1
  6
Continuous
 62
     3
370
     9
100
AcDbLine
 10
-225.8976316493673
 20
-20.34265817961115
 30
0.0
 11
-227.2493582844496
 21
-8.176932884003023
 31
0.0
  0
LINE
  5
5A
330
1F
100
AcDbEntity
  8
0-1
  6
Continuous
 62
     3
370
     9
100
AcDbLine
 10
-241.7493442628597
 20
-8.176932884003023
 30
0.0
 11
84.25064254034979
 21
-8.176932884003023
 31
0.0
  0
LINE
  5
5B
330
1F
100
AcDbEntity
  8
0-1
  6
Continuous
 62
     3
370
     9
100
AcDbLine
 10
-233.7493673572432
 20
-158.1769823719675
 30
0.0
 11
-43.74935910924904
 21
-158.1769823719675
 31
0.0
  0
LINE
  5
5C
330
1F
100
AcDbEntity
  8
0-1
  6
Continuous
 62
     3
370
     9
100
AcDbLine
 10
-235.0631985834889
 20
-98.17693288400307
 30
0.0
 11
-228.337598624399
 21
-98.17693288400307
 31
0.0
  0
LINE
  5
5D
330
1F
100
AcDbEntity
  8
0-1
  6
Continuous
 62
     3
370
     9
100
AcDbLine
 10
84.25064254034979
 20
-8.176932884003023
 30
0.0
 11
82.7506375915533
 21
-21.17695102959006
 31
0.0
  0
LINE
  5
5E
330
1F
100
AcDbEntity
  8
0-1
  6
Continuous
 62
     3
370
     9
100
AcDbLine
 10
82.67484677388018
 20
-21.17695102959006
 30
0.0
 11
82.7506375915533
 21
-21.17695102959006
 31
0.0
  0
LINE
  5
5F
330
1F
100
AcDbEntity
  8
0-1
  6
Continuous
 62
     3
370
     9
100
AcDbLine
 10
68.39892992685736
 20
-20.34265817961115
 30
0.0
 11
69.75061944596635
 21
-8.176932884003023
 31
0.0
  0
LINE
  5
60
330
1F
100
AcDbEntity
  8
0-1
  6
Continuous
 62
     3
370
     9
100
AcDbLine
 10
77.564496860979
 20
-98.17693288400307
 30
0.0
 11
70.83885978591564
 21
-98.17693288400307
 31
0.0
  0
LINE
  5
61
330
1F
100
AcDbEntity
  8
0-1
  6
Continuous
 62
     3
370
     9
100
AcDbLine
 10
76.25066563473322
 20
-158.1769823719675
 30
0.0
 11
-3.749400349219513
 21
-158.1769823719675
 31
0.0
  0
LINE
  5
62
330
1F
100
AcDbEntity
  8
0-1
  6
Continuous
 62
     3
370
     9
100
AcDbLine
 10
78.14484222098744
 20
-71.67694443119478
 30
0.0
 11
70.2153856648219
 21
-71.67694443119478
 31
0.0
  0
LINE
  5
63
330
1F
100
AcDbEntity
  8
0-1
  6
Continuous
 62
     3
370
     9
100
AcDbLine
 10
78.29813119110995
 20
-64.67694608079357
 30
0.0
 11
70.05066497489369
 21
-64.67694608079357
 31
0.0
  0
LINE
  5
64
330
1F
100
AcDbEntity
  8
0-2
  6
Continuous
 62
     2
370
     9
100
AcDbLine
 10
-195.7493657076443
 20
-10.1769642263806
 30
0.0
 11
-194.7493500364556
 21
-8.676959277584118
 31
0.0
  0
LINE
  5
65
330
1F
100
AcDbEntity
  8
0-2
  6
Continuous
 62
     2
370
     9
100
AcDbLine
 10
-166.7493566348508
 20
-8.676959277584118
 30
0.0
 11
-165.7493409636621
 21
-10.1769642263806
 31
0.0
  0
LINE
  5
66
330
1F
100
AcDbEntity
  8
0-2
  6
Continuous
 62
     2
370
     9
100
AcDbLine
 10
-209.2493360148656
 20
-10.1769642263806
 30
0.0
 11
-195.7493657076443
 21
-10.1769642263806
 31
0.0
  0
LINE
  5
67
330
1F
100
AcDbEntity
  8
0-2
  6
Continuous
 62
     2
370
     9
100
AcDbLine
 10
-223.8049217214218
 20
-21.67697742317115
 30
0.0
 11
-225.2493640580455
 21
-8.676959277584118
 31
0.0
  0
LINE
  5
68
330
1F
100
AcDbEntity
  8
0-2
  6
Continuous
 62
     2
370
     9
100
AcDbLine
 10
-223.8049217214218
 20
-21.67697742317115
 30
0.0
 11
-216.2493343652668
 21
-21.67697742317115
 31
0.0
  0
LINE
  5
69
330
1F
100
AcDbEntity
  8
0-2
  6
Continuous
 62
     2
370
     9
100
AcDbLine
 10
-215.2081941955561
 20
-16.12413087545154
 30
0.0
 11
-216.2493343652668
 21
-21.67697742317115
 31
0.0
  0
LINE
  5
6A
330
1F
100
AcDbEntity
  8
0-2
  6
Continuous
 62
     2
370
     9
100
AcDbLine
 10
-189.7493459124585
 20
-8.676959277584118
 30
0.0
 11
-191.2493508612549
 21
-13.67700051755459
 31
0.0
  0
LINE
  5
6B
330
1F
100
AcDbEntity
  8
0-2
  6
Continuous
 62
     2
370
     9
100
AcDbLine
 10
-171.7493607588479
 20
-8.676959277584118
 30
0.0
 11
-170.2493558100514
 21
-13.67700051755459
 31
0.0
  0
LINE
  5
6C
330
1F
100
AcDbEntity
  8
0-2
  6
Continuous
 62
     2
370
     9
100
AcDbLine
 10
-210.2493516860544
 20
-8.676959277584118
 30
0.0
 11
-209.2493360148656
 21
-10.1769642263806
 31
0.0
  0
LINE
  5
6D
330
1F
100
AcDbEntity
  8
0-2
  6
Continuous
 62
     2
370
     9
100
AcDbLine
 10
-165.7493409636621
 20
-10.1769642263806
 30
0.0
 11
8.250639241152129
 21
-10.1769642263806
 31
0.0
  0
LINE
  5
6E
330
1F
100
AcDbEntity
  8
0-2
  6
Continuous
 62
     2
370
     9
100
AcDbLine
 10
-225.2493640580455
 20
-8.676959277584118
 30
0.0
 11
67.75066233553557
 21
-8.676959277584118
 31
0.0
  0
LINE
  5
6F
330
1F
100
AcDbEntity
  8
0-2
  6
Continuous
 62
     2
370
     9
100
AcDbLine
 10
-134.9450873081511
 20
-13.67700051755459
 30
0.0
 11
-212.2595899211156
 21
-13.67700051755459
 31
0.0
  0
LINE
  5
70
330
1F
100
AcDbEntity
  8
0-2
  6
Continuous
 62
     2
370
     9
100
AcDbLine
 10
-131.96215075832
 20
-16.3573676522674
 30
0.0
 11
-130.7493492116562
 21
-27.67692298641013
 31
0.0
  0
LINE
  5
71
330
1F
100
AcDbEntity
  8
0-2
  6
Continuous
 62
     2
370
     9
100
AcDbLine
 10
-125.536559212184
 20
-16.3573676522674
 30
0.0
 11
-126.7493607588479
 21
-27.67692298641013
 31
0.0
  0
LINE
  5
72
330
1F
100
AcDbEntity
  8
0-2
  6
Continuous
 62
     2
370
     9
100
AcDbLine
 10
-122.553622662353
 20
-13.67700051755459
 30
0.0
 11
-34.94507906015701
 21
-13.67700051755459
 31
0.0
  0
LINE
  5
73
330
1F
100
AcDbEntity
  8
0-2
  6
JWW_CENTER1
 62
     2
370
     9
100
AcDbLine
 10
-180.7493533356532
 20
-4.931512170320602
 30
0.0
 11
-180.7493533356532
 21
-17.30686848366521
 31
0.0
  0
LINE
  5
74
330
1F
100
AcDbEntity
  8
0-2
  6
Continuous
 62
     2
370
     9
100
AcDbLine
 10
-214.0577103682229
 20
-19.84767955841185
 30
0.0
 11
-130.7493492116562
 21
-27.67692298641013
 31
0.0
  0
LINE
  5
75
330
1F
100
AcDbEntity
  8
0-2
  6
Continuous
 62
     2
370
     9
100
AcDbLine
 10
-130.7493492116562
 20
-27.67692298641013
 30
0.0
 11
-26.74935251085373
 21
-27.67692298641013
 31
0.0
  0
LINE
  5
76
330
1F
100
AcDbEntity
  8
0-2
  6
JWW_CENTER1
 62
     2
370
     9
100
AcDbLine
 10
-128.749354985252
 20
-7.576693362254744
 30
0.0
 11
-128.749354985252
 21
-29.51935990575134
 31
0.0
  0
LINE
  5
77
330
1F
100
AcDbEntity
  8
0-2
  6
Continuous
 62
     2
370
     9
100
AcDbLine
 10
38.25066398513439
 20
-10.1769642263806
 30
0.0
 11
37.250685429919
 21
-8.676959277584118
 31
0.0
  0
LINE
  5
78
330
1F
100
AcDbEntity
  8
0-2
  6
Continuous
 62
     2
370
     9
100
AcDbLine
 10
9.250617796367521
 20
-8.676959277584118
 30
0.0
 11
8.250639241152129
 21
-10.1769642263806
 31
0.0
  0
LINE
  5
79
330
1F
100
AcDbEntity
  8
0-2
  6
Continuous
 62
     2
370
     9
100
AcDbLine
 10
51.75063429235573
 20
-10.1769642263806
 30
0.0
 11
38.25066398513439
 21
-10.1769642263806
 31
0.0
  0
LINE
  5
7A
330
1F
100
AcDbEntity
  8
0-2
  6
Continuous
 62
     2
370
     9
100
AcDbLine
 10
66.30618288293846
 20
-21.67697742317115
 30
0.0
 11
67.75066233553557
 21
-8.676959277584118
 31
0.0
  0
LINE
  5
7B
330
1F
100
AcDbEntity
  8
0-2
  6
Continuous
 62
     2
370
     9
100
AcDbLine
 10
14.25065903633799
 20
-8.676959277584118
 30
0.0
 11
12.75065408754151
 21
-13.67700051755459
 31
0.0
  0
LINE
  5
7C
330
1F
100
AcDbEntity
  8
0-2
  6
Continuous
 62
     2
370
     9
100
AcDbLine
 10
52.75061284757103
 20
-8.676959277584118
 30
0.0
 11
51.75063429235573
 21
-10.1769642263806
 31
0.0
  0
LINE
  5
7D
330
1F
100
AcDbEntity
  8
0-2
  6
Continuous
 62
     2
370
     9
100
AcDbLine
 10
-22.5536144143588
 20
-13.67700051755459
 30
0.0
 11
54.76088819860573
 21
-13.67700051755459
 31
0.0
  0
LINE
  5
7E
330
1F
100
AcDbEntity
  8
0-2
  6
Continuous
 62
     2
370
     9
100
AcDbLine
 10
-25.5365509641899
 20
-16.3573676522674
 30
0.0
 11
-26.74935251085373
 21
-27.67692298641013
 31
0.0
  0
LINE
  5
7F
330
1F
100
AcDbEntity
  8
0-2
  6
Continuous
 62
     2
370
     9
100
AcDbLine
 10
-31.96214251032592
 20
-16.3573676522674
 30
0.0
 11
-30.74934096366201
 21
-27.67692298641013
 31
0.0
  0
LINE
  5
80
330
1F
100
AcDbEntity
  8
0-2
  6
JWW_CENTER1
 62
     2
370
     9
100
AcDbLine
 10
23.25068872911666
 20
-4.931512170320602
 30
0.0
 11
23.25068872911666
 21
-17.30686848366521
 31
0.0
  0
LINE
  5
81
330
1F
100
AcDbEntity
  8
0-2
  6
JWW_CENTER1
 62
     2
370
     9
100
AcDbLine
 10
-28.74938385323131
 20
-7.576693362254744
 30
0.0
 11
-28.74938385323131
 21
-29.51935990575134
 31
0.0
  0
LINE
  5
82
330
1F
100
AcDbEntity
  8
0-1
  6
Continuous
 62
     3
370
     9
100
AcDbLine
 10
-224.4067572300261
 20
-21.67697742317115
 30
0.0
 11
-194.5930546724881
 21
-21.67697742317115
 31
0.0
  0
LINE
  5
83
330
1F
100
AcDbEntity
  8
0-2
  6
Continuous
 62
     2
370
     9
100
AcDbLine
 10
32.25064418994862
 20
-8.676959277584118
 30
0.0
 11
33.75064913874502
 21
-13.67700051755459
 31
0.0
  0
LINE
  5
84
330
1F
100
AcDbEntity
  8
0-2
  6
Continuous
 62
     2
370
     9
100
AcDbLine
 10
34.25067553232611
 20
-13.67700051755459
 30
0.0
 11
37.90125421159135
 21
-32.22214508839494
 31
0.0
  0
LINE
  5
85
330
1F
100
AcDbEntity
  8
0-2
  6
Continuous
 62
     2
370
     9
100
AcDbLine
 10
35.84851818699252
 20
-21.79404120325982
 30
0.0
 11
-26.74935251085373
 21
-27.67692298641013
 31
0.0
  0
LINE
  5
86
330
1F
100
AcDbEntity
  8
0-0
  6
Continuous
 62
     4
370
     9
100
AcDbLine
 10
42.75067883152377
 20
-56.67696917517705
 30
0.0
 11
42.75067883152377
 21
-69.67698732076404
 31
0.0
  0
LINE
  5
87
330
1F
100
AcDbEntity
  8
0-0
  6
Continuous
 62
     4
370
     9
100
AcDbLine
 10
39.75066893393088
 20
-56.67696917517705
 30
0.0
 11
39.75066893393088
 21
-69.67698732076404
 31
0.0
  0
LINE
  5
88
330
1F
100
AcDbEntity
  8
0-0
  6
Continuous
 62
     4
370
     9
100
AcDbLine
 10
48.75062439476275
 20
-56.67696917517705
 30
0.0
 11
48.75062439476275
 21
-69.67698732076404
 31
0.0
  0
LINE
  5
89
330
1F
100
AcDbEntity
  8
0-0
  6
Continuous
 62
     4
370
     9
100
AcDbLine
 10
51.75063429235573
 20
-56.67696917517705
 30
0.0
 11
51.75063429235573
 21
-69.67698732076404
 31
0.0
  0
LINE
  5
8A
330
1F
100
AcDbEntity
  8
0-1
  6
Continuous
 62
     3
370
     9
100
AcDbLine
 10
66.9080555075162
 20
-21.67697742317115
 30
0.0
 11
66.30618288293846
 21
-21.67697742317115
 31
0.0
  0
LINE
  5
8B
330
1F
100
AcDbEntity
  8
0-0
  6
Continuous
 62
     4
370
     9
100
AcDbLine
 10
59.98184371222479
 20
-106.9011166625081
 30
0.0
 11
59.98184371222479
 21
-92.61532696656217
 31
0.0
  0
LINE
  5
8C
330
1F
100
AcDbEntity
  8
0-0
  6
Continuous
 62
     4
370
     9
100
AcDbLine
 10
64.74397156273159
 20
-106.9011166625081
 30
0.0
 11
64.74397156273159
 21
-92.61532696656217
 31
0.0
  0
LINE
  5
8D
330
1F
100
AcDbEntity
  8
0-0
  6
Continuous
 62
     4
370
     9
100
AcDbLine
 10
57.00573650149846
 20
-106.9011166625081
 30
0.0
 11
57.00573650149846
 21
-92.61532696656217
 31
0.0
  0
LINE
  5
8E
330
1F
100
AcDbEntity
  8
0-0
  6
Continuous
 62
     4
370
     9
100
AcDbLine
 10
67.72015300540471
 20
-106.9011166625081
 30
0.0
 11
67.72015300540471
 21
-92.61532696656217
 31
0.0
  0
LINE
  5
8F
330
1F
100
AcDbEntity
  8
0-0
  6
Continuous
 62
     2
370
     9
100
AcDbLine
 10
65.65969685833963
 20
-62.67691473841603
 30
0.0
 11
65.65969685833963
 21
-74.67695432878767
 31
0.0
  0
LINE
  5
90
330
1F
100
AcDbEntity
  8
0-0
  6
Continuous
 62
     2
370
     9
100
AcDbLine
 10
62.1397664054258
 20
-74.20194410127502
 30
0.0
 11
65.65969685833963
 21
-74.20194410127502
 31
0.0
  0
LINE
  5
91
330
1F
100
AcDbEntity
  8
0-0
  6
Continuous
 62
     2
370
     9
100
AcDbLine
 10
61.65970840553135
 20
-64.41446191694224
 30
0.0
 11
61.65970840553135
 21
-72.9394071502615
 31
0.0
  0
LINE
  5
92
330
1F
100
AcDbEntity
  8
0-0
  6
Continuous
 62
     2
370
     9
100
AcDbLine
 10
62.1397664054258
 20
-63.15192496592873
 30
0.0
 11
65.65969685833963
 21
-63.15192496592873
 31
0.0
  0
LINE
  5
93
330
1F
100
AcDbEntity
  8
0-0
  6
Continuous
 62
     2
370
     9
100
AcDbLine
 10
85.65963912238104
 20
-66.21844668784595
 30
0.0
 11
85.1181913024908
 21
-65.67699886795576
 31
0.0
  0
LINE
  5
94
330
1F
100
AcDbEntity
  8
0-0
  6
Continuous
 62
     2
370
     9
100
AcDbLine
 10
85.1181913024908
 20
-65.67699886795576
 30
0.0
 11
85.1181913024908
 21
-71.67694443119478
 31
0.0
  0
LINE
  5
95
330
1F
100
AcDbEntity
  8
0-0
  6
Continuous
 62
     2
370
     9
100
AcDbLine
 10
85.1181913024908
 20
-71.67694443119478
 30
0.0
 11
85.65963912238104
 21
-71.13542237935779
 31
0.0
  0
LINE
  5
96
330
1F
100
AcDbEntity
  8
0-0
  6
Continuous
 62
     2
370
     9
100
AcDbLine
 10
85.65963912238104
 20
-71.13542237935779
 30
0.0
 11
85.65963912238104
 21
-66.21844668784595
 31
0.0
  0
LINE
  5
97
330
1F
100
AcDbEntity
  8
0-0
  6
JWW_CENTER2
 62
     2
370
     9
100
AcDbLine
 10
58.29870855069603
 20
-68.67693453360185
 30
0.0
 11
89.19263439793002
 21
-68.67693453360185
 31
0.0
  0
LINE
  5
98
330
1F
100
AcDbEntity
  8
0-0
  6
Continuous
 62
     2
370
     9
100
AcDbLine
 10
65.65969685833963
 20
-62.67691473841603
 30
0.0
 11
66.45962031695456
 21
-62.67691473841603
 31
0.0
  0
LINE
  5
99
330
1F
100
AcDbEntity
  8
0-0
  6
Continuous
 62
     2
370
     9
100
AcDbLine
 10
66.45962031695456
 20
-62.67691473841603
 30
0.0
 11
66.45962031695456
 21
-74.67695432878767
 31
0.0
  0
LINE
  5
9A
330
1F
100
AcDbEntity
  8
0-0
  6
Continuous
 62
     2
370
     9
100
AcDbLine
 10
65.65969685833963
 20
-74.67695432878767
 30
0.0
 11
66.45962031695456
 21
-74.67695432878767
 31
0.0
  0
LINE
  5
9B
330
1F
100
AcDbEntity
  8
0-0
  6
Continuous
 62
     2
370
     9
100
AcDbLine
 10
62.1397664054258
 20
-71.67694443119478
 30
0.0
 11
65.65969685833963
 21
-71.67694443119478
 31
0.0
  0
LINE
  5
9C
330
1F
100
AcDbEntity
  8
0-0
  6
Continuous
 62
     2
370
     9
100
AcDbLine
 10
62.1397664054258
 20
-65.67699886795576
 30
0.0
 11
65.65969685833963
 21
-65.67699886795576
 31
0.0
  0
LINE
  5
9D
330
1F
100
AcDbEntity
  8
0-0
  6
Continuous
 62
     2
370
     9
100
AcDbLine
 10
78.33643487565385
 20
-62.92692793520658
 30
0.0
 11
78.33643487565385
 21
-74.42694113199713
 31
0.0
  0
LINE
  5
9E
330
1F
100
AcDbEntity
  8
0-0
  6
Continuous
 62
     2
370
     9
100
AcDbLine
 10
82.84565448344526
 20
-62.92692793520658
 30
0.0
 11
78.33643487565385
 21
-62.92692793520658
 31
0.0
  0
LINE
  5
9F
330
1F
100
AcDbEntity
  8
0-0
  6
Continuous
 62
     2
370
     9
100
AcDbLine
 10
82.84565448344526
 20
-74.42694113199713
 30
0.0
 11
78.33643487565385
 21
-74.42694113199713
 31
0.0
  0
LINE
  5
A0
330
1F
100
AcDbEntity
  8
0-0
  6
Continuous
 62
     2
370
     9
100
AcDbLine
 10
82.84565448344526
 20
-65.81365988199713
 30
0.0
 11
78.33643487565385
 21
-65.81365988199713
 31
0.0
  0
LINE
  5
A1
330
1F
100
AcDbEntity
  8
0-0
  6
Continuous
 62
     2
370
     9
100
AcDbLine
 10
82.84565448344526
 20
-71.54020918520658
 30
0.0
 11
78.33643487565385
 21
-71.54020918520658
 31
0.0
  0
LINE
  5
A2
330
1F
100
AcDbEntity
  8
0-0
  6
Continuous
 62
     2
370
     9
100
AcDbLine
 10
83.33640188367752
 20
-64.37029390860185
 30
0.0
 11
83.33640188367752
 21
-72.98350092665505
 31
0.0
  0
LINE
  5
A3
330
1F
100
AcDbEntity
  8
0-0
  6
Continuous
 62
     2
370
     9
100
AcDbLine
 10
66.45962031695456
 20
-65.67699886795576
 30
0.0
 11
78.33643487565385
 21
-65.67699886795576
 31
0.0
  0
LINE
  5
A4
330
1F
100
AcDbEntity
  8
0-0
  6
Continuous
 62
     2
370
     9
100
AcDbLine
 10
83.33640188367752
 20
-65.67699886795576
 30
0.0
 11
85.1181913024908
 21
-65.67699886795576
 31
0.0
  0
LINE
  5
A5
330
1F
100
AcDbEntity
  8
0-0
  6
Continuous
 62
     2
370
     9
100
AcDbLine
 10
66.45962031695456
 20
-66.21844668784595
 30
0.0
 11
78.33643487565385
 21
-66.21844668784595
 31
0.0
  0
LINE
  5
A6
330
1F
100
AcDbEntity
  8
0-0
  6
Continuous
 62
     2
370
     9
100
AcDbLine
 10
83.33640188367752
 20
-66.21844668784595
 30
0.0
 11
85.65963912238104
 21
-66.21844668784595
 31
0.0
  0
LINE
  5
A7
330
1F
100
AcDbEntity
  8
0-0
  6
Continuous
 62
     2
370
     9
100
AcDbLine
 10
66.45962031695456
 20
-71.13542237935779
 30
0.0
 11
78.33643487565385
 21
-71.13542237935779
 31
0.0
  0
LINE
  5
A8
330
1F
100
AcDbEntity
  8
0-0
  6
Continuous
 62
     2
370
     9
100
AcDbLine
 10
83.33640188367752
 20
-71.13542237935779
 30
0.0
 11
85.65963912238104
 21
-71.13542237935779
 31
0.0
  0
LINE
  5
A9
330
1F
100
AcDbEntity
  8
0-0
  6
Continuous
 62
     2
370
     9
100
AcDbLine
 10
66.45962031695456
 20
-71.67694443119478
 30
0.0
 11
78.33643487565385
 21
-71.67694443119478
 31
0.0
  0
LINE
  5
AA
330
1F
100
AcDbEntity
  8
0-0
  6
Continuous
 62
     2
370
     9
100
AcDbLine
 10
83.33640188367752
 20
-71.67694443119478
 30
0.0
 11
85.1181913024908
 21
-71.67694443119478
 31
0.0
  0
LINE
  5
AB
330
1F
100
AcDbEntity
  8
0-0
  6
Continuous
 62
     4
370
     9
100
AcDbLine
 10
70.03106774094104
 20
-65.67699886795576
 30
0.0
 11
70.03106774094104
 21
-63.89127515596252
 31
0.0
  0
LINE
  5
AC
330
1F
100
AcDbEntity
  8
0-1
  6
Continuous
 62
     3
370
     9
100
AcDbLine
 10
69.34256643445877
 20
-34.58286946022771
 30
0.0
 11
70.07412227007956
 21
-65.67699886795576
 31
0.0
  0
LINE
  5
AD
330
1F
100
AcDbEntity
  8
0-1
  6
Continuous
 62
     3
370
     9
100
AcDbLine
 10
70.2153856648219
 20
-71.67694443119478
 30
0.0
 11
72.25060294997814
 21
-158.1769823719675
 31
0.0
  0
LINE
  5
AE
330
1F
100
AcDbEntity
  8
0-1
  6
Continuous
 62
     3
370
     9
100
AcDbLine
 10
79.17570126606768
 20
-24.60030571972943
 30
0.0
 11
78.27615853485995
 21
-65.67699886795576
 31
0.0
  0
LINE
  5
AF
330
1F
100
AcDbEntity
  8
0-1
  6
Continuous
 62
     3
370
     9
100
AcDbLine
 10
78.14484222098744
 20
-71.67694443119478
 30
0.0
 11
76.25066563473322
 21
-158.1769823719675
 31
0.0
  0
LINE
  5
B0
330
1F
100
AcDbEntity
  8
0-0
  6
Continuous
 62
     4
370
     9
100
AcDbLine
 10
66.45962031695456
 20
-77.92816513431978
 30
0.0
 11
66.45962031695456
 21
-63.89127515596252
 31
0.0
  0
LINE
  5
B1
330
1F
100
AcDbEntity
  8
0-0
  6
Continuous
 62
     4
370
     9
100
AcDbLine
 10
70.03106774094104
 20
-77.96194067010947
 30
0.0
 11
70.03106774094104
 21
-71.67694443119478
 31
0.0
  0
LINE
  5
B2
330
1F
100
AcDbEntity
  8
0-0
  6
JWW_CENTER1
 62
     4
370
     9
100
AcDbLine
 10
62.36290763747814
 20
-88.4958993113679
 30
0.0
 11
62.36290763747814
 21
-165.7168696713763
 31
0.0
  0
LINE
  5
B3
330
1F
100
AcDbEntity
  8
0-0
  6
Continuous
 62
     4
370
     9
100
AcDbLine
 10
66.28524947394354
 20
-78.74493924485607
 30
0.0
 11
62.47559173270619
 21
-87.25941777367787
 31
0.0
  0
LINE
  5
B4
330
1F
100
AcDbEntity
  8
0-0
  6
Continuous
 62
     4
370
     9
100
AcDbLine
 10
60.92993413663353
 20
-90.71394988146928
 30
0.0
 11
60.67992093984307
 21
-91.27276797690845
 31
0.0
  0
LINE
  5
B5
330
1F
100
AcDbEntity
  8
0-0
  6
Continuous
 62
     4
370
     9
100
AcDbLine
 10
69.73384302599166
 20
-79.37323844249123
 30
0.0
 11
65.73355764539627
 21
-88.45150860718717
 31
0.0
  0
LINE
  5
B6
330
1F
100
AcDbEntity
  8
0-0
  6
Continuous
 62
     4
370
     9
100
AcDbLine
 10
64.42403187206432
 20
-91.42331036499967
 30
0.0
 11
63.87085540458119
 21
-92.67872104912131
 31
0.0
  0
LINE
  5
B7
330
1F
100
AcDbEntity
  8
0-0
  6
JWW_CENTER1
 62
     4
370
     9
100
AcDbLine
 10
45.75068872911666
 20
-25.43927518235607
 30
0.0
 11
45.75068872911666
 21
-165.7168696713763
 31
0.0
  0
LINE
  5
B8
330
1F
100
AcDbEntity
  8
0-0
  6
Continuous
 62
     4
370
     9
100
AcDbLine
 10
44.25068378032026
 20
-54.0789252694549
 30
0.0
 11
44.25068378032026
 21
-55.17696422638056
 31
0.0
  0
LINE
  5
B9
330
1F
100
AcDbEntity
  8
0-0
  6
Continuous
 62
     4
370
     9
100
AcDbLine
 10
47.25061944596635
 20
-54.0789252694549
 30
0.0
 11
47.25061944596635
 21
-55.17696422638056
 31
0.0
  0
LINE
  5
BA
330
1F
100
AcDbEntity
  8
0-1
  6
JWW_CENTER1
 62
     3
370
     9
100
AcDbLine
 10
-78.74935086125498
 20
0.9967995642655723
 30
0.0
 11
-78.74935086125498
 21
-165.2772680824828
 31
0.0
  0
LINE
  5
BB
330
1F
100
AcDbEntity
  8
0-3
  6
Continuous
 62
     4
370
     9
100
AcDbLine
 10
-9.106868412986387
 20
-132.6769724743747
 30
0.0
 11
-38.39189104548217
 21
-132.6769724743747
 31
0.0
  0
LINE
  5
BC
330
1F
100
AcDbEntity
  8
0-3
  6
Continuous
 62
     4
370
     9
100
AcDbLine
 10
19.75065243794268
 20
-157.6769559783865
 30
0.0
 11
-67.24937478043779
 21
-157.6769559783865
 31
0.0
  0
LINE
  5
BD
330
1F
100
AcDbEntity
  8
0-3
  6
Continuous
 62
     4
370
     9
100
AcDbLine
 10
-65.74936983164139
 20
-149.6769790727699
 30
0.0
 11
-67.24937478043779
 21
-157.6769559783865
 31
0.0
  0
LINE
  5
BE
330
1F
100
AcDbEntity
  8
0-3
  6
Continuous
 62
     4
370
     9
100
AcDbLine
 10
18.25064748914627
 20
-149.6769790727699
 30
0.0
 11
19.75065243794268
 21
-157.6769559783865
 31
0.0
  0
LINE
  5
BF
330
1F
100
AcDbEntity
  8
0-3
  6
Continuous
 62
     4
370
     9
100
AcDbLine
 10
-38.74939210122537
 20
-157.6769559783865
 30
0.0
 11
-39.74937065644076
 21
-153.1768669000503
 31
0.0
  0
LINE
  5
C0
330
1F
100
AcDbEntity
  8
0-3
  6
Continuous
 62
     4
370
     9
100
AcDbLine
 10
-7.74938880202771
 20
-153.1768669000503
 30
0.0
 11
-8.749367357243102
 21
-157.6769559783865
 31
0.0
  0
LINE
  5
C1
330
1F
100
AcDbEntity
  8
0-0
  6
Continuous
 62
     4
370
     9
100
AcDbLine
 10
0.878441909543227
 20
-143.6768108136906
 30
0.0
 11
11.37840231917158
 21
-143.6768108136906
 31
0.0
  0
LINE
  5
C2
330
1F
100
AcDbEntity
  8
0-2
  6
Continuous
 62
     4
370
     9
100
AcDbLine
 10
-65.8257545048888
 20
-144.5938722843409
 30
0.0
 11
-66.2493962252224
 21
-149.6769790727699
 31
0.0
  0
LINE
  5
C3
330
1F
100
AcDbEntity
  8
0-2
  6
Continuous
 62
     4
370
     9
100
AcDbLine
 10
17.33054250867752
 20
-143.6769592775841
 30
0.0
 11
-64.82926485117264
 21
-143.6769592775841
 31
0.0
  0
LINE
  5
C4
330
1F
100
AcDbEntity
  8
0-2
  6
Continuous
 62
     4
370
     9
100
AcDbLine
 10
-37.74933931406326
 20
-149.6769790727699
 30
0.0
 11
-38.74924363733177
 21
-143.6769592775841
 31
0.0
  0
LINE
  5
C5
330
1F
100
AcDbEntity
  8
0-2
  6
Continuous
 62
     4
370
     9
100
AcDbLine
 10
-8.7494415891899
 20
-143.6769592775841
 30
0.0
 11
-9.749420144405292
 21
-149.6769790727699
 31
0.0
  0
LINE
  5
C6
330
1F
100
AcDbEntity
  8
0-2
  6
Continuous
 62
     4
370
     9
100
AcDbLine
 10
9.628458405531347
 20
-143.6769592775841
 30
0.0
 11
9.628458405531347
 21
-149.6769790727699
 31
0.0
  0
LINE
  5
C7
330
1F
100
AcDbEntity
  8
0-2
  6
Continuous
 62
     4
370
     9
100
AcDbLine
 10
2.628534287076974
 20
-143.6769592775841
 30
0.0
 11
2.628534287076974
 21
-149.6769790727699
 31
0.0
  0
LINE
  5
C8
330
1F
100
AcDbEntity
  8
0-0
  6
Continuous
 62
     4
370
     9
100
AcDbLine
 10
5.628395720776268
 20
-142.676906490422
 30
0.0
 11
6.628374275991661
 21
-142.676906490422
 31
0.0
  0
LINE
  5
C9
330
1F
100
AcDbEntity
  8
0-0
  6
Continuous
 62
     4
370
     9
100
AcDbLine
 10
6.628374275991661
 20
-139.794925388226
 30
0.0
 11
6.628374275991661
 21
-142.676906490422
 31
0.0
  0
LINE
  5
CA
330
1F
100
AcDbEntity
  8
0-0
  6
Continuous
 62
     4
370
     9
100
AcDbLine
 10
5.628395720776268
 20
-139.794925388226
 30
0.0
 11
5.628395720776268
 21
-142.676906490422
 31
0.0
  0
LINE
  5
CB
330
1F
100
AcDbEntity
  8
0-0
  6
Continuous
 62
     4
370
     9
100
AcDbLine
 10
3.628438610345569
 20
-155.6769988679558
 30
0.0
 11
8.628405618369243
 21
-155.6769988679558
 31
0.0
  0
LINE
  5
CC
330
1F
100
AcDbEntity
  8
0-0
  6
Continuous
 62
     4
370
     9
100
AcDbLine
 10
3.128412216764474
 20
-155.1769724743747
 30
0.0
 11
9.128432011950252
 21
-155.1769724743747
 31
0.0
  0
LINE
  5
CD
330
1F
100
AcDbEntity
  8
0-0
  6
Continuous
 62
     4
370
     9
100
AcDbLine
 10
3.128412216764474
 20
-155.1769724743747
 30
0.0
 11
3.628438610345569
 21
-155.6769988679558
 31
0.0
  0
LINE
  5
CE
330
1F
100
AcDbEntity
  8
0-0
  6
Continuous
 62
     4
370
     9
100
AcDbLine
 10
9.128432011950252
 20
-155.1769724743747
 30
0.0
 11
8.628405618369243
 21
-155.6769988679558
 31
0.0
  0
LINE
  5
CF
330
1F
100
AcDbEntity
  8
0-0
  6
Continuous
 62
     4
370
     9
100
AcDbLine
 10
3.128412216764474
 20
-143.6769592775841
 30
0.0
 11
3.128412216764474
 21
-157.6769559783865
 31
0.0
  0
LINE
  5
D0
330
1F
100
AcDbEntity
  8
0-0
  6
Continuous
 62
     4
370
     9
100
AcDbLine
 10
3.628438610345569
 20
-143.6769592775841
 30
0.0
 11
3.628438610345569
 21
-157.6769559783865
 31
0.0
  0
LINE
  5
D1
330
1F
100
AcDbEntity
  8
0-0
  6
Continuous
 62
     4
370
     9
100
AcDbLine
 10
8.628405618369243
 20
-143.6769592775841
 30
0.0
 11
8.628405618369243
 21
-157.6769559783865
 31
0.0
  0
LINE
  5
D2
330
1F
100
AcDbEntity
  8
0-0
  6
Continuous
 62
     4
370
     9
100
AcDbLine
 10
9.128432011950252
 20
-143.6769592775841
 30
0.0
 11
9.128432011950252
 21
-157.6769559783865
 31
0.0
  0
LINE
  5
D3
330
1F
100
AcDbEntity
  8
0-2
  6
JWW_CENTER1
 62
     4
370
     9
100
AcDbLine
 10
6.128496346304161
 20
-160.896098582905
 30
0.0
 11
6.128496346304161
 21
-137.2190768345943
 31
0.0
  0
LINE
  5
D4
330
1F
100
AcDbEntity
  8
0-0
  6
Continuous
 62
     4
370
     9
100
AcDbLine
 10
-48.3772013680117
 20
-143.6768108136906
 30
0.0
 11
-58.87708754569326
 21
-143.6768108136906
 31
0.0
  0
LINE
  5
D5
330
1F
100
AcDbEntity
  8
0-2
  6
Continuous
 62
     4
370
     9
100
AcDbLine
 10
-57.1272178639999
 20
-143.6769592775841
 30
0.0
 11
-57.1272178639999
 21
-149.6769790727699
 31
0.0
  0
LINE
  5
D6
330
1F
100
AcDbEntity
  8
0-2
  6
Continuous
 62
     4
370
     9
100
AcDbLine
 10
-50.12721951359873
 20
-143.6769592775841
 30
0.0
 11
-50.12721951359873
 21
-149.6769790727699
 31
0.0
  0
LINE
  5
D7
330
1F
100
AcDbEntity
  8
0-0
  6
Continuous
 62
     4
370
     9
100
AcDbLine
 10
-53.12715517924482
 20
-142.676906490422
 30
0.0
 11
-54.12713373446022
 21
-142.676906490422
 31
0.0
  0
LINE
  5
D8
330
1F
100
AcDbEntity
  8
0-0
  6
Continuous
 62
     4
370
     9
100
AcDbLine
 10
-54.12713373446022
 20
-139.794925388226
 30
0.0
 11
-54.12713373446022
 21
-142.676906490422
 31
0.0
  0
LINE
  5
D9
330
1F
100
AcDbEntity
  8
0-0
  6
Continuous
 62
     4
370
     9
100
AcDbLine
 10
-53.12715517924482
 20
-139.794925388226
 30
0.0
 11
-53.12715517924482
 21
-142.676906490422
 31
0.0
  0
LINE
  5
DA
330
1F
100
AcDbEntity
  8
0-0
  6
Continuous
 62
     4
370
     9
100
AcDbLine
 10
-51.12719806881404
 20
-155.6769988679558
 30
0.0
 11
-56.12709084489092
 21
-155.6769988679558
 31
0.0
  0
LINE
  5
DB
330
1F
100
AcDbEntity
  8
0-0
  6
Continuous
 62
     4
370
     9
100
AcDbLine
 10
-50.62717167523303
 20
-155.1769724743747
 30
0.0
 11
-56.62711723847201
 21
-155.1769724743747
 31
0.0
  0
LINE
  5
DC
330
1F
100
AcDbEntity
  8
0-0
  6
Continuous
 62
     4
370
     9
100
AcDbLine
 10
-50.62717167523303
 20
-155.1769724743747
 30
0.0
 11
-51.12719806881404
 21
-155.6769988679558
 31
0.0
  0
LINE
  5
DD
330
1F
100
AcDbEntity
  8
0-0
  6
Continuous
 62
     4
370
     9
100
AcDbLine
 10
-56.62711723847201
 20
-155.1769724743747
 30
0.0
 11
-56.12709084489092
 21
-155.6769988679558
 31
0.0
  0
LINE
  5
DE
330
1F
100
AcDbEntity
  8
0-0
  6
Continuous
 62
     4
370
     9
100
AcDbLine
 10
-50.62717167523303
 20
-143.6769592775841
 30
0.0
 11
-50.62717167523303
 21
-157.6769559783865
 31
0.0
  0
LINE
  5
DF
330
1F
100
AcDbEntity
  8
0-0
  6
Continuous
 62
     4
370
     9
100
AcDbLine
 10
-51.12719806881404
 20
-143.6769592775841
 30
0.0
 11
-51.12719806881404
 21
-157.6769559783865
 31
0.0
  0
LINE
  5
E0
330
1F
100
AcDbEntity
  8
0-0
  6
Continuous
 62
     4
370
     9
100
AcDbLine
 10
-56.12709084489092
 20
-143.6769592775841
 30
0.0
 11
-56.12709084489092
 21
-157.6769559783865
 31
0.0
  0
LINE
  5
E1
330
1F
100
AcDbEntity
  8
0-0
  6
Continuous
 62
     4
370
     9
100
AcDbLine
 10
-56.62711723847201
 20
-143.6769592775841
 30
0.0
 11
-56.62711723847201
 21
-157.6769559783865
 31
0.0
  0
LINE
  5
E2
330
1F
100
AcDbEntity
  8
0-2
  6
JWW_CENTER1
 62
     4
370
     9
100
AcDbLine
 10
-53.62718157282592
 20
-160.896098582905
 30
0.0
 11
-53.62718157282592
 21
-137.2190768345943
 31
0.0
  0
LINE
  5
E3
330
1F
100
AcDbEntity
  8
0-0
  6
Continuous
 62
     4
370
     9
100
AcDbLine
 10
-64.74935416045255
 20
-149.6769790727699
 30
0.0
 11
-56.62711723847201
 21
-149.6769790727699
 31
0.0
  0
LINE
  5
E4
330
1F
100
AcDbEntity
  8
0-2
  6
Continuous
 62
     4
370
     9
100
AcDbLine
 10
-66.2493962252224
 20
-149.6769790727699
 30
0.0
 11
-56.62711723847201
 21
-149.6769790727699
 31
0.0
  0
LINE
  5
E5
330
1F
100
AcDbEntity
  8
0-2
  6
Continuous
 62
     4
370
     9
100
AcDbLine
 10
-50.62717167523303
 20
-149.6769790727699
 30
0.0
 11
3.128412216764474
 21
-149.6769790727699
 31
0.0
  0
LINE
  5
E6
330
1F
100
AcDbEntity
  8
0-0
  6
Continuous
 62
     4
370
     9
100
AcDbLine
 10
9.128432011950252
 20
-149.6769790727699
 30
0.0
 11
18.75067388272728
 21
-149.6769790727699
 31
0.0
  0
LINE
  5
E7
330
1F
100
AcDbEntity
  8
0-2
  6
Continuous
 62
     4
370
     9
100
AcDbLine
 10
18.32703216239369
 20
-144.5938722843409
 30
0.0
 11
18.75067388272728
 21
-149.6769790727699
 31
0.0
  0
LINE
  5
E8
330
1F
100
AcDbEntity
  8
0-2
  6
Continuous
 62
     4
370
     9
100
AcDbLine
 10
-44.51936709330732
 20
-149.6769790727699
 30
0.0
 11
-43.01928791256404
 21
-153.1768669000503
 31
0.0
  0
LINE
  5
E9
330
1F
100
AcDbEntity
  8
0-2
  6
Continuous
 62
     4
370
     9
100
AcDbLine
 10
-2.979392365161232
 20
-149.6769790727699
 30
0.0
 11
-4.479397313957634
 21
-153.1768669000503
 31
0.0
  0
LINE
  5
EA
330
1F
100
AcDbEntity
  8
0-3
  6
Continuous
 62
     4
370
     9
100
AcDbLine
 10
-4.479397313957634
 20
-153.1768669000503
 30
0.0
 11
-43.01928791256404
 21
-153.1768669000503
 31
0.0
  0
LINE
  5
EB
330
1F
100
AcDbEntity
  8
0-3
  6
Continuous
 62
     4
370
     9
100
AcDbLine
 10
-56.62711723847201
 20
-149.6769790727699
 30
0.0
 11
-65.74936983164139
 21
-149.6769790727699
 31
0.0
  0
LINE
  5
EC
330
1F
100
AcDbEntity
  8
0-3
  6
Continuous
 62
     4
370
     9
100
AcDbLine
 10
18.25064748914627
 20
-149.6769790727699
 30
0.0
 11
9.128432011950252
 21
-149.6769790727699
 31
0.0
  0
LINE
  5
ED
330
1F
100
AcDbEntity
  8
0-3
  6
Continuous
 62
     4
370
     9
100
AcDbLine
 10
3.128412216764474
 20
-149.6769790727699
 30
0.0
 11
-50.62717167523303
 21
-149.6769790727699
 31
0.0
  0
LINE
  5
EE
330
1F
100
AcDbEntity
  8
0-3
  6
Continuous
 62
     4
370
     9
100
AcDbLine
 10
-39.88447279959951
 20
-134.0276969781753
 30
0.0
 11
-40.84933964398303
 21
-143.6769592775841
 31
0.0
  0
LINE
  5
EF
330
1F
100
AcDbEntity
  8
0-3
  6
Continuous
 62
     4
370
     9
100
AcDbLine
 10
-7.614286658868963
 20
-134.0276969781753
 30
0.0
 11
-6.649345582538729
 21
-143.6769592775841
 31
0.0
  0
LINE
  5
F0
330
1F
100
AcDbEntity
  8
0-2
  6
JWW_CENTER1
 62
     4
370
     9
100
AcDbLine
 10
-23.74934261326084
 20
-165.5059024785976
 30
0.0
 11
-23.74934261326084
 21
-127.479251560101
 31
0.0
  0
LINE
  5
F1
330
1F
100
AcDbEntity
  8
0-1
  6
Continuous
 62
     3
370
     9
100
AcDbLine
 10
-42.94505596577349
 20
-152.9488263595098
 30
0.0
 11
-42.98009344465865
 21
-153.1768669000503
 31
0.0
  0
LINE
  5
F2
330
1F
100
AcDbEntity
  8
0-1
  6
Continuous
 62
     3
370
     9
100
AcDbLine
 10
-43.67245481237404
 20
-157.6769559783865
 30
0.0
 11
-43.74935910924904
 21
-158.1769823719675
 31
0.0
  0
LINE
  5
F3
330
1F
100
AcDbEntity
  8
0-1
  6
Continuous
 62
     3
370
     9
100
AcDbLine
 10
-3.826304646094513
 20
-157.6769559783865
 30
0.0
 11
-3.749400349219513
 21
-158.1769823719675
 31
0.0
  0
LINE
  5
F4
330
1F
100
AcDbEntity
  8
0-1
  6
Continuous
 62
     3
370
     9
100
AcDbLine
 10
84.25064254034979
 20
143.9161234596942
 30
0.0
 11
84.25064254034979
 21
306.9161168612989
 31
0.0
  0
LINE
  5
F5
330
1F
100
AcDbEntity
  8
0-1
  6
Continuous
 62
     3
370
     9
100
AcDbLine
 10
-215.2493558100514
 20
117.4161350068859
 30
0.0
 11
57.75065408754151
 21
117.4161350068859
 31
0.0
  0
LINE
  5
F6
330
1F
100
AcDbEntity
  8
0-1
  6
Continuous
 62
     3
370
     9
100
AcDbLine
 10
-241.7493442628597
 20
306.9161168612989
 30
0.0
 11
-241.7493442628597
 21
143.9161234596942
 31
0.0
  0
LINE
  5
F7
330
1F
100
AcDbEntity
  8
0-1
  6
Continuous
 62
     3
370
     9
100
AcDbLine
 10
-215.2493558100514
 20
333.4161053141072
 30
0.0
 11
57.75065408754151
 21
333.4161053141072
 31
0.0
  0
LINE
  5
F8
330
1F
100
AcDbEntity
  8
0-1
  6
JWW_CENTER1
 62
     3
370
     9
100
AcDbLine
 10
93.25839235559471
 20
225.4161201604966
 30
0.0
 11
-251.9038291921249
 21
225.4161201604966
 31
0.0
  0
LINE
  5
F9
330
1F
100
AcDbEntity
  8
0-1
  6
JWW_CENTER1
 62
     3
370
     9
100
AcDbLine
 10
-78.74935086125498
 20
339.1497066522617
 30
0.0
 11
-78.74935086125498
 21
110.9527593998335
 31
0.0
  0
LINE
  5
FA
330
1F
100
AcDbEntity
  8
0-1
  6
Continuous
 62
     3
370
     9
100
AcDbLine
 10
-215.2493558100514
 20
318.9161564516706
 30
0.0
 11
57.75065408754151
 21
318.9161564516706
 31
0.0
  0
LINE
  5
FB
330
1F
100
AcDbEntity
  8
0-1
  6
Continuous
 62
     3
370
     9
100
AcDbLine
 10
69.75061944596635
 20
225.4161201604966
 30
0.0
 11
69.75061944596635
 21
306.9161168612989
 31
0.0
  0
LINE
  5
FC
330
1F
100
AcDbEntity
  8
0-1
  6
Continuous
 62
     3
370
     9
100
AcDbLine
 10
-227.2493211684762
 20
306.9161168612989
 30
0.0
 11
-227.2493211684762
 21
225.4161201604966
 31
0.0
  0
LINE
  5
FD
330
1F
100
AcDbEntity
  8
0-1
  6
Continuous
 62
     3
370
     9
100
AcDbLine
 10
82.7506375915533
 20
143.9161234596942
 30
0.0
 11
82.7506375915533
 21
225.4161201604966
 31
0.0
  0
LINE
  5
FE
330
1F
100
AcDbEntity
  8
0-1
  6
Continuous
 62
     3
370
     9
100
AcDbLine
 10
79.17570126606768
 20
143.9161234596942
 30
0.0
 11
79.17570126606768
 21
225.4161201604966
 31
0.0
  0
LINE
  5
FF
330
1F
100
AcDbEntity
  8
0-1
  6
Continuous
 62
     3
370
     9
100
AcDbLine
 10
69.25066728433205
 20
143.9161234596942
 30
0.0
 11
69.25066728433205
 21
225.4161201604966
 31
0.0
  0
LINE
  5
100
330
1F
100
AcDbEntity
  8
0-1
  6
Continuous
 62
     3
370
     9
100
AcDbLine
 10
59.75068542991909
 20
145.916080570125
 30
0.0
 11
59.75068542991909
 21
225.4161201604966
 31
0.0
  0
LINE
  5
101
330
1F
100
AcDbEntity
  8
0-1
  6
Continuous
 62
     3
370
     9
100
AcDbLine
 10
-215.2493558100514
 20
122.491076281168
 30
0.0
 11
57.75065408754151
 21
122.491076281168
 31
0.0
  0
LINE
  5
102
330
1F
100
AcDbEntity
  8
0-1
  6
Continuous
 62
     3
370
     9
100
AcDbLine
 10
-215.2493558100514
 20
118.9161399556824
 30
0.0
 11
57.75065408754151
 21
118.9161399556824
 31
0.0
  0
LINE
  5
103
330
1F
100
AcDbEntity
  8
0-1
  6
Continuous
 62
     3
370
     9
100
AcDbLine
 10
-240.2493393140632
 20
143.9161234596942
 30
0.0
 11
-240.2493393140632
 21
225.4161201604966
 31
0.0
  0
LINE
  5
104
330
1F
100
AcDbEntity
  8
0-1
  6
Continuous
 62
     3
370
     9
100
AcDbLine
 10
-236.6744029885776
 20
143.9161234596942
 30
0.0
 11
-236.6744029885776
 21
225.4161201604966
 31
0.0
  0
LINE
  5
105
330
1F
100
AcDbEntity
  8
0-1
  6
Continuous
 62
     3
370
     9
100
AcDbLine
 10
-226.7492947748952
 20
143.9161234596942
 30
0.0
 11
-226.7492947748952
 21
225.4161201604966
 31
0.0
  0
LINE
  5
106
330
1F
100
AcDbEntity
  8
0-1
  6
Continuous
 62
     3
370
     9
100
AcDbLine
 10
-217.2493871524289
 20
145.916080570125
 30
0.0
 11
-217.2493871524289
 21
225.4161201604966
 31
0.0
  0
LINE
  5
107
330
1F
100
AcDbEntity
  8
0-1
  6
Continuous
 62
     3
370
     9
100
AcDbLine
 10
-42.24935416045255
 20
141.9160921173167
 30
0.0
 11
-213.2493244676739
 21
141.9160921173167
 31
0.0
  0
LINE
  5
108
330
1F
100
AcDbEntity
  8
0-1
  6
Continuous
 62
     3
370
     9
100
AcDbLine
 10
-42.24935416045255
 20
132.4161102629036
 30
0.0
 11
-215.2493558100514
 21
132.4161102629036
 31
0.0
  0
LINE
  5
109
330
1F
100
AcDbEntity
  8
0-1
  6
Continuous
 62
     3
370
     9
100
AcDbLine
 10
-43.74935910924904
 20
129.4161003653107
 30
0.0
 11
-215.2493558100514
 21
129.4161003653107
 31
0.0
  0
LINE
  5
10A
330
1F
100
AcDbEntity
  8
0-1
  6
Continuous
 62
     3
370
     9
100
AcDbLine
 10
-43.74935910924904
 20
125.4161119125024
 30
0.0
 11
-215.2493558100514
 21
125.4161119125024
 31
0.0
  0
LINE
  5
10B
330
1F
100
AcDbEntity
  8
0-2
  6
Continuous
 62
     2
370
     9
100
AcDbLine
 10
-215.2493558100514
 20
316.916125109293
 30
0.0
 11
57.75065408754151
 21
316.916125109293
 31
0.0
  0
LINE
  5
10C
330
1F
100
AcDbEntity
  8
0-2
  6
Continuous
 62
     2
370
     9
100
AcDbLine
 10
67.75066233553557
 20
306.9161168612989
 30
0.0
 11
67.75066233553557
 21
225.4161201604966
 31
0.0
  0
LINE
  5
10D
330
1F
100
AcDbEntity
  8
0-2
  6
Continuous
 62
     2
370
     9
100
AcDbLine
 10
-225.2493640580455
 20
306.9161168612989
 30
0.0
 11
-225.2493640580455
 21
225.4161201604966
 31
0.0
  0
LINE
  5
10E
330
1F
100
AcDbEntity
  8
0-2
  6
Continuous
 62
     2
370
     9
100
AcDbLine
 10
-127.7494135460101
 20
266.6661449044789
 30
0.0
 11
-127.7494135460101
 21
254.1660789205261
 31
0.0
  0
LINE
  5
10F
330
1F
100
AcDbEntity
  8
0-2
  6
Continuous
 62
     2
370
     9
100
AcDbLine
 10
-29.7493624084467
 20
266.6661449044789
 30
0.0
 11
-59.74931292048217
 21
266.6661449044789
 31
0.0
  0
LINE
  5
110
330
1F
100
AcDbEntity
  8
0-2
  6
Continuous
 62
     2
370
     9
100
AcDbLine
 10
-29.7493624084467
 20
266.6661449044789
 30
0.0
 11
-29.7493624084467
 21
254.1660789205261
 31
0.0
  0
LINE
  5
111
330
1F
100
AcDbEntity
  8
0-2
  6
Continuous
 62
     2
370
     9
100
AcDbLine
 10
-63.74937560523725
 20
266.6661449044789
 30
0.0
 11
-63.74937560523725
 21
254.1660789205261
 31
0.0
  0
LINE
  5
112
330
1F
100
AcDbEntity
  8
0-2
  6
Continuous
 62
     2
370
     9
100
AcDbLine
 10
-63.74937560523725
 20
266.6661449044789
 30
0.0
 11
-93.74940034921951
 21
266.6661449044789
 31
0.0
  0
LINE
  5
113
330
1F
100
AcDbEntity
  8
0-2
  6
Continuous
 62
     2
370
     9
100
AcDbLine
 10
-93.74940034921951
 20
266.6661449044789
 30
0.0
 11
-93.74940034921951
 21
254.1660789205261
 31
0.0
  0
LINE
  5
114
330
1F
100
AcDbEntity
  8
0-2
  6
Continuous
 62
     2
370
     9
100
AcDbLine
 10
-63.74937560523725
 20
254.1660789205261
 30
0.0
 11
-93.74940034921951
 21
254.1660789205261
 31
0.0
  0
LINE
  5
115
330
1F
100
AcDbEntity
  8
0-2
  6
Continuous
 62
     2
370
     9
100
AcDbLine
 10
-97.749314570081
 20
266.6661449044789
 30
0.0
 11
-127.7494135460101
 21
266.6661449044789
 31
0.0
  0
LINE
  5
116
330
1F
100
AcDbEntity
  8
0-2
  6
Continuous
 62
     2
370
     9
100
AcDbLine
 10
-97.749314570081
 20
254.1660789205261
 30
0.0
 11
-127.7494135460101
 21
254.1660789205261
 31
0.0
  0
LINE
  5
117
330
1F
100
AcDbEntity
  8
0-2
  6
Continuous
 62
     2
370
     9
100
AcDbLine
 10
-97.749314570081
 20
266.6661449044789
 30
0.0
 11
-97.749314570081
 21
254.1660789205261
 31
0.0
  0
LINE
  5
118
330
1F
100
AcDbEntity
  8
0-2
  6
Continuous
 62
     2
370
     9
100
AcDbLine
 10
-59.74931292048217
 20
266.6661449044789
 30
0.0
 11
-59.74931292048217
 21
254.1660789205261
 31
0.0
  0
LINE
  5
119
330
1F
100
AcDbEntity
  8
0-2
  6
Continuous
 62
     2
370
     9
100
AcDbLine
 10
-29.7493624084467
 20
254.1660789205261
 30
0.0
 11
-59.74931292048217
 21
254.1660789205261
 31
0.0
  0
LINE
  5
11A
330
1F
100
AcDbEntity
  8
0-2
  6
Continuous
 62
     2
370
     9
100
AcDbLine
 10
-141.2493838532313
 20
284.1661036645084
 30
0.0
 11
-141.2493838532313
 21
271.6661119125025
 31
0.0
  0
LINE
  5
11B
330
1F
100
AcDbEntity
  8
0-2
  6
Continuous
 62
     2
370
     9
100
AcDbLine
 10
-118.2493574596502
 20
284.1661036645084
 30
0.0
 11
-141.2493838532313
 21
284.1661036645084
 31
0.0
  0
LINE
  5
11C
330
1F
100
AcDbEntity
  8
0-2
  6
Continuous
 62
     2
370
     9
100
AcDbLine
 10
-118.2493574596502
 20
284.1661036645084
 30
0.0
 11
-118.2493574596502
 21
271.6661119125025
 31
0.0
  0
LINE
  5
11D
330
1F
100
AcDbEntity
  8
0-2
  6
Continuous
 62
     2
370
     9
100
AcDbLine
 10
-118.2493574596502
 20
271.6661119125025
 30
0.0
 11
-141.2493838532313
 21
271.6661119125025
 31
0.0
  0
LINE
  5
11E
330
1F
100
AcDbEntity
  8
0-2
  6
Continuous
 62
     2
370
     9
100
AcDbLine
 10
-115.2493475620573
 20
284.1661036645084
 30
0.0
 11
-115.2493475620573
 21
271.6661119125025
 31
0.0
  0
LINE
  5
11F
330
1F
100
AcDbEntity
  8
0-2
  6
Continuous
 62
     2
370
     9
100
AcDbLine
 10
-110.2493805540336
 20
271.6661119125025
 30
0.0
 11
-115.2493475620573
 21
271.6661119125025
 31
0.0
  0
LINE
  5
120
330
1F
100
AcDbEntity
  8
0-2
  6
Continuous
 62
     2
370
     9
100
AcDbLine
 10
-110.2493805540336
 20
284.1661036645084
 30
0.0
 11
-110.2493805540336
 21
271.6661119125025
 31
0.0
  0
LINE
  5
121
330
1F
100
AcDbEntity
  8
0-2
  6
Continuous
 62
     2
370
     9
100
AcDbLine
 10
-110.2493805540336
 20
284.1661036645084
 30
0.0
 11
-115.2493475620573
 21
284.1661036645084
 31
0.0
  0
LINE
  5
122
330
1F
100
AcDbEntity
  8
0-2
  6
Continuous
 62
     2
370
     9
100
AcDbLine
 10
-107.2493706564408
 20
284.1661036645084
 30
0.0
 11
-107.2493706564408
 21
271.6661119125025
 31
0.0
  0
LINE
  5
123
330
1F
100
AcDbEntity
  8
0-2
  6
Continuous
 62
     2
370
     9
100
AcDbLine
 10
-42.24935416045255
 20
284.1661036645084
 30
0.0
 11
-47.24932116847623
 21
284.1661036645084
 31
0.0
  0
LINE
  5
124
330
1F
100
AcDbEntity
  8
0-2
  6
Continuous
 62
     2
370
     9
100
AcDbLine
 10
-42.24935416045255
 20
284.1661036645084
 30
0.0
 11
-42.24935416045255
 21
271.6661119125025
 31
0.0
  0
LINE
  5
125
330
1F
100
AcDbEntity
  8
0-2
  6
Continuous
 62
     2
370
     9
100
AcDbLine
 10
-42.24935416045255
 20
271.6661119125025
 30
0.0
 11
-47.24932116847623
 21
271.6661119125025
 31
0.0
  0
LINE
  5
126
330
1F
100
AcDbEntity
  8
0-2
  6
Continuous
 62
     2
370
     9
100
AcDbLine
 10
-47.24932116847623
 20
284.1661036645084
 30
0.0
 11
-47.24932116847623
 21
271.6661119125025
 31
0.0
  0
LINE
  5
127
330
1F
100
AcDbEntity
  8
0-2
  6
Continuous
 62
     2
370
     9
100
AcDbLine
 10
-50.24933106606912
 20
271.6661119125025
 30
0.0
 11
-73.24935745965021
 21
271.6661119125025
 31
0.0
  0
LINE
  5
128
330
1F
100
AcDbEntity
  8
0-2
  6
Continuous
 62
     2
370
     9
100
AcDbLine
 10
-73.24935745965021
 20
284.1661036645084
 30
0.0
 11
-73.24935745965021
 21
271.6661119125025
 31
0.0
  0
LINE
  5
129
330
1F
100
AcDbEntity
  8
0-2
  6
Continuous
 62
     2
370
     9
100
AcDbLine
 10
-50.24933106606912
 20
284.1661036645084
 30
0.0
 11
-73.24935745965021
 21
284.1661036645084
 31
0.0
  0
LINE
  5
12A
330
1F
100
AcDbEntity
  8
0-2
  6
Continuous
 62
     2
370
     9
100
AcDbLine
 10
-50.24933106606912
 20
284.1661036645084
 30
0.0
 11
-50.24933106606912
 21
271.6661119125025
 31
0.0
  0
LINE
  5
12B
330
1F
100
AcDbEntity
  8
0-2
  6
Continuous
 62
     2
370
     9
100
AcDbLine
 10
-76.2493673572431
 20
284.1661036645084
 30
0.0
 11
-81.24933436526678
 21
284.1661036645084
 31
0.0
  0
LINE
  5
12C
330
1F
100
AcDbEntity
  8
0-2
  6
Continuous
 62
     2
370
     9
100
AcDbLine
 10
-81.24933436526678
 20
284.1661036645084
 30
0.0
 11
-81.24933436526678
 21
271.6661119125025
 31
0.0
  0
LINE
  5
12D
330
1F
100
AcDbEntity
  8
0-2
  6
Continuous
 62
     2
370
     9
100
AcDbLine
 10
-76.2493673572431
 20
271.6661119125025
 30
0.0
 11
-81.24933436526678
 21
271.6661119125025
 31
0.0
  0
LINE
  5
12E
330
1F
100
AcDbEntity
  8
0-2
  6
Continuous
 62
     2
370
     9
100
AcDbLine
 10
-76.2493673572431
 20
284.1661036645084
 30
0.0
 11
-76.2493673572431
 21
271.6661119125025
 31
0.0
  0
LINE
  5
12F
330
1F
100
AcDbEntity
  8
0-2
  6
Continuous
 62
     2
370
     9
100
AcDbLine
 10
-84.24934426285967
 20
271.6661119125025
 30
0.0
 11
-107.2493706564408
 21
271.6661119125025
 31
0.0
  0
LINE
  5
130
330
1F
100
AcDbEntity
  8
0-2
  6
Continuous
 62
     2
370
     9
100
AcDbLine
 10
-84.24934426285967
 20
284.1661036645084
 30
0.0
 11
-84.24934426285967
 21
271.6661119125025
 31
0.0
  0
LINE
  5
131
330
1F
100
AcDbEntity
  8
0-2
  6
Continuous
 62
     2
370
     9
100
AcDbLine
 10
-84.24934426285967
 20
284.1661036645084
 30
0.0
 11
-107.2493706564408
 21
284.1661036645084
 31
0.0
  0
LINE
  5
132
330
1F
100
AcDbEntity
  8
0-2
  6
Continuous
 62
     2
370
     9
100
AcDbLine
 10
-127.7494135460101
 20
301.6661366564847
 30
0.0
 11
-127.7494135460101
 21
289.1661449044789
 31
0.0
  0
LINE
  5
133
330
1F
100
AcDbEntity
  8
0-2
  6
Continuous
 62
     2
370
     9
100
AcDbLine
 10
-29.7493624084467
 20
301.6661366564847
 30
0.0
 11
-29.7493624084467
 21
289.1661449044789
 31
0.0
  0
LINE
  5
134
330
1F
100
AcDbEntity
  8
0-2
  6
Continuous
 62
     2
370
     9
100
AcDbLine
 10
-8.249340963662007
 20
284.1661036645084
 30
0.0
 11
-13.24930797168568
 21
284.1661036645084
 31
0.0
  0
LINE
  5
135
330
1F
100
AcDbEntity
  8
0-2
  6
Continuous
 62
     2
370
     9
100
AcDbLine
 10
-8.249340963662007
 20
284.1661036645084
 30
0.0
 11
-8.249340963662007
 21
271.6661119125025
 31
0.0
  0
LINE
  5
136
330
1F
100
AcDbEntity
  8
0-2
  6
Continuous
 62
     2
370
     9
100
AcDbLine
 10
-8.249340963662007
 20
271.6661119125025
 30
0.0
 11
-13.24930797168568
 21
271.6661119125025
 31
0.0
  0
LINE
  5
137
330
1F
100
AcDbEntity
  8
0-2
  6
Continuous
 62
     2
370
     9
100
AcDbLine
 10
-13.24930797168568
 20
284.1661036645084
 30
0.0
 11
-13.24930797168568
 21
271.6661119125025
 31
0.0
  0
LINE
  5
138
330
1F
100
AcDbEntity
  8
0-2
  6
Continuous
 62
     2
370
     9
100
AcDbLine
 10
-16.24931786927857
 20
271.6661119125025
 30
0.0
 11
-39.24934426285967
 21
271.6661119125025
 31
0.0
  0
LINE
  5
139
330
1F
100
AcDbEntity
  8
0-2
  6
Continuous
 62
     2
370
     9
100
AcDbLine
 10
-39.24934426285967
 20
284.1661036645084
 30
0.0
 11
-39.24934426285967
 21
271.6661119125025
 31
0.0
  0
LINE
  5
13A
330
1F
100
AcDbEntity
  8
0-2
  6
Continuous
 62
     2
370
     9
100
AcDbLine
 10
-16.24931786927857
 20
284.1661036645084
 30
0.0
 11
-39.24934426285967
 21
284.1661036645084
 31
0.0
  0
LINE
  5
13B
330
1F
100
AcDbEntity
  8
0-2
  6
Continuous
 62
     2
370
     9
100
AcDbLine
 10
-16.24931786927857
 20
284.1661036645084
 30
0.0
 11
-16.24931786927857
 21
271.6661119125025
 31
0.0
  0
LINE
  5
13C
330
1F
100
AcDbEntity
  8
0-2
  6
Continuous
 62
     2
370
     9
100
AcDbLine
 10
25.75067223312854
 20
284.1661036645084
 30
0.0
 11
20.75070522510487
 21
284.1661036645084
 31
0.0
  0
LINE
  5
13D
330
1F
100
AcDbEntity
  8
0-2
  6
Continuous
 62
     2
370
     9
100
AcDbLine
 10
25.75067223312854
 20
284.1661036645084
 30
0.0
 11
25.75067223312854
 21
271.6661119125025
 31
0.0
  0
LINE
  5
13E
330
1F
100
AcDbEntity
  8
0-2
  6
Continuous
 62
     2
370
     9
100
AcDbLine
 10
25.75067223312854
 20
271.6661119125025
 30
0.0
 11
20.75070522510487
 21
271.6661119125025
 31
0.0
  0
LINE
  5
13F
330
1F
100
AcDbEntity
  8
0-2
  6
Continuous
 62
     2
370
     9
100
AcDbLine
 10
20.75070522510487
 20
284.1661036645084
 30
0.0
 11
20.75070522510487
 21
271.6661119125025
 31
0.0
  0
LINE
  5
140
330
1F
100
AcDbEntity
  8
0-2
  6
Continuous
 62
     2
370
     9
100
AcDbLine
 10
17.75062109556518
 20
271.6661119125025
 30
0.0
 11
-5.249331066069118
 21
271.6661119125025
 31
0.0
  0
LINE
  5
141
330
1F
100
AcDbEntity
  8
0-2
  6
Continuous
 62
     2
370
     9
100
AcDbLine
 10
-5.249331066069118
 20
284.1661036645084
 30
0.0
 11
-5.249331066069118
 21
271.6661119125025
 31
0.0
  0
LINE
  5
142
330
1F
100
AcDbEntity
  8
0-2
  6
Continuous
 62
     2
370
     9
100
AcDbLine
 10
17.75062109556518
 20
284.1661036645084
 30
0.0
 11
-5.249331066069118
 21
284.1661036645084
 31
0.0
  0
LINE
  5
143
330
1F
100
AcDbEntity
  8
0-2
  6
Continuous
 62
     2
370
     9
100
AcDbLine
 10
17.75062109556518
 20
284.1661036645084
 30
0.0
 11
17.75062109556518
 21
271.6661119125025
 31
0.0
  0
LINE
  5
144
330
1F
100
AcDbEntity
  8
0-2
  6
Continuous
 62
     2
370
     9
100
AcDbLine
 10
51.75063429235573
 20
271.6661119125025
 30
0.0
 11
28.75068213072143
 21
271.6661119125025
 31
0.0
  0
LINE
  5
145
330
1F
100
AcDbEntity
  8
0-2
  6
Continuous
 62
     2
370
     9
100
AcDbLine
 10
28.75068213072143
 20
284.1661036645084
 30
0.0
 11
28.75068213072143
 21
271.6661119125025
 31
0.0
  0
LINE
  5
146
330
1F
100
AcDbEntity
  8
0-2
  6
Continuous
 62
     2
370
     9
100
AcDbLine
 10
51.75063429235573
 20
284.1661036645084
 30
0.0
 11
28.75068213072143
 21
284.1661036645084
 31
0.0
  0
LINE
  5
147
330
1F
100
AcDbEntity
  8
0-2
  6
Continuous
 62
     2
370
     9
100
AcDbLine
 10
51.75063429235573
 20
284.1661036645084
 30
0.0
 11
51.75063429235573
 21
271.6661119125025
 31
0.0
  0
LINE
  5
148
330
1F
100
AcDbEntity
  8
0-2
  6
Continuous
 62
     2
370
     9
100
AcDbLine
 10
4.250650788343847
 20
266.6661449044789
 30
0.0
 11
-25.74929972369162
 21
266.6661449044789
 31
0.0
  0
LINE
  5
149
330
1F
100
AcDbEntity
  8
0-2
  6
Continuous
 62
     2
370
     9
100
AcDbLine
 10
4.250650788343847
 20
266.6661449044789
 30
0.0
 11
4.250650788343847
 21
254.1660789205261
 31
0.0
  0
LINE
  5
14A
330
1F
100
AcDbEntity
  8
0-2
  6
Continuous
 62
     2
370
     9
100
AcDbLine
 10
-25.74929972369162
 20
266.6661449044789
 30
0.0
 11
-25.74929972369162
 21
254.1660789205261
 31
0.0
  0
LINE
  5
14B
330
1F
100
AcDbEntity
  8
0-2
  6
Continuous
 62
     2
370
     9
100
AcDbLine
 10
4.250650788343847
 20
254.1660789205261
 30
0.0
 11
-25.74929972369162
 21
254.1660789205261
 31
0.0
  0
LINE
  5
14C
330
1F
100
AcDbEntity
  8
0-2
  6
Continuous
 62
     2
370
     9
100
AcDbLine
 10
4.250650788343847
 20
301.6661366564847
 30
0.0
 11
-25.74929972369162
 21
301.6661366564847
 31
0.0
  0
LINE
  5
14D
330
1F
100
AcDbEntity
  8
0-2
  6
Continuous
 62
     2
370
     9
100
AcDbLine
 10
4.250650788343847
 20
301.6661366564847
 30
0.0
 11
4.250650788343847
 21
289.1661449044789
 31
0.0
  0
LINE
  5
14E
330
1F
100
AcDbEntity
  8
0-2
  6
Continuous
 62
     2
370
     9
100
AcDbLine
 10
-25.74929972369162
 20
301.6661366564847
 30
0.0
 11
-25.74929972369162
 21
289.1661449044789
 31
0.0
  0
LINE
  5
14F
330
1F
100
AcDbEntity
  8
0-2
  6
Continuous
 62
     2
370
     9
100
AcDbLine
 10
4.250650788343847
 20
289.1661449044789
 30
0.0
 11
-25.74929972369162
 21
289.1661449044789
 31
0.0
  0
LINE
  5
150
330
1F
100
AcDbEntity
  8
0-2
  6
Continuous
 62
     2
370
     9
100
AcDbLine
 10
38.25066398513439
 20
266.6661449044789
 30
0.0
 11
8.250639241152129
 21
266.6661449044789
 31
0.0
  0
LINE
  5
151
330
1F
100
AcDbEntity
  8
0-2
  6
Continuous
 62
     2
370
     9
100
AcDbLine
 10
38.25066398513439
 20
266.6661449044789
 30
0.0
 11
38.25066398513439
 21
254.1660789205261
 31
0.0
  0
LINE
  5
152
330
1F
100
AcDbEntity
  8
0-2
  6
Continuous
 62
     2
370
     9
100
AcDbLine
 10
8.250639241152129
 20
266.6661449044789
 30
0.0
 11
8.250639241152129
 21
254.1660789205261
 31
0.0
  0
LINE
  5
153
330
1F
100
AcDbEntity
  8
0-2
  6
Continuous
 62
     2
370
     9
100
AcDbLine
 10
38.25066398513439
 20
254.1660789205261
 30
0.0
 11
8.250639241152129
 21
254.1660789205261
 31
0.0
  0
LINE
  5
154
330
1F
100
AcDbEntity
  8
0-2
  6
Continuous
 62
     2
370
     9
100
AcDbLine
 10
38.25066398513439
 20
301.6661366564847
 30
0.0
 11
8.250639241152129
 21
301.6661366564847
 31
0.0
  0
LINE
  5
155
330
1F
100
AcDbEntity
  8
0-2
  6
Continuous
 62
     2
370
     9
100
AcDbLine
 10
38.25066398513439
 20
301.6661366564847
 30
0.0
 11
38.25066398513439
 21
289.1661449044789
 31
0.0
  0
LINE
  5
156
330
1F
100
AcDbEntity
  8
0-2
  6
Continuous
 62
     2
370
     9
100
AcDbLine
 10
8.250639241152129
 20
301.6661366564847
 30
0.0
 11
8.250639241152129
 21
289.1661449044789
 31
0.0
  0
LINE
  5
157
330
1F
100
AcDbEntity
  8
0-2
  6
Continuous
 62
     2
370
     9
100
AcDbLine
 10
38.25066398513439
 20
289.1661449044789
 30
0.0
 11
8.250639241152129
 21
289.1661449044789
 31
0.0
  0
LINE
  5
158
330
1F
100
AcDbEntity
  8
0-2
  6
Continuous
 62
     2
370
     9
100
AcDbLine
 10
42.25065243794268
 20
266.6661449044789
 30
0.0
 11
42.25065243794268
 21
254.1660789205261
 31
0.0
  0
LINE
  5
159
330
1F
100
AcDbEntity
  8
0-2
  6
Continuous
 62
     2
370
     9
100
AcDbLine
 10
42.25065243794268
 20
301.6661366564847
 30
0.0
 11
42.25065243794268
 21
289.1661449044789
 31
0.0
  0
LINE
  5
15A
330
1F
100
AcDbEntity
  8
0-2
  6
Continuous
 62
     2
370
     9
100
AcDbLine
 10
51.75063429235573
 20
301.6661366564847
 30
0.0
 11
42.25065243794268
 21
301.6661366564847
 31
0.0
  0
LINE
  5
15B
330
1F
100
AcDbEntity
  8
0-2
  6
Continuous
 62
     2
370
     9
100
AcDbLine
 10
51.75063429235573
 20
289.1661449044789
 30
0.0
 11
51.75063429235573
 21
301.6661366564847
 31
0.0
  0
LINE
  5
15C
330
1F
100
AcDbEntity
  8
0-2
  6
Continuous
 62
     2
370
     9
100
AcDbLine
 10
51.75063429235573
 20
289.1661449044789
 30
0.0
 11
42.25065243794268
 21
289.1661449044789
 31
0.0
  0
LINE
  5
15D
330
1F
100
AcDbEntity
  8
0-2
  6
Continuous
 62
     2
370
     9
100
AcDbLine
 10
51.75063429235573
 20
266.6661449044789
 30
0.0
 11
42.25065243794268
 21
266.6661449044789
 31
0.0
  0
LINE
  5
15E
330
1F
100
AcDbEntity
  8
0-2
  6
Continuous
 62
     2
370
     9
100
AcDbLine
 10
51.75063429235573
 20
266.6661449044789
 30
0.0
 11
51.75063429235573
 21
254.1660789205261
 31
0.0
  0
LINE
  5
15F
330
1F
100
AcDbEntity
  8
0-2
  6
Continuous
 62
     2
370
     9
100
AcDbLine
 10
51.75063429235573
 20
254.1660789205261
 30
0.0
 11
42.25065243794268
 21
254.1660789205261
 31
0.0
  0
LINE
  5
160
330
1F
100
AcDbEntity
  8
0-2
  6
Continuous
 62
     2
370
     9
100
AcDbLine
 10
-161.7493525108538
 20
266.6661449044789
 30
0.0
 11
-161.7493525108538
 21
254.1660789205261
 31
0.0
  0
LINE
  5
161
330
1F
100
AcDbEntity
  8
0-2
  6
Continuous
 62
     2
370
     9
100
AcDbLine
 10
-131.7493277668715
 20
266.6661449044789
 30
0.0
 11
-161.7493525108538
 21
266.6661449044789
 31
0.0
  0
LINE
  5
162
330
1F
100
AcDbEntity
  8
0-2
  6
Continuous
 62
     2
370
     9
100
AcDbLine
 10
-131.7493277668715
 20
254.1660789205261
 30
0.0
 11
-161.7493525108538
 21
254.1660789205261
 31
0.0
  0
LINE
  5
163
330
1F
100
AcDbEntity
  8
0-2
  6
Continuous
 62
     2
370
     9
100
AcDbLine
 10
-131.7493277668715
 20
266.6661449044789
 30
0.0
 11
-131.7493277668715
 21
254.1660789205261
 31
0.0
  0
LINE
  5
164
330
1F
100
AcDbEntity
  8
0-2
  6
Continuous
 62
     2
370
     9
100
AcDbLine
 10
-161.7493525108538
 20
301.6661366564847
 30
0.0
 11
-161.7493525108538
 21
289.1661449044789
 31
0.0
  0
LINE
  5
165
330
1F
100
AcDbEntity
  8
0-2
  6
Continuous
 62
     2
370
     9
100
AcDbLine
 10
-131.7493277668715
 20
301.6661366564847
 30
0.0
 11
-161.7493525108538
 21
301.6661366564847
 31
0.0
  0
LINE
  5
166
330
1F
100
AcDbEntity
  8
0-2
  6
Continuous
 62
     2
370
     9
100
AcDbLine
 10
-131.7493277668715
 20
289.1661449044789
 30
0.0
 11
-161.7493525108538
 21
289.1661449044789
 31
0.0
  0
LINE
  5
167
330
1F
100
AcDbEntity
  8
0-2
  6
Continuous
 62
     2
370
     9
100
AcDbLine
 10
-131.7493277668715
 20
301.6661366564847
 30
0.0
 11
-131.7493277668715
 21
289.1661449044789
 31
0.0
  0
LINE
  5
168
330
1F
100
AcDbEntity
  8
0-2
  6
Continuous
 62
     2
370
     9
100
AcDbLine
 10
-195.7494399395911
 20
266.6661449044789
 30
0.0
 11
-195.7494399395911
 21
254.1660789205261
 31
0.0
  0
LINE
  5
169
330
1F
100
AcDbEntity
  8
0-2
  6
Continuous
 62
     2
370
     9
100
AcDbLine
 10
-165.7493409636621
 20
266.6661449044789
 30
0.0
 11
-195.7494399395911
 21
266.6661449044789
 31
0.0
  0
LINE
  5
16A
330
1F
100
AcDbEntity
  8
0-2
  6
Continuous
 62
     2
370
     9
100
AcDbLine
 10
-165.7493409636621
 20
254.1660789205261
 30
0.0
 11
-195.7494399395911
 21
254.1660789205261
 31
0.0
  0
LINE
  5
16B
330
1F
100
AcDbEntity
  8
0-2
  6
Continuous
 62
     2
370
     9
100
AcDbLine
 10
-165.7493409636621
 20
266.6661449044789
 30
0.0
 11
-165.7493409636621
 21
254.1660789205261
 31
0.0
  0
LINE
  5
16C
330
1F
100
AcDbEntity
  8
0-2
  6
Continuous
 62
     2
370
     9
100
AcDbLine
 10
-195.7494399395911
 20
301.6661366564847
 30
0.0
 11
-195.7494399395911
 21
289.1661449044789
 31
0.0
  0
LINE
  5
16D
330
1F
100
AcDbEntity
  8
0-2
  6
Continuous
 62
     2
370
     9
100
AcDbLine
 10
-165.7493409636621
 20
301.6661366564847
 30
0.0
 11
-195.7494399395911
 21
301.6661366564847
 31
0.0
  0
LINE
  5
16E
330
1F
100
AcDbEntity
  8
0-2
  6
Continuous
 62
     2
370
     9
100
AcDbLine
 10
-165.7493409636621
 20
289.1661449044789
 30
0.0
 11
-195.7494399395911
 21
289.1661449044789
 31
0.0
  0
LINE
  5
16F
330
1F
100
AcDbEntity
  8
0-2
  6
Continuous
 62
     2
370
     9
100
AcDbLine
 10
-165.7493409636621
 20
301.6661366564847
 30
0.0
 11
-165.7493409636621
 21
289.1661449044789
 31
0.0
  0
LINE
  5
170
330
1F
100
AcDbEntity
  8
0-2
  6
Continuous
 62
     2
370
     9
100
AcDbLine
 10
-199.7493541604526
 20
266.6661449044789
 30
0.0
 11
-199.7493541604526
 21
254.1660789205261
 31
0.0
  0
LINE
  5
171
330
1F
100
AcDbEntity
  8
0-2
  6
Continuous
 62
     2
370
     9
100
AcDbLine
 10
-199.7493541604526
 20
301.6661366564847
 30
0.0
 11
-199.7493541604526
 21
289.1661449044789
 31
0.0
  0
LINE
  5
172
330
1F
100
AcDbEntity
  8
0-2
  6
Continuous
 62
     2
370
     9
100
AcDbLine
 10
-175.2493970500219
 20
284.1661036645084
 30
0.0
 11
-175.2493970500219
 21
271.6661119125025
 31
0.0
  0
LINE
  5
173
330
1F
100
AcDbEntity
  8
0-2
  6
Continuous
 62
     2
370
     9
100
AcDbLine
 10
-152.2493706564408
 20
284.1661036645084
 30
0.0
 11
-175.2493970500219
 21
284.1661036645084
 31
0.0
  0
LINE
  5
174
330
1F
100
AcDbEntity
  8
0-2
  6
Continuous
 62
     2
370
     9
100
AcDbLine
 10
-152.2493706564408
 20
284.1661036645084
 30
0.0
 11
-152.2493706564408
 21
271.6661119125025
 31
0.0
  0
LINE
  5
175
330
1F
100
AcDbEntity
  8
0-2
  6
Continuous
 62
     2
370
     9
100
AcDbLine
 10
-152.2493706564408
 20
271.6661119125025
 30
0.0
 11
-175.2493970500219
 21
271.6661119125025
 31
0.0
  0
LINE
  5
176
330
1F
100
AcDbEntity
  8
0-2
  6
Continuous
 62
     2
370
     9
100
AcDbLine
 10
-149.2493607588479
 20
284.1661036645084
 30
0.0
 11
-149.2493607588479
 21
271.6661119125025
 31
0.0
  0
LINE
  5
177
330
1F
100
AcDbEntity
  8
0-2
  6
Continuous
 62
     2
370
     9
100
AcDbLine
 10
-144.2493937508242
 20
271.6661119125025
 30
0.0
 11
-149.2493607588479
 21
271.6661119125025
 31
0.0
  0
LINE
  5
178
330
1F
100
AcDbEntity
  8
0-2
  6
Continuous
 62
     2
370
     9
100
AcDbLine
 10
-144.2493937508242
 20
284.1661036645084
 30
0.0
 11
-144.2493937508242
 21
271.6661119125025
 31
0.0
  0
LINE
  5
179
330
1F
100
AcDbEntity
  8
0-2
  6
Continuous
 62
     2
370
     9
100
AcDbLine
 10
-144.2493937508242
 20
284.1661036645084
 30
0.0
 11
-149.2493607588479
 21
284.1661036645084
 31
0.0
  0
LINE
  5
17A
330
1F
100
AcDbEntity
  8
0-2
  6
Continuous
 62
     2
370
     9
100
AcDbLine
 10
-209.2494102468124
 20
284.1661036645084
 30
0.0
 11
-209.2494102468124
 21
271.6661119125025
 31
0.0
  0
LINE
  5
17B
330
1F
100
AcDbEntity
  8
0-2
  6
Continuous
 62
     2
370
     9
100
AcDbLine
 10
-186.2493838532313
 20
284.1661036645084
 30
0.0
 11
-209.2494102468124
 21
284.1661036645084
 31
0.0
  0
LINE
  5
17C
330
1F
100
AcDbEntity
  8
0-2
  6
Continuous
 62
     2
370
     9
100
AcDbLine
 10
-186.2493838532313
 20
284.1661036645084
 30
0.0
 11
-186.2493838532313
 21
271.6661119125025
 31
0.0
  0
LINE
  5
17D
330
1F
100
AcDbEntity
  8
0-2
  6
Continuous
 62
     2
370
     9
100
AcDbLine
 10
-186.2493838532313
 20
271.6661119125025
 30
0.0
 11
-209.2494102468124
 21
271.6661119125025
 31
0.0
  0
LINE
  5
17E
330
1F
100
AcDbEntity
  8
0-2
  6
Continuous
 62
     2
370
     9
100
AcDbLine
 10
-183.2493739556384
 20
284.1661036645084
 30
0.0
 11
-183.2493739556384
 21
271.6661119125025
 31
0.0
  0
LINE
  5
17F
330
1F
100
AcDbEntity
  8
0-2
  6
Continuous
 62
     2
370
     9
100
AcDbLine
 10
-178.2494069476147
 20
271.6661119125025
 30
0.0
 11
-183.2493739556384
 21
271.6661119125025
 31
0.0
  0
LINE
  5
180
330
1F
100
AcDbEntity
  8
0-2
  6
Continuous
 62
     2
370
     9
100
AcDbLine
 10
-178.2494069476147
 20
284.1661036645084
 30
0.0
 11
-178.2494069476147
 21
271.6661119125025
 31
0.0
  0
LINE
  5
181
330
1F
100
AcDbEntity
  8
0-2
  6
Continuous
 62
     2
370
     9
100
AcDbLine
 10
-178.2494069476147
 20
284.1661036645084
 30
0.0
 11
-183.2493739556384
 21
284.1661036645084
 31
0.0
  0
LINE
  5
182
330
1F
100
AcDbEntity
  8
0-2
  6
Continuous
 62
     2
370
     9
100
AcDbLine
 10
-199.7493541604526
 20
301.6661366564847
 30
0.0
 11
-209.2494102468124
 21
301.6661366564847
 31
0.0
  0
LINE
  5
183
330
1F
100
AcDbEntity
  8
0-2
  6
Continuous
 62
     2
370
     9
100
AcDbLine
 10
-209.2494102468124
 20
289.1661449044789
 30
0.0
 11
-209.2494102468124
 21
301.6661366564847
 31
0.0
  0
LINE
  5
184
330
1F
100
AcDbEntity
  8
0-2
  6
Continuous
 62
     2
370
     9
100
AcDbLine
 10
-199.7493541604526
 20
289.1661449044789
 30
0.0
 11
-209.2494102468124
 21
289.1661449044789
 31
0.0
  0
LINE
  5
185
330
1F
100
AcDbEntity
  8
0-2
  6
Continuous
 62
     2
370
     9
100
AcDbLine
 10
-199.7493541604526
 20
266.6661449044789
 30
0.0
 11
-209.2494102468124
 21
266.6661449044789
 31
0.0
  0
LINE
  5
186
330
1F
100
AcDbEntity
  8
0-2
  6
Continuous
 62
     2
370
     9
100
AcDbLine
 10
-209.2494102468124
 20
266.6661449044789
 30
0.0
 11
-209.2494102468124
 21
254.1660789205261
 31
0.0
  0
LINE
  5
187
330
1F
100
AcDbEntity
  8
0-2
  6
Continuous
 62
     2
370
     9
100
AcDbLine
 10
-199.7493541604526
 20
254.1660789205261
 30
0.0
 11
-209.2494102468124
 21
254.1660789205261
 31
0.0
  0
LINE
  5
188
330
1F
100
AcDbEntity
  8
0-2
  6
Continuous
 62
     2
370
     9
100
AcDbLine
 10
-141.2493838532313
 20
249.1661119125025
 30
0.0
 11
-141.2493838532313
 21
236.6661201604966
 31
0.0
  0
LINE
  5
189
330
1F
100
AcDbEntity
  8
0-2
  6
Continuous
 62
     2
370
     9
100
AcDbLine
 10
-8.249340963662007
 20
249.1661119125025
 30
0.0
 11
-13.24930797168568
 21
249.1661119125025
 31
0.0
  0
LINE
  5
18A
330
1F
100
AcDbEntity
  8
0-2
  6
Continuous
 62
     2
370
     9
100
AcDbLine
 10
-8.249340963662007
 20
249.1661119125025
 30
0.0
 11
-8.249340963662007
 21
236.6661201604966
 31
0.0
  0
LINE
  5
18B
330
1F
100
AcDbEntity
  8
0-2
  6
Continuous
 62
     2
370
     9
100
AcDbLine
 10
-8.249340963662007
 20
236.6661201604966
 30
0.0
 11
-13.24930797168568
 21
236.6661201604966
 31
0.0
  0
LINE
  5
18C
330
1F
100
AcDbEntity
  8
0-2
  6
Continuous
 62
     2
370
     9
100
AcDbLine
 10
-13.24930797168568
 20
249.1661119125025
 30
0.0
 11
-13.24930797168568
 21
236.6661201604966
 31
0.0
  0
LINE
  5
18D
330
1F
100
AcDbEntity
  8
0-2
  6
Continuous
 62
     2
370
     9
100
AcDbLine
 10
-16.24931786927857
 20
249.1661119125025
 30
0.0
 11
-16.24931786927857
 21
236.6661201604966
 31
0.0
  0
LINE
  5
18E
330
1F
100
AcDbEntity
  8
0-2
  6
Continuous
 62
     2
370
     9
100
AcDbLine
 10
25.75067223312854
 20
249.1661119125025
 30
0.0
 11
20.75070522510487
 21
249.1661119125025
 31
0.0
  0
LINE
  5
18F
330
1F
100
AcDbEntity
  8
0-2
  6
Continuous
 62
     2
370
     9
100
AcDbLine
 10
-5.249331066069118
 20
249.1661119125025
 30
0.0
 11
-5.249331066069118
 21
236.6661201604966
 31
0.0
  0
LINE
  5
190
330
1F
100
AcDbEntity
  8
0-2
  6
Continuous
 62
     2
370
     9
100
AcDbLine
 10
17.75062109556518
 20
249.1661119125025
 30
0.0
 11
-5.249331066069118
 21
249.1661119125025
 31
0.0
  0
LINE
  5
191
330
1F
100
AcDbEntity
  8
0-2
  6
Continuous
 62
     2
370
     9
100
AcDbLine
 10
51.75063429235573
 20
249.1661119125025
 30
0.0
 11
28.75068213072143
 21
249.1661119125025
 31
0.0
  0
LINE
  5
192
330
1F
100
AcDbEntity
  8
0-2
  6
Continuous
 62
     2
370
     9
100
AcDbLine
 10
51.75063429235573
 20
249.1661119125025
 30
0.0
 11
51.75063429235573
 21
236.6661201604966
 31
0.0
  0
LINE
  5
193
330
1F
100
AcDbEntity
  8
0-2
  6
Continuous
 62
     2
370
     9
100
AcDbLine
 10
4.250650788343847
 20
231.6661531524729
 30
0.0
 11
-25.74929972369162
 21
231.6661531524729
 31
0.0
  0
LINE
  5
194
330
1F
100
AcDbEntity
  8
0-2
  6
Continuous
 62
     2
370
     9
100
AcDbLine
 10
51.75063429235573
 20
231.6661531524729
 30
0.0
 11
42.25065243794268
 21
231.6661531524729
 31
0.0
  0
LINE
  5
195
330
1F
100
AcDbEntity
  8
0-2
  6
Continuous
 62
     2
370
     9
100
AcDbLine
 10
-152.2493706564408
 20
249.1661119125025
 30
0.0
 11
-175.2493970500219
 21
249.1661119125025
 31
0.0
  0
LINE
  5
196
330
1F
100
AcDbEntity
  8
0-2
  6
Continuous
 62
     2
370
     9
100
AcDbLine
 10
-152.2493706564408
 20
249.1661119125025
 30
0.0
 11
-152.2493706564408
 21
236.6661201604966
 31
0.0
  0
LINE
  5
197
330
1F
100
AcDbEntity
  8
0-2
  6
Continuous
 62
     2
370
     9
100
AcDbLine
 10
-149.2493607588479
 20
249.1661119125025
 30
0.0
 11
-149.2493607588479
 21
236.6661201604966
 31
0.0
  0
LINE
  5
198
330
1F
100
AcDbEntity
  8
0-2
  6
Continuous
 62
     2
370
     9
100
AcDbLine
 10
-144.2493937508242
 20
236.6661201604966
 30
0.0
 11
-149.2493607588479
 21
236.6661201604966
 31
0.0
  0
LINE
  5
199
330
1F
100
AcDbEntity
  8
0-2
  6
Continuous
 62
     2
370
     9
100
AcDbLine
 10
-144.2493937508242
 20
249.1661119125025
 30
0.0
 11
-144.2493937508242
 21
236.6661201604966
 31
0.0
  0
LINE
  5
19A
330
1F
100
AcDbEntity
  8
0-2
  6
Continuous
 62
     2
370
     9
100
AcDbLine
 10
-144.2493937508242
 20
249.1661119125025
 30
0.0
 11
-149.2493607588479
 21
249.1661119125025
 31
0.0
  0
LINE
  5
19B
330
1F
100
AcDbEntity
  8
0-2
  6
Continuous
 62
     2
370
     9
100
AcDbLine
 10
-209.2494102468124
 20
249.1661119125025
 30
0.0
 11
-209.2494102468124
 21
236.6661201604966
 31
0.0
  0
LINE
  5
19C
330
1F
100
AcDbEntity
  8
0-2
  6
Continuous
 62
     2
370
     9
100
AcDbLine
 10
-186.2493838532313
 20
249.1661119125025
 30
0.0
 11
-209.2494102468124
 21
249.1661119125025
 31
0.0
  0
LINE
  5
19D
330
1F
100
AcDbEntity
  8
0-2
  6
Continuous
 62
     2
370
     9
100
AcDbLine
 10
-178.2494069476147
 20
249.1661119125025
 30
0.0
 11
-183.2493739556384
 21
249.1661119125025
 31
0.0
  0
LINE
  5
19E
330
1F
100
AcDbEntity
  8
0-2
  6
Continuous
 62
     2
370
     9
100
AcDbLine
 10
-199.7493541604526
 20
231.6661531524729
 30
0.0
 11
-209.2494102468124
 21
231.6661531524729
 31
0.0
  0
LINE
  5
19F
330
1F
100
AcDbEntity
  8
0-2
  6
Continuous
 62
     2
370
     9
100
AcDbLine
 10
-16.24931786927857
 20
249.1661119125025
 30
0.0
 11
-25.74937395563842
 21
249.1661119125025
 31
0.0
  0
LINE
  5
1A0
330
1F
100
AcDbEntity
  8
0-2
  6
Continuous
 62
     2
370
     9
100
AcDbLine
 10
-16.24931786927857
 20
236.6661201604966
 30
0.0
 11
-25.74937395563842
 21
236.6661201604966
 31
0.0
  0
LINE
  5
1A1
330
1F
100
AcDbEntity
  8
0-2
  6
Continuous
 62
     2
370
     9
100
AcDbLine
 10
-29.7493624084467
 20
249.1661119125025
 30
0.0
 11
-127.7493393140633
 21
249.1661119125025
 31
0.0
  0
LINE
  5
1A2
330
1F
100
AcDbEntity
  8
0-2
  6
Continuous
 62
     2
370
     9
100
AcDbLine
 10
-25.74937395563842
 20
249.1661119125025
 30
0.0
 11
-25.74937395563842
 21
236.6661201604966
 31
0.0
  0
LINE
  5
1A3
330
1F
100
AcDbEntity
  8
0-2
  6
Continuous
 62
     2
370
     9
100
AcDbLine
 10
-25.74937395563842
 20
231.6661531524729
 30
0.0
 11
-25.74937395563842
 21
225.4161201604966
 31
0.0
  0
LINE
  5
1A4
330
1F
100
AcDbEntity
  8
0-2
  6
Continuous
 62
     2
370
     9
100
AcDbLine
 10
4.250650788343847
 20
231.6661531524729
 30
0.0
 11
4.250650788343847
 21
225.4161201604966
 31
0.0
  0
LINE
  5
1A5
330
1F
100
AcDbEntity
  8
0-2
  6
Continuous
 62
     2
370
     9
100
AcDbLine
 10
8.250639241152129
 20
231.6661531524729
 30
0.0
 11
8.250639241152129
 21
225.4161201604966
 31
0.0
  0
LINE
  5
1A6
330
1F
100
AcDbEntity
  8
0-2
  6
Continuous
 62
     2
370
     9
100
AcDbLine
 10
38.25066398513439
 20
231.6661531524729
 30
0.0
 11
38.25066398513439
 21
225.4161201604966
 31
0.0
  0
LINE
  5
1A7
330
1F
100
AcDbEntity
  8
0-2
  6
Continuous
 62
     2
370
     9
100
AcDbLine
 10
42.25065243794268
 20
231.6661531524729
 30
0.0
 11
42.25065243794268
 21
225.4161201604966
 31
0.0
  0
LINE
  5
1A8
330
1F
100
AcDbEntity
  8
0-2
  6
Continuous
 62
     2
370
     9
100
AcDbLine
 10
51.75063429235573
 20
231.6661531524729
 30
0.0
 11
51.75063429235573
 21
225.4161201604966
 31
0.0
  0
LINE
  5
1A9
330
1F
100
AcDbEntity
  8
0-2
  6
Continuous
 62
     2
370
     9
100
AcDbLine
 10
-131.7493277668715
 20
236.6661201604966
 30
0.0
 11
-141.2493838532313
 21
236.6661201604966
 31
0.0
  0
LINE
  5
1AA
330
1F
100
AcDbEntity
  8
0-2
  6
Continuous
 62
     2
370
     9
100
AcDbLine
 10
-131.7493277668715
 20
249.1661119125025
 30
0.0
 11
-131.7493277668715
 21
236.6661201604966
 31
0.0
  0
LINE
  5
1AB
330
1F
100
AcDbEntity
  8
0-2
  6
Continuous
 62
     2
370
     9
100
AcDbLine
 10
-131.7493277668715
 20
249.1661119125025
 30
0.0
 11
-141.2493838532313
 21
249.1661119125025
 31
0.0
  0
LINE
  5
1AC
330
1F
100
AcDbEntity
  8
0-2
  6
Continuous
 62
     2
370
     9
100
AcDbLine
 10
-131.7493277668715
 20
231.6661531524729
 30
0.0
 11
-161.7493525108538
 21
231.6661531524729
 31
0.0
  0
LINE
  5
1AD
330
1F
100
AcDbEntity
  8
0-2
  6
Continuous
 62
     2
370
     9
100
AcDbLine
 10
-131.7493277668715
 20
231.6661531524729
 30
0.0
 11
-131.7493277668715
 21
225.4161201604966
 31
0.0
  0
LINE
  5
1AE
330
1F
100
AcDbEntity
  8
0-2
  6
Continuous
 62
     2
370
     9
100
AcDbLine
 10
-161.7493525108538
 20
231.6661531524729
 30
0.0
 11
-161.7493525108538
 21
225.4161201604966
 31
0.0
  0
LINE
  5
1AF
330
1F
100
AcDbEntity
  8
0-2
  6
Continuous
 62
     2
370
     9
100
AcDbLine
 10
-165.7493409636621
 20
231.6661531524729
 30
0.0
 11
-165.7493409636621
 21
225.4161201604966
 31
0.0
  0
LINE
  5
1B0
330
1F
100
AcDbEntity
  8
0-2
  6
Continuous
 62
     2
370
     9
100
AcDbLine
 10
-195.7494399395911
 20
231.6661531524729
 30
0.0
 11
-195.7494399395911
 21
225.4161201604966
 31
0.0
  0
LINE
  5
1B1
330
1F
100
AcDbEntity
  8
0-2
  6
Continuous
 62
     2
370
     9
100
AcDbLine
 10
-199.7493541604526
 20
231.6661531524729
 30
0.0
 11
-199.7493541604526
 21
225.4161201604966
 31
0.0
  0
LINE
  5
1B2
330
1F
100
AcDbEntity
  8
0-2
  6
Continuous
 62
     2
370
     9
100
AcDbLine
 10
-209.2494102468124
 20
231.6661531524729
 30
0.0
 11
-209.2494102468124
 21
225.4161201604966
 31
0.0
  0
LINE
  5
1B3
330
1F
100
AcDbEntity
  8
0-2
  6
Continuous
 62
     2
370
     9
100
AcDbLine
 10
51.75063429235573
 20
236.6661201604966
 30
0.0
 11
31.58359591608877
 21
236.6661201604966
 31
0.0
  0
LINE
  5
1B4
330
1F
100
AcDbEntity
  8
0-2
  6
Continuous
 62
     2
370
     9
100
AcDbLine
 10
28.75068213072143
 20
249.1661119125025
 30
0.0
 11
28.75068213072143
 21
238.2904636201671
 31
0.0
  0
LINE
  5
1B5
330
1F
100
AcDbEntity
  8
0-2
  6
Continuous
 62
     2
370
     9
100
AcDbLine
 10
10.72315692485151
 20
231.6661531524729
 30
0.0
 11
8.250639241152129
 21
231.6661531524729
 31
0.0
  0
LINE
  5
1B6
330
1F
100
AcDbEntity
  8
0-2
  6
Continuous
 62
     2
370
     9
100
AcDbLine
 10
14.91770731019776
 20
236.6661201604966
 30
0.0
 11
-5.249331066069118
 21
236.6661201604966
 31
0.0
  0
LINE
  5
1B7
330
1F
100
AcDbEntity
  8
0-2
  6
Continuous
 62
     2
370
     9
100
AcDbLine
 10
17.75062109556518
 20
249.1661119125025
 30
0.0
 11
17.75062109556518
 21
238.2905378521139
 31
0.0
  0
LINE
  5
1B8
330
1F
100
AcDbEntity
  8
0-2
  6
Continuous
 62
     2
370
     9
100
AcDbLine
 10
20.75070522510487
 20
249.1661119125025
 30
0.0
 11
20.75070522510487
 21
239.1911198305768
 31
0.0
  0
LINE
  5
1B9
330
1F
100
AcDbEntity
  8
0-2
  6
Continuous
 62
     2
370
     9
100
AcDbLine
 10
25.75067223312854
 20
249.1661119125025
 30
0.0
 11
25.75067223312854
 21
239.19104559863
 31
0.0
  0
LINE
  5
1BA
330
1F
100
AcDbEntity
  8
0-2
  6
Continuous
 62
     2
370
     9
100
AcDbLine
 10
38.25066398513439
 20
231.6661531524729
 30
0.0
 11
35.7780720694883
 21
231.6661531524729
 31
0.0
  0
LINE
  5
1BB
330
1F
100
AcDbEntity
  8
0-2
  6
JWW_CENTER1
 62
     2
370
     9
100
AcDbLine
 10
23.25068872911666
 20
211.6581938381781
 30
0.0
 11
23.25068872911666
 21
241.1220412304924
 31
0.0
  0
LINE
  5
1BC
330
1F
100
AcDbEntity
  8
0-2
  6
Continuous
 62
     2
370
     9
100
AcDbLine
 10
-165.7493409636621
 20
231.6661531524729
 30
0.0
 11
-168.2218586473614
 21
231.6661531524729
 31
0.0
  0
LINE
  5
1BD
330
1F
100
AcDbEntity
  8
0-2
  6
Continuous
 62
     2
370
     9
100
AcDbLine
 10
-152.2493706564408
 20
236.6661201604966
 30
0.0
 11
-172.4164090327077
 21
236.6661201604966
 31
0.0
  0
LINE
  5
1BE
330
1F
100
AcDbEntity
  8
0-2
  6
Continuous
 62
     2
370
     9
100
AcDbLine
 10
-175.2493970500219
 20
249.1661119125025
 30
0.0
 11
-175.2493970500219
 21
238.2905378521139
 31
0.0
  0
LINE
  5
1BF
330
1F
100
AcDbEntity
  8
0-2
  6
Continuous
 62
     2
370
     9
100
AcDbLine
 10
-178.2494069476147
 20
249.1661119125025
 30
0.0
 11
-178.2494069476147
 21
239.1911198305768
 31
0.0
  0
LINE
  5
1C0
330
1F
100
AcDbEntity
  8
0-2
  6
Continuous
 62
     2
370
     9
100
AcDbLine
 10
-183.2493739556384
 20
249.1661119125025
 30
0.0
 11
-183.2493739556384
 21
239.19104559863
 31
0.0
  0
LINE
  5
1C1
330
1F
100
AcDbEntity
  8
0-2
  6
Continuous
 62
     2
370
     9
100
AcDbLine
 10
-186.2493838532313
 20
249.1661119125025
 30
0.0
 11
-186.2493838532313
 21
238.2904636201671
 31
0.0
  0
LINE
  5
1C2
330
1F
100
AcDbEntity
  8
0-2
  6
Continuous
 62
     2
370
     9
100
AcDbLine
 10
-189.0822234066519
 20
236.6661201604966
 30
0.0
 11
-209.2494102468124
 21
236.6661201604966
 31
0.0
  0
LINE
  5
1C3
330
1F
100
AcDbEntity
  8
0-2
  6
Continuous
 62
     2
370
     9
100
AcDbLine
 10
-193.2767737919982
 20
231.6661531524729
 30
0.0
 11
-195.7494399395911
 21
231.6661531524729
 31
0.0
  0
LINE
  5
1C4
330
1F
100
AcDbEntity
  8
0-2
  6
JWW_CENTER1
 62
     2
370
     9
100
AcDbLine
 10
-180.7493904516266
 20
211.6581938381781
 30
0.0
 11
-180.7493904516266
 21
241.1220412304924
 31
0.0
  0
LINE
  5
1C5
330
1F
100
AcDbEntity
  8
0-2
  6
Continuous
 62
     2
370
     9
100
AcDbLine
 10
57.25062769396041
 20
147.4161597508681
 30
0.0
 11
57.25062769396041
 21
186.4161399556824
 31
0.0
  0
LINE
  5
1C6
330
1F
100
AcDbEntity
  8
0-2
  6
Continuous
 62
     2
370
     9
100
AcDbLine
 10
58.41065032645619
 20
187.916070672532
 30
0.0
 11
58.41065032645619
 21
197.9160789205261
 31
0.0
  0
LINE
  5
1C7
330
1F
100
AcDbEntity
  8
0-2
  6
Continuous
 62
     2
370
     9
100
AcDbLine
 10
-216.2493343652668
 20
147.4160855189214
 30
0.0
 11
-216.2493343652668
 21
225.4161201604966
 31
0.0
  0
LINE
  5
1C8
330
1F
100
AcDbEntity
  8
0-2
  6
Continuous
 62
     2
370
     9
100
AcDbLine
 10
-211.7493195188774
 20
142.9161449044788
 30
0.0
 11
-42.24935416045255
 21
142.9161449044788
 31
0.0
  0
LINE
  5
1C9
330
1F
100
AcDbEntity
  8
0-2
  6
Continuous
 62
     2
370
     9
100
AcDbLine
 10
-214.7493294164703
 20
199.4160838693226
 30
0.0
 11
-214.7493294164703
 21
225.4161201604966
 31
0.0
  0
LINE
  5
1CA
330
1F
100
AcDbEntity
  8
0-2
  6
Continuous
 62
     2
370
     9
100
AcDbLine
 10
-214.7493294164703
 20
147.4161597508681
 30
0.0
 11
-214.7493294164703
 21
186.4161399556824
 31
0.0
  0
LINE
  5
1CB
330
1F
100
AcDbEntity
  8
0-2
  6
Continuous
 62
     2
370
     9
100
AcDbLine
 10
-215.9093520489661
 20
187.916070672532
 30
0.0
 11
-215.9093520489661
 21
197.9160789205261
 31
0.0
  0
LINE
  5
1CC
330
1F
100
AcDbEntity
  8
0-2
  6
Continuous
 62
     2
370
     9
100
AcDbLine
 10
-123.749350861255
 20
143.2561272207795
 30
0.0
 11
-133.749359109249
 21
143.2561272207795
 31
0.0
  0
LINE
  5
1CD
330
1F
100
AcDbEntity
  8
0-2
  6
Continuous
 62
     2
370
     9
100
AcDbLine
 10
-211.7493195188774
 20
144.4161498532753
 30
0.0
 11
-135.2493640580455
 21
144.4161498532753
 31
0.0
  0
LINE
  5
1CE
330
1F
100
AcDbEntity
  8
0-2
  6
Continuous
 62
     2
370
     9
100
AcDbLine
 10
-122.2493459124585
 20
144.4161498532753
 30
0.0
 11
-42.24935416045255
 21
144.4161498532753
 31
0.0
  0
LINE
  5
1CF
330
1F
100
AcDbEntity
  8
0-2
  6
Continuous
 62
     2
370
     9
100
AcDbLine
 10
-135.2493640580455
 20
189.4160756213284
 30
0.0
 11
-211.7493195188774
 21
189.4160756213284
 31
0.0
  0
LINE
  5
1D0
330
1F
100
AcDbEntity
  8
0-2
  6
Continuous
 62
     2
370
     9
100
AcDbLine
 10
-132.2493541604526
 20
186.4161399556824
 30
0.0
 11
-132.2493541604526
 21
147.4160855189214
 31
0.0
  0
LINE
  5
1D1
330
1F
100
AcDbEntity
  8
0-2
  6
Continuous
 62
     2
370
     9
100
AcDbLine
 10
-130.7493492116562
 20
187.916070672532
 30
0.0
 11
-130.7493492116562
 21
146.2560628864256
 31
0.0
  0
LINE
  5
1D2
330
1F
100
AcDbEntity
  8
0-2
  6
Continuous
 62
     2
370
     9
100
AcDbLine
 10
-133.749359109249
 20
190.916080570125
 30
0.0
 11
-212.9093421513732
 21
190.916080570125
 31
0.0
  0
LINE
  5
1D3
330
1F
100
AcDbEntity
  8
0-2
  6
Continuous
 62
     2
370
     9
100
AcDbLine
 10
-125.2493558100514
 20
186.4161399556824
 30
0.0
 11
-125.2493558100514
 21
147.4160855189214
 31
0.0
  0
LINE
  5
1D4
330
1F
100
AcDbEntity
  8
0-2
  6
Continuous
 62
     2
370
     9
100
AcDbLine
 10
-122.2493459124585
 20
189.4160756213284
 30
0.0
 11
-48.16757035027521
 21
189.4160756213284
 31
0.0
  0
LINE
  5
1D5
330
1F
100
AcDbEntity
  8
0-2
  6
Continuous
 62
     2
370
     9
100
AcDbLine
 10
-126.7493607588479
 20
187.916070672532
 30
0.0
 11
-126.7493607588479
 21
146.2560628864256
 31
0.0
  0
LINE
  5
1D6
330
1F
100
AcDbEntity
  8
0-2
  6
Continuous
 62
     2
370
     9
100
AcDbLine
 10
-123.749350861255
 20
190.916080570125
 30
0.0
 11
-50.24458022147451
 21
190.916080570125
 31
0.0
  0
LINE
  5
1D7
330
1F
100
AcDbEntity
  8
0-2
  6
Continuous
 62
     2
370
     9
100
AcDbLine
 10
-123.749350861255
 20
194.91614325488
 30
0.0
 11
-54.76545424491201
 21
194.91614325488
 31
0.0
  0
LINE
  5
1D8
330
1F
100
AcDbEntity
  8
0-2
  6
Continuous
 62
     2
370
     9
100
AcDbLine
 10
-122.2493459124585
 20
196.4160739717296
 30
0.0
 11
-56.17229810048639
 21
196.4160739717296
 31
0.0
  0
LINE
  5
1D9
330
1F
100
AcDbEntity
  8
0-2
  6
Continuous
 62
     2
370
     9
100
AcDbLine
 10
-132.2493541604526
 20
199.4160838693226
 30
0.0
 11
-132.2493541604526
 21
225.4161201604966
 31
0.0
  0
LINE
  5
1DA
330
1F
100
AcDbEntity
  8
0-2
  6
Continuous
 62
     2
370
     9
100
AcDbLine
 10
-135.2493640580455
 20
196.4160739717296
 30
0.0
 11
-211.7493195188774
 21
196.4160739717296
 31
0.0
  0
LINE
  5
1DB
330
1F
100
AcDbEntity
  8
0-2
  6
Continuous
 62
     2
370
     9
100
AcDbLine
 10
-133.749359109249
 20
194.91614325488
 30
0.0
 11
-212.9093421513732
 21
194.91614325488
 31
0.0
  0
LINE
  5
1DC
330
1F
100
AcDbEntity
  8
0-2
  6
Continuous
 62
     2
370
     9
100
AcDbLine
 10
-130.7493492116562
 20
197.9160789205261
 30
0.0
 11
-130.7493492116562
 21
225.4161201604966
 31
0.0
  0
LINE
  5
1DD
330
1F
100
AcDbEntity
  8
0-1
  6
Continuous
 62
     3
370
     9
100
AcDbLine
 10
76.25066563473322
 20
143.9161234596942
 30
0.0
 11
76.25066563473322
 21
197.9160789205261
 31
0.0
  0
LINE
  5
1DE
330
1F
100
AcDbEntity
  8
0-1
  6
Continuous
 62
     3
370
     9
100
AcDbLine
 10
72.25060294997814
 20
143.9161234596942
 30
0.0
 11
72.25060294997814
 21
197.9160789205261
 31
0.0
  0
LINE
  5
1DF
330
1F
100
AcDbEntity
  8
0-1
  6
Continuous
 62
     3
370
     9
100
AcDbLine
 10
76.25066563473322
 20
197.9160789205261
 30
0.0
 11
72.25060294997814
 21
197.9160789205261
 31
0.0
  0
LINE
  5
1E0
330
1F
100
AcDbEntity
  8
0-1
  6
Continuous
 62
     3
370
     9
100
AcDbLine
 10
-233.7493673572432
 20
197.9160789205261
 30
0.0
 11
-229.7493046724881
 21
197.9160789205261
 31
0.0
  0
LINE
  5
1E1
330
1F
100
AcDbEntity
  8
0-1
  6
Continuous
 62
     3
370
     9
100
AcDbLine
 10
-229.7493046724881
 20
143.9161234596942
 30
0.0
 11
-229.7493046724881
 21
197.9160789205261
 31
0.0
  0
LINE
  5
1E2
330
1F
100
AcDbEntity
  8
0-1
  6
Continuous
 62
     3
370
     9
100
AcDbLine
 10
-233.7493673572432
 20
143.9161234596942
 30
0.0
 11
-233.7493673572432
 21
197.9160789205261
 31
0.0
  0
LINE
  5
1E3
330
1F
100
AcDbEntity
  8
0-2
  6
Continuous
 62
     2
370
     9
100
AcDbLine
 10
57.25062769396041
 20
217.9160954165143
 30
0.0
 11
57.25062769396041
 21
199.4160838693226
 31
0.0
  0
LINE
  5
1E4
330
1F
100
AcDbEntity
  8
0-2
  6
Continuous
 62
     2
370
     9
100
AcDbLine
 10
54.25061779636752
 20
220.9161053141072
 30
0.0
 11
34.75062769396041
 21
220.9161053141072
 31
0.0
  0
LINE
  5
1E5
330
1F
100
AcDbEntity
  8
0-2
  6
Continuous
 62
     2
370
     9
100
AcDbLine
 10
34.75062769396041
 20
220.9161053141072
 30
0.0
 11
34.75062769396041
 21
225.4161201604966
 31
0.0
  0
LINE
  5
1E6
330
1F
100
AcDbEntity
  8
0-2
  6
Continuous
 62
     2
370
     9
100
AcDbLine
 10
58.7506326427569
 20
219.9161267588918
 30
0.0
 11
58.7506326427569
 21
147.4160855189214
 31
0.0
  0
LINE
  5
1E7
330
1F
100
AcDbEntity
  8
0-2
  6
Continuous
 62
     2
370
     9
100
AcDbLine
 10
55.75069697711081
 20
221.9160838693226
 30
0.0
 11
55.75069697711081
 21
225.4161201604966
 31
0.0
  0
LINE
  5
1E8
330
1F
100
AcDbEntity
  8
0-2
  6
Continuous
 62
     2
370
     9
100
AcDbLine
 10
56.75067553232611
 20
221.9160838693226
 30
0.0
 11
55.75069697711081
 21
221.9160838693226
 31
0.0
  0
LINE
  5
1E9
330
1F
100
AcDbEntity
  8
0-0
  6
JWW_CENTER1
 62
     4
370
     9
100
AcDbLine
 10
45.75068872911666
 20
217.2588457596308
 30
0.0
 11
45.75068872911666
 21
225.4161201604966
 31
0.0
  0
LINE
  5
1EA
330
1F
100
AcDbEntity
  8
0-1
  6
Continuous
 62
     3
370
     9
100
AcDbLine
 10
-3.749400349219513
 20
129.4161003653107
 30
0.0
 11
-4.74937890443482
 21
129.9161267588918
 31
0.0
  0
LINE
  5
1EB
330
1F
100
AcDbEntity
  8
0-1
  6
Continuous
 62
     3
370
     9
100
AcDbLine
 10
-3.749400349219513
 20
125.4161119125024
 30
0.0
 11
-4.74937890443482
 21
124.9161597508681
 31
0.0
  0
LINE
  5
1EC
330
1F
100
AcDbEntity
  8
0-1
  6
Continuous
 62
     3
370
     9
100
AcDbLine
 10
-42.74938055403365
 20
129.9161267588918
 30
0.0
 11
-43.74935910924904
 21
129.4161003653107
 31
0.0
  0
LINE
  5
1ED
330
1F
100
AcDbEntity
  8
0-1
  6
Continuous
 62
     3
370
     9
100
AcDbLine
 10
-43.74935910924904
 20
125.4161119125024
 30
0.0
 11
-42.74938055403365
 21
124.9161597508681
 31
0.0
  0
LINE
  5
1EE
330
1F
100
AcDbEntity
  8
0-1
  6
Continuous
 62
     3
370
     9
100
AcDbLine
 10
-3.749400349219513
 20
129.4161003653107
 30
0.0
 11
-3.749400349219513
 21
125.4161119125024
 31
0.0
  0
LINE
  5
1EF
330
1F
100
AcDbEntity
  8
0-1
  6
Continuous
 62
     3
370
     9
100
AcDbLine
 10
-4.74937890443482
 20
129.9161267588918
 30
0.0
 11
-4.74937890443482
 21
124.9161597508681
 31
0.0
  0
LINE
  5
1F0
330
1F
100
AcDbEntity
  8
0-1
  6
Continuous
 62
     3
370
     9
100
AcDbLine
 10
-3.749400349219513
 20
125.4161119125024
 30
0.0
 11
57.75065408754151
 21
125.4161119125024
 31
0.0
  0
LINE
  5
1F1
330
1F
100
AcDbEntity
  8
0-1
  6
Continuous
 62
     3
370
     9
100
AcDbLine
 10
-3.749400349219513
 20
129.4161003653107
 30
0.0
 11
57.75065408754151
 21
129.4161003653107
 31
0.0
  0
LINE
  5
1F2
330
1F
100
AcDbEntity
  8
0-1
  6
Continuous
 62
     3
370
     9
100
AcDbLine
 10
-43.74935910924904
 20
129.4161003653107
 30
0.0
 11
-43.74935910924904
 21
125.4161119125024
 31
0.0
  0
LINE
  5
1F3
330
1F
100
AcDbEntity
  8
0-1
  6
Continuous
 62
     3
370
     9
100
AcDbLine
 10
-42.74938055403365
 20
129.9161267588918
 30
0.0
 11
-42.74938055403365
 21
124.9161597508681
 31
0.0
  0
LINE
  5
1F4
330
1F
100
AcDbEntity
  8
0-1
  6
Continuous
 62
     3
370
     9
100
AcDbLine
 10
-42.74938055403365
 20
124.9161597508681
 30
0.0
 11
-4.74937890443482
 21
124.9161597508681
 31
0.0
  0
LINE
  5
1F5
330
1F
100
AcDbEntity
  8
0-3
  6
Continuous
 62
     4
370
     9
100
AcDbLine
 10
-5.249331066069118
 20
186.0460937009315
 30
0.0
 11
-5.249331066069118
 21
125.4161119125024
 31
0.0
  0
LINE
  5
1F6
330
1F
100
AcDbEntity
  8
0-3
  6
Continuous
 62
     4
370
     9
100
AcDbLine
 10
-5.249331066069118
 20
125.4161119125024
 30
0.0
 11
-42.24935416045255
 21
125.4161119125024
 31
0.0
  0
LINE
  5
1F7
330
1F
100
AcDbEntity
  8
0-3
  6
Continuous
 62
     4
370
     9
100
AcDbLine
 10
-42.24935416045255
 20
186.0460937009315
 30
0.0
 11
-42.24935416045255
 21
125.4161119125024
 31
0.0
  0
LINE
  5
1F8
330
1F
100
AcDbEntity
  8
0-3
  6
JWW_CENTER1
 62
     4
370
     9
100
AcDbLine
 10
-23.74934261326084
 20
225.4161201604966
 30
0.0
 11
-23.74934261326084
 21
114.9773928589763
 31
0.0
  0
LINE
  5
1F9
330
1F
100
AcDbEntity
  8
0-2
  6
Continuous
 62
     2
370
     9
100
AcDbLine
 10
8.673612873964629
 20
196.4160739717296
 30
0.0
 11
54.25061779636752
 21
196.4160739717296
 31
0.0
  0
LINE
  5
1FA
330
1F
100
AcDbEntity
  8
0-2
  6
Continuous
 62
     2
370
     9
100
AcDbLine
 10
7.266694786443537
 20
194.91614325488
 30
0.0
 11
55.4106404288633
 21
194.91614325488
 31
0.0
  0
LINE
  5
1FB
330
1F
100
AcDbEntity
  8
0-2
  6
Continuous
 62
     2
370
     9
100
AcDbLine
 10
2.745894994952835
 20
190.916080570125
 30
0.0
 11
55.4106404288633
 21
190.916080570125
 31
0.0
  0
LINE
  5
1FC
330
1F
100
AcDbEntity
  8
0-2
  6
Continuous
 62
     2
370
     9
100
AcDbLine
 10
0.6688108918067428
 20
189.4160756213284
 30
0.0
 11
54.25061779636752
 21
189.4160756213284
 31
0.0
  0
LINE
  5
1FD
330
1F
100
AcDbEntity
  8
0-2
  6
Continuous
 62
     2
370
     9
100
AcDbLine
 10
54.25061779636752
 20
144.4161498532753
 30
0.0
 11
-5.249331066069118
 21
144.4161498532753
 31
0.0
  0
LINE
  5
1FE
330
1F
100
AcDbEntity
  8
0-2
  6
Continuous
 62
     2
370
     9
100
AcDbLine
 10
54.25061779636752
 20
142.9161449044788
 30
0.0
 11
-5.249331066069118
 21
142.9161449044788
 31
0.0
  0
LINE
  5
1FF
330
1F
100
AcDbEntity
  8
0-1
  6
Continuous
 62
     3
370
     9
100
AcDbLine
 10
-5.249331066069118
 20
141.9160921173167
 30
0.0
 11
55.75069697711081
 21
141.9160921173167
 31
0.0
  0
LINE
  5
200
330
1F
100
AcDbEntity
  8
0-1
  6
Continuous
 62
     3
370
     9
100
AcDbLine
 10
-5.249331066069118
 20
132.4161102629036
 30
0.0
 11
57.75065408754151
 21
132.4161102629036
 31
0.0
  0
LINE
  5
201
330
1F
100
AcDbEntity
  8
0-1
  6
Continuous
 62
     3
370
     9
100
AcDbLine
 10
-5.249331066069118
 20
129.9161267588918
 30
0.0
 11
-4.74937890443482
 21
129.9161267588918
 31
0.0
  0
LINE
  5
202
330
1F
100
AcDbEntity
  8
0-1
  6
Continuous
 62
     3
370
     9
100
AcDbLine
 10
-42.74938055403365
 20
129.9161267588918
 30
0.0
 11
-42.24935416045255
 21
129.9161267588918
 31
0.0
  0
LINE
  5
203
330
1F
100
AcDbEntity
  8
0-3
  6
JWW_CENTER1
 62
     4
370
     9
100
AcDbLine
 10
-18.647752070081
 20
190.916080570125
 30
0.0
 11
-30.23149890285123
 21
190.916080570125
 31
0.0
  0
LINE
  5
204
330
1F
100
AcDbEntity
  8
0-3
  6
JWW_DASHED1
 62
     4
370
     9
100
AcDbLine
 10
-5.249331066069118
 20
264.7861466200616
 30
0.0
 11
-5.249331066069118
 21
325.4161284084906
 31
0.0
  0
LINE
  5
205
330
1F
100
AcDbEntity
  8
0-3
  6
JWW_DASHED1
 62
     4
370
     9
100
AcDbLine
 10
-42.24935416045255
 20
264.7861466200616
 30
0.0
 11
-42.24935416045255
 21
325.4161284084906
 31
0.0
  0
LINE
  5
206
330
1F
100
AcDbEntity
  8
0-3
  6
JWW_DASHED1
 62
     4
370
     9
100
AcDbLine
 10
-5.249331066069118
 20
325.4161284084906
 30
0.0
 11
-42.24935416045255
 21
325.4161284084906
 31
0.0
  0
LINE
  5
207
330
1F
100
AcDbEntity
  8
0-2
  6
Continuous
 62
     2
370
     9
100
AcDbLine
 10
-29.7493624084467
 20
301.6661366564847
 30
0.0
 11
-127.7494135460101
 21
301.6661366564847
 31
0.0
  0
LINE
  5
208
330
1F
100
AcDbEntity
  8
0-2
  6
Continuous
 62
     2
370
     9
100
AcDbLine
 10
-29.7493624084467
 20
289.1661449044789
 30
0.0
 11
-127.7494135460101
 21
289.1661449044789
 31
0.0
  0
LINE
  5
209
330
1F
100
AcDbEntity
  8
0-F
  6
Continuous
 62
     7
370
     9
100
AcDbLine
 10
-285.4309848878597
 20
-158.1769823719675
 30
0.0
 11
-285.4309848878597
 21
-8.176932884003023
 31
0.0
  0
LINE
  5
20A
330
1F
100
AcDbEntity
  8
0-F
  6
Continuous
 62
     7
370
     9
100
AcDbLine
 10
-242.7493599340485
 20
-158.1769823719675
 30
0.0
 11
-286.3309730107482
 21
-158.1769823719675
 31
0.0
  0
LINE
  5
20B
330
1F
100
AcDbEntity
  8
0-F
  6
Continuous
 62
     7
370
     9
100
AcDbLine
 10
-250.749336839665
 20
-8.176932884003023
 30
0.0
 11
-286.3309730107482
 21
-8.176932884003023
 31
0.0
  0
LINE
  5
20C
330
1F
100
AcDbEntity
  8
0-F
  6
Continuous
 62
     7
370
     9
100
AcDbLine
 10
-285.4309848878597
 20
-158.1769823719675
 30
0.0
 11
-286.4099558021334
 21
-150.7411311459857
 31
0.0
  0
LINE
  5
20D
330
1F
100
AcDbEntity
  8
0-F
  6
Continuous
 62
     7
370
     9
100
AcDbLine
 10
-285.4309848878597
 20
-158.1769823719675
 30
0.0
 11
-284.452013973586
 21
-150.7411311459857
 31
0.0
  0
LINE
  5
20E
330
1F
100
AcDbEntity
  8
0-F
  6
Continuous
 62
     7
370
     9
100
AcDbLine
 10
-285.4309848878597
 20
-8.176932884003023
 30
0.0
 11
-286.4099558021334
 21
-15.6127841099849
 31
0.0
  0
LINE
  5
20F
330
1F
100
AcDbEntity
  8
0-F
  6
Continuous
 62
     7
370
     9
100
AcDbLine
 10
-285.4309848878597
 20
-8.176932884003023
 30
0.0
 11
-284.452013973586
 21
-15.6127841099849
 31
0.0
  0
LINE
  5
210
330
1F
100
AcDbEntity
  8
0-F
  6
Continuous
 62
     7
370
     9
100
AcDbLine
 10
-262.6281185449543
 20
-158.1769823719675
 30
0.0
 11
-262.6281185449543
 21
-98.17693288400307
 31
0.0
  0
LINE
  5
211
330
1F
100
AcDbEntity
  8
0-F
  6
Continuous
 62
     7
370
     9
100
AcDbLine
 10
-244.0631911602943
 20
-98.17693288400307
 30
0.0
 11
-263.5281066678428
 21
-98.17693288400307
 31
0.0
  0
LINE
  5
212
330
1F
100
AcDbEntity
  8
0-F
  6
Continuous
 62
     7
370
     9
100
AcDbLine
 10
-262.6281185449543
 20
-158.1769823719675
 30
0.0
 11
-263.6070523432546
 21
-150.7411311459857
 31
0.0
  0
LINE
  5
213
330
1F
100
AcDbEntity
  8
0-F
  6
Continuous
 62
     7
370
     9
100
AcDbLine
 10
-262.6281185449543
 20
-158.1769823719675
 30
0.0
 11
-261.6491476306807
 21
-150.7411311459857
 31
0.0
  0
LINE
  5
214
330
1F
100
AcDbEntity
  8
0-F
  6
Continuous
 62
     7
370
     9
100
AcDbLine
 10
-262.6281185449543
 20
-98.17693288400307
 30
0.0
 11
-263.6070523432546
 21
-105.6127841099849
 31
0.0
  0
LINE
  5
215
330
1F
100
AcDbEntity
  8
0-F
  6
Continuous
 62
     7
370
     9
100
AcDbLine
 10
-262.6281185449543
 20
-98.17693288400307
 30
0.0
 11
-261.6491476306807
 21
-105.6127841099849
 31
0.0
  0
LINE
  5
216
330
1F
100
AcDbEntity
  8
0-F
  6
Continuous
 62
     7
370
     9
100
AcDbLine
 10
-102.6510355965273
 20
-10.1769642263806
 30
0.0
 11
-103.6299693948276
 21
-2.741113000398727
 31
0.0
  0
LINE
  5
217
330
1F
100
AcDbEntity
  8
0-F
  6
Continuous
 62
     7
370
     9
100
AcDbLine
 10
-102.6510355965273
 20
-13.67707474950139
 30
0.0
 11
-103.6299693948276
 21
-21.11292597548318
 31
0.0
  0
LINE
  5
218
330
1F
100
AcDbEntity
  8
0-F
  6
Continuous
 62
     7
370
     9
100
AcDbLine
 10
-102.6510355965273
 20
-10.1769642263806
 30
0.0
 11
-101.6721017982271
 21
-2.741113000398727
 31
0.0
  0
LINE
  5
219
330
1F
100
AcDbEntity
  8
0-F
  6
Continuous
 62
     7
370
     9
100
AcDbLine
 10
-102.6510355965273
 20
-13.67707474950139
 30
0.0
 11
-101.6721017982271
 21
-21.11292597548318
 31
0.0
  0
LINE
  5
21A
330
1F
100
AcDbEntity
  8
0-F
  6
Continuous
 62
     7
370
     9
100
AcDbLine
 10
-102.6510355965273
 20
12.28187415912409
 30
0.0
 11
-102.6510355965273
 21
-24.47953034230115
 31
0.0
  0
LINE
  5
21B
330
1F
100
AcDbEntity
  8
0-F
  6
Continuous
 62
     7
370
     9
100
AcDbLine
 10
-225.2493640580455
 20
30.1087875287926
 30
0.0
 11
67.75066233553557
 21
30.1087875287926
 31
0.0
  0
LINE
  5
21C
330
1F
100
AcDbEntity
  8
0-F
  6
Continuous
 62
     7
370
     9
100
AcDbLine
 10
-225.2493640580455
 20
0.3230332992211942
 30
0.0
 11
-225.2493640580455
 21
31.00877565168112
 31
0.0
  0
LINE
  5
21D
330
1F
100
AcDbEntity
  8
0-F
  6
Continuous
 62
     7
370
     9
100
AcDbLine
 10
67.75066233553557
 20
0.3230332992211942
 30
0.0
 11
67.75066233553557
 21
31.00877565168112
 31
0.0
  0
LINE
  5
21E
330
1F
100
AcDbEntity
  8
0-F
  6
Continuous
 62
     7
370
     9
100
AcDbLine
 10
-225.2493640580455
 20
30.1087875287926
 30
0.0
 11
-217.8135128320637
 21
31.08772132709284
 31
0.0
  0
LINE
  5
21F
330
1F
100
AcDbEntity
  8
0-F
  6
Continuous
 62
     7
370
     9
100
AcDbLine
 10
-225.2493640580455
 20
30.1087875287926
 30
0.0
 11
-217.8135128320637
 21
29.12985373049229
 31
0.0
  0
LINE
  5
220
330
1F
100
AcDbEntity
  8
0-F
  6
Continuous
 62
     7
370
     9
100
AcDbLine
 10
67.75066233553557
 20
30.1087875287926
 30
0.0
 11
60.31481110955377
 21
31.08772132709284
 31
0.0
  0
LINE
  5
221
330
1F
100
AcDbEntity
  8
0-F
  6
Continuous
 62
     7
370
     9
100
AcDbLine
 10
67.75066233553557
 20
30.1087875287926
 30
0.0
 11
60.31481110955377
 21
29.12985373049229
 31
0.0
  0
LINE
  5
222
330
1F
100
AcDbEntity
  8
0-F
  6
Continuous
 62
     7
370
     9
100
AcDbLine
 10
-241.7493442628597
 20
59.04440038774526
 30
0.0
 11
84.25064254034979
 21
59.04440038774526
 31
0.0
  0
LINE
  5
223
330
1F
100
AcDbEntity
  8
0-F
  6
Continuous
 62
     7
370
     9
100
AcDbLine
 10
-241.7493442628597
 20
0.8230596928022891
 30
0.0
 11
-241.7493442628597
 21
59.94438851063377
 31
0.0
  0
LINE
  5
224
330
1F
100
AcDbEntity
  8
0-F
  6
Continuous
 62
     7
370
     9
100
AcDbLine
 10
84.25064254034979
 20
0.8230596928022891
 30
0.0
 11
84.25064254034979
 21
59.94438851063377
 31
0.0
  0
LINE
  5
225
330
1F
100
AcDbEntity
  8
0-F
  6
Continuous
 62
     7
370
     9
100
AcDbLine
 10
-241.7493442628597
 20
59.04440038774526
 30
0.0
 11
-234.3134930368778
 21
60.02333418604549
 31
0.0
  0
LINE
  5
226
330
1F
100
AcDbEntity
  8
0-F
  6
Continuous
 62
     7
370
     9
100
AcDbLine
 10
-241.7493442628597
 20
59.04440038774526
 30
0.0
 11
-234.3134930368778
 21
58.06546658944502
 31
0.0
  0
LINE
  5
227
330
1F
100
AcDbEntity
  8
0-F
  6
Continuous
 62
     7
370
     9
100
AcDbLine
 10
84.25064254034979
 20
59.04440038774526
 30
0.0
 11
76.81482843034135
 21
60.02333418604549
 31
0.0
  0
LINE
  5
228
330
1F
100
AcDbEntity
  8
0-F
  6
Continuous
 62
     7
370
     9
100
AcDbLine
 10
84.25064254034979
 20
59.04440038774526
 30
0.0
 11
76.81482843034135
 21
58.06546658944502
 31
0.0
  0
LINE
  5
229
330
1F
100
AcDbEntity
  8
0-F
  6
Continuous
 62
     7
370
     9
100
AcDbLine
 10
-229.7493417884615
 20
-213.968228940802
 30
0.0
 11
72.25060294997814
 21
-213.968228940802
 31
0.0
  0
LINE
  5
22A
330
1F
100
AcDbEntity
  8
0-F
  6
Continuous
 62
     7
370
     9
100
AcDbLine
 10
-229.7493417884615
 20
-167.1769749487729
 30
0.0
 11
-229.7493417884615
 21
-214.8682541796639
 31
0.0
  0
LINE
  5
22B
330
1F
100
AcDbEntity
  8
0-F
  6
Continuous
 62
     7
370
     9
100
AcDbLine
 10
72.25060294997814
 20
-167.1769749487729
 30
0.0
 11
72.25060294997814
 21
-214.8682541796639
 31
0.0
  0
LINE
  5
22C
330
1F
100
AcDbEntity
  8
0-F
  6
Continuous
 62
     7
370
     9
100
AcDbLine
 10
-229.7493417884615
 20
-213.968228940802
 30
0.0
 11
-222.3134905624796
 21
-212.9892951425018
 31
0.0
  0
LINE
  5
22D
330
1F
100
AcDbEntity
  8
0-F
  6
Continuous
 62
     7
370
     9
100
AcDbLine
 10
-229.7493417884615
 20
-213.968228940802
 30
0.0
 11
-222.3134905624796
 21
-214.9471627391023
 31
0.0
  0
LINE
  5
22E
330
1F
100
AcDbEntity
  8
0-F
  6
Continuous
 62
     7
370
     9
100
AcDbLine
 10
72.25060294997814
 20
-213.968228940802
 30
0.0
 11
64.81478883996971
 21
-212.9892951425018
 31
0.0
  0
LINE
  5
22F
330
1F
100
AcDbEntity
  8
0-F
  6
Continuous
 62
     7
370
     9
100
AcDbLine
 10
72.25060294997814
 20
-213.968228940802
 30
0.0
 11
64.81478883996971
 21
-214.9471627391023
 31
0.0
  0
LINE
  5
230
330
1F
100
AcDbEntity
  8
0-F
  6
Continuous
 62
     7
370
     9
100
AcDbLine
 10
-78.74935086125498
 20
-183.9196936195922
 30
0.0
 11
-23.74934261326084
 21
-183.9196936195922
 31
0.0
  0
LINE
  5
231
330
1F
100
AcDbEntity
  8
0-F
  6
Continuous
 62
     7
370
     9
100
AcDbLine
 10
-78.74935086125498
 20
-174.2772606592881
 30
0.0
 11
-78.74935086125498
 21
-184.8197188584541
 31
0.0
  0
LINE
  5
232
330
1F
100
AcDbEntity
  8
0-F
  6
Continuous
 62
     7
370
     9
100
AcDbLine
 10
-23.74934261326084
 20
-174.505895055403
 30
0.0
 11
-23.74934261326084
 21
-184.8197188584541
 31
0.0
  0
LINE
  5
233
330
1F
100
AcDbEntity
  8
0-F
  6
Continuous
 62
     7
370
     9
100
AcDbLine
 10
-78.74935086125498
 20
-183.9196936195922
 30
0.0
 11
-71.3134996352731
 21
-182.9407598212919
 31
0.0
  0
LINE
  5
234
330
1F
100
AcDbEntity
  8
0-F
  6
Continuous
 62
     7
370
     9
100
AcDbLine
 10
-78.74935086125498
 20
-183.9196936195922
 30
0.0
 11
-71.3134996352731
 21
-184.8986645338658
 31
0.0
  0
LINE
  5
235
330
1F
100
AcDbEntity
  8
0-F
  6
Continuous
 62
     7
370
     9
100
AcDbLine
 10
-23.74934261326084
 20
-183.9196936195922
 30
0.0
 11
-31.18519383924271
 21
-182.9407598212919
 31
0.0
  0
LINE
  5
236
330
1F
100
AcDbEntity
  8
0-F
  6
Continuous
 62
     7
370
     9
100
AcDbLine
 10
-23.74934261326084
 20
-183.9196936195922
 30
0.0
 11
-31.18519383924271
 21
-184.8986645338658
 31
0.0
  0
LINE
  5
237
330
1F
100
AcDbEntity
  8
0-E
  6
Continuous
 62
     7
370
     9
100
AcDbLine
 10
162.6818163288844
 20
-167.5956431286716
 30
0.0
 11
102.7620115754005
 21
-167.5956431286716
 31
0.0
  0
LINE
  5
238
330
1F
100
AcDbEntity
  8
0-F
  6
Continuous
 62
     7
370
     9
100
AcDbLine
 10
67.72007877345791
 20
-106.9011166625081
 30
0.0
 11
72.2857888927569
 21
-112.8512897054241
 31
0.0
  0
LINE
  5
239
330
1F
100
AcDbEntity
  8
0-F
  6
Continuous
 62
     7
370
     9
100
AcDbLine
 10
67.72007877345791
 20
-106.9011166625081
 30
0.0
 11
70.59018276416737
 21
-113.8302235037243
 31
0.0
  0
LINE
  5
23A
330
1F
100
AcDbEntity
  8
0-F
  6
Continuous
 62
     7
370
     9
100
AcDbLine
 10
13.55161679341143
 20
-154.4229614748497
 30
0.0
 11
18.11732691271041
 21
-160.3730974017923
 31
0.0
  0
LINE
  5
23B
330
1F
100
AcDbEntity
  8
0-F
  6
Continuous
 62
     7
370
     9
100
AcDbLine
 10
13.55161679341143
 20
-154.4229614748497
 30
0.0
 11
16.42172078412088
 21
-161.352068316066
 31
0.0
  0
LINE
  5
23C
330
1F
100
AcDbEntity
  8
0-E
  6
Continuous
 62
     7
370
     9
100
AcDbLine
 10
61.13188214787721
 20
-236.83452648224
 30
0.0
 11
13.55161679341143
 21
-154.4229614748497
 31
0.0
  0
LINE
  5
23D
330
1F
100
AcDbEntity
  8
0-2
  6
Continuous
 62
     2
370
     9
100
AcDbLine
 10
-127.7493393140633
 20
249.1661119125025
 30
0.0
 11
-127.7493393140633
 21
201.6661284084906
 31
0.0
  0
LINE
  5
23E
330
1F
100
AcDbEntity
  8
0-2
  6
Continuous
 62
     2
370
     9
100
AcDbLine
 10
-29.7493624084467
 20
201.6661284084906
 30
0.0
 11
-127.7493393140633
 21
201.6661284084906
 31
0.0
  0
LINE
  5
23F
330
1F
100
AcDbEntity
  8
0-2
  6
Continuous
 62
     2
370
     9
100
AcDbLine
 10
-29.7493624084467
 20
249.1661119125025
 30
0.0
 11
-29.7493624084467
 21
201.6661284084906
 31
0.0
  0
LINE
  5
240
330
1F
100
AcDbEntity
  8
0-2
  6
Continuous
 62
     2
370
     9
100
AcDbLine
 10
-126.7493607588479
 20
197.9160789205261
 30
0.0
 11
-126.7493607588479
 21
201.6661284084906
 31
0.0
  0
LINE
  5
241
330
1F
100
AcDbEntity
  8
0-2
  6
Continuous
 62
     2
370
     9
100
AcDbLine
 10
-125.2493558100514
 20
199.4160838693226
 30
0.0
 11
-125.2493558100514
 21
201.6661284084906
 31
0.0
  0
LINE
  5
242
330
1F
100
AcDbEntity
  8
0-F
  6
Continuous
 62
     7
370
     9
100
AcDbLine
 10
-78.74935086125498
 20
301.6661366564847
 30
0.0
 11
-53.41614014810037
 21
345.5445661724264
 31
0.0
  0
LINE
  5
243
330
1F
100
AcDbEntity
  8
0-F
  6
Continuous
 62
     7
370
     9
100
AcDbLine
 10
-78.74935086125498
 20
301.6661366564847
 30
0.0
 11
-75.87920975457209
 21
308.5952434977009
 31
0.0
  0
LINE
  5
244
330
1F
100
AcDbEntity
  8
0-F
  6
Continuous
 62
     7
370
     9
100
AcDbLine
 10
-78.74935086125498
 20
301.6661366564847
 30
0.0
 11
-74.183640741956
 21
307.6162725834273
 31
0.0
  0
LINE
  5
245
330
1F
100
AcDbEntity
  8
0-F
  6
Continuous
 62
     7
370
     9
100
AcDbLine
 10
-53.41614014810037
 20
345.5445661724264
 30
0.0
 11
75.31564003295955
 21
345.5445661724264
 31
0.0
  0
LINE
  5
246
330
1F
100
AcDbEntity
  8
0-E
  6
Continuous
 62
     7
370
     9
100
AcDbLine
 10
61.13188214787721
 20
-236.83452648224
 30
0.0
 11
169.3681104721488
 21
-236.83452648224
 31
0.0
  0
LINE
  5
247
330
1F
100
AcDbEntity
  8
0-E
  6
Continuous
 62
     7
370
     9
100
AcDbLine
 10
-201.5801737801211
 20
-89.82713792913607
 30
0.0
 11
-93.34394545584951
 21
-89.82713792913607
 31
0.0
  0
LINE
  5
248
330
1F
100
AcDbEntity
  8
0-F
  6
Continuous
 62
     7
370
     9
100
AcDbLine
 10
-62.25378745727483
 20
-143.6769592775841
 30
0.0
 11
-66.81949757657381
 21
-137.7268233506416
 31
0.0
  0
LINE
  5
249
330
1F
100
AcDbEntity
  8
0-F
  6
Continuous
 62
     7
370
     9
100
AcDbLine
 10
-62.25378745727483
 20
-143.6769592775841
 30
0.0
 11
-65.12389144798428
 21
-136.7478524363679
 31
0.0
  0
LINE
  5
24A
330
1F
100
AcDbEntity
  8
0-E
  6
Continuous
 62
     7
370
     9
100
AcDbLine
 10
-93.34394545584951
 20
-89.82713792913607
 30
0.0
 11
-62.25378745727483
 21
-143.6769592775841
 31
0.0
  0
LINE
  5
24B
330
1F
100
AcDbEntity
  8
0-2
  6
Continuous
 62
     2
370
     9
100
AcDbLine
 10
53.58935961435736
 20
-32.27544362619052
 30
0.0
 11
55.4243362230462
 21
-23.27730684805498
 31
0.0
  0
LINE
  5
24C
330
1F
100
AcDbEntity
  8
0-2
  6
Continuous
 62
     2
370
     9
100
AcDbLine
 10
57.70945535707276
 20
-16.12413087545154
 30
0.0
 11
58.75059552678346
 21
-21.67694030719771
 31
0.0
  0
LINE
  5
24D
330
1F
100
AcDbEntity
  8
0-2
  6
Continuous
 62
     2
370
     9
100
AcDbLine
 10
57.38402250234307
 20
-21.67694030719771
 30
0.0
 11
66.30618288293846
 21
-21.67697742317115
 31
0.0
  0
LINE
  5
24E
330
1F
100
AcDbEntity
  8
0-1
  6
Continuous
 62
     3
370
     9
100
AcDbLine
 10
59.55296863964244
 20
-28.89781581527416
 30
0.0
 11
58.7506326427569
 21
-21.67697742317115
 31
0.0
  0
LINE
  5
24F
330
1F
100
AcDbEntity
  8
0-1
  6
Continuous
 62
     3
370
     9
100
AcDbLine
 10
-222.8423560673888
 20
-30.67693288400302
 30
0.0
 11
37.59712592559049
 21
-30.67693288400302
 31
0.0
  0
LINE
  5
250
330
1F
100
AcDbEntity
  8
0-1
  6
Continuous
 62
     3
370
     9
100
AcDbLine
 10
53.91534920868807
 20
-30.67693288400302
 30
0.0
 11
65.34361722890557
 21
-30.67693288400302
 31
0.0
  0
LINE
  5
251
330
1F
100
AcDbEntity
  8
0-0
  6
Continuous
 62
     4
370
     9
100
AcDbLine
 10
44.25068378032026
 20
-38.53505253930287
 30
0.0
 11
44.25068378032026
 21
-50.86750278740251
 31
0.0
  0
LINE
  5
252
330
1F
100
AcDbEntity
  8
0-0
  6
Continuous
 62
     4
370
     9
100
AcDbLine
 10
47.25061944596635
 20
-38.53505253930287
 30
0.0
 11
47.25061944596635
 21
-50.86750278740251
 31
0.0
  0
ARC
  5
253
330
1F
100
AcDbEntity
  8
0-1
  6
Continuous
 62
     3
370
     9
100
AcDbCircle
 10
-219.039416317336
 20
-28.67697577357228
 30
0.0
 40
2.000000025774982
100
AcDbArc
 50
269.9994964599609
 51
353.6595611572266
  0
ARC
  5
254
330
1F
100
AcDbEntity
  8
0-1
  6
Continuous
 62
     3
370
     9
100
AcDbCircle
 10
-222.8423560673888
 20
-34.6769213368113
 30
0.0
 40
4.000000051549963
100
AcDbArc
 50
90.0
 51
178.6519622802734
  0
ARC
  5
255
330
1F
100
AcDbEntity
  8
0-1
  6
Continuous
 62
     3
370
     9
100
AcDbCircle
 10
-240.1735484963901
 20
-24.67698732076404
 30
0.0
 40
3.500000045106217
100
AcDbArc
 50
1.254409790039062
 51
90.0
  0
ARC
  5
256
330
1F
100
AcDbEntity
  8
0-1
  6
Continuous
 62
     3
370
     9
100
AcDbCircle
 10
-224.4067572300261
 20
-20.17697247437467
 30
0.0
 40
1.500000019331236
100
AcDbArc
 50
186.3402252197265
 51
270.0
  0
ARC
  5
257
330
1F
100
AcDbEntity
  8
0-1
  6
Continuous
 62
     3
370
     9
100
AcDbCircle
 10
61.54071459482611
 20
-28.67697577357228
 30
0.0
 40
2.000000025774982
100
AcDbArc
 50
186.3404388427734
 51
270.0005035400391
  0
ARC
  5
258
330
1F
100
AcDbEntity
  8
0-1
  6
Continuous
 62
     3
370
     9
100
AcDbCircle
 10
65.34361722890557
 20
-34.6769213368113
 30
0.0
 40
4.000000051549963
100
AcDbArc
 50
1.348037719726562
 51
90.0
  0
ARC
  5
259
330
1F
100
AcDbEntity
  8
0-1
  6
Continuous
 62
     3
370
     9
100
AcDbCircle
 10
82.67484677388018
 20
-24.67698732076404
 30
0.0
 40
3.500000045106217
100
AcDbArc
 50
90.0
 51
178.7455902099609
  0
ARC
  5
25A
330
1F
100
AcDbEntity
  8
0-1
  6
Continuous
 62
     3
370
     9
100
AcDbCircle
 10
66.9080555075162
 20
-20.17697247437467
 30
0.0
 40
1.500000019331236
100
AcDbArc
 50
270.0
 51
353.6597747802734
  0
ARC
  5
25B
330
1F
100
AcDbEntity
  8
0-2
  6
Continuous
 62
     2
370
     9
100
AcDbCircle
 10
-212.2595899211156
 20
-16.67693618320068
 30
0.0
 40
3.000000038662472
100
AcDbArc
 50
90.0
 51
169.3802642822266
  0
ARC
  5
25C
330
1F
100
AcDbEntity
  8
0-2
  6
Continuous
 62
     2
370
     9
100
AcDbCircle
 10
-134.9450873081511
 20
-16.67693618320068
 30
0.0
 40
3.000000038662472
100
AcDbArc
 50
6.115707397460938
 51
90.00000000000001
  0
ARC
  5
25D
330
1F
100
AcDbEntity
  8
0-2
  6
Continuous
 62
     2
370
     9
100
AcDbCircle
 10
-122.553622662353
 20
-16.67693618320068
 30
0.0
 40
3.000000038662472
100
AcDbArc
 50
90.0
 51
173.8842926025391
  0
ARC
  5
25E
330
1F
100
AcDbEntity
  8
0-2
  6
Continuous
 62
     2
370
     9
100
AcDbCircle
 10
-214.2448491060818
 20
-21.83887729912131
 30
0.0
 40
2.000000025774982
100
AcDbArc
 50
84.63107299804688
 51
169.3805389404297
  0
ARC
  5
25F
330
1F
100
AcDbEntity
  8
0-2
  6
Continuous
 62
     2
370
     9
100
AcDbCircle
 10
54.76088819860573
 20
-16.67693618320068
 30
0.0
 40
3.000000038662472
100
AcDbArc
 50
10.61973571777344
 51
90.00000000000001
  0
ARC
  5
260
330
1F
100
AcDbEntity
  8
0-2
  6
Continuous
 62
     2
370
     9
100
AcDbCircle
 10
-22.5536144143588
 20
-16.67693618320068
 30
0.0
 40
3.000000038662472
100
AcDbArc
 50
90.0
 51
173.8842926025391
  0
ARC
  5
261
330
1F
100
AcDbEntity
  8
0-2
  6
Continuous
 62
     2
370
     9
100
AcDbCircle
 10
-34.94507906015701
 20
-16.67693618320068
 30
0.0
 40
3.000000038662472
100
AcDbArc
 50
6.115707397460938
 51
90.00000000000001
  0
ARC
  5
262
330
1F
100
AcDbEntity
  8
0-2
  6
Continuous
 62
     2
370
     9
100
AcDbCircle
 10
57.38402250234307
 20
-23.67693453360185
 30
0.0
 40
2.000000025774982
100
AcDbArc
 50
90.0
 51
168.4740905761719
  0
ARC
  5
263
330
1F
100
AcDbEntity
  8
0-0
  6
Continuous
 62
     4
370
     9
100
AcDbCircle
 10
45.75068872911666
 20
-56.67696917517705
 30
0.0
 40
2.999982350581401
100
AcDbArc
 50
0.0
 51
60.25494384765625
  0
ARC
  5
264
330
1F
100
AcDbEntity
  8
0-0
  6
Continuous
 62
     4
370
     9
100
AcDbCircle
 10
45.75068872911666
 20
-56.67696917517705
 30
0.0
 40
5.999982679212415
100
AcDbArc
 50
0.0
 51
75.52241516113281
  0
ARC
  5
265
330
1F
100
AcDbEntity
  8
0-0
  6
Continuous
 62
     4
370
     9
100
AcDbCircle
 10
45.75068872911666
 20
-69.67698732076404
 30
0.0
 40
2.999982350581401
100
AcDbArc
 50
299.7450561523438
 51
0.0000000000000127
  0
ARC
  5
266
330
1F
100
AcDbEntity
  8
0-0
  6
Continuous
 62
     4
370
     9
100
AcDbCircle
 10
45.75068872911666
 20
-69.67698732076404
 30
0.0
 40
5.999982679212415
100
AcDbArc
 50
284.4775848388672
 51
0.0000000000000127
  0
ARC
  5
267
330
1F
100
AcDbEntity
  8
0-2
  6
Continuous
 62
     2
370
     9
100
AcDbCircle
 10
45.75068872911666
 20
-30.67693288400302
 30
0.0
 40
8.000000103099927
100
AcDbArc
 50
191.1365966796875
 51
348.4738616943359
  0
ARC
  5
268
330
1F
100
AcDbEntity
  8
0-0
  6
Continuous
 62
     4
370
     9
100
AcDbCircle
 10
45.75068872911666
 20
-69.67698732076404
 30
0.0
 40
2.999982350581401
100
AcDbArc
 50
180.0
 51
299.7449645996094
  0
ARC
  5
269
330
1F
100
AcDbEntity
  8
0-0
  6
Continuous
 62
     4
370
     9
100
AcDbCircle
 10
45.75068872911666
 20
-69.67698732076404
 30
0.0
 40
5.999982679212415
100
AcDbArc
 50
180.0
 51
284.4774932861328
  0
ARC
  5
26A
330
1F
100
AcDbEntity
  8
0-0
  6
Continuous
 62
     4
370
     9
100
AcDbCircle
 10
62.36290763747814
 20
-92.61532696656217
 30
0.0
 40
2.380952577333193
100
AcDbArc
 50
0.0
 51
180.0
  0
ARC
  5
26B
330
1F
100
AcDbEntity
  8
0-0
  6
Continuous
 62
     4
370
     9
100
AcDbCircle
 10
62.36290763747814
 20
-92.61532696656217
 30
0.0
 40
5.357143298999684
100
AcDbArc
 50
0.0
 51
180.0
  0
ARC
  5
26C
330
1F
100
AcDbEntity
  8
0-0
  6
Continuous
 62
     4
370
     9
100
AcDbCircle
 10
62.36290763747814
 20
-106.9011166625081
 30
0.0
 40
2.380952577333193
100
AcDbArc
 50
180.0
 51
0.0
  0
ARC
  5
26D
330
1F
100
AcDbEntity
  8
0-0
  6
Continuous
 62
     4
370
     9
100
AcDbCircle
 10
62.36290763747814
 20
-106.9011166625081
 30
0.0
 40
5.357143298999684
100
AcDbArc
 50
180.0
 51
0.0
  0
ARC
  5
26E
330
1F
100
AcDbEntity
  8
0-0
  6
Continuous
 62
     4
370
     9
100
AcDbCircle
 10
68.24534402894776
 20
-63.89127515596252
 30
0.0
 40
1.785706023912172
100
AcDbArc
 50
270.0
 51
269.9998474121094
  0
ARC
  5
26F
330
1F
100
AcDbEntity
  8
0-0
  6
Continuous
 62
     2
370
     9
100
AcDbCircle
 10
63.55967508363526
 20
-72.9394071502615
 30
0.0
 40
1.899999879501961
100
AcDbArc
 50
138.3578948974609
 51
221.6421203613282
  0
ARC
  5
270
330
1F
100
AcDbEntity
  8
0-0
  6
Continuous
 62
     2
370
     9
100
AcDbCircle
 10
63.55967508363526
 20
-64.41446191694224
 30
0.0
 40
1.899999879501961
100
AcDbArc
 50
138.3578796386719
 51
221.6421051025391
  0
ARC
  5
271
330
1F
100
AcDbEntity
  8
0-0
  6
Continuous
 62
     2
370
     9
100
AcDbCircle
 10
71.27296821074674
 20
-68.67693453360185
 30
0.0
 40
9.613323598294645
100
AcDbArc
 50
161.8162536621094
 51
198.1837463378906
  0
ARC
  5
272
330
1F
100
AcDbEntity
  8
0-0
  6
Continuous
 62
     2
370
     9
100
AcDbCircle
 10
80.96855124495283
 20
-64.37029390860185
 30
0.0
 40
2.367929075215314
100
AcDbArc
 50
322.4427795410156
 51
37.55722045898439
  0
ARC
  5
273
330
1F
100
AcDbEntity
  8
0-0
  6
Continuous
 62
     2
370
     9
100
AcDbCircle
 10
74.73848664666315
 20
-68.67693453360185
 30
0.0
 40
8.597918716636864
100
AcDbArc
 50
340.5480041503906
 51
19.45199584960935
  0
ARC
  5
274
330
1F
100
AcDbEntity
  8
0-0
  6
Continuous
 62
     2
370
     9
100
AcDbCircle
 10
80.96855124495283
 20
-72.98350092665505
 30
0.0
 40
2.367929075215314
100
AcDbArc
 50
322.4427795410156
 51
37.55722045898439
  0
ARC
  5
275
330
1F
100
AcDbEntity
  8
0-0
  6
Continuous
 62
     4
370
     9
100
AcDbCircle
 10
64.45966320652377
 20
-77.92816513431978
 30
0.0
 40
2.000000025774982
100
AcDbArc
 50
335.8944396972657
 51
0.0000000000000445
  0
ARC
  5
276
330
1F
100
AcDbEntity
  8
0-0
  6
Continuous
 62
     4
370
     9
100
AcDbCircle
 10
66.53103144976706
 20
-77.96194067010947
 30
0.0
 40
3.500000045106217
100
AcDbArc
 50
336.2197570800782
 51
0.0
  0
ARC
  5
277
330
1F
100
AcDbEntity
  8
0-0
  6
JWW_CENTER1
 62
     4
370
     9
100
AcDbCircle
 10
54.05679818329745
 20
-165.7168696713763
 30
0.0
 40
8.306130331915778
100
AcDbArc
 50
180.0
 51
0.0
  0
ARC
  5
278
330
1F
100
AcDbEntity
  8
0-0
  6
Continuous
 62
     4
370
     9
100
AcDbCircle
 10
62.27531394026533
 20
-91.97574451301486
 30
0.0
 40
1.743506756988732
100
AcDbArc
 50
336.2196960449219
 51
336.219467163086
  0
CIRCLE
  5
279
330
1F
100
AcDbEntity
  8
0-0
  6
Continuous
 62
     4
370
     9
100
AcDbCircle
 10
45.75068872911666
 20
-33.17699061996166
 30
0.0
 40
1.500000019331236
  0
CIRCLE
  5
27A
330
1F
100
AcDbEntity
  8
0-0
  6
Continuous
 62
     4
370
     9
100
AcDbCircle
 10
45.75068872911666
 20
-55.17696422638056
 30
0.0
 40
1.500004948796453
  0
ARC
  5
27B
330
1F
100
AcDbEntity
  8
0-0
  6
Continuous
 62
     4
370
     9
100
AcDbCircle
 10
45.75068872911666
 20
-56.67696917517705
 30
0.0
 40
2.999982350581401
100
AcDbArc
 50
60.25511169433594
 51
180.0
  0
ARC
  5
27C
330
1F
100
AcDbEntity
  8
0-0
  6
Continuous
 62
     4
370
     9
100
AcDbCircle
 10
45.75068872911666
 20
-56.67696917517705
 30
0.0
 40
5.999982679212415
100
AcDbArc
 50
75.5225067138672
 51
180.0
  0
CIRCLE
  5
27D
330
1F
100
AcDbEntity
  8
0-2
  6
Continuous
 62
     2
370
     9
100
AcDbCircle
 10
45.75068872911666
 20
-30.67693288400302
 30
0.0
 40
4.000000051549963
  0
ARC
  5
27E
330
1F
100
AcDbEntity
  8
0-3
  6
Continuous
 62
     4
370
     9
100
AcDbCircle
 10
-38.39189104548217
 20
-134.1770516551179
 30
0.0
 40
1.500000019331236
100
AcDbArc
 50
90.0
 51
174.2894744873047
  0
ARC
  5
27F
330
1F
100
AcDbEntity
  8
0-3
  6
Continuous
 62
     4
370
     9
100
AcDbCircle
 10
-9.106868412986387
 20
-134.1770516551179
 30
0.0
 40
1.500000019331236
100
AcDbArc
 50
5.710464477539062
 51
90.0
  0
ARC
  5
280
330
1F
100
AcDbEntity
  8
0-2
  6
Continuous
 62
     4
370
     9
100
AcDbCircle
 10
-64.82926485117264
 20
-144.6770120647463
 30
0.0
 40
1.000000012887491
100
AcDbArc
 50
90.0
 51
175.2349395751953
  0
ARC
  5
281
330
1F
100
AcDbEntity
  8
0-2
  6
Continuous
 62
     4
370
     9
100
AcDbCircle
 10
17.33054250867752
 20
-144.6770120647463
 30
0.0
 40
1.000000012887491
100
AcDbArc
 50
4.765060424804688
 51
90.0
  0
ELLIPSE
  5
282
330
1F
100
AcDbEntity
  8
0-0
  6
Continuous
 62
     4
370
     9
100
AcDbEllipse
 10
6.128422114357363
 20
-143.6769592775841
 30
0.0
 11
5.249980204814189
 21
0.0
 31
0.0
210
0.0
220
0.0
230
1.0
 40
0.7428
 41
0.0
 42
1.475408288134874
  0
ELLIPSE
  5
283
330
1F
100
AcDbEntity
  8
0-0
  6
Continuous
 62
     4
370
     9
100
AcDbEllipse
 10
6.128422114357363
 20
-143.6769592775841
 30
0.0
 11
5.249980204814189
 21
0.0
 31
0.0
210
0.0
220
0.0
230
1.0
 40
0.7428
 41
1.666184365454919
 42
3.141592653589793
  0
ELLIPSE
  5
284
330
1F
100
AcDbEntity
  8
0-0
  6
Continuous
 62
     4
370
     9
100
AcDbEllipse
 10
-53.62718157282592
 20
-143.6769592775841
 30
0.0
 11
-5.249980204814189
 21
6.429159116257162E-16
 31
0.0
210
0.0
220
0.0
230
1.0
 40
0.7428
 41
4.807777019044712
 42
6.283185307179586
  0
ELLIPSE
  5
285
330
1F
100
AcDbEntity
  8
0-0
  6
Continuous
 62
     4
370
     9
100
AcDbEllipse
 10
-53.62718157282592
 20
-143.6769592775841
 30
0.0
 11
-5.249980204814189
 21
6.429159116257162E-16
 31
0.0
210
0.0
220
0.0
230
1.0
 40
0.7428
 41
3.141592653589793
 42
4.617000941724667
  0
ARC
  5
286
330
1F
100
AcDbEntity
  8
0-1
  6
Continuous
 62
     3
370
     9
100
AcDbCircle
 10
57.75065408754151
 20
306.9161168612989
 30
0.0
 40
26.50000005154997
100
AcDbArc
 50
0.0
 51
90.0
  0
ARC
  5
287
330
1F
100
AcDbEntity
  8
0-1
  6
Continuous
 62
     3
370
     9
100
AcDbCircle
 10
57.75065408754151
 20
143.9161234596942
 30
0.0
 40
26.50000005154997
100
AcDbArc
 50
270.0
 51
0.0
  0
ARC
  5
288
330
1F
100
AcDbEntity
  8
0-1
  6
Continuous
 62
     3
370
     9
100
AcDbCircle
 10
-215.2493558100514
 20
143.9161234596942
 30
0.0
 40
26.50000005154997
100
AcDbArc
 50
180.0
 51
270.0
  0
ARC
  5
289
330
1F
100
AcDbEntity
  8
0-1
  6
Continuous
 62
     3
370
     9
100
AcDbCircle
 10
-215.2493558100514
 20
306.9161168612989
 30
0.0
 40
26.50000005154997
100
AcDbArc
 50
90.0
 51
180.0
  0
ARC
  5
28A
330
1F
100
AcDbEntity
  8
0-1
  6
Continuous
 62
     3
370
     9
100
AcDbCircle
 10
57.75065408754151
 20
306.9161168612989
 30
0.0
 40
12.00000131452406
100
AcDbArc
 50
0.0
 51
90.0
  0
ARC
  5
28B
330
1F
100
AcDbEntity
  8
0-1
  6
Continuous
 62
     3
370
     9
100
AcDbCircle
 10
-215.2493558100514
 20
306.9161168612989
 30
0.0
 40
12.00000131452406
100
AcDbArc
 50
90.0
 51
180.0
  0
ARC
  5
28C
330
1F
100
AcDbEntity
  8
0-1
  6
Continuous
 62
     3
370
     9
100
AcDbCircle
 10
57.75065408754151
 20
143.9161234596942
 30
0.0
 40
25.00000206199853
100
AcDbArc
 50
270.0
 51
0.0
  0
ARC
  5
28D
330
1F
100
AcDbEntity
  8
0-1
  6
Continuous
 62
     3
370
     9
100
AcDbCircle
 10
55.75069697711081
 20
145.916080570125
 30
0.0
 40
4.000018609536661
100
AcDbArc
 50
270.0
 51
0.0
  0
ARC
  5
28E
330
1F
100
AcDbEntity
  8
0-1
  6
Continuous
 62
     3
370
     9
100
AcDbCircle
 10
57.75065408754151
 20
143.9161234596942
 30
0.0
 40
18.49999066945669
100
AcDbArc
 50
270.0
 51
0.0
  0
ARC
  5
28F
330
1F
100
AcDbEntity
  8
0-1
  6
Continuous
 62
     3
370
     9
100
AcDbCircle
 10
57.75065408754151
 20
143.9161234596942
 30
0.0
 40
11.49999811842635
100
AcDbArc
 50
270.0
 51
0.0
  0
ARC
  5
290
330
1F
100
AcDbEntity
  8
0-1
  6
Continuous
 62
     3
370
     9
100
AcDbCircle
 10
57.75065408754151
 20
143.9161234596942
 30
0.0
 40
14.49998481853588
100
AcDbArc
 50
270.0
 51
0.0
  0
ARC
  5
291
330
1F
100
AcDbEntity
  8
0-1
  6
Continuous
 62
     3
370
     9
100
AcDbCircle
 10
57.75065408754151
 20
143.9161234596942
 30
0.0
 40
21.42505181802286
100
AcDbArc
 50
270.0
 51
0.0
  0
ARC
  5
292
330
1F
100
AcDbEntity
  8
0-1
  6
Continuous
 62
     3
370
     9
100
AcDbCircle
 10
-215.2493558100514
 20
143.9161234596942
 30
0.0
 40
25.00000206199853
100
AcDbArc
 50
180.0
 51
270.0
  0
ARC
  5
293
330
1F
100
AcDbEntity
  8
0-1
  6
Continuous
 62
     3
370
     9
100
AcDbCircle
 10
-213.2493244676739
 20
145.916080570125
 30
0.0
 40
4.000018609536661
100
AcDbArc
 50
180.0
 51
270.0
  0
ARC
  5
294
330
1F
100
AcDbEntity
  8
0-1
  6
Continuous
 62
     3
370
     9
100
AcDbCircle
 10
-215.2493558100514
 20
143.9161234596942
 30
0.0
 40
18.49999066945669
100
AcDbArc
 50
180.0
 51
270.0
  0
ARC
  5
295
330
1F
100
AcDbEntity
  8
0-1
  6
Continuous
 62
     3
370
     9
100
AcDbCircle
 10
-215.2493558100514
 20
143.9161234596942
 30
0.0
 40
11.49999811842635
100
AcDbArc
 50
180.0
 51
270.0
  0
ARC
  5
296
330
1F
100
AcDbEntity
  8
0-1
  6
Continuous
 62
     3
370
     9
100
AcDbCircle
 10
-215.2493558100514
 20
143.9161234596942
 30
0.0
 40
14.49998481853588
100
AcDbArc
 50
180.0
 51
270.0
  0
ARC
  5
297
330
1F
100
AcDbEntity
  8
0-1
  6
Continuous
 62
     3
370
     9
100
AcDbCircle
 10
-215.2493558100514
 20
143.9161234596942
 30
0.0
 40
21.42505181802286
100
AcDbArc
 50
180.0
 51
270.0
  0
ARC
  5
298
330
1F
100
AcDbEntity
  8
0-2
  6
Continuous
 62
     2
370
     9
100
AcDbCircle
 10
57.75065408754151
 20
306.9161168612989
 30
0.0
 40
10.00000012887491
100
AcDbArc
 50
0.0
 51
90.0
  0
ARC
  5
299
330
1F
100
AcDbEntity
  8
0-2
  6
Continuous
 62
     2
370
     9
100
AcDbCircle
 10
-215.2493558100514
 20
306.9161168612989
 30
0.0
 40
10.00000012887491
100
AcDbArc
 50
90.0
 51
180.0
  0
ARC
  5
29A
330
1F
100
AcDbEntity
  8
0-2
  6
Continuous
 62
     2
370
     9
100
AcDbCircle
 10
23.25068872911666
 20
225.4161201604966
 30
0.0
 40
14.00000018042487
100
AcDbArc
 50
0.0
 51
26.51480102539062
  0
ARC
  5
29B
330
1F
100
AcDbEntity
  8
0-2
  6
Continuous
 62
     2
370
     9
100
AcDbCircle
 10
23.25068872911666
 20
225.4161201604966
 30
0.0
 40
14.00000018042487
100
AcDbArc
 50
53.47250366210938
 51
66.86744689941406
  0
ARC
  5
29C
330
1F
100
AcDbEntity
  8
0-2
  6
Continuous
 62
     2
370
     9
100
AcDbCircle
 10
23.25068872911666
 20
225.4161201604966
 30
0.0
 40
14.00000018042487
100
AcDbArc
 50
79.71339416503906
 51
100.2864685058594
  0
ARC
  5
29D
330
1F
100
AcDbEntity
  8
0-2
  6
Continuous
 62
     2
370
     9
100
AcDbCircle
 10
23.25068872911666
 20
225.4161201604966
 30
0.0
 40
14.00000018042487
100
AcDbArc
 50
113.1323852539062
 51
126.5274963378906
  0
ARC
  5
29E
330
1F
100
AcDbEntity
  8
0-2
  6
Continuous
 62
     2
370
     9
100
AcDbCircle
 10
23.25068872911666
 20
225.4161201604966
 30
0.0
 40
14.00000018042487
100
AcDbArc
 50
153.4851989746094
 51
180.0
  0
CIRCLE
  5
29F
330
1F
100
AcDbEntity
  8
0-2
  6
Continuous
 62
     2
370
     9
100
AcDbCircle
 10
-180.7493904516266
 20
225.4161201604966
 30
0.0
 40
9.000000115987417
  0
ARC
  5
2A0
330
1F
100
AcDbEntity
  8
0-2
  6
Continuous
 62
     2
370
     9
100
AcDbCircle
 10
-180.7493904516266
 20
225.4161201604966
 30
0.0
 40
10.49999984535011
100
AcDbArc
 50
180.0
 51
0.0
  0
ARC
  5
2A1
330
1F
100
AcDbEntity
  8
0-2
  6
Continuous
 62
     2
370
     9
100
AcDbCircle
 10
-180.7493904516266
 20
225.4161201604966
 30
0.0
 40
14.00000018042487
100
AcDbArc
 50
153.4851989746094
 51
180.0
  0
ARC
  5
2A2
330
1F
100
AcDbEntity
  8
0-2
  6
Continuous
 62
     2
370
     9
100
AcDbCircle
 10
-180.7493904516266
 20
225.4161201604966
 30
0.0
 40
14.00000018042487
100
AcDbArc
 50
113.1325531005859
 51
126.5274963378906
  0
ARC
  5
2A3
330
1F
100
AcDbEntity
  8
0-2
  6
Continuous
 62
     2
370
     9
100
AcDbCircle
 10
-180.7493904516266
 20
225.4161201604966
 30
0.0
 40
14.00000018042487
100
AcDbArc
 50
79.71353149414062
 51
100.2866058349609
  0
ARC
  5
2A4
330
1F
100
AcDbEntity
  8
0-2
  6
Continuous
 62
     2
370
     9
100
AcDbCircle
 10
-180.7493904516266
 20
225.4161201604966
 30
0.0
 40
14.00000018042487
100
AcDbArc
 50
53.47250366210938
 51
66.86761474609375
  0
ARC
  5
2A5
330
1F
100
AcDbEntity
  8
0-2
  6
Continuous
 62
     2
370
     9
100
AcDbCircle
 10
-180.7493904516266
 20
225.4161201604966
 30
0.0
 40
14.00000018042487
100
AcDbArc
 50
0.0
 51
26.51480102539062
  0
ARC
  5
2A6
330
1F
100
AcDbEntity
  8
0-2
  6
Continuous
 62
     2
370
     9
100
AcDbCircle
 10
54.25061779636752
 20
147.4161597508681
 30
0.0
 40
3.000000038662472
100
AcDbArc
 50
270.0
 51
0.0
  0
ARC
  5
2A7
330
1F
100
AcDbEntity
  8
0-2
  6
Continuous
 62
     2
370
     9
100
AcDbCircle
 10
54.25061779636752
 20
147.4160855189214
 30
0.0
 40
4.500000057993709
100
AcDbArc
 50
270.0
 51
0.0
  0
ARC
  5
2A8
330
1F
100
AcDbEntity
  8
0-2
  6
Continuous
 62
     2
370
     9
100
AcDbCircle
 10
55.4106404288633
 20
197.9160789205261
 30
0.0
 40
3.000000038662472
100
AcDbArc
 50
270.0
 51
0.0
  0
ARC
  5
2A9
330
1F
100
AcDbEntity
  8
0-2
  6
Continuous
 62
     2
370
     9
100
AcDbCircle
 10
55.4106404288633
 20
187.916070672532
 30
0.0
 40
3.000000038662472
100
AcDbArc
 50
0.0
 51
90.0
  0
ARC
  5
2AA
330
1F
100
AcDbEntity
  8
0-2
  6
Continuous
 62
     2
370
     9
100
AcDbCircle
 10
54.25061779636752
 20
186.4161399556824
 30
0.0
 40
3.000000038662472
100
AcDbArc
 50
0.0
 51
90.0
  0
ARC
  5
2AB
330
1F
100
AcDbEntity
  8
0-2
  6
Continuous
 62
     2
370
     9
100
AcDbCircle
 10
54.25061779636752
 20
199.4160838693226
 30
0.0
 40
3.000000038662472
100
AcDbArc
 50
270.0
 51
0.0
  0
ARC
  5
2AC
330
1F
100
AcDbEntity
  8
0-2
  6
Continuous
 62
     2
370
     9
100
AcDbCircle
 10
-211.7493195188774
 20
147.4161597508681
 30
0.0
 40
3.000000038662472
100
AcDbArc
 50
180.0
 51
270.0
  0
ARC
  5
2AD
330
1F
100
AcDbEntity
  8
0-2
  6
Continuous
 62
     2
370
     9
100
AcDbCircle
 10
-211.7493195188774
 20
147.4160855189214
 30
0.0
 40
4.500000057993709
100
AcDbArc
 50
180.0
 51
270.0
  0
ARC
  5
2AE
330
1F
100
AcDbEntity
  8
0-2
  6
Continuous
 62
     2
370
     9
100
AcDbCircle
 10
-212.9093421513732
 20
197.9160789205261
 30
0.0
 40
3.000000038662472
100
AcDbArc
 50
180.0
 51
270.0
  0
ARC
  5
2AF
330
1F
100
AcDbEntity
  8
0-2
  6
Continuous
 62
     2
370
     9
100
AcDbCircle
 10
-212.9093421513732
 20
187.916070672532
 30
0.0
 40
3.000000038662472
100
AcDbArc
 50
90.0
 51
180.0
  0
ARC
  5
2B0
330
1F
100
AcDbEntity
  8
0-2
  6
Continuous
 62
     2
370
     9
100
AcDbCircle
 10
-211.7493195188774
 20
186.4161399556824
 30
0.0
 40
3.000000038662472
100
AcDbArc
 50
90.0
 51
180.0
  0
ARC
  5
2B1
330
1F
100
AcDbEntity
  8
0-2
  6
Continuous
 62
     2
370
     9
100
AcDbCircle
 10
-211.7493195188774
 20
199.4160838693226
 30
0.0
 40
3.000000038662472
100
AcDbArc
 50
180.0
 51
270.0
  0
ARC
  5
2B2
330
1F
100
AcDbEntity
  8
0-2
  6
Continuous
 62
     2
370
     9
100
AcDbCircle
 10
-133.749359109249
 20
146.2560628864256
 30
0.0
 40
3.000000038662472
100
AcDbArc
 50
270.0
 51
0.0
  0
ARC
  5
2B3
330
1F
100
AcDbEntity
  8
0-2
  6
Continuous
 62
     2
370
     9
100
AcDbCircle
 10
-123.749350861255
 20
146.2560628864256
 30
0.0
 40
3.000000038662472
100
AcDbArc
 50
180.0
 51
270.0
  0
ARC
  5
2B4
330
1F
100
AcDbEntity
  8
0-2
  6
Continuous
 62
     2
370
     9
100
AcDbCircle
 10
-122.2493459124585
 20
147.4160855189214
 30
0.0
 40
3.000000038662472
100
AcDbArc
 50
180.0
 51
270.0
  0
ARC
  5
2B5
330
1F
100
AcDbEntity
  8
0-2
  6
Continuous
 62
     2
370
     9
100
AcDbCircle
 10
-135.2493640580455
 20
147.4160855189214
 30
0.0
 40
3.000000038662472
100
AcDbArc
 50
270.0
 51
0.0
  0
ARC
  5
2B6
330
1F
100
AcDbEntity
  8
0-2
  6
Continuous
 62
     2
370
     9
100
AcDbCircle
 10
-135.2493640580455
 20
186.4161399556824
 30
0.0
 40
3.000000038662472
100
AcDbArc
 50
0.0
 51
90.0
  0
ARC
  5
2B7
330
1F
100
AcDbEntity
  8
0-2
  6
Continuous
 62
     2
370
     9
100
AcDbCircle
 10
-133.749359109249
 20
187.916070672532
 30
0.0
 40
3.000000038662472
100
AcDbArc
 50
0.0
 51
90.0
  0
ARC
  5
2B8
330
1F
100
AcDbEntity
  8
0-2
  6
Continuous
 62
     2
370
     9
100
AcDbCircle
 10
-122.2493459124585
 20
186.4161399556824
 30
0.0
 40
3.000000038662472
100
AcDbArc
 50
90.0
 51
180.0
  0
ARC
  5
2B9
330
1F
100
AcDbEntity
  8
0-2
  6
Continuous
 62
     2
370
     9
100
AcDbCircle
 10
-123.749350861255
 20
187.916070672532
 30
0.0
 40
3.000000038662472
100
AcDbArc
 50
90.0
 51
180.0
  0
ARC
  5
2BA
330
1F
100
AcDbEntity
  8
0-2
  6
Continuous
 62
     2
370
     9
100
AcDbCircle
 10
-123.749350861255
 20
197.9160789205261
 30
0.0
 40
3.000000038662472
100
AcDbArc
 50
180.0
 51
270.0
  0
ARC
  5
2BB
330
1F
100
AcDbEntity
  8
0-2
  6
Continuous
 62
     2
370
     9
100
AcDbCircle
 10
-122.2493459124585
 20
199.4160838693226
 30
0.0
 40
3.000000038662472
100
AcDbArc
 50
180.0
 51
270.0
  0
ARC
  5
2BC
330
1F
100
AcDbEntity
  8
0-2
  6
Continuous
 62
     2
370
     9
100
AcDbCircle
 10
-135.2493640580455
 20
199.4160838693226
 30
0.0
 40
3.000000038662472
100
AcDbArc
 50
270.0
 51
0.0
  0
ARC
  5
2BD
330
1F
100
AcDbEntity
  8
0-2
  6
Continuous
 62
     2
370
     9
100
AcDbCircle
 10
-133.749359109249
 20
197.9160789205261
 30
0.0
 40
3.000000038662472
100
AcDbArc
 50
270.0
 51
0.0
  0
ARC
  5
2BE
330
1F
100
AcDbEntity
  8
0-1
  6
Continuous
 62
     3
370
     9
100
AcDbCircle
 10
-210.8828100039914
 20
225.4161201604966
 30
0.0
 40
288.4473625389305
100
AcDbArc
 50
354.5292205810548
 51
0.0000000000000374
  0
ARC
  5
2BF
330
1F
100
AcDbEntity
  8
0-1
  6
Continuous
 62
     3
370
     9
100
AcDbCircle
 10
339.3886644734157
 20
225.4161201604966
 30
0.0
 40
268.5497861295133
100
AcDbArc
 50
180.0
 51
185.8775024414062
  0
ARC
  5
2C0
330
1F
100
AcDbEntity
  8
0-1
  6
Continuous
 62
     3
370
     9
100
AcDbCircle
 10
53.3841825134283
 20
225.4161201604966
 30
0.0
 40
288.4473625389305
100
AcDbArc
 50
180.0
 51
185.4707794189453
  0
ARC
  5
2C1
330
1F
100
AcDbEntity
  8
0-1
  6
Continuous
 62
     3
370
     9
100
AcDbCircle
 10
-496.8873661959256
 20
225.4161201604966
 30
0.0
 40
268.5497861295133
100
AcDbArc
 50
354.1224975585938
 51
0.000000000000031
  0
ARC
  5
2C2
330
1F
100
AcDbEntity
  8
0-2
  6
Continuous
 62
     2
370
     9
100
AcDbCircle
 10
54.25061779636752
 20
217.9160954165143
 30
0.0
 40
3.000000038662472
100
AcDbArc
 50
0.0
 51
90.0
  0
ARC
  5
2C3
330
1F
100
AcDbEntity
  8
0-2
  6
Continuous
 62
     2
370
     9
100
AcDbCircle
 10
46.99258919892245
 20
184.8355191126714
 30
0.0
 40
38.10087358629382
100
AcDbArc
 50
76.71084594726562
 51
108.7417602539062
  0
ARC
  5
2C4
330
1F
100
AcDbEntity
  8
0-2
  6
Continuous
 62
     2
370
     9
100
AcDbCircle
 10
56.75067553232611
 20
219.9161267588918
 30
0.0
 40
2.000000025774982
100
AcDbArc
 50
0.0
 51
90.0
  0
ARC
  5
2C5
330
1F
100
AcDbEntity
  8
0-3
  6
Continuous
 62
     4
370
     9
100
AcDbCircle
 10
-23.74934261326084
 20
225.4161201604966
 30
0.0
 40
43.49998113271353
100
AcDbArc
 50
295.1688690185547
 51
0.0
  0
ARC
  5
2C6
330
1F
100
AcDbEntity
  8
0-2
  6
Continuous
 62
     2
370
     9
100
AcDbCircle
 10
23.25068872911666
 20
225.4161201604966
 30
0.0
 40
10.49999984535011
100
AcDbArc
 50
244.3656768798828
 51
0.0
  0
ARC
  5
2C7
330
1F
100
AcDbEntity
  8
0-2
  6
Continuous
 62
     2
370
     9
100
AcDbCircle
 10
23.25068872911666
 20
225.4161201604966
 30
0.0
 40
9.000000115987417
100
AcDbArc
 50
241.9554443359375
 51
180.0000000000001
  0
CIRCLE
  5
2C8
330
1F
100
AcDbEntity
  8
0-3
  6
Continuous
 62
     4
370
     9
100
AcDbCircle
 10
-23.74934261326084
 20
190.916080570125
 30
0.0
 40
3.000000038662472
  0
CIRCLE
  5
2C9
330
1F
100
AcDbEntity
  8
0-3
  6
Continuous
 62
     4
370
     9
100
AcDbCircle
 10
-23.74934261326084
 20
190.916080570125
 30
0.0
 40
2.000000025774982
  0
CIRCLE
  5
2CA
330
1F
100
AcDbEntity
  8
0-3
  6
JWW_DASHED1
 62
     4
370
     9
100
AcDbCircle
 10
6.128496346304161
 20
242.6661399556824
 30
0.0
 40
3.000000038662472
  0
CIRCLE
  5
2CB
330
1F
100
AcDbEntity
  8
0-3
  6
JWW_DASHED1
 62
     4
370
     9
100
AcDbCircle
 10
6.128496346304161
 20
242.6661399556824
 30
0.0
 40
2.000000025774982
  0
CIRCLE
  5
2CC
330
1F
100
AcDbEntity
  8
0-3
  6
JWW_DASHED1
 62
     4
370
     9
100
AcDbCircle
 10
-53.62725580477272
 20
242.6661399556824
 30
0.0
 40
3.000000038662472
  0
CIRCLE
  5
2CD
330
1F
100
AcDbEntity
  8
0-3
  6
JWW_DASHED1
 62
     4
370
     9
100
AcDbCircle
 10
-53.62725580477272
 20
242.6661399556824
 30
0.0
 40
2.000000025774982
  0
ARC
  5
2CE
330
1F
100
AcDbEntity
  8
0-3
  6
JWW_DASHED1
 62
     4
370
     9
100
AcDbCircle
 10
-23.74934261326084
 20
225.4161201604966
 30
0.0
 40
43.49998113271353
100
AcDbArc
 50
0.0
 51
64.83113098144531
  0
ARC
  5
2CF
330
1F
100
AcDbEntity
  8
0-3
  6
Continuous
 62
     4
370
     9
100
AcDbCircle
 10
-23.74934261326084
 20
225.4161201604966
 30
0.0
 40
14.99999961337528
100
AcDbArc
 50
246.4217376708984
 51
0.0
  0
ARC
  5
2D0
330
1F
100
AcDbEntity
  8
0-3
  6
JWW_DASHED1
 62
     4
370
     9
100
AcDbCircle
 10
-23.74934261326084
 20
225.4161201604966
 30
0.0
 40
15.00000309299778
100
AcDbArc
 50
0.0
 51
246.4217376708984
  0
ARC
  5
2D1
330
1F
100
AcDbEntity
  8
0-3
  6
Continuous
 62
     4
370
     9
100
AcDbCircle
 10
-23.74934261326084
 20
225.4161201604966
 30
0.0
 40
43.49998113271353
100
AcDbArc
 50
213.0914611816407
 51
244.8311309814453
  0
ARC
  5
2D2
330
1F
100
AcDbEntity
  8
0-3
  6
JWW_DASHED1
 62
     4
370
     9
100
AcDbCircle
 10
-23.74934261326084
 20
225.4161201604966
 30
0.0
 40
43.49998113271353
100
AcDbArc
 50
115.1688690185547
 51
213.0914611816407
  0
TEXT
  5
2D3
330
1F
100
AcDbEntity
  8
0-E
  6
Continuous
 62
     6
370
     5
100
AcDbText
 10
100.3901583501048
 20
57.26991693652065
 30
0.0
 40
9.144
  1
蓋：ＦＣ２００
 41
0.7928571428571429
  7
ＭＳ ゴシック
100
AcDbText
  0
TEXT
  5
2D4
330
1F
100
AcDbEntity
  8
0-E
  6
Continuous
 62
     6
370
     5
100
AcDbText
 10
103.1794979827062
 20
21.26990951332596
 30
0.0
 40
9.144
  1
枠：ＦＣ２００
 41
0.7928571428571429
  7
ＭＳ ゴシック
100
AcDbText
  0
TEXT
  5
2D5
330
1F
100
AcDbEntity
  8
0-E
  6
Continuous
 62
     6
370
     5
100
AcDbText
 10
107.665770516226
 20
42.26990456452948
 30
0.0
 40
9.144
  1
樹脂系塗装
 41
0.7899999999999998
  7
ＭＳ ゴシック
100
AcDbText
  0
TEXT
  5
2D6
330
1F
100
AcDbEntity
  8
0-E
  6
Continuous
 62
     6
370
     5
100
AcDbText
 10
112.7794608667328
 20
6.269897141334788
 30
0.0
 40
9.144
  1
樹脂系塗装
 41
0.7899999999999998
  7
ＭＳ ゴシック
100
AcDbText
  0
TEXT
  5
2D7
330
1F
100
AcDbEntity
  8
0-F
  6
Continuous
 62
     3
370
     9
100
AcDbText
 10
-290.1229947854526
 20
-89.40193906999862
 30
0.0
 40
9.144
  1
150
 50
90.0
 41
0.6916666666666664
  7
ＭＳ ゴシック
100
AcDbText
  0
TEXT
  5
2D8
330
1F
100
AcDbEntity
  8
0-F
  6
Continuous
 62
     3
370
     9
100
AcDbText
 10
-267.3200913265738
 20
-132.3019483489919
 30
0.0
 40
9.144
  1
60
 50
90.0
 41
0.6875
  7
ＭＳ ゴシック
100
AcDbText
  0
TEXT
  5
2D9
330
1F
100
AcDbEntity
  8
0-F
  6
Continuous
 62
     3
370
     9
100
AcDbText
 10
-107.3430454941202
 20
-0.0700637070868487
 30
0.0
 40
9.144
  1
3.5
 50
90.0
 41
0.6916666666666668
  7
ＭＳ ゴシック
100
AcDbText
  0
TEXT
  5
2DA
330
1F
100
AcDbEntity
  8
0-F
  6
Continuous
 62
     3
370
     9
100
AcDbText
 10
-95.47433230326823
 20
34.80079742638549
 30
0.0
 40
9.144
  1
293×183
 41
0.6968749999999999
  7
ＭＳ ゴシック
100
AcDbText
  0
TEXT
  5
2DB
330
1F
100
AcDbEntity
  8
0-F
  6
Continuous
 62
     3
370
     9
100
AcDbText
 10
-95.47433230326823
 20
63.73641028533815
 30
0.0
 40
9.144
  1
326×216
 41
0.6968749999999999
  7
ＭＳ ゴシック
100
AcDbText
  0
TEXT
  5
2DC
330
1F
100
AcDbEntity
  8
0-F
  6
Continuous
 62
     3
370
     9
100
AcDbText
 10
-95.47433230326823
 20
-209.2762561591825
 30
0.0
 40
9.144
  1
302×192
 41
0.6968749999999999
  7
ＭＳ ゴシック
100
AcDbText
  0
TEXT
  5
2DD
330
1F
100
AcDbEntity
  8
0-F
  6
Continuous
 62
     3
370
     9
100
AcDbText
 10
-55.37434673725791
 20
-179.2277208379726
 30
0.0
 40
9.144
  1
55
 41
0.6875
  7
ＭＳ ゴシック
100
AcDbText
  0
TEXT
  5
2DE
330
1F
100
AcDbEntity
  8
0-E
  6
Continuous
 62
     6
370
     5
100
AcDbText
 10
104.0820005890724
 20
-180.1231808121069
 30
0.0
 40
9.144
  1
電気めっき
 41
0.7899999999999998
  7
ＭＳ ゴシック
100
AcDbText
  0
TEXT
  5
2DF
330
1F
100
AcDbEntity
  8
0-E
  6
Continuous
 62
     6
370
     5
100
AcDbText
 10
105.052420972835
 20
-149.6777643873814
 30
0.0
 40
9.144
  1
鎖：ＳＷＲＭ
 41
0.7916666666666666
  7
ＭＳ ゴシック
100
AcDbText
  0
TEXT
  5
2E0
330
1F
100
AcDbEntity
  8
0-E
  6
Continuous
 62
     6
370
     5
100
AcDbText
 10
87.78912751580378
 20
-248.6425339054347
 30
0.0
 40
9.144
  1
樹脂系塗装
 41
0.7899999999999998
  7
ＭＳ ゴシック
100
AcDbText
  0
TEXT
  5
2E1
330
1F
100
AcDbEntity
  8
0-1
  6
Continuous
 62
     3
370
     9
100
AcDbText
 10
-40.06883006641228
 20
299.6618428563369
 30
0.0
 40
9.144
  1
Ｈ
 50
180.0
 41
0.6750000000000007
  7
ＭＳ ゴシック
100
AcDbText
  0
TEXT
  5
2E2
330
1F
100
AcDbEntity
  8
0-1
  6
Continuous
 62
     3
370
     9
100
AcDbText
 10
-54.06882676721462
 20
299.6618428563369
 30
0.0
 40
9.144
  1
Ｋ
 50
180.0
 41
0.6750000000000007
  7
ＭＳ ゴシック
100
AcDbText
  0
TEXT
  5
2E3
330
1F
100
AcDbEntity
  8
0-1
  6
Continuous
 62
     3
370
     9
100
AcDbText
 10
-68.06882346801697
 20
299.6618428563369
 30
0.0
 40
9.144
  1
Ｂ
 50
180.0
 41
0.6750000000000007
  7
ＭＳ ゴシック
100
AcDbText
  0
TEXT
  5
2E4
330
1F
100
AcDbEntity
  8
0-1
  6
Continuous
 62
     3
370
     9
100
AcDbText
 10
-82.59445658404314
 20
299.6618428563369
 30
0.0
 40
9.144
  1
－
 50
180.0
 41
0.6750000000000007
  7
ＭＳ ゴシック
100
AcDbText
  0
TEXT
  5
2E5
330
1F
100
AcDbEntity
  8
0-1
  6
Continuous
 62
     3
370
     9
100
AcDbText
 10
-96.06874263767494
 20
299.6618428563369
 30
0.0
 40
9.144
  1
３
 50
180.0
 41
0.6750000000000007
  7
ＭＳ ゴシック
100
AcDbText
  0
TEXT
  5
2E6
330
1F
100
AcDbEntity
  8
0-1
  6
Continuous
 62
     3
370
     9
100
AcDbText
 10
-110.9398512340643
 20
299.6618428563369
 30
0.0
 40
9.144
  1
Ｃ
 50
180.0
 41
0.6750000000000007
  7
ＭＳ ゴシック
100
AcDbText
  0
TEXT
  5
2E7
330
1F
100
AcDbEntity
  8
0-F
  6
Continuous
 62
     4
370
     9
100
AcDbText
 10
-53.3382579690463
 20
349.3385047941536
 30
0.0
 40
8.001
  1
反対側鋳出はＫＡＮＥＳＯ
 41
1.026190476190476
  7
ＭＳ ゴシック
100
AcDbText
  0
TEXT
  5
2E8
330
1F
100
AcDbEntity
  8
0-E
  6
Continuous
 62
     6
370
     5
100
AcDbText
 10
105.0524343345855
 20
-163.7809434942226
 30
0.0
 40
9.144
  1
Φ4×300
 41
0.7937500000000002
  7
ＭＳ ゴシック
100
AcDbText
  0
TEXT
  5
2E9
330
1F
100
AcDbEntity
  8
0-E
  6
Continuous
 62
     6
370
     5
100
AcDbText
 10
64.9558913988274
 20
-233.6425215334435
 30
0.0
 40
9.144
  1
固定金具Ａ：ＦＣ２００
 41
0.7954545454545454
  7
ＭＳ ゴシック
100
AcDbText
  0
TEXT
  5
2EA
330
1F
100
AcDbEntity
  8
0-E
  6
Continuous
 62
     6
370
     5
100
AcDbText
 10
-174.9229284121946
 20
-101.6351453523308
 30
0.0
 40
9.144
  1
樹脂系塗装
 41
0.7899999999999998
  7
ＭＳ ゴシック
100
AcDbText
  0
TEXT
  5
2EB
330
1F
100
AcDbEntity
  8
0-E
  6
Continuous
 62
     6
370
     5
100
AcDbText
 10
-197.7561459711842
 20
-86.63513298033962
 30
0.0
 40
9.144
  1
固定金具Ｂ：ＦＣ２００
 41
0.7954545454545454
  7
ＭＳ ゴシック
100
AcDbText
  0
TEXT
  5
2EC
330
1F
100
AcDbEntity
  8
F-4
  6
Continuous
 62
     2
370
     9
100
AcDbText
 10
-80.53315444022451
 20
-346.9984901118852
 30
0.0
 40
9.144
  1
散水栓・量水器ボックス　ＨＫＢ－３ｃ
 41
1.118055555555556
  7
ＭＳ ゴシック
100
AcDbText
  0
TEXT
  5
2ED
330
1F
100
AcDbEntity
  8
0-5
  6
Continuous
 62
     6
370
     5
100
AcDbText
 10
-226.8415290023524
 20
82.23826558153006
 30
0.0
 40
6.858000000000001
  1
４８×９８
 41
0.9999999999999999
  7
ＭＳ ゴシック
100
AcDbText
  0
TEXT
  5
2EE
330
1F
100
AcDbEntity
  8
0-5
  6
Continuous
 62
     6
370
     5
100
AcDbText
 10
-247.9884192381394
 20
90.2353010869572
 30
0.0
 40
6.858000000000001
  1
鋳出スペース
 41
0.9999999999999998
  7
ＭＳ ゴシック
100
AcDbText
  0
LINE
  5
2EF
330
1F
100
AcDbEntity
  8
0-4
  6
Continuous
 62
     7
370
     9
100
AcDbLine
 10
-180.9229473168604
 20
80.16094281659105
 30
0.0
 11
-248.7332362977846
 21
80.16094281659105
 31
0.0
  0
LINE
  5
2F0
330
1F
100
AcDbEntity
  8
0-4
  6
Continuous
 62
     7
370
     9
100
AcDbLine
 10
-110.7718957074416
 20
201.6661284084906
 30
0.0
 11
-180.9229473168604
 21
80.16094281659105
 31
0.0
  0
LINE
  5
2F1
330
1F
100
AcDbEntity
  8
0-5
  6
Continuous
 62
     7
370
     9
100
AcDbLine
 10
-110.7718957074416
 20
201.6661284084906
 30
0.0
 11
-113.6420214501798
 21
194.737031914656
 31
0.0
  0
LINE
  5
2F2
330
1F
100
AcDbEntity
  8
0-5
  6
Continuous
 62
     7
370
     9
100
AcDbLine
 10
-110.7718957074416
 20
201.6661284084906
 30
0.0
 11
-115.337606425007
 21
195.7159783563064
 31
0.0
  0
ENDSEC
  0
SECTION
  2
OBJECTS
  0
DICTIONARY
  5
C
330
0
100
AcDbDictionary
281
     1
  3
ACAD_GROUP
350
D
  3
ACAD_LAYOUT
350
1A
  3
ACAD_MLEADERSTYLE
350
2F4
  3
ACAD_MLINESTYLE
350
17
  3
ACAD_PLOTSETTINGS
350
19
  3
ACAD_PLOTSTYLENAME
350
E
  3
ACAD_TABLESTYLE
350
2F3
  3
ACAD_VISUALSTYLE
350
2A
  0
DICTIONARY
  5
D
102
{ACAD_REACTORS
330
C
102
}
330
C
100
AcDbDictionary
281
     1
  0
DICTIONARY
  5
1A
102
{ACAD_REACTORS
330
C
102
}
330
C
100
AcDbDictionary
281
     1
  3
Layout1
350
1E
  3
Layout2
350
26
  3
Model
350
22
  0
DICTIONARY
  5
2F4
102
{ACAD_REACTORS
330
C
102
}
330
C
100
AcDbDictionary
281
     1
  0
DICTIONARY
  5
17
102
{ACAD_REACTORS
330
C
102
}
330
C
100
AcDbDictionary
281
     1
  3
Standard
350
18
  0
DICTIONARY
  5
19
102
{ACAD_REACTORS
330
C
102
}
330
C
100
AcDbDictionary
281
     1
  0
ACDBDICTIONARYWDFLT
  5
E
102
{ACAD_REACTORS
330
C
102
}
330
C
100
AcDbDictionary
281
     1
  3
Normal
350
F
100
AcDbDictionaryWithDefault
340
F
  0
DICTIONARY
  5
2F3
102
{ACAD_REACTORS
330
C
102
}
330
C
100
AcDbDictionary
281
     1
  0
DICTIONARY
  5
2A
102
{ACAD_REACTORS
330
C
102
}
330
C
100
AcDbDictionary
281
     1
  3
2dWireframe
350
2F
  3
3D Hidden
350
31
  3
3dWireframe
350
30
  3
Basic
350
32
  3
Brighten
350
36
  3
ColorChange
350
3A
  3
Conceptual
350
34
  3
Dim
350
35
  3
Facepattern
350
39
  3
Flat
350
2B
  3
FlatWithEdges
350
2C
  3
Gouraud
350
2D
  3
GouraudWithEdges
350
2E
  3
Linepattern
350
38
  3
Realistic
350
33
  3
Thicken
350
37
  0
LAYOUT
  5
1E
102
{ACAD_REACTORS
330
1A
102
}
330
1A
100
AcDbPlotSettings
  1

  2
none_device
  4

  6

 40
0.0
 41
0.0
 42
0.0
 43
0.0
 44
0.0
 45
0.0
 46
0.0
 47
0.0
 48
0.0
 49
0.0
140
0.0
141
0.0
142
1.0
143
1.0
 70
   688
 72
     0
 73
     0
 74
     5
  7

 75
    16
 76
     0
 77
     5
 78
   300
147
1.0
148
0.0
149
0.0
100
AcDbLayout
  1
Layout1
 70
     1
 71
     1
 10
0.0
 20
0.0
 11
420.0
 21
297.0
 12
0.0
 22
0.0
 32
0.0
 14
1.000000000000000E+20
 24
1.000000000000000E+20
 34
1.000000000000000E+20
 15
-1.000000000000000E+20
 25
-1.000000000000000E+20
 35
-1.000000000000000E+20
146
0.0
 13
0.0
 23
0.0
 33
0.0
 16
1.0
 26
0.0
 36
0.0
 17
0.0
 27
1.0
 37
0.0
 76
     0
330
1B
  0
LAYOUT
  5
26
102
{ACAD_REACTORS
330
1A
102
}
330
1A
100
AcDbPlotSettings
  1

  2
none_device
  4

  6

 40
0.0
 41
0.0
 42
0.0
 43
0.0
 44
0.0
 45
0.0
 46
0.0
 47
0.0
 48
0.0
 49
0.0
140
0.0
141
0.0
142
1.0
143
1.0
 70
   688
 72
     0
 73
     0
 74
     5
  7

 75
    16
 76
     0
 77
     5
 78
   300
147
1.0
148
0.0
149
0.0
100
AcDbLayout
  1
Layout2
 70
     1
 71
     2
 10
0.0
 20
0.0
 11
0.0
 21
0.0
 12
0.0
 22
0.0
 32
0.0
 14
0.0
 24
0.0
 34
0.0
 15
0.0
 25
0.0
 35
0.0
146
0.0
 13
0.0
 23
0.0
 33
0.0
 16
1.0
 26
0.0
 36
0.0
 17
0.0
 27
1.0
 37
0.0
 76
     0
330
23
  0
LAYOUT
  5
22
102
{ACAD_REACTORS
330
1A
102
}
330
1A
100
AcDbPlotSettings
  1

  2
none_device
  4

  6

 40
0.0
 41
0.0
 42
0.0
 43
0.0
 44
0.0
 45
0.0
 46
0.0
 47
0.0
 48
0.0
 49
0.0
140
0.0
141
0.0
142
1.0
143
1.0
 70
  1712
 72
     0
 73
     0
 74
     0
  7

 75
     0
 76
     0
 77
     5
 78
   300
147
1.0
148
0.0
149
0.0
100
AcDbLayout
  1
Model
 70
     1
 71
     0
 10
-630.0
 20
-445.5
 11
630.0
 21
445.5
 12
0.0
 22
0.0
 32
0.0
 14
-630.0
 24
-445.5
 34
0.0
 15
630.0
 25
445.5
 35
0.0
146
0.0
 13
0.0
 23
0.0
 33
0.0
 16
1.0
 26
0.0
 36
0.0
 17
0.0
 27
1.0
 37
0.0
 76
     0
330
1F
331
29
  0
MLINESTYLE
  5
18
102
{ACAD_REACTORS
330
17
102
}
330
17
100
AcDbMlineStyle
  2
Standard
 70
     0
  3

 62
   256
 51
90.0
 52
90.0
 71
     2
 49
0.5
 62
   256
  6
BYLAYER
 49
-0.5
 62
   256
  6
BYLAYER
  0
ACDBPLACEHOLDER
  5
F
102
{ACAD_REACTORS
330
E
102
}
330
E
  0
VISUALSTYLE
  5
2F
102
{ACAD_REACTORS
330
2A
102
}
330
2A
100
AcDbVisualStyle
  2
2dWireframe
 70
     4
 71
     0
 72
     2
 73
     0
 90
        0
 40
-0.6
 41
-30.0
 62
     5
 63
     7
421
 16777215
 74
     1
 91
        4
 64
     7
 65
   257
 75
     1
175
     1
 42
1.0
 92
        0
 66
   257
 43
1.0
 76
     1
 77
     6
 78
     2
 67
     7
 79
     5
170
     0
171
     0
290
     0
174
     0
 93
        1
 44
0.0
173
     0
291
     0
 45
0.0
1001
ACAD
1000
AcDbSavedByObjectVersion
1070
     0
  0
VISUALSTYLE
  5
31
102
{ACAD_REACTORS
330
2A
102
}
330
2A
100
AcDbVisualStyle
  2
3D Hidden
 70
     6
 71
     1
 72
     2
 73
     2
 90
        0
 40
-0.6
 41
-30.0
 62
     5
 63
     7
421
 16777215
 74
     2
 91
        2
 64
     7
 65
   257
 75
     2
175
     1
 42
40.0
 92
        0
 66
   257
 43
1.0
 76
     1
 77
     6
 78
     2
 67
     7
 79
     3
170
     0
171
     0
290
     0
174
     0
 93
        1
 44
0.0
173
     0
291
     0
 45
0.0
1001
ACAD
1000
AcDbSavedByObjectVersion
1070
     0
  0
VISUALSTYLE
  5
30
102
{ACAD_REACTORS
330
2A
102
}
330
2A
100
AcDbVisualStyle
  2
3dWireframe
 70
     5
 71
     0
 72
     2
 73
     0
 90
        0
 40
-0.6
 41
-30.0
 62
     5
 63
     7
421
 16777215
 74
     1
 91
        4
 64
     7
 65
   257
 75
     1
175
     1
 42
1.0
 92
        0
 66
   257
 43
1.0
 76
     1
 77
     6
 78
     2
 67
     7
 79
     5
170
     0
171
     0
290
     0
174
     0
 93
        1
 44
0.0
173
     0
291
     0
 45
0.0
1001
ACAD
1000
AcDbSavedByObjectVersion
1070
     0
  0
VISUALSTYLE
  5
32
102
{ACAD_REACTORS
330
2A
102
}
330
2A
100
AcDbVisualStyle
  2
Basic
 70
     7
 71
     1
 72
     0
 73
     1
 90
        0
 40
-0.6
 41
-30.0
 62
     5
 63
     7
421
 16777215
 74
     0
 91
        4
 64
     7
 65
   257
 75
     1
175
     1
 42
1.0
 92
        8
 66
     7
 43
1.0
 76
     1
 77
     6
 78
     2
 67
     7
 79
     5
170
     0
171
     0
290
     0
174
     0
 93
        1
 44
0.0
173
     0
291
     1
 45
0.0
1001
ACAD
1000
AcDbSavedByObjectVersion
1070
     0
  0
VISUALSTYLE
  5
36
102
{ACAD_REACTORS
330
2A
102
}
330
2A
100
AcDbVisualStyle
  2
Brighten
 70
    12
 71
     2
 72
     2
 73
     0
 90
        0
 40
-0.6
 41
-30.0
 62
     5
 63
     7
421
 16777215
 74
     1
 91
        4
 64
     7
 65
   257
 75
     1
175
     1
 42
1.0
 92
        8
 66
     7
 43
1.0
 76
     1
 77
     6
 78
     2
 67
     7
 79
     5
170
     0
171
     0
290
     0
174
     0
 93
        1
 44
50.0
173
     0
291
     1
 45
0.0
1001
ACAD
1000
AcDbSavedByObjectVersion
1070
     0
  0
VISUALSTYLE
  5
3A
102
{ACAD_REACTORS
330
2A
102
}
330
2A
100
AcDbVisualStyle
  2
ColorChange
 70
    16
 71
     2
 72
     2
 73
     3
 90
        0
 40
-0.6
 41
-30.0
 62
     5
 63
     8
421
  8421504
 74
     1
 91
        4
 64
     7
 65
   257
 75
     1
175
     1
 42
1.0
 92
        8
 66
     8
424
  8421504
 43
1.0
 76
     1
 77
     6
 78
     2
 67
     7
 79
     5
170
     0
171
     0
290
     0
174
     0
 93
        1
 44
0.0
173
     0
291
     1
 45
0.0
1001
ACAD
1000
AcDbSavedByObjectVersion
1070
     0
  0
VISUALSTYLE
  5
34
102
{ACAD_REACTORS
330
2A
102
}
330
2A
100
AcDbVisualStyle
  2
Conceptual
 70
     9
 71
     3
 72
     2
 73
     0
 90
        0
 40
-0.6
 41
-30.0
 62
     5
 63
     7
421
 16777215
 74
     2
 91
        2
 64
     7
 65
   257
 75
     1
175
     1
 42
40.0
 92
        8
 66
     7
 43
1.0
 76
     1
 77
     6
 78
     2
 67
     7
 79
     3
170
     0
171
     0
290
     0
174
     0
 93
        1
 44
0.0
173
     0
291
     0
 45
0.0
1001
ACAD
1000
AcDbSavedByObjectVersion
1070
     0
  0
VISUALSTYLE
  5
35
102
{ACAD_REACTORS
330
2A
102
}
330
2A
100
AcDbVisualStyle
  2
Dim
 70
    11
 71
     2
 72
     2
 73
     0
 90
        0
 40
-0.6
 41
-30.0
 62
     5
 63
     7
421
 16777215
 74
     1
 91
        4
 64
     7
 65
   257
 75
     1
175
     1
 42
1.0
 92
        8
 66
     7
 43
1.0
 76
     1
 77
     6
 78
     2
 67
     7
 79
     5
170
     0
171
     0
290
     0
174
     0
 93
        1
 44
-50.0
173
     0
291
     1
 45
0.0
1001
ACAD
1000
AcDbSavedByObjectVersion
1070
     0
  0
VISUALSTYLE
  5
39
102
{ACAD_REACTORS
330
2A
102
}
330
2A
100
AcDbVisualStyle
  2
Facepattern
 70
    15
 71
     2
 72
     2
 73
     0
 90
        0
 40
-0.6
 41
-30.0
 62
     5
 63
     7
421
 16777215
 74
     1
 91
        4
 64
     7
 65
   257
 75
     1
175
     1
 42
1.0
 92
        8
 66
     7
 43
1.0
 76
     1
 77
     6
 78
     2
 67
     7
 79
     5
170
     0
171
     0
290
     0
174
     0
 93
        1
 44
0.0
173
     0
291
     1
 45
0.0
1001
ACAD
1000
AcDbSavedByObjectVersion
1070
     0
  0
VISUALSTYLE
  5
2B
102
{ACAD_REACTORS
330
2A
102
}
330
2A
100
AcDbVisualStyle
  2
Flat
 70
     0
 71
     2
 72
     1
 73
     1
 90
        2
 40
-0.6
 41
30.0
 62
     5
 63
     7
421
 16777215
 74
     0
 91
        4
 64
     7
 65
   257
 75
     1
175
     1
 42
1.0
 92
        8
 66
     7
 43
1.0
 76
     1
 77
     6
 78
     2
 67
     7
 79
     5
170
     0
171
     0
290
     0
174
     0
 93
       13
 44
0.0
173
     0
291
     1
 45
0.0
1001
ACAD
1000
AcDbSavedByObjectVersion
1070
     0
  0
VISUALSTYLE
  5
2C
102
{ACAD_REACTORS
330
2A
102
}
330
2A
100
AcDbVisualStyle
  2
FlatWithEdges
 70
     1
 71
     2
 72
     1
 73
     1
 90
        2
 40
-0.6
 41
30.0
 62
     5
 63
     7
421
 16777215
 74
     1
 91
        4
 64
     7
 65
   257
 75
     1
175
     1
 42
1.0
 92
        0
 66
   257
 43
1.0
 76
     1
 77
     6
 78
     2
 67
     7
 79
     5
170
     0
171
     0
290
     0
174
     0
 93
       13
 44
0.0
173
     0
291
     1
 45
0.0
1001
ACAD
1000
AcDbSavedByObjectVersion
1070
     0
  0
VISUALSTYLE
  5
2D
102
{ACAD_REACTORS
330
2A
102
}
330
2A
100
AcDbVisualStyle
  2
Gouraud
 70
     2
 71
     2
 72
     2
 73
     1
 90
        2
 40
-0.6
 41
30.0
 62
     5
 63
     7
421
 16777215
 74
     0
 91
        4
 64
     7
 65
   257
 75
     1
175
     1
 42
1.0
 92
        0
 66
     7
 43
1.0
 76
     1
 77
     6
 78
     2
 67
     7
 79
     5
170
     0
171
     0
290
     0
174
     0
 93
       13
 44
0.0
173
     0
291
     1
 45
0.0
1001
ACAD
1000
AcDbSavedByObjectVersion
1070
     0
  0
VISUALSTYLE
  5
2E
102
{ACAD_REACTORS
330
2A
102
}
330
2A
100
AcDbVisualStyle
  2
GouraudWithEdges
 70
     3
 71
     2
 72
     2
 73
     1
 90
        2
 40
-0.6
 41
30.0
 62
     5
 63
     7
421
 16777215
 74
     1
 91
        4
 64
     7
 65
   257
 75
     1
175
     1
 42
1.0
 92
        0
 66
   257
 43
1.0
 76
     1
 77
     6
 78
     2
 67
     7
 79
     5
170
     0
171
     0
290
     0
174
     0
 93
       13
 44
0.0
173
     0
291
     1
 45
0.0
1001
ACAD
1000
AcDbSavedByObjectVersion
1070
     0
  0
VISUALSTYLE
  5
38
102
{ACAD_REACTORS
330
2A
102
}
330
2A
100
AcDbVisualStyle
  2
Linepattern
 70
    14
 71
     2
 72
     2
 73
     0
 90
        0
 40
-0.6
 41
-30.0
 62
     5
 63
     7
421
 16777215
 74
     1
 91
        4
 64
     7
 65
   257
 75
     7
175
     7
 42
1.0
 92
        8
 66
     7
 43
1.0
 76
     1
 77
     6
 78
     2
 67
     7
 79
     5
170
     0
171
     0
290
     0
174
     0
 93
        1
 44
0.0
173
     0
291
     1
 45
0.0
1001
ACAD
1000
AcDbSavedByObjectVersion
1070
     0
  0
VISUALSTYLE
  5
33
102
{ACAD_REACTORS
330
2A
102
}
330
2A
100
AcDbVisualStyle
  2
Realistic
 70
     8
 71
     2
 72
     2
 73
     0
 90
        0
 40
-0.6
 41
-30.0
 62
     5
 63
     7
421
 16777215
 74
     1
 91
        0
 64
     7
 65
   257
 75
     1
175
     1
 42
1.0
 92
        8
 66
     8
424
  7895160
 43
1.0
 76
     1
 77
     6
 78
     2
 67
     7
 79
     5
170
     0
171
     0
290
     0
174
     0
 93
       13
 44
0.0
173
     0
291
     0
 45
0.0
1001
ACAD
1000
AcDbSavedByObjectVersion
1070
     0
  0
VISUALSTYLE
  5
37
102
{ACAD_REACTORS
330
2A
102
}
330
2A
100
AcDbVisualStyle
  2
Thicken
 70
    13
 71
     2
 72
     2
 73
     0
 90
        0
 40
-0.6
 41
-30.0
 62
     5
 63
     7
421
 16777215
 74
     1
 91
        4
 64
     7
 65
   257
 75
     1
175
     1
 42
1.0
 92
       12
 66
     7
 43
1.0
 76
     1
 77
     6
 78
     2
 67
     7
 79
     5
170
     0
171
     0
290
     0
174
     0
 93
        1
 44
0.0
173
     0
291
     1
 45
0.0
1001
ACAD
1000
AcDbSavedByObjectVersion
1070
     0
  0
ENDSEC
  0
EOF
