  0
SECTION
  2
HEADER
  9
$ACADVER
  1
AC1018
  9
$ACADMAINTVER
 70
     0
  9
$DWGCODEPAGE
  3
ANSI_932
  9
$INSBASE
 10
0.0
 20
0.0
 30
0.0
  9
$EXTMIN
 10
-420.0
 20
-297.0
 30
0.0
  9
$EXTMAX
 10
420.0
 20
297.0
 30
0.0
  9
$LIMMIN
 10
-420.0
 20
-297.0
  9
$LIMMAX
 10
420.0
 20
297.0
  9
$ORTHOMODE
 70
     0
  9
$REGENMODE
 70
     1
  9
$FILLMODE
 70
     1
  9
$QTEXTMODE
 70
     0
  9
$MIRRTEXT
 70
     1
  9
$LTSCALE
 40
2.0
  9
$ATTMODE
 70
     1
  9
$TEXTSIZE
 40
2.5
  9
$TRACEWID
 40
1.0
  9
$TEXTSTYLE
  7
Standard
  9
$CLAYER
  8
0
  9
$CELTYPE
  6
ByLayer
  9
$CECOLOR
 62
   256
  9
$CELTSCALE
 40
1.0
  9
$DISPSILH
 70
     0
  9
$DIMSCALE
 40
1.0
  9
$DIMASZ
 40
2.5
  9
$DIMEXO
 40
0.625
  9
$DIMDLI
 40
3.75
  9
$DIMRND
 40
0.0
  9
$DIMDLE
 40
0.0
  9
$DIMEXE
 40
1.25
  9
$DIMTP
 40
0.0
  9
$DIMTM
 40
0.0
  9
$DIMTXT
 40
2.5
  9
$DIMCEN
 40
2.5
  9
$DIMTSZ
 40
0.0
  9
$DIMTOL
 70
     0
  9
$DIMLIM
 70
     0
  9
$DIMTIH
 70
     0
  9
$DIMTOH
 70
     0
  9
$DIMSE1
 70
     0
  9
$DIMSE2
 70
     0
  9
$DIMTAD
 70
     1
  9
$DIMZIN
 70
     8
  9
$DIMBLK
  1

  9
$DIMASO
 70
     1
  9
$DIMSHO
 70
     1
  9
$DIMPOST
  1

  9
$DIMAPOST
  1

  9
$DIMALT
 70
     0
  9
$DIMALTD
 70
     3
  9
$DIMALTF
 40
0.03937007874016
  9
$DIMLFAC
 40
1.0
  9
$DIMTOFL
 70
     1
  9
$DIMTVP
 40
0.0
  9
$DIMTIX
 70
     0
  9
$DIMSOXD
 70
     0
  9
$DIMSAH
 70
     0
  9
$DIMBLK1
  1

  9
$DIMBLK2
  1

  9
$DIMSTYLE
  2
ISO-25
  9
$DIMCLRD
 70
     0
  9
$DIMCLRE
 70
     0
  9
$DIMCLRT
 70
     0
  9
$DIMTFAC
 40
1.0
  9
$DIMGAP
 40
0.625
  9
$DIMJUST
 70
     0
  9
$DIMSD1
 70
     0
  9
$DIMSD2
 70
     0
  9
$DIMTOLJ
 70
     0
  9
$DIMTZIN
 70
     8
  9
$DIMALTZ
 70
     0
  9
$DIMALTTZ
 70
     0
  9
$DIMUPT
 70
     0
  9
$DIMDEC
 70
     2
  9
$DIMTDEC
 70
     2
  9
$DIMALTU
 70
     2
  9
$DIMALTTD
 70
     3
  9
$DIMTXSTY
  7
Standard
  9
$DIMAUNIT
 70
     0
  9
$DIMADEC
 70
     0
  9
$DIMALTRND
 40
0.0
  9
$DIMAZIN
 70
     0
  9
$DIMDSEP
 70
    44
  9
$DIMATFIT
 70
     3
  9
$DIMFRAC
 70
     0
  9
$DIMLDRBLK
  1

  9
$DIMLUNIT
 70
     2
  9
$DIMLWD
 70
    -2
  9
$DIMLWE
 70
    -2
  9
$DIMTMOVE
 70
     0
  9
$LUNITS
 70
     2
  9
$LUPREC
 70
     4
  9
$SKETCHINC
 40
1.0
  9
$FILLETRAD
 40
10.0
  9
$AUNITS
 70
     0
  9
$AUPREC
 70
     0
  9
$MENU
  1
.
  9
$ELEVATION
 40
0.0
  9
$PELEVATION
 40
0.0
  9
$THICKNESS
 40
0.0
  9
$LIMCHECK
 70
     0
  9
$CHAMFERA
 40
0.0
  9
$CHAMFERB
 40
0.0
  9
$CHAMFERC
 40
0.0
  9
$CHAMFERD
 40
0.0
  9
$SKPOLY
 70
     0
  9
$TDCREATE
 40
2459919.400897986
  9
$TDUCREATE
 40
2459919.025897986
  9
$TDUPDATE
 40
2459919.400898125
  9
$TDUUPDATE
 40
2459919.025898125
  9
$TDINDWG
 40
0.0000000116
  9
$TDUSRTIMER
 40
0.0000000116
  9
$USRTIMER
 70
     1
  9
$ANGBASE
 50
0.0
  9
$ANGDIR
 70
     0
  9
$PDMODE
 70
     0
  9
$PDSIZE
 40
0.0
  9
$PLINEWID
 40
0.0
  9
$SPLFRAME
 70
     0
  9
$SPLINETYPE
 70
     6
  9
$SPLINESEGS
 70
     8
  9
$HANDSEED
  5
2B3
  9
$SURFTAB1
 70
     6
  9
$SURFTAB2
 70
     6
  9
$SURFTYPE
 70
     6
  9
$SURFU
 70
     6
  9
$SURFV
 70
     6
  9
$UCSBASE
  2

  9
$UCSNAME
  2

  9
$UCSORG
 10
0.0
 20
0.0
 30
0.0
  9
$UCSXDIR
 10
1.0
 20
0.0
 30
0.0
  9
$UCSYDIR
 10
0.0
 20
1.0
 30
0.0
  9
$UCSORTHOREF
  2

  9
$UCSORTHOVIEW
 70
     0
  9
$UCSORGTOP
 10
0.0
 20
0.0
 30
0.0
  9
$UCSORGBOTTOM
 10
0.0
 20
0.0
 30
0.0
  9
$UCSORGLEFT
 10
0.0
 20
0.0
 30
0.0
  9
$UCSORGRIGHT
 10
0.0
 20
0.0
 30
0.0
  9
$UCSORGFRONT
 10
0.0
 20
0.0
 30
0.0
  9
$UCSORGBACK
 10
0.0
 20
0.0
 30
0.0
  9
$PUCSBASE
  2

  9
$PUCSNAME
  2

  9
$PUCSORG
 10
0.0
 20
0.0
 30
0.0
  9
$PUCSXDIR
 10
1.0
 20
0.0
 30
0.0
  9
$PUCSYDIR
 10
0.0
 20
1.0
 30
0.0
  9
$PUCSORTHOREF
  2

  9
$PUCSORTHOVIEW
 70
     0
  9
$PUCSORGTOP
 10
0.0
 20
0.0
 30
0.0
  9
$PUCSORGBOTTOM
 10
0.0
 20
0.0
 30
0.0
  9
$PUCSORGLEFT
 10
0.0
 20
0.0
 30
0.0
  9
$PUCSORGRIGHT
 10
0.0
 20
0.0
 30
0.0
  9
$PUCSORGFRONT
 10
0.0
 20
0.0
 30
0.0
  9
$PUCSORGBACK
 10
0.0
 20
0.0
 30
0.0
  9
$USERI1
 70
     0
  9
$USERI2
 70
     0
  9
$USERI3
 70
     0
  9
$USERI4
 70
     0
  9
$USERI5
 70
     0
  9
$USERR1
 40
0.0
  9
$USERR2
 40
0.0
  9
$USERR3
 40
0.0
  9
$USERR4
 40
0.0
  9
$USERR5
 40
0.0
  9
$WORLDVIEW
 70
     1
  9
$SHADEDGE
 70
     3
  9
$SHADEDIF
 70
    70
  9
$TILEMODE
 70
     1
  9
$MAXACTVP
 70
    64
  9
$PINSBASE
 10
0.0
 20
0.0
 30
0.0
  9
$PLIMCHECK
 70
     0
  9
$PEXTMIN
 10
1.000000000000000E+20
 20
1.000000000000000E+20
 30
1.000000000000000E+20
  9
$PEXTMAX
 10
-1.000000000000000E+20
 20
-1.000000000000000E+20
 30
-1.000000000000000E+20
  9
$PLIMMIN
 10
0.0
 20
0.0
  9
$PLIMMAX
 10
420.0
 20
297.0
  9
$UNITMODE
 70
     0
  9
$VISRETAIN
 70
     1
  9
$PLINEGEN
 70
     0
  9
$PSLTSCALE
 70
     1
  9
$TREEDEPTH
 70
  3020
  9
$CMLSTYLE
  2
Standard
  9
$CMLJUST
 70
     0
  9
$CMLSCALE
 40
20.0
  9
$PROXYGRAPHICS
 70
     1
  9
$MEASUREMENT
 70
     1
  9
$CELWEIGHT
370
    -1
  9
$ENDCAPS
280
     0
  9
$JOINSTYLE
280
     0
  9
$LWDISPLAY
290
     0
  9
$INSUNITS
 70
     4
  9
$HYPERLINKBASE
  1

  9
$STYLESHEET
  1

  9
$XEDIT
290
     1
  9
$CEPSNTYPE
380
     0
  9
$PSTYLEMODE
290
     1
  9
$FINGERPRINTGUID
  2
{5009A831-5097-4B61-A231-8A3CE4784993}
  9
$VERSIONGUID
  2
{FAEB1C32-E019-11D5-929B-00C0DF256EC4}
  9
$EXTNAMES
290
     1
  9
$PSVPSCALE
 40
0.0
  9
$OLESTARTUP
290
     0
  9
$SORTENTS
280
   127
  9
$INDEXCTL
280
     0
  9
$HIDETEXT
280
     1
  9
$XCLIPFRAME
290
     0
  9
$HALOGAP
280
     0
  9
$OBSCOLOR
 70
   257
  9
$OBSLTYPE
280
     0
  9
$INTERSECTIONDISPLAY
280
     0
  9
$INTERSECTIONCOLOR
 70
   257
  9
$DIMASSOC
280
     2
  9
$PROJECTNAME
  1

  0
ENDSEC
  0
SECTION
  2
CLASSES
  0
CLASS
  1
ACDBDICTIONARYWDFLT
  2
AcDbDictionaryWithDefault
  3
ObjectDBX Classes
 90
        0
 91
        4
280
     0
281
     0
  0
CLASS
  1
VISUALSTYLE
  2
AcDbVisualStyle
  3
ObjectDBX Classes
 90
     4095
 91
        4
280
     0
281
     0
  0
CLASS
  1
MATERIAL
  2
AcDbMaterial
  3
ObjectDBX Classes
 90
     1153
 91
        4
280
     0
281
     0
  0
CLASS
  1
SCALE
  2
AcDbScale
  3
ObjectDBX Classes
 90
     1153
 91
        4
280
     0
281
     0
  0
CLASS
  1
TABLESTYLE
  2
AcDbTableStyle
  3
ObjectDBX Classes
 90
     4095
 91
        4
280
     0
281
     0
  0
CLASS
  1
MLEADERSTYLE
  2
AcDbMLeaderStyle
  3
ACDB_MLEADERSTYLE_CLASS
 90
     4095
 91
        4
280
     0
281
     0
  0
CLASS
  1
SUN
  2
AcDbSun
  3
SCENEOE
 90
     1153
 91
        4
280
     0
281
     0
  0
CLASS
  1
DICTIONARYVAR
  2
AcDbDictionaryVar
  3
ObjectDBX Classes
 90
        0
 91
        4
280
     0
281
     0
  0
CLASS
  1
CELLSTYLEMAP
  2
AcDbCellStyleMap
  3
ObjectDBX Classes
 90
     1152
 91
        4
280
     0
281
     0
  0
ENDSEC
  0
SECTION
  2
TABLES
  0
TABLE
  2
VPORT
  5
8
102
{ACAD_XDICTIONARY
360
26A
102
}
330
0
100
AcDbSymbolTable
 70
     1
  0
VPORT
  5
29
330
8
100
AcDbSymbolTableRecord
100
AcDbViewportTableRecord
  2
*Active
 70
     0
 10
0.0
 20
0.0
 11
1.0
 21
1.0
 12
0.0
 22
0.0
 13
0.0
 23
0.0
 14
10.0
 24
10.0
 15
10.0
 25
10.0
 16
0.0
 26
0.0
 36
1.0
 17
0.0
 27
0.0
 37
0.0
 40
653.4000000000001
 41
1.414141414141414
 42
50.0
 43
0.0
 44
0.0
 50
0.0
 51
0.0
 71
     0
 72
 10000
 73
     1
 74
     3
 75
     0
 76
     0
 77
     0
 78
     0
281
     0
 65
     1
110
0.0
120
0.0
130
0.0
111
1.0
121
0.0
131
0.0
112
0.0
122
1.0
132
0.0
 79
     0
146
0.0
  0
ENDTAB
  0
TABLE
  2
LTYPE
  5
5
330
0
100
AcDbSymbolTable
 70
     5
  0
LTYPE
  5
14
330
5
100
AcDbSymbolTableRecord
100
AcDbLinetypeTableRecord
  2
ByBlock
 70
     0
  3

 72
    65
 73
     0
 40
0.0
  0
LTYPE
  5
15
330
5
100
AcDbSymbolTableRecord
100
AcDbLinetypeTableRecord
  2
ByLayer
 70
     0
  3

 72
    65
 73
     0
 40
0.0
  0
LTYPE
  5
16
330
5
100
AcDbSymbolTableRecord
100
AcDbLinetypeTableRecord
  2
Continuous
 70
     0
  3
Solid line
 72
    65
 73
     0
 40
0.0
  0
LTYPE
  5
6F
330
5
100
AcDbSymbolTableRecord
100
AcDbLinetypeTableRecord
  2
JWW_CENTER1
 70
     0
  3
-----  --  ----------  --  -----
 72
    65
 73
     4
 40
6.773333333333333
 49
4.233333333333333
 74
     0
 49
-0.8466666666666667
 74
     0
 49
0.8466666666666667
 74
     0
 49
-0.8466666666666667
 74
     0
  0
LTYPE
  5
70
330
5
100
AcDbSymbolTableRecord
100
AcDbLinetypeTableRecord
  2
JWW_DASHED1
 70
     0
  3
-  --  --  --  --  --  --  --  -
 72
    65
 73
     2
 40
1.693333333333333
 49
0.8466666666666667
 74
     0
 49
-0.8466666666666667
 74
     0
  0
LTYPE
  5
71
330
5
100
AcDbSymbolTableRecord
100
AcDbLinetypeTableRecord
  2
JWW_PHANTOM2
 70
     0
  3
------------  -  -  ------------
 72
    65
 73
     6
 40
13.54666666666667
 49
10.16
 74
     0
 49
-0.8466666666666667
 74
     0
 49
0.4233333333333333
 74
     0
 49
-0.8466666666666667
 74
     0
 49
0.4233333333333333
 74
     0
 49
-0.8466666666666667
 74
     0
  0
LTYPE
  5
72
330
5
100
AcDbSymbolTableRecord
100
AcDbLinetypeTableRecord
  2
JWW_PHANTOM1
 70
     0
  3
----  -  -  --------  -  -  ----
 72
    65
 73
     6
 40
6.773333333333333
 49
3.386666666666667
 74
     0
 49
-0.8466666666666667
 74
     0
 49
0.4233333333333333
 74
     0
 49
-0.8466666666666667
 74
     0
 49
0.4233333333333333
 74
     0
 49
-0.8466666666666667
 74
     0
  0
ENDTAB
  0
TABLE
  2
LAYER
  5
2
330
0
100
AcDbSymbolTable
 70
    15
  0
LAYER
  5
10
330
2
100
AcDbSymbolTableRecord
100
AcDbLayerTableRecord
  2
0
 70
     0
 62
     7
  6
Continuous
370
    -3
390
F
  0
LAYER
  5
73
330
2
100
AcDbSymbolTableRecord
100
AcDbLayerTableRecord
  2
F-5ﾚｲﾔ
 70
     0
 62
     7
  6
Continuous
370
    -3
390
F
  0
LAYER
  5
74
330
2
100
AcDbSymbolTableRecord
100
AcDbLayerTableRecord
  2
F-4ﾚｲﾔ
 70
     0
 62
     7
  6
Continuous
370
    -3
390
F
  0
LAYER
  5
75
330
2
100
AcDbSymbolTableRecord
100
AcDbLayerTableRecord
  2
F-Fﾚｲﾔ
 70
     0
 62
     7
  6
Continuous
370
    -3
390
F
  0
LAYER
  5
76
330
2
100
AcDbSymbolTableRecord
100
AcDbLayerTableRecord
  2
ハッチ
 70
     0
 62
     7
  6
Continuous
370
    -3
390
F
  0
LAYER
  5
77
330
2
100
AcDbSymbolTableRecord
100
AcDbLayerTableRecord
  2
通り芯
 70
     0
 62
     7
  6
Continuous
370
    -3
390
F
  0
LAYER
  5
78
330
2
100
AcDbSymbolTableRecord
100
AcDbLayerTableRecord
  2
仕上
 70
     0
 62
     7
  6
Continuous
370
    -3
390
F
  0
LAYER
  5
79
330
2
100
AcDbSymbolTableRecord
100
AcDbLayerTableRecord
  2
建具
 70
     0
 62
     7
  6
Continuous
370
    -3
390
F
  0
LAYER
  5
7A
330
2
100
AcDbSymbolTableRecord
100
AcDbLayerTableRecord
  2
その他
 70
     0
 62
     7
  6
Continuous
370
    -3
390
F
  0
LAYER
  5
7B
330
2
100
AcDbSymbolTableRecord
100
AcDbLayerTableRecord
  2
1-4ﾚｲﾔ
 70
     0
 62
     7
  6
Continuous
370
    -3
390
F
  0
LAYER
  5
7C
330
2
100
AcDbSymbolTableRecord
100
AcDbLayerTableRecord
  2
1-6ﾚｲﾔ
 70
     0
 62
     7
  6
Continuous
370
    -3
390
F
  0
LAYER
  5
7D
330
2
100
AcDbSymbolTableRecord
100
AcDbLayerTableRecord
  2
1-3ﾚｲﾔ
 70
     0
 62
     7
  6
Continuous
370
    -3
390
F
  0
LAYER
  5
7E
330
2
100
AcDbSymbolTableRecord
100
AcDbLayerTableRecord
  2
1-0ﾚｲﾔ
 70
     0
 62
     7
  6
Continuous
370
    -3
390
F
  0
LAYER
  5
7F
330
2
100
AcDbSymbolTableRecord
100
AcDbLayerTableRecord
  2
0-7
 70
     0
 62
     7
  6
Continuous
370
    -3
390
F
  0
LAYER
  5
80
330
2
100
AcDbSymbolTableRecord
100
AcDbLayerTableRecord
  2
1-5ﾚｲﾔ
 70
     0
 62
     7
  6
Continuous
370
    -3
390
F
  0
ENDTAB
  0
TABLE
  2
STYLE
  5
3
330
0
100
AcDbSymbolTable
 70
     2
  0
STYLE
  5
11
330
3
100
AcDbSymbolTableRecord
100
AcDbTextStyleTableRecord
  2
Standard
 70
     0
 40
0.0
 41
1.0
 50
0.0
 71
     0
 42
2.5
  3
txt
  4

  0
STYLE
  5
6E
330
3
100
AcDbSymbolTableRecord
100
AcDbTextStyleTableRecord
  2
ＭＳ ゴシック
 70
     0
 40
1.0
 41
1.0
 50
0.0
 71
     0
 42
2.5
  3

  4

1001
ACAD
1000
MS Gothic
1071
    32817
  0
ENDTAB
  0
TABLE
  2
VIEW
  5
6
330
0
100
AcDbSymbolTable
 70
     0
  0
ENDTAB
  0
TABLE
  2
UCS
  5
7
330
0
100
AcDbSymbolTable
 70
     0
  0
ENDTAB
  0
TABLE
  2
APPID
  5
9
330
0
100
AcDbSymbolTable
 70
     2
  0
APPID
  5
12
330
9
100
AcDbSymbolTableRecord
100
AcDbRegAppTableRecord
  2
ACAD
 70
     0
  0
APPID
  5
2A9
330
9
100
AcDbSymbolTableRecord
100
AcDbRegAppTableRecord
  2
ACAD_MLEADERVER
 70
     0
  0
ENDTAB
  0
TABLE
  2
DIMSTYLE
  5
A
330
0
100
AcDbSymbolTable
 70
     1
100
AcDbDimStyleTable
  0
DIMSTYLE
105
27
330
A
100
AcDbSymbolTableRecord
100
AcDbDimStyleTableRecord
  2
ISO-25
 70
     0
 41
2.5
 42
0.625
 43
3.75
 44
1.25
 73
     0
 74
     0
 77
     1
 78
     8
140
2.5
141
2.5
143
0.03937007874016
147
0.625
171
     3
172
     1
178
     0
271
     2
272
     2
274
     3
278
    44
283
     0
284
     8
340
11
  0
ENDTAB
  0
TABLE
  2
BLOCK_RECORD
  5
1
330
0
100
AcDbSymbolTable
 70
     1
  0
BLOCK_RECORD
  5
1F
330
1
100
AcDbSymbolTableRecord
100
AcDbBlockTableRecord
  2
*Model_Space
340
22
  0
BLOCK_RECORD
  5
1B
330
1
100
AcDbSymbolTableRecord
100
AcDbBlockTableRecord
  2
*Paper_Space
340
1E
  0
BLOCK_RECORD
  5
23
330
1
100
AcDbSymbolTableRecord
100
AcDbBlockTableRecord
  2
*Paper_Space0
340
26
  0
ENDTAB
  0
ENDSEC
  0
SECTION
  2
BLOCKS
  0
BLOCK
  5
20
330
1F
100
AcDbEntity
  8
0
100
AcDbBlockBegin
  2
*Model_Space
 70
     0
 10
0.0
 20
0.0
 30
0.0
  3
*Model_Space
  1

  0
ENDBLK
  5
21
330
1F
100
AcDbEntity
  8
0
100
AcDbBlockEnd
  0
BLOCK
  5
1C
330
1B
100
AcDbEntity
 67
     1
  8
0
100
AcDbBlockBegin
  2
*Paper_Space
 70
     0
 10
0.0
 20
0.0
 30
0.0
  3
*Paper_Space
  1

  0
ENDBLK
  5
1D
330
1B
100
AcDbEntity
 67
     1
  8
0
100
AcDbBlockEnd
  0
BLOCK
  5
24
330
23
100
AcDbEntity
  8
0
100
AcDbBlockBegin
  2
*Paper_Space0
 70
     0
 10
0.0
 20
0.0
 30
0.0
  3
*Paper_Space0
  1

  0
ENDBLK
  5
25
330
23
100
AcDbEntity
  8
0
100
AcDbBlockEnd
  0
ENDSEC
  0
SECTION
  2
ENTITIES
  0
TEXT
  5
81
330
1F
100
AcDbEntity
  8
F-5ﾚｲﾔ
  6
Continuous
 62
     2
370
     9
100
AcDbText
 10
-126.1000731257168
 20
-277.4719755049304
 30
0.0
 40
6.096
  1
水はね防止ロ－ト　ＨＰ－２－５０
 41
1.1171875
  7
ＭＳ ゴシック
100
AcDbText
  0
LINE
  5
82
330
1F
100
AcDbEntity
  8
F-4ﾚｲﾔ
  6
Continuous
 62
     2
370
     9
100
AcDbLine
 10
-279.7575239317204
 20
-39.06105206645105
 30
0.0
 11
-280.8959832441299
 21
-39.44053850392089
 31
0.0
  0
LINE
  5
83
330
1F
100
AcDbEntity
  8
F-4ﾚｲﾔ
  6
Continuous
 62
     2
370
     9
100
AcDbLine
 10
-146.0343982530283
 20
-39.06105206645105
 30
0.0
 11
-144.8959389406188
 21
-39.44053850392089
 31
0.0
  0
LINE
  5
84
330
1F
100
AcDbEntity
  8
F-4ﾚｲﾔ
  6
Continuous
 62
     2
370
     9
100
AcDbLine
 10
-279.7575239317204
 20
-39.06105206645105
 30
0.0
 11
-146.0343982530283
 21
-39.06105206645105
 31
0.0
  0
LINE
  5
85
330
1F
100
AcDbEntity
  8
F-Fﾚｲﾔ
  6
Continuous
 62
     7
370
     9
100
AcDbLine
 10
-280.8959832441299
 20
-35.44053308381046
 30
0.0
 11
-280.8959832441299
 21
-16.56622709359874
 31
0.0
  0
LINE
  5
86
330
1F
100
AcDbEntity
  8
F-Fﾚｲﾔ
  6
Continuous
 62
     7
370
     9
100
AcDbLine
 10
-144.8959389406188
 20
-35.44053308381046
 30
0.0
 11
-144.8959389406188
 21
-16.56622709359874
 31
0.0
  0
LINE
  5
87
330
1F
100
AcDbEntity
  8
F-Fﾚｲﾔ
  6
Continuous
 62
     7
370
     9
100
AcDbLine
 10
-280.8959832441299
 20
-17.16625240315773
 30
0.0
 11
-274.9472953703779
 21
-16.38306294626221
 31
0.0
  0
LINE
  5
88
330
1F
100
AcDbEntity
  8
F-Fﾚｲﾔ
  6
Continuous
 62
     7
370
     9
100
AcDbLine
 10
-280.8959832441299
 20
-17.16625240315773
 30
0.0
 11
-274.9472953703779
 21
-17.94937186993201
 31
0.0
  0
LINE
  5
89
330
1F
100
AcDbEntity
  8
F-Fﾚｲﾔ
  6
Continuous
 62
     7
370
     9
100
AcDbLine
 10
-144.8959389406188
 20
-17.16625240315773
 30
0.0
 11
-150.8446093168405
 21
-16.38306294626221
 31
0.0
  0
LINE
  5
8A
330
1F
100
AcDbEntity
  8
F-Fﾚｲﾔ
  6
Continuous
 62
     7
370
     9
100
AcDbLine
 10
-144.8959389406188
 20
-17.16625240315773
 30
0.0
 11
-150.8446093168405
 21
-17.94937186993201
 31
0.0
  0
LINE
  5
8B
330
1F
100
AcDbEntity
  8
F-Fﾚｲﾔ
  6
Continuous
 62
     7
370
     9
100
AcDbLine
 10
-327.3037555292673
 20
-115.3891987468926
 30
0.0
 11
-328.8700644529371
 21
-103.4918579944494
 31
0.0
  0
LINE
  5
8C
330
1F
100
AcDbEntity
  8
F-Fﾚｲﾔ
  6
Continuous
 62
     7
370
     9
100
AcDbLine
 10
-328.8700644529371
 20
-115.3891987468926
 30
0.0
 11
-327.3037555292673
 21
-103.4918579944494
 31
0.0
  0
LINE
  5
8D
330
1F
100
AcDbEntity
  8
F-Fﾚｲﾔ
  6
Continuous
 62
     7
370
     9
100
AcDbLine
 10
-328.0868749960415
 20
-39.44053850392089
 30
0.0
 11
-328.8700644529371
 21
-45.38913889002129
 31
0.0
  0
LINE
  5
8E
330
1F
100
AcDbEntity
  8
F-Fﾚｲﾔ
  6
Continuous
 62
     7
370
     9
100
AcDbLine
 10
-328.0868749960415
 20
-39.44053850392089
 30
0.0
 11
-327.3037555292673
 21
-45.38913889002129
 31
0.0
  0
LINE
  5
8F
330
1F
100
AcDbEntity
  8
F-Fﾚｲﾔ
  6
Continuous
 62
     7
370
     9
100
AcDbLine
 10
-284.89597116671
 20
-39.44053850392089
 30
0.0
 11
-328.6869003056006
 21
-39.44053850392089
 31
0.0
  0
LINE
  5
90
330
1F
100
AcDbEntity
  8
F-Fﾚｲﾔ
  6
Continuous
 62
     7
370
     9
100
AcDbLine
 10
-275.943044825539
 20
-50.5045068825255
 30
0.0
 11
-270.5472964072686
 21
-47.88036726613734
 31
0.0
  0
LINE
  5
91
330
1F
100
AcDbEntity
  8
F-Fﾚｲﾔ
  6
Continuous
 62
     7
370
     9
100
AcDbLine
 10
-275.943044825539
 20
-50.5045068825255
 30
0.0
 11
-270.051976319114
 21
-49.36632753060104
 31
0.0
  0
LINE
  5
92
330
1F
100
AcDbEntity
  8
F-Fﾚｲﾔ
  6
Continuous
 62
     7
370
     9
100
AcDbLine
 10
-277.0815391330092
 20
-50.88392332987405
 30
0.0
 11
-282.9726076394342
 21
-52.02210268179851
 31
0.0
  0
LINE
  5
93
330
1F
100
AcDbEntity
  8
F-Fﾚｲﾔ
  6
Continuous
 62
     7
370
     9
100
AcDbLine
 10
-277.0815391330092
 20
-50.88392332987405
 30
0.0
 11
-282.4772875512796
 21
-53.50799295614098
 31
0.0
  0
LINE
  5
94
330
1F
100
AcDbEntity
  8
F-Fﾚｲﾔ
  6
Continuous
 62
     7
370
     9
100
AcDbLine
 10
-268.3225554178487
 20
-47.96463537213396
 30
0.0
 11
-296.2651314690673
 21
-57.27759089706458
 31
0.0
  0
LINE
  5
95
330
1F
100
AcDbEntity
  8
F-4ﾚｲﾔ
  6
Continuous
 62
     2
370
     9
100
AcDbLine
 10
-169.3677223761016
 20
-109.0610419332012
 30
0.0
 11
-146.0343982530283
 21
-39.06105206645105
 31
0.0
  0
LINE
  5
96
330
1F
100
AcDbEntity
  8
F-4ﾚｲﾔ
  6
Continuous
 62
     2
370
     9
100
AcDbLine
 10
-168.2292455661618
 20
-109.440528370671
 30
0.0
 11
-144.8959389406188
 21
-39.44053850392089
 31
0.0
  0
LINE
  5
97
330
1F
100
AcDbEntity
  8
F-4ﾚｲﾔ
  6
Continuous
 62
     2
370
     9
100
AcDbLine
 10
-256.4241823111169
 20
-109.0610419332012
 30
0.0
 11
-279.7575239317204
 21
-39.06105206645105
 31
0.0
  0
LINE
  5
98
330
1F
100
AcDbEntity
  8
F-4ﾚｲﾔ
  6
Continuous
 62
     2
370
     9
100
AcDbLine
 10
-256.4241823111169
 20
-109.0610419332012
 30
0.0
 11
-257.5626766185869
 21
-109.440528370671
 31
0.0
  0
LINE
  5
99
330
1F
100
AcDbEntity
  8
F-4ﾚｲﾔ
  6
Continuous
 62
     2
370
     9
100
AcDbLine
 10
-257.5626766185869
 20
-109.440528370671
 30
0.0
 11
-280.8959832441299
 21
-39.44053850392089
 31
0.0
  0
LINE
  5
9A
330
1F
100
AcDbEntity
  8
F-Fﾚｲﾔ
  6
Continuous
 62
     7
370
     9
100
AcDbLine
 10
-262.1837568772252
 20
-109.440528370671
 30
0.0
 11
-328.6869003056006
 21
-109.440528370671
 31
0.0
  0
LINE
  5
9B
330
1F
100
AcDbEntity
  8
F-Fﾚｲﾔ
  6
Continuous
 62
     7
370
     9
100
AcDbLine
 10
-328.0868749960415
 20
-123.4405123459968
 30
0.0
 11
-328.0868749960415
 21
-39.44053850392089
 31
0.0
  0
LINE
  5
9C
330
1F
100
AcDbEntity
  8
F-Fﾚｲﾔ
  6
Continuous
 62
     7
370
     9
100
AcDbLine
 10
-257.5626766185869
 20
-132.9152150411585
 30
0.0
 11
-168.2292455661618
 21
-132.9152150411585
 31
0.0
  0
LINE
  5
9D
330
1F
100
AcDbEntity
  8
F-Fﾚｲﾔ
  6
Continuous
 62
     7
370
     9
100
AcDbLine
 10
-257.5626766185869
 20
-113.4405337907814
 30
0.0
 11
-257.5626766185869
 21
-133.5152403507174
 31
0.0
  0
LINE
  5
9E
330
1F
100
AcDbEntity
  8
F-Fﾚｲﾔ
  6
Continuous
 62
     7
370
     9
100
AcDbLine
 10
-168.2292455661618
 20
-113.4405337907814
 30
0.0
 11
-168.2292455661618
 21
-133.5152403507174
 31
0.0
  0
LINE
  5
9F
330
1F
100
AcDbEntity
  8
F-Fﾚｲﾔ
  6
Continuous
 62
     7
370
     9
100
AcDbLine
 10
-257.5626766185869
 20
-132.9152150411585
 30
0.0
 11
-251.613988744835
 21
-132.1320255842629
 31
0.0
  0
LINE
  5
A0
330
1F
100
AcDbEntity
  8
F-Fﾚｲﾔ
  6
Continuous
 62
     7
370
     9
100
AcDbLine
 10
-257.5626766185869
 20
-132.9152150411585
 30
0.0
 11
-251.613988744835
 21
-133.6983345079327
 31
0.0
  0
LINE
  5
A1
330
1F
100
AcDbEntity
  8
F-Fﾚｲﾔ
  6
Continuous
 62
     7
370
     9
100
AcDbLine
 10
-168.2292455661618
 20
-132.9152150411585
 30
0.0
 11
-174.1778984448531
 21
-132.1320255842629
 31
0.0
  0
LINE
  5
A2
330
1F
100
AcDbEntity
  8
F-Fﾚｲﾔ
  6
Continuous
 62
     7
370
     9
100
AcDbLine
 10
-168.2292455661618
 20
-132.9152150411585
 30
0.0
 11
-174.1778984448531
 21
-133.6983345079327
 31
0.0
  0
LINE
  5
A3
330
1F
100
AcDbEntity
  8
F-4ﾚｲﾔ
  6
Continuous
 62
     2
370
     9
100
AcDbLine
 10
-306.1400026825311
 20
-122.4990052348119
 30
0.0
 11
-305.3960076935409
 21
-123.4405123459968
 31
0.0
  0
LINE
  5
A4
330
1F
100
AcDbEntity
  8
F-Fﾚｲﾔ
  6
Continuous
 62
     7
370
     9
100
AcDbLine
 10
-305.3960076935409
 20
-153.2448956128434
 30
0.0
 11
-120.3958969936774
 21
-153.2448956128434
 31
0.0
  0
LINE
  5
A5
330
1F
100
AcDbEntity
  8
F-Fﾚｲﾔ
  6
Continuous
 62
     7
370
     9
100
AcDbLine
 10
-305.3960076935409
 20
-127.4405177661072
 30
0.0
 11
-305.3960076935409
 21
-153.8449209224024
 31
0.0
  0
LINE
  5
A6
330
1F
100
AcDbEntity
  8
F-Fﾚｲﾔ
  6
Continuous
 62
     7
370
     9
100
AcDbLine
 10
-120.3958969936774
 20
-127.4405177661072
 30
0.0
 11
-120.3958969936774
 21
-153.8449209224024
 31
0.0
  0
LINE
  5
A7
330
1F
100
AcDbEntity
  8
F-Fﾚｲﾔ
  6
Continuous
 62
     7
370
     9
100
AcDbLine
 10
-305.3960076935409
 20
-153.2448956128434
 30
0.0
 11
-299.4473373173194
 21
-152.4617761460692
 31
0.0
  0
LINE
  5
A8
330
1F
100
AcDbEntity
  8
F-Fﾚｲﾔ
  6
Continuous
 62
     7
370
     9
100
AcDbLine
 10
-305.3960076935409
 20
-153.2448956128434
 30
0.0
 11
-299.4473373173194
 21
-154.0280850697389
 31
0.0
  0
LINE
  5
A9
330
1F
100
AcDbEntity
  8
F-Fﾚｲﾔ
  6
Continuous
 62
     7
370
     9
100
AcDbLine
 10
-120.3958969936774
 20
-153.2448956128434
 30
0.0
 11
-126.3445323748385
 21
-152.4617761460692
 31
0.0
  0
LINE
  5
AA
330
1F
100
AcDbEntity
  8
F-Fﾚｲﾔ
  6
Continuous
 62
     7
370
     9
100
AcDbLine
 10
-120.3958969936774
 20
-153.2448956128434
 30
0.0
 11
-126.3445323748385
 21
-154.0280850697389
 31
0.0
  0
LINE
  5
AB
330
1F
100
AcDbEntity
  8
F-4ﾚｲﾔ
  6
JWW_CENTER1
 62
     2
370
     9
100
AcDbLine
 10
-308.2072658991168
 20
121.5806941894309
 30
0.0
 11
-109.7578884930591
 21
121.5806941894309
 31
0.0
  0
LINE
  5
AC
330
1F
100
AcDbEntity
  8
F-Fﾚｲﾔ
  6
Continuous
 62
     7
370
     9
100
AcDbLine
 10
-309.3960306111817
 20
-123.4405123459968
 30
0.0
 11
-328.6869003056006
 21
-123.4405123459968
 31
0.0
  0
LINE
  5
AD
330
1F
100
AcDbEntity
  8
F-Fﾚｲﾔ
  6
Continuous
 62
     7
370
     9
100
AcDbLine
 10
-328.0868749960415
 20
-123.4405123459968
 30
0.0
 11
-328.8700644529371
 21
-117.4918419697751
 31
0.0
  0
LINE
  5
AE
330
1F
100
AcDbEntity
  8
F-Fﾚｲﾔ
  6
Continuous
 62
     7
370
     9
100
AcDbLine
 10
-328.0868749960415
 20
-123.4405123459968
 30
0.0
 11
-327.3037555292673
 21
-117.4918419697751
 31
0.0
  0
LINE
  5
AF
330
1F
100
AcDbEntity
  8
F-Fﾚｲﾔ
  6
Continuous
 62
     7
370
     9
100
AcDbLine
 10
-280.8959832441299
 20
-17.16625240315773
 30
0.0
 11
-144.8959389406188
 21
-17.16625240315773
 31
0.0
  0
LINE
  5
B0
330
1F
100
AcDbEntity
  8
F-4ﾚｲﾔ
  6
JWW_CENTER1
 62
     2
370
     9
100
AcDbLine
 10
-212.8959435948441
 20
49.85411802132649
 30
0.0
 11
-212.8959435948441
 21
194.0896899230971
 31
0.0
  0
LINE
  5
B1
330
1F
100
AcDbEntity
  8
F-4ﾚｲﾔ
  6
Continuous
 62
     2
370
     9
100
AcDbLine
 10
-169.3677223761016
 20
-109.0610419332012
 30
0.0
 11
-256.4241823111169
 21
-109.0610419332012
 31
0.0
  0
LINE
  5
B2
330
1F
100
AcDbEntity
  8
F-4ﾚｲﾔ
  6
Continuous
 62
     2
370
     9
100
AcDbLine
 10
-257.5626766185869
 20
-109.440528370671
 30
0.0
 11
-168.2292455661618
 21
-109.440528370671
 31
0.0
  0
LINE
  5
B3
330
1F
100
AcDbEntity
  8
F-4ﾚｲﾔ
  6
Continuous
 62
     2
370
     9
100
AcDbLine
 10
-268.4074359374064
 20
-80.70111478891124
 30
0.0
 11
-267.2689766249969
 21
-80.32155836132014
 31
0.0
  0
LINE
  5
B4
330
1F
100
AcDbEntity
  8
F-4ﾚｲﾔ
  6
Continuous
 62
     2
370
     9
100
AcDbLine
 10
-119.6519020046873
 20
-122.4990052348119
 30
0.0
 11
-120.3958969936774
 21
-123.4405123459968
 31
0.0
  0
LINE
  5
B5
330
1F
100
AcDbEntity
  8
F-4ﾚｲﾔ
  6
Continuous
 62
     2
370
     9
100
AcDbLine
 10
-157.3844162572211
 20
-80.70111478891124
 30
0.0
 11
-158.5228755696307
 21
-80.3216283514414
 31
0.0
  0
LINE
  5
B6
330
1F
100
AcDbEntity
  8
F-4ﾚｲﾔ
  6
Continuous
 62
     2
370
     9
100
AcDbLine
 10
-169.3677223761016
 20
-109.0610419332012
 30
0.0
 11
-168.2292455661618
 21
-109.440528370671
 31
0.0
  0
LINE
  5
B7
330
1F
100
AcDbEntity
  8
F-4ﾚｲﾔ
  6
JWW_CENTER1
 62
     2
370
     9
100
AcDbLine
 10
-212.8959435948441
 20
-36.11271820838817
 30
0.0
 11
-212.8959435948441
 21
-112.3585565062284
 31
0.0
  0
LINE
  5
B8
330
1F
100
AcDbEntity
  8
F-Fﾚｲﾔ
  6
Continuous
 62
     7
370
     9
100
AcDbLine
 10
-307.3676294094254
 20
-124.9982824748729
 30
0.0
 11
-322.0050309165931
 21
-136.5632401414541
 31
0.0
  0
LINE
  5
B9
330
1F
100
AcDbEntity
  8
F-Fﾚｲﾔ
  6
Continuous
 62
     7
370
     9
100
AcDbLine
 10
-308.1116418959458
 20
-124.056775363688
 30
0.0
 11
-322.7489559154619
 21
-135.6217330302692
 31
0.0
  0
LINE
  5
BA
330
1F
100
AcDbEntity
  8
F-Fﾚｲﾔ
  6
Continuous
 62
     7
370
     9
100
AcDbLine
 10
-321.5342248684098
 20
-136.1913126370803
 30
0.0
 11
-317.9489634093537
 21
-139.6763307449621
 31
0.0
  0
LINE
  5
BB
330
1F
100
AcDbEntity
  8
F-Fﾚｲﾔ
  6
Continuous
 62
     7
370
     9
100
AcDbLine
 10
-321.5342248684098
 20
-136.1913126370803
 30
0.0
 11
-318.9731113562159
 21
-140.4855565269662
 31
0.0
  0
LINE
  5
BC
330
1F
100
AcDbEntity
  8
F-Fﾚｲﾔ
  6
Continuous
 62
     7
370
     9
100
AcDbLine
 10
-322.278167364809
 20
-135.2497355357742
 30
0.0
 11
-324.8392458819421
 21
-130.9555616360094
 31
0.0
  0
LINE
  5
BD
330
1F
100
AcDbEntity
  8
F-Fﾚｲﾔ
  6
Continuous
 62
     7
370
     9
100
AcDbLine
 10
-322.278167364809
 20
-135.2497355357742
 30
0.0
 11
-325.8634463213953
 21
-131.7647174278923
 31
0.0
  0
LINE
  5
BE
330
1F
100
AcDbEntity
  8
F-Fﾚｲﾔ
  6
Continuous
 62
     7
370
     9
100
AcDbLine
 10
-321.5342248684098
 20
-136.1913126370803
 30
0.0
 11
-327.7763813206034
 21
-128.2909677295332
 31
0.0
  0
LINE
  5
BF
330
1F
100
AcDbEntity
  8
F-4ﾚｲﾔ
  6
Continuous
 62
     2
370
     9
100
AcDbLine
 10
-265.4670109630458
 20
-89.522179741629
 30
0.0
 11
-268.4074359374064
 21
-80.70111478891124
 31
0.0
  0
LINE
  5
C0
330
1F
100
AcDbEntity
  8
F-4ﾚｲﾔ
  6
Continuous
 62
     2
370
     9
100
AcDbLine
 10
-265.7957720601327
 20
-90.62305435892208
 30
0.0
 11
-306.1400026825311
 21
-122.4990052348119
 31
0.0
  0
LINE
  5
C1
330
1F
100
AcDbEntity
  8
F-4ﾚｲﾔ
  6
Continuous
 62
     2
370
     9
100
AcDbLine
 10
-160.3248412315816
 20
-89.522179741629
 30
0.0
 11
-157.3844162572211
 21
-80.70111478891124
 31
0.0
  0
LINE
  5
C2
330
1F
100
AcDbEntity
  8
F-4ﾚｲﾔ
  6
Continuous
 62
     2
370
     9
100
AcDbLine
 10
-159.9960976320251
 20
-90.62305435892208
 30
0.0
 11
-119.6519020046873
 21
-122.4990052348119
 31
0.0
  0
LINE
  5
C3
330
1F
100
AcDbEntity
  8
F-4ﾚｲﾔ
  6
Continuous
 62
     2
370
     9
100
AcDbLine
 10
-160.7400926210152
 20
-91.56463146022818
 30
0.0
 11
-120.3958969936774
 21
-123.4405123459968
 31
0.0
  0
LINE
  5
C4
330
1F
100
AcDbEntity
  8
F-4ﾚｲﾔ
  6
Continuous
 62
     2
370
     9
100
AcDbLine
 10
-263.8403530573199
 20
-90.60744656188118
 30
0.0
 11
-305.3960076935409
 21
-123.4405123459968
 31
0.0
  0
LINE
  5
C5
330
1F
100
AcDbEntity
  8
F-4ﾚｲﾔ
  6
Continuous
 62
     7
370
     9
100
AcDbLine
 10
-328.0868749960415
 20
96.58071280633186
 30
0.0
 11
-328.0868749960415
 21
146.5806055824087
 31
0.0
  0
LINE
  5
C6
330
1F
100
AcDbEntity
  8
F-4ﾚｲﾔ
  6
Continuous
 62
     7
370
     9
100
AcDbLine
 10
-301.1784379814949
 20
96.58071280633186
 30
0.0
 11
-328.6868653105399
 21
96.58071280633186
 31
0.0
  0
LINE
  5
C7
330
1F
100
AcDbEntity
  8
F-4ﾚｲﾔ
  6
Continuous
 62
     7
370
     9
100
AcDbLine
 10
-301.1784379814949
 20
146.5806055824087
 30
0.0
 11
-328.6868653105399
 21
146.5806055824087
 31
0.0
  0
LINE
  5
C8
330
1F
100
AcDbEntity
  8
F-4ﾚｲﾔ
  6
Continuous
 62
     7
370
     9
100
AcDbLine
 10
-328.0868749960415
 20
96.58071280633186
 30
0.0
 11
-328.7394978817272
 21
101.5379031247893
 31
0.0
  0
LINE
  5
C9
330
1F
100
AcDbEntity
  8
F-4ﾚｲﾔ
  6
Continuous
 62
     7
370
     9
100
AcDbLine
 10
-328.0868749960415
 20
96.58071280633186
 30
0.0
 11
-327.4342346128255
 21
101.5379031247893
 31
0.0
  0
LINE
  5
CA
330
1F
100
AcDbEntity
  8
F-4ﾚｲﾔ
  6
Continuous
 62
     7
370
     9
100
AcDbLine
 10
-328.0868749960415
 20
146.5806055824087
 30
0.0
 11
-328.7394978817272
 21
141.6234152639514
 31
0.0
  0
LINE
  5
CB
330
1F
100
AcDbEntity
  8
F-4ﾚｲﾔ
  6
Continuous
 62
     7
370
     9
100
AcDbLine
 10
-328.0868749960415
 20
146.5806055824087
 30
0.0
 11
-327.4342346128255
 21
141.6234152639514
 31
0.0
  0
LINE
  5
CC
330
1F
100
AcDbEntity
  8
F-4ﾚｲﾔ
  6
Continuous
 62
     7
370
     9
100
AcDbLine
 10
-177.0515528435319
 20
179.3663580445528
 30
0.0
 11
-160.1472063038247
 21
206.6182015890599
 31
0.0
  0
LINE
  5
CD
330
1F
100
AcDbEntity
  8
F-4ﾚｲﾔ
  6
Continuous
 62
     7
370
     9
100
AcDbLine
 10
-177.0515528435319
 20
179.3663580445528
 30
0.0
 11
-174.9930733871643
 21
183.9229948990412
 31
0.0
  0
LINE
  5
CE
330
1F
100
AcDbEntity
  8
F-4ﾚｲﾔ
  6
Continuous
 62
     7
370
     9
100
AcDbLine
 10
-177.0515528435319
 20
179.3663580445528
 30
0.0
 11
-173.8838874429716
 21
183.2349220169376
 31
0.0
  0
LINE
  5
CF
330
1F
100
AcDbEntity
  8
F-4ﾚｲﾔ
  6
Continuous
 62
     7
370
     9
100
AcDbLine
 10
-160.1472063038247
 20
206.6182015890599
 30
0.0
 11
-118.273971492388
 21
206.6182015890599
 31
0.0
  0
CIRCLE
  5
D0
330
1F
100
AcDbEntity
  8
F-4ﾚｲﾔ
  6
Continuous
 62
     2
370
     9
100
AcDbCircle
 10
-212.8959435948441
 20
121.5806941894309
 30
0.0
 40
68.00000027984265
  0
CIRCLE
  5
D1
330
1F
100
AcDbEntity
  8
F-4ﾚｲﾔ
  6
Continuous
 62
     2
370
     9
100
AcDbCircle
 10
-212.8959435948441
 20
121.5806941894309
 30
0.0
 40
66.86156721372862
  0
CIRCLE
  5
D2
330
1F
100
AcDbEntity
  8
F-4ﾚｲﾔ
  6
Continuous
 62
     2
370
     9
100
AcDbCircle
 10
-212.8959435948441
 20
121.5806941894309
 30
0.0
 40
43.52822121874246
  0
CIRCLE
  5
D3
330
1F
100
AcDbEntity
  8
F-4ﾚｲﾔ
  6
JWW_DASHED1
 62
     2
370
     9
100
AcDbCircle
 10
-212.8959435948441
 20
121.5806941894309
 30
0.0
 40
44.66671115183001
  0
ARC
  5
D4
330
1F
100
AcDbEntity
  8
F-4ﾚｲﾔ
  6
Continuous
 62
     2
370
     9
100
AcDbCircle
 10
-266.4157095591901
 20
-89.83839510948013
 30
0.0
 40
0.9999999880330442
100
AcDbArc
 50
308.3125305175781
 51
18.43431091308592
  0
ARC
  5
D5
330
1F
100
AcDbEntity
  8
F-4ﾚｲﾔ
  6
Continuous
 62
     2
370
     9
100
AcDbCircle
 10
-266.4157095591901
 20
-89.83839510948013
 30
0.0
 40
2.20000002835248
100
AcDbArc
 50
308.3125305175781
 51
18.43431091308592
  0
ARC
  5
D6
330
1F
100
AcDbEntity
  8
F-4ﾚｲﾔ
  6
Continuous
 62
     2
370
     9
100
AcDbCircle
 10
-159.3761951280283
 20
-89.83839510948013
 30
0.0
 40
0.9999999880330442
100
AcDbArc
 50
161.5656890869141
 51
231.6874694824219
  0
ARC
  5
D7
330
1F
100
AcDbEntity
  8
F-4ﾚｲﾔ
  6
Continuous
 62
     2
370
     9
100
AcDbCircle
 10
-159.3761951280283
 20
-89.83839510948013
 30
0.0
 40
2.20000002835248
100
AcDbArc
 50
161.5656890869141
 51
231.6874694824219
  0
TEXT
  5
D8
330
1F
100
AcDbEntity
  8
F-Fﾚｲﾔ
  6
Continuous
 62
     2
370
     9
100
AcDbText
 10
-221.6459698411395
 20
-15.03823355059983
 30
0.0
 40
6.096
  1
Φ67
 41
1.09375
  7
ＭＳ ゴシック
100
AcDbText
  0
TEXT
  5
D9
330
1F
100
AcDbEntity
  8
F-Fﾚｲﾔ
  6
Continuous
 62
     2
370
     9
100
AcDbText
 10
-330.2148936628261
 20
-78.6905072403069
 30
0.0
 40
6.096
  1
35
 50
90.00000250447816
 41
1.062500000000001
  7
ＭＳ ゴシック
100
AcDbText
  0
TEXT
  5
DA
330
1F
100
AcDbEntity
  8
F-Fﾚｲﾔ
  6
Continuous
 62
     2
370
     9
100
AcDbText
 10
-221.6459698411395
 20
-151.1169467504068
 30
0.0
 40
6.096
  1
92.5
 41
1.09375
  7
ＭＳ ゴシック
100
AcDbText
  0
TEXT
  5
DB
330
1F
100
AcDbEntity
  8
F-Fﾚｲﾔ
  6
Continuous
 62
     2
370
     9
100
AcDbText
 10
-330.2148937611767
 20
-118.440555402701
 30
0.0
 40
6.096
  1
7
 50
90.00000250447816
 41
1.000000000000001
  7
ＭＳ ゴシック
100
AcDbText
  0
TEXT
  5
DC
330
1F
100
AcDbEntity
  8
F-4ﾚｲﾔ
  6
Continuous
 62
     2
370
     9
100
AcDbText
 10
-330.4148729367952
 20
117.3306766425942
 30
0.0
 40
6.096
  1
25
 50
90.00000250447816
 41
1.062500000000001
  7
ＭＳ ゴシック
100
AcDbText
  0
TEXT
  5
DD
330
1F
100
AcDbEntity
  8
F-Fﾚｲﾔ
  6
Continuous
 62
     2
370
     9
100
AcDbText
 10
-221.6459523436092
 20
-130.7871961886005
 30
0.0
 40
6.096
  1
Φ45
 41
1.09375
  7
ＭＳ ゴシック
100
AcDbText
  0
TEXT
  5
DE
330
1F
100
AcDbEntity
  8
F-Fﾚｲﾔ
  6
Continuous
 62
     2
370
     9
100
AcDbText
 10
-296.2603533859206
 20
-55.03381129119315
 30
0.0
 40
6.096
  1
0.6
 50
18.43485132459367
 41
1.083333333333339
  7
ＭＳ ゴシック
100
AcDbText
  0
TEXT
  5
DF
330
1F
100
AcDbEntity
  8
F-Fﾚｲﾔ
  6
Continuous
 62
     2
370
     9
100
AcDbText
 10
-332.6855027399666
 20
-135.9532505010549
 30
0.0
 40
6.096
  1
0.6
 50
308.3122326823213
 41
1.083333333333331
  7
ＭＳ ゴシック
100
AcDbText
  0
TEXT
  5
E0
330
1F
100
AcDbEntity
  8
F-4ﾚｲﾔ
  6
Continuous
 62
     7
370
     9
100
AcDbText
 10
-159.2739730241583
 20
208.6664219019369
 30
0.0
 40
4.572
  1
ＳＵＳ３０４
 41
1.138888888888889
  7
ＭＳ ゴシック
100
AcDbText
  0
LINE
  5
E1
330
1F
100
AcDbEntity
  8
F-4ﾚｲﾔ
  6
Continuous
 62
     2
370
     9
100
AcDbLine
 10
-127.613453273276
 20
146.5806055824087
 30
0.0
 11
-149.6582767614894
 21
146.5806055824087
 31
0.0
  0
LINE
  5
E2
330
1F
100
AcDbEntity
  8
F-4ﾚｲﾔ
  6
Continuous
 62
     2
370
     9
100
AcDbLine
 10
-127.613453273276
 20
96.58057282608934
 30
0.0
 11
-149.6582767614894
 21
96.58057282608934
 31
0.0
  0
ARC
  5
E3
330
1F
100
AcDbEntity
  8
F-4ﾚｲﾔ
  6
Continuous
 62
     2
370
     9
100
AcDbCircle
 10
-127.613453273276
 20
140.5806324473037
 30
0.0
 40
5.999999928198266
100
AcDbArc
 50
11.78861999511718
 51
90.0
  0
ARC
  5
E4
330
1F
100
AcDbEntity
  8
F-4ﾚｲﾔ
  6
Continuous
 62
     2
370
     9
100
AcDbCircle
 10
-127.613453273276
 20
102.5806859414369
 30
0.0
 40
5.999999928198266
100
AcDbArc
 50
270.0
 51
348.2113800048828
  0
ARC
  5
E5
330
1F
100
AcDbEntity
  8
F-4ﾚｲﾔ
  6
Continuous
 62
     2
370
     9
100
AcDbCircle
 10
-218.6518961721772
 20
121.5806941894309
 30
0.0
 40
99.00000291625504
100
AcDbArc
 50
348.2114105224609
 51
11.78858947753907
  0
ARC
  5
E6
330
1F
100
AcDbEntity
  8
F-4ﾚｲﾔ
  6
JWW_DASHED1
 62
     2
370
     9
100
AcDbCircle
 10
-212.8959435948441
 20
121.5806941894309
 30
0.0
 40
55.51147047064939
100
AcDbArc
 50
333.2333221435546
 51
26.76660156250002
  0
ARC
  5
E7
330
1F
100
AcDbEntity
  8
F-4ﾚｲﾔ
  6
JWW_DASHED1
 62
     2
370
     9
100
AcDbCircle
 10
-212.8959435948441
 20
121.5806941894309
 30
0.0
 40
54.3730330302494
100
AcDbArc
 50
332.6265084323218
 51
27.37324241255336
  0
LINE
  5
E8
330
1F
100
AcDbEntity
  8
F-4ﾚｲﾔ
  6
JWW_DASHED1
 62
     2
370
     9
100
AcDbLine
 10
-149.6582767614894
 20
146.5806055824087
 30
0.0
 11
-168.5074621407485
 21
146.5806055824087
 31
0.0
  0
LINE
  5
E9
330
1F
100
AcDbEntity
  8
F-4ﾚｲﾔ
  6
JWW_DASHED1
 62
     2
370
     9
100
AcDbLine
 10
-149.6582767614894
 20
96.58057282608934
 30
0.0
 11
-168.5075803982188
 21
96.58057282608934
 31
0.0
  0
ARC
  5
EA
330
1F
100
AcDbEntity
  8
F-4ﾚｲﾔ
  6
JWW_DASHED1
 62
     2
370
     9
100
AcDbCircle
 10
-212.8959435948441
 20
121.5806941894309
 30
0.0
 40
50.9444094622494
100
AcDbArc
 50
330.6112052237354
 51
29.38852375028447
  0
LINE
  5
EB
330
1F
100
AcDbEntity
  8
F-4ﾚｲﾔ
  6
Continuous
 62
     2
370
     9
100
AcDbLine
 10
-298.1784339164121
 20
146.5806055824087
 30
0.0
 11
-276.1336104281987
 21
146.5806055824087
 31
0.0
  0
LINE
  5
EC
330
1F
100
AcDbEntity
  8
F-4ﾚｲﾔ
  6
Continuous
 62
     2
370
     9
100
AcDbLine
 10
-298.1784339164121
 20
96.58057282608934
 30
0.0
 11
-276.1336104281987
 21
96.58057282608934
 31
0.0
  0
ARC
  5
ED
330
1F
100
AcDbEntity
  8
F-4ﾚｲﾔ
  6
Continuous
 62
     2
370
     9
100
AcDbCircle
 10
-298.1784339164121
 20
140.5806324473037
 30
0.0
 40
5.999999928198266
100
AcDbArc
 50
90.0
 51
168.2113800048828
  0
ARC
  5
EE
330
1F
100
AcDbEntity
  8
F-4ﾚｲﾔ
  6
Continuous
 62
     2
370
     9
100
AcDbCircle
 10
-298.1784339164121
 20
102.5806859414369
 30
0.0
 40
5.999999928198266
100
AcDbArc
 50
191.7886199951172
 51
270.0
  0
ARC
  5
EF
330
1F
100
AcDbEntity
  8
F-4ﾚｲﾔ
  6
Continuous
 62
     2
370
     9
100
AcDbCircle
 10
-207.1399910175109
 20
121.5806941894309
 30
0.0
 40
99.00000291625504
100
AcDbArc
 50
168.2114105224609
 51
191.7885894775391
  0
ARC
  5
F0
330
1F
100
AcDbEntity
  8
F-4ﾚｲﾔ
  6
JWW_DASHED1
 62
     2
370
     9
100
AcDbCircle
 10
-212.8959435948441
 20
121.5806941894309
 30
0.0
 40
55.51147047064939
100
AcDbArc
 50
153.2333984375
 51
206.7666778564453
  0
ARC
  5
F1
330
1F
100
AcDbEntity
  8
F-4ﾚｲﾔ
  6
JWW_DASHED1
 62
     2
370
     9
100
AcDbCircle
 10
-212.8959435948441
 20
121.5806941894309
 30
0.0
 40
54.3730330302494
100
AcDbArc
 50
152.6267575874466
 51
207.3734915676781
  0
LINE
  5
F2
330
1F
100
AcDbEntity
  8
F-4ﾚｲﾔ
  6
JWW_DASHED1
 62
     2
370
     9
100
AcDbLine
 10
-276.1336104281987
 20
146.5806055824087
 30
0.0
 11
-257.2844250489396
 21
146.5806055824087
 31
0.0
  0
LINE
  5
F3
330
1F
100
AcDbEntity
  8
F-4ﾚｲﾔ
  6
JWW_DASHED1
 62
     2
370
     9
100
AcDbLine
 10
-276.1336104281987
 20
96.58057282608934
 30
0.0
 11
-257.2843067914694
 21
96.58057282608934
 31
0.0
  0
ARC
  5
F4
330
1F
100
AcDbEntity
  8
F-4ﾚｲﾔ
  6
JWW_DASHED1
 62
     2
370
     9
100
AcDbCircle
 10
-212.8959435948441
 20
121.5806941894309
 30
0.0
 40
50.9444094622494
100
AcDbArc
 50
150.6114762497155
 51
209.3887947762646
  0
LINE
  5
F5
330
1F
100
AcDbEntity
  8
ハッチ
  6
Continuous
 62
     6
370
     9
100
AcDbLine
 10
50.65206570057907
 20
74.9294347217008
 30
0.0
 11
53.11311416195625
 21
67.0534852597528
 31
0.0
  0
LINE
  5
F6
330
1F
100
AcDbEntity
  8
通り芯
  6
Continuous
 62
     3
370
     9
100
AcDbLine
 10
77.02099549735831
 20
73.20561303013616
 30
0.0
 11
77.36324719031799
 21
74.92946971676142
 31
0.0
  0
LINE
  5
F7
330
1F
100
AcDbEntity
  8
通り芯
  6
Continuous
 62
     3
370
     9
100
AcDbLine
 10
111.3632582661957
 20
7.929466417563759
 30
0.0
 11
156.3633367399682
 21
7.929466417563759
 31
0.0
  0
LINE
  5
F8
330
1F
100
AcDbEntity
  8
通り芯
  6
Continuous
 62
     3
370
     9
100
AcDbLine
 10
81.1735093916935
 20
68.33024116343128
 30
0.0
 11
60.86328607371874
 21
74.92946971676142
 31
0.0
  0
LINE
  5
F9
330
1F
100
AcDbEntity
  8
通り芯
  6
Continuous
 62
     3
370
     9
100
AcDbLine
 10
190.7054945236237
 20
73.20561303013616
 30
0.0
 11
190.363242830664
 21
74.92946971676142
 31
0.0
  0
LINE
  5
FA
330
1F
100
AcDbEntity
  8
通り芯
  6
Continuous
 62
     3
370
     9
100
AcDbLine
 10
192.0302675388265
 20
65.90396361984418
 30
0.0
 11
197.3730334353032
 21
67.63999858756861
 31
0.0
  0
LINE
  5
FB
330
1F
100
AcDbEntity
  8
通り芯
  6
Continuous
 62
     3
370
     9
100
AcDbLine
 10
168.3632480151175
 20
48.92939949098317
 30
0.0
 11
169.3632668676754
 21
49.92941834354107
 31
0.0
  0
LINE
  5
FC
330
1F
100
AcDbEntity
  8
通り芯
  6
Continuous
 62
     3
370
     9
100
AcDbLine
 10
92.62207348661988
 20
48.72362853447979
 30
0.0
 11
92.10442654978348
 21
46.13539385029785
 31
0.0
  0
LINE
  5
FD
330
1F
100
AcDbEntity
  8
通り芯
  6
Continuous
 62
     3
370
     9
100
AcDbLine
 10
185.928808727895
 20
63.24657869585766
 30
0.0
 11
187.3633262532328
 21
74.92946971676142
 31
0.0
  0
LINE
  5
FE
330
1F
100
AcDbEntity
  8
通り芯
  6
Continuous
 62
     3
370
     9
100
AcDbLine
 10
194.5751083478274
 20
70.93681325938329
 30
0.0
 11
206.8632739373846
 21
74.92946971676142
 31
0.0
  0
LINE
  5
FF
330
1F
100
AcDbEntity
  8
通り芯
  6
Continuous
 62
     3
370
     9
100
AcDbLine
 10
74.14594129625434
 20
66.40775251267112
 30
0.0
 11
70.3534565856788
 21
67.63999858756861
 31
0.0
  0
LINE
  5
100
330
1F
100
AcDbEntity
  8
通り芯
  6
JWW_DASHED1
 62
     3
370
     9
100
AcDbLine
 10
75.6962224821556
 20
65.90396361984418
 30
0.0
 11
74.14594129625434
 21
66.40775251267112
 31
0.0
  0
LINE
  5
101
330
1F
100
AcDbEntity
  8
通り芯
  6
Continuous
 62
     3
370
     9
100
AcDbLine
 10
182.1305848273761
 20
49.92941834354107
 30
0.0
 11
169.3632668676754
 21
49.92941834354107
 31
0.0
  0
LINE
  5
102
330
1F
100
AcDbEntity
  8
通り芯
  6
Continuous
 62
     3
370
     9
100
AcDbLine
 10
189.0783641845793
 20
56.0762307530488
 30
0.0
 11
189.9796969661611
 21
63.41651471027612
 31
0.0
  0
LINE
  5
103
330
1F
100
AcDbEntity
  8
通り芯
  6
JWW_DASHED1
 62
     3
370
     9
100
AcDbLine
 10
78.64812583640273
 20
56.07637073329133
 30
0.0
 11
77.74679305482093
 21
63.41651471027612
 31
0.0
  0
LINE
  5
104
330
1F
100
AcDbEntity
  8
通り芯
  6
JWW_DASHED1
 62
     3
370
     9
100
AcDbLine
 10
85.59590519360589
 20
49.92941834354107
 30
0.0
 11
94.09298587501277
 21
49.92941834354107
 31
0.0
  0
LINE
  5
105
330
1F
100
AcDbEntity
  8
通り芯
  6
Continuous
 62
     3
370
     9
100
AcDbLine
 10
69.86338575661867
 20
27.92956350823701
 30
0.0
 11
69.86338575661867
 21
21.92945039288955
 31
0.0
  0
LINE
  5
106
330
1F
100
AcDbEntity
  8
通り芯
  6
Continuous
 62
     3
370
     9
100
AcDbLine
 10
86.03831275008818
 20
52.129487815217
 30
0.0
 11
79.68831901856365
 21
52.129487815217
 31
0.0
  0
LINE
  5
107
330
1F
100
AcDbEntity
  8
通り芯
  6
Continuous
 62
     3
370
     9
100
AcDbLine
 10
86.03831275008818
 20
52.129487815217
 30
0.0
 11
85.22320779789825
 21
52.92947490121483
 31
0.0
  0
LINE
  5
108
330
1F
100
AcDbEntity
  8
通り芯
  6
Continuous
 62
     3
370
     9
100
AcDbLine
 10
80.50328399051105
 20
52.92947490121483
 30
0.0
 11
79.68831901856365
 21
52.129487815217
 31
0.0
  0
LINE
  5
109
330
1F
100
AcDbEntity
  8
通り芯
  6
Continuous
 62
     3
370
     9
100
AcDbLine
 10
85.22320779789825
 20
52.92947490121483
 30
0.0
 11
80.50328399051105
 21
52.92947490121483
 31
0.0
  0
LINE
  5
10A
330
1F
100
AcDbEntity
  8
通り芯
  6
Continuous
 62
     3
370
     9
100
AcDbLine
 10
77.86339659683952
 20
27.92956350823701
 30
0.0
 11
69.86338575661867
 21
27.92956350823701
 31
0.0
  0
LINE
  5
10B
330
1F
100
AcDbEntity
  8
通り芯
  6
Continuous
 62
     3
370
     9
100
AcDbLine
 10
85.86340743706032
 20
29.92946123311035
 30
0.0
 11
85.86340743706032
 21
42.9295663361207
 31
0.0
  0
LINE
  5
10C
330
1F
100
AcDbEntity
  8
通り芯
  6
Continuous
 62
     3
370
     9
100
AcDbLine
 10
77.86339659683952
 20
21.92945039288955
 30
0.0
 11
69.86338575661867
 21
21.92945039288955
 31
0.0
  0
LINE
  5
10D
330
1F
100
AcDbEntity
  8
通り芯
  6
JWW_CENTER1
 62
     3
370
     9
100
AcDbLine
 10
77.863256616597
 20
24.92950695056331
 30
0.0
 11
66.8633991890662
 21
24.92950695056331
 31
0.0
  0
LINE
  5
10E
330
1F
100
AcDbEntity
  8
通り芯
  6
Continuous
 62
     3
370
     9
100
AcDbLine
 10
77.7064087548541
 20
46.25283727377152
 30
0.0
 11
75.5139682063955
 21
64.7411477452363
 31
0.0
  0
LINE
  5
10F
330
1F
100
AcDbEntity
  8
通り芯
  6
Continuous
 62
     3
370
     9
100
AcDbLine
 10
79.86336431183409
 20
29.92946123311035
 30
0.0
 11
79.86336431183409
 21
42.9295663361207
 31
0.0
  0
LINE
  5
110
330
1F
100
AcDbEntity
  8
通り芯
  6
Continuous
 62
     3
370
     9
100
AcDbLine
 10
80.50328399051105
 20
42.9295663361207
 30
0.0
 11
80.50328399051105
 21
52.92947490121483
 31
0.0
  0
LINE
  5
111
330
1F
100
AcDbEntity
  8
通り芯
  6
Continuous
 62
     3
370
     9
100
AcDbLine
 10
85.22320779789825
 20
42.9295663361207
 30
0.0
 11
85.22320779789825
 21
52.92947490121483
 31
0.0
  0
LINE
  5
112
330
1F
100
AcDbEntity
  8
通り芯
  6
Continuous
 62
     3
370
     9
100
AcDbLine
 10
86.03831275008818
 20
42.9295663361207
 30
0.0
 11
86.03831275008818
 21
52.129487815217
 31
0.0
  0
LINE
  5
113
330
1F
100
AcDbEntity
  8
通り芯
  6
Continuous
 62
     3
370
     9
100
AcDbLine
 10
79.68831901856365
 20
42.9295663361207
 30
0.0
 11
79.68831901856365
 21
52.129487815217
 31
0.0
  0
LINE
  5
114
330
1F
100
AcDbEntity
  8
通り芯
  6
Continuous
 62
     3
370
     9
100
AcDbLine
 10
86.03831275008818
 20
42.9295663361207
 30
0.0
 11
79.68831901856365
 21
42.9295663361207
 31
0.0
  0
LINE
  5
115
330
1F
100
AcDbEntity
  8
通り芯
  6
Continuous
 62
     3
370
     9
100
AcDbLine
 10
79.19600850562327
 20
44.92946406099404
 30
0.0
 11
79.68831901856365
 21
44.92946406099404
 31
0.0
  0
LINE
  5
116
330
1F
100
AcDbEntity
  8
通り芯
  6
Continuous
 62
     3
370
     9
100
AcDbLine
 10
86.03831275008818
 20
44.92946406099404
 30
0.0
 11
90.63358415151194
 21
44.92946406099404
 31
0.0
  0
LINE
  5
117
330
1F
100
AcDbEntity
  8
仕上
  6
Continuous
 62
     6
370
     9
100
AcDbLine
 10
184.0240975679347
 20
62.73327114653941
 30
0.0
 11
184.863279121838
 21
66.92945887654062
 31
0.0
  0
LINE
  5
118
330
1F
100
AcDbEntity
  8
仕上
  6
JWW_DASHED1
 62
     6
370
     9
100
AcDbLine
 10
166.9073485077348
 20
116.9294216427387
 30
0.0
 11
171.4878869886333
 21
115.9294027901808
 31
0.0
  0
LINE
  5
119
330
1F
100
AcDbEntity
  8
仕上
  6
Continuous
 62
     6
370
     9
100
AcDbLine
 10
83.7025324332898
 20
62.73327114653941
 30
0.0
 11
82.86328088926527
 21
66.92945887654062
 31
0.0
  0
LINE
  5
11A
330
1F
100
AcDbEntity
  8
仕上
  6
Continuous
 62
     6
370
     9
100
AcDbLine
 10
91.0912495544288
 20
67.34086080930481
 30
0.0
 11
82.86328088926527
 21
66.92945887654062
 31
0.0
  0
LINE
  5
11B
330
1F
100
AcDbEntity
  8
仕上
  6
Continuous
 62
     6
370
     9
100
AcDbLine
 10
100.8192464984291
 20
116.9294216427387
 30
0.0
 11
96.23888299283371
 21
115.9294027901808
 31
0.0
  0
LINE
  5
11C
330
1F
100
AcDbEntity
  8
仕上
  6
Continuous
 62
     6
370
     9
100
AcDbLine
 10
183.8632602692801
 20
67.98057051761808
 30
0.0
 11
184.863279121838
 21
66.92945887654062
 31
0.0
  0
LINE
  5
11D
330
1F
100
AcDbEntity
  8
仕上
  6
Continuous
 62
     6
370
     9
100
AcDbLine
 10
174.9169829896287
 20
63.03058918165041
 30
0.0
 11
176.1132541421988
 21
67.36689713441345
 31
0.0
  0
LINE
  5
11E
330
1F
100
AcDbEntity
  8
仕上
  6
Continuous
 62
     6
370
     9
100
AcDbLine
 10
175.6132447159198
 20
68.6421171437643
 30
0.0
 11
186.1133026875354
 21
68.6421171437643
 31
0.0
  0
LINE
  5
11F
330
1F
100
AcDbEntity
  8
仕上
  6
Continuous
 62
     6
370
     9
100
AcDbLine
 10
180.3631942853274
 20
69.6421359963222
 30
0.0
 11
181.3633531181278
 21
69.6421359963222
 31
0.0
  0
LINE
  5
120
330
1F
100
AcDbEntity
  8
仕上
  6
Continuous
 62
     6
370
     9
100
AcDbLine
 10
181.3633531181278
 20
72.52404922930967
 30
0.0
 11
181.3633531181278
 21
69.6421359963222
 31
0.0
  0
LINE
  5
121
330
1F
100
AcDbEntity
  8
仕上
  6
Continuous
 62
     6
370
     9
100
AcDbLine
 10
180.3631942853274
 20
72.52404922930967
 30
0.0
 11
180.3631942853274
 21
69.6421359963222
 31
0.0
  0
LINE
  5
122
330
1F
100
AcDbEntity
  8
仕上
  6
Continuous
 62
     6
370
     9
100
AcDbLine
 10
178.363296560454
 20
58.64206859842764
 30
0.0
 11
183.3632508430011
 21
58.64206859842764
 31
0.0
  0
LINE
  5
123
330
1F
100
AcDbEntity
  8
仕上
  6
Continuous
 62
     6
370
     9
100
AcDbLine
 10
177.8634271144176
 20
59.14221800494917
 30
0.0
 11
183.8632602692801
 21
59.14221800494917
 31
0.0
  0
LINE
  5
124
330
1F
100
AcDbEntity
  8
仕上
  6
Continuous
 62
     6
370
     9
100
AcDbLine
 10
177.8634271144176
 20
59.14221800494917
 30
0.0
 11
178.363296560454
 21
58.64206859842764
 31
0.0
  0
LINE
  5
125
330
1F
100
AcDbEntity
  8
仕上
  6
Continuous
 62
     6
370
     9
100
AcDbLine
 10
183.8632602692801
 20
59.14221800494917
 30
0.0
 11
183.3632508430011
 21
58.64206859842764
 31
0.0
  0
LINE
  5
126
330
1F
100
AcDbEntity
  8
仕上
  6
Continuous
 62
     6
370
     9
100
AcDbLine
 10
183.8632602692801
 20
68.6421171437643
 30
0.0
 11
183.8632602692801
 21
59.14221800494917
 31
0.0
  0
LINE
  5
127
330
1F
100
AcDbEntity
  8
仕上
  6
Continuous
 62
     6
370
     9
100
AcDbLine
 10
183.3632508430011
 20
68.6421171437643
 30
0.0
 11
183.3632508430011
 21
58.64206859842764
 31
0.0
  0
LINE
  5
128
330
1F
100
AcDbEntity
  8
仕上
  6
Continuous
 62
     6
370
     9
100
AcDbLine
 10
178.363296560454
 20
68.6421171437643
 30
0.0
 11
178.363296560454
 21
58.64206859842764
 31
0.0
  0
LINE
  5
129
330
1F
100
AcDbEntity
  8
仕上
  6
Continuous
 62
     6
370
     9
100
AcDbLine
 10
177.8634271144176
 20
68.6421171437643
 30
0.0
 11
177.8634271144176
 21
59.14221800494917
 31
0.0
  0
LINE
  5
12A
330
1F
100
AcDbEntity
  8
仕上
  6
Continuous
 62
     6
370
     9
100
AcDbLine
 10
176.6355204270382
 20
67.34086080930481
 30
0.0
 11
177.8634271144176
 21
67.2795494630814
 31
0.0
  0
LINE
  5
12B
330
1F
100
AcDbEntity
  8
仕上
  6
Continuous
 62
     6
370
     9
100
AcDbLine
 10
183.8632602692801
 20
66.97943182312
 30
0.0
 11
184.863279121838
 21
66.92945887654062
 31
0.0
  0
LINE
  5
12C
330
1F
100
AcDbEntity
  8
仕上
  6
Continuous
 62
     6
370
     9
100
AcDbLine
 10
176.5655303057787
 20
68.3454990098659
 30
0.0
 11
177.8634271144176
 21
68.28068815757948
 31
0.0
  0
LINE
  5
12D
330
1F
100
AcDbEntity
  8
仕上
  6
Continuous
 62
     6
370
     9
100
AcDbLine
 10
91.35427243012256
 20
120.0504211299491
 30
0.0
 11
92.08321954304185
 21
130.5248627171837
 31
0.0
  0
LINE
  5
12E
330
1F
100
AcDbEntity
  8
仕上
  6
Continuous
 62
     6
370
     9
100
AcDbLine
 10
90.68642669306294
 20
124.8583225197597
 30
0.0
 11
90.7558568933525
 21
125.8559617081948
 31
0.0
  0
LINE
  5
12F
330
1F
100
AcDbEntity
  8
仕上
  6
Continuous
 62
     6
370
     9
100
AcDbLine
 10
87.88080269224852
 20
126.0559934747549
 30
0.0
 11
90.7558568933525
 21
125.8559617081948
 31
0.0
  0
LINE
  5
130
330
1F
100
AcDbEntity
  8
仕上
  6
Continuous
 62
     6
370
     9
100
AcDbLine
 10
87.81137249195896
 20
125.0583542863198
 30
0.0
 11
90.68642669306294
 21
124.8583225197597
 31
0.0
  0
LINE
  5
131
330
1F
100
AcDbEntity
  8
仕上
  6
Continuous
 62
     6
370
     9
100
AcDbLine
 10
103.5161758409273
 20
121.9605915193676
 30
0.0
 11
103.8633968324965
 21
126.9483675208155
 31
0.0
  0
LINE
  5
132
330
1F
100
AcDbEntity
  8
仕上
  6
Continuous
 62
     6
370
     9
100
AcDbLine
 10
102.982641146565
 20
121.4964170351736
 30
0.0
 11
103.3992923384237
 21
127.4818322250565
 31
0.0
  0
LINE
  5
133
330
1F
100
AcDbEntity
  8
仕上
  6
Continuous
 62
     6
370
     9
100
AcDbLine
 10
102.982641146565
 20
121.4964170351736
 30
0.0
 11
103.5161758409273
 21
121.9605915193676
 31
0.0
  0
LINE
  5
134
330
1F
100
AcDbEntity
  8
仕上
  6
Continuous
 62
     6
370
     9
100
AcDbLine
 10
103.3992923384237
 20
127.4818322250565
 30
0.0
 11
103.8633968324965
 21
126.9483675208155
 31
0.0
  0
LINE
  5
135
330
1F
100
AcDbEntity
  8
仕上
  6
Continuous
 62
     6
370
     9
100
AcDbLine
 10
91.92700159239027
 20
128.2804195086291
 30
0.0
 11
103.3992923384237
 21
127.4818322250565
 31
0.0
  0
LINE
  5
136
330
1F
100
AcDbEntity
  8
仕上
  6
Continuous
 62
     6
370
     9
100
AcDbLine
 10
91.89221650212423
 20
127.7816699045329
 30
0.0
 11
103.8633968324965
 21
126.9483675208155
 31
0.0
  0
LINE
  5
137
330
1F
100
AcDbEntity
  8
仕上
  6
Continuous
 62
     6
370
     9
100
AcDbLine
 10
91.5451354907976
 20
122.7937539228425
 30
0.0
 11
103.5161758409273
 21
121.9605915193676
 31
0.0
  0
LINE
  5
138
330
1F
100
AcDbEntity
  8
仕上
  6
Continuous
 62
     6
370
     9
100
AcDbLine
 10
91.51035040053156
 20
122.2948643385037
 30
0.0
 11
102.982641146565
 21
121.4964170351736
 31
0.0
  0
LINE
  5
139
330
1F
100
AcDbEntity
  8
仕上
  6
Continuous
 62
     6
370
     9
100
AcDbLine
 10
92.61003518576328
 20
63.79054191828769
 30
0.0
 11
96.6568639969963
 21
121.9366548978968
 31
0.0
  0
LINE
  5
13A
330
1F
100
AcDbEntity
  8
仕上
  6
Continuous
 62
     6
370
     9
100
AcDbLine
 10
97.07344519873376
 20
127.9220700877798
 30
0.0
 11
97.35235583195353
 21
131.9294244706224
 31
0.0
  0
LINE
  5
13B
330
1F
100
AcDbEntity
  8
仕上
  6
Continuous
 62
     6
370
     9
100
AcDbLine
 10
97.1857793433555
 20
64.72113057055603
 30
0.0
 11
101.1461003647117
 21
121.6242189965937
 31
0.0
  0
LINE
  5
13C
330
1F
100
AcDbEntity
  8
仕上
  6
Continuous
 62
     6
370
     9
100
AcDbLine
 10
101.5627515565704
 20
127.6096341864767
 30
0.0
 11
101.8632891372593
 21
131.9294244706224
 31
0.0
  0
LINE
  5
13D
330
1F
100
AcDbEntity
  8
仕上
  6
JWW_CENTER1
 62
     6
370
     9
100
AcDbLine
 10
106.2833052750489
 20
124.2739050072416
 30
0.0
 11
85.26968123841468
 21
125.7365585613258
 31
0.0
  0
LINE
  5
13E
330
1F
100
AcDbEntity
  8
仕上
  6
Continuous
 62
     6
370
     9
100
AcDbLine
 10
174.7401879433268
 20
69.19937848923362
 30
0.0
 11
170.3742041791497
 21
131.9294244706224
 31
0.0
  0
LINE
  5
13F
330
1F
100
AcDbEntity
  8
仕上
  6
Continuous
 62
     6
370
     9
100
AcDbLine
 10
170.5407806677477
 20
64.72113057055603
 30
0.0
 11
165.8633058689046
 21
131.9294244706224
 31
0.0
  0
LINE
  5
140
330
1F
100
AcDbEntity
  8
通り芯
  6
Continuous
 62
     3
370
     9
100
AcDbLine
 10
190.363242830664
 20
74.92946971676142
 30
0.0
 11
174.3413842323893
 21
74.92946971676142
 31
0.0
  0
LINE
  5
141
330
1F
100
AcDbEntity
  8
通り芯
  6
Continuous
 62
     3
370
     9
100
AcDbLine
 10
93.38524576883512
 20
74.92946971676142
 30
0.0
 11
77.36324719031799
 21
74.92946971676142
 31
0.0
  0
LINE
  5
142
330
1F
100
AcDbEntity
  8
通り芯
  6
Continuous
 62
     3
370
     9
100
AcDbLine
 10
183.8632602692801
 20
61.92950459399353
 30
0.0
 11
184.4399788684596
 21
61.92950459399353
 31
0.0
  0
LINE
  5
143
330
1F
100
AcDbEntity
  8
仕上
  6
Continuous
 62
     6
370
     9
100
AcDbLine
 10
103.8632568522539
 20
131.9294244706224
 30
0.0
 11
97.35235583195353
 21
131.9294244706224
 31
0.0
  0
LINE
  5
144
330
1F
100
AcDbEntity
  8
仕上
  6
Continuous
 62
     6
370
     9
100
AcDbLine
 10
163.86333815391
 20
131.9294244706224
 30
0.0
 11
170.3742041791497
 21
131.9294244706224
 31
0.0
  0
LINE
  5
145
330
1F
100
AcDbEntity
  8
建具
  6
Continuous
 62
     4
370
     9
100
AcDbLine
 10
108.3633416887646
 20
45.92570344700394
 30
0.0
 11
103.8632568522539
 21
45.92570344700394
 31
0.0
  0
LINE
  5
146
330
1F
100
AcDbEntity
  8
建具
  6
Continuous
 62
     4
370
     9
100
AcDbLine
 10
103.8632568522539
 20
45.92570344700394
 30
0.0
 11
103.8632568522539
 21
-80.07047784956188
 31
0.0
  0
LINE
  5
147
330
1F
100
AcDbEntity
  8
建具
  6
Continuous
 62
     4
370
     9
100
AcDbLine
 10
159.3632533173993
 20
45.92570344700394
 30
0.0
 11
163.86333815391
 21
45.92570344700394
 31
0.0
  0
LINE
  5
148
330
1F
100
AcDbEntity
  8
建具
  6
Continuous
 62
     4
370
     9
100
AcDbLine
 10
163.86333815391
 20
45.92570344700394
 30
0.0
 11
163.86333815391
 21
-80.07047784956188
 31
0.0
  0
LINE
  5
149
330
1F
100
AcDbEntity
  8
通り芯
  6
Continuous
 62
     3
370
     9
100
AcDbLine
 10
115.3632636863062
 20
7.929466417563759
 30
0.0
 11
112.1132724056142
 21
53.42948432749378
 31
0.0
  0
LINE
  5
14A
330
1F
100
AcDbEntity
  8
通り芯
  6
Continuous
 62
     3
370
     9
100
AcDbLine
 10
112.1132724056142
 20
53.42948432749378
 30
0.0
 11
155.6132526104284
 21
53.42948432749378
 31
0.0
  0
LINE
  5
14B
330
1F
100
AcDbEntity
  8
通り芯
  6
Continuous
 62
     3
370
     9
100
AcDbLine
 10
152.3633313198577
 20
7.929466417563759
 30
0.0
 11
155.6132526104284
 21
53.42948432749378
 31
0.0
  0
LINE
  5
14C
330
1F
100
AcDbEntity
  8
通り芯
  6
Continuous
 62
     3
370
     9
100
AcDbLine
 10
82.44956928249948
 20
57.93726807734296
 30
0.0
 11
80.36323375787052
 21
74.92946971676142
 31
0.0
  0
LINE
  5
14D
330
1F
100
AcDbEntity
  8
通り芯
  6
Continuous
 62
     3
370
     9
100
AcDbLine
 10
85.2179585388038
 20
55.31025886598317
 30
0.0
 11
112.1132724056142
 21
53.42948432749378
 31
0.0
  0
LINE
  5
14E
330
1F
100
AcDbEntity
  8
通り芯
  6
Continuous
 62
     3
370
     9
100
AcDbLine
 10
99.36331199598587
 20
48.92939949098317
 30
0.0
 11
98.36329314342797
 21
49.92941834354107
 31
0.0
  0
LINE
  5
14F
330
1F
100
AcDbEntity
  8
通り芯
  6
Continuous
 62
     3
370
     9
100
AcDbLine
 10
94.09298587501277
 20
49.92941834354107
 30
0.0
 11
98.36329314342797
 21
49.92941834354107
 31
0.0
  0
LINE
  5
150
330
1F
100
AcDbEntity
  8
通り芯
  6
Continuous
 62
     3
370
     9
100
AcDbLine
 10
103.7791287264998
 20
48.92939949098317
 30
0.0
 11
99.36331199598587
 21
48.92939949098317
 31
0.0
  0
LINE
  5
151
330
1F
100
AcDbEntity
  8
通り芯
  6
Continuous
 62
     3
370
     9
100
AcDbLine
 10
108.7664147970989
 20
44.28555494540521
 30
0.0
 11
111.3632582661957
 21
7.929466417563759
 31
0.0
  0
LINE
  5
152
330
1F
100
AcDbEntity
  8
通り芯
  6
JWW_CENTER1
 62
     3
370
     9
100
AcDbLine
 10
82.86328088926527
 20
29.92946123311035
 30
0.0
 11
82.86328088926527
 21
54.29512214723317
 31
0.0
  0
LINE
  5
153
330
1F
100
AcDbEntity
  8
通り芯
  6
Continuous
 62
     3
370
     9
100
AcDbLine
 10
163.9473962895428
 20
48.92939949098317
 30
0.0
 11
168.3632480151175
 21
48.92939949098317
 31
0.0
  0
LINE
  5
154
330
1F
100
AcDbEntity
  8
通り芯
  6
Continuous
 62
     3
370
     9
100
AcDbLine
 10
158.9600402288225
 20
44.28555494540521
 30
0.0
 11
156.3633367399682
 21
7.929466417563759
 31
0.0
  0
LINE
  5
155
330
1F
100
AcDbEntity
  8
その他
  6
Continuous
 62
     2
370
     9
100
AcDbLine
 10
100.4324810883483
 20
97.14265444166486
 30
0.0
 11
99.86325143214353
 21
96.95284123280871
 31
0.0
  0
LINE
  5
156
330
1F
100
AcDbEntity
  8
その他
  6
Continuous
 62
     2
370
     9
100
AcDbLine
 10
167.2940439276943
 20
97.14265444166486
 30
0.0
 11
167.8632385888385
 21
96.95284123280871
 31
0.0
  0
LINE
  5
157
330
1F
100
AcDbEntity
  8
その他
  6
Continuous
 62
     2
370
     9
100
AcDbLine
 10
111.4666336752963
 20
62.14269450335044
 30
0.0
 11
112.0358633315011
 21
62.33250771220665
 31
0.0
  0
LINE
  5
158
330
1F
100
AcDbEntity
  8
その他
  6
Continuous
 62
     2
370
     9
100
AcDbLine
 10
155.6906616845416
 20
62.33250771220665
 30
0.0
 11
167.2940439276943
 21
97.14265444166486
 31
0.0
  0
LINE
  5
159
330
1F
100
AcDbEntity
  8
その他
  6
Continuous
 62
     2
370
     9
100
AcDbLine
 10
112.0358633315011
 20
62.33250771220665
 30
0.0
 11
100.4324810883483
 21
97.14265444166486
 31
0.0
  0
LINE
  5
15A
330
1F
100
AcDbEntity
  8
その他
  6
Continuous
 62
     2
370
     9
100
AcDbLine
 10
112.0358633315011
 20
62.33250771220665
 30
0.0
 11
155.6906616845416
 21
62.33250771220665
 31
0.0
  0
LINE
  5
15B
330
1F
100
AcDbEntity
  8
その他
  6
Continuous
 62
     2
370
     9
100
AcDbLine
 10
111.4666336752963
 20
62.14269450335044
 30
0.0
 11
99.86325143214353
 21
96.95284123280871
 31
0.0
  0
LINE
  5
15C
330
1F
100
AcDbEntity
  8
その他
  6
Continuous
 62
     2
370
     9
100
AcDbLine
 10
156.2598913407463
 20
62.14269450335044
 30
0.0
 11
167.8632385888385
 21
96.95284123280871
 31
0.0
  0
LINE
  5
15D
330
1F
100
AcDbEntity
  8
その他
  6
Continuous
 62
     2
370
     9
100
AcDbLine
 10
156.2598913407463
 20
62.14269450335044
 30
0.0
 11
155.6906616845416
 21
62.33250771220665
 31
0.0
  0
LINE
  5
15E
330
1F
100
AcDbEntity
  8
その他
  6
Continuous
 62
     2
370
     9
100
AcDbLine
 10
111.4666336752963
 20
62.14269450335044
 30
0.0
 11
156.2598913407463
 21
62.14269450335044
 31
0.0
  0
LINE
  5
15F
330
1F
100
AcDbEntity
  8
通り芯
  6
JWW_PHANTOM2
 62
     3
370
     9
100
AcDbLine
 10
84.68309403213752
 20
61.92950459399353
 30
0.0
 11
83.28665113276494
 21
61.92950459399353
 31
0.0
  0
LINE
  5
160
330
1F
100
AcDbEntity
  8
仕上
  6
Continuous
 62
     6
370
     9
100
AcDbLine
 10
84.68309403213752
 20
61.92950459399353
 30
0.0
 11
94.19300175829275
 21
61.92950459399353
 31
0.0
  0
LINE
  5
161
330
1F
100
AcDbEntity
  8
その他
  6
Continuous
 62
     2
370
     9
100
AcDbLine
 10
87.24123296417784
 20
55.61345607127996
 30
0.0
 11
87.61323045867286
 21
55.14270251568755
 31
0.0
  0
LINE
  5
162
330
1F
100
AcDbEntity
  8
その他
  6
JWW_DASHED1
 62
     2
370
     9
100
AcDbLine
 10
180.4852570568042
 20
55.61345607127996
 30
0.0
 11
180.1133295524304
 21
55.14270251568755
 31
0.0
  0
LINE
  5
163
330
1F
100
AcDbEntity
  8
仕上
  6
Continuous
 62
     6
370
     9
100
AcDbLine
 10
177.8634271144176
 20
61.92950459399353
 30
0.0
 11
173.5335582528105
 21
61.92950459399353
 31
0.0
  0
LINE
  5
164
330
1F
100
AcDbEntity
  8
その他
  6
JWW_DASHED1
 62
     2
370
     9
100
AcDbLine
 10
180.4852570568042
 20
55.61345607127996
 30
0.0
 11
175.2217199775933
 21
59.77212909628602
 31
0.0
  0
LINE
  5
165
330
1F
100
AcDbEntity
  8
その他
  6
JWW_DASHED1
 62
     2
370
     9
100
AcDbLine
 10
175.0376459586804
 20
59.15299648362313
 30
0.0
 11
180.1133295524304
 21
55.14270251568755
 31
0.0
  0
LINE
  5
166
330
1F
100
AcDbEntity
  8
通り芯
  6
Continuous
 62
     3
370
     9
100
AcDbLine
 10
172.6753393859246
 20
54.62267591472832
 30
0.0
 11
155.6132526104284
 21
53.42948432749378
 31
0.0
  0
LINE
  5
167
330
1F
100
AcDbEntity
  8
通り芯
  6
Continuous
 62
     3
370
     9
100
AcDbLine
 10
174.0085112156785
 20
55.69142506636322
 30
0.0
 11
175.5443744366002
 21
60.85697597581063
 31
0.0
  0
LINE
  5
168
330
1F
100
AcDbEntity
  8
通り芯
  6
JWW_DASHED1
 62
     3
370
     9
100
AcDbLine
 10
182.5085314821782
 20
55.31025886598317
 30
0.0
 11
172.6753393859246
 21
54.62267591472832
 31
0.0
  0
LINE
  5
169
330
1F
100
AcDbEntity
  8
通り芯
  6
JWW_DASHED1
 62
     3
370
     9
100
AcDbLine
 10
185.2769207384825
 20
57.93726807734296
 30
0.0
 11
185.928808727895
 21
63.24657869585766
 31
0.0
  0
LINE
  5
16A
330
1F
100
AcDbEntity
  8
仕上
  6
JWW_CENTER1
 62
     6
370
     9
100
AcDbLine
 10
180.8632037116064
 20
76.23296573510115
 30
0.0
 11
180.8632037116064
 21
57.45685588501672
 31
0.0
  0
LINE
  5
16B
330
1F
100
AcDbEntity
  8
通り芯
  6
JWW_PHANTOM2
 62
     3
370
     9
100
AcDbLine
 10
92.18225556462423
 20
60.85697597581063
 30
0.0
 11
93.71811878554601
 21
55.69142506636322
 31
0.0
  0
LINE
  5
16C
330
1F
100
AcDbEntity
  8
その他
  6
Continuous
 62
     2
370
     9
100
AcDbLine
 10
106.0570972031378
 20
76.4726119102942
 30
0.0
 11
106.6267468000701
 21
76.66256509939294
 31
0.0
  0
LINE
  5
16D
330
1F
100
AcDbEntity
  8
その他
  6
Continuous
 62
     2
370
     9
100
AcDbLine
 10
107.527309690318
 20
72.06211442899595
 30
0.0
 11
106.0570972031378
 21
76.4726119102942
 31
0.0
  0
LINE
  5
16E
330
1F
100
AcDbEntity
  8
その他
  6
Continuous
 62
     2
370
     9
100
AcDbLine
 10
107.3629728856003
 20
71.51171211541006
 30
0.0
 11
87.24123296417784
 21
55.61345607127996
 31
0.0
  0
LINE
  5
16F
330
1F
100
AcDbEntity
  8
その他
  6
Continuous
 62
     2
370
     9
100
AcDbLine
 10
161.6697077733899
 20
76.4726119102942
 30
0.0
 11
161.0998482060938
 21
76.66256509939294
 31
0.0
  0
LINE
  5
170
330
1F
100
AcDbEntity
  8
その他
  6
Continuous
 62
     2
370
     9
100
AcDbLine
 10
160.1992153257247
 20
72.06211442899595
 30
0.0
 11
161.6697077733899
 21
76.4726119102942
 31
0.0
  0
LINE
  5
171
330
1F
100
AcDbEntity
  8
その他
  6
Continuous
 62
     2
370
     9
100
AcDbLine
 10
175.2217199775933
 20
59.77212909628602
 30
0.0
 11
160.3635521304423
 21
71.51171211541006
 31
0.0
  0
LINE
  5
172
330
1F
100
AcDbEntity
  8
その他
  6
Continuous
 62
     2
370
     9
100
AcDbLine
 10
159.9915546359473
 20
71.04081857957513
 30
0.0
 11
175.0376459586804
 21
59.15299648362313
 31
0.0
  0
LINE
  5
173
330
1F
100
AcDbEntity
  8
その他
  6
Continuous
 62
     2
370
     9
100
AcDbLine
 10
107.7350403702166
 20
71.04081857957513
 30
0.0
 11
87.61323045867286
 21
55.14270251568755
 31
0.0
  0
LINE
  5
174
330
1F
100
AcDbEntity
  8
1-4ﾚｲﾔ
  6
Continuous
 62
     7
370
     9
100
AcDbLine
 10
211.0866178344345
 20
128.6149722882503
 30
0.0
 11
231.0867149251078
 21
128.6149722882503
 31
0.0
  0
LINE
  5
175
330
1F
100
AcDbEntity
  8
1-4ﾚｲﾔ
  6
Continuous
 62
     7
370
     9
100
AcDbLine
 10
216.8748008626078
 20
-44.78653299423641
 30
0.0
 11
236.8747579730385
 21
-44.78653299423641
 31
0.0
  0
LINE
  5
176
330
1F
100
AcDbEntity
  8
1-4ﾚｲﾔ
  6
Continuous
 62
     7
370
     9
100
AcDbLine
 10
216.8748008626078
 20
-5.922068510570256
 30
0.0
 11
216.8748008626078
 21
-44.78653299423641
 31
0.0
  0
LINE
  5
177
330
1F
100
AcDbEntity
  8
1-6ﾚｲﾔ
  6
Continuous
 62
     6
370
     9
100
AcDbLine
 10
6.703075504786256
 20
-25.07059579587732
 30
0.0
 11
78.1711431600182
 21
46.39743686429401
 31
0.0
  0
LINE
  5
178
330
1F
100
AcDbEntity
  8
1-6ﾚｲﾔ
  6
Continuous
 62
     6
370
     9
100
AcDbLine
 10
9.531551280191962
 20
-25.07059579587732
 30
0.0
 11
79.53808522327981
 21
44.93604313239243
 31
0.0
  0
LINE
  5
179
330
1F
100
AcDbEntity
  8
1-6ﾚｲﾔ
  6
Continuous
 62
     6
370
     9
100
AcDbLine
 10
12.35995706547638
 20
-25.07059579587732
 30
0.0
 11
80.34668109419258
 21
42.91612823283887
 31
0.0
  0
LINE
  5
17A
330
1F
100
AcDbEntity
  8
1-3ﾚｲﾔ
  6
JWW_PHANTOM1
 62
     4
370
     9
100
AcDbLine
 10
103.8632568522539
 20
-53.93151222814387
 30
0.0
 11
163.86333815391
 21
-35.46888813118139
 31
0.0
  0
LINE
  5
17B
330
1F
100
AcDbEntity
  8
建具
  6
Continuous
 62
     4
370
     9
100
AcDbLine
 10
108.3633416887646
 20
45.92570344700394
 30
0.0
 11
108.3633416887646
 21
-52.54675767902165
 31
0.0
  0
LINE
  5
17C
330
1F
100
AcDbEntity
  8
建具
  6
Continuous
 62
     4
370
     9
100
AcDbLine
 10
159.3632533173993
 20
45.92570344700394
 30
0.0
 11
159.3632533173993
 21
-36.85357269018235
 31
0.0
  0
LINE
  5
17D
330
1F
100
AcDbEntity
  8
1-3ﾚｲﾔ
  6
JWW_PHANTOM1
 62
     4
370
     9
100
AcDbLine
 10
103.8632568522539
 20
153.1092050551271
 30
0.0
 11
163.86333815391
 21
171.5718291520896
 31
0.0
  0
ARC
  5
17E
330
1F
100
AcDbEntity
  8
通り芯
  6
Continuous
 62
     3
370
     9
100
AcDbCircle
 10
66.95424636646126
 20
57.17843518264581
 30
0.0
 40
11.00000068856022
100
AcDbArc
 50
71.99989318847656
 51
117.5688171386719
  0
ARC
  5
17F
330
1F
100
AcDbEntity
  8
通り芯
  6
Continuous
 62
     3
370
     9
100
AcDbCircle
 10
74.07854080948127
 20
73.78989056241173
 30
0.0
 40
2.999999964099133
100
AcDbArc
 50
251.9994812011719
 51
348.7692108154297
  0
ARC
  5
180
330
1F
100
AcDbEntity
  8
通り芯
  6
Continuous
 62
     3
370
     9
100
AcDbCircle
 10
200.772313644642
 20
57.17843518264581
 30
0.0
 40
11.00000068856022
100
AcDbArc
 50
62.43118286132812
 51
108.0001068115234
  0
ARC
  5
181
330
1F
100
AcDbEntity
  8
通り芯
  6
Continuous
 62
     3
370
     9
100
AcDbCircle
 10
193.6481591818645
 20
73.78989056241173
 30
0.0
 40
2.999999964099133
100
AcDbArc
 50
191.2307891845703
 51
288.0005187988281
  0
ARC
  5
182
330
1F
100
AcDbEntity
  8
通り芯
  6
Continuous
 62
     3
370
     9
100
AcDbCircle
 10
192.9573566850317
 20
63.05088631681568
 30
0.0
 40
2.999999964099133
100
AcDbArc
 50
108.0002136230469
 51
172.9998321533203
  0
ARC
  5
183
330
1F
100
AcDbEntity
  8
通り芯
  6
Continuous
 62
     3
370
     9
100
AcDbCircle
 10
73.52792852553156
 20
64.50570097731881
 30
0.0
 40
1.999999976066088
100
AcDbArc
 50
6.762680053710938
 51
71.99925231933594
  0
ARC
  5
184
330
1F
100
AcDbEntity
  8
通り芯
  6
Continuous
 62
     3
370
     9
100
AcDbCircle
 10
90.63358415151194
 20
46.42949233983089
 30
0.0
 40
1.499999982049566
100
AcDbArc
 50
270.0
 51
348.689697265625
  0
ARC
  5
185
330
1F
100
AcDbEntity
  8
通り芯
  6
Continuous
 62
     3
370
     9
100
AcDbCircle
 10
94.09298587501277
 20
48.42939006470422
 30
0.0
 40
1.499999982049566
100
AcDbArc
 50
90.0
 51
168.6898803710938
  0
ARC
  5
186
330
1F
100
AcDbEntity
  8
通り芯
  6
Continuous
 62
     3
370
     9
100
AcDbCircle
 10
176.9821115075161
 20
60.42947631515668
 30
0.0
 40
1.499999982049566
100
AcDbArc
 50
90.0
 51
163.4409027099609
  0
ARC
  5
187
330
1F
100
AcDbEntity
  8
通り芯
  6
Continuous
 62
     3
370
     9
100
AcDbCircle
 10
184.4399788684596
 20
63.42939289258791
 30
0.0
 40
1.499999982049566
100
AcDbArc
 50
270.0
 51
352.9997253417969
  0
ARC
  5
188
330
1F
100
AcDbEntity
  8
通り芯
  6
JWW_DASHED1
 62
     3
370
     9
100
AcDbCircle
 10
74.76913333595027
 20
63.05088631681568
 30
0.0
 40
2.999999964099133
100
AcDbArc
 50
7.000167846679688
 51
71.99978637695312
  0
ARC
  5
189
330
1F
100
AcDbEntity
  8
通り芯
  6
JWW_PHANTOM2
 62
     3
370
     9
100
AcDbCircle
 10
90.74437851346593
 20
60.42947631515668
 30
0.0
 40
1.499999982049566
100
AcDbArc
 50
16.55909729003906
 51
90.0
  0
ARC
  5
18A
330
1F
100
AcDbEntity
  8
通り芯
  6
JWW_PHANTOM2
 62
     3
370
     9
100
AcDbCircle
 10
83.28665113276494
 20
63.42939289258791
 30
0.0
 40
1.499999982049566
100
AcDbArc
 50
187.0002746582031
 51
270.0
  0
ARC
  5
18B
330
1F
100
AcDbEntity
  8
通り芯
  6
Continuous
 62
     3
370
     9
100
AcDbCircle
 10
182.1305848273761
 20
56.92941033120397
 30
0.0
 40
6.999999642832399
100
AcDbArc
 50
270.0
 51
352.9994812011719
  0
ARC
  5
18C
330
1F
100
AcDbEntity
  8
通り芯
  6
JWW_DASHED1
 62
     3
370
     9
100
AcDbCircle
 10
85.59590519360589
 20
56.92941033120397
 30
0.0
 40
6.999999642832399
100
AcDbArc
 50
186.9999542236328
 51
270.0
  0
ARC
  5
18D
330
1F
100
AcDbEntity
  8
通り芯
  6
Continuous
 62
     3
370
     9
100
AcDbCircle
 10
77.86339659683952
 20
29.92946123311035
 30
0.0
 40
1.999999976066088
100
AcDbArc
 50
270.0
 51
0.0
  0
ARC
  5
18E
330
1F
100
AcDbEntity
  8
通り芯
  6
Continuous
 62
     3
370
     9
100
AcDbCircle
 10
77.86339659683952
 20
29.92946123311035
 30
0.0
 40
7.999999904264354
100
AcDbArc
 50
270.0
 51
0.0
  0
ARC
  5
18F
330
1F
100
AcDbEntity
  8
通り芯
  6
JWW_CENTER1
 62
     3
370
     9
100
AcDbCircle
 10
77.863256616597
 20
29.92946123311035
 30
0.0
 40
5.000000213564133
100
AcDbArc
 50
270.0
 51
0.0
  0
ARC
  5
190
330
1F
100
AcDbEntity
  8
通り芯
  6
Continuous
 62
     3
370
     9
100
AcDbCircle
 10
79.19600850562327
 20
46.42949233983089
 30
0.0
 40
1.499999982049566
100
AcDbArc
 50
186.7625885009766
 51
270.0
  0
ARC
  5
191
330
1F
100
AcDbEntity
  8
仕上
  6
Continuous
 62
     6
370
     9
100
AcDbCircle
 10
173.5335582528105
 20
64.92942117142476
 30
0.0
 40
2.999999964099133
100
AcDbArc
 50
183.9813690185547
 51
270.0
  0
ARC
  5
192
330
1F
100
AcDbEntity
  8
仕上
  6
Continuous
 62
     6
370
     9
100
AcDbCircle
 10
176.7353263399545
 20
69.3382388898128
 30
0.0
 40
1.999999976066088
100
AcDbArc
 50
183.9813690185547
 51
267.1378479003906
  0
ARC
  5
193
330
1F
100
AcDbEntity
  8
仕上
  6
Continuous
 62
     6
370
     9
100
AcDbCircle
 10
84.68309403213752
 20
62.92938346630896
 30
0.0
 40
0.9999999880330442
100
AcDbArc
 50
191.3099365234376
 51
270.0
  0
ARC
  5
194
330
1F
100
AcDbEntity
  8
仕上
  6
Continuous
 62
     6
370
     9
100
AcDbCircle
 10
94.19300175829275
 20
64.92942117142476
 30
0.0
 40
2.999999964099133
100
AcDbArc
 50
270.0
 51
356.0186309814453
  0
ARC
  5
195
330
1F
100
AcDbEntity
  8
仕上
  6
Continuous
 62
     6
370
     9
100
AcDbCircle
 10
90.99137365139123
 20
69.3382388898128
 30
0.0
 40
1.999999976066088
100
AcDbArc
 50
272.8621520996094
 51
356.0186309814454
  0
ARC
  5
196
330
1F
100
AcDbEntity
  8
仕上
  6
Continuous
 62
     6
370
     9
100
AcDbCircle
 10
176.6653362186949
 20
70.34301707061636
 30
0.0
 40
1.999999976066088
100
AcDbArc
 50
183.9813690185547
 51
267.1378479003906
  0
ARC
  5
197
330
1F
100
AcDbEntity
  8
仕上
  6
Continuous
 62
     6
370
     9
100
AcDbCircle
 10
173.4711270646469
 20
63.42939289258791
 30
0.0
 40
1.499999982049566
100
AcDbArc
 50
272.3879547119141
 51
344.5776824951172
  0
ARC
  5
198
330
1F
100
AcDbEntity
  8
仕上
  6
Continuous
 62
     6
370
     9
100
AcDbCircle
 10
90.61482679901431
 20
63.92940231886686
 30
0.0
 40
1.999999976066088
100
AcDbArc
 50
270.0
 51
356.0186309814453
  0
ELLIPSE
  5
199
330
1F
100
AcDbEntity
  8
仕上
  6
Continuous
 62
     6
370
     9
100
AcDbEllipse
 10
180.8632037116064
 20
68.6421171437643
 30
0.0
 11
5.249980320801606
 21
0.0
 31
0.0
210
0.0
220
0.0
230
1.0
 40
0.7428
 41
0.0
 42
1.475408288134874
  0
ELLIPSE
  5
19A
330
1F
100
AcDbEntity
  8
仕上
  6
Continuous
 62
     6
370
     9
100
AcDbEllipse
 10
180.8632037116064
 20
68.6421171437643
 30
0.0
 11
5.249980320801606
 21
0.0
 31
0.0
210
0.0
220
0.0
230
1.0
 40
0.7428
 41
1.666184365454919
 42
3.141592653589793
  0
ARC
  5
19B
330
1F
100
AcDbEntity
  8
仕上
  6
Continuous
 62
     6
370
     9
100
AcDbCircle
 10
183.0435359690871
 20
62.92938346630896
 30
0.0
 40
0.9999999880330442
100
AcDbArc
 50
325.0665130615234
 51
348.6900634765624
  0
ELLIPSE
  5
19C
330
1F
100
AcDbEntity
  8
仕上
  6
Continuous
 62
     6
370
     9
100
AcDbEllipse
 10
91.7186410014003
 20
125.2876419235664
 30
0.0
 11
0.364510133256976
 21
5.237310925614127
 31
0.0
210
0.0
220
0.0
230
1.0
 40
0.7428
 41
0.0
 42
1.475408288134874
  0
ELLIPSE
  5
19D
330
1F
100
AcDbEntity
  8
仕上
  6
Continuous
 62
     6
370
     9
100
AcDbEllipse
 10
91.7186410014003
 20
125.2876419235664
 30
0.0
 11
0.364510133256976
 21
5.237310925614127
 31
0.0
210
0.0
220
0.0
230
1.0
 40
0.7428
 41
1.666184365454919
 42
3.141592653589793
  0
ARC
  5
19E
330
1F
100
AcDbEntity
  8
通り芯
  6
Continuous
 62
     3
370
     9
100
AcDbCircle
 10
85.42729899149143
 20
58.3028964708034
 30
0.0
 40
2.999999964099133
100
AcDbArc
 50
187.0003356933594
 51
266.0
  0
ARC
  5
19F
330
1F
100
AcDbEntity
  8
通り芯
  6
Continuous
 62
     3
370
     9
100
AcDbCircle
 10
103.7791287264998
 20
43.92944520843614
 30
0.0
 40
5.000000213564133
100
AcDbArc
 50
4.08538818359375
 51
90.0
  0
ARC
  5
1A0
330
1F
100
AcDbEntity
  8
通り芯
  6
JWW_DASHED1
 62
     3
370
     9
100
AcDbCircle
 10
182.2992610196119
 20
58.3028964708034
 30
0.0
 40
2.999999964099133
100
AcDbArc
 50
274.0
 51
352.9996643066406
  0
ARC
  5
1A1
330
1F
100
AcDbEntity
  8
通り芯
  6
Continuous
 62
     3
370
     9
100
AcDbCircle
 10
163.9473962895428
 20
43.92944520843614
 30
0.0
 40
5.000000213564133
100
AcDbArc
 50
90.0
 51
175.9146118164062
  0
ARC
  5
1A2
330
1F
100
AcDbEntity
  8
通り芯
  6
Continuous
 62
     3
370
     9
100
AcDbCircle
 10
172.5706341645202
 20
56.11892472701717
 30
0.0
 40
1.499999982049566
100
AcDbArc
 50
274.0000915527344
 51
343.4413299560547
  0
ARC
  5
1A3
330
1F
100
AcDbEntity
  8
通り芯
  6
JWW_PHANTOM2
 62
     3
370
     9
100
AcDbCircle
 10
95.15585585646178
 20
56.11892472701717
 30
0.0
 40
1.499999982049566
100
AcDbArc
 50
196.5586700439454
 51
265.9999084472656
  0
ARC
  5
1A4
330
1F
100
AcDbEntity
  8
その他
  6
Continuous
 62
     2
370
     9
100
AcDbCircle
 10
107.0529866385413
 20
71.90393675494911
 30
0.0
 40
0.4999999940165221
100
AcDbArc
 50
308.3153381347656
 51
18.43495178222658
  0
ARC
  5
1A5
330
1F
100
AcDbEntity
  8
その他
  6
Continuous
 62
     2
370
     9
100
AcDbCircle
 10
107.0529866385413
 20
71.90393675494911
 30
0.0
 40
1.10000001417624
100
AcDbArc
 50
308.3153381347656
 51
18.43495178222658
  0
ARC
  5
1A6
330
1F
100
AcDbEntity
  8
その他
  6
Continuous
 62
     2
370
     9
100
AcDbCircle
 10
160.6735383775013
 20
71.90393675494911
 30
0.0
 40
0.4999999940165221
100
AcDbArc
 50
161.5650482177734
 51
231.6846618652344
  0
ARC
  5
1A7
330
1F
100
AcDbEntity
  8
その他
  6
Continuous
 62
     2
370
     9
100
AcDbCircle
 10
160.6735383775013
 20
71.90393675494911
 30
0.0
 40
1.10000001417624
100
AcDbArc
 50
161.5650482177734
 51
231.6846618652344
  0
ELLIPSE
  5
1A8
330
1F
100
AcDbEntity
  8
1-0ﾚｲﾔ
  6
Continuous
 62
     4
370
     9
100
AcDbEllipse
 10
118.8656393442604
 20
-48.20897993371216
 30
0.0
 11
2.379578086045926E-15
 21
38.86145928283455
 31
0.0
210
0.0
220
0.0
230
1.0
 40
0.674
 41
2.531984427426295
 42
3.751200879753291
  0
ELLIPSE
  5
1A9
330
1F
100
AcDbEntity
  8
1-0ﾚｲﾔ
  6
Continuous
 62
     4
370
     9
100
AcDbEllipse
 10
148.8641052173601
 20
-111.9318357851691
 30
0.0
 11
2.379582639558506E-15
 21
38.86153364733839
 31
0.0
210
0.0
220
0.0
230
1.0
 40
0.674
 41
5.673576814699978
 42
6.892793799659193
  0
ELLIPSE
  5
1AA
330
1F
100
AcDbEntity
  8
1-0ﾚｲﾔ
  6
Continuous
 62
     4
370
     9
100
AcDbEllipse
 10
148.8641052173601
 20
-48.2089099435909
 30
0.0
 11
2.379582639558506E-15
 21
38.86153364733839
 31
0.0
210
0.0
220
0.0
230
1.0
 40
0.674
 41
2.531984161110186
 42
3.7512011460694
  0
ELLIPSE
  5
1AB
330
1F
100
AcDbEntity
  8
1-0ﾚｲﾔ
  6
Continuous
 62
     4
370
     9
100
AcDbEllipse
 10
148.8668348320892
 20
170.0680214067047
 30
0.0
 11
2.379578086045926E-15
 21
-38.86145928283455
 31
0.0
210
0.0
220
0.0
230
1.0
 40
0.674
 41
2.531984427426295
 42
3.751200879753291
  0
ELLIPSE
  5
1AC
330
1F
100
AcDbEntity
  8
1-0ﾚｲﾔ
  6
Continuous
 62
     4
370
     9
100
AcDbEllipse
 10
118.8683689589896
 20
233.7908772581617
 30
0.0
 11
2.379582639558506E-15
 21
-38.86153364733839
 31
0.0
210
0.0
220
0.0
230
1.0
 40
0.674
 41
5.673576814699978
 42
6.892793799659193
  0
ELLIPSE
  5
1AD
330
1F
100
AcDbEntity
  8
1-0ﾚｲﾔ
  6
Continuous
 62
     4
370
     9
100
AcDbEllipse
 10
118.8683689589896
 20
170.0679514165834
 30
0.0
 11
2.379582639558506E-15
 21
-38.86153364733839
 31
0.0
210
0.0
220
0.0
230
1.0
 40
0.674
 41
2.531984161110186
 42
3.7512011460694
  0
TEXT
  5
1AE
330
1F
100
AcDbEntity
  8
1-4ﾚｲﾔ
  6
Continuous
 62
     7
370
     9
100
AcDbText
 10
231.0867184599624
 20
126.4609857206978
 30
0.0
 40
4.572
  1
 コーキング
 41
1.136363636363637
  7
ＭＳ ゴシック
100
AcDbText
  0
TEXT
  5
1AF
330
1F
100
AcDbEntity
  8
1-4ﾚｲﾔ
  6
Continuous
 62
     7
370
     9
100
AcDbText
 10
236.8747454832189
 20
-46.94058955191016
 30
0.0
 40
4.572
  1
 スラブコンクリート
 41
1.149122807017544
  7
ＭＳ ゴシック
100
AcDbText
  0
LWPOLYLINE
  5
1B0
330
1F
100
AcDbEntity
  8
1-4ﾚｲﾔ
  6
Continuous
 62
     7
370
     9
100
AcDbPolyline
 90
        4
 70
     1
 43
0.4
 10
217.0748008626078
 20
-5.922068510570256
 42
0.4142135623731
 10
216.8748008626078
 20
-5.722068510570256
 42
0.4142135623731
 10
216.6748008626078
 20
-5.922068510570256
 42
0.4142135623731
 10
216.8748008626078
 20
-6.122068510570256
 42
0.4142135623731
  0
LINE
  5
1B1
330
1F
100
AcDbEntity
  8
建具
  6
Continuous
 62
     4
370
     9
100
AcDbLine
 10
171.3633045727912
 20
49.9295583237836
 30
0.0
 11
171.3633045727912
 21
-25.07059579587732
 31
0.0
  0
LINE
  5
1B2
330
1F
100
AcDbEntity
  8
建具
  6
Continuous
 62
     4
370
     9
100
AcDbLine
 10
173.8632117239434
 20
49.9295583237836
 30
0.0
 11
173.8632117239434
 21
-25.07059579587732
 31
0.0
  0
LINE
  5
1B3
330
1F
100
AcDbEntity
  8
建具
  6
Continuous
 62
     4
370
     9
100
AcDbLine
 10
96.36325543831205
 20
49.9295583237836
 30
0.0
 11
96.36325543831205
 21
-25.07059579587732
 31
0.0
  0
LINE
  5
1B4
330
1F
100
AcDbEntity
  8
建具
  6
Continuous
 62
     4
370
     9
100
AcDbLine
 10
93.86327829703859
 20
49.9295583237836
 30
0.0
 11
93.86327829703859
 21
-25.07059579587732
 31
0.0
  0
LINE
  5
1B5
330
1F
100
AcDbEntity
  8
建具
  6
Continuous
 62
     4
370
     9
100
AcDbLine
 10
173.8632117239434
 20
-25.07059579587732
 30
0.0
 11
163.86333815391
 21
-25.07059579587732
 31
0.0
  0
LINE
  5
1B6
330
1F
100
AcDbEntity
  8
建具
  6
Continuous
 62
     4
370
     9
100
AcDbLine
 10
103.8632568522539
 20
-25.07059579587732
 30
0.0
 11
93.86327829703859
 21
-25.07059579587732
 31
0.0
  0
LINE
  5
1B7
330
1F
100
AcDbEntity
  8
通り芯
  6
Continuous
 62
     3
370
     9
100
AcDbLine
 10
207.9726633065924
 20
74.05352368346514
 30
0.0
 11
208.8633116425004
 21
66.92945887654062
 31
0.0
  0
LINE
  5
1B8
330
1F
100
AcDbEntity
  8
通り芯
  6
Continuous
 62
     3
370
     9
100
AcDbLine
 10
206.9803878340823
 20
74.92946971676142
 30
0.0
 11
206.8632739373846
 21
74.92946971676142
 31
0.0
  0
ARC
  5
1B9
330
1F
100
AcDbEntity
  8
通り芯
  6
Continuous
 62
     3
370
     9
100
AcDbCircle
 10
206.9803878340823
 20
73.92946971676142
 30
0.0
 40
1.0
100
AcDbArc
 50
7.126126844614579
 51
90.00000000000001
  0
LINE
  5
1BA
330
1F
100
AcDbEntity
  8
通り芯
  6
Continuous
 62
     3
370
     9
100
AcDbLine
 10
59.75383330928322
 20
74.05351513587595
 30
0.0
 11
58.86324836860288
 21
66.92945887654062
 31
0.0
  0
LINE
  5
1BB
330
1F
100
AcDbEntity
  8
通り芯
  6
Continuous
 62
     3
370
     9
100
AcDbLine
 10
60.7461098503728
 20
74.92946971676142
 30
0.0
 11
60.86328607371874
 21
74.92946971676142
 31
0.0
  0
ARC
  5
1BC
330
1F
100
AcDbEntity
  8
通り芯
  6
Continuous
 62
     3
370
     9
100
AcDbCircle
 10
60.7461098503728
 20
73.92946971676142
 30
0.0
 40
1.0
100
AcDbArc
 50
90.0
 51
172.8743667083712
  0
LINE
  5
1BD
330
1F
100
AcDbEntity
  8
1-6ﾚｲﾔ
  6
Continuous
 62
     6
370
     9
100
AcDbLine
 10
-3.636667501857374
 20
74.92946971676142
 30
0.0
 11
-11.13666750185737
 21
104.9294697167614
 31
0.0
  0
LINE
  5
1BE
330
1F
100
AcDbEntity
  8
1-6ﾚｲﾔ
  6
Continuous
 62
     6
370
     9
100
AcDbLine
 10
60.7461098503728
 20
74.92946971676142
 30
0.0
 11
-3.636667501857374
 21
74.92946971676142
 31
0.0
  0
LINE
  5
1BF
330
1F
100
AcDbEntity
  8
1-6ﾚｲﾔ
  6
Continuous
 62
     6
370
     9
100
AcDbLine
 10
-11.13666750185737
 20
104.9294697167614
 30
0.0
 11
-46.13666750185737
 21
104.9294697167614
 31
0.0
  0
LINE
  5
1C0
330
1F
100
AcDbEntity
  8
1-6ﾚｲﾔ
  6
Continuous
 62
     6
370
     9
100
AcDbLine
 10
278.8633324981427
 20
104.9294697167614
 30
0.0
 11
313.8633324981427
 21
104.9294697167614
 31
0.0
  0
LINE
  5
1C1
330
1F
100
AcDbEntity
  8
1-6ﾚｲﾔ
  6
Continuous
 62
     6
370
     9
100
AcDbLine
 10
206.9803878340823
 20
74.92946971676142
 30
0.0
 11
271.3633324981427
 21
74.92946971676142
 31
0.0
  0
LINE
  5
1C2
330
1F
100
AcDbEntity
  8
1-6ﾚｲﾔ
  6
Continuous
 62
     6
370
     9
100
AcDbLine
 10
271.3633324981427
 20
74.92946971676142
 30
0.0
 11
278.8633324981427
 21
104.9294697167614
 31
0.0
  0
LINE
  5
1C3
330
1F
100
AcDbEntity
  8
通り芯
  6
JWW_CENTER1
 62
     3
370
     9
100
AcDbLine
 10
133.8633324981426
 20
219.2177305221678
 30
0.0
 11
133.8633324981426
 21
-90.48449000835367
 31
0.0
  0
LINE
  5
1C4
330
1F
100
AcDbEntity
  8
1-6ﾚｲﾔ
  6
Continuous
 62
     6
370
     9
100
AcDbLine
 10
103.8632568522539
 20
-25.07059579587732
 30
0.0
 11
-46.13666750185737
 21
-25.07059579587732
 31
0.0
  0
LINE
  5
1C5
330
1F
100
AcDbEntity
  8
1-6ﾚｲﾔ
  6
Continuous
 62
     6
370
     9
100
AcDbLine
 10
-46.13666750185737
 20
1.28557559022471
 30
0.0
 11
27.50704413318724
 21
74.92946971676142
 31
0.0
  0
LINE
  5
1C6
330
1F
100
AcDbEntity
  8
1-6ﾚｲﾔ
  6
Continuous
 62
     6
370
     9
100
AcDbLine
 10
-46.13666750185737
 20
6.942500009649194
 30
0.0
 11
21.85040753792148
 21
74.92946971676142
 31
0.0
  0
LINE
  5
1C7
330
1F
100
AcDbEntity
  8
1-6ﾚｲﾔ
  6
Continuous
 62
     6
370
     9
100
AcDbLine
 10
-46.13666750185737
 20
4.114058881819233
 30
0.0
 11
24.67874333308467
 21
74.92946971676142
 31
0.0
  0
LINE
  5
1C8
330
1F
100
AcDbEntity
  8
1-6ﾚｲﾔ
  6
Continuous
 62
     6
370
     9
100
AcDbLine
 10
163.86333815391
 20
-25.07059579587732
 30
0.0
 11
313.8633324981427
 21
-25.07059579587732
 31
0.0
  0
LINE
  5
1C9
330
1F
100
AcDbEntity
  8
1-6ﾚｲﾔ
  6
Continuous
 62
     6
370
     9
100
AcDbLine
 10
209.853531878082
 20
-25.07059579587732
 30
0.0
 11
313.8633324981427
 21
78.93920482418325
 31
0.0
  0
LINE
  5
1CA
330
1F
100
AcDbEntity
  8
1-6ﾚｲﾔ
  6
Continuous
 62
     6
370
     9
100
AcDbLine
 10
207.0250910977369
 20
-25.07059579587732
 30
0.0
 11
313.8633324981427
 21
81.76764560452834
 31
0.0
  0
LINE
  5
1CB
330
1F
100
AcDbEntity
  8
1-6ﾚｲﾔ
  6
Continuous
 62
     6
370
     9
100
AcDbLine
 10
212.681972658427
 20
-25.07059579587732
 30
0.0
 11
313.8633324981427
 21
76.11076404383816
 31
0.0
  0
LINE
  5
1CC
330
1F
100
AcDbEntity
  8
通り芯
  6
Continuous
 62
     3
370
     9
100
AcDbLine
 10
60.74604069086294
 20
74.9294347217008
 30
0.0
 11
60.86332106877933
 21
74.9294347217008
 31
0.0
  0
LINE
  5
1CD
330
1F
100
AcDbEntity
  8
ハッチ
  6
Continuous
 62
     6
370
     9
100
AcDbLine
 10
60.68383086635018
 20
74.92749781476093
 30
0.0
 11
60.68576777329068
 21
74.92943472170145
 31
0.0
  0
LINE
  5
1CE
330
1F
100
AcDbEntity
  8
ハッチ
  6
Continuous
 62
     6
370
     9
100
AcDbLine
 10
53.11311416195625
 20
67.0534852597528
 30
0.0
 11
58.87875189497228
 21
67.0534852597528
 31
0.0
  0
LINE
  5
1CF
330
1F
100
AcDbEntity
  8
ハッチ
  6
Continuous
 62
     6
370
     9
100
AcDbLine
 10
58.46667256083569
 20
67.05348525975312
 30
0.0
 11
58.93762136274074
 21
67.52443406165816
 31
0.0
  0
LINE
  5
1D0
330
1F
100
AcDbEntity
  8
ハッチ
  6
Continuous
 62
     6
370
     9
100
AcDbLine
 10
57.05245899846244
 20
67.0534852597532
 30
0.0
 11
59.13965527425134
 21
69.1406815355421
 31
0.0
  0
LINE
  5
1D1
330
1F
100
AcDbEntity
  8
ハッチ
  6
Continuous
 62
     6
370
     9
100
AcDbLine
 10
55.63824543608919
 20
67.05348525975329
 30
0.0
 11
59.34168918576196
 21
70.75692900942605
 31
0.0
  0
LINE
  5
1D2
330
1F
100
AcDbEntity
  8
ハッチ
  6
Continuous
 62
     6
370
     9
100
AcDbLine
 10
54.22403187371594
 20
67.05348525975336
 30
0.0
 11
59.54372309727256
 21
72.37317648330999
 31
0.0
  0
LINE
  5
1D3
330
1F
100
AcDbEntity
  8
ハッチ
  6
Continuous
 62
     6
370
     9
100
AcDbLine
 10
53.0409050165128
 20
67.28457196492354
 30
0.0
 11
59.74575700878319
 21
73.98942395719395
 31
0.0
  0
LINE
  5
1D4
330
1F
100
AcDbEntity
  8
ハッチ
  6
Continuous
 62
     6
370
     9
100
AcDbLine
 10
52.70420686318477
 20
68.36208737396888
 30
0.0
 11
59.27155421091746
 21
74.92943472170154
 31
0.0
  0
LINE
  5
1D5
330
1F
100
AcDbEntity
  8
ハッチ
  6
Continuous
 62
     6
370
     9
100
AcDbLine
 10
52.36750870985696
 20
69.43960278301438
 30
0.0
 11
57.85734064854316
 21
74.92943472170059
 31
0.0
  0
LINE
  5
1D6
330
1F
100
AcDbEntity
  8
ハッチ
  6
Continuous
 62
     6
370
     9
100
AcDbLine
 10
52.03081055652905
 20
70.5171181920598
 30
0.0
 11
56.44312708616991
 21
74.92943472170067
 31
0.0
  0
LINE
  5
1D7
330
1F
100
AcDbEntity
  8
ハッチ
  6
Continuous
 62
     6
370
     9
100
AcDbLine
 10
51.6941124032011
 20
71.59463360110522
 30
0.0
 11
55.02891352379669
 21
74.92943472170077
 31
0.0
  0
LINE
  5
1D8
330
1F
100
AcDbEntity
  8
ハッチ
  6
Continuous
 62
     6
370
     9
100
AcDbLine
 10
51.35741424987319
 20
72.67214901015062
 30
0.0
 11
53.61469996142344
 21
74.92943472170086
 31
0.0
  0
LINE
  5
1D9
330
1F
100
AcDbEntity
  8
ハッチ
  6
Continuous
 62
     6
370
     9
100
AcDbLine
 10
51.02071609654527
 20
73.74966441919604
 30
0.0
 11
52.20048639905019
 21
74.92943472170096
 31
0.0
  0
LINE
  5
1DA
330
1F
100
AcDbEntity
  8
ハッチ
  6
Continuous
 62
     6
370
     9
100
AcDbLine
 10
50.68401794321736
 20
74.82717982824146
 30
0.0
 11
50.78627283667694
 21
74.92943472170104
 31
0.0
  0
LINE
  5
1DB
330
1F
100
AcDbEntity
  8
ハッチ
  6
Continuous
 62
     6
370
     9
100
AcDbLine
 10
53.00774860313587
 20
67.39068049557436
 30
0.0
 11
53.34494383895711
 21
67.0534852597531
 31
0.0
  0
LINE
  5
1DC
330
1F
100
AcDbEntity
  8
ハッチ
  6
Continuous
 62
     6
370
     9
100
AcDbLine
 10
52.36499481846474
 20
69.44764784261882
 30
0.0
 11
54.75915740133036
 21
67.05348525975319
 31
0.0
  0
LINE
  5
1DD
330
1F
100
AcDbEntity
  8
ハッチ
  6
Continuous
 62
     6
370
     9
100
AcDbLine
 10
51.72224103379361
 20
71.50461518966328
 30
0.0
 11
56.17337096370363
 21
67.05348525975326
 31
0.0
  0
LINE
  5
1DE
330
1F
100
AcDbEntity
  8
ハッチ
  6
Continuous
 62
     6
370
     9
100
AcDbLine
 10
51.07948724912248
 20
73.56158253670775
 30
0.0
 11
57.58758452607688
 21
67.05348525975334
 31
0.0
  0
LINE
  5
1DF
330
1F
100
AcDbEntity
  8
ハッチ
  6
Continuous
 62
     6
370
     9
100
AcDbLine
 10
51.12584862649811
 20
74.92943472170181
 30
0.0
 11
58.89242387333886
 21
67.16285947486105
 31
0.0
  0
LINE
  5
1E0
330
1F
100
AcDbEntity
  8
ハッチ
  6
Continuous
 62
     6
370
     9
100
AcDbLine
 10
52.54006218887235
 20
74.9294347217009
 30
0.0
 11
59.04956077195769
 21
68.41993613861558
 31
0.0
  0
LINE
  5
1E1
330
1F
100
AcDbEntity
  8
ハッチ
  6
Continuous
 62
     6
370
     9
100
AcDbLine
 10
53.95427575124558
 20
74.929434721701
 30
0.0
 11
59.20669767057649
 21
69.67701280237009
 31
0.0
  0
LINE
  5
1E2
330
1F
100
AcDbEntity
  8
ハッチ
  6
Continuous
 62
     6
370
     9
100
AcDbLine
 10
55.36848931361882
 20
74.92943472170109
 30
0.0
 11
59.36383456919529
 21
70.93408946612462
 31
0.0
  0
LINE
  5
1E3
330
1F
100
AcDbEntity
  8
ハッチ
  6
Continuous
 62
     6
370
     9
100
AcDbLine
 10
56.78270287599207
 20
74.92943472170118
 30
0.0
 11
59.52097146781412
 21
72.19116612987915
 31
0.0
  0
LINE
  5
1E4
330
1F
100
AcDbEntity
  8
ハッチ
  6
Continuous
 62
     6
370
     9
100
AcDbLine
 10
58.19691643836529
 20
74.92943472170128
 30
0.0
 11
59.67810836643284
 21
73.44824279363374
 31
0.0
  0
LINE
  5
1E5
330
1F
100
AcDbEntity
  8
ハッチ
  6
Continuous
 62
     6
370
     9
100
AcDbLine
 10
59.61113000073959
 20
74.92943472170032
 30
0.0
 11
59.9747034122189
 21
74.56586131022101
 31
0.0
  0
LINE
  5
1E6
330
1F
100
AcDbEntity
  8
ハッチ
  6
Continuous
 62
     6
370
     9
100
AcDbLine
 10
217.0745992957062
 20
74.9294347217008
 30
0.0
 11
214.613550834329
 21
67.05348525975279
 31
0.0
  0
LINE
  5
1E7
330
1F
100
AcDbEntity
  8
ハッチ
  6
Continuous
 62
     6
370
     9
100
AcDbLine
 10
214.613550834329
 20
67.05348525975279
 30
0.0
 11
208.847913101313
 21
67.05348525975279
 31
0.0
  0
LINE
  5
1E8
330
1F
100
AcDbEntity
  8
1-4ﾚｲﾔ
  6
Continuous
 62
     7
370
     9
100
AcDbLine
 10
211.0866178344345
 20
71.88765231052304
 30
0.0
 11
211.0866178344345
 21
128.6149722882503
 31
0.0
  0
LINE
  5
1E9
330
1F
100
AcDbEntity
  8
ハッチ
  6
Continuous
 62
     6
370
     9
100
AcDbLine
 10
213.2891688520026
 20
67.05348525975333
 30
0.0
 11
215.2154765647415
 21
68.97979297249218
 31
0.0
  0
LINE
  5
1EA
330
1F
100
AcDbEntity
  8
ハッチ
  6
Continuous
 62
     6
370
     9
100
AcDbLine
 10
211.8749552896318
 20
67.05348525975222
 30
0.0
 11
215.8582303494121
 21
71.03676031953248
 31
0.0
  0
LINE
  5
1EB
330
1F
100
AcDbEntity
  8
ハッチ
  6
Continuous
 62
     6
370
     9
100
AcDbLine
 10
210.4607417272581
 20
67.05348525975185
 30
0.0
 11
216.5009841340838
 21
73.09372766657756
 31
0.0
  0
LINE
  5
1EC
330
1F
100
AcDbEntity
  8
ハッチ
  6
Continuous
 62
     6
370
     9
100
AcDbLine
 10
209.046528164885
 20
67.05348525975202
 30
0.0
 11
216.9225126218941
 21
74.92946971676118
 31
0.0
  0
LINE
  5
1ED
330
1F
100
AcDbEntity
  8
ハッチ
  6
Continuous
 62
     6
370
     9
100
AcDbLine
 10
208.7127324095973
 20
68.13390306683765
 30
0.0
 11
215.508299059521
 21
74.92946971676137
 31
0.0
  0
LINE
  5
1EE
330
1F
100
AcDbEntity
  8
ハッチ
  6
Continuous
 62
     6
370
     9
100
AcDbLine
 10
208.5555755739752
 20
69.39095979358893
 30
0.0
 11
214.0940854971478
 21
74.92946971676157
 31
0.0
  0
LINE
  5
1EF
330
1F
100
AcDbEntity
  8
ハッチ
  6
Continuous
 62
     6
370
     9
100
AcDbLine
 10
208.398418738353
 20
70.64801652034008
 30
0.0
 11
212.6798719347747
 21
74.92946971676177
 31
0.0
  0
LINE
  5
1F0
330
1F
100
AcDbEntity
  8
ハッチ
  6
Continuous
 62
     6
370
     9
100
AcDbLine
 10
208.2412619027308
 20
71.90507324709122
 30
0.0
 11
211.2656583724016
 21
74.92946971676196
 31
0.0
  0
LINE
  5
1F1
330
1F
100
AcDbEntity
  8
ハッチ
  6
Continuous
 62
     6
370
     9
100
AcDbLine
 10
208.0841050671087
 20
73.16212997384238
 30
0.0
 11
209.8514448100284
 21
74.92946971676216
 31
0.0
  0
LINE
  5
1F2
330
1F
100
AcDbEntity
  8
ハッチ
  6
Continuous
 62
     6
370
     9
100
AcDbLine
 10
207.878005718286
 20
74.3702441873931
 30
0.0
 11
208.4372312476553
 21
74.92946971676236
 31
0.0
  0
LINE
  5
1F3
330
1F
100
AcDbEntity
  8
ハッチ
  6
Continuous
 62
     6
370
     9
100
AcDbLine
 10
207.0221454554188
 20
74.92859748689915
 30
0.0
 11
207.0230176852822
 21
74.92946971676255
 31
0.0
  0
LINE
  5
1F4
330
1F
100
AcDbEntity
  8
ハッチ
  6
Continuous
 62
     6
370
     9
100
AcDbLine
 10
208.8189146477069
 20
67.28457891145266
 30
0.0
 11
209.0500082994067
 21
67.05348525975282
 31
0.0
  0
LINE
  5
1F5
330
1F
100
AcDbEntity
  8
ハッチ
  6
Continuous
 62
     6
370
     9
100
AcDbLine
 10
208.6168477776682
 20
68.90085934386462
 30
0.0
 11
210.4642218617799
 21
67.05348525975299
 31
0.0
  0
LINE
  5
1F6
330
1F
100
AcDbEntity
  8
ハッチ
  6
Continuous
 62
     6
370
     9
100
AcDbLine
 10
208.4147809076296
 20
70.5171397762766
 30
0.0
 11
211.878435424153
 21
67.05348525975317
 31
0.0
  0
LINE
  5
1F7
330
1F
100
AcDbEntity
  8
ハッチ
  6
Continuous
 62
     6
370
     9
100
AcDbLine
 10
208.212714037591
 20
72.13342020868856
 30
0.0
 11
213.2926489865262
 21
67.05348525975334
 31
0.0
  0
LINE
  5
1F8
330
1F
100
AcDbEntity
  8
ハッチ
  6
Continuous
 62
     6
370
     9
100
AcDbLine
 10
208.0106471675523
 20
73.74970064110053
 30
0.0
 11
214.6357666317279
 21
67.12458117692495
 31
0.0
  0
LINE
  5
1F9
330
1F
100
AcDbEntity
  8
ハッチ
  6
Continuous
 62
     6
370
     9
100
AcDbLine
 10
208.2450916542655
 20
74.92946971676065
 30
0.0
 11
214.9724647850558
 21
68.20209658597045
 31
0.0
  0
LINE
  5
1FA
330
1F
100
AcDbEntity
  8
ハッチ
  6
Continuous
 62
     6
370
     9
100
AcDbLine
 10
209.6593052166387
 20
74.92946971676085
 30
0.0
 11
215.3091629383836
 21
69.27961199501593
 31
0.0
  0
LINE
  5
1FB
330
1F
100
AcDbEntity
  8
ハッチ
  6
Continuous
 62
     6
370
     9
100
AcDbLine
 10
211.0735187790118
 20
74.92946971676103
 30
0.0
 11
215.6458610917115
 21
70.3571274040614
 31
0.0
  0
LINE
  5
1FC
330
1F
100
AcDbEntity
  8
ハッチ
  6
Continuous
 62
     6
370
     9
100
AcDbLine
 10
212.487732341385
 20
74.92946971676123
 30
0.0
 11
215.9825592450391
 21
71.43464281310713
 31
0.0
  0
LINE
  5
1FD
330
1F
100
AcDbEntity
  8
ハッチ
  6
Continuous
 62
     6
370
     9
100
AcDbLine
 10
213.9019459037581
 20
74.92946971676143
 30
0.0
 11
216.319257398367
 21
72.51215822215254
 31
0.0
  0
LINE
  5
1FE
330
1F
100
AcDbEntity
  8
ハッチ
  6
Continuous
 62
     6
370
     9
100
AcDbLine
 10
215.3161594661273
 20
74.92946971676191
 30
0.0
 11
216.6559555516941
 21
73.58967363119511
 31
0.0
  0
LINE
  5
1FF
330
1F
100
AcDbEntity
  8
ハッチ
  6
Continuous
 62
     6
370
     9
100
AcDbLine
 10
216.7303730285015
 20
74.92946971676108
 30
0.0
 11
216.9926537050216
 21
74.66718904024097
 31
0.0
  0
LWPOLYLINE
  5
200
330
1F
100
AcDbEntity
  8
1-4ﾚｲﾔ
  6
Continuous
 62
     7
370
     9
100
AcDbPolyline
 90
        4
 70
     1
 43
0.4
 10
211.2866178344345
 20
71.88765231052304
 42
0.4142135623731
 10
211.0866178344345
 20
72.08765231052304
 42
0.4142135623731
 10
210.8866178344345
 20
71.88765231052304
 42
0.4142135623731
 10
211.0866178344345
 20
71.68765231052303
 42
0.4142135623731
  0
LINE
  5
201
330
1F
100
AcDbEntity
  8
0-7
  6
Continuous
 62
    30
370
     5
100
AcDbLine
 10
61.63195646944141
 20
76.78263773961723
 30
0.0
 11
76.45954360974424
 21
71.96483564550248
 31
0.0
  0
ARC
  5
202
330
1F
100
AcDbEntity
  8
0-7
  6
Continuous
 62
    30
370
     5
100
AcDbCircle
 10
60.70490078969341
 20
73.92946971676142
 30
0.0
 40
3.0
100
AcDbArc
 50
71.99990568497536
 51
90.00000000000006
  0
LINE
  5
203
330
1F
100
AcDbEntity
  8
0-7
  6
Continuous
 62
    30
370
     5
100
AcDbLine
 10
0.2672145301646935
 20
76.92946971676142
 30
0.0
 11
60.70490078969341
 21
76.92946971676142
 31
0.0
  0
ARC
  5
204
330
1F
100
AcDbEntity
  8
0-7
  6
Continuous
 62
    30
370
     5
100
AcDbCircle
 10
0.2672145301646935
 20
79.92946971676142
 30
0.0
 40
3.0
100
AcDbArc
 50
194.0362434679265
 51
270.0
  0
LINE
  5
205
330
1F
100
AcDbEntity
  8
0-7
  6
Continuous
 62
    30
370
     5
100
AcDbLine
 10
-9.007016407825802
 20
104.6570765918704
 30
0.0
 11
-2.643212970271293
 21
79.20186284165241
 31
0.0
  0
LINE
  5
206
330
1F
100
AcDbEntity
  8
0-7
  6
Continuous
 62
    30
370
     5
100
AcDbLine
 10
-11.91744390826179
 20
106.9294697167614
 30
0.0
 11
-46.13666750185737
 21
106.9294697167614
 31
0.0
  0
ARC
  5
207
330
1F
100
AcDbEntity
  8
0-7
  6
Continuous
 62
    30
370
     5
100
AcDbCircle
 10
-11.91744390826179
 20
103.9294697167614
 30
0.0
 40
3.0
100
AcDbArc
 50
14.03624346792648
 51
90.00000000000001
  0
LINE
  5
208
330
1F
100
AcDbEntity
  8
0-7
  6
Continuous
 62
    30
370
     5
100
AcDbLine
 10
206.094609216239
 20
76.78263998714783
 30
0.0
 11
191.2671038349434
 21
71.96490420095782
 31
0.0
  0
ARC
  5
209
330
1F
100
AcDbEntity
  8
0-7
  6
Continuous
 62
    30
370
     5
100
AcDbCircle
 10
207.0216579788092
 20
73.92946971676142
 30
0.0
 40
3.0
100
AcDbArc
 50
90.0
 51
107.9999554080517
  0
LINE
  5
20A
330
1F
100
AcDbEntity
  8
0-7
  6
Continuous
 62
    30
370
     5
100
AcDbLine
 10
267.4594504661205
 20
76.92946971676142
 30
0.0
 11
207.0216579788092
 21
76.92946971676142
 31
0.0
  0
ARC
  5
20B
330
1F
100
AcDbEntity
  8
0-7
  6
Continuous
 62
    30
370
     5
100
AcDbCircle
 10
267.4594504661205
 20
79.92946971676142
 30
0.0
 40
3.0
100
AcDbArc
 50
270.0
 51
345.9637565320735
  0
LINE
  5
20C
330
1F
100
AcDbEntity
  8
0-7
  6
Continuous
 62
    30
370
     5
100
AcDbLine
 10
276.7336814041111
 20
104.6570765918704
 30
0.0
 11
270.3698779665565
 21
79.20186284165243
 31
0.0
  0
LINE
  5
20D
330
1F
100
AcDbEntity
  8
0-7
  6
Continuous
 62
    30
370
     5
100
AcDbLine
 10
279.644108904547
 20
106.9294697167614
 30
0.0
 11
313.8633324981427
 21
106.9294697167614
 31
0.0
  0
ARC
  5
20E
330
1F
100
AcDbEntity
  8
0-7
  6
Continuous
 62
    30
370
     5
100
AcDbCircle
 10
279.644108904547
 20
103.9294697167614
 30
0.0
 40
3.0
100
AcDbArc
 50
90.0
 51
165.9637565320735
  0
LINE
  5
20F
330
1F
100
AcDbEntity
  8
0-7
  6
Continuous
 62
    30
370
     5
100
AcDbLine
 10
0.2672145301646935
 20
76.42946971676142
 30
0.0
 11
60.70490078969341
 21
76.42946971676142
 31
0.0
  0
ARC
  5
210
330
1F
100
AcDbEntity
  8
0-7
  6
Continuous
 62
    30
370
     5
100
AcDbCircle
 10
60.70490078969341
 20
73.92946971676142
 30
0.0
 40
2.5
100
AcDbArc
 50
71.99990568497536
 51
90.00000000000006
  0
ARC
  5
211
330
1F
100
AcDbEntity
  8
0-7
  6
Continuous
 62
    30
370
     5
100
AcDbCircle
 10
60.70490078969341
 20
73.92946971676142
 30
0.0
 40
2.0
100
AcDbArc
 50
71.99990568497536
 51
90.00000000000006
  0
ARC
  5
212
330
1F
100
AcDbEntity
  8
0-7
  6
Continuous
 62
    30
370
     5
100
AcDbCircle
 10
60.70490078969341
 20
73.92946971676142
 30
0.0
 40
1.5
100
AcDbArc
 50
71.99990568497536
 51
90.00000000000006
  0
LINE
  5
213
330
1F
100
AcDbEntity
  8
0-7
  6
Continuous
 62
    30
370
     5
100
AcDbLine
 10
0.2672145301646935
 20
75.92946971676142
 30
0.0
 11
60.70490078969341
 21
75.92946971676142
 31
0.0
  0
LINE
  5
214
330
1F
100
AcDbEntity
  8
0-7
  6
Continuous
 62
    30
370
     5
100
AcDbLine
 10
0.2672145301646935
 20
75.42946971676142
 30
0.0
 11
60.70490078969341
 21
75.42946971676142
 31
0.0
  0
ARC
  5
215
330
1F
100
AcDbEntity
  8
0-7
  6
Continuous
 62
    30
370
     5
100
AcDbCircle
 10
0.2672145301646935
 20
79.92946971676142
 30
0.0
 40
3.5
100
AcDbArc
 50
194.0362434679265
 51
270.0
  0
ARC
  5
216
330
1F
100
AcDbEntity
  8
0-7
  6
Continuous
 62
    30
370
     5
100
AcDbCircle
 10
0.2672145301646935
 20
79.92946971676142
 30
0.0
 40
4.0
100
AcDbArc
 50
194.0362434679265
 51
270.0
  0
ARC
  5
217
330
1F
100
AcDbEntity
  8
0-7
  6
Continuous
 62
    30
370
     5
100
AcDbCircle
 10
0.2672145301646935
 20
79.92946971676142
 30
0.0
 40
4.5
100
AcDbArc
 50
194.0362434679265
 51
270.0
  0
LINE
  5
218
330
1F
100
AcDbEntity
  8
0-7
  6
Continuous
 62
    30
370
     5
100
AcDbLine
 10
-9.49208765789848
 20
104.5358087793523
 30
0.0
 11
-3.128284220343971
 21
79.08059502913426
 31
0.0
  0
LINE
  5
219
330
1F
100
AcDbEntity
  8
0-7
  6
Continuous
 62
    30
370
     5
100
AcDbLine
 10
-9.977158907971159
 20
104.4145409668341
 30
0.0
 11
-3.61335547041665
 21
78.95932721661609
 31
0.0
  0
LINE
  5
21A
330
1F
100
AcDbEntity
  8
0-7
  6
Continuous
 62
    30
370
     5
100
AcDbLine
 10
-10.46223015804384
 20
104.2932731543159
 30
0.0
 11
-4.098426720489329
 21
78.83805940409792
 31
0.0
  0
ARC
  5
21B
330
1F
100
AcDbEntity
  8
0-7
  6
Continuous
 62
    30
370
     5
100
AcDbCircle
 10
-11.91744390826179
 20
103.9294697167614
 30
0.0
 40
2.5
100
AcDbArc
 50
14.03624346792648
 51
90.00000000000001
  0
ARC
  5
21C
330
1F
100
AcDbEntity
  8
0-7
  6
Continuous
 62
    30
370
     5
100
AcDbCircle
 10
-11.91744390826179
 20
103.9294697167614
 30
0.0
 40
2.0
100
AcDbArc
 50
14.03624346792648
 51
90.00000000000001
  0
ARC
  5
21D
330
1F
100
AcDbEntity
  8
0-7
  6
Continuous
 62
    30
370
     5
100
AcDbCircle
 10
-11.91744390826179
 20
103.9294697167614
 30
0.0
 40
1.5
100
AcDbArc
 50
14.03624346792648
 51
90.00000000000001
  0
LINE
  5
21E
330
1F
100
AcDbEntity
  8
0-7
  6
Continuous
 62
    30
370
     5
100
AcDbLine
 10
-11.91744390826179
 20
106.4294697167614
 30
0.0
 11
-46.13666750185737
 21
106.4294697167614
 31
0.0
  0
LINE
  5
21F
330
1F
100
AcDbEntity
  8
0-7
  6
Continuous
 62
    30
370
     5
100
AcDbLine
 10
-11.91744390826179
 20
105.9294697167614
 30
0.0
 11
-46.13666750185737
 21
105.9294697167614
 31
0.0
  0
LINE
  5
220
330
1F
100
AcDbEntity
  8
0-7
  6
Continuous
 62
    30
370
     5
100
AcDbLine
 10
-11.91744390826179
 20
105.4294697167614
 30
0.0
 11
-46.13666750185737
 21
105.4294697167614
 31
0.0
  0
ARC
  5
221
330
1F
100
AcDbEntity
  8
0-7
  6
Continuous
 62
    30
370
     5
100
AcDbCircle
 10
207.0216579788092
 20
73.92946971676142
 30
0.0
 40
2.5
100
AcDbArc
 50
90.0
 51
107.9999554080517
  0
ARC
  5
222
330
1F
100
AcDbEntity
  8
0-7
  6
Continuous
 62
    30
370
     5
100
AcDbCircle
 10
207.0216579788092
 20
73.92946971676142
 30
0.0
 40
2.0
100
AcDbArc
 50
90.0
 51
107.9999554080517
  0
ARC
  5
223
330
1F
100
AcDbEntity
  8
0-7
  6
Continuous
 62
    30
370
     5
100
AcDbCircle
 10
207.0216579788092
 20
73.92946971676142
 30
0.0
 40
1.5
100
AcDbArc
 50
90.0
 51
107.9999554080517
  0
LINE
  5
224
330
1F
100
AcDbEntity
  8
0-7
  6
Continuous
 62
    30
370
     5
100
AcDbLine
 10
267.4594504661205
 20
76.42946971676142
 30
0.0
 11
207.0216579788092
 21
76.42946971676142
 31
0.0
  0
LINE
  5
225
330
1F
100
AcDbEntity
  8
0-7
  6
Continuous
 62
    30
370
     5
100
AcDbLine
 10
267.4594504661205
 20
75.92946971676142
 30
0.0
 11
207.0216579788092
 21
75.92946971676142
 31
0.0
  0
LINE
  5
226
330
1F
100
AcDbEntity
  8
0-7
  6
Continuous
 62
    30
370
     5
100
AcDbLine
 10
267.4594504661205
 20
75.42946971676142
 30
0.0
 11
207.0216579788092
 21
75.42946971676142
 31
0.0
  0
ARC
  5
227
330
1F
100
AcDbEntity
  8
0-7
  6
Continuous
 62
    30
370
     5
100
AcDbCircle
 10
267.4594504661205
 20
79.92946971676142
 30
0.0
 40
3.5
100
AcDbArc
 50
270.0
 51
345.9637565320735
  0
ARC
  5
228
330
1F
100
AcDbEntity
  8
0-7
  6
Continuous
 62
    30
370
     5
100
AcDbCircle
 10
267.4594504661205
 20
79.92946971676142
 30
0.0
 40
4.0
100
AcDbArc
 50
270.0
 51
345.9637565320735
  0
ARC
  5
229
330
1F
100
AcDbEntity
  8
0-7
  6
Continuous
 62
    30
370
     5
100
AcDbCircle
 10
267.4594504661205
 20
79.92946971676142
 30
0.0
 40
4.5
100
AcDbArc
 50
270.0
 51
345.9637565320735
  0
LINE
  5
22A
330
1F
100
AcDbEntity
  8
0-7
  6
Continuous
 62
    30
370
     5
100
AcDbLine
 10
277.2187526541837
 20
104.5358087793523
 30
0.0
 11
270.8549492166292
 21
79.08059502913426
 31
0.0
  0
LINE
  5
22B
330
1F
100
AcDbEntity
  8
0-7
  6
Continuous
 62
    30
370
     5
100
AcDbLine
 10
277.7038239042564
 20
104.4145409668341
 30
0.0
 11
271.3400204667019
 21
78.95932721661609
 31
0.0
  0
LINE
  5
22C
330
1F
100
AcDbEntity
  8
0-7
  6
Continuous
 62
    30
370
     5
100
AcDbLine
 10
278.188895154329
 20
104.2932731543159
 30
0.0
 11
271.8250917167745
 21
78.83805940409792
 31
0.0
  0
LINE
  5
22D
330
1F
100
AcDbEntity
  8
0-7
  6
Continuous
 62
    30
370
     5
100
AcDbLine
 10
279.644108904547
 20
106.4294697167614
 30
0.0
 11
313.8633324981427
 21
106.4294697167614
 31
0.0
  0
LINE
  5
22E
330
1F
100
AcDbEntity
  8
0-7
  6
Continuous
 62
    30
370
     5
100
AcDbLine
 10
279.644108904547
 20
105.9294697167614
 30
0.0
 11
313.8633324981427
 21
105.9294697167614
 31
0.0
  0
LINE
  5
22F
330
1F
100
AcDbEntity
  8
0-7
  6
Continuous
 62
    30
370
     5
100
AcDbLine
 10
279.644108904547
 20
105.4294697167614
 30
0.0
 11
313.8633324981427
 21
105.4294697167614
 31
0.0
  0
ARC
  5
230
330
1F
100
AcDbEntity
  8
0-7
  6
Continuous
 62
    30
370
     5
100
AcDbCircle
 10
279.644108904547
 20
103.9294697167614
 30
0.0
 40
2.5
100
AcDbArc
 50
90.0
 51
165.9637565320735
  0
ARC
  5
231
330
1F
100
AcDbEntity
  8
0-7
  6
Continuous
 62
    30
370
     5
100
AcDbCircle
 10
279.644108904547
 20
103.9294697167614
 30
0.0
 40
2.0
100
AcDbArc
 50
90.0
 51
165.9637565320735
  0
ARC
  5
232
330
1F
100
AcDbEntity
  8
0-7
  6
Continuous
 62
    30
370
     5
100
AcDbCircle
 10
279.644108904547
 20
103.9294697167614
 30
0.0
 40
1.5
100
AcDbArc
 50
90.0
 51
165.9637565320735
  0
LINE
  5
233
330
1F
100
AcDbEntity
  8
0-7
  6
Continuous
 62
    30
370
     5
100
AcDbLine
 10
206.5581335975241
 20
75.35605485195461
 30
0.0
 11
192.8433429538611
 21
70.89986104288478
 31
0.0
  0
LINE
  5
234
330
1F
100
AcDbEntity
  8
0-7
  6
Continuous
 62
    30
370
     5
100
AcDbLine
 10
206.4036254704291
 20
75.83158323035235
 30
0.0
 11
192.1394259572155
 21
71.19687613101436
 31
0.0
  0
LINE
  5
235
330
1F
100
AcDbEntity
  8
0-7
  6
Continuous
 62
    30
370
     5
100
AcDbLine
 10
206.249117343334
 20
76.30711160875009
 30
0.0
 11
191.6406633889294
 21
71.56054975716407
 31
0.0
  0
LINE
  5
236
330
1F
100
AcDbEntity
  8
0-7
  6
Continuous
 62
    30
370
     5
100
AcDbLine
 10
61.16842862956743
 20
75.35605372818932
 30
0.0
 11
74.88322006399355
 21
70.89982290196633
 31
0.0
  0
LINE
  5
237
330
1F
100
AcDbEntity
  8
0-7
  6
Continuous
 62
    30
370
     5
100
AcDbLine
 10
61.32293790952542
 20
75.83158173199863
 30
0.0
 11
75.58718126345146
 21
71.19682215505348
 31
0.0
  0
LINE
  5
238
330
1F
100
AcDbEntity
  8
0-7
  6
Continuous
 62
    30
370
     5
100
AcDbLine
 10
61.47744718948341
 20
76.30710973580793
 30
0.0
 11
76.08596720211804
 21
71.56048726494845
 31
0.0
  0
LWPOLYLINE
  5
239
330
1F
100
AcDbEntity
  8
1-4ﾚｲﾔ
  6
Continuous
 62
     7
370
     9
100
AcDbPolyline
 90
        4
 70
     1
 43
0.4
 10
286.1974345094315
 20
107.001868214281
 42
0.4142135623731
 10
285.9974345094315
 20
107.201868214281
 42
0.4142135623731
 10
285.7974345094315
 20
107.001868214281
 42
0.4142135623731
 10
285.9974345094315
 20
106.801868214281
 42
0.4142135623731
  0
LINE
  5
23A
330
1F
100
AcDbEntity
  8
1-4ﾚｲﾔ
  6
Continuous
 62
     7
370
     9
100
AcDbLine
 10
285.9974345094315
 20
107.001868214281
 30
0.0
 11
285.9974345094315
 21
163.7291881920083
 31
0.0
  0
LINE
  5
23B
330
1F
100
AcDbEntity
  8
1-4ﾚｲﾔ
  6
Continuous
 62
     7
370
     9
100
AcDbLine
 10
285.9974345094315
 20
163.7291881920083
 30
0.0
 11
305.9975316001048
 21
163.7291881920083
 31
0.0
  0
TEXT
  5
23C
330
1F
100
AcDbEntity
  8
1-4ﾚｲﾔ
  6
Continuous
 62
     7
370
     9
100
AcDbText
 10
305.9975351349594
 20
161.5752016244558
 30
0.0
 40
4.572
  1
塗膜防水層
 41
1.133333333333333
  7
ＭＳ ゴシック
100
AcDbText
  0
LINE
  5
23D
330
1F
100
AcDbEntity
  8
仕上
  6
Continuous
 62
     7
370
     9
100
AcDbLine
 10
195.2784816363497
 20
97.14265444166486
 30
0.0
 11
195.2784816363497
 21
131.9294244706224
 31
0.0
  0
LINE
  5
23E
330
1F
100
AcDbEntity
  8
仕上
  6
Continuous
 62
     7
370
     9
100
AcDbLine
 10
195.2784816363497
 20
97.14265444166486
 30
0.0
 11
194.6258506752494
 21
102.0998787485339
 31
0.0
  0
LINE
  5
23F
330
1F
100
AcDbEntity
  8
仕上
  6
Continuous
 62
     7
370
     9
100
AcDbLine
 10
195.2784816363497
 20
97.14265444166486
 30
0.0
 11
195.9311125974499
 21
102.0998787485339
 31
0.0
  0
LINE
  5
240
330
1F
100
AcDbEntity
  8
仕上
  6
Continuous
 62
     7
370
     9
100
AcDbLine
 10
195.2784816363497
 20
131.9294244706224
 30
0.0
 11
194.6258506752494
 21
126.9722001637534
 31
0.0
  0
LINE
  5
241
330
1F
100
AcDbEntity
  8
仕上
  6
Continuous
 62
     7
370
     9
100
AcDbLine
 10
195.2784816363497
 20
131.9294244706224
 30
0.0
 11
195.9311125974499
 21
126.9722001637534
 31
0.0
  0
LINE
  5
242
330
1F
100
AcDbEntity
  8
仕上
  6
Continuous
 62
     7
370
     9
100
AcDbLine
 10
195.8784816363497
 20
97.14265444166486
 30
0.0
 11
171.2940439276943
 21
97.14265444166486
 31
0.0
  0
LINE
  5
243
330
1F
100
AcDbEntity
  8
仕上
  6
Continuous
 62
     7
370
     9
100
AcDbLine
 10
195.8784816363497
 20
131.9294244706224
 30
0.0
 11
174.3742041791497
 21
131.9294244706224
 31
0.0
  0
TEXT
  5
244
330
1F
100
AcDbEntity
  8
仕上
  6
Continuous
 62
     2
370
   211
100
AcDbText
 10
192.9504816363497
 20
110.2860394561436
 30
0.0
 40
6.096
  1
33
 50
90.0
 41
1.0625
  7
ＭＳ ゴシック
100
AcDbText
  0
LINE
  5
245
330
1F
100
AcDbEntity
  8
建具
  6
Continuous
 62
     4
370
     9
100
AcDbLine
 10
103.8632568522539
 20
201.9294143373725
 30
0.0
 11
103.8632568522539
 21
94.14265444166486
 31
0.0
  0
LINE
  5
246
330
1F
100
AcDbEntity
  8
建具
  6
Continuous
 62
     4
370
     9
100
AcDbLine
 10
163.86333815391
 20
201.9294143373725
 30
0.0
 11
163.86333815391
 21
94.14265444166486
 31
0.0
  0
LINE
  5
247
330
1F
100
AcDbEntity
  8
建具
  6
Continuous
 62
     4
370
     9
100
AcDbLine
 10
163.86333815391
 20
94.14265444166486
 30
0.0
 11
103.8632568522539
 21
94.14265444166486
 31
0.0
  0
LINE
  5
248
330
1F
100
AcDbEntity
  8
建具
  6
Continuous
 62
     4
370
     9
100
AcDbLine
 10
108.3633416887646
 20
154.4939246091887
 30
0.0
 11
108.3633416887646
 21
94.14265444166486
 31
0.0
  0
LINE
  5
249
330
1F
100
AcDbEntity
  8
建具
  6
Continuous
 62
     4
370
     9
100
AcDbLine
 10
159.3632533173993
 20
170.187109598028
 30
0.0
 11
159.3632533173993
 21
94.14265444166486
 31
0.0
  0
LINE
  5
24A
330
1F
100
AcDbEntity
  8
その他
  6
Continuous
 62
     2
370
     9
100
AcDbLine
 10
100.4324810883483
 20
97.14265444166486
 30
0.0
 11
103.8632568522539
 21
97.14265444166486
 31
0.0
  0
LINE
  5
24B
330
1F
100
AcDbEntity
  8
その他
  6
Continuous
 62
     2
370
     9
100
AcDbLine
 10
163.86333815391
 20
97.14265444166486
 30
0.0
 11
167.2940439276943
 21
97.14265444166486
 31
0.0
  0
LINE
  5
24C
330
1F
100
AcDbEntity
  8
通り芯
  6
Continuous
 62
     3
370
     9
100
AcDbLine
 10
58.86324836860288
 20
66.92945887654062
 30
0.0
 11
61.86331795708175
 21
66.92945887654062
 31
0.0
  0
LINE
  5
24D
330
1F
100
AcDbEntity
  8
通り芯
  6
Continuous
 62
     3
370
     9
100
AcDbLine
 10
208.8633116425004
 20
66.92945887654062
 30
0.0
 11
205.8632420540215
 21
66.92945887654062
 31
0.0
  0
LINE
  5
24E
330
1F
100
AcDbEntity
  8
F-4ﾚｲﾔ
  6
Continuous
 62
     7
370
     9
100
AcDbLine
 10
90.94656884901397
 20
-234.6189709224371
 30
0.0
 11
360.6922822125069
 21
-234.6189709224371
 31
0.0
  0
LINE
  5
24F
330
1F
100
AcDbEntity
  8
F-4ﾚｲﾔ
  6
Continuous
 62
     7
370
     9
100
AcDbLine
 10
90.94656884901397
 20
-157.8539489424803
 30
0.0
 11
360.6922822125069
 21
-157.8539489424803
 31
0.0
  0
LINE
  5
250
330
1F
100
AcDbEntity
  8
F-4ﾚｲﾔ
  6
Continuous
 62
     7
370
     9
100
AcDbLine
 10
90.94656884901397
 20
-155.853942344085
 30
0.0
 11
360.6922822125069
 21
-155.853942344085
 31
0.0
  0
LINE
  5
251
330
1F
100
AcDbEntity
  8
F-4ﾚｲﾔ
  6
Continuous
 62
     7
370
     9
100
AcDbLine
 10
90.94656884901397
 20
-141.8539456432827
 30
0.0
 11
360.6922822125069
 21
-141.8539456432827
 31
0.0
  0
TEXT
  5
252
330
1F
100
AcDbEntity
  8
F-4ﾚｲﾔ
  6
Continuous
 62
     2
370
     9
100
AcDbText
 10
95.37267671957986
 20
-189.1863079458
 30
0.0
 40
6.096
  1
ＥＳＭＢ－１、ＥＳＭＢ－２、ＥＤＳＭＢ－１、ＥＤＳＭＢ－２
 41
1.120689655172414
  7
ＭＳ ゴシック
100
AcDbText
  0
TEXT
  5
253
330
1F
100
AcDbEntity
  8
F-4ﾚｲﾔ
  6
Continuous
 62
     2
370
     9
100
AcDbText
 10
95.37267671957986
 20
-178.9413513379324
 30
0.0
 40
6.096
  1
ＥＤＭＢ－２、ＥＭＢ－３、ＷＭＢ－１、ＷＭＢ－２
 41
1.119791666666667
  7
ＭＳ ゴシック
100
AcDbText
  0
TEXT
  5
254
330
1F
100
AcDbEntity
  8
F-4ﾚｲﾔ
  6
Continuous
 62
     2
370
     9
100
AcDbText
 10
95.37267671957986
 20
-168.6963947300648
 30
0.0
 40
6.096
  1
ＥＭＢ－１、ＥＭＢ－２、ＥＭＢ－４、ＥＤＭＢ－１
 41
1.119791666666667
  7
ＭＳ ゴシック
100
AcDbText
  0
TEXT
  5
255
330
1F
100
AcDbEntity
  8
F-4ﾚｲﾔ
  6
Continuous
 62
     2
370
     9
100
AcDbText
 10
188.0694255307604
 20
-151.7259439936838
 30
0.0
 40
6.096
  1
ＨＰ－２ 適合機種
 41
1.110294117647059
  7
ＭＳ ゴシック
100
AcDbText
  0
TEXT
  5
256
330
1F
100
AcDbEntity
  8
F-4ﾚｲﾔ
  6
Continuous
 62
     2
370
     9
100
AcDbText
 10
95.37267671957986
 20
-199.4312645536676
 30
0.0
 40
6.096
  1
ＷＨＢ－２、ＥＳＢ－１、ＥＳＢ－２、ＥＳＢ－４
 41
1.119565217391304
  7
ＭＳ ゴシック
100
AcDbText
  0
TEXT
  5
257
330
1F
100
AcDbEntity
  8
F-4ﾚｲﾔ
  6
Continuous
 62
     2
370
     9
100
AcDbText
 10
95.37267671957986
 20
-209.6762211615353
 30
0.0
 40
6.096
  1
ＥＤＳＢ－１、ＥＤＳＢ－２、ＥＳＢ－３、ＷＳＢ－１
 41
1.12
  7
ＭＳ ゴシック
100
AcDbText
  0
LINE
  5
258
330
1F
100
AcDbEntity
  8
F-4ﾚｲﾔ
  6
Continuous
 62
     7
370
     9
100
AcDbLine
 10
360.6922822125069
 20
-234.6189709224371
 30
0.0
 11
360.6922822125069
 21
-141.8539456432827
 31
0.0
  0
LINE
  5
259
330
1F
100
AcDbEntity
  8
F-4ﾚｲﾔ
  6
Continuous
 62
     7
370
     9
100
AcDbLine
 10
90.94656884901397
 20
-141.8539456432827
 30
0.0
 11
90.94656884901397
 21
-234.6189709224371
 31
0.0
  0
TEXT
  5
25A
330
1F
100
AcDbEntity
  8
F-4ﾚｲﾔ
  6
Continuous
 62
     2
370
     9
100
AcDbText
 10
95.37267671957986
 20
-219.9211777694029
 30
0.0
 40
6.096
  1
ＷＳＢ－２、ＥＳＳＢ－１、ＥＳＳＢ－２、ＥＤＳＳＢ－１
 41
1.12037037037037
  7
ＭＳ ゴシック
100
AcDbText
  0
TEXT
  5
25B
330
1F
100
AcDbEntity
  8
F-4ﾚｲﾔ
  6
Continuous
 62
     2
370
     9
100
AcDbText
 10
95.37267671957986
 20
-230.1661343772706
 30
0.0
 40
6.096
  1
ＥＤＳＳＢ－２、ＥＨＳＢ－１、ＥＨＳＢ－２
 41
1.119047619047619
  7
ＭＳ ゴシック
100
AcDbText
  0
LINE
  5
25C
330
1F
100
AcDbEntity
  8
1-4ﾚｲﾔ
  6
Continuous
 62
     7
370
     9
100
AcDbLine
 10
185.1263429077497
 20
125.9294244706224
 30
0.0
 11
170.7918015549405
 21
125.9294244706224
 31
0.0
  0
LINE
  5
25D
330
1F
100
AcDbEntity
  8
1-4ﾚｲﾔ
  6
Continuous
 62
     7
370
     9
100
AcDbLine
 10
185.1263429077497
 20
151.1234876029074
 30
0.0
 11
185.1263429077497
 21
125.9294244706224
 31
0.0
  0
TEXT
  5
25E
330
1F
100
AcDbEntity
  8
1-4ﾚｲﾔ
  6
Continuous
 62
     7
370
     9
100
AcDbText
 10
181.6380039873635
 20
169.2601846260274
 30
0.0
 40
4.572
  1
バルコニー中継用
 41
1.145833333333333
  7
ＭＳ ゴシック
100
AcDbText
  0
TEXT
  5
25F
330
1F
100
AcDbEntity
  8
1-4ﾚｲﾔ
  6
Continuous
 62
     7
370
     9
100
AcDbText
 10
181.6380039873635
 20
161.9716996002677
 30
0.0
 40
4.572
  1
ルーフドレン
 41
1.138888888888889
  7
ＭＳ ゴシック
100
AcDbText
  0
TEXT
  5
260
330
1F
100
AcDbEntity
  8
1-4ﾚｲﾔ
  6
Continuous
 62
     7
370
     9
100
AcDbText
 10
181.6380039873635
 20
154.6832145745079
 30
0.0
 40
4.572
  1
ＥＭＢ－１
 41
1.133333333333333
  7
ＭＳ ゴシック
100
AcDbText
  0
LWPOLYLINE
  5
261
330
1F
100
AcDbEntity
  8
1-4ﾚｲﾔ
  6
Continuous
 62
     7
370
     9
100
AcDbPolyline
 90
        4
 70
     1
 43
0.4
 10
170.9918015549405
 20
125.9294244706224
 42
0.4142135623731
 10
170.7918015549405
 20
126.1294244706224
 42
0.4142135623731
 10
170.5918015549405
 20
125.9294244706224
 42
0.4142135623731
 10
170.7918015549405
 20
125.7294244706224
 42
0.4142135623731
  0
LWPOLYLINE
  5
262
330
1F
100
AcDbEntity
  8
1-5ﾚｲﾔ
  6
Continuous
 62
     7
370
     9
100
AcDbPolyline
 90
        4
 70
     1
 43
0.4
 10
102.0777904969962
 20
90.90922403825058
 42
0.4142135623731
 10
101.8777904969962
 20
91.10922403825059
 42
0.4142135623731
 10
101.6777904969962
 20
90.90922403825058
 42
0.4142135623731
 10
101.8777904969962
 20
90.70922403825058
 42
0.4142135623731
  0
LINE
  5
263
330
1F
100
AcDbEntity
  8
1-5ﾚｲﾔ
  6
Continuous
 62
     7
370
     9
100
AcDbLine
 10
65.28607389094029
 20
90.90922403825058
 30
0.0
 11
65.28607389094029
 21
141.1157015320891
 31
0.0
  0
LINE
  5
264
330
1F
100
AcDbEntity
  8
1-5ﾚｲﾔ
  6
Continuous
 62
     7
370
     9
100
AcDbLine
 10
101.8777904969962
 20
90.90922403825058
 30
0.0
 11
65.28607389094029
 21
90.90922403825058
 31
0.0
  0
TEXT
  5
265
330
1F
100
AcDbEntity
  8
1-4ﾚｲﾔ
  6
Continuous
 62
     7
370
     9
100
AcDbText
 10
47.90420539718779
 20
144.4496455627797
 30
0.0
 40
4.572
  1
ＨＰ－２
 41
1.125
  7
ＭＳ ゴシック
100
AcDbText
  0
TEXT
  5
266
330
1F
100
AcDbEntity
  8
1-4ﾚｲﾔ
  6
Continuous
 62
     7
370
     9
100
AcDbText
 10
47.90420539718779
 20
151.9165437396545
 30
0.0
 40
4.572
  1
防止ロ－ト
 41
1.133333333333333
  7
ＭＳ ゴシック
100
AcDbText
  0
TEXT
  5
267
330
1F
100
AcDbEntity
  8
1-4ﾚｲﾔ
  6
Continuous
 62
     7
370
     9
100
AcDbText
 10
47.90420539718779
 20
159.3834419165292
 30
0.0
 40
4.572
  1
水はね
 41
1.111111111111111
  7
ＭＳ ゴシック
100
AcDbText
  0
TEXT
  5
268
330
1F
100
AcDbEntity
  8
F-4ﾚｲﾔ
  6
Continuous
 62
     2
370
     9
100
AcDbText
 10
116.3675669004788
 20
-119.0670999547125
 30
0.0
 40
6.096
  1
納まり図
 41
1.09375
  7
ＭＳ ゴシック
100
AcDbText
  0
LINE
  5
269
330
1F
100
AcDbEntity
  8
F-4ﾚｲﾔ
  6
Continuous
 62
     2
370
     9
100
AcDbLine
 10
161.3675669004788
 20
-122.6950071058648
 30
0.0
 11
106.3675669004788
 21
-122.6950071058648
 31
0.0
  0
ENDSEC
  0
SECTION
  2
OBJECTS
  0
DICTIONARY
  5
C
330
0
100
AcDbDictionary
281
     1
  3
ACAD_DETAILVIEWSTYLE
350
2AF
  3
ACAD_GROUP
350
D
  3
ACAD_LAYOUT
350
1A
  3
ACAD_MATERIAL
350
43
  3
ACAD_MLEADERSTYLE
350
6B
  3
ACAD_MLINESTYLE
350
17
  3
ACAD_PLOTSETTINGS
350
19
  3
ACAD_PLOTSTYLENAME
350
E
  3
ACAD_SCALELIST
350
47
  3
ACAD_SECTIONVIEWSTYLE
350
2B0
  3
ACAD_TABLESTYLE
350
69
  3
ACAD_VISUALSTYLE
350
2A
  3
ACDB_RECOMPOSE_DATA
350
2AC
  3
AcDbVariableDictionary
350
26C
  0
DICTIONARY
  5
26A
330
8
100
AcDbDictionary
280
     1
281
     1
  3
ACAD_XREC_ROUNDTRIP
360
26B
  0
DICTIONARY
  5
2AF
102
{ACAD_REACTORS
330
C
102
}
330
C
100
AcDbDictionary
281
     1
  0
DICTIONARY
  5
D
102
{ACAD_REACTORS
330
C
102
}
330
C
100
AcDbDictionary
281
     1
  0
DICTIONARY
  5
1A
102
{ACAD_REACTORS
330
C
102
}
330
C
100
AcDbDictionary
281
     1
  3
Layout1
350
1E
  3
Layout2
350
26
  3
Model
350
22
  0
DICTIONARY
  5
43
102
{ACAD_REACTORS
330
C
102
}
330
C
100
AcDbDictionary
281
     1
  3
ByBlock
350
45
  3
ByLayer
350
44
  3
Global
350
46
  0
DICTIONARY
  5
6B
102
{ACAD_REACTORS
330
C
102
}
330
C
100
AcDbDictionary
281
     1
  3
Standard
350
6C
  0
DICTIONARY
  5
17
102
{ACAD_REACTORS
330
C
102
}
330
C
100
AcDbDictionary
281
     1
  3
Standard
350
18
  0
DICTIONARY
  5
19
102
{ACAD_REACTORS
330
C
102
}
330
C
100
AcDbDictionary
281
     1
  0
ACDBDICTIONARYWDFLT
  5
E
102
{ACAD_REACTORS
330
C
102
}
330
C
100
AcDbDictionary
281
     1
  3
Normal
350
F
100
AcDbDictionaryWithDefault
340
F
  0
DICTIONARY
  5
47
102
{ACAD_REACTORS
330
C
102
}
330
C
100
AcDbDictionary
281
     1
  3
A0
350
48
  3
A1
350
49
  3
A2
350
4A
  3
A3
350
4B
  3
A4
350
4C
  3
A5
350
4D
  3
A6
350
4E
  3
A7
350
4F
  3
A8
350
50
  3
A9
350
51
  3
B0
350
52
  3
B1
350
53
  3
B2
350
54
  3
B3
350
55
  3
B4
350
56
  3
B5
350
57
  3
B6
350
58
  3
B7
350
59
  3
B8
350
5A
  3
B9
350
5B
  3
C0
350
5C
  3
C1
350
5D
  3
C2
350
5E
  3
C3
350
5F
  3
C4
350
60
  3
C5
350
61
  3
C6
350
62
  3
C7
350
63
  3
C8
350
64
  3
C9
350
65
  3
D0
350
66
  3
D1
350
67
  3
D2
350
68
  0
DICTIONARY
  5
2B0
102
{ACAD_REACTORS
330
C
102
}
330
C
100
AcDbDictionary
281
     1
  0
DICTIONARY
  5
69
102
{ACAD_REACTORS
330
C
102
}
330
C
100
AcDbDictionary
281
     1
  3
Standard
350
6A
  0
DICTIONARY
  5
2A
102
{ACAD_REACTORS
330
C
102
}
330
C
100
AcDbDictionary
281
     1
  3
2dWireframe
350
2F
  3
Basic
350
32
  3
Brighten
350
36
  3
ColorChange
350
3A
  3
Conceptual
350
34
  3
Dim
350
35
  3
EdgeColorOff
350
3D
  3
Facepattern
350
39
  3
Flat
350
2B
  3
FlatWithEdges
350
2C
  3
Gouraud
350
2D
  3
GouraudWithEdges
350
2E
  3
Hidden
350
31
  3
JitterOff
350
3B
  3
Linepattern
350
38
  3
OverhangOff
350
3C
  3
Realistic
350
33
  3
Shaded
350
42
  3
Shaded with edges
350
41
  3
Shades of Gray
350
3E
  3
Sketchy
350
3F
  3
Thicken
350
37
  3
Wireframe
350
30
  3
X-Ray
350
40
  0
XRECORD
  5
2AC
102
{ACAD_REACTORS
330
C
102
}
330
C
100
AcDbXrecord
280
     1
 90
        1
330
6A
  0
DICTIONARY
  5
26C
102
{ACAD_REACTORS
330
C
102
}
330
C
100
AcDbDictionary
281
     1
  3
CANNOSCALE
350
26D
  3
CENTEREXE
350
2B1
  3
CENTERLTYPEFILE
350
2B2
  3
CMLEADERSTYLE
350
2AE
  3
CTABLESTYLE
350
2AD
  3
MSLTSCALE
350
26E
  3
XCLIPFRAME
350
26F
  0
XRECORD
  5
26B
102
{ACAD_REACTORS
330
26A
102
}
330
26A
100
AcDbXrecord
280
     1
102
VTR_0.000_0.000_1.000_1.000_VISUALSTYLE
340
2F
102
VTR_0.000_0.000_1.000_1.000_GRIDDISPLAY
 70
     3
102
VTR_0.000_0.000_1.000_1.000_GRIDMAJOR
 70
     5
102
VTR_0.000_0.000_1.000_1.000_DEFAULTLIGHTING
280
     1
102
VTR_0.000_0.000_1.000_1.000_DEFAULTLIGHTINGTYPE
 70
     1
102
VTR_0.000_0.000_1.000_1.000_BRIGHTNESS
141
0.0
102
VTR_0.000_0.000_1.000_1.000_CONTRAST
142
0.0
  0
LAYOUT
  5
1E
102
{ACAD_REACTORS
330
1A
102
}
330
1A
100
AcDbPlotSettings
  1

  2
none_device
  4

  6

 40
0.0
 41
0.0
 42
0.0
 43
0.0
 44
0.0
 45
0.0
 46
0.0
 47
0.0
 48
0.0
 49
0.0
140
0.0
141
0.0
142
1.0
143
1.0
 70
   688
 72
     1
 73
     0
 74
     5
  7

 75
    16
 76
     0
 77
     5
 78
   300
147
1.0
148
0.0
149
0.0
100
AcDbLayout
  1
Layout1
 70
     1
 71
     1
 10
0.0
 20
0.0
 11
420.0
 21
297.0
 12
0.0
 22
0.0
 32
0.0
 14
1.000000000000000E+20
 24
1.000000000000000E+20
 34
1.000000000000000E+20
 15
-1.000000000000000E+20
 25
-1.000000000000000E+20
 35
-1.000000000000000E+20
146
0.0
 13
0.0
 23
0.0
 33
0.0
 16
1.0
 26
0.0
 36
0.0
 17
0.0
 27
1.0
 37
0.0
 76
     0
330
1B
  0
LAYOUT
  5
26
102
{ACAD_REACTORS
330
1A
102
}
330
1A
100
AcDbPlotSettings
  1

  2
none_device
  4

  6

 40
0.0
 41
0.0
 42
0.0
 43
0.0
 44
0.0
 45
0.0
 46
0.0
 47
0.0
 48
0.0
 49
0.0
140
0.0
141
0.0
142
1.0
143
1.0
 70
   688
 72
     1
 73
     0
 74
     5
  7

 75
    16
 76
     0
 77
     5
 78
   300
147
1.0
148
0.0
149
0.0
100
AcDbLayout
  1
Layout2
 70
     1
 71
     2
 10
0.0
 20
0.0
 11
0.0
 21
0.0
 12
0.0
 22
0.0
 32
0.0
 14
0.0
 24
0.0
 34
0.0
 15
0.0
 25
0.0
 35
0.0
146
0.0
 13
0.0
 23
0.0
 33
0.0
 16
1.0
 26
0.0
 36
0.0
 17
0.0
 27
1.0
 37
0.0
 76
     0
330
23
  0
LAYOUT
  5
22
102
{ACAD_REACTORS
330
1A
102
}
330
1A
100
AcDbPlotSettings
  1

  2
none_device
  4
Letter_(8.50_x_11.00_Inches)
  6

 40
6.35
 41
6.35
 42
6.35000508
 43
6.35000508
 44
215.9
 45
279.4
 46
0.0
 47
0.0
 48
0.0
 49
0.0
140
0.0
141
0.0
142
1.0
143
1.0
 70
  1712
 72
     1
 73
     0
 74
     0
  7

 75
     0
 76
     0
 77
     5
 78
   300
147
1.0
148
0.0
149
0.0
100
AcDbLayout
  1
Model
 70
     1
 71
     0
 10
-420.0
 20
-297.0
 11
420.0
 21
297.0
 12
0.0
 22
0.0
 32
0.0
 14
-420.0
 24
-297.0
 34
0.0
 15
420.0
 25
297.0
 35
0.0
146
0.0
 13
0.0
 23
0.0
 33
0.0
 16
1.0
 26
0.0
 36
0.0
 17
0.0
 27
1.0
 37
0.0
 76
     0
330
1F
331
29
  0
MATERIAL
  5
45
102
{ACAD_REACTORS
330
43
102
}
102
{ACAD_XDICTIONARY
360
2A2
102
}
330
43
100
AcDbMaterial
  1
ByBlock
  0
MATERIAL
  5
44
102
{ACAD_REACTORS
330
43
102
}
102
{ACAD_XDICTIONARY
360
2A0
102
}
330
43
100
AcDbMaterial
  1
ByLayer
  0
MATERIAL
  5
46
102
{ACAD_REACTORS
330
43
102
}
102
{ACAD_XDICTIONARY
360
2A4
102
}
330
43
100
AcDbMaterial
  1
Global
  0
MLEADERSTYLE
  5
6C
102
{ACAD_REACTORS
330
6B
102
}
102
{ACAD_XDICTIONARY
360
2AA
102
}
330
6B
100
AcDbMLeaderStyle
170
     2
171
     1
172
     0
 90
        2
 40
0.0
 41
0.0
173
     1
 91
-1056964608
340
14
 92
       -2
290
     1
 42
2.0
291
     1
 43
8.0
  3
Standard
341
0
 44
4.0
300

342
11
174
     1
178
     6
175
     1
176
     0
 93
-1056964608
 45
4.0
292
     0
297
     0
 46
4.0
343
0
 94
-1056964608
 47
1.0
 49
1.0
140
1.0
293
     1
141
0.0
294
     1
177
     0
142
1.0
295
     0
296
     0
143
3.75
1001
ACAD_MLEADERVER
1070
     2
  0
MLINESTYLE
  5
18
102
{ACAD_REACTORS
330
17
102
}
330
17
100
AcDbMlineStyle
  2
Standard
 70
     0
  3

 62
   256
 51
90.0
 52
90.0
 71
     2
 49
0.5
 62
   256
  6
BYLAYER
 49
-0.5
 62
   256
  6
BYLAYER
  0
ACDBPLACEHOLDER
  5
F
102
{ACAD_REACTORS
330
E
102
}
330
E
  0
SCALE
  5
48
102
{ACAD_REACTORS
330
47
102
}
330
47
100
AcDbScale
 70
     0
300
1:1
140
1.0
141
1.0
290
     1
  0
SCALE
  5
49
102
{ACAD_REACTORS
330
47
102
}
330
47
100
AcDbScale
 70
     0
300
1:2
140
1.0
141
2.0
290
     0
  0
SCALE
  5
4A
102
{ACAD_REACTORS
330
47
102
}
330
47
100
AcDbScale
 70
     0
300
1:4
140
1.0
141
4.0
290
     0
  0
SCALE
  5
4B
102
{ACAD_REACTORS
330
47
102
}
330
47
100
AcDbScale
 70
     0
300
1:5
140
1.0
141
5.0
290
     0
  0
SCALE
  5
4C
102
{ACAD_REACTORS
330
47
102
}
330
47
100
AcDbScale
 70
     0
300
1:8
140
1.0
141
8.0
290
     0
  0
SCALE
  5
4D
102
{ACAD_REACTORS
330
47
102
}
330
47
100
AcDbScale
 70
     0
300
1:10
140
1.0
141
10.0
290
     0
  0
SCALE
  5
4E
102
{ACAD_REACTORS
330
47
102
}
330
47
100
AcDbScale
 70
     0
300
1:16
140
1.0
141
16.0
290
     0
  0
SCALE
  5
4F
102
{ACAD_REACTORS
330
47
102
}
330
47
100
AcDbScale
 70
     0
300
1:20
140
1.0
141
20.0
290
     0
  0
SCALE
  5
50
102
{ACAD_REACTORS
330
47
102
}
330
47
100
AcDbScale
 70
     0
300
1:30
140
1.0
141
30.0
290
     0
  0
SCALE
  5
51
102
{ACAD_REACTORS
330
47
102
}
330
47
100
AcDbScale
 70
     0
300
1:40
140
1.0
141
40.0
290
     0
  0
SCALE
  5
52
102
{ACAD_REACTORS
330
47
102
}
330
47
100
AcDbScale
 70
     0
300
1:50
140
1.0
141
50.0
290
     0
  0
SCALE
  5
53
102
{ACAD_REACTORS
330
47
102
}
330
47
100
AcDbScale
 70
     0
300
1:100
140
1.0
141
100.0
290
     0
  0
SCALE
  5
54
102
{ACAD_REACTORS
330
47
102
}
330
47
100
AcDbScale
 70
     0
300
2:1
140
2.0
141
1.0
290
     0
  0
SCALE
  5
55
102
{ACAD_REACTORS
330
47
102
}
330
47
100
AcDbScale
 70
     0
300
4:1
140
4.0
141
1.0
290
     0
  0
SCALE
  5
56
102
{ACAD_REACTORS
330
47
102
}
330
47
100
AcDbScale
 70
     0
300
8:1
140
8.0
141
1.0
290
     0
  0
SCALE
  5
57
102
{ACAD_REACTORS
330
47
102
}
330
47
100
AcDbScale
 70
     0
300
10:1
140
10.0
141
1.0
290
     0
  0
SCALE
  5
58
102
{ACAD_REACTORS
330
47
102
}
330
47
100
AcDbScale
 70
     0
300
100:1
140
100.0
141
1.0
290
     0
  0
SCALE
  5
59
102
{ACAD_REACTORS
330
47
102
}
330
47
100
AcDbScale
 70
     0
300
1/128" = 1'-0"
140
0.0078125
141
12.0
290
     0
  0
SCALE
  5
5A
102
{ACAD_REACTORS
330
47
102
}
330
47
100
AcDbScale
 70
     0
300
1/64" = 1'-0"
140
0.015625
141
12.0
290
     0
  0
SCALE
  5
5B
102
{ACAD_REACTORS
330
47
102
}
330
47
100
AcDbScale
 70
     0
300
1/32" = 1'-0"
140
0.03125
141
12.0
290
     0
  0
SCALE
  5
5C
102
{ACAD_REACTORS
330
47
102
}
330
47
100
AcDbScale
 70
     0
300
1/16" = 1'-0"
140
0.0625
141
12.0
290
     0
  0
SCALE
  5
5D
102
{ACAD_REACTORS
330
47
102
}
330
47
100
AcDbScale
 70
     0
300
3/32" = 1'-0"
140
0.09375
141
12.0
290
     0
  0
SCALE
  5
5E
102
{ACAD_REACTORS
330
47
102
}
330
47
100
AcDbScale
 70
     0
300
1/8" = 1'-0"
140
0.125
141
12.0
290
     0
  0
SCALE
  5
5F
102
{ACAD_REACTORS
330
47
102
}
330
47
100
AcDbScale
 70
     0
300
3/16" = 1'-0"
140
0.1875
141
12.0
290
     0
  0
SCALE
  5
60
102
{ACAD_REACTORS
330
47
102
}
330
47
100
AcDbScale
 70
     0
300
1/4" = 1'-0"
140
0.25
141
12.0
290
     0
  0
SCALE
  5
61
102
{ACAD_REACTORS
330
47
102
}
330
47
100
AcDbScale
 70
     0
300
3/8" = 1'-0"
140
0.375
141
12.0
290
     0
  0
SCALE
  5
62
102
{ACAD_REACTORS
330
47
102
}
330
47
100
AcDbScale
 70
     0
300
1/2" = 1'-0"
140
0.5
141
12.0
290
     0
  0
SCALE
  5
63
102
{ACAD_REACTORS
330
47
102
}
330
47
100
AcDbScale
 70
     0
300
3/4" = 1'-0"
140
0.75
141
12.0
290
     0
  0
SCALE
  5
64
102
{ACAD_REACTORS
330
47
102
}
330
47
100
AcDbScale
 70
     0
300
1" = 1'-0"
140
1.0
141
12.0
290
     0
  0
SCALE
  5
65
102
{ACAD_REACTORS
330
47
102
}
330
47
100
AcDbScale
 70
     0
300
1-1/2" = 1'-0"
140
1.5
141
12.0
290
     0
  0
SCALE
  5
66
102
{ACAD_REACTORS
330
47
102
}
330
47
100
AcDbScale
 70
     0
300
3" = 1'-0"
140
3.0
141
12.0
290
     0
  0
SCALE
  5
67
102
{ACAD_REACTORS
330
47
102
}
330
47
100
AcDbScale
 70
     0
300
6" = 1'-0"
140
6.0
141
12.0
290
     0
  0
SCALE
  5
68
102
{ACAD_REACTORS
330
47
102
}
330
47
100
AcDbScale
 70
     0
300
1'-0" = 1'-0"
140
12.0
141
12.0
290
     0
  0
TABLESTYLE
  5
6A
102
{ACAD_REACTORS
330
69
102
}
102
{ACAD_XDICTIONARY
360
2A6
102
}
330
69
100
AcDbTableStyle
  3
Standard
 70
     0
 71
     0
 40
0.06
 41
0.06
280
     0
281
     0
  7
Standard
140
4.5
170
     2
 62
     0
 63
   257
283
     0
274
    -2
284
     1
 64
     0
275
    -2
285
     1
 65
     0
276
    -2
286
     1
 66
     0
277
    -2
287
     1
 67
     0
278
    -2
288
     1
 68
     0
279
    -2
289
     1
 69
     0
  7
Standard
140
6.0
170
     5
 62
     0
 63
   257
283
     0
274
    -2
284
     1
 64
     0
275
    -2
285
     1
 65
     0
276
    -2
286
     1
 66
     0
277
    -2
287
     1
 67
     0
278
    -2
288
     1
 68
     0
279
    -2
289
     1
 69
     0
  7
Standard
140
4.5
170
     5
 62
     0
 63
   257
283
     0
274
    -2
284
     1
 64
     0
275
    -2
285
     1
 65
     0
276
    -2
286
     1
 66
     0
277
    -2
287
     1
 67
     0
278
    -2
288
     1
 68
     0
279
    -2
289
     1
 69
     0
  0
VISUALSTYLE
  5
2F
102
{ACAD_REACTORS
330
2A
102
}
102
{ACAD_XDICTIONARY
360
278
102
}
330
2A
100
AcDbVisualStyle
  2
2dWireframe
 70
     4
 71
     0
 72
     2
 73
     0
 90
        0
 40
0.6
 41
30.0
 62
     5
 63
     7
421
 16777215
 74
     1
 91
        4
 64
     7
 65
   257
 75
     1
175
     1
 42
1.0
 92
        0
 66
   257
 43
1.0
 76
     1
 77
     6
 78
     2
 67
     7
 79
     5
170
     0
171
     0
290
     0
174
     0
 93
        1
 44
0.0
173
     0
291
     0
 45
0.0
1001
ACAD
1000
AcDbSavedByObjectVersion
1070
     0
  0
VISUALSTYLE
  5
32
102
{ACAD_REACTORS
330
2A
102
}
102
{ACAD_XDICTIONARY
360
27E
102
}
330
2A
100
AcDbVisualStyle
  2
Basic
 70
     7
 71
     1
 72
     0
 73
     1
 90
        0
 40
0.6
 41
30.0
 62
     5
 63
     7
421
 16777215
 74
     0
 91
        4
 64
     7
 65
   257
 75
     1
175
     1
 42
1.0
 92
        8
 66
     7
 43
1.0
 76
     1
 77
     6
 78
     2
 67
     7
 79
     5
170
     0
171
     0
290
     0
174
     0
 93
        1
 44
0.0
173
     0
291
     1
 45
0.0
1001
ACAD
1000
AcDbSavedByObjectVersion
1070
     0
  0
VISUALSTYLE
  5
36
102
{ACAD_REACTORS
330
2A
102
}
102
{ACAD_XDICTIONARY
360
286
102
}
330
2A
100
AcDbVisualStyle
  2
Brighten
 70
    12
 71
     2
 72
     2
 73
     0
 90
        0
 40
0.6
 41
30.0
 62
     5
 63
     7
421
 16777215
 74
     1
 91
        4
 64
     7
 65
   257
 75
     1
175
     1
 42
1.0
 92
        8
 66
     7
 43
1.0
 76
     1
 77
     6
 78
     2
 67
     7
 79
     5
170
     0
171
     0
290
     0
174
     0
 93
        1
 44
50.0
173
     0
291
     1
 45
0.0
1001
ACAD
1000
AcDbSavedByObjectVersion
1070
     0
  0
VISUALSTYLE
  5
3A
102
{ACAD_REACTORS
330
2A
102
}
102
{ACAD_XDICTIONARY
360
28E
102
}
330
2A
100
AcDbVisualStyle
  2
ColorChange
 70
    16
 71
     2
 72
     2
 73
     3
 90
        0
 40
0.6
 41
30.0
 62
     5
 63
     8
421
  8421504
 74
     1
 91
        4
 64
     7
 65
   257
 75
     1
175
     1
 42
1.0
 92
        8
 66
     8
424
  8421504
 43
1.0
 76
     1
 77
     6
 78
     2
 67
     7
 79
     5
170
     0
171
     0
290
     0
174
     0
 93
        1
 44
0.0
173
     0
291
     1
 45
0.0
1001
ACAD
1000
AcDbSavedByObjectVersion
1070
     0
  0
VISUALSTYLE
  5
34
102
{ACAD_REACTORS
330
2A
102
}
102
{ACAD_XDICTIONARY
360
282
102
}
330
2A
100
AcDbVisualStyle
  2
Conceptual
 70
     9
 71
     3
 72
     2
 73
     0
 90
        0
 40
0.6
 41
30.0
 62
     5
 63
     7
421
 16777215
 74
     2
 91
        2
 64
     7
 65
   257
 75
     1
175
     1
 42
179.0
 92
        8
 66
     7
 43
1.0
 76
     1
 77
     6
 78
     2
 67
     7
 79
     3
170
     0
171
     0
290
     0
174
     0
 93
        1
 44
0.0
173
     0
291
     0
 45
0.0
1001
ACAD
1000
AcDbSavedByObjectVersion
1070
     0
  0
VISUALSTYLE
  5
35
102
{ACAD_REACTORS
330
2A
102
}
102
{ACAD_XDICTIONARY
360
284
102
}
330
2A
100
AcDbVisualStyle
  2
Dim
 70
    11
 71
     2
 72
     2
 73
     0
 90
        0
 40
0.6
 41
30.0
 62
     5
 63
     7
421
 16777215
 74
     1
 91
        4
 64
     7
 65
   257
 75
     1
175
     1
 42
1.0
 92
        8
 66
     7
 43
1.0
 76
     1
 77
     6
 78
     2
 67
     7
 79
     5
170
     0
171
     0
290
     0
174
     0
 93
        1
 44
-50.0
173
     0
291
     1
 45
0.0
1001
ACAD
1000
AcDbSavedByObjectVersion
1070
     0
  0
VISUALSTYLE
  5
3D
102
{ACAD_REACTORS
330
2A
102
}
102
{ACAD_XDICTIONARY
360
294
102
}
330
2A
100
AcDbVisualStyle
  2
EdgeColorOff
 70
    22
 71
     2
 72
     2
 73
     0
 90
        0
 40
0.6
 41
30.0
 62
     5
 63
     7
421
 16777215
 74
     1
 91
        4
 64
     7
 65
   257
 75
     1
175
     1
 42
1.0
 92
        8
 66
     7
 43
1.0
 76
     1
 77
     6
 78
     2
 67
     7
 79
     5
170
     0
171
     0
290
     0
174
     0
 93
        1
 44
0.0
173
     0
291
     1
 45
0.0
1001
ACAD
1000
AcDbSavedByObjectVersion
1070
     0
  0
VISUALSTYLE
  5
39
102
{ACAD_REACTORS
330
2A
102
}
102
{ACAD_XDICTIONARY
360
28C
102
}
330
2A
100
AcDbVisualStyle
  2
Facepattern
 70
    15
 71
     2
 72
     2
 73
     0
 90
        0
 40
0.6
 41
30.0
 62
     5
 63
     7
421
 16777215
 74
     1
 91
        4
 64
     7
 65
   257
 75
     1
175
     1
 42
1.0
 92
        8
 66
     7
 43
1.0
 76
     1
 77
     6
 78
     2
 67
     7
 79
     5
170
     0
171
     0
290
     0
174
     0
 93
        1
 44
0.0
173
     0
291
     1
 45
0.0
1001
ACAD
1000
AcDbSavedByObjectVersion
1070
     0
  0
VISUALSTYLE
  5
2B
102
{ACAD_REACTORS
330
2A
102
}
102
{ACAD_XDICTIONARY
360
270
102
}
330
2A
100
AcDbVisualStyle
  2
Flat
 70
     0
 71
     2
 72
     1
 73
     1
 90
        2
 40
0.6
 41
30.0
 62
     5
 63
     7
421
 16777215
 74
     0
 91
        0
 64
     7
 65
   257
 75
     1
175
     1
 42
1.0
 92
        8
 66
     7
 43
1.0
 76
     1
 77
     6
 78
     2
 67
     7
 79
     5
170
     0
171
     0
290
     0
174
     0
 93
       13
 44
0.0
173
     0
291
     1
 45
0.0
1001
ACAD
1000
AcDbSavedByObjectVersion
1070
     0
  0
VISUALSTYLE
  5
2C
102
{ACAD_REACTORS
330
2A
102
}
102
{ACAD_XDICTIONARY
360
272
102
}
330
2A
100
AcDbVisualStyle
  2
FlatWithEdges
 70
     1
 71
     2
 72
     1
 73
     1
 90
        2
 40
0.6
 41
30.0
 62
     5
 63
     7
421
 16777215
 74
     1
 91
        0
 64
     7
 65
   257
 75
     1
175
     1
 42
1.0
 92
        0
 66
   257
 43
1.0
 76
     1
 77
     6
 78
     2
 67
     7
 79
     5
170
     0
171
     0
290
     0
174
     0
 93
       13
 44
0.0
173
     0
291
     1
 45
0.0
1001
ACAD
1000
AcDbSavedByObjectVersion
1070
     0
  0
VISUALSTYLE
  5
2D
102
{ACAD_REACTORS
330
2A
102
}
102
{ACAD_XDICTIONARY
360
274
102
}
330
2A
100
AcDbVisualStyle
  2
Gouraud
 70
     2
 71
     2
 72
     2
 73
     1
 90
        2
 40
0.6
 41
30.0
 62
     5
 63
     7
421
 16777215
 74
     0
 91
        0
 64
     7
 65
   257
 75
     1
175
     1
 42
1.0
 92
        0
 66
     7
 43
1.0
 76
     1
 77
     6
 78
     2
 67
     7
 79
     5
170
     0
171
     0
290
     0
174
     0
 93
       13
 44
0.0
173
     0
291
     1
 45
0.0
1001
ACAD
1000
AcDbSavedByObjectVersion
1070
     0
  0
VISUALSTYLE
  5
2E
102
{ACAD_REACTORS
330
2A
102
}
102
{ACAD_XDICTIONARY
360
276
102
}
330
2A
100
AcDbVisualStyle
  2
GouraudWithEdges
 70
     3
 71
     2
 72
     2
 73
     1
 90
        2
 40
0.6
 41
30.0
 62
     5
 63
     7
421
 16777215
 74
     1
 91
        0
 64
     7
 65
   257
 75
     1
175
     1
 42
1.0
 92
        0
 66
   257
 43
1.0
 76
     1
 77
     6
 78
     2
 67
     7
 79
     5
170
     0
171
     0
290
     0
174
     0
 93
       13
 44
0.0
173
     0
291
     1
 45
0.0
1001
ACAD
1000
AcDbSavedByObjectVersion
1070
     0
  0
VISUALSTYLE
  5
31
102
{ACAD_REACTORS
330
2A
102
}
102
{ACAD_XDICTIONARY
360
27C
102
}
330
2A
100
AcDbVisualStyle
  2
Hidden
 70
     6
 71
     1
 72
     2
 73
     2
 90
        0
 40
0.6
 41
30.0
 62
     5
 63
     7
421
 16777215
 74
     2
 91
        2
 64
     7
 65
   257
 75
     2
175
     1
 42
40.0
 92
        0
 66
   257
 43
1.0
 76
     1
 77
     6
 78
     2
 67
     7
 79
     3
170
     0
171
     0
290
     0
174
     0
 93
        1
 44
0.0
173
     0
291
     0
 45
0.0
1001
ACAD
1000
AcDbSavedByObjectVersion
1070
     0
  0
VISUALSTYLE
  5
3B
102
{ACAD_REACTORS
330
2A
102
}
102
{ACAD_XDICTIONARY
360
290
102
}
330
2A
100
AcDbVisualStyle
  2
JitterOff
 70
    20
 71
     2
 72
     2
 73
     0
 90
        0
 40
0.6
 41
30.0
 62
     5
 63
     7
421
 16777215
 74
     1
 91
        4
 64
     7
 65
   257
 75
     1
175
     1
 42
1.0
 92
       10
 66
     7
 43
1.0
 76
     1
 77
     6
 78
     2
 67
     7
 79
     5
170
     0
171
     0
290
     0
174
     0
 93
        1
 44
0.0
173
     0
291
     1
 45
0.0
1001
ACAD
1000
AcDbSavedByObjectVersion
1070
     0
  0
VISUALSTYLE
  5
38
102
{ACAD_REACTORS
330
2A
102
}
102
{ACAD_XDICTIONARY
360
28A
102
}
330
2A
100
AcDbVisualStyle
  2
Linepattern
 70
    14
 71
     2
 72
     2
 73
     0
 90
        0
 40
0.6
 41
30.0
 62
     5
 63
     7
421
 16777215
 74
     1
 91
        4
 64
     7
 65
   257
 75
     7
175
     7
 42
1.0
 92
        8
 66
     7
 43
1.0
 76
     1
 77
     6
 78
     2
 67
     7
 79
     5
170
     0
171
     0
290
     0
174
     0
 93
        1
 44
0.0
173
     0
291
     1
 45
0.0
1001
ACAD
1000
AcDbSavedByObjectVersion
1070
     0
  0
VISUALSTYLE
  5
3C
102
{ACAD_REACTORS
330
2A
102
}
102
{ACAD_XDICTIONARY
360
292
102
}
330
2A
100
AcDbVisualStyle
  2
OverhangOff
 70
    21
 71
     2
 72
     2
 73
     0
 90
        0
 40
0.6
 41
30.0
 62
     5
 63
     7
421
 16777215
 74
     1
 91
        4
 64
     7
 65
   257
 75
     1
175
     1
 42
1.0
 92
        9
 66
     7
 43
1.0
 76
     1
 77
     6
 78
     2
 67
     7
 79
     5
170
     0
171
     0
290
     0
174
     0
 93
        1
 44
0.0
173
     0
291
     1
 45
0.0
1001
ACAD
1000
AcDbSavedByObjectVersion
1070
     0
  0
VISUALSTYLE
  5
33
102
{ACAD_REACTORS
330
2A
102
}
102
{ACAD_XDICTIONARY
360
280
102
}
330
2A
100
AcDbVisualStyle
  2
Realistic
 70
     8
 71
     2
 72
     3
 73
     0
 90
        2
 40
0.6
 41
30.0
 62
     5
 63
     7
421
 16777215
 74
     0
 91
        0
 64
     7
 65
   257
 75
     1
175
     1
 42
1.0
 92
        8
 66
   257
 43
1.0
 76
     1
 77
     6
 78
     2
 67
     7
 79
     3
170
     0
171
     0
290
     0
174
     0
 93
       13
 44
0.0
173
     0
291
     0
 45
0.0
1001
ACAD
1000
AcDbSavedByObjectVersion
1070
     0
  0
VISUALSTYLE
  5
42
102
{ACAD_REACTORS
330
2A
102
}
102
{ACAD_XDICTIONARY
360
29E
102
}
330
2A
100
AcDbVisualStyle
  2
Shaded
 70
    27
 71
     2
 72
     2
 73
     1
 90
        2
 40
0.6
 41
30.0
 62
     5
 63
     7
421
 16777215
 74
     0
 91
        4
 64
     7
 65
   257
 75
     1
175
     1
 42
1.0
 92
        8
 66
   257
 43
1.0
 76
     1
 77
     6
 78
     2
 67
     8
425
  7895160
 79
     3
170
     0
171
     0
290
     0
174
     0
 93
        5
 44
0.0
173
     0
291
     0
 45
0.0
1001
ACAD
1000
AcDbSavedByObjectVersion
1070
     0
  0
VISUALSTYLE
  5
41
102
{ACAD_REACTORS
330
2A
102
}
102
{ACAD_XDICTIONARY
360
29C
102
}
330
2A
100
AcDbVisualStyle
  2
Shaded with edges
 70
    26
 71
     2
 72
     2
 73
     1
 90
        2
 40
0.6
 41
30.0
 62
     5
 63
     7
421
 16777215
 74
     1
 91
       10
 64
     7
 65
   257
 75
     2
175
     1
 42
1.0
 92
        8
 66
   257
 43
1.0
 76
     1
 77
     6
 78
     2
 67
     7
 79
     3
170
     0
171
     0
290
     0
174
     0
 93
        5
 44
0.0
173
     0
291
     0
 45
0.0
1001
ACAD
1000
AcDbSavedByObjectVersion
1070
     0
  0
VISUALSTYLE
  5
3E
102
{ACAD_REACTORS
330
2A
102
}
102
{ACAD_XDICTIONARY
360
296
102
}
330
2A
100
AcDbVisualStyle
  2
Shades of Gray
 70
    23
 71
     2
 72
     2
 73
     3
 90
        0
 40
0.6
 41
30.0
 62
     5
 63
     7
421
 16777215
 74
     2
 91
        2
 64
     7
 65
     7
 75
     1
175
     1
 42
40.0
 92
        8
 66
     7
 43
1.0
 76
     1
 77
     6
 78
     2
 67
     7
 79
     3
170
     0
171
     0
290
     0
174
     0
 93
        1
 44
0.0
173
     0
291
     0
 45
0.0
1001
ACAD
1000
AcDbSavedByObjectVersion
1070
     0
  0
VISUALSTYLE
  5
3F
102
{ACAD_REACTORS
330
2A
102
}
102
{ACAD_XDICTIONARY
360
298
102
}
330
2A
100
AcDbVisualStyle
  2
Sketchy
 70
    24
 71
     1
 72
     2
 73
     2
 90
        0
 40
0.6
 41
30.0
 62
     5
 63
     7
421
 16777215
 74
     2
 91
        2
 64
     7
 65
     7
 75
     1
175
     1
 42
40.0
 92
       11
 66
     7
 43
1.0
 76
     1
 77
     6
 78
     2
 67
     7
 79
     6
170
     0
171
     0
290
     0
174
     0
 93
        1
 44
0.0
173
     0
291
     0
 45
0.0
1001
ACAD
1000
AcDbSavedByObjectVersion
1070
     0
  0
VISUALSTYLE
  5
37
102
{ACAD_REACTORS
330
2A
102
}
102
{ACAD_XDICTIONARY
360
288
102
}
330
2A
100
AcDbVisualStyle
  2
Thicken
 70
    13
 71
     2
 72
     2
 73
     0
 90
        0
 40
0.6
 41
30.0
 62
     5
 63
     7
421
 16777215
 74
     1
 91
        4
 64
     7
 65
   257
 75
     1
175
     1
 42
1.0
 92
       12
 66
     7
 43
1.0
 76
     1
 77
     6
 78
     2
 67
     7
 79
     5
170
     0
171
     0
290
     0
174
     0
 93
        1
 44
0.0
173
     0
291
     1
 45
0.0
1001
ACAD
1000
AcDbSavedByObjectVersion
1070
     0
  0
VISUALSTYLE
  5
30
102
{ACAD_REACTORS
330
2A
102
}
102
{ACAD_XDICTIONARY
360
27A
102
}
330
2A
100
AcDbVisualStyle
  2
Wireframe
 70
     5
 71
     0
 72
     2
 73
     0
 90
        0
 40
0.6
 41
30.0
 62
     5
 63
     7
421
 16777215
 74
     1
 91
        4
 64
     7
 65
   257
 75
     1
175
     1
 42
1.0
 92
        0
 66
   257
 43
1.0
 76
     1
 77
     6
 78
     2
 67
     7
 79
     3
170
     0
171
     0
290
     0
174
     0
 93
        1
 44
0.0
173
     0
291
     0
 45
0.0
1001
ACAD
1000
AcDbSavedByObjectVersion
1070
     0
  0
VISUALSTYLE
  5
40
102
{ACAD_REACTORS
330
2A
102
}
102
{ACAD_XDICTIONARY
360
29A
102
}
330
2A
100
AcDbVisualStyle
  2
X-Ray
 70
    25
 71
     2
 72
     2
 73
     1
 90
        1
 40
0.5
 41
30.0
 62
     5
 63
     7
421
 16777215
 74
     1
 91
        0
 64
     7
 65
   257
 75
     1
175
     1
 42
1.0
 92
        8
 66
     7
 43
1.0
 76
     1
 77
     6
 78
     2
 67
     7
 79
     3
170
     0
171
     0
290
     0
174
     0
 93
       13
 44
0.0
173
     0
291
     0
 45
0.0
1001
ACAD
1000
AcDbSavedByObjectVersion
1070
     0
  0
DICTIONARYVAR
  5
26D
102
{ACAD_REACTORS
330
26C
102
}
330
26C
100
DictionaryVariables
280
     0
  1
1:1
  0
DICTIONARYVAR
  5
2B1
102
{ACAD_REACTORS
330
26C
102
}
330
26C
100
DictionaryVariables
280
     0
  1
3.500000
  0
DICTIONARYVAR
  5
2B2
102
{ACAD_REACTORS
330
26C
102
}
330
26C
100
DictionaryVariables
280
     0
  1
acadiso.lin
  0
DICTIONARYVAR
  5
2AE
102
{ACAD_REACTORS
330
26C
102
}
330
26C
100
DictionaryVariables
280
     0
  1
Standard
  0
DICTIONARYVAR
  5
2AD
102
{ACAD_REACTORS
330
26C
102
}
330
26C
100
DictionaryVariables
280
     0
  1
Standard
  0
DICTIONARYVAR
  5
26E
102
{ACAD_REACTORS
330
26C
102
}
330
26C
100
DictionaryVariables
280
     0
  1
1
  0
DICTIONARYVAR
  5
26F
102
{ACAD_REACTORS
330
26C
102
}
330
26C
100
DictionaryVariables
280
     0
  1
2
  0
DICTIONARY
  5
2A2
330
45
100
AcDbDictionary
280
     1
281
     1
  3
ACAD_XREC_ROUNDTRIP
360
2A3
  0
DICTIONARY
  5
2A0
330
44
100
AcDbDictionary
280
     1
281
     1
  3
ACAD_XREC_ROUNDTRIP
360
2A1
  0
DICTIONARY
  5
2A4
330
46
100
AcDbDictionary
280
     1
281
     1
  3
ACAD_XREC_ROUNDTRIP
360
2A5
  0
DICTIONARY
  5
2AA
330
6C
100
AcDbDictionary
280
     1
281
     1
  3
ACAD_XREC_ROUNDTRIP
360
2AB
  0
DICTIONARY
  5
2A6
330
6A
100
AcDbDictionary
280
     1
281
     1
  3
ACAD_ROUNDTRIP_2008_TABLESTYLE_CELLSTYLEMAP
360
2A8
  3
ACAD_XREC_ROUNDTRIP
360
2A7
  0
DICTIONARY
  5
278
330
2F
100
AcDbDictionary
280
     1
281
     1
  3
ACAD_XREC_ROUNDTRIP
360
279
  0
DICTIONARY
  5
27E
330
32
100
AcDbDictionary
280
     1
281
     1
  3
ACAD_XREC_ROUNDTRIP
360
27F
  0
DICTIONARY
  5
286
330
36
100
AcDbDictionary
280
     1
281
     1
  3
ACAD_XREC_ROUNDTRIP
360
287
  0
DICTIONARY
  5
28E
330
3A
100
AcDbDictionary
280
     1
281
     1
  3
ACAD_XREC_ROUNDTRIP
360
28F
  0
DICTIONARY
  5
282
330
34
100
AcDbDictionary
280
     1
281
     1
  3
ACAD_XREC_ROUNDTRIP
360
283
  0
DICTIONARY
  5
284
330
35
100
AcDbDictionary
280
     1
281
     1
  3
ACAD_XREC_ROUNDTRIP
360
285
  0
DICTIONARY
  5
294
330
3D
100
AcDbDictionary
280
     1
281
     1
  3
ACAD_XREC_ROUNDTRIP
360
295
  0
DICTIONARY
  5
28C
330
39
100
AcDbDictionary
280
     1
281
     1
  3
ACAD_XREC_ROUNDTRIP
360
28D
  0
DICTIONARY
  5
270
330
2B
100
AcDbDictionary
280
     1
281
     1
  3
ACAD_XREC_ROUNDTRIP
360
271
  0
DICTIONARY
  5
272
330
2C
100
AcDbDictionary
280
     1
281
     1
  3
ACAD_XREC_ROUNDTRIP
360
273
  0
DICTIONARY
  5
274
330
2D
100
AcDbDictionary
280
     1
281
     1
  3
ACAD_XREC_ROUNDTRIP
360
275
  0
DICTIONARY
  5
276
330
2E
100
AcDbDictionary
280
     1
281
     1
  3
ACAD_XREC_ROUNDTRIP
360
277
  0
DICTIONARY
  5
27C
330
31
100
AcDbDictionary
280
     1
281
     1
  3
ACAD_XREC_ROUNDTRIP
360
27D
  0
DICTIONARY
  5
290
330
3B
100
AcDbDictionary
280
     1
281
     1
  3
ACAD_XREC_ROUNDTRIP
360
291
  0
DICTIONARY
  5
28A
330
38
100
AcDbDictionary
280
     1
281
     1
  3
ACAD_XREC_ROUNDTRIP
360
28B
  0
DICTIONARY
  5
292
330
3C
100
AcDbDictionary
280
     1
281
     1
  3
ACAD_XREC_ROUNDTRIP
360
293
  0
DICTIONARY
  5
280
330
33
100
AcDbDictionary
280
     1
281
     1
  3
ACAD_XREC_ROUNDTRIP
360
281
  0
DICTIONARY
  5
29E
330
42
100
AcDbDictionary
280
     1
281
     1
  3
ACAD_XREC_ROUNDTRIP
360
29F
  0
DICTIONARY
  5
29C
330
41
100
AcDbDictionary
280
     1
281
     1
  3
ACAD_XREC_ROUNDTRIP
360
29D
  0
DICTIONARY
  5
296
330
3E
100
AcDbDictionary
280
     1
281
     1
  3
ACAD_XREC_ROUNDTRIP
360
297
  0
DICTIONARY
  5
298
330
3F
100
AcDbDictionary
280
     1
281
     1
  3
ACAD_XREC_ROUNDTRIP
360
299
  0
DICTIONARY
  5
288
330
37
100
AcDbDictionary
280
     1
281
     1
  3
ACAD_XREC_ROUNDTRIP
360
289
  0
DICTIONARY
  5
27A
330
30
100
AcDbDictionary
280
     1
281
     1
  3
ACAD_XREC_ROUNDTRIP
360
27B
  0
DICTIONARY
  5
29A
330
40
100
AcDbDictionary
280
     1
281
     1
  3
ACAD_XREC_ROUNDTRIP
360
29B
  0
XRECORD
  5
2A3
102
{ACAD_REACTORS
330
2A2
102
}
330
2A2
100
AcDbXrecord
280
     1
102
MATERIAL
148
0.0
149
0.0
149
0.0
 93
        0
 94
      127
282
     0
 72
     1
 77
     1
171
     1
175
     1
179
     1
273
     0
  0
XRECORD
  5
2A1
102
{ACAD_REACTORS
330
2A0
102
}
330
2A0
100
AcDbXrecord
280
     1
102
MATERIAL
148
0.0
149
0.0
149
0.0
 93
        0
 94
      127
282
     0
 72
     1
 77
     1
171
     1
175
     1
179
     1
273
     0
  0
XRECORD
  5
2A5
102
{ACAD_REACTORS
330
2A4
102
}
330
2A4
100
AcDbXrecord
280
     1
102
MATERIAL
148
0.0
149
0.0
149
0.0
 93
        0
 94
      127
282
     0
 72
     1
 77
     1
171
     1
175
     1
179
     1
273
     0
  0
XRECORD
  5
2AB
102
{ACAD_REACTORS
330
2AA
102
}
330
2AA
100
AcDbXrecord
280
     1
102
ACAD_ROUNDTRIP_2010_MLEADER_STYLE
  0
CELLSTYLEMAP
  5
2A8
102
{ACAD_REACTORS
330
2A6
102
}
330
2A6
100
AcDbCellStyleMap
 90
        3
300
CELLSTYLE
  1
TABLEFORMAT_BEGIN
 90
        5
170
     1
 91
        0
 92
    32768
 62
   257
 93
        1
300
CONTENTFORMAT
  1
CONTENTFORMAT_BEGIN
 90
        0
 91
        0
 92
        4
 93
        0
300

 40
0.0
140
1.0
 94
        5
 62
     0
340
11
144
6.0
309
CONTENTFORMAT_END
171
     1
301
MARGIN
  1
CELLMARGIN_BEGIN
 40
1.5
 40
1.5
 40
1.5
 40
1.5
 40
1.5
 40
1.5
309
CELLMARGIN_END
 94
        6
 95
        1
302
GRIDFORMAT
  1
GRIDFORMAT_BEGIN
 90
        0
 91
        1
 62
     0
 92
       -2
340
14
 93
        0
 40
0.045
309
GRIDFORMAT_END
 95
        2
302
GRIDFORMAT
  1
GRIDFORMAT_BEGIN
 90
        0
 91
        1
 62
     0
 92
       -2
340
14
 93
        0
 40
0.045
309
GRIDFORMAT_END
 95
        4
302
GRIDFORMAT
  1
GRIDFORMAT_BEGIN
 90
        0
 91
        1
 62
     0
 92
       -2
340
14
 93
        0
 40
0.045
309
GRIDFORMAT_END
 95
        8
302
GRIDFORMAT
  1
GRIDFORMAT_BEGIN
 90
        0
 91
        1
 62
     0
 92
       -2
340
14
 93
        0
 40
0.045
309
GRIDFORMAT_END
 95
       16
302
GRIDFORMAT
  1
GRIDFORMAT_BEGIN
 90
        0
 91
        1
 62
     0
 92
       -2
340
14
 93
        0
 40
0.045
309
GRIDFORMAT_END
 95
       32
302
GRIDFORMAT
  1
GRIDFORMAT_BEGIN
 90
        0
 91
        1
 62
     0
 92
       -2
340
14
 93
        0
 40
0.045
309
GRIDFORMAT_END
309
TABLEFORMAT_END
  1
CELLSTYLE_BEGIN
 90
        1
 91
        1
300
_TITLE
309
CELLSTYLE_END
300
CELLSTYLE
  1
TABLEFORMAT_BEGIN
 90
        5
170
     1
 91
        0
 92
        0
 62
   257
 93
        1
300
CONTENTFORMAT
  1
CONTENTFORMAT_BEGIN
 90
        0
 91
        0
 92
        4
 93
        0
300

 40
0.0
140
1.0
 94
        5
 62
     0
340
11
144
4.5
309
CONTENTFORMAT_END
171
     1
301
MARGIN
  1
CELLMARGIN_BEGIN
 40
1.5
 40
1.5
 40
1.5
 40
1.5
 40
1.5
 40
1.5
309
CELLMARGIN_END
 94
        6
 95
        1
302
GRIDFORMAT
  1
GRIDFORMAT_BEGIN
 90
        0
 91
        1
 62
     0
 92
       -2
340
14
 93
        0
 40
0.045
309
GRIDFORMAT_END
 95
        2
302
GRIDFORMAT
  1
GRIDFORMAT_BEGIN
 90
        0
 91
        1
 62
     0
 92
       -2
340
14
 93
        0
 40
0.045
309
GRIDFORMAT_END
 95
        4
302
GRIDFORMAT
  1
GRIDFORMAT_BEGIN
 90
        0
 91
        1
 62
     0
 92
       -2
340
14
 93
        0
 40
0.045
309
GRIDFORMAT_END
 95
        8
302
GRIDFORMAT
  1
GRIDFORMAT_BEGIN
 90
        0
 91
        1
 62
     0
 92
       -2
340
14
 93
        0
 40
0.045
309
GRIDFORMAT_END
 95
       16
302
GRIDFORMAT
  1
GRIDFORMAT_BEGIN
 90
        0
 91
        1
 62
     0
 92
       -2
340
14
 93
        0
 40
0.045
309
GRIDFORMAT_END
 95
       32
302
GRIDFORMAT
  1
GRIDFORMAT_BEGIN
 90
        0
 91
        1
 62
     0
 92
       -2
340
14
 93
        0
 40
0.045
309
GRIDFORMAT_END
309
TABLEFORMAT_END
  1
CELLSTYLE_BEGIN
 90
        2
 91
        1
300
_HEADER
309
CELLSTYLE_END
300
CELLSTYLE
  1
TABLEFORMAT_BEGIN
 90
        5
170
     1
 91
        0
 92
        0
 62
   257
 93
        1
300
CONTENTFORMAT
  1
CONTENTFORMAT_BEGIN
 90
        0
 91
        0
 92
        4
 93
        0
300

 40
0.0
140
1.0
 94
        2
 62
     0
340
11
144
4.5
309
CONTENTFORMAT_END
171
     1
301
MARGIN
  1
CELLMARGIN_BEGIN
 40
1.5
 40
1.5
 40
1.5
 40
1.5
 40
1.5
 40
1.5
309
CELLMARGIN_END
 94
        6
 95
        1
302
GRIDFORMAT
  1
GRIDFORMAT_BEGIN
 90
        0
 91
        1
 62
     0
 92
       -2
340
14
 93
        0
 40
0.045
309
GRIDFORMAT_END
 95
        2
302
GRIDFORMAT
  1
GRIDFORMAT_BEGIN
 90
        0
 91
        1
 62
     0
 92
       -2
340
14
 93
        0
 40
0.045
309
GRIDFORMAT_END
 95
        4
302
GRIDFORMAT
  1
GRIDFORMAT_BEGIN
 90
        0
 91
        1
 62
     0
 92
       -2
340
14
 93
        0
 40
0.045
309
GRIDFORMAT_END
 95
        8
302
GRIDFORMAT
  1
GRIDFORMAT_BEGIN
 90
        0
 91
        1
 62
     0
 92
       -2
340
14
 93
        0
 40
0.045
309
GRIDFORMAT_END
 95
       16
302
GRIDFORMAT
  1
GRIDFORMAT_BEGIN
 90
        0
 91
        1
 62
     0
 92
       -2
340
14
 93
        0
 40
0.045
309
GRIDFORMAT_END
 95
       32
302
GRIDFORMAT
  1
GRIDFORMAT_BEGIN
 90
        0
 91
        1
 62
     0
 92
       -2
340
14
 93
        0
 40
0.045
309
GRIDFORMAT_END
309
TABLEFORMAT_END
  1
CELLSTYLE_BEGIN
 90
        3
 91
        2
300
_DATA
309
CELLSTYLE_END
  0
XRECORD
  5
2A7
102
{ACAD_REACTORS
330
2A6
102
}
330
2A6
100
AcDbXrecord
280
     1
102
ACAD_ROUNDTRIP_PRE2007_TABLESTYLE
 90
        4
 91
        0
  1

 92
        4
 93
        0
  2

 94
        4
 95
        0
  3

  0
XRECORD
  5
279
102
{ACAD_REACTORS
330
278
102
}
330
278
100
AcDbXrecord
280
     1
102
RTVSPropertyOp0
 70
     1
102
RTVSPropertyOp1
 70
     1
102
RTVSPropertyOp2
 70
     1
102
RTVSPropertyOp3
 70
     1
102
RTVSPropertyOp4
 70
     1
102
RTVSPropertyOp5
 70
     1
102
RTVSPropertyOp6
 70
     1
102
RTVSPropertyOp7
 70
     1
102
RTVSPropertyOp8
 70
     1
102
RTVSPropertyOp9
 70
     1
102
RTVSPropertyOp10
 70
     1
102
RTVSPropertyOp11
 70
     1
102
RTVSPropertyOp12
 70
     1
102
RTVSPropertyOp13
 70
     1
102
RTVSPropertyOp14
 70
     1
102
RTVSPropertyOp15
 70
     1
102
RTVSPropertyOp16
 70
     1
102
RTVSPropertyOp17
 70
     1
102
RTVSPropertyOp18
 70
     1
102
RTVSPropertyOp19
 70
     1
102
RTVSPropertyOp20
 70
     1
102
RTVSPropertyOp21
 70
     1
102
RTVSPropertyOp22
 70
     1
102
RTVSPropertyOp23
 70
     1
102
RTVSPropertyOp24
 70
     1
102
RTVSPropertyOp25
 70
     1
102
RTVSPropertyOp26
 70
     1
102
RTVSPropertyOp27
 70
     1
102
RTVSPropertyOp28
 70
     1
102
RTVSPropertyOp29
 70
     1
102
RTVSPropertyOp30
 70
     1
102
RTVSPropertyOp31
 70
     1
102
RTVSPropertyOp32
 70
     1
102
RTVSPropertyOp33
 70
     1
102
RTVSPropertyOp34
 70
     1
102
RTVSPropertyOp35
 70
     1
102
RTVSPropertyOp36
 70
     1
102
RTVSPropertyOp37
 70
     1
102
RTVSPropertyOp38
 70
     1
102
RTVSPropertyOp39
 70
     1
102
RTVSPropertyOp40
 70
     1
102
RTVSPropertyOp41
 70
     1
102
RTVSPropertyOp42
 70
     1
102
RTVSPropertyOp43
 70
     1
102
RTVSPropertyOp44
 70
     1
102
RTVSPropertyOp45
 70
     1
102
RTVSPropertyOp46
 70
     1
102
RTVSPropertyOp47
 70
     1
102
RTVSPropertyOp48
 70
     1
102
RTVSPropertyOp49
 70
     1
102
RTVSPropertyOp50
 70
     1
102
RTVSPropertyOp51
 70
     0
102
RTVSPropertyOp52
 70
     0
102
RTVSPropertyOp53
 70
     1
102
RTVSPropertyOp54
 70
     1
102
RTVSPropertyOp55
 70
     1
102
RTVSPropertyOp56
 70
     1
102
RTVSPropertyOp57
 70
     1
102
RTVSPost2010Prop28
280
     1
102
RTVSPost2010PropOp28
 70
     1
102
RTVSPost2010Prop29
280
     1
102
RTVSPost2010PropOp29
 70
     1
102
RTVSPost2010Prop30
280
     0
102
RTVSPost2010PropOp30
 70
     1
102
RTVSPost2010Prop31
280
     0
102
RTVSPost2010PropOp31
 70
     1
102
RTVSPost2010Prop32
280
     0
102
RTVSPost2010PropOp32
 70
     1
102
RTVSPost2010Prop33
280
     0
102
RTVSPost2010PropOp33
 70
     1
102
RTVSPost2010Prop34
280
     0
102
RTVSPost2010PropOp34
 70
     1
102
RTVSPost2010Prop35
280
     0
102
RTVSPost2010PropOp35
 70
     1
102
RTVSPost2010Prop36
280
     0
102
RTVSPost2010PropOp36
 70
     1
102
RTVSPost2010Prop37
 90
       50
102
RTVSPost2010PropOp37
 70
     1
102
RTVSPost2010Prop38
140
0.0
102
RTVSPost2010PropOp38
 70
     1
102
RTVSPost2010Prop39
140
1.0
102
RTVSPost2010PropOp39
 70
     1
102
RTVSPost2010Prop40
 90
        0
102
RTVSPost2010PropOp40
 70
     1
102
RTVSPost2010Prop41ColorIndex
 90
       18
102
RTVSPost2010Prop41ColorRGB
 90
        0
102
RTVSPost2010PropOp41
 70
     1
102
RTVSPost2010Prop42
 90
       50
102
RTVSPost2010PropOp42
 70
     1
102
RTVSPost2010Prop43
 90
        3
102
RTVSPost2010PropOp43
 70
     1
102
RTVSPost2010Prop44ColorIndex
 90
        5
102
RTVSPost2010Prop44ColorRGB
 90
      255
102
RTVSPost2010PropOp44
 70
     1
102
RTVSPost2010Prop45
280
     0
102
RTVSPost2010PropOp45
 70
     1
102
RTVSPost2010Prop46
 90
       50
102
RTVSPost2010PropOp46
 70
     1
102
RTVSPost2010Prop47
 90
       50
102
RTVSPost2010PropOp47
 70
     1
102
RTVSPost2010Prop48
 90
       50
102
RTVSPost2010PropOp48
 70
     1
102
RTVSPost2010Prop49
280
     0
102
RTVSPost2010PropOp49
 70
     1
102
RTVSPost2010Prop50
 90
       50
102
RTVSPost2010PropOp50
 70
     1
102
RTVSPost2010Prop51ColorIndex
 90
      256
102
RTVSPost2010Prop51ColorRGB
 90
-16777216
102
RTVSPost2010PropOp51
 70
     0
102
RTVSPost2010Prop52
140
1.0
102
RTVSPost2010PropOp52
 70
     0
102
RTVSPost2010Prop53
 90
        2
102
RTVSPost2010PropOp53
 70
     1
102
RTVSPost2010Prop54
  1
strokes_ogs.tif
102
RTVSPost2010PropOp54
 70
     1
102
RTVSPost2010Prop55
280
     0
102
RTVSPost2010PropOp55
 70
     1
102
RTVSPost2010Prop56
140
1.0
102
RTVSPost2010PropOp56
 70
     1
102
RTVSPost2010Prop57
140
1.0
102
RTVSPost2010PropOp57
 70
     1
  0
XRECORD
  5
27F
102
{ACAD_REACTORS
330
27E
102
}
330
27E
100
AcDbXrecord
280
     1
102
RTVSPropertyOp0
 70
     1
102
RTVSPropertyOp1
 70
     1
102
RTVSPropertyOp2
 70
     1
102
RTVSPropertyOp3
 70
     1
102
RTVSPropertyOp4
 70
     1
102
RTVSPropertyOp5
 70
     1
102
RTVSPropertyOp6
 70
     1
102
RTVSPropertyOp7
 70
     1
102
RTVSPropertyOp8
 70
     1
102
RTVSPropertyOp9
 70
     1
102
RTVSPropertyOp10
 70
     1
102
RTVSPropertyOp11
 70
     1
102
RTVSPropertyOp12
 70
     1
102
RTVSPropertyOp13
 70
     1
102
RTVSPropertyOp14
 70
     1
102
RTVSPropertyOp15
 70
     1
102
RTVSPropertyOp16
 70
     1
102
RTVSPropertyOp17
 70
     1
102
RTVSPropertyOp18
 70
     1
102
RTVSPropertyOp19
 70
     1
102
RTVSPropertyOp20
 70
     1
102
RTVSPropertyOp21
 70
     1
102
RTVSPropertyOp22
 70
     1
102
RTVSPropertyOp23
 70
     1
102
RTVSPropertyOp24
 70
     1
102
RTVSPropertyOp25
 70
     1
102
RTVSPropertyOp26
 70
     1
102
RTVSPropertyOp27
 70
     1
102
RTVSPropertyOp28
 70
     1
102
RTVSPropertyOp29
 70
     1
102
RTVSPropertyOp30
 70
     1
102
RTVSPropertyOp31
 70
     1
102
RTVSPropertyOp32
 70
     1
102
RTVSPropertyOp33
 70
     1
102
RTVSPropertyOp34
 70
     1
102
RTVSPropertyOp35
 70
     1
102
RTVSPropertyOp36
 70
     1
102
RTVSPropertyOp37
 70
     1
102
RTVSPropertyOp38
 70
     1
102
RTVSPropertyOp39
 70
     1
102
RTVSPropertyOp40
 70
     1
102
RTVSPropertyOp41
 70
     1
102
RTVSPropertyOp42
 70
     1
102
RTVSPropertyOp43
 70
     1
102
RTVSPropertyOp44
 70
     1
102
RTVSPropertyOp45
 70
     1
102
RTVSPropertyOp46
 70
     1
102
RTVSPropertyOp47
 70
     1
102
RTVSPropertyOp48
 70
     1
102
RTVSPropertyOp49
 70
     1
102
RTVSPropertyOp50
 70
     1
102
RTVSPropertyOp51
 70
     0
102
RTVSPropertyOp52
 70
     0
102
RTVSPropertyOp53
 70
     1
102
RTVSPropertyOp54
 70
     1
102
RTVSPropertyOp55
 70
     1
102
RTVSPropertyOp56
 70
     1
102
RTVSPropertyOp57
 70
     1
102
RTVSPost2010Prop28
280
     0
102
RTVSPost2010PropOp28
 70
     1
102
RTVSPost2010Prop29
280
     1
102
RTVSPost2010PropOp29
 70
     1
102
RTVSPost2010Prop30
280
     1
102
RTVSPost2010PropOp30
 70
     1
102
RTVSPost2010Prop31
280
     0
102
RTVSPost2010PropOp31
 70
     1
102
RTVSPost2010Prop32
280
     0
102
RTVSPost2010PropOp32
 70
     1
102
RTVSPost2010Prop33
280
     0
102
RTVSPost2010PropOp33
 70
     1
102
RTVSPost2010Prop34
280
     0
102
RTVSPost2010PropOp34
 70
     1
102
RTVSPost2010Prop35
280
     0
102
RTVSPost2010PropOp35
 70
     1
102
RTVSPost2010Prop36
280
     0
102
RTVSPost2010PropOp36
 70
     1
102
RTVSPost2010Prop37
 90
       50
102
RTVSPost2010PropOp37
 70
     1
102
RTVSPost2010Prop38
140
0.0
102
RTVSPost2010PropOp38
 70
     1
102
RTVSPost2010Prop39
140
1.0
102
RTVSPost2010PropOp39
 70
     1
102
RTVSPost2010Prop40
 90
        0
102
RTVSPost2010PropOp40
 70
     1
102
RTVSPost2010Prop41ColorIndex
 90
       18
102
RTVSPost2010Prop41ColorRGB
 90
        0
102
RTVSPost2010PropOp41
 70
     1
102
RTVSPost2010Prop42
 90
       50
102
RTVSPost2010PropOp42
 70
     1
102
RTVSPost2010Prop43
 90
        3
102
RTVSPost2010PropOp43
 70
     1
102
RTVSPost2010Prop44ColorIndex
 90
        5
102
RTVSPost2010Prop44ColorRGB
 90
      255
102
RTVSPost2010PropOp44
 70
     1
102
RTVSPost2010Prop45
280
     0
102
RTVSPost2010PropOp45
 70
     1
102
RTVSPost2010Prop46
 90
       50
102
RTVSPost2010PropOp46
 70
     1
102
RTVSPost2010Prop47
 90
       50
102
RTVSPost2010PropOp47
 70
     1
102
RTVSPost2010Prop48
 90
       50
102
RTVSPost2010PropOp48
 70
     1
102
RTVSPost2010Prop49
280
     0
102
RTVSPost2010PropOp49
 70
     1
102
RTVSPost2010Prop50
 90
       50
102
RTVSPost2010PropOp50
 70
     1
102
RTVSPost2010Prop51ColorIndex
 90
      256
102
RTVSPost2010Prop51ColorRGB
 90
-16777216
102
RTVSPost2010PropOp51
 70
     0
102
RTVSPost2010Prop52
140
1.0
102
RTVSPost2010PropOp52
 70
     0
102
RTVSPost2010Prop53
 90
        2
102
RTVSPost2010PropOp53
 70
     1
102
RTVSPost2010Prop54
  1
strokes_ogs.tif
102
RTVSPost2010PropOp54
 70
     1
102
RTVSPost2010Prop55
280
     0
102
RTVSPost2010PropOp55
 70
     1
102
RTVSPost2010Prop56
140
1.0
102
RTVSPost2010PropOp56
 70
     1
102
RTVSPost2010Prop57
140
1.0
102
RTVSPost2010PropOp57
 70
     1
  0
XRECORD
  5
287
102
{ACAD_REACTORS
330
286
102
}
330
286
100
AcDbXrecord
280
     1
102
RTVSPropertyOp0
 70
     1
102
RTVSPropertyOp1
 70
     1
102
RTVSPropertyOp2
 70
     1
102
RTVSPropertyOp3
 70
     1
102
RTVSPropertyOp4
 70
     1
102
RTVSPropertyOp5
 70
     1
102
RTVSPropertyOp6
 70
     1
102
RTVSPropertyOp7
 70
     1
102
RTVSPropertyOp8
 70
     1
102
RTVSPropertyOp9
 70
     1
102
RTVSPropertyOp10
 70
     1
102
RTVSPropertyOp11
 70
     1
102
RTVSPropertyOp12
 70
     1
102
RTVSPropertyOp13
 70
     1
102
RTVSPropertyOp14
 70
     1
102
RTVSPropertyOp15
 70
     1
102
RTVSPropertyOp16
 70
     1
102
RTVSPropertyOp17
 70
     1
102
RTVSPropertyOp18
 70
     1
102
RTVSPropertyOp19
 70
     1
102
RTVSPropertyOp20
 70
     1
102
RTVSPropertyOp21
 70
     1
102
RTVSPropertyOp22
 70
     1
102
RTVSPropertyOp23
 70
     1
102
RTVSPropertyOp24
 70
     1
102
RTVSPropertyOp25
 70
     1
102
RTVSPropertyOp26
 70
     1
102
RTVSPropertyOp27
 70
     1
102
RTVSPropertyOp28
 70
     1
102
RTVSPropertyOp29
 70
     1
102
RTVSPropertyOp30
 70
     1
102
RTVSPropertyOp31
 70
     1
102
RTVSPropertyOp32
 70
     1
102
RTVSPropertyOp33
 70
     1
102
RTVSPropertyOp34
 70
     1
102
RTVSPropertyOp35
 70
     1
102
RTVSPropertyOp36
 70
     1
102
RTVSPropertyOp37
 70
     1
102
RTVSPropertyOp38
 70
     1
102
RTVSPropertyOp39
 70
     1
102
RTVSPropertyOp40
 70
     1
102
RTVSPropertyOp41
 70
     1
102
RTVSPropertyOp42
 70
     1
102
RTVSPropertyOp43
 70
     1
102
RTVSPropertyOp44
 70
     1
102
RTVSPropertyOp45
 70
     1
102
RTVSPropertyOp46
 70
     1
102
RTVSPropertyOp47
 70
     1
102
RTVSPropertyOp48
 70
     1
102
RTVSPropertyOp49
 70
     1
102
RTVSPropertyOp50
 70
     1
102
RTVSPropertyOp51
 70
     0
102
RTVSPropertyOp52
 70
     0
102
RTVSPropertyOp53
 70
     1
102
RTVSPropertyOp54
 70
     1
102
RTVSPropertyOp55
 70
     1
102
RTVSPropertyOp56
 70
     1
102
RTVSPropertyOp57
 70
     1
102
RTVSPost2010Prop28
280
     0
102
RTVSPost2010PropOp28
 70
     1
102
RTVSPost2010Prop29
280
     1
102
RTVSPost2010PropOp29
 70
     1
102
RTVSPost2010Prop30
280
     1
102
RTVSPost2010PropOp30
 70
     1
102
RTVSPost2010Prop31
280
     0
102
RTVSPost2010PropOp31
 70
     1
102
RTVSPost2010Prop32
280
     0
102
RTVSPost2010PropOp32
 70
     1
102
RTVSPost2010Prop33
280
     0
102
RTVSPost2010PropOp33
 70
     1
102
RTVSPost2010Prop34
280
     0
102
RTVSPost2010PropOp34
 70
     1
102
RTVSPost2010Prop35
280
     0
102
RTVSPost2010PropOp35
 70
     1
102
RTVSPost2010Prop36
280
     0
102
RTVSPost2010PropOp36
 70
     1
102
RTVSPost2010Prop37
 90
       50
102
RTVSPost2010PropOp37
 70
     1
102
RTVSPost2010Prop38
140
0.0
102
RTVSPost2010PropOp38
 70
     1
102
RTVSPost2010Prop39
140
1.0
102
RTVSPost2010PropOp39
 70
     1
102
RTVSPost2010Prop40
 90
        0
102
RTVSPost2010PropOp40
 70
     1
102
RTVSPost2010Prop41ColorIndex
 90
       18
102
RTVSPost2010Prop41ColorRGB
 90
        0
102
RTVSPost2010PropOp41
 70
     1
102
RTVSPost2010Prop42
 90
       50
102
RTVSPost2010PropOp42
 70
     1
102
RTVSPost2010Prop43
 90
        3
102
RTVSPost2010PropOp43
 70
     1
102
RTVSPost2010Prop44ColorIndex
 90
        5
102
RTVSPost2010Prop44ColorRGB
 90
      255
102
RTVSPost2010PropOp44
 70
     1
102
RTVSPost2010Prop45
280
     0
102
RTVSPost2010PropOp45
 70
     1
102
RTVSPost2010Prop46
 90
       50
102
RTVSPost2010PropOp46
 70
     1
102
RTVSPost2010Prop47
 90
       50
102
RTVSPost2010PropOp47
 70
     1
102
RTVSPost2010Prop48
 90
       50
102
RTVSPost2010PropOp48
 70
     1
102
RTVSPost2010Prop49
280
     0
102
RTVSPost2010PropOp49
 70
     1
102
RTVSPost2010Prop50
 90
       50
102
RTVSPost2010PropOp50
 70
     1
102
RTVSPost2010Prop51ColorIndex
 90
      256
102
RTVSPost2010Prop51ColorRGB
 90
-16777216
102
RTVSPost2010PropOp51
 70
     0
102
RTVSPost2010Prop52
140
1.0
102
RTVSPost2010PropOp52
 70
     0
102
RTVSPost2010Prop53
 90
        2
102
RTVSPost2010PropOp53
 70
     1
102
RTVSPost2010Prop54
  1
strokes_ogs.tif
102
RTVSPost2010PropOp54
 70
     1
102
RTVSPost2010Prop55
280
     0
102
RTVSPost2010PropOp55
 70
     1
102
RTVSPost2010Prop56
140
1.0
102
RTVSPost2010PropOp56
 70
     1
102
RTVSPost2010Prop57
140
1.0
102
RTVSPost2010PropOp57
 70
     1
  0
XRECORD
  5
28F
102
{ACAD_REACTORS
330
28E
102
}
330
28E
100
AcDbXrecord
280
     1
102
RTVSPropertyOp0
 70
     1
102
RTVSPropertyOp1
 70
     1
102
RTVSPropertyOp2
 70
     1
102
RTVSPropertyOp3
 70
     1
102
RTVSPropertyOp4
 70
     1
102
RTVSPropertyOp5
 70
     1
102
RTVSPropertyOp6
 70
     1
102
RTVSPropertyOp7
 70
     1
102
RTVSPropertyOp8
 70
     1
102
RTVSPropertyOp9
 70
     1
102
RTVSPropertyOp10
 70
     1
102
RTVSPropertyOp11
 70
     1
102
RTVSPropertyOp12
 70
     1
102
RTVSPropertyOp13
 70
     1
102
RTVSPropertyOp14
 70
     1
102
RTVSPropertyOp15
 70
     1
102
RTVSPropertyOp16
 70
     1
102
RTVSPropertyOp17
 70
     1
102
RTVSPropertyOp18
 70
     1
102
RTVSPropertyOp19
 70
     1
102
RTVSPropertyOp20
 70
     1
102
RTVSPropertyOp21
 70
     1
102
RTVSPropertyOp22
 70
     1
102
RTVSPropertyOp23
 70
     1
102
RTVSPropertyOp24
 70
     1
102
RTVSPropertyOp25
 70
     1
102
RTVSPropertyOp26
 70
     1
102
RTVSPropertyOp27
 70
     1
102
RTVSPropertyOp28
 70
     1
102
RTVSPropertyOp29
 70
     1
102
RTVSPropertyOp30
 70
     1
102
RTVSPropertyOp31
 70
     1
102
RTVSPropertyOp32
 70
     1
102
RTVSPropertyOp33
 70
     1
102
RTVSPropertyOp34
 70
     1
102
RTVSPropertyOp35
 70
     1
102
RTVSPropertyOp36
 70
     1
102
RTVSPropertyOp37
 70
     1
102
RTVSPropertyOp38
 70
     1
102
RTVSPropertyOp39
 70
     1
102
RTVSPropertyOp40
 70
     1
102
RTVSPropertyOp41
 70
     1
102
RTVSPropertyOp42
 70
     1
102
RTVSPropertyOp43
 70
     1
102
RTVSPropertyOp44
 70
     1
102
RTVSPropertyOp45
 70
     1
102
RTVSPropertyOp46
 70
     1
102
RTVSPropertyOp47
 70
     1
102
RTVSPropertyOp48
 70
     1
102
RTVSPropertyOp49
 70
     1
102
RTVSPropertyOp50
 70
     1
102
RTVSPropertyOp51
 70
     0
102
RTVSPropertyOp52
 70
     0
102
RTVSPropertyOp53
 70
     1
102
RTVSPropertyOp54
 70
     1
102
RTVSPropertyOp55
 70
     1
102
RTVSPropertyOp56
 70
     1
102
RTVSPropertyOp57
 70
     1
102
RTVSPost2010Prop28
280
     0
102
RTVSPost2010PropOp28
 70
     1
102
RTVSPost2010Prop29
280
     1
102
RTVSPost2010PropOp29
 70
     1
102
RTVSPost2010Prop30
280
     1
102
RTVSPost2010PropOp30
 70
     1
102
RTVSPost2010Prop31
280
     0
102
RTVSPost2010PropOp31
 70
     1
102
RTVSPost2010Prop32
280
     0
102
RTVSPost2010PropOp32
 70
     1
102
RTVSPost2010Prop33
280
     0
102
RTVSPost2010PropOp33
 70
     1
102
RTVSPost2010Prop34
280
     0
102
RTVSPost2010PropOp34
 70
     1
102
RTVSPost2010Prop35
280
     0
102
RTVSPost2010PropOp35
 70
     1
102
RTVSPost2010Prop36
280
     0
102
RTVSPost2010PropOp36
 70
     1
102
RTVSPost2010Prop37
 90
       50
102
RTVSPost2010PropOp37
 70
     1
102
RTVSPost2010Prop38
140
0.0
102
RTVSPost2010PropOp38
 70
     1
102
RTVSPost2010Prop39
140
1.0
102
RTVSPost2010PropOp39
 70
     1
102
RTVSPost2010Prop40
 90
        0
102
RTVSPost2010PropOp40
 70
     1
102
RTVSPost2010Prop41ColorIndex
 90
       18
102
RTVSPost2010Prop41ColorRGB
 90
        0
102
RTVSPost2010PropOp41
 70
     1
102
RTVSPost2010Prop42
 90
       50
102
RTVSPost2010PropOp42
 70
     1
102
RTVSPost2010Prop43
 90
        3
102
RTVSPost2010PropOp43
 70
     1
102
RTVSPost2010Prop44ColorIndex
 90
        5
102
RTVSPost2010Prop44ColorRGB
 90
      255
102
RTVSPost2010PropOp44
 70
     1
102
RTVSPost2010Prop45
280
     0
102
RTVSPost2010PropOp45
 70
     1
102
RTVSPost2010Prop46
 90
       50
102
RTVSPost2010PropOp46
 70
     1
102
RTVSPost2010Prop47
 90
       50
102
RTVSPost2010PropOp47
 70
     1
102
RTVSPost2010Prop48
 90
       50
102
RTVSPost2010PropOp48
 70
     1
102
RTVSPost2010Prop49
280
     0
102
RTVSPost2010PropOp49
 70
     1
102
RTVSPost2010Prop50
 90
       50
102
RTVSPost2010PropOp50
 70
     1
102
RTVSPost2010Prop51ColorIndex
 90
      256
102
RTVSPost2010Prop51ColorRGB
 90
-16777216
102
RTVSPost2010PropOp51
 70
     0
102
RTVSPost2010Prop52
140
1.0
102
RTVSPost2010PropOp52
 70
     0
102
RTVSPost2010Prop53
 90
        2
102
RTVSPost2010PropOp53
 70
     1
102
RTVSPost2010Prop54
  1
strokes_ogs.tif
102
RTVSPost2010PropOp54
 70
     1
102
RTVSPost2010Prop55
280
     0
102
RTVSPost2010PropOp55
 70
     1
102
RTVSPost2010Prop56
140
1.0
102
RTVSPost2010PropOp56
 70
     1
102
RTVSPost2010Prop57
140
1.0
102
RTVSPost2010PropOp57
 70
     1
  0
XRECORD
  5
283
102
{ACAD_REACTORS
330
282
102
}
330
282
100
AcDbXrecord
280
     1
102
RTVSPropertyOp0
 70
     1
102
RTVSPropertyOp1
 70
     1
102
RTVSPropertyOp2
 70
     1
102
RTVSPropertyOp3
 70
     1
102
RTVSPropertyOp4
 70
     1
102
RTVSPropertyOp5
 70
     1
102
RTVSPropertyOp6
 70
     1
102
RTVSPropertyOp7
 70
     1
102
RTVSPropertyOp8
 70
     1
102
RTVSPropertyOp9
 70
     1
102
RTVSPropertyOp10
 70
     1
102
RTVSPropertyOp11
 70
     1
102
RTVSPropertyOp12
 70
     1
102
RTVSPropertyOp13
 70
     1
102
RTVSPropertyOp14
 70
     1
102
RTVSPropertyOp15
 70
     1
102
RTVSPropertyOp16
 70
     1
102
RTVSPropertyOp17
 70
     1
102
RTVSPropertyOp18
 70
     1
102
RTVSPropertyOp19
 70
     1
102
RTVSPropertyOp20
 70
     1
102
RTVSPropertyOp21
 70
     1
102
RTVSPropertyOp22
 70
     1
102
RTVSPropertyOp23
 70
     1
102
RTVSPropertyOp24
 70
     1
102
RTVSPropertyOp25
 70
     1
102
RTVSPropertyOp26
 70
     1
102
RTVSPropertyOp27
 70
     1
102
RTVSPropertyOp28
 70
     1
102
RTVSPropertyOp29
 70
     1
102
RTVSPropertyOp30
 70
     1
102
RTVSPropertyOp31
 70
     1
102
RTVSPropertyOp32
 70
     1
102
RTVSPropertyOp33
 70
     1
102
RTVSPropertyOp34
 70
     1
102
RTVSPropertyOp35
 70
     1
102
RTVSPropertyOp36
 70
     1
102
RTVSPropertyOp37
 70
     1
102
RTVSPropertyOp38
 70
     1
102
RTVSPropertyOp39
 70
     1
102
RTVSPropertyOp40
 70
     1
102
RTVSPropertyOp41
 70
     1
102
RTVSPropertyOp42
 70
     1
102
RTVSPropertyOp43
 70
     1
102
RTVSPropertyOp44
 70
     1
102
RTVSPropertyOp45
 70
     1
102
RTVSPropertyOp46
 70
     1
102
RTVSPropertyOp47
 70
     1
102
RTVSPropertyOp48
 70
     1
102
RTVSPropertyOp49
 70
     1
102
RTVSPropertyOp50
 70
     1
102
RTVSPropertyOp51
 70
     0
102
RTVSPropertyOp52
 70
     0
102
RTVSPropertyOp53
 70
     1
102
RTVSPropertyOp54
 70
     1
102
RTVSPropertyOp55
 70
     1
102
RTVSPropertyOp56
 70
     1
102
RTVSPropertyOp57
 70
     1
102
RTVSPost2010Prop28
280
     0
102
RTVSPost2010PropOp28
 70
     1
102
RTVSPost2010Prop29
280
     1
102
RTVSPost2010PropOp29
 70
     1
102
RTVSPost2010Prop30
280
     1
102
RTVSPost2010PropOp30
 70
     1
102
RTVSPost2010Prop31
280
     0
102
RTVSPost2010PropOp31
 70
     1
102
RTVSPost2010Prop32
280
     0
102
RTVSPost2010PropOp32
 70
     1
102
RTVSPost2010Prop33
280
     0
102
RTVSPost2010PropOp33
 70
     1
102
RTVSPost2010Prop34
280
     0
102
RTVSPost2010PropOp34
 70
     1
102
RTVSPost2010Prop35
280
     0
102
RTVSPost2010PropOp35
 70
     1
102
RTVSPost2010Prop36
280
     0
102
RTVSPost2010PropOp36
 70
     1
102
RTVSPost2010Prop37
 90
       50
102
RTVSPost2010PropOp37
 70
     1
102
RTVSPost2010Prop38
140
0.0
102
RTVSPost2010PropOp38
 70
     1
102
RTVSPost2010Prop39
140
1.0
102
RTVSPost2010PropOp39
 70
     1
102
RTVSPost2010Prop40
 90
        0
102
RTVSPost2010PropOp40
 70
     1
102
RTVSPost2010Prop41ColorIndex
 90
       18
102
RTVSPost2010Prop41ColorRGB
 90
        0
102
RTVSPost2010PropOp41
 70
     1
102
RTVSPost2010Prop42
 90
       50
102
RTVSPost2010PropOp42
 70
     1
102
RTVSPost2010Prop43
 90
        3
102
RTVSPost2010PropOp43
 70
     1
102
RTVSPost2010Prop44ColorIndex
 90
        5
102
RTVSPost2010Prop44ColorRGB
 90
      255
102
RTVSPost2010PropOp44
 70
     1
102
RTVSPost2010Prop45
280
     0
102
RTVSPost2010PropOp45
 70
     1
102
RTVSPost2010Prop46
 90
       50
102
RTVSPost2010PropOp46
 70
     1
102
RTVSPost2010Prop47
 90
       50
102
RTVSPost2010PropOp47
 70
     1
102
RTVSPost2010Prop48
 90
       50
102
RTVSPost2010PropOp48
 70
     1
102
RTVSPost2010Prop49
280
     0
102
RTVSPost2010PropOp49
 70
     1
102
RTVSPost2010Prop50
 90
       50
102
RTVSPost2010PropOp50
 70
     1
102
RTVSPost2010Prop51ColorIndex
 90
      256
102
RTVSPost2010Prop51ColorRGB
 90
-16777216
102
RTVSPost2010PropOp51
 70
     0
102
RTVSPost2010Prop52
140
1.0
102
RTVSPost2010PropOp52
 70
     0
102
RTVSPost2010Prop53
 90
        2
102
RTVSPost2010PropOp53
 70
     1
102
RTVSPost2010Prop54
  1
strokes_ogs.tif
102
RTVSPost2010PropOp54
 70
     1
102
RTVSPost2010Prop55
280
     0
102
RTVSPost2010PropOp55
 70
     1
102
RTVSPost2010Prop56
140
1.0
102
RTVSPost2010PropOp56
 70
     1
102
RTVSPost2010Prop57
140
1.0
102
RTVSPost2010PropOp57
 70
     1
  0
XRECORD
  5
285
102
{ACAD_REACTORS
330
284
102
}
330
284
100
AcDbXrecord
280
     1
102
RTVSPropertyOp0
 70
     1
102
RTVSPropertyOp1
 70
     1
102
RTVSPropertyOp2
 70
     1
102
RTVSPropertyOp3
 70
     1
102
RTVSPropertyOp4
 70
     1
102
RTVSPropertyOp5
 70
     1
102
RTVSPropertyOp6
 70
     1
102
RTVSPropertyOp7
 70
     1
102
RTVSPropertyOp8
 70
     1
102
RTVSPropertyOp9
 70
     1
102
RTVSPropertyOp10
 70
     1
102
RTVSPropertyOp11
 70
     1
102
RTVSPropertyOp12
 70
     1
102
RTVSPropertyOp13
 70
     1
102
RTVSPropertyOp14
 70
     1
102
RTVSPropertyOp15
 70
     1
102
RTVSPropertyOp16
 70
     1
102
RTVSPropertyOp17
 70
     1
102
RTVSPropertyOp18
 70
     1
102
RTVSPropertyOp19
 70
     1
102
RTVSPropertyOp20
 70
     1
102
RTVSPropertyOp21
 70
     1
102
RTVSPropertyOp22
 70
     1
102
RTVSPropertyOp23
 70
     1
102
RTVSPropertyOp24
 70
     1
102
RTVSPropertyOp25
 70
     1
102
RTVSPropertyOp26
 70
     1
102
RTVSPropertyOp27
 70
     1
102
RTVSPropertyOp28
 70
     1
102
RTVSPropertyOp29
 70
     1
102
RTVSPropertyOp30
 70
     1
102
RTVSPropertyOp31
 70
     1
102
RTVSPropertyOp32
 70
     1
102
RTVSPropertyOp33
 70
     1
102
RTVSPropertyOp34
 70
     1
102
RTVSPropertyOp35
 70
     1
102
RTVSPropertyOp36
 70
     1
102
RTVSPropertyOp37
 70
     1
102
RTVSPropertyOp38
 70
     1
102
RTVSPropertyOp39
 70
     1
102
RTVSPropertyOp40
 70
     1
102
RTVSPropertyOp41
 70
     1
102
RTVSPropertyOp42
 70
     1
102
RTVSPropertyOp43
 70
     1
102
RTVSPropertyOp44
 70
     1
102
RTVSPropertyOp45
 70
     1
102
RTVSPropertyOp46
 70
     1
102
RTVSPropertyOp47
 70
     1
102
RTVSPropertyOp48
 70
     1
102
RTVSPropertyOp49
 70
     1
102
RTVSPropertyOp50
 70
     1
102
RTVSPropertyOp51
 70
     0
102
RTVSPropertyOp52
 70
     0
102
RTVSPropertyOp53
 70
     1
102
RTVSPropertyOp54
 70
     1
102
RTVSPropertyOp55
 70
     1
102
RTVSPropertyOp56
 70
     1
102
RTVSPropertyOp57
 70
     1
102
RTVSPost2010Prop28
280
     0
102
RTVSPost2010PropOp28
 70
     1
102
RTVSPost2010Prop29
280
     1
102
RTVSPost2010PropOp29
 70
     1
102
RTVSPost2010Prop30
280
     1
102
RTVSPost2010PropOp30
 70
     1
102
RTVSPost2010Prop31
280
     0
102
RTVSPost2010PropOp31
 70
     1
102
RTVSPost2010Prop32
280
     0
102
RTVSPost2010PropOp32
 70
     1
102
RTVSPost2010Prop33
280
     0
102
RTVSPost2010PropOp33
 70
     1
102
RTVSPost2010Prop34
280
     0
102
RTVSPost2010PropOp34
 70
     1
102
RTVSPost2010Prop35
280
     0
102
RTVSPost2010PropOp35
 70
     1
102
RTVSPost2010Prop36
280
     0
102
RTVSPost2010PropOp36
 70
     1
102
RTVSPost2010Prop37
 90
       50
102
RTVSPost2010PropOp37
 70
     1
102
RTVSPost2010Prop38
140
0.0
102
RTVSPost2010PropOp38
 70
     1
102
RTVSPost2010Prop39
140
1.0
102
RTVSPost2010PropOp39
 70
     1
102
RTVSPost2010Prop40
 90
        0
102
RTVSPost2010PropOp40
 70
     1
102
RTVSPost2010Prop41ColorIndex
 90
       18
102
RTVSPost2010Prop41ColorRGB
 90
        0
102
RTVSPost2010PropOp41
 70
     1
102
RTVSPost2010Prop42
 90
       50
102
RTVSPost2010PropOp42
 70
     1
102
RTVSPost2010Prop43
 90
        3
102
RTVSPost2010PropOp43
 70
     1
102
RTVSPost2010Prop44ColorIndex
 90
        5
102
RTVSPost2010Prop44ColorRGB
 90
      255
102
RTVSPost2010PropOp44
 70
     1
102
RTVSPost2010Prop45
280
     0
102
RTVSPost2010PropOp45
 70
     1
102
RTVSPost2010Prop46
 90
       50
102
RTVSPost2010PropOp46
 70
     1
102
RTVSPost2010Prop47
 90
       50
102
RTVSPost2010PropOp47
 70
     1
102
RTVSPost2010Prop48
 90
       50
102
RTVSPost2010PropOp48
 70
     1
102
RTVSPost2010Prop49
280
     0
102
RTVSPost2010PropOp49
 70
     1
102
RTVSPost2010Prop50
 90
       50
102
RTVSPost2010PropOp50
 70
     1
102
RTVSPost2010Prop51ColorIndex
 90
      256
102
RTVSPost2010Prop51ColorRGB
 90
-16777216
102
RTVSPost2010PropOp51
 70
     0
102
RTVSPost2010Prop52
140
1.0
102
RTVSPost2010PropOp52
 70
     0
102
RTVSPost2010Prop53
 90
        2
102
RTVSPost2010PropOp53
 70
     1
102
RTVSPost2010Prop54
  1
strokes_ogs.tif
102
RTVSPost2010PropOp54
 70
     1
102
RTVSPost2010Prop55
280
     0
102
RTVSPost2010PropOp55
 70
     1
102
RTVSPost2010Prop56
140
1.0
102
RTVSPost2010PropOp56
 70
     1
102
RTVSPost2010Prop57
140
1.0
102
RTVSPost2010PropOp57
 70
     1
  0
XRECORD
  5
295
102
{ACAD_REACTORS
330
294
102
}
330
294
100
AcDbXrecord
280
     1
102
RTVSPropertyOp0
 70
     0
102
RTVSPropertyOp1
 70
     0
102
RTVSPropertyOp2
 70
     0
102
RTVSPropertyOp3
 70
     0
102
RTVSPropertyOp4
 70
     0
102
RTVSPropertyOp5
 70
     0
102
RTVSPropertyOp6
 70
     0
102
RTVSPropertyOp7
 70
     0
102
RTVSPropertyOp8
 70
     0
102
RTVSPropertyOp9
 70
     0
102
RTVSPropertyOp10
 70
     0
102
RTVSPropertyOp11
 70
     0
102
RTVSPropertyOp12
 70
     0
102
RTVSPropertyOp13
 70
     0
102
RTVSPropertyOp14
 70
     2
102
RTVSPropertyOp15
 70
     0
102
RTVSPropertyOp16
 70
     0
102
RTVSPropertyOp17
 70
     0
102
RTVSPropertyOp18
 70
     0
102
RTVSPropertyOp19
 70
     0
102
RTVSPropertyOp20
 70
     0
102
RTVSPropertyOp21
 70
     0
102
RTVSPropertyOp22
 70
     0
102
RTVSPropertyOp23
 70
     0
102
RTVSPropertyOp24
 70
     0
102
RTVSPropertyOp25
 70
     0
102
RTVSPropertyOp26
 70
     0
102
RTVSPropertyOp27
 70
     0
102
RTVSPropertyOp28
 70
     0
102
RTVSPropertyOp29
 70
     0
102
RTVSPropertyOp30
 70
     0
102
RTVSPropertyOp31
 70
     0
102
RTVSPropertyOp32
 70
     0
102
RTVSPropertyOp33
 70
     0
102
RTVSPropertyOp34
 70
     0
102
RTVSPropertyOp35
 70
     0
102
RTVSPropertyOp36
 70
     0
102
RTVSPropertyOp37
 70
     0
102
RTVSPropertyOp38
 70
     0
102
RTVSPropertyOp39
 70
     0
102
RTVSPropertyOp40
 70
     0
102
RTVSPropertyOp41
 70
     0
102
RTVSPropertyOp42
 70
     0
102
RTVSPropertyOp43
 70
     0
102
RTVSPropertyOp44
 70
     0
102
RTVSPropertyOp45
 70
     0
102
RTVSPropertyOp46
 70
     0
102
RTVSPropertyOp47
 70
     0
102
RTVSPropertyOp48
 70
     0
102
RTVSPropertyOp49
 70
     0
102
RTVSPropertyOp50
 70
     0
102
RTVSPropertyOp51
 70
     0
102
RTVSPropertyOp52
 70
     0
102
RTVSPropertyOp53
 70
     0
102
RTVSPropertyOp54
 70
     0
102
RTVSPropertyOp55
 70
     0
102
RTVSPropertyOp56
 70
     0
102
RTVSPropertyOp57
 70
     0
102
RTVSPost2010Prop28
280
     0
102
RTVSPost2010PropOp28
 70
     0
102
RTVSPost2010Prop29
280
     1
102
RTVSPost2010PropOp29
 70
     0
102
RTVSPost2010Prop30
280
     1
102
RTVSPost2010PropOp30
 70
     0
102
RTVSPost2010Prop31
280
     0
102
RTVSPost2010PropOp31
 70
     0
102
RTVSPost2010Prop32
280
     0
102
RTVSPost2010PropOp32
 70
     0
102
RTVSPost2010Prop33
280
     0
102
RTVSPost2010PropOp33
 70
     0
102
RTVSPost2010Prop34
280
     0
102
RTVSPost2010PropOp34
 70
     0
102
RTVSPost2010Prop35
280
     0
102
RTVSPost2010PropOp35
 70
     0
102
RTVSPost2010Prop36
280
     0
102
RTVSPost2010PropOp36
 70
     0
102
RTVSPost2010Prop37
 90
       50
102
RTVSPost2010PropOp37
 70
     0
102
RTVSPost2010Prop38
140
0.0
102
RTVSPost2010PropOp38
 70
     0
102
RTVSPost2010Prop39
140
1.0
102
RTVSPost2010PropOp39
 70
     0
102
RTVSPost2010Prop40
 90
        0
102
RTVSPost2010PropOp40
 70
     0
102
RTVSPost2010Prop41ColorIndex
 90
       18
102
RTVSPost2010Prop41ColorRGB
 90
        0
102
RTVSPost2010PropOp41
 70
     0
102
RTVSPost2010Prop42
 90
       50
102
RTVSPost2010PropOp42
 70
     0
102
RTVSPost2010Prop43
 90
        3
102
RTVSPost2010PropOp43
 70
     0
102
RTVSPost2010Prop44ColorIndex
 90
        5
102
RTVSPost2010Prop44ColorRGB
 90
      255
102
RTVSPost2010PropOp44
 70
     0
102
RTVSPost2010Prop45
280
     0
102
RTVSPost2010PropOp45
 70
     0
102
RTVSPost2010Prop46
 90
       50
102
RTVSPost2010PropOp46
 70
     0
102
RTVSPost2010Prop47
 90
       50
102
RTVSPost2010PropOp47
 70
     0
102
RTVSPost2010Prop48
 90
       50
102
RTVSPost2010PropOp48
 70
     0
102
RTVSPost2010Prop49
280
     0
102
RTVSPost2010PropOp49
 70
     0
102
RTVSPost2010Prop50
 90
       50
102
RTVSPost2010PropOp50
 70
     0
102
RTVSPost2010Prop51ColorIndex
 90
      256
102
RTVSPost2010Prop51ColorRGB
 90
-16777216
102
RTVSPost2010PropOp51
 70
     0
102
RTVSPost2010Prop52
140
1.0
102
RTVSPost2010PropOp52
 70
     0
102
RTVSPost2010Prop53
 90
        2
102
RTVSPost2010PropOp53
 70
     0
102
RTVSPost2010Prop54
  1
strokes_ogs.tif
102
RTVSPost2010PropOp54
 70
     0
102
RTVSPost2010Prop55
280
     0
102
RTVSPost2010PropOp55
 70
     0
102
RTVSPost2010Prop56
140
1.0
102
RTVSPost2010PropOp56
 70
     0
102
RTVSPost2010Prop57
140
1.0
102
RTVSPost2010PropOp57
 70
     0
  0
XRECORD
  5
28D
102
{ACAD_REACTORS
330
28C
102
}
330
28C
100
AcDbXrecord
280
     1
102
RTVSPropertyOp0
 70
     1
102
RTVSPropertyOp1
 70
     1
102
RTVSPropertyOp2
 70
     1
102
RTVSPropertyOp3
 70
     1
102
RTVSPropertyOp4
 70
     1
102
RTVSPropertyOp5
 70
     1
102
RTVSPropertyOp6
 70
     1
102
RTVSPropertyOp7
 70
     1
102
RTVSPropertyOp8
 70
     1
102
RTVSPropertyOp9
 70
     1
102
RTVSPropertyOp10
 70
     1
102
RTVSPropertyOp11
 70
     1
102
RTVSPropertyOp12
 70
     1
102
RTVSPropertyOp13
 70
     1
102
RTVSPropertyOp14
 70
     1
102
RTVSPropertyOp15
 70
     1
102
RTVSPropertyOp16
 70
     1
102
RTVSPropertyOp17
 70
     1
102
RTVSPropertyOp18
 70
     1
102
RTVSPropertyOp19
 70
     1
102
RTVSPropertyOp20
 70
     1
102
RTVSPropertyOp21
 70
     1
102
RTVSPropertyOp22
 70
     1
102
RTVSPropertyOp23
 70
     1
102
RTVSPropertyOp24
 70
     1
102
RTVSPropertyOp25
 70
     1
102
RTVSPropertyOp26
 70
     1
102
RTVSPropertyOp27
 70
     1
102
RTVSPropertyOp28
 70
     1
102
RTVSPropertyOp29
 70
     1
102
RTVSPropertyOp30
 70
     1
102
RTVSPropertyOp31
 70
     1
102
RTVSPropertyOp32
 70
     1
102
RTVSPropertyOp33
 70
     1
102
RTVSPropertyOp34
 70
     1
102
RTVSPropertyOp35
 70
     1
102
RTVSPropertyOp36
 70
     1
102
RTVSPropertyOp37
 70
     1
102
RTVSPropertyOp38
 70
     1
102
RTVSPropertyOp39
 70
     1
102
RTVSPropertyOp40
 70
     1
102
RTVSPropertyOp41
 70
     1
102
RTVSPropertyOp42
 70
     1
102
RTVSPropertyOp43
 70
     1
102
RTVSPropertyOp44
 70
     1
102
RTVSPropertyOp45
 70
     1
102
RTVSPropertyOp46
 70
     1
102
RTVSPropertyOp47
 70
     1
102
RTVSPropertyOp48
 70
     1
102
RTVSPropertyOp49
 70
     1
102
RTVSPropertyOp50
 70
     1
102
RTVSPropertyOp51
 70
     0
102
RTVSPropertyOp52
 70
     0
102
RTVSPropertyOp53
 70
     1
102
RTVSPropertyOp54
 70
     1
102
RTVSPropertyOp55
 70
     1
102
RTVSPropertyOp56
 70
     1
102
RTVSPropertyOp57
 70
     1
102
RTVSPost2010Prop28
280
     0
102
RTVSPost2010PropOp28
 70
     1
102
RTVSPost2010Prop29
280
     1
102
RTVSPost2010PropOp29
 70
     1
102
RTVSPost2010Prop30
280
     1
102
RTVSPost2010PropOp30
 70
     1
102
RTVSPost2010Prop31
280
     0
102
RTVSPost2010PropOp31
 70
     1
102
RTVSPost2010Prop32
280
     0
102
RTVSPost2010PropOp32
 70
     1
102
RTVSPost2010Prop33
280
     0
102
RTVSPost2010PropOp33
 70
     1
102
RTVSPost2010Prop34
280
     0
102
RTVSPost2010PropOp34
 70
     1
102
RTVSPost2010Prop35
280
     0
102
RTVSPost2010PropOp35
 70
     1
102
RTVSPost2010Prop36
280
     0
102
RTVSPost2010PropOp36
 70
     1
102
RTVSPost2010Prop37
 90
       50
102
RTVSPost2010PropOp37
 70
     1
102
RTVSPost2010Prop38
140
0.0
102
RTVSPost2010PropOp38
 70
     1
102
RTVSPost2010Prop39
140
1.0
102
RTVSPost2010PropOp39
 70
     1
102
RTVSPost2010Prop40
 90
        0
102
RTVSPost2010PropOp40
 70
     1
102
RTVSPost2010Prop41ColorIndex
 90
       18
102
RTVSPost2010Prop41ColorRGB
 90
        0
102
RTVSPost2010PropOp41
 70
     1
102
RTVSPost2010Prop42
 90
       50
102
RTVSPost2010PropOp42
 70
     1
102
RTVSPost2010Prop43
 90
        3
102
RTVSPost2010PropOp43
 70
     1
102
RTVSPost2010Prop44ColorIndex
 90
        5
102
RTVSPost2010Prop44ColorRGB
 90
      255
102
RTVSPost2010PropOp44
 70
     1
102
RTVSPost2010Prop45
280
     0
102
RTVSPost2010PropOp45
 70
     1
102
RTVSPost2010Prop46
 90
       50
102
RTVSPost2010PropOp46
 70
     1
102
RTVSPost2010Prop47
 90
       50
102
RTVSPost2010PropOp47
 70
     1
102
RTVSPost2010Prop48
 90
       50
102
RTVSPost2010PropOp48
 70
     1
102
RTVSPost2010Prop49
280
     0
102
RTVSPost2010PropOp49
 70
     1
102
RTVSPost2010Prop50
 90
       50
102
RTVSPost2010PropOp50
 70
     1
102
RTVSPost2010Prop51ColorIndex
 90
      256
102
RTVSPost2010Prop51ColorRGB
 90
-16777216
102
RTVSPost2010PropOp51
 70
     0
102
RTVSPost2010Prop52
140
1.0
102
RTVSPost2010PropOp52
 70
     0
102
RTVSPost2010Prop53
 90
        2
102
RTVSPost2010PropOp53
 70
     1
102
RTVSPost2010Prop54
  1
strokes_ogs.tif
102
RTVSPost2010PropOp54
 70
     1
102
RTVSPost2010Prop55
280
     0
102
RTVSPost2010PropOp55
 70
     1
102
RTVSPost2010Prop56
140
1.0
102
RTVSPost2010PropOp56
 70
     1
102
RTVSPost2010Prop57
140
1.0
102
RTVSPost2010PropOp57
 70
     1
  0
XRECORD
  5
271
102
{ACAD_REACTORS
330
270
102
}
330
270
100
AcDbXrecord
280
     1
102
RTVSPropertyOp0
 70
     1
102
RTVSPropertyOp1
 70
     1
102
RTVSPropertyOp2
 70
     1
102
RTVSPropertyOp3
 70
     1
102
RTVSPropertyOp4
 70
     1
102
RTVSPropertyOp5
 70
     1
102
RTVSPropertyOp6
 70
     1
102
RTVSPropertyOp7
 70
     1
102
RTVSPropertyOp8
 70
     1
102
RTVSPropertyOp9
 70
     1
102
RTVSPropertyOp10
 70
     1
102
RTVSPropertyOp11
 70
     1
102
RTVSPropertyOp12
 70
     1
102
RTVSPropertyOp13
 70
     1
102
RTVSPropertyOp14
 70
     1
102
RTVSPropertyOp15
 70
     1
102
RTVSPropertyOp16
 70
     1
102
RTVSPropertyOp17
 70
     1
102
RTVSPropertyOp18
 70
     1
102
RTVSPropertyOp19
 70
     1
102
RTVSPropertyOp20
 70
     1
102
RTVSPropertyOp21
 70
     1
102
RTVSPropertyOp22
 70
     1
102
RTVSPropertyOp23
 70
     1
102
RTVSPropertyOp24
 70
     1
102
RTVSPropertyOp25
 70
     1
102
RTVSPropertyOp26
 70
     1
102
RTVSPropertyOp27
 70
     1
102
RTVSPropertyOp28
 70
     1
102
RTVSPropertyOp29
 70
     1
102
RTVSPropertyOp30
 70
     1
102
RTVSPropertyOp31
 70
     1
102
RTVSPropertyOp32
 70
     1
102
RTVSPropertyOp33
 70
     1
102
RTVSPropertyOp34
 70
     1
102
RTVSPropertyOp35
 70
     1
102
RTVSPropertyOp36
 70
     1
102
RTVSPropertyOp37
 70
     1
102
RTVSPropertyOp38
 70
     1
102
RTVSPropertyOp39
 70
     1
102
RTVSPropertyOp40
 70
     1
102
RTVSPropertyOp41
 70
     1
102
RTVSPropertyOp42
 70
     1
102
RTVSPropertyOp43
 70
     1
102
RTVSPropertyOp44
 70
     1
102
RTVSPropertyOp45
 70
     1
102
RTVSPropertyOp46
 70
     1
102
RTVSPropertyOp47
 70
     1
102
RTVSPropertyOp48
 70
     1
102
RTVSPropertyOp49
 70
     1
102
RTVSPropertyOp50
 70
     1
102
RTVSPropertyOp51
 70
     0
102
RTVSPropertyOp52
 70
     0
102
RTVSPropertyOp53
 70
     1
102
RTVSPropertyOp54
 70
     1
102
RTVSPropertyOp55
 70
     1
102
RTVSPropertyOp56
 70
     1
102
RTVSPropertyOp57
 70
     1
102
RTVSPost2010Prop28
280
     0
102
RTVSPost2010PropOp28
 70
     1
102
RTVSPost2010Prop29
280
     1
102
RTVSPost2010PropOp29
 70
     1
102
RTVSPost2010Prop30
280
     1
102
RTVSPost2010PropOp30
 70
     1
102
RTVSPost2010Prop31
280
     0
102
RTVSPost2010PropOp31
 70
     1
102
RTVSPost2010Prop32
280
     0
102
RTVSPost2010PropOp32
 70
     1
102
RTVSPost2010Prop33
280
     0
102
RTVSPost2010PropOp33
 70
     1
102
RTVSPost2010Prop34
280
     0
102
RTVSPost2010PropOp34
 70
     1
102
RTVSPost2010Prop35
280
     0
102
RTVSPost2010PropOp35
 70
     1
102
RTVSPost2010Prop36
280
     0
102
RTVSPost2010PropOp36
 70
     1
102
RTVSPost2010Prop37
 90
       50
102
RTVSPost2010PropOp37
 70
     1
102
RTVSPost2010Prop38
140
0.0
102
RTVSPost2010PropOp38
 70
     1
102
RTVSPost2010Prop39
140
1.0
102
RTVSPost2010PropOp39
 70
     1
102
RTVSPost2010Prop40
 90
        0
102
RTVSPost2010PropOp40
 70
     1
102
RTVSPost2010Prop41ColorIndex
 90
       18
102
RTVSPost2010Prop41ColorRGB
 90
        0
102
RTVSPost2010PropOp41
 70
     1
102
RTVSPost2010Prop42
 90
       50
102
RTVSPost2010PropOp42
 70
     1
102
RTVSPost2010Prop43
 90
        3
102
RTVSPost2010PropOp43
 70
     1
102
RTVSPost2010Prop44ColorIndex
 90
        5
102
RTVSPost2010Prop44ColorRGB
 90
      255
102
RTVSPost2010PropOp44
 70
     1
102
RTVSPost2010Prop45
280
     0
102
RTVSPost2010PropOp45
 70
     1
102
RTVSPost2010Prop46
 90
       50
102
RTVSPost2010PropOp46
 70
     1
102
RTVSPost2010Prop47
 90
       50
102
RTVSPost2010PropOp47
 70
     1
102
RTVSPost2010Prop48
 90
       50
102
RTVSPost2010PropOp48
 70
     1
102
RTVSPost2010Prop49
280
     0
102
RTVSPost2010PropOp49
 70
     1
102
RTVSPost2010Prop50
 90
       50
102
RTVSPost2010PropOp50
 70
     1
102
RTVSPost2010Prop51ColorIndex
 90
      256
102
RTVSPost2010Prop51ColorRGB
 90
-16777216
102
RTVSPost2010PropOp51
 70
     0
102
RTVSPost2010Prop52
140
1.0
102
RTVSPost2010PropOp52
 70
     0
102
RTVSPost2010Prop53
 90
        2
102
RTVSPost2010PropOp53
 70
     1
102
RTVSPost2010Prop54
  1
strokes_ogs.tif
102
RTVSPost2010PropOp54
 70
     1
102
RTVSPost2010Prop55
280
     0
102
RTVSPost2010PropOp55
 70
     1
102
RTVSPost2010Prop56
140
1.0
102
RTVSPost2010PropOp56
 70
     1
102
RTVSPost2010Prop57
140
1.0
102
RTVSPost2010PropOp57
 70
     1
  0
XRECORD
  5
273
102
{ACAD_REACTORS
330
272
102
}
330
272
100
AcDbXrecord
280
     1
102
RTVSPropertyOp0
 70
     1
102
RTVSPropertyOp1
 70
     1
102
RTVSPropertyOp2
 70
     1
102
RTVSPropertyOp3
 70
     1
102
RTVSPropertyOp4
 70
     1
102
RTVSPropertyOp5
 70
     1
102
RTVSPropertyOp6
 70
     1
102
RTVSPropertyOp7
 70
     1
102
RTVSPropertyOp8
 70
     1
102
RTVSPropertyOp9
 70
     1
102
RTVSPropertyOp10
 70
     1
102
RTVSPropertyOp11
 70
     1
102
RTVSPropertyOp12
 70
     1
102
RTVSPropertyOp13
 70
     1
102
RTVSPropertyOp14
 70
     1
102
RTVSPropertyOp15
 70
     1
102
RTVSPropertyOp16
 70
     1
102
RTVSPropertyOp17
 70
     1
102
RTVSPropertyOp18
 70
     1
102
RTVSPropertyOp19
 70
     1
102
RTVSPropertyOp20
 70
     1
102
RTVSPropertyOp21
 70
     1
102
RTVSPropertyOp22
 70
     1
102
RTVSPropertyOp23
 70
     1
102
RTVSPropertyOp24
 70
     1
102
RTVSPropertyOp25
 70
     1
102
RTVSPropertyOp26
 70
     1
102
RTVSPropertyOp27
 70
     1
102
RTVSPropertyOp28
 70
     1
102
RTVSPropertyOp29
 70
     1
102
RTVSPropertyOp30
 70
     1
102
RTVSPropertyOp31
 70
     1
102
RTVSPropertyOp32
 70
     1
102
RTVSPropertyOp33
 70
     1
102
RTVSPropertyOp34
 70
     1
102
RTVSPropertyOp35
 70
     1
102
RTVSPropertyOp36
 70
     1
102
RTVSPropertyOp37
 70
     1
102
RTVSPropertyOp38
 70
     1
102
RTVSPropertyOp39
 70
     1
102
RTVSPropertyOp40
 70
     1
102
RTVSPropertyOp41
 70
     1
102
RTVSPropertyOp42
 70
     1
102
RTVSPropertyOp43
 70
     1
102
RTVSPropertyOp44
 70
     1
102
RTVSPropertyOp45
 70
     1
102
RTVSPropertyOp46
 70
     1
102
RTVSPropertyOp47
 70
     1
102
RTVSPropertyOp48
 70
     1
102
RTVSPropertyOp49
 70
     1
102
RTVSPropertyOp50
 70
     1
102
RTVSPropertyOp51
 70
     0
102
RTVSPropertyOp52
 70
     0
102
RTVSPropertyOp53
 70
     1
102
RTVSPropertyOp54
 70
     1
102
RTVSPropertyOp55
 70
     1
102
RTVSPropertyOp56
 70
     1
102
RTVSPropertyOp57
 70
     1
102
RTVSPost2010Prop28
280
     0
102
RTVSPost2010PropOp28
 70
     1
102
RTVSPost2010Prop29
280
     1
102
RTVSPost2010PropOp29
 70
     1
102
RTVSPost2010Prop30
280
     1
102
RTVSPost2010PropOp30
 70
     1
102
RTVSPost2010Prop31
280
     0
102
RTVSPost2010PropOp31
 70
     1
102
RTVSPost2010Prop32
280
     0
102
RTVSPost2010PropOp32
 70
     1
102
RTVSPost2010Prop33
280
     0
102
RTVSPost2010PropOp33
 70
     1
102
RTVSPost2010Prop34
280
     0
102
RTVSPost2010PropOp34
 70
     1
102
RTVSPost2010Prop35
280
     0
102
RTVSPost2010PropOp35
 70
     1
102
RTVSPost2010Prop36
280
     0
102
RTVSPost2010PropOp36
 70
     1
102
RTVSPost2010Prop37
 90
       50
102
RTVSPost2010PropOp37
 70
     1
102
RTVSPost2010Prop38
140
0.0
102
RTVSPost2010PropOp38
 70
     1
102
RTVSPost2010Prop39
140
1.0
102
RTVSPost2010PropOp39
 70
     1
102
RTVSPost2010Prop40
 90
        0
102
RTVSPost2010PropOp40
 70
     1
102
RTVSPost2010Prop41ColorIndex
 90
       18
102
RTVSPost2010Prop41ColorRGB
 90
        0
102
RTVSPost2010PropOp41
 70
     1
102
RTVSPost2010Prop42
 90
       50
102
RTVSPost2010PropOp42
 70
     1
102
RTVSPost2010Prop43
 90
        3
102
RTVSPost2010PropOp43
 70
     1
102
RTVSPost2010Prop44ColorIndex
 90
        5
102
RTVSPost2010Prop44ColorRGB
 90
      255
102
RTVSPost2010PropOp44
 70
     1
102
RTVSPost2010Prop45
280
     0
102
RTVSPost2010PropOp45
 70
     1
102
RTVSPost2010Prop46
 90
       50
102
RTVSPost2010PropOp46
 70
     1
102
RTVSPost2010Prop47
 90
       50
102
RTVSPost2010PropOp47
 70
     1
102
RTVSPost2010Prop48
 90
       50
102
RTVSPost2010PropOp48
 70
     1
102
RTVSPost2010Prop49
280
     0
102
RTVSPost2010PropOp49
 70
     1
102
RTVSPost2010Prop50
 90
       50
102
RTVSPost2010PropOp50
 70
     1
102
RTVSPost2010Prop51ColorIndex
 90
      256
102
RTVSPost2010Prop51ColorRGB
 90
-16777216
102
RTVSPost2010PropOp51
 70
     0
102
RTVSPost2010Prop52
140
1.0
102
RTVSPost2010PropOp52
 70
     0
102
RTVSPost2010Prop53
 90
        2
102
RTVSPost2010PropOp53
 70
     1
102
RTVSPost2010Prop54
  1
strokes_ogs.tif
102
RTVSPost2010PropOp54
 70
     1
102
RTVSPost2010Prop55
280
     0
102
RTVSPost2010PropOp55
 70
     1
102
RTVSPost2010Prop56
140
1.0
102
RTVSPost2010PropOp56
 70
     1
102
RTVSPost2010Prop57
140
1.0
102
RTVSPost2010PropOp57
 70
     1
  0
XRECORD
  5
275
102
{ACAD_REACTORS
330
274
102
}
330
274
100
AcDbXrecord
280
     1
102
RTVSPropertyOp0
 70
     1
102
RTVSPropertyOp1
 70
     1
102
RTVSPropertyOp2
 70
     1
102
RTVSPropertyOp3
 70
     1
102
RTVSPropertyOp4
 70
     1
102
RTVSPropertyOp5
 70
     1
102
RTVSPropertyOp6
 70
     1
102
RTVSPropertyOp7
 70
     1
102
RTVSPropertyOp8
 70
     1
102
RTVSPropertyOp9
 70
     1
102
RTVSPropertyOp10
 70
     1
102
RTVSPropertyOp11
 70
     1
102
RTVSPropertyOp12
 70
     1
102
RTVSPropertyOp13
 70
     1
102
RTVSPropertyOp14
 70
     1
102
RTVSPropertyOp15
 70
     1
102
RTVSPropertyOp16
 70
     1
102
RTVSPropertyOp17
 70
     1
102
RTVSPropertyOp18
 70
     1
102
RTVSPropertyOp19
 70
     1
102
RTVSPropertyOp20
 70
     1
102
RTVSPropertyOp21
 70
     1
102
RTVSPropertyOp22
 70
     1
102
RTVSPropertyOp23
 70
     1
102
RTVSPropertyOp24
 70
     1
102
RTVSPropertyOp25
 70
     1
102
RTVSPropertyOp26
 70
     1
102
RTVSPropertyOp27
 70
     1
102
RTVSPropertyOp28
 70
     1
102
RTVSPropertyOp29
 70
     1
102
RTVSPropertyOp30
 70
     1
102
RTVSPropertyOp31
 70
     1
102
RTVSPropertyOp32
 70
     1
102
RTVSPropertyOp33
 70
     1
102
RTVSPropertyOp34
 70
     1
102
RTVSPropertyOp35
 70
     1
102
RTVSPropertyOp36
 70
     1
102
RTVSPropertyOp37
 70
     1
102
RTVSPropertyOp38
 70
     1
102
RTVSPropertyOp39
 70
     1
102
RTVSPropertyOp40
 70
     1
102
RTVSPropertyOp41
 70
     1
102
RTVSPropertyOp42
 70
     1
102
RTVSPropertyOp43
 70
     1
102
RTVSPropertyOp44
 70
     1
102
RTVSPropertyOp45
 70
     1
102
RTVSPropertyOp46
 70
     1
102
RTVSPropertyOp47
 70
     1
102
RTVSPropertyOp48
 70
     1
102
RTVSPropertyOp49
 70
     1
102
RTVSPropertyOp50
 70
     1
102
RTVSPropertyOp51
 70
     0
102
RTVSPropertyOp52
 70
     0
102
RTVSPropertyOp53
 70
     1
102
RTVSPropertyOp54
 70
     1
102
RTVSPropertyOp55
 70
     1
102
RTVSPropertyOp56
 70
     1
102
RTVSPropertyOp57
 70
     1
102
RTVSPost2010Prop28
280
     0
102
RTVSPost2010PropOp28
 70
     1
102
RTVSPost2010Prop29
280
     1
102
RTVSPost2010PropOp29
 70
     1
102
RTVSPost2010Prop30
280
     1
102
RTVSPost2010PropOp30
 70
     1
102
RTVSPost2010Prop31
280
     0
102
RTVSPost2010PropOp31
 70
     1
102
RTVSPost2010Prop32
280
     0
102
RTVSPost2010PropOp32
 70
     1
102
RTVSPost2010Prop33
280
     0
102
RTVSPost2010PropOp33
 70
     1
102
RTVSPost2010Prop34
280
     0
102
RTVSPost2010PropOp34
 70
     1
102
RTVSPost2010Prop35
280
     0
102
RTVSPost2010PropOp35
 70
     1
102
RTVSPost2010Prop36
280
     0
102
RTVSPost2010PropOp36
 70
     1
102
RTVSPost2010Prop37
 90
       50
102
RTVSPost2010PropOp37
 70
     1
102
RTVSPost2010Prop38
140
0.0
102
RTVSPost2010PropOp38
 70
     1
102
RTVSPost2010Prop39
140
1.0
102
RTVSPost2010PropOp39
 70
     1
102
RTVSPost2010Prop40
 90
        0
102
RTVSPost2010PropOp40
 70
     1
102
RTVSPost2010Prop41ColorIndex
 90
       18
102
RTVSPost2010Prop41ColorRGB
 90
        0
102
RTVSPost2010PropOp41
 70
     1
102
RTVSPost2010Prop42
 90
       50
102
RTVSPost2010PropOp42
 70
     1
102
RTVSPost2010Prop43
 90
        3
102
RTVSPost2010PropOp43
 70
     1
102
RTVSPost2010Prop44ColorIndex
 90
        5
102
RTVSPost2010Prop44ColorRGB
 90
      255
102
RTVSPost2010PropOp44
 70
     1
102
RTVSPost2010Prop45
280
     0
102
RTVSPost2010PropOp45
 70
     1
102
RTVSPost2010Prop46
 90
       50
102
RTVSPost2010PropOp46
 70
     1
102
RTVSPost2010Prop47
 90
       50
102
RTVSPost2010PropOp47
 70
     1
102
RTVSPost2010Prop48
 90
       50
102
RTVSPost2010PropOp48
 70
     1
102
RTVSPost2010Prop49
280
     0
102
RTVSPost2010PropOp49
 70
     1
102
RTVSPost2010Prop50
 90
       50
102
RTVSPost2010PropOp50
 70
     1
102
RTVSPost2010Prop51ColorIndex
 90
      256
102
RTVSPost2010Prop51ColorRGB
 90
-16777216
102
RTVSPost2010PropOp51
 70
     0
102
RTVSPost2010Prop52
140
1.0
102
RTVSPost2010PropOp52
 70
     0
102
RTVSPost2010Prop53
 90
        2
102
RTVSPost2010PropOp53
 70
     1
102
RTVSPost2010Prop54
  1
strokes_ogs.tif
102
RTVSPost2010PropOp54
 70
     1
102
RTVSPost2010Prop55
280
     0
102
RTVSPost2010PropOp55
 70
     1
102
RTVSPost2010Prop56
140
1.0
102
RTVSPost2010PropOp56
 70
     1
102
RTVSPost2010Prop57
140
1.0
102
RTVSPost2010PropOp57
 70
     1
  0
XRECORD
  5
277
102
{ACAD_REACTORS
330
276
102
}
330
276
100
AcDbXrecord
280
     1
102
RTVSPropertyOp0
 70
     1
102
RTVSPropertyOp1
 70
     1
102
RTVSPropertyOp2
 70
     1
102
RTVSPropertyOp3
 70
     1
102
RTVSPropertyOp4
 70
     1
102
RTVSPropertyOp5
 70
     1
102
RTVSPropertyOp6
 70
     1
102
RTVSPropertyOp7
 70
     1
102
RTVSPropertyOp8
 70
     1
102
RTVSPropertyOp9
 70
     1
102
RTVSPropertyOp10
 70
     1
102
RTVSPropertyOp11
 70
     1
102
RTVSPropertyOp12
 70
     1
102
RTVSPropertyOp13
 70
     1
102
RTVSPropertyOp14
 70
     1
102
RTVSPropertyOp15
 70
     1
102
RTVSPropertyOp16
 70
     1
102
RTVSPropertyOp17
 70
     1
102
RTVSPropertyOp18
 70
     1
102
RTVSPropertyOp19
 70
     1
102
RTVSPropertyOp20
 70
     1
102
RTVSPropertyOp21
 70
     1
102
RTVSPropertyOp22
 70
     1
102
RTVSPropertyOp23
 70
     1
102
RTVSPropertyOp24
 70
     1
102
RTVSPropertyOp25
 70
     1
102
RTVSPropertyOp26
 70
     1
102
RTVSPropertyOp27
 70
     1
102
RTVSPropertyOp28
 70
     1
102
RTVSPropertyOp29
 70
     1
102
RTVSPropertyOp30
 70
     1
102
RTVSPropertyOp31
 70
     1
102
RTVSPropertyOp32
 70
     1
102
RTVSPropertyOp33
 70
     1
102
RTVSPropertyOp34
 70
     1
102
RTVSPropertyOp35
 70
     1
102
RTVSPropertyOp36
 70
     1
102
RTVSPropertyOp37
 70
     1
102
RTVSPropertyOp38
 70
     1
102
RTVSPropertyOp39
 70
     1
102
RTVSPropertyOp40
 70
     1
102
RTVSPropertyOp41
 70
     1
102
RTVSPropertyOp42
 70
     1
102
RTVSPropertyOp43
 70
     1
102
RTVSPropertyOp44
 70
     1
102
RTVSPropertyOp45
 70
     1
102
RTVSPropertyOp46
 70
     1
102
RTVSPropertyOp47
 70
     1
102
RTVSPropertyOp48
 70
     1
102
RTVSPropertyOp49
 70
     1
102
RTVSPropertyOp50
 70
     1
102
RTVSPropertyOp51
 70
     0
102
RTVSPropertyOp52
 70
     0
102
RTVSPropertyOp53
 70
     1
102
RTVSPropertyOp54
 70
     1
102
RTVSPropertyOp55
 70
     1
102
RTVSPropertyOp56
 70
     1
102
RTVSPropertyOp57
 70
     1
102
RTVSPost2010Prop28
280
     0
102
RTVSPost2010PropOp28
 70
     1
102
RTVSPost2010Prop29
280
     1
102
RTVSPost2010PropOp29
 70
     1
102
RTVSPost2010Prop30
280
     1
102
RTVSPost2010PropOp30
 70
     1
102
RTVSPost2010Prop31
280
     0
102
RTVSPost2010PropOp31
 70
     1
102
RTVSPost2010Prop32
280
     0
102
RTVSPost2010PropOp32
 70
     1
102
RTVSPost2010Prop33
280
     0
102
RTVSPost2010PropOp33
 70
     1
102
RTVSPost2010Prop34
280
     0
102
RTVSPost2010PropOp34
 70
     1
102
RTVSPost2010Prop35
280
     0
102
RTVSPost2010PropOp35
 70
     1
102
RTVSPost2010Prop36
280
     0
102
RTVSPost2010PropOp36
 70
     1
102
RTVSPost2010Prop37
 90
       50
102
RTVSPost2010PropOp37
 70
     1
102
RTVSPost2010Prop38
140
0.0
102
RTVSPost2010PropOp38
 70
     1
102
RTVSPost2010Prop39
140
1.0
102
RTVSPost2010PropOp39
 70
     1
102
RTVSPost2010Prop40
 90
        0
102
RTVSPost2010PropOp40
 70
     1
102
RTVSPost2010Prop41ColorIndex
 90
       18
102
RTVSPost2010Prop41ColorRGB
 90
        0
102
RTVSPost2010PropOp41
 70
     1
102
RTVSPost2010Prop42
 90
       50
102
RTVSPost2010PropOp42
 70
     1
102
RTVSPost2010Prop43
 90
        3
102
RTVSPost2010PropOp43
 70
     1
102
RTVSPost2010Prop44ColorIndex
 90
        5
102
RTVSPost2010Prop44ColorRGB
 90
      255
102
RTVSPost2010PropOp44
 70
     1
102
RTVSPost2010Prop45
280
     0
102
RTVSPost2010PropOp45
 70
     1
102
RTVSPost2010Prop46
 90
       50
102
RTVSPost2010PropOp46
 70
     1
102
RTVSPost2010Prop47
 90
       50
102
RTVSPost2010PropOp47
 70
     1
102
RTVSPost2010Prop48
 90
       50
102
RTVSPost2010PropOp48
 70
     1
102
RTVSPost2010Prop49
280
     0
102
RTVSPost2010PropOp49
 70
     1
102
RTVSPost2010Prop50
 90
       50
102
RTVSPost2010PropOp50
 70
     1
102
RTVSPost2010Prop51ColorIndex
 90
      256
102
RTVSPost2010Prop51ColorRGB
 90
-16777216
102
RTVSPost2010PropOp51
 70
     0
102
RTVSPost2010Prop52
140
1.0
102
RTVSPost2010PropOp52
 70
     0
102
RTVSPost2010Prop53
 90
        2
102
RTVSPost2010PropOp53
 70
     1
102
RTVSPost2010Prop54
  1
strokes_ogs.tif
102
RTVSPost2010PropOp54
 70
     1
102
RTVSPost2010Prop55
280
     0
102
RTVSPost2010PropOp55
 70
     1
102
RTVSPost2010Prop56
140
1.0
102
RTVSPost2010PropOp56
 70
     1
102
RTVSPost2010Prop57
140
1.0
102
RTVSPost2010PropOp57
 70
     1
  0
XRECORD
  5
27D
102
{ACAD_REACTORS
330
27C
102
}
330
27C
100
AcDbXrecord
280
     1
102
RTVSPropertyOp0
 70
     1
102
RTVSPropertyOp1
 70
     1
102
RTVSPropertyOp2
 70
     1
102
RTVSPropertyOp3
 70
     1
102
RTVSPropertyOp4
 70
     1
102
RTVSPropertyOp5
 70
     1
102
RTVSPropertyOp6
 70
     1
102
RTVSPropertyOp7
 70
     1
102
RTVSPropertyOp8
 70
     1
102
RTVSPropertyOp9
 70
     1
102
RTVSPropertyOp10
 70
     1
102
RTVSPropertyOp11
 70
     1
102
RTVSPropertyOp12
 70
     1
102
RTVSPropertyOp13
 70
     1
102
RTVSPropertyOp14
 70
     1
102
RTVSPropertyOp15
 70
     1
102
RTVSPropertyOp16
 70
     1
102
RTVSPropertyOp17
 70
     1
102
RTVSPropertyOp18
 70
     1
102
RTVSPropertyOp19
 70
     1
102
RTVSPropertyOp20
 70
     1
102
RTVSPropertyOp21
 70
     1
102
RTVSPropertyOp22
 70
     1
102
RTVSPropertyOp23
 70
     1
102
RTVSPropertyOp24
 70
     1
102
RTVSPropertyOp25
 70
     1
102
RTVSPropertyOp26
 70
     1
102
RTVSPropertyOp27
 70
     1
102
RTVSPropertyOp28
 70
     1
102
RTVSPropertyOp29
 70
     1
102
RTVSPropertyOp30
 70
     1
102
RTVSPropertyOp31
 70
     1
102
RTVSPropertyOp32
 70
     1
102
RTVSPropertyOp33
 70
     1
102
RTVSPropertyOp34
 70
     1
102
RTVSPropertyOp35
 70
     1
102
RTVSPropertyOp36
 70
     1
102
RTVSPropertyOp37
 70
     1
102
RTVSPropertyOp38
 70
     1
102
RTVSPropertyOp39
 70
     1
102
RTVSPropertyOp40
 70
     1
102
RTVSPropertyOp41
 70
     1
102
RTVSPropertyOp42
 70
     1
102
RTVSPropertyOp43
 70
     1
102
RTVSPropertyOp44
 70
     1
102
RTVSPropertyOp45
 70
     1
102
RTVSPropertyOp46
 70
     1
102
RTVSPropertyOp47
 70
     1
102
RTVSPropertyOp48
 70
     1
102
RTVSPropertyOp49
 70
     1
102
RTVSPropertyOp50
 70
     1
102
RTVSPropertyOp51
 70
     0
102
RTVSPropertyOp52
 70
     0
102
RTVSPropertyOp53
 70
     1
102
RTVSPropertyOp54
 70
     1
102
RTVSPropertyOp55
 70
     1
102
RTVSPropertyOp56
 70
     1
102
RTVSPropertyOp57
 70
     1
102
RTVSPost2010Prop28
280
     0
102
RTVSPost2010PropOp28
 70
     1
102
RTVSPost2010Prop29
280
     1
102
RTVSPost2010PropOp29
 70
     1
102
RTVSPost2010Prop30
280
     1
102
RTVSPost2010PropOp30
 70
     1
102
RTVSPost2010Prop31
280
     0
102
RTVSPost2010PropOp31
 70
     1
102
RTVSPost2010Prop32
280
     0
102
RTVSPost2010PropOp32
 70
     1
102
RTVSPost2010Prop33
280
     0
102
RTVSPost2010PropOp33
 70
     1
102
RTVSPost2010Prop34
280
     0
102
RTVSPost2010PropOp34
 70
     1
102
RTVSPost2010Prop35
280
     0
102
RTVSPost2010PropOp35
 70
     1
102
RTVSPost2010Prop36
280
     0
102
RTVSPost2010PropOp36
 70
     1
102
RTVSPost2010Prop37
 90
       50
102
RTVSPost2010PropOp37
 70
     1
102
RTVSPost2010Prop38
140
0.0
102
RTVSPost2010PropOp38
 70
     1
102
RTVSPost2010Prop39
140
1.0
102
RTVSPost2010PropOp39
 70
     1
102
RTVSPost2010Prop40
 90
        0
102
RTVSPost2010PropOp40
 70
     1
102
RTVSPost2010Prop41ColorIndex
 90
       18
102
RTVSPost2010Prop41ColorRGB
 90
        0
102
RTVSPost2010PropOp41
 70
     1
102
RTVSPost2010Prop42
 90
       50
102
RTVSPost2010PropOp42
 70
     1
102
RTVSPost2010Prop43
 90
        3
102
RTVSPost2010PropOp43
 70
     1
102
RTVSPost2010Prop44ColorIndex
 90
        5
102
RTVSPost2010Prop44ColorRGB
 90
      255
102
RTVSPost2010PropOp44
 70
     1
102
RTVSPost2010Prop45
280
     0
102
RTVSPost2010PropOp45
 70
     1
102
RTVSPost2010Prop46
 90
       50
102
RTVSPost2010PropOp46
 70
     1
102
RTVSPost2010Prop47
 90
       50
102
RTVSPost2010PropOp47
 70
     1
102
RTVSPost2010Prop48
 90
       50
102
RTVSPost2010PropOp48
 70
     1
102
RTVSPost2010Prop49
280
     0
102
RTVSPost2010PropOp49
 70
     1
102
RTVSPost2010Prop50
 90
       50
102
RTVSPost2010PropOp50
 70
     1
102
RTVSPost2010Prop51ColorIndex
 90
      256
102
RTVSPost2010Prop51ColorRGB
 90
-16777216
102
RTVSPost2010PropOp51
 70
     0
102
RTVSPost2010Prop52
140
1.0
102
RTVSPost2010PropOp52
 70
     0
102
RTVSPost2010Prop53
 90
        2
102
RTVSPost2010PropOp53
 70
     1
102
RTVSPost2010Prop54
  1
strokes_ogs.tif
102
RTVSPost2010PropOp54
 70
     1
102
RTVSPost2010Prop55
280
     0
102
RTVSPost2010PropOp55
 70
     1
102
RTVSPost2010Prop56
140
1.0
102
RTVSPost2010PropOp56
 70
     1
102
RTVSPost2010Prop57
140
1.0
102
RTVSPost2010PropOp57
 70
     1
  0
XRECORD
  5
291
102
{ACAD_REACTORS
330
290
102
}
330
290
100
AcDbXrecord
280
     1
102
RTVSPropertyOp0
 70
     0
102
RTVSPropertyOp1
 70
     0
102
RTVSPropertyOp2
 70
     0
102
RTVSPropertyOp3
 70
     0
102
RTVSPropertyOp4
 70
     0
102
RTVSPropertyOp5
 70
     0
102
RTVSPropertyOp6
 70
     0
102
RTVSPropertyOp7
 70
     0
102
RTVSPropertyOp8
 70
     0
102
RTVSPropertyOp9
 70
     0
102
RTVSPropertyOp10
 70
     0
102
RTVSPropertyOp11
 70
     0
102
RTVSPropertyOp12
 70
     0
102
RTVSPropertyOp13
 70
     0
102
RTVSPropertyOp14
 70
     2
102
RTVSPropertyOp15
 70
     0
102
RTVSPropertyOp16
 70
     0
102
RTVSPropertyOp17
 70
     0
102
RTVSPropertyOp18
 70
     0
102
RTVSPropertyOp19
 70
     0
102
RTVSPropertyOp20
 70
     0
102
RTVSPropertyOp21
 70
     0
102
RTVSPropertyOp22
 70
     0
102
RTVSPropertyOp23
 70
     0
102
RTVSPropertyOp24
 70
     0
102
RTVSPropertyOp25
 70
     0
102
RTVSPropertyOp26
 70
     0
102
RTVSPropertyOp27
 70
     0
102
RTVSPropertyOp28
 70
     0
102
RTVSPropertyOp29
 70
     0
102
RTVSPropertyOp30
 70
     0
102
RTVSPropertyOp31
 70
     0
102
RTVSPropertyOp32
 70
     0
102
RTVSPropertyOp33
 70
     0
102
RTVSPropertyOp34
 70
     0
102
RTVSPropertyOp35
 70
     0
102
RTVSPropertyOp36
 70
     0
102
RTVSPropertyOp37
 70
     0
102
RTVSPropertyOp38
 70
     0
102
RTVSPropertyOp39
 70
     0
102
RTVSPropertyOp40
 70
     0
102
RTVSPropertyOp41
 70
     0
102
RTVSPropertyOp42
 70
     0
102
RTVSPropertyOp43
 70
     0
102
RTVSPropertyOp44
 70
     0
102
RTVSPropertyOp45
 70
     0
102
RTVSPropertyOp46
 70
     0
102
RTVSPropertyOp47
 70
     0
102
RTVSPropertyOp48
 70
     0
102
RTVSPropertyOp49
 70
     0
102
RTVSPropertyOp50
 70
     0
102
RTVSPropertyOp51
 70
     0
102
RTVSPropertyOp52
 70
     0
102
RTVSPropertyOp53
 70
     0
102
RTVSPropertyOp54
 70
     0
102
RTVSPropertyOp55
 70
     0
102
RTVSPropertyOp56
 70
     0
102
RTVSPropertyOp57
 70
     0
102
RTVSPost2010Prop28
280
     0
102
RTVSPost2010PropOp28
 70
     0
102
RTVSPost2010Prop29
280
     1
102
RTVSPost2010PropOp29
 70
     0
102
RTVSPost2010Prop30
280
     1
102
RTVSPost2010PropOp30
 70
     0
102
RTVSPost2010Prop31
280
     0
102
RTVSPost2010PropOp31
 70
     0
102
RTVSPost2010Prop32
280
     0
102
RTVSPost2010PropOp32
 70
     0
102
RTVSPost2010Prop33
280
     0
102
RTVSPost2010PropOp33
 70
     0
102
RTVSPost2010Prop34
280
     0
102
RTVSPost2010PropOp34
 70
     0
102
RTVSPost2010Prop35
280
     0
102
RTVSPost2010PropOp35
 70
     0
102
RTVSPost2010Prop36
280
     0
102
RTVSPost2010PropOp36
 70
     0
102
RTVSPost2010Prop37
 90
       50
102
RTVSPost2010PropOp37
 70
     0
102
RTVSPost2010Prop38
140
0.0
102
RTVSPost2010PropOp38
 70
     0
102
RTVSPost2010Prop39
140
1.0
102
RTVSPost2010PropOp39
 70
     0
102
RTVSPost2010Prop40
 90
        0
102
RTVSPost2010PropOp40
 70
     0
102
RTVSPost2010Prop41ColorIndex
 90
       18
102
RTVSPost2010Prop41ColorRGB
 90
        0
102
RTVSPost2010PropOp41
 70
     0
102
RTVSPost2010Prop42
 90
       50
102
RTVSPost2010PropOp42
 70
     0
102
RTVSPost2010Prop43
 90
        3
102
RTVSPost2010PropOp43
 70
     0
102
RTVSPost2010Prop44ColorIndex
 90
        5
102
RTVSPost2010Prop44ColorRGB
 90
      255
102
RTVSPost2010PropOp44
 70
     0
102
RTVSPost2010Prop45
280
     0
102
RTVSPost2010PropOp45
 70
     0
102
RTVSPost2010Prop46
 90
       50
102
RTVSPost2010PropOp46
 70
     0
102
RTVSPost2010Prop47
 90
       50
102
RTVSPost2010PropOp47
 70
     0
102
RTVSPost2010Prop48
 90
       50
102
RTVSPost2010PropOp48
 70
     0
102
RTVSPost2010Prop49
280
     0
102
RTVSPost2010PropOp49
 70
     0
102
RTVSPost2010Prop50
 90
       50
102
RTVSPost2010PropOp50
 70
     0
102
RTVSPost2010Prop51ColorIndex
 90
      256
102
RTVSPost2010Prop51ColorRGB
 90
-16777216
102
RTVSPost2010PropOp51
 70
     0
102
RTVSPost2010Prop52
140
1.0
102
RTVSPost2010PropOp52
 70
     0
102
RTVSPost2010Prop53
 90
        2
102
RTVSPost2010PropOp53
 70
     0
102
RTVSPost2010Prop54
  1
strokes_ogs.tif
102
RTVSPost2010PropOp54
 70
     0
102
RTVSPost2010Prop55
280
     0
102
RTVSPost2010PropOp55
 70
     0
102
RTVSPost2010Prop56
140
1.0
102
RTVSPost2010PropOp56
 70
     0
102
RTVSPost2010Prop57
140
1.0
102
RTVSPost2010PropOp57
 70
     0
  0
XRECORD
  5
28B
102
{ACAD_REACTORS
330
28A
102
}
330
28A
100
AcDbXrecord
280
     1
102
RTVSPropertyOp0
 70
     1
102
RTVSPropertyOp1
 70
     1
102
RTVSPropertyOp2
 70
     1
102
RTVSPropertyOp3
 70
     1
102
RTVSPropertyOp4
 70
     1
102
RTVSPropertyOp5
 70
     1
102
RTVSPropertyOp6
 70
     1
102
RTVSPropertyOp7
 70
     1
102
RTVSPropertyOp8
 70
     1
102
RTVSPropertyOp9
 70
     1
102
RTVSPropertyOp10
 70
     1
102
RTVSPropertyOp11
 70
     1
102
RTVSPropertyOp12
 70
     1
102
RTVSPropertyOp13
 70
     1
102
RTVSPropertyOp14
 70
     1
102
RTVSPropertyOp15
 70
     1
102
RTVSPropertyOp16
 70
     1
102
RTVSPropertyOp17
 70
     1
102
RTVSPropertyOp18
 70
     1
102
RTVSPropertyOp19
 70
     1
102
RTVSPropertyOp20
 70
     1
102
RTVSPropertyOp21
 70
     1
102
RTVSPropertyOp22
 70
     1
102
RTVSPropertyOp23
 70
     1
102
RTVSPropertyOp24
 70
     1
102
RTVSPropertyOp25
 70
     1
102
RTVSPropertyOp26
 70
     1
102
RTVSPropertyOp27
 70
     1
102
RTVSPropertyOp28
 70
     1
102
RTVSPropertyOp29
 70
     1
102
RTVSPropertyOp30
 70
     1
102
RTVSPropertyOp31
 70
     1
102
RTVSPropertyOp32
 70
     1
102
RTVSPropertyOp33
 70
     1
102
RTVSPropertyOp34
 70
     1
102
RTVSPropertyOp35
 70
     1
102
RTVSPropertyOp36
 70
     1
102
RTVSPropertyOp37
 70
     1
102
RTVSPropertyOp38
 70
     1
102
RTVSPropertyOp39
 70
     1
102
RTVSPropertyOp40
 70
     1
102
RTVSPropertyOp41
 70
     1
102
RTVSPropertyOp42
 70
     1
102
RTVSPropertyOp43
 70
     1
102
RTVSPropertyOp44
 70
     1
102
RTVSPropertyOp45
 70
     1
102
RTVSPropertyOp46
 70
     1
102
RTVSPropertyOp47
 70
     1
102
RTVSPropertyOp48
 70
     1
102
RTVSPropertyOp49
 70
     1
102
RTVSPropertyOp50
 70
     1
102
RTVSPropertyOp51
 70
     0
102
RTVSPropertyOp52
 70
     0
102
RTVSPropertyOp53
 70
     1
102
RTVSPropertyOp54
 70
     1
102
RTVSPropertyOp55
 70
     1
102
RTVSPropertyOp56
 70
     1
102
RTVSPropertyOp57
 70
     1
102
RTVSPost2010Prop28
280
     0
102
RTVSPost2010PropOp28
 70
     1
102
RTVSPost2010Prop29
280
     1
102
RTVSPost2010PropOp29
 70
     1
102
RTVSPost2010Prop30
280
     1
102
RTVSPost2010PropOp30
 70
     1
102
RTVSPost2010Prop31
280
     0
102
RTVSPost2010PropOp31
 70
     1
102
RTVSPost2010Prop32
280
     0
102
RTVSPost2010PropOp32
 70
     1
102
RTVSPost2010Prop33
280
     0
102
RTVSPost2010PropOp33
 70
     1
102
RTVSPost2010Prop34
280
     0
102
RTVSPost2010PropOp34
 70
     1
102
RTVSPost2010Prop35
280
     0
102
RTVSPost2010PropOp35
 70
     1
102
RTVSPost2010Prop36
280
     0
102
RTVSPost2010PropOp36
 70
     1
102
RTVSPost2010Prop37
 90
       50
102
RTVSPost2010PropOp37
 70
     1
102
RTVSPost2010Prop38
140
0.0
102
RTVSPost2010PropOp38
 70
     1
102
RTVSPost2010Prop39
140
1.0
102
RTVSPost2010PropOp39
 70
     1
102
RTVSPost2010Prop40
 90
        0
102
RTVSPost2010PropOp40
 70
     1
102
RTVSPost2010Prop41ColorIndex
 90
       18
102
RTVSPost2010Prop41ColorRGB
 90
        0
102
RTVSPost2010PropOp41
 70
     1
102
RTVSPost2010Prop42
 90
       50
102
RTVSPost2010PropOp42
 70
     1
102
RTVSPost2010Prop43
 90
        3
102
RTVSPost2010PropOp43
 70
     1
102
RTVSPost2010Prop44ColorIndex
 90
        5
102
RTVSPost2010Prop44ColorRGB
 90
      255
102
RTVSPost2010PropOp44
 70
     1
102
RTVSPost2010Prop45
280
     0
102
RTVSPost2010PropOp45
 70
     1
102
RTVSPost2010Prop46
 90
       50
102
RTVSPost2010PropOp46
 70
     1
102
RTVSPost2010Prop47
 90
       50
102
RTVSPost2010PropOp47
 70
     1
102
RTVSPost2010Prop48
 90
       50
102
RTVSPost2010PropOp48
 70
     1
102
RTVSPost2010Prop49
280
     0
102
RTVSPost2010PropOp49
 70
     1
102
RTVSPost2010Prop50
 90
       50
102
RTVSPost2010PropOp50
 70
     1
102
RTVSPost2010Prop51ColorIndex
 90
      256
102
RTVSPost2010Prop51ColorRGB
 90
-16777216
102
RTVSPost2010PropOp51
 70
     0
102
RTVSPost2010Prop52
140
1.0
102
RTVSPost2010PropOp52
 70
     0
102
RTVSPost2010Prop53
 90
        2
102
RTVSPost2010PropOp53
 70
     1
102
RTVSPost2010Prop54
  1
strokes_ogs.tif
102
RTVSPost2010PropOp54
 70
     1
102
RTVSPost2010Prop55
280
     0
102
RTVSPost2010PropOp55
 70
     1
102
RTVSPost2010Prop56
140
1.0
102
RTVSPost2010PropOp56
 70
     1
102
RTVSPost2010Prop57
140
1.0
102
RTVSPost2010PropOp57
 70
     1
  0
XRECORD
  5
293
102
{ACAD_REACTORS
330
292
102
}
330
292
100
AcDbXrecord
280
     1
102
RTVSPropertyOp0
 70
     0
102
RTVSPropertyOp1
 70
     0
102
RTVSPropertyOp2
 70
     0
102
RTVSPropertyOp3
 70
     0
102
RTVSPropertyOp4
 70
     0
102
RTVSPropertyOp5
 70
     0
102
RTVSPropertyOp6
 70
     0
102
RTVSPropertyOp7
 70
     0
102
RTVSPropertyOp8
 70
     0
102
RTVSPropertyOp9
 70
     0
102
RTVSPropertyOp10
 70
     0
102
RTVSPropertyOp11
 70
     0
102
RTVSPropertyOp12
 70
     0
102
RTVSPropertyOp13
 70
     0
102
RTVSPropertyOp14
 70
     2
102
RTVSPropertyOp15
 70
     0
102
RTVSPropertyOp16
 70
     0
102
RTVSPropertyOp17
 70
     0
102
RTVSPropertyOp18
 70
     0
102
RTVSPropertyOp19
 70
     0
102
RTVSPropertyOp20
 70
     0
102
RTVSPropertyOp21
 70
     0
102
RTVSPropertyOp22
 70
     0
102
RTVSPropertyOp23
 70
     0
102
RTVSPropertyOp24
 70
     0
102
RTVSPropertyOp25
 70
     0
102
RTVSPropertyOp26
 70
     0
102
RTVSPropertyOp27
 70
     0
102
RTVSPropertyOp28
 70
     0
102
RTVSPropertyOp29
 70
     0
102
RTVSPropertyOp30
 70
     0
102
RTVSPropertyOp31
 70
     0
102
RTVSPropertyOp32
 70
     0
102
RTVSPropertyOp33
 70
     0
102
RTVSPropertyOp34
 70
     0
102
RTVSPropertyOp35
 70
     0
102
RTVSPropertyOp36
 70
     0
102
RTVSPropertyOp37
 70
     0
102
RTVSPropertyOp38
 70
     0
102
RTVSPropertyOp39
 70
     0
102
RTVSPropertyOp40
 70
     0
102
RTVSPropertyOp41
 70
     0
102
RTVSPropertyOp42
 70
     0
102
RTVSPropertyOp43
 70
     0
102
RTVSPropertyOp44
 70
     0
102
RTVSPropertyOp45
 70
     0
102
RTVSPropertyOp46
 70
     0
102
RTVSPropertyOp47
 70
     0
102
RTVSPropertyOp48
 70
     0
102
RTVSPropertyOp49
 70
     0
102
RTVSPropertyOp50
 70
     0
102
RTVSPropertyOp51
 70
     0
102
RTVSPropertyOp52
 70
     0
102
RTVSPropertyOp53
 70
     0
102
RTVSPropertyOp54
 70
     0
102
RTVSPropertyOp55
 70
     0
102
RTVSPropertyOp56
 70
     0
102
RTVSPropertyOp57
 70
     0
102
RTVSPost2010Prop28
280
     0
102
RTVSPost2010PropOp28
 70
     0
102
RTVSPost2010Prop29
280
     1
102
RTVSPost2010PropOp29
 70
     0
102
RTVSPost2010Prop30
280
     1
102
RTVSPost2010PropOp30
 70
     0
102
RTVSPost2010Prop31
280
     0
102
RTVSPost2010PropOp31
 70
     0
102
RTVSPost2010Prop32
280
     0
102
RTVSPost2010PropOp32
 70
     0
102
RTVSPost2010Prop33
280
     0
102
RTVSPost2010PropOp33
 70
     0
102
RTVSPost2010Prop34
280
     0
102
RTVSPost2010PropOp34
 70
     0
102
RTVSPost2010Prop35
280
     0
102
RTVSPost2010PropOp35
 70
     0
102
RTVSPost2010Prop36
280
     0
102
RTVSPost2010PropOp36
 70
     0
102
RTVSPost2010Prop37
 90
       50
102
RTVSPost2010PropOp37
 70
     0
102
RTVSPost2010Prop38
140
0.0
102
RTVSPost2010PropOp38
 70
     0
102
RTVSPost2010Prop39
140
1.0
102
RTVSPost2010PropOp39
 70
     0
102
RTVSPost2010Prop40
 90
        0
102
RTVSPost2010PropOp40
 70
     0
102
RTVSPost2010Prop41ColorIndex
 90
       18
102
RTVSPost2010Prop41ColorRGB
 90
        0
102
RTVSPost2010PropOp41
 70
     0
102
RTVSPost2010Prop42
 90
       50
102
RTVSPost2010PropOp42
 70
     0
102
RTVSPost2010Prop43
 90
        3
102
RTVSPost2010PropOp43
 70
     0
102
RTVSPost2010Prop44ColorIndex
 90
        5
102
RTVSPost2010Prop44ColorRGB
 90
      255
102
RTVSPost2010PropOp44
 70
     0
102
RTVSPost2010Prop45
280
     0
102
RTVSPost2010PropOp45
 70
     0
102
RTVSPost2010Prop46
 90
       50
102
RTVSPost2010PropOp46
 70
     0
102
RTVSPost2010Prop47
 90
       50
102
RTVSPost2010PropOp47
 70
     0
102
RTVSPost2010Prop48
 90
       50
102
RTVSPost2010PropOp48
 70
     0
102
RTVSPost2010Prop49
280
     0
102
RTVSPost2010PropOp49
 70
     0
102
RTVSPost2010Prop50
 90
       50
102
RTVSPost2010PropOp50
 70
     0
102
RTVSPost2010Prop51ColorIndex
 90
      256
102
RTVSPost2010Prop51ColorRGB
 90
-16777216
102
RTVSPost2010PropOp51
 70
     0
102
RTVSPost2010Prop52
140
1.0
102
RTVSPost2010PropOp52
 70
     0
102
RTVSPost2010Prop53
 90
        2
102
RTVSPost2010PropOp53
 70
     0
102
RTVSPost2010Prop54
  1
strokes_ogs.tif
102
RTVSPost2010PropOp54
 70
     0
102
RTVSPost2010Prop55
280
     0
102
RTVSPost2010PropOp55
 70
     0
102
RTVSPost2010Prop56
140
1.0
102
RTVSPost2010PropOp56
 70
     0
102
RTVSPost2010Prop57
140
1.0
102
RTVSPost2010PropOp57
 70
     0
  0
XRECORD
  5
281
102
{ACAD_REACTORS
330
280
102
}
330
280
100
AcDbXrecord
280
     1
102
RTVSPropertyOp0
 70
     1
102
RTVSPropertyOp1
 70
     1
102
RTVSPropertyOp2
 70
     1
102
RTVSPropertyOp3
 70
     1
102
RTVSPropertyOp4
 70
     1
102
RTVSPropertyOp5
 70
     1
102
RTVSPropertyOp6
 70
     1
102
RTVSPropertyOp7
 70
     1
102
RTVSPropertyOp8
 70
     1
102
RTVSPropertyOp9
 70
     1
102
RTVSPropertyOp10
 70
     1
102
RTVSPropertyOp11
 70
     1
102
RTVSPropertyOp12
 70
     1
102
RTVSPropertyOp13
 70
     1
102
RTVSPropertyOp14
 70
     1
102
RTVSPropertyOp15
 70
     1
102
RTVSPropertyOp16
 70
     1
102
RTVSPropertyOp17
 70
     1
102
RTVSPropertyOp18
 70
     1
102
RTVSPropertyOp19
 70
     1
102
RTVSPropertyOp20
 70
     1
102
RTVSPropertyOp21
 70
     1
102
RTVSPropertyOp22
 70
     1
102
RTVSPropertyOp23
 70
     1
102
RTVSPropertyOp24
 70
     1
102
RTVSPropertyOp25
 70
     1
102
RTVSPropertyOp26
 70
     1
102
RTVSPropertyOp27
 70
     1
102
RTVSPropertyOp28
 70
     1
102
RTVSPropertyOp29
 70
     1
102
RTVSPropertyOp30
 70
     1
102
RTVSPropertyOp31
 70
     1
102
RTVSPropertyOp32
 70
     1
102
RTVSPropertyOp33
 70
     1
102
RTVSPropertyOp34
 70
     1
102
RTVSPropertyOp35
 70
     1
102
RTVSPropertyOp36
 70
     1
102
RTVSPropertyOp37
 70
     1
102
RTVSPropertyOp38
 70
     1
102
RTVSPropertyOp39
 70
     1
102
RTVSPropertyOp40
 70
     1
102
RTVSPropertyOp41
 70
     1
102
RTVSPropertyOp42
 70
     1
102
RTVSPropertyOp43
 70
     1
102
RTVSPropertyOp44
 70
     1
102
RTVSPropertyOp45
 70
     1
102
RTVSPropertyOp46
 70
     1
102
RTVSPropertyOp47
 70
     1
102
RTVSPropertyOp48
 70
     1
102
RTVSPropertyOp49
 70
     1
102
RTVSPropertyOp50
 70
     1
102
RTVSPropertyOp51
 70
     0
102
RTVSPropertyOp52
 70
     0
102
RTVSPropertyOp53
 70
     1
102
RTVSPropertyOp54
 70
     1
102
RTVSPropertyOp55
 70
     1
102
RTVSPropertyOp56
 70
     1
102
RTVSPropertyOp57
 70
     1
102
RTVSPost2010Prop28
280
     0
102
RTVSPost2010PropOp28
 70
     1
102
RTVSPost2010Prop29
280
     1
102
RTVSPost2010PropOp29
 70
     1
102
RTVSPost2010Prop30
280
     1
102
RTVSPost2010PropOp30
 70
     1
102
RTVSPost2010Prop31
280
     0
102
RTVSPost2010PropOp31
 70
     1
102
RTVSPost2010Prop32
280
     0
102
RTVSPost2010PropOp32
 70
     1
102
RTVSPost2010Prop33
280
     0
102
RTVSPost2010PropOp33
 70
     1
102
RTVSPost2010Prop34
280
     0
102
RTVSPost2010PropOp34
 70
     1
102
RTVSPost2010Prop35
280
     0
102
RTVSPost2010PropOp35
 70
     1
102
RTVSPost2010Prop36
280
     0
102
RTVSPost2010PropOp36
 70
     1
102
RTVSPost2010Prop37
 90
       50
102
RTVSPost2010PropOp37
 70
     1
102
RTVSPost2010Prop38
140
0.0
102
RTVSPost2010PropOp38
 70
     1
102
RTVSPost2010Prop39
140
1.0
102
RTVSPost2010PropOp39
 70
     1
102
RTVSPost2010Prop40
 90
        0
102
RTVSPost2010PropOp40
 70
     1
102
RTVSPost2010Prop41ColorIndex
 90
       18
102
RTVSPost2010Prop41ColorRGB
 90
        0
102
RTVSPost2010PropOp41
 70
     1
102
RTVSPost2010Prop42
 90
       50
102
RTVSPost2010PropOp42
 70
     1
102
RTVSPost2010Prop43
 90
        3
102
RTVSPost2010PropOp43
 70
     1
102
RTVSPost2010Prop44ColorIndex
 90
        5
102
RTVSPost2010Prop44ColorRGB
 90
      255
102
RTVSPost2010PropOp44
 70
     1
102
RTVSPost2010Prop45
280
     0
102
RTVSPost2010PropOp45
 70
     1
102
RTVSPost2010Prop46
 90
       50
102
RTVSPost2010PropOp46
 70
     1
102
RTVSPost2010Prop47
 90
       50
102
RTVSPost2010PropOp47
 70
     1
102
RTVSPost2010Prop48
 90
       50
102
RTVSPost2010PropOp48
 70
     1
102
RTVSPost2010Prop49
280
     0
102
RTVSPost2010PropOp49
 70
     1
102
RTVSPost2010Prop50
 90
       50
102
RTVSPost2010PropOp50
 70
     1
102
RTVSPost2010Prop51ColorIndex
 90
      256
102
RTVSPost2010Prop51ColorRGB
 90
-16777216
102
RTVSPost2010PropOp51
 70
     0
102
RTVSPost2010Prop52
140
1.0
102
RTVSPost2010PropOp52
 70
     0
102
RTVSPost2010Prop53
 90
        2
102
RTVSPost2010PropOp53
 70
     1
102
RTVSPost2010Prop54
  1
strokes_ogs.tif
102
RTVSPost2010PropOp54
 70
     1
102
RTVSPost2010Prop55
280
     0
102
RTVSPost2010PropOp55
 70
     1
102
RTVSPost2010Prop56
140
1.0
102
RTVSPost2010PropOp56
 70
     1
102
RTVSPost2010Prop57
140
1.0
102
RTVSPost2010PropOp57
 70
     1
  0
XRECORD
  5
29F
102
{ACAD_REACTORS
330
29E
102
}
330
29E
100
AcDbXrecord
280
     1
102
RTVSPropertyOp0
 70
     1
102
RTVSPropertyOp1
 70
     1
102
RTVSPropertyOp2
 70
     1
102
RTVSPropertyOp3
 70
     1
102
RTVSPropertyOp4
 70
     1
102
RTVSPropertyOp5
 70
     1
102
RTVSPropertyOp6
 70
     1
102
RTVSPropertyOp7
 70
     1
102
RTVSPropertyOp8
 70
     1
102
RTVSPropertyOp9
 70
     1
102
RTVSPropertyOp10
 70
     1
102
RTVSPropertyOp11
 70
     1
102
RTVSPropertyOp12
 70
     1
102
RTVSPropertyOp13
 70
     1
102
RTVSPropertyOp14
 70
     1
102
RTVSPropertyOp15
 70
     1
102
RTVSPropertyOp16
 70
     1
102
RTVSPropertyOp17
 70
     1
102
RTVSPropertyOp18
 70
     1
102
RTVSPropertyOp19
 70
     1
102
RTVSPropertyOp20
 70
     1
102
RTVSPropertyOp21
 70
     1
102
RTVSPropertyOp22
 70
     1
102
RTVSPropertyOp23
 70
     1
102
RTVSPropertyOp24
 70
     1
102
RTVSPropertyOp25
 70
     1
102
RTVSPropertyOp26
 70
     1
102
RTVSPropertyOp27
 70
     1
102
RTVSPropertyOp28
 70
     1
102
RTVSPropertyOp29
 70
     1
102
RTVSPropertyOp30
 70
     1
102
RTVSPropertyOp31
 70
     1
102
RTVSPropertyOp32
 70
     1
102
RTVSPropertyOp33
 70
     1
102
RTVSPropertyOp34
 70
     1
102
RTVSPropertyOp35
 70
     1
102
RTVSPropertyOp36
 70
     1
102
RTVSPropertyOp37
 70
     1
102
RTVSPropertyOp38
 70
     1
102
RTVSPropertyOp39
 70
     1
102
RTVSPropertyOp40
 70
     1
102
RTVSPropertyOp41
 70
     1
102
RTVSPropertyOp42
 70
     1
102
RTVSPropertyOp43
 70
     1
102
RTVSPropertyOp44
 70
     1
102
RTVSPropertyOp45
 70
     1
102
RTVSPropertyOp46
 70
     1
102
RTVSPropertyOp47
 70
     1
102
RTVSPropertyOp48
 70
     1
102
RTVSPropertyOp49
 70
     1
102
RTVSPropertyOp50
 70
     1
102
RTVSPropertyOp51
 70
     0
102
RTVSPropertyOp52
 70
     0
102
RTVSPropertyOp53
 70
     1
102
RTVSPropertyOp54
 70
     1
102
RTVSPropertyOp55
 70
     1
102
RTVSPropertyOp56
 70
     1
102
RTVSPropertyOp57
 70
     1
102
RTVSPost2010Prop28
280
     0
102
RTVSPost2010PropOp28
 70
     1
102
RTVSPost2010Prop29
280
     1
102
RTVSPost2010PropOp29
 70
     1
102
RTVSPost2010Prop30
280
     1
102
RTVSPost2010PropOp30
 70
     1
102
RTVSPost2010Prop31
280
     0
102
RTVSPost2010PropOp31
 70
     1
102
RTVSPost2010Prop32
280
     0
102
RTVSPost2010PropOp32
 70
     1
102
RTVSPost2010Prop33
280
     0
102
RTVSPost2010PropOp33
 70
     1
102
RTVSPost2010Prop34
280
     0
102
RTVSPost2010PropOp34
 70
     1
102
RTVSPost2010Prop35
280
     0
102
RTVSPost2010PropOp35
 70
     1
102
RTVSPost2010Prop36
280
     0
102
RTVSPost2010PropOp36
 70
     1
102
RTVSPost2010Prop37
 90
       50
102
RTVSPost2010PropOp37
 70
     1
102
RTVSPost2010Prop38
140
0.0
102
RTVSPost2010PropOp38
 70
     1
102
RTVSPost2010Prop39
140
1.0
102
RTVSPost2010PropOp39
 70
     1
102
RTVSPost2010Prop40
 90
        0
102
RTVSPost2010PropOp40
 70
     1
102
RTVSPost2010Prop41ColorIndex
 90
       18
102
RTVSPost2010Prop41ColorRGB
 90
        0
102
RTVSPost2010PropOp41
 70
     1
102
RTVSPost2010Prop42
 90
       50
102
RTVSPost2010PropOp42
 70
     1
102
RTVSPost2010Prop43
 90
        3
102
RTVSPost2010PropOp43
 70
     1
102
RTVSPost2010Prop44ColorIndex
 90
        5
102
RTVSPost2010Prop44ColorRGB
 90
      255
102
RTVSPost2010PropOp44
 70
     1
102
RTVSPost2010Prop45
280
     0
102
RTVSPost2010PropOp45
 70
     1
102
RTVSPost2010Prop46
 90
       50
102
RTVSPost2010PropOp46
 70
     1
102
RTVSPost2010Prop47
 90
       50
102
RTVSPost2010PropOp47
 70
     1
102
RTVSPost2010Prop48
 90
       50
102
RTVSPost2010PropOp48
 70
     1
102
RTVSPost2010Prop49
280
     0
102
RTVSPost2010PropOp49
 70
     1
102
RTVSPost2010Prop50
 90
       50
102
RTVSPost2010PropOp50
 70
     1
102
RTVSPost2010Prop51ColorIndex
 90
      256
102
RTVSPost2010Prop51ColorRGB
 90
-16777216
102
RTVSPost2010PropOp51
 70
     0
102
RTVSPost2010Prop52
140
1.0
102
RTVSPost2010PropOp52
 70
     0
102
RTVSPost2010Prop53
 90
        2
102
RTVSPost2010PropOp53
 70
     1
102
RTVSPost2010Prop54
  1
strokes_ogs.tif
102
RTVSPost2010PropOp54
 70
     1
102
RTVSPost2010Prop55
280
     0
102
RTVSPost2010PropOp55
 70
     1
102
RTVSPost2010Prop56
140
1.0
102
RTVSPost2010PropOp56
 70
     1
102
RTVSPost2010Prop57
140
1.0
102
RTVSPost2010PropOp57
 70
     1
  0
XRECORD
  5
29D
102
{ACAD_REACTORS
330
29C
102
}
330
29C
100
AcDbXrecord
280
     1
102
RTVSPropertyOp0
 70
     1
102
RTVSPropertyOp1
 70
     1
102
RTVSPropertyOp2
 70
     1
102
RTVSPropertyOp3
 70
     1
102
RTVSPropertyOp4
 70
     1
102
RTVSPropertyOp5
 70
     1
102
RTVSPropertyOp6
 70
     1
102
RTVSPropertyOp7
 70
     1
102
RTVSPropertyOp8
 70
     1
102
RTVSPropertyOp9
 70
     1
102
RTVSPropertyOp10
 70
     1
102
RTVSPropertyOp11
 70
     1
102
RTVSPropertyOp12
 70
     1
102
RTVSPropertyOp13
 70
     1
102
RTVSPropertyOp14
 70
     1
102
RTVSPropertyOp15
 70
     1
102
RTVSPropertyOp16
 70
     1
102
RTVSPropertyOp17
 70
     1
102
RTVSPropertyOp18
 70
     1
102
RTVSPropertyOp19
 70
     1
102
RTVSPropertyOp20
 70
     1
102
RTVSPropertyOp21
 70
     1
102
RTVSPropertyOp22
 70
     1
102
RTVSPropertyOp23
 70
     1
102
RTVSPropertyOp24
 70
     1
102
RTVSPropertyOp25
 70
     1
102
RTVSPropertyOp26
 70
     1
102
RTVSPropertyOp27
 70
     1
102
RTVSPropertyOp28
 70
     1
102
RTVSPropertyOp29
 70
     1
102
RTVSPropertyOp30
 70
     1
102
RTVSPropertyOp31
 70
     1
102
RTVSPropertyOp32
 70
     1
102
RTVSPropertyOp33
 70
     1
102
RTVSPropertyOp34
 70
     1
102
RTVSPropertyOp35
 70
     1
102
RTVSPropertyOp36
 70
     1
102
RTVSPropertyOp37
 70
     1
102
RTVSPropertyOp38
 70
     1
102
RTVSPropertyOp39
 70
     1
102
RTVSPropertyOp40
 70
     1
102
RTVSPropertyOp41
 70
     1
102
RTVSPropertyOp42
 70
     1
102
RTVSPropertyOp43
 70
     1
102
RTVSPropertyOp44
 70
     1
102
RTVSPropertyOp45
 70
     1
102
RTVSPropertyOp46
 70
     1
102
RTVSPropertyOp47
 70
     1
102
RTVSPropertyOp48
 70
     1
102
RTVSPropertyOp49
 70
     1
102
RTVSPropertyOp50
 70
     1
102
RTVSPropertyOp51
 70
     0
102
RTVSPropertyOp52
 70
     0
102
RTVSPropertyOp53
 70
     1
102
RTVSPropertyOp54
 70
     1
102
RTVSPropertyOp55
 70
     1
102
RTVSPropertyOp56
 70
     1
102
RTVSPropertyOp57
 70
     1
102
RTVSPost2010Prop28
280
     0
102
RTVSPost2010PropOp28
 70
     1
102
RTVSPost2010Prop29
280
     1
102
RTVSPost2010PropOp29
 70
     1
102
RTVSPost2010Prop30
280
     1
102
RTVSPost2010PropOp30
 70
     1
102
RTVSPost2010Prop31
280
     0
102
RTVSPost2010PropOp31
 70
     1
102
RTVSPost2010Prop32
280
     0
102
RTVSPost2010PropOp32
 70
     1
102
RTVSPost2010Prop33
280
     0
102
RTVSPost2010PropOp33
 70
     1
102
RTVSPost2010Prop34
280
     0
102
RTVSPost2010PropOp34
 70
     1
102
RTVSPost2010Prop35
280
     0
102
RTVSPost2010PropOp35
 70
     1
102
RTVSPost2010Prop36
280
     0
102
RTVSPost2010PropOp36
 70
     1
102
RTVSPost2010Prop37
 90
       50
102
RTVSPost2010PropOp37
 70
     1
102
RTVSPost2010Prop38
140
0.0
102
RTVSPost2010PropOp38
 70
     1
102
RTVSPost2010Prop39
140
1.0
102
RTVSPost2010PropOp39
 70
     1
102
RTVSPost2010Prop40
 90
        0
102
RTVSPost2010PropOp40
 70
     1
102
RTVSPost2010Prop41ColorIndex
 90
       18
102
RTVSPost2010Prop41ColorRGB
 90
        0
102
RTVSPost2010PropOp41
 70
     1
102
RTVSPost2010Prop42
 90
       50
102
RTVSPost2010PropOp42
 70
     1
102
RTVSPost2010Prop43
 90
        3
102
RTVSPost2010PropOp43
 70
     1
102
RTVSPost2010Prop44ColorIndex
 90
        5
102
RTVSPost2010Prop44ColorRGB
 90
      255
102
RTVSPost2010PropOp44
 70
     1
102
RTVSPost2010Prop45
280
     0
102
RTVSPost2010PropOp45
 70
     1
102
RTVSPost2010Prop46
 90
       50
102
RTVSPost2010PropOp46
 70
     1
102
RTVSPost2010Prop47
 90
       50
102
RTVSPost2010PropOp47
 70
     1
102
RTVSPost2010Prop48
 90
       50
102
RTVSPost2010PropOp48
 70
     1
102
RTVSPost2010Prop49
280
     0
102
RTVSPost2010PropOp49
 70
     1
102
RTVSPost2010Prop50
 90
       50
102
RTVSPost2010PropOp50
 70
     1
102
RTVSPost2010Prop51ColorIndex
 90
      256
102
RTVSPost2010Prop51ColorRGB
 90
-16777216
102
RTVSPost2010PropOp51
 70
     0
102
RTVSPost2010Prop52
140
1.0
102
RTVSPost2010PropOp52
 70
     0
102
RTVSPost2010Prop53
 90
        2
102
RTVSPost2010PropOp53
 70
     1
102
RTVSPost2010Prop54
  1
strokes_ogs.tif
102
RTVSPost2010PropOp54
 70
     1
102
RTVSPost2010Prop55
280
     0
102
RTVSPost2010PropOp55
 70
     1
102
RTVSPost2010Prop56
140
1.0
102
RTVSPost2010PropOp56
 70
     1
102
RTVSPost2010Prop57
140
1.0
102
RTVSPost2010PropOp57
 70
     1
  0
XRECORD
  5
297
102
{ACAD_REACTORS
330
296
102
}
330
296
100
AcDbXrecord
280
     1
102
RTVSPropertyOp0
 70
     1
102
RTVSPropertyOp1
 70
     1
102
RTVSPropertyOp2
 70
     1
102
RTVSPropertyOp3
 70
     1
102
RTVSPropertyOp4
 70
     1
102
RTVSPropertyOp5
 70
     1
102
RTVSPropertyOp6
 70
     1
102
RTVSPropertyOp7
 70
     1
102
RTVSPropertyOp8
 70
     1
102
RTVSPropertyOp9
 70
     1
102
RTVSPropertyOp10
 70
     1
102
RTVSPropertyOp11
 70
     1
102
RTVSPropertyOp12
 70
     1
102
RTVSPropertyOp13
 70
     1
102
RTVSPropertyOp14
 70
     1
102
RTVSPropertyOp15
 70
     1
102
RTVSPropertyOp16
 70
     1
102
RTVSPropertyOp17
 70
     1
102
RTVSPropertyOp18
 70
     1
102
RTVSPropertyOp19
 70
     1
102
RTVSPropertyOp20
 70
     1
102
RTVSPropertyOp21
 70
     1
102
RTVSPropertyOp22
 70
     1
102
RTVSPropertyOp23
 70
     1
102
RTVSPropertyOp24
 70
     1
102
RTVSPropertyOp25
 70
     1
102
RTVSPropertyOp26
 70
     1
102
RTVSPropertyOp27
 70
     1
102
RTVSPropertyOp28
 70
     1
102
RTVSPropertyOp29
 70
     1
102
RTVSPropertyOp30
 70
     1
102
RTVSPropertyOp31
 70
     1
102
RTVSPropertyOp32
 70
     1
102
RTVSPropertyOp33
 70
     1
102
RTVSPropertyOp34
 70
     1
102
RTVSPropertyOp35
 70
     1
102
RTVSPropertyOp36
 70
     1
102
RTVSPropertyOp37
 70
     1
102
RTVSPropertyOp38
 70
     1
102
RTVSPropertyOp39
 70
     1
102
RTVSPropertyOp40
 70
     1
102
RTVSPropertyOp41
 70
     1
102
RTVSPropertyOp42
 70
     1
102
RTVSPropertyOp43
 70
     1
102
RTVSPropertyOp44
 70
     1
102
RTVSPropertyOp45
 70
     1
102
RTVSPropertyOp46
 70
     1
102
RTVSPropertyOp47
 70
     1
102
RTVSPropertyOp48
 70
     1
102
RTVSPropertyOp49
 70
     1
102
RTVSPropertyOp50
 70
     1
102
RTVSPropertyOp51
 70
     0
102
RTVSPropertyOp52
 70
     0
102
RTVSPropertyOp53
 70
     1
102
RTVSPropertyOp54
 70
     1
102
RTVSPropertyOp55
 70
     1
102
RTVSPropertyOp56
 70
     1
102
RTVSPropertyOp57
 70
     1
102
RTVSPost2010Prop28
280
     0
102
RTVSPost2010PropOp28
 70
     1
102
RTVSPost2010Prop29
280
     1
102
RTVSPost2010PropOp29
 70
     1
102
RTVSPost2010Prop30
280
     1
102
RTVSPost2010PropOp30
 70
     1
102
RTVSPost2010Prop31
280
     0
102
RTVSPost2010PropOp31
 70
     1
102
RTVSPost2010Prop32
280
     0
102
RTVSPost2010PropOp32
 70
     1
102
RTVSPost2010Prop33
280
     0
102
RTVSPost2010PropOp33
 70
     1
102
RTVSPost2010Prop34
280
     0
102
RTVSPost2010PropOp34
 70
     1
102
RTVSPost2010Prop35
280
     0
102
RTVSPost2010PropOp35
 70
     1
102
RTVSPost2010Prop36
280
     0
102
RTVSPost2010PropOp36
 70
     1
102
RTVSPost2010Prop37
 90
       50
102
RTVSPost2010PropOp37
 70
     1
102
RTVSPost2010Prop38
140
0.0
102
RTVSPost2010PropOp38
 70
     1
102
RTVSPost2010Prop39
140
1.0
102
RTVSPost2010PropOp39
 70
     1
102
RTVSPost2010Prop40
 90
        0
102
RTVSPost2010PropOp40
 70
     1
102
RTVSPost2010Prop41ColorIndex
 90
       18
102
RTVSPost2010Prop41ColorRGB
 90
        0
102
RTVSPost2010PropOp41
 70
     1
102
RTVSPost2010Prop42
 90
       50
102
RTVSPost2010PropOp42
 70
     1
102
RTVSPost2010Prop43
 90
        3
102
RTVSPost2010PropOp43
 70
     1
102
RTVSPost2010Prop44ColorIndex
 90
        5
102
RTVSPost2010Prop44ColorRGB
 90
      255
102
RTVSPost2010PropOp44
 70
     1
102
RTVSPost2010Prop45
280
     0
102
RTVSPost2010PropOp45
 70
     1
102
RTVSPost2010Prop46
 90
       50
102
RTVSPost2010PropOp46
 70
     1
102
RTVSPost2010Prop47
 90
       50
102
RTVSPost2010PropOp47
 70
     1
102
RTVSPost2010Prop48
 90
       50
102
RTVSPost2010PropOp48
 70
     1
102
RTVSPost2010Prop49
280
     0
102
RTVSPost2010PropOp49
 70
     1
102
RTVSPost2010Prop50
 90
       50
102
RTVSPost2010PropOp50
 70
     1
102
RTVSPost2010Prop51ColorIndex
 90
      256
102
RTVSPost2010Prop51ColorRGB
 90
-16777216
102
RTVSPost2010PropOp51
 70
     0
102
RTVSPost2010Prop52
140
1.0
102
RTVSPost2010PropOp52
 70
     0
102
RTVSPost2010Prop53
 90
        2
102
RTVSPost2010PropOp53
 70
     1
102
RTVSPost2010Prop54
  1
strokes_ogs.tif
102
RTVSPost2010PropOp54
 70
     1
102
RTVSPost2010Prop55
280
     0
102
RTVSPost2010PropOp55
 70
     1
102
RTVSPost2010Prop56
140
1.0
102
RTVSPost2010PropOp56
 70
     1
102
RTVSPost2010Prop57
140
1.0
102
RTVSPost2010PropOp57
 70
     1
  0
XRECORD
  5
299
102
{ACAD_REACTORS
330
298
102
}
330
298
100
AcDbXrecord
280
     1
102
RTVSPropertyOp0
 70
     1
102
RTVSPropertyOp1
 70
     1
102
RTVSPropertyOp2
 70
     1
102
RTVSPropertyOp3
 70
     1
102
RTVSPropertyOp4
 70
     1
102
RTVSPropertyOp5
 70
     1
102
RTVSPropertyOp6
 70
     1
102
RTVSPropertyOp7
 70
     1
102
RTVSPropertyOp8
 70
     1
102
RTVSPropertyOp9
 70
     1
102
RTVSPropertyOp10
 70
     1
102
RTVSPropertyOp11
 70
     1
102
RTVSPropertyOp12
 70
     1
102
RTVSPropertyOp13
 70
     1
102
RTVSPropertyOp14
 70
     1
102
RTVSPropertyOp15
 70
     1
102
RTVSPropertyOp16
 70
     1
102
RTVSPropertyOp17
 70
     1
102
RTVSPropertyOp18
 70
     1
102
RTVSPropertyOp19
 70
     1
102
RTVSPropertyOp20
 70
     1
102
RTVSPropertyOp21
 70
     1
102
RTVSPropertyOp22
 70
     1
102
RTVSPropertyOp23
 70
     1
102
RTVSPropertyOp24
 70
     1
102
RTVSPropertyOp25
 70
     1
102
RTVSPropertyOp26
 70
     1
102
RTVSPropertyOp27
 70
     1
102
RTVSPropertyOp28
 70
     1
102
RTVSPropertyOp29
 70
     1
102
RTVSPropertyOp30
 70
     1
102
RTVSPropertyOp31
 70
     1
102
RTVSPropertyOp32
 70
     1
102
RTVSPropertyOp33
 70
     1
102
RTVSPropertyOp34
 70
     1
102
RTVSPropertyOp35
 70
     1
102
RTVSPropertyOp36
 70
     1
102
RTVSPropertyOp37
 70
     1
102
RTVSPropertyOp38
 70
     1
102
RTVSPropertyOp39
 70
     1
102
RTVSPropertyOp40
 70
     1
102
RTVSPropertyOp41
 70
     1
102
RTVSPropertyOp42
 70
     1
102
RTVSPropertyOp43
 70
     1
102
RTVSPropertyOp44
 70
     1
102
RTVSPropertyOp45
 70
     1
102
RTVSPropertyOp46
 70
     1
102
RTVSPropertyOp47
 70
     1
102
RTVSPropertyOp48
 70
     1
102
RTVSPropertyOp49
 70
     1
102
RTVSPropertyOp50
 70
     1
102
RTVSPropertyOp51
 70
     0
102
RTVSPropertyOp52
 70
     0
102
RTVSPropertyOp53
 70
     1
102
RTVSPropertyOp54
 70
     1
102
RTVSPropertyOp55
 70
     1
102
RTVSPropertyOp56
 70
     1
102
RTVSPropertyOp57
 70
     1
102
RTVSPost2010Prop28
280
     0
102
RTVSPost2010PropOp28
 70
     1
102
RTVSPost2010Prop29
280
     1
102
RTVSPost2010PropOp29
 70
     1
102
RTVSPost2010Prop30
280
     1
102
RTVSPost2010PropOp30
 70
     1
102
RTVSPost2010Prop31
280
     0
102
RTVSPost2010PropOp31
 70
     1
102
RTVSPost2010Prop32
280
     0
102
RTVSPost2010PropOp32
 70
     1
102
RTVSPost2010Prop33
280
     0
102
RTVSPost2010PropOp33
 70
     1
102
RTVSPost2010Prop34
280
     0
102
RTVSPost2010PropOp34
 70
     1
102
RTVSPost2010Prop35
280
     0
102
RTVSPost2010PropOp35
 70
     1
102
RTVSPost2010Prop36
280
     0
102
RTVSPost2010PropOp36
 70
     1
102
RTVSPost2010Prop37
 90
       50
102
RTVSPost2010PropOp37
 70
     1
102
RTVSPost2010Prop38
140
0.0
102
RTVSPost2010PropOp38
 70
     1
102
RTVSPost2010Prop39
140
1.0
102
RTVSPost2010PropOp39
 70
     1
102
RTVSPost2010Prop40
 90
        0
102
RTVSPost2010PropOp40
 70
     1
102
RTVSPost2010Prop41ColorIndex
 90
       18
102
RTVSPost2010Prop41ColorRGB
 90
        0
102
RTVSPost2010PropOp41
 70
     1
102
RTVSPost2010Prop42
 90
       50
102
RTVSPost2010PropOp42
 70
     1
102
RTVSPost2010Prop43
 90
        3
102
RTVSPost2010PropOp43
 70
     1
102
RTVSPost2010Prop44ColorIndex
 90
        5
102
RTVSPost2010Prop44ColorRGB
 90
      255
102
RTVSPost2010PropOp44
 70
     1
102
RTVSPost2010Prop45
280
     0
102
RTVSPost2010PropOp45
 70
     1
102
RTVSPost2010Prop46
 90
       50
102
RTVSPost2010PropOp46
 70
     1
102
RTVSPost2010Prop47
 90
       50
102
RTVSPost2010PropOp47
 70
     1
102
RTVSPost2010Prop48
 90
       50
102
RTVSPost2010PropOp48
 70
     1
102
RTVSPost2010Prop49
280
     0
102
RTVSPost2010PropOp49
 70
     1
102
RTVSPost2010Prop50
 90
       50
102
RTVSPost2010PropOp50
 70
     1
102
RTVSPost2010Prop51ColorIndex
 90
      256
102
RTVSPost2010Prop51ColorRGB
 90
-16777216
102
RTVSPost2010PropOp51
 70
     0
102
RTVSPost2010Prop52
140
1.0
102
RTVSPost2010PropOp52
 70
     0
102
RTVSPost2010Prop53
 90
        2
102
RTVSPost2010PropOp53
 70
     1
102
RTVSPost2010Prop54
  1
strokes_ogs.tif
102
RTVSPost2010PropOp54
 70
     1
102
RTVSPost2010Prop55
280
     0
102
RTVSPost2010PropOp55
 70
     1
102
RTVSPost2010Prop56
140
1.0
102
RTVSPost2010PropOp56
 70
     1
102
RTVSPost2010Prop57
140
1.0
102
RTVSPost2010PropOp57
 70
     1
  0
XRECORD
  5
289
102
{ACAD_REACTORS
330
288
102
}
330
288
100
AcDbXrecord
280
     1
102
RTVSPropertyOp0
 70
     1
102
RTVSPropertyOp1
 70
     1
102
RTVSPropertyOp2
 70
     1
102
RTVSPropertyOp3
 70
     1
102
RTVSPropertyOp4
 70
     1
102
RTVSPropertyOp5
 70
     1
102
RTVSPropertyOp6
 70
     1
102
RTVSPropertyOp7
 70
     1
102
RTVSPropertyOp8
 70
     1
102
RTVSPropertyOp9
 70
     1
102
RTVSPropertyOp10
 70
     1
102
RTVSPropertyOp11
 70
     1
102
RTVSPropertyOp12
 70
     1
102
RTVSPropertyOp13
 70
     1
102
RTVSPropertyOp14
 70
     1
102
RTVSPropertyOp15
 70
     1
102
RTVSPropertyOp16
 70
     1
102
RTVSPropertyOp17
 70
     1
102
RTVSPropertyOp18
 70
     1
102
RTVSPropertyOp19
 70
     1
102
RTVSPropertyOp20
 70
     1
102
RTVSPropertyOp21
 70
     1
102
RTVSPropertyOp22
 70
     1
102
RTVSPropertyOp23
 70
     1
102
RTVSPropertyOp24
 70
     1
102
RTVSPropertyOp25
 70
     1
102
RTVSPropertyOp26
 70
     1
102
RTVSPropertyOp27
 70
     1
102
RTVSPropertyOp28
 70
     1
102
RTVSPropertyOp29
 70
     1
102
RTVSPropertyOp30
 70
     1
102
RTVSPropertyOp31
 70
     1
102
RTVSPropertyOp32
 70
     1
102
RTVSPropertyOp33
 70
     1
102
RTVSPropertyOp34
 70
     1
102
RTVSPropertyOp35
 70
     1
102
RTVSPropertyOp36
 70
     1
102
RTVSPropertyOp37
 70
     1
102
RTVSPropertyOp38
 70
     1
102
RTVSPropertyOp39
 70
     1
102
RTVSPropertyOp40
 70
     1
102
RTVSPropertyOp41
 70
     1
102
RTVSPropertyOp42
 70
     1
102
RTVSPropertyOp43
 70
     1
102
RTVSPropertyOp44
 70
     1
102
RTVSPropertyOp45
 70
     1
102
RTVSPropertyOp46
 70
     1
102
RTVSPropertyOp47
 70
     1
102
RTVSPropertyOp48
 70
     1
102
RTVSPropertyOp49
 70
     1
102
RTVSPropertyOp50
 70
     1
102
RTVSPropertyOp51
 70
     0
102
RTVSPropertyOp52
 70
     0
102
RTVSPropertyOp53
 70
     1
102
RTVSPropertyOp54
 70
     1
102
RTVSPropertyOp55
 70
     1
102
RTVSPropertyOp56
 70
     1
102
RTVSPropertyOp57
 70
     1
102
RTVSPost2010Prop28
280
     0
102
RTVSPost2010PropOp28
 70
     1
102
RTVSPost2010Prop29
280
     1
102
RTVSPost2010PropOp29
 70
     1
102
RTVSPost2010Prop30
280
     1
102
RTVSPost2010PropOp30
 70
     1
102
RTVSPost2010Prop31
280
     0
102
RTVSPost2010PropOp31
 70
     1
102
RTVSPost2010Prop32
280
     0
102
RTVSPost2010PropOp32
 70
     1
102
RTVSPost2010Prop33
280
     0
102
RTVSPost2010PropOp33
 70
     1
102
RTVSPost2010Prop34
280
     0
102
RTVSPost2010PropOp34
 70
     1
102
RTVSPost2010Prop35
280
     0
102
RTVSPost2010PropOp35
 70
     1
102
RTVSPost2010Prop36
280
     0
102
RTVSPost2010PropOp36
 70
     1
102
RTVSPost2010Prop37
 90
       50
102
RTVSPost2010PropOp37
 70
     1
102
RTVSPost2010Prop38
140
0.0
102
RTVSPost2010PropOp38
 70
     1
102
RTVSPost2010Prop39
140
1.0
102
RTVSPost2010PropOp39
 70
     1
102
RTVSPost2010Prop40
 90
        0
102
RTVSPost2010PropOp40
 70
     1
102
RTVSPost2010Prop41ColorIndex
 90
       18
102
RTVSPost2010Prop41ColorRGB
 90
        0
102
RTVSPost2010PropOp41
 70
     1
102
RTVSPost2010Prop42
 90
       50
102
RTVSPost2010PropOp42
 70
     1
102
RTVSPost2010Prop43
 90
        3
102
RTVSPost2010PropOp43
 70
     1
102
RTVSPost2010Prop44ColorIndex
 90
        5
102
RTVSPost2010Prop44ColorRGB
 90
      255
102
RTVSPost2010PropOp44
 70
     1
102
RTVSPost2010Prop45
280
     0
102
RTVSPost2010PropOp45
 70
     1
102
RTVSPost2010Prop46
 90
       50
102
RTVSPost2010PropOp46
 70
     1
102
RTVSPost2010Prop47
 90
       50
102
RTVSPost2010PropOp47
 70
     1
102
RTVSPost2010Prop48
 90
       50
102
RTVSPost2010PropOp48
 70
     1
102
RTVSPost2010Prop49
280
     0
102
RTVSPost2010PropOp49
 70
     1
102
RTVSPost2010Prop50
 90
       50
102
RTVSPost2010PropOp50
 70
     1
102
RTVSPost2010Prop51ColorIndex
 90
      256
102
RTVSPost2010Prop51ColorRGB
 90
-16777216
102
RTVSPost2010PropOp51
 70
     0
102
RTVSPost2010Prop52
140
1.0
102
RTVSPost2010PropOp52
 70
     0
102
RTVSPost2010Prop53
 90
        2
102
RTVSPost2010PropOp53
 70
     1
102
RTVSPost2010Prop54
  1
strokes_ogs.tif
102
RTVSPost2010PropOp54
 70
     1
102
RTVSPost2010Prop55
280
     0
102
RTVSPost2010PropOp55
 70
     1
102
RTVSPost2010Prop56
140
1.0
102
RTVSPost2010PropOp56
 70
     1
102
RTVSPost2010Prop57
140
1.0
102
RTVSPost2010PropOp57
 70
     1
  0
XRECORD
  5
27B
102
{ACAD_REACTORS
330
27A
102
}
330
27A
100
AcDbXrecord
280
     1
102
RTVSPropertyOp0
 70
     1
102
RTVSPropertyOp1
 70
     1
102
RTVSPropertyOp2
 70
     1
102
RTVSPropertyOp3
 70
     1
102
RTVSPropertyOp4
 70
     1
102
RTVSPropertyOp5
 70
     1
102
RTVSPropertyOp6
 70
     1
102
RTVSPropertyOp7
 70
     1
102
RTVSPropertyOp8
 70
     1
102
RTVSPropertyOp9
 70
     1
102
RTVSPropertyOp10
 70
     1
102
RTVSPropertyOp11
 70
     1
102
RTVSPropertyOp12
 70
     1
102
RTVSPropertyOp13
 70
     1
102
RTVSPropertyOp14
 70
     1
102
RTVSPropertyOp15
 70
     1
102
RTVSPropertyOp16
 70
     1
102
RTVSPropertyOp17
 70
     1
102
RTVSPropertyOp18
 70
     1
102
RTVSPropertyOp19
 70
     1
102
RTVSPropertyOp20
 70
     1
102
RTVSPropertyOp21
 70
     1
102
RTVSPropertyOp22
 70
     1
102
RTVSPropertyOp23
 70
     1
102
RTVSPropertyOp24
 70
     1
102
RTVSPropertyOp25
 70
     1
102
RTVSPropertyOp26
 70
     1
102
RTVSPropertyOp27
 70
     1
102
RTVSPropertyOp28
 70
     1
102
RTVSPropertyOp29
 70
     1
102
RTVSPropertyOp30
 70
     1
102
RTVSPropertyOp31
 70
     1
102
RTVSPropertyOp32
 70
     1
102
RTVSPropertyOp33
 70
     1
102
RTVSPropertyOp34
 70
     1
102
RTVSPropertyOp35
 70
     1
102
RTVSPropertyOp36
 70
     1
102
RTVSPropertyOp37
 70
     1
102
RTVSPropertyOp38
 70
     1
102
RTVSPropertyOp39
 70
     1
102
RTVSPropertyOp40
 70
     1
102
RTVSPropertyOp41
 70
     1
102
RTVSPropertyOp42
 70
     1
102
RTVSPropertyOp43
 70
     1
102
RTVSPropertyOp44
 70
     1
102
RTVSPropertyOp45
 70
     1
102
RTVSPropertyOp46
 70
     1
102
RTVSPropertyOp47
 70
     1
102
RTVSPropertyOp48
 70
     1
102
RTVSPropertyOp49
 70
     1
102
RTVSPropertyOp50
 70
     1
102
RTVSPropertyOp51
 70
     0
102
RTVSPropertyOp52
 70
     0
102
RTVSPropertyOp53
 70
     1
102
RTVSPropertyOp54
 70
     1
102
RTVSPropertyOp55
 70
     1
102
RTVSPropertyOp56
 70
     1
102
RTVSPropertyOp57
 70
     1
102
RTVSPost2010Prop28
280
     0
102
RTVSPost2010PropOp28
 70
     1
102
RTVSPost2010Prop29
280
     1
102
RTVSPost2010PropOp29
 70
     1
102
RTVSPost2010Prop30
280
     1
102
RTVSPost2010PropOp30
 70
     1
102
RTVSPost2010Prop31
280
     0
102
RTVSPost2010PropOp31
 70
     1
102
RTVSPost2010Prop32
280
     0
102
RTVSPost2010PropOp32
 70
     1
102
RTVSPost2010Prop33
280
     0
102
RTVSPost2010PropOp33
 70
     1
102
RTVSPost2010Prop34
280
     0
102
RTVSPost2010PropOp34
 70
     1
102
RTVSPost2010Prop35
280
     0
102
RTVSPost2010PropOp35
 70
     1
102
RTVSPost2010Prop36
280
     0
102
RTVSPost2010PropOp36
 70
     1
102
RTVSPost2010Prop37
 90
       50
102
RTVSPost2010PropOp37
 70
     1
102
RTVSPost2010Prop38
140
0.0
102
RTVSPost2010PropOp38
 70
     1
102
RTVSPost2010Prop39
140
1.0
102
RTVSPost2010PropOp39
 70
     1
102
RTVSPost2010Prop40
 90
        0
102
RTVSPost2010PropOp40
 70
     1
102
RTVSPost2010Prop41ColorIndex
 90
       18
102
RTVSPost2010Prop41ColorRGB
 90
        0
102
RTVSPost2010PropOp41
 70
     1
102
RTVSPost2010Prop42
 90
       50
102
RTVSPost2010PropOp42
 70
     1
102
RTVSPost2010Prop43
 90
        3
102
RTVSPost2010PropOp43
 70
     1
102
RTVSPost2010Prop44ColorIndex
 90
        5
102
RTVSPost2010Prop44ColorRGB
 90
      255
102
RTVSPost2010PropOp44
 70
     1
102
RTVSPost2010Prop45
280
     0
102
RTVSPost2010PropOp45
 70
     1
102
RTVSPost2010Prop46
 90
       50
102
RTVSPost2010PropOp46
 70
     1
102
RTVSPost2010Prop47
 90
       50
102
RTVSPost2010PropOp47
 70
     1
102
RTVSPost2010Prop48
 90
       50
102
RTVSPost2010PropOp48
 70
     1
102
RTVSPost2010Prop49
280
     0
102
RTVSPost2010PropOp49
 70
     1
102
RTVSPost2010Prop50
 90
       50
102
RTVSPost2010PropOp50
 70
     1
102
RTVSPost2010Prop51ColorIndex
 90
      256
102
RTVSPost2010Prop51ColorRGB
 90
-16777216
102
RTVSPost2010PropOp51
 70
     0
102
RTVSPost2010Prop52
140
1.0
102
RTVSPost2010PropOp52
 70
     0
102
RTVSPost2010Prop53
 90
        2
102
RTVSPost2010PropOp53
 70
     1
102
RTVSPost2010Prop54
  1
strokes_ogs.tif
102
RTVSPost2010PropOp54
 70
     1
102
RTVSPost2010Prop55
280
     0
102
RTVSPost2010PropOp55
 70
     1
102
RTVSPost2010Prop56
140
1.0
102
RTVSPost2010PropOp56
 70
     1
102
RTVSPost2010Prop57
140
1.0
102
RTVSPost2010PropOp57
 70
     1
  0
XRECORD
  5
29B
102
{ACAD_REACTORS
330
29A
102
}
330
29A
100
AcDbXrecord
280
     1
102
RTVSPropertyOp0
 70
     1
102
RTVSPropertyOp1
 70
     1
102
RTVSPropertyOp2
 70
     1
102
RTVSPropertyOp3
 70
     1
102
RTVSPropertyOp4
 70
     1
102
RTVSPropertyOp5
 70
     1
102
RTVSPropertyOp6
 70
     1
102
RTVSPropertyOp7
 70
     1
102
RTVSPropertyOp8
 70
     1
102
RTVSPropertyOp9
 70
     1
102
RTVSPropertyOp10
 70
     1
102
RTVSPropertyOp11
 70
     1
102
RTVSPropertyOp12
 70
     1
102
RTVSPropertyOp13
 70
     1
102
RTVSPropertyOp14
 70
     1
102
RTVSPropertyOp15
 70
     1
102
RTVSPropertyOp16
 70
     1
102
RTVSPropertyOp17
 70
     1
102
RTVSPropertyOp18
 70
     1
102
RTVSPropertyOp19
 70
     1
102
RTVSPropertyOp20
 70
     1
102
RTVSPropertyOp21
 70
     1
102
RTVSPropertyOp22
 70
     1
102
RTVSPropertyOp23
 70
     1
102
RTVSPropertyOp24
 70
     1
102
RTVSPropertyOp25
 70
     1
102
RTVSPropertyOp26
 70
     1
102
RTVSPropertyOp27
 70
     1
102
RTVSPropertyOp28
 70
     1
102
RTVSPropertyOp29
 70
     1
102
RTVSPropertyOp30
 70
     1
102
RTVSPropertyOp31
 70
     1
102
RTVSPropertyOp32
 70
     1
102
RTVSPropertyOp33
 70
     1
102
RTVSPropertyOp34
 70
     1
102
RTVSPropertyOp35
 70
     1
102
RTVSPropertyOp36
 70
     1
102
RTVSPropertyOp37
 70
     1
102
RTVSPropertyOp38
 70
     1
102
RTVSPropertyOp39
 70
     1
102
RTVSPropertyOp40
 70
     1
102
RTVSPropertyOp41
 70
     1
102
RTVSPropertyOp42
 70
     1
102
RTVSPropertyOp43
 70
     1
102
RTVSPropertyOp44
 70
     1
102
RTVSPropertyOp45
 70
     1
102
RTVSPropertyOp46
 70
     1
102
RTVSPropertyOp47
 70
     1
102
RTVSPropertyOp48
 70
     1
102
RTVSPropertyOp49
 70
     1
102
RTVSPropertyOp50
 70
     1
102
RTVSPropertyOp51
 70
     0
102
RTVSPropertyOp52
 70
     0
102
RTVSPropertyOp53
 70
     1
102
RTVSPropertyOp54
 70
     1
102
RTVSPropertyOp55
 70
     1
102
RTVSPropertyOp56
 70
     1
102
RTVSPropertyOp57
 70
     1
102
RTVSPost2010Prop28
280
     0
102
RTVSPost2010PropOp28
 70
     1
102
RTVSPost2010Prop29
280
     1
102
RTVSPost2010PropOp29
 70
     1
102
RTVSPost2010Prop30
280
     1
102
RTVSPost2010PropOp30
 70
     1
102
RTVSPost2010Prop31
280
     0
102
RTVSPost2010PropOp31
 70
     1
102
RTVSPost2010Prop32
280
     0
102
RTVSPost2010PropOp32
 70
     1
102
RTVSPost2010Prop33
280
     0
102
RTVSPost2010PropOp33
 70
     1
102
RTVSPost2010Prop34
280
     0
102
RTVSPost2010PropOp34
 70
     1
102
RTVSPost2010Prop35
280
     0
102
RTVSPost2010PropOp35
 70
     1
102
RTVSPost2010Prop36
280
     0
102
RTVSPost2010PropOp36
 70
     1
102
RTVSPost2010Prop37
 90
       50
102
RTVSPost2010PropOp37
 70
     1
102
RTVSPost2010Prop38
140
0.0
102
RTVSPost2010PropOp38
 70
     1
102
RTVSPost2010Prop39
140
1.0
102
RTVSPost2010PropOp39
 70
     1
102
RTVSPost2010Prop40
 90
        0
102
RTVSPost2010PropOp40
 70
     1
102
RTVSPost2010Prop41ColorIndex
 90
       18
102
RTVSPost2010Prop41ColorRGB
 90
        0
102
RTVSPost2010PropOp41
 70
     1
102
RTVSPost2010Prop42
 90
       50
102
RTVSPost2010PropOp42
 70
     1
102
RTVSPost2010Prop43
 90
        3
102
RTVSPost2010PropOp43
 70
     1
102
RTVSPost2010Prop44ColorIndex
 90
        5
102
RTVSPost2010Prop44ColorRGB
 90
      255
102
RTVSPost2010PropOp44
 70
     1
102
RTVSPost2010Prop45
280
     0
102
RTVSPost2010PropOp45
 70
     1
102
RTVSPost2010Prop46
 90
       50
102
RTVSPost2010PropOp46
 70
     1
102
RTVSPost2010Prop47
 90
       50
102
RTVSPost2010PropOp47
 70
     1
102
RTVSPost2010Prop48
 90
       50
102
RTVSPost2010PropOp48
 70
     1
102
RTVSPost2010Prop49
280
     0
102
RTVSPost2010PropOp49
 70
     1
102
RTVSPost2010Prop50
 90
       50
102
RTVSPost2010PropOp50
 70
     1
102
RTVSPost2010Prop51ColorIndex
 90
      256
102
RTVSPost2010Prop51ColorRGB
 90
-16777216
102
RTVSPost2010PropOp51
 70
     0
102
RTVSPost2010Prop52
140
1.0
102
RTVSPost2010PropOp52
 70
     0
102
RTVSPost2010Prop53
 90
        2
102
RTVSPost2010PropOp53
 70
     1
102
RTVSPost2010Prop54
  1
strokes_ogs.tif
102
RTVSPost2010PropOp54
 70
     1
102
RTVSPost2010Prop55
280
     0
102
RTVSPost2010PropOp55
 70
     1
102
RTVSPost2010Prop56
140
1.0
102
RTVSPost2010PropOp56
 70
     1
102
RTVSPost2010Prop57
140
1.0
102
RTVSPost2010PropOp57
 70
     1
  0
ENDSEC
  0
EOF
