  0
SECTION
  2
HEADER
  9
$ACADVER
  1
AC1018
  9
$ACADMAINTVER
 70
     0
  9
$DWGCODEPAGE
  3
ANSI_932
  9
$INSBASE
 10
0.0
 20
0.0
 30
0.0
  9
$EXTMIN
 10
-1260.0
 20
-891.0
 30
0.0
  9
$EXTMAX
 10
1260.0
 20
891.0
 30
0.0
  9
$LIMMIN
 10
-1260.0
 20
-891.0
  9
$LIMMAX
 10
1260.0
 20
891.0
  9
$ORTHOMODE
 70
     0
  9
$REGENMODE
 70
     1
  9
$FILLMODE
 70
     1
  9
$QTEXTMODE
 70
     0
  9
$MIRRTEXT
 70
     1
  9
$LTSCALE
 40
6.0
  9
$ATTMODE
 70
     1
  9
$TEXTSIZE
 40
2.5
  9
$TRACEWID
 40
1.0
  9
$TEXTSTYLE
  7
Standard
  9
$CLAYER
  8
0
  9
$CELTYPE
  6
ByLayer
  9
$CECOLOR
 62
   256
  9
$CELTSCALE
 40
1.0
  9
$DISPSILH
 70
     0
  9
$DIMSCALE
 40
1.0
  9
$DIMASZ
 40
2.5
  9
$DIMEXO
 40
0.625
  9
$DIMDLI
 40
3.75
  9
$DIMRND
 40
0.0
  9
$DIMDLE
 40
0.0
  9
$DIMEXE
 40
1.25
  9
$DIMTP
 40
0.0
  9
$DIMTM
 40
0.0
  9
$DIMTXT
 40
2.5
  9
$DIMCEN
 40
2.5
  9
$DIMTSZ
 40
0.0
  9
$DIMTOL
 70
     0
  9
$DIMLIM
 70
     0
  9
$DIMTIH
 70
     0
  9
$DIMTOH
 70
     0
  9
$DIMSE1
 70
     0
  9
$DIMSE2
 70
     0
  9
$DIMTAD
 70
     1
  9
$DIMZIN
 70
     8
  9
$DIMBLK
  1

  9
$DIMASO
 70
     1
  9
$DIMSHO
 70
     1
  9
$DIMPOST
  1

  9
$DIMAPOST
  1

  9
$DIMALT
 70
     0
  9
$DIMALTD
 70
     3
  9
$DIMALTF
 40
0.03937007874016
  9
$DIMLFAC
 40
1.0
  9
$DIMTOFL
 70
     1
  9
$DIMTVP
 40
0.0
  9
$DIMTIX
 70
     0
  9
$DIMSOXD
 70
     0
  9
$DIMSAH
 70
     0
  9
$DIMBLK1
  1

  9
$DIMBLK2
  1

  9
$DIMSTYLE
  2
ISO-25
  9
$DIMCLRD
 70
     0
  9
$DIMCLRE
 70
     0
  9
$DIMCLRT
 70
     0
  9
$DIMTFAC
 40
1.0
  9
$DIMGAP
 40
0.625
  9
$DIMJUST
 70
     0
  9
$DIMSD1
 70
     0
  9
$DIMSD2
 70
     0
  9
$DIMTOLJ
 70
     0
  9
$DIMTZIN
 70
     8
  9
$DIMALTZ
 70
     0
  9
$DIMALTTZ
 70
     0
  9
$DIMUPT
 70
     0
  9
$DIMDEC
 70
     2
  9
$DIMTDEC
 70
     2
  9
$DIMALTU
 70
     2
  9
$DIMALTTD
 70
     3
  9
$DIMTXSTY
  7
Standard
  9
$DIMAUNIT
 70
     0
  9
$DIMADEC
 70
     0
  9
$DIMALTRND
 40
0.0
  9
$DIMAZIN
 70
     0
  9
$DIMDSEP
 70
    44
  9
$DIMATFIT
 70
     3
  9
$DIMFRAC
 70
     0
  9
$DIMLDRBLK
  1

  9
$DIMLUNIT
 70
     2
  9
$DIMLWD
 70
    -2
  9
$DIMLWE
 70
    -2
  9
$DIMTMOVE
 70
     0
  9
$LUNITS
 70
     2
  9
$LUPREC
 70
     4
  9
$SKETCHINC
 40
1.0
  9
$FILLETRAD
 40
10.0
  9
$AUNITS
 70
     0
  9
$AUPREC
 70
     0
  9
$MENU
  1
.
  9
$ELEVATION
 40
0.0
  9
$PELEVATION
 40
0.0
  9
$THICKNESS
 40
0.0
  9
$LIMCHECK
 70
     0
  9
$CHAMFERA
 40
0.0
  9
$CHAMFERB
 40
0.0
  9
$CHAMFERC
 40
0.0
  9
$CHAMFERD
 40
0.0
  9
$SKPOLY
 70
     0
  9
$TDCREATE
 40
2459475.678062535
  9
$TDUCREATE
 40
2459475.303062535
  9
$TDUPDATE
 40
2459475.67806265
  9
$TDUUPDATE
 40
2459475.30306265
  9
$TDINDWG
 40
0.0000000116
  9
$TDUSRTIMER
 40
0.0000000116
  9
$USRTIMER
 70
     1
  9
$ANGBASE
 50
0.0
  9
$ANGDIR
 70
     0
  9
$PDMODE
 70
     0
  9
$PDSIZE
 40
0.0
  9
$PLINEWID
 40
0.0
  9
$SPLFRAME
 70
     0
  9
$SPLINETYPE
 70
     6
  9
$SPLINESEGS
 70
     8
  9
$HANDSEED
  5
45D
  9
$SURFTAB1
 70
     6
  9
$SURFTAB2
 70
     6
  9
$SURFTYPE
 70
     6
  9
$SURFU
 70
     6
  9
$SURFV
 70
     6
  9
$UCSBASE
  2

  9
$UCSNAME
  2

  9
$UCSORG
 10
0.0
 20
0.0
 30
0.0
  9
$UCSXDIR
 10
1.0
 20
0.0
 30
0.0
  9
$UCSYDIR
 10
0.0
 20
1.0
 30
0.0
  9
$UCSORTHOREF
  2

  9
$UCSORTHOVIEW
 70
     0
  9
$UCSORGTOP
 10
0.0
 20
0.0
 30
0.0
  9
$UCSORGBOTTOM
 10
0.0
 20
0.0
 30
0.0
  9
$UCSORGLEFT
 10
0.0
 20
0.0
 30
0.0
  9
$UCSORGRIGHT
 10
0.0
 20
0.0
 30
0.0
  9
$UCSORGFRONT
 10
0.0
 20
0.0
 30
0.0
  9
$UCSORGBACK
 10
0.0
 20
0.0
 30
0.0
  9
$PUCSBASE
  2

  9
$PUCSNAME
  2

  9
$PUCSORG
 10
0.0
 20
0.0
 30
0.0
  9
$PUCSXDIR
 10
1.0
 20
0.0
 30
0.0
  9
$PUCSYDIR
 10
0.0
 20
1.0
 30
0.0
  9
$PUCSORTHOREF
  2

  9
$PUCSORTHOVIEW
 70
     0
  9
$PUCSORGTOP
 10
0.0
 20
0.0
 30
0.0
  9
$PUCSORGBOTTOM
 10
0.0
 20
0.0
 30
0.0
  9
$PUCSORGLEFT
 10
0.0
 20
0.0
 30
0.0
  9
$PUCSORGRIGHT
 10
0.0
 20
0.0
 30
0.0
  9
$PUCSORGFRONT
 10
0.0
 20
0.0
 30
0.0
  9
$PUCSORGBACK
 10
0.0
 20
0.0
 30
0.0
  9
$USERI1
 70
     0
  9
$USERI2
 70
     0
  9
$USERI3
 70
     0
  9
$USERI4
 70
     0
  9
$USERI5
 70
     0
  9
$USERR1
 40
0.0
  9
$USERR2
 40
0.0
  9
$USERR3
 40
0.0
  9
$USERR4
 40
0.0
  9
$USERR5
 40
0.0
  9
$WORLDVIEW
 70
     1
  9
$SHADEDGE
 70
     3
  9
$SHADEDIF
 70
    70
  9
$TILEMODE
 70
     1
  9
$MAXACTVP
 70
    64
  9
$PINSBASE
 10
0.0
 20
0.0
 30
0.0
  9
$PLIMCHECK
 70
     0
  9
$PEXTMIN
 10
1.000000000000000E+20
 20
1.000000000000000E+20
 30
1.000000000000000E+20
  9
$PEXTMAX
 10
-1.000000000000000E+20
 20
-1.000000000000000E+20
 30
-1.000000000000000E+20
  9
$PLIMMIN
 10
0.0
 20
0.0
  9
$PLIMMAX
 10
420.0
 20
297.0
  9
$UNITMODE
 70
     0
  9
$VISRETAIN
 70
     1
  9
$PLINEGEN
 70
     0
  9
$PSLTSCALE
 70
     1
  9
$TREEDEPTH
 70
  3020
  9
$CMLSTYLE
  2
Standard
  9
$CMLJUST
 70
     0
  9
$CMLSCALE
 40
20.0
  9
$PROXYGRAPHICS
 70
     1
  9
$MEASUREMENT
 70
     1
  9
$CELWEIGHT
370
    -1
  9
$ENDCAPS
280
     0
  9
$JOINSTYLE
280
     0
  9
$LWDISPLAY
290
     0
  9
$INSUNITS
 70
     4
  9
$HYPERLINKBASE
  1

  9
$STYLESHEET
  1

  9
$XEDIT
290
     1
  9
$CEPSNTYPE
380
     0
  9
$PSTYLEMODE
290
     1
  9
$FINGERPRINTGUID
  2
{65F14486-F9DB-43F8-86A0-9AFDF2732FDC}
  9
$VERSIONGUID
  2
{FAEB1C32-E019-11D5-929B-00C0DF256EC4}
  9
$EXTNAMES
290
     1
  9
$PSVPSCALE
 40
0.0
  9
$OLESTARTUP
290
     0
  9
$SORTENTS
280
   127
  9
$INDEXCTL
280
     0
  9
$HIDETEXT
280
     1
  9
$XCLIPFRAME
290
     0
  9
$HALOGAP
280
     0
  9
$OBSCOLOR
 70
   257
  9
$OBSLTYPE
280
     0
  9
$INTERSECTIONDISPLAY
280
     0
  9
$INTERSECTIONCOLOR
 70
   257
  9
$DIMASSOC
280
     2
  9
$PROJECTNAME
  1

  0
ENDSEC
  0
SECTION
  2
CLASSES
  0
CLASS
  1
ACDBDICTIONARYWDFLT
  2
AcDbDictionaryWithDefault
  3
ObjectDBX Classes
 90
        0
 91
        4
280
     0
281
     0
  0
CLASS
  1
VISUALSTYLE
  2
AcDbVisualStyle
  3
ObjectDBX Classes
 90
     4095
 91
        4
280
     0
281
     0
  0
CLASS
  1
MATERIAL
  2
AcDbMaterial
  3
ObjectDBX Classes
 90
     1153
 91
        4
280
     0
281
     0
  0
CLASS
  1
SCALE
  2
AcDbScale
  3
ObjectDBX Classes
 90
     1153
 91
        4
280
     0
281
     0
  0
CLASS
  1
TABLESTYLE
  2
AcDbTableStyle
  3
ObjectDBX Classes
 90
     4095
 91
        4
280
     0
281
     0
  0
CLASS
  1
MLEADERSTYLE
  2
AcDbMLeaderStyle
  3
ACDB_MLEADERSTYLE_CLASS
 90
     4095
 91
        4
280
     0
281
     0
  0
CLASS
  1
SUN
  2
AcDbSun
  3
SCENEOE
 90
     1153
 91
        4
280
     0
281
     0
  0
CLASS
  1
DICTIONARYVAR
  2
AcDbDictionaryVar
  3
ObjectDBX Classes
 90
        0
 91
        4
280
     0
281
     0
  0
CLASS
  1
CELLSTYLEMAP
  2
AcDbCellStyleMap
  3
ObjectDBX Classes
 90
     1152
 91
        4
280
     0
281
     0
  0
ENDSEC
  0
SECTION
  2
TABLES
  0
TABLE
  2
VPORT
  5
8
102
{ACAD_XDICTIONARY
360
414
102
}
330
0
100
AcDbSymbolTable
 70
     1
  0
VPORT
  5
29
330
8
100
AcDbSymbolTableRecord
100
AcDbViewportTableRecord
  2
*Active
 70
     0
 10
0.0
 20
0.0
 11
1.0
 21
1.0
 12
0.0
 22
0.0
 13
0.0
 23
0.0
 14
10.0
 24
10.0
 15
10.0
 25
10.0
 16
0.0
 26
0.0
 36
1.0
 17
0.0
 27
0.0
 37
0.0
 40
1960.2
 41
1.414141414141414
 42
50.0
 43
0.0
 44
0.0
 50
0.0
 51
0.0
 71
     0
 72
 10000
 73
     1
 74
     3
 75
     0
 76
     0
 77
     0
 78
     0
281
     0
 65
     1
110
0.0
120
0.0
130
0.0
111
1.0
121
0.0
131
0.0
112
0.0
122
1.0
132
0.0
 79
     0
146
0.0
  0
ENDTAB
  0
TABLE
  2
LTYPE
  5
5
330
0
100
AcDbSymbolTable
 70
     4
  0
LTYPE
  5
14
330
5
100
AcDbSymbolTableRecord
100
AcDbLinetypeTableRecord
  2
ByBlock
 70
     0
  3

 72
    65
 73
     0
 40
0.0
  0
LTYPE
  5
15
330
5
100
AcDbSymbolTableRecord
100
AcDbLinetypeTableRecord
  2
ByLayer
 70
     0
  3

 72
    65
 73
     0
 40
0.0
  0
LTYPE
  5
16
330
5
100
AcDbSymbolTableRecord
100
AcDbLinetypeTableRecord
  2
Continuous
 70
     0
  3
Solid line
 72
    65
 73
     0
 40
0.0
  0
LTYPE
  5
6F
330
5
100
AcDbSymbolTableRecord
100
AcDbLinetypeTableRecord
  2
JWW_CENTER1
 70
     0
  3
-----  --  ----------  --  -----
 72
    65
 73
     4
 40
6.773333333333333
 49
4.233333333333333
 74
     0
 49
-0.8466666666666667
 74
     0
 49
0.8466666666666667
 74
     0
 49
-0.8466666666666667
 74
     0
  0
LTYPE
  5
70
330
5
100
AcDbSymbolTableRecord
100
AcDbLinetypeTableRecord
  2
JWW_DASHED3
 70
     0
  3
---  ------  ------  ------  ---
 72
    65
 73
     2
 40
3.386666666666667
 49
2.54
 74
     0
 49
-0.8466666666666667
 74
     0
  0
LTYPE
  5
71
330
5
100
AcDbSymbolTableRecord
100
AcDbLinetypeTableRecord
  2
JWW_CENTER2
 70
     0
  3
-------------  --  -------------
 72
    65
 73
     4
 40
13.54666666666667
 49
11.00666666666667
 74
     0
 49
-0.8466666666666667
 74
     0
 49
0.8466666666666667
 74
     0
 49
-0.8466666666666667
 74
     0
  0
ENDTAB
  0
TABLE
  2
LAYER
  5
2
330
0
100
AcDbSymbolTable
 70
     8
  0
LAYER
  5
10
330
2
100
AcDbSymbolTableRecord
100
AcDbLayerTableRecord
  2
0
 70
     0
 62
     7
  6
Continuous
370
    -3
390
F
  0
LAYER
  5
72
330
2
100
AcDbSymbolTableRecord
100
AcDbLayerTableRecord
  2
A-2
 70
     0
 62
     7
  6
Continuous
370
    -3
390
F
  0
LAYER
  5
73
330
2
100
AcDbSymbolTableRecord
100
AcDbLayerTableRecord
  2
A-1
 70
     0
 62
     7
  6
Continuous
370
    -3
390
F
  0
LAYER
  5
74
330
2
100
AcDbSymbolTableRecord
100
AcDbLayerTableRecord
  2
A-9
 70
     0
 62
     7
  6
Continuous
370
    -3
390
F
  0
LAYER
  5
75
330
2
100
AcDbSymbolTableRecord
100
AcDbLayerTableRecord
  2
A-4
 70
     0
 62
     7
  6
Continuous
370
    -3
390
F
  0
LAYER
  5
76
330
2
100
AcDbSymbolTableRecord
100
AcDbLayerTableRecord
  2
F-4ﾚｲﾔ
 70
     0
 62
     7
  6
Continuous
370
    -3
390
F
  0
LAYER
  5
77
330
2
100
AcDbSymbolTableRecord
100
AcDbLayerTableRecord
  2
F-5ﾚｲﾔ
 70
     0
 62
     7
  6
Continuous
370
    -3
390
F
  0
LAYER
  5
78
330
2
100
AcDbSymbolTableRecord
100
AcDbLayerTableRecord
  2
A-5
 70
     0
 62
     7
  6
Continuous
370
    -3
390
F
  0
ENDTAB
  0
TABLE
  2
STYLE
  5
3
330
0
100
AcDbSymbolTable
 70
     2
  0
STYLE
  5
11
330
3
100
AcDbSymbolTableRecord
100
AcDbTextStyleTableRecord
  2
Standard
 70
     0
 40
0.0
 41
1.0
 50
0.0
 71
     0
 42
2.5
  3
txt
  4

  0
STYLE
  5
6E
330
3
100
AcDbSymbolTableRecord
100
AcDbTextStyleTableRecord
  2
ＭＳ ゴシック
 70
     0
 40
1.0
 41
1.0
 50
0.0
 71
     0
 42
2.5
  3

  4

1001
ACAD
1000
MS Gothic
1071
    32817
  0
ENDTAB
  0
TABLE
  2
VIEW
  5
6
330
0
100
AcDbSymbolTable
 70
     0
  0
ENDTAB
  0
TABLE
  2
UCS
  5
7
330
0
100
AcDbSymbolTable
 70
     0
  0
ENDTAB
  0
TABLE
  2
APPID
  5
9
330
0
100
AcDbSymbolTable
 70
     2
  0
APPID
  5
12
330
9
100
AcDbSymbolTableRecord
100
AcDbRegAppTableRecord
  2
ACAD
 70
     0
  0
APPID
  5
453
330
9
100
AcDbSymbolTableRecord
100
AcDbRegAppTableRecord
  2
ACAD_MLEADERVER
 70
     0
  0
ENDTAB
  0
TABLE
  2
DIMSTYLE
  5
A
330
0
100
AcDbSymbolTable
 70
     1
100
AcDbDimStyleTable
  0
DIMSTYLE
105
27
330
A
100
AcDbSymbolTableRecord
100
AcDbDimStyleTableRecord
  2
ISO-25
 70
     0
 41
2.5
 42
0.625
 43
3.75
 44
1.25
 73
     0
 74
     0
 77
     1
 78
     8
140
2.5
141
2.5
143
0.03937007874016
147
0.625
171
     3
172
     1
178
     0
271
     2
272
     2
274
     3
278
    44
283
     0
284
     8
340
11
  0
ENDTAB
  0
TABLE
  2
BLOCK_RECORD
  5
1
330
0
100
AcDbSymbolTable
 70
     1
  0
BLOCK_RECORD
  5
1F
330
1
100
AcDbSymbolTableRecord
100
AcDbBlockTableRecord
  2
*Model_Space
340
22
  0
BLOCK_RECORD
  5
1B
330
1
100
AcDbSymbolTableRecord
100
AcDbBlockTableRecord
  2
*Paper_Space
340
1E
  0
BLOCK_RECORD
  5
23
330
1
100
AcDbSymbolTableRecord
100
AcDbBlockTableRecord
  2
*Paper_Space0
340
26
  0
ENDTAB
  0
ENDSEC
  0
SECTION
  2
BLOCKS
  0
BLOCK
  5
20
330
1F
100
AcDbEntity
  8
0
100
AcDbBlockBegin
  2
*Model_Space
 70
     0
 10
0.0
 20
0.0
 30
0.0
  3
*Model_Space
  1

  0
ENDBLK
  5
21
330
1F
100
AcDbEntity
  8
0
100
AcDbBlockEnd
  0
BLOCK
  5
1C
330
1B
100
AcDbEntity
 67
     1
  8
0
100
AcDbBlockBegin
  2
*Paper_Space
 70
     0
 10
0.0
 20
0.0
 30
0.0
  3
*Paper_Space
  1

  0
ENDBLK
  5
1D
330
1B
100
AcDbEntity
 67
     1
  8
0
100
AcDbBlockEnd
  0
BLOCK
  5
24
330
23
100
AcDbEntity
  8
0
100
AcDbBlockBegin
  2
*Paper_Space0
 70
     0
 10
0.0
 20
0.0
 30
0.0
  3
*Paper_Space0
  1

  0
ENDBLK
  5
25
330
23
100
AcDbEntity
  8
0
100
AcDbBlockEnd
  0
ENDSEC
  0
SECTION
  2
ENTITIES
  0
LINE
  5
79
330
1F
100
AcDbEntity
  8
A-2
  6
Continuous
 62
     3
370
     9
100
AcDbLine
 10
-867.559448763945
 20
-261.9227773305532
 30
0.0
 11
-867.559448763945
 21
-222.4228449641047
 31
0.0
  0
LINE
  5
7A
330
1F
100
AcDbEntity
  8
A-2
  6
Continuous
 62
     3
370
     9
100
AcDbLine
 10
-168.559963438776
 20
-222.4228449641047
 30
0.0
 11
-168.559963438776
 21
-261.9227773305532
 31
0.0
  0
LINE
  5
7B
330
1F
100
AcDbEntity
  8
A-2
  6
Continuous
 62
     3
370
     9
100
AcDbLine
 10
-867.559448763945
 20
388.5767459353886
 30
0.0
 11
-867.559448763945
 21
477.5777323954816
 31
0.0
  0
LINE
  5
7C
330
1F
100
AcDbEntity
  8
A-2
  6
Continuous
 62
     3
370
     9
100
AcDbLine
 10
-867.559448763945
 20
488.5772738070102
 30
0.0
 11
-867.559448763945
 21
529.0773331925677
 31
0.0
  0
LINE
  5
7D
330
1F
100
AcDbEntity
  8
A-2
  6
Continuous
 62
     3
370
     9
100
AcDbLine
 10
-168.559963438776
 20
529.0773331925677
 30
0.0
 11
-168.559963438776
 21
488.5772738070102
 31
0.0
  0
LINE
  5
7E
330
1F
100
AcDbEntity
  8
A-2
  6
Continuous
 62
     3
370
     9
100
AcDbLine
 10
-168.559963438776
 20
477.5777323954816
 30
0.0
 11
-168.559963438776
 21
388.5767459353886
 31
0.0
  0
LINE
  5
7F
330
1F
100
AcDbEntity
  8
A-2
  6
Continuous
 62
     3
370
     9
100
AcDbLine
 10
-627.8595190368546
 20
529.0773331925677
 30
0.0
 11
-627.8595190368546
 21
488.5772738070102
 31
0.0
  0
LINE
  5
80
330
1F
100
AcDbEntity
  8
A-2
  6
Continuous
 62
     3
370
     9
100
AcDbLine
 10
-620.8595949184003
 20
529.0773331925677
 30
0.0
 11
-620.8595949184003
 21
488.5772738070102
 31
0.0
  0
LINE
  5
81
330
1F
100
AcDbEntity
  8
A-2
  6
Continuous
 62
     3
370
     9
100
AcDbLine
 10
-627.8595190368546
 20
477.5777323954816
 30
0.0
 11
-627.8595190368546
 21
388.5767459353886
 31
0.0
  0
LINE
  5
82
330
1F
100
AcDbEntity
  8
A-2
  6
Continuous
 62
     3
370
     9
100
AcDbLine
 10
-620.8595949184003
 20
477.5777323954816
 30
0.0
 11
-620.8595949184003
 21
388.5767459353886
 31
0.0
  0
LINE
  5
83
330
1F
100
AcDbEntity
  8
A-2
  6
Continuous
 62
     3
370
     9
100
AcDbLine
 10
-627.8595190368546
 20
-222.4228449641047
 30
0.0
 11
-627.8595190368546
 21
-261.9227773305532
 31
0.0
  0
LINE
  5
84
330
1F
100
AcDbEntity
  8
A-2
  6
Continuous
 62
     3
370
     9
100
AcDbLine
 10
-620.8595949184003
 20
-222.4228449641047
 30
0.0
 11
-620.8595949184003
 21
-261.9227773305532
 31
0.0
  0
LINE
  5
85
330
1F
100
AcDbEntity
  8
A-2
  6
Continuous
 62
     3
370
     9
100
AcDbLine
 10
-663.159185158054
 20
529.0773331925677
 30
0.0
 11
-663.159185158054
 21
488.5772738070102
 31
0.0
  0
LINE
  5
86
330
1F
100
AcDbEntity
  8
A-2
  6
Continuous
 62
     3
370
     9
100
AcDbLine
 10
-656.1592610395996
 20
529.0773331925677
 30
0.0
 11
-656.1592610395996
 21
488.5772738070102
 31
0.0
  0
LINE
  5
87
330
1F
100
AcDbEntity
  8
A-2
  6
Continuous
 62
     3
370
     9
100
AcDbLine
 10
-663.159185158054
 20
477.5777323954816
 30
0.0
 11
-663.159185158054
 21
388.5767459353886
 31
0.0
  0
LINE
  5
88
330
1F
100
AcDbEntity
  8
A-2
  6
Continuous
 62
     3
370
     9
100
AcDbLine
 10
-656.1592610395996
 20
477.5777323954816
 30
0.0
 11
-656.1592610395996
 21
388.5767459353886
 31
0.0
  0
LINE
  5
89
330
1F
100
AcDbEntity
  8
A-2
  6
Continuous
 62
     3
370
     9
100
AcDbLine
 10
-663.159185158054
 20
-222.4228449641047
 30
0.0
 11
-663.159185158054
 21
-261.9227773305532
 31
0.0
  0
LINE
  5
8A
330
1F
100
AcDbEntity
  8
A-2
  6
Continuous
 62
     3
370
     9
100
AcDbLine
 10
-656.1592610395996
 20
-222.4228449641047
 30
0.0
 11
-656.1592610395996
 21
-261.9227773305532
 31
0.0
  0
LINE
  5
8B
330
1F
100
AcDbEntity
  8
A-2
  6
Continuous
 62
     3
370
     9
100
AcDbLine
 10
-698.4594451348277
 20
529.0773331925677
 30
0.0
 11
-698.4594451348277
 21
488.5772738070102
 31
0.0
  0
LINE
  5
8C
330
1F
100
AcDbEntity
  8
A-2
  6
Continuous
 62
     3
370
     9
100
AcDbLine
 10
-691.4593725524796
 20
529.0773331925677
 30
0.0
 11
-691.4593725524796
 21
488.5772738070102
 31
0.0
  0
LINE
  5
8D
330
1F
100
AcDbEntity
  8
A-2
  6
Continuous
 62
     3
370
     9
100
AcDbLine
 10
-698.4594451348277
 20
477.5777323954816
 30
0.0
 11
-698.4594451348277
 21
388.5767459353886
 31
0.0
  0
LINE
  5
8E
330
1F
100
AcDbEntity
  8
A-2
  6
Continuous
 62
     3
370
     9
100
AcDbLine
 10
-691.4593725524796
 20
477.5777323954816
 30
0.0
 11
-691.4593725524796
 21
388.5767459353886
 31
0.0
  0
LINE
  5
8F
330
1F
100
AcDbEntity
  8
A-2
  6
Continuous
 62
     3
370
     9
100
AcDbLine
 10
-698.4594451348277
 20
-222.4228449641047
 30
0.0
 11
-698.4594451348277
 21
-261.9227773305532
 31
0.0
  0
LINE
  5
90
330
1F
100
AcDbEntity
  8
A-2
  6
Continuous
 62
     3
370
     9
100
AcDbLine
 10
-691.4593725524796
 20
-222.4228449641047
 30
0.0
 11
-691.4593725524796
 21
-261.9227773305532
 31
0.0
  0
LINE
  5
91
330
1F
100
AcDbEntity
  8
A-2
  6
Continuous
 62
     3
370
     9
100
AcDbLine
 10
-733.7596308796545
 20
529.0773331925677
 30
0.0
 11
-733.7596308796545
 21
488.5772738070102
 31
0.0
  0
LINE
  5
92
330
1F
100
AcDbEntity
  8
A-2
  6
Continuous
 62
     3
370
     9
100
AcDbLine
 10
-726.7596325292533
 20
529.0773331925677
 30
0.0
 11
-726.7596325292533
 21
488.5772738070102
 31
0.0
  0
LINE
  5
93
330
1F
100
AcDbEntity
  8
A-2
  6
Continuous
 62
     3
370
     9
100
AcDbLine
 10
-733.7596308796545
 20
477.5777323954816
 30
0.0
 11
-733.7596308796545
 21
388.5767459353886
 31
0.0
  0
LINE
  5
94
330
1F
100
AcDbEntity
  8
A-2
  6
Continuous
 62
     3
370
     9
100
AcDbLine
 10
-726.7596325292533
 20
477.5777323954816
 30
0.0
 11
-726.7596325292533
 21
388.5767459353886
 31
0.0
  0
LINE
  5
95
330
1F
100
AcDbEntity
  8
A-2
  6
Continuous
 62
     3
370
     9
100
AcDbLine
 10
-733.7596308796545
 20
-222.4228449641047
 30
0.0
 11
-733.7596308796545
 21
-261.9227773305532
 31
0.0
  0
LINE
  5
96
330
1F
100
AcDbEntity
  8
A-2
  6
Continuous
 62
     3
370
     9
100
AcDbLine
 10
-726.7596325292533
 20
-222.4228449641047
 30
0.0
 11
-726.7596325292533
 21
-261.9227773305532
 31
0.0
  0
LINE
  5
97
330
1F
100
AcDbEntity
  8
A-2
  6
Continuous
 62
     3
370
     9
100
AcDbLine
 10
-769.0592227689069
 20
529.0773331925677
 30
0.0
 11
-769.0592227689069
 21
488.5772738070102
 31
0.0
  0
LINE
  5
98
330
1F
100
AcDbEntity
  8
A-2
  6
Continuous
 62
     3
370
     9
100
AcDbLine
 10
-762.0592986504527
 20
529.0773331925677
 30
0.0
 11
-762.0592986504527
 21
488.5772738070102
 31
0.0
  0
LINE
  5
99
330
1F
100
AcDbEntity
  8
A-2
  6
Continuous
 62
     3
370
     9
100
AcDbLine
 10
-769.0592227689069
 20
477.5777323954816
 30
0.0
 11
-769.0592227689069
 21
388.5767459353886
 31
0.0
  0
LINE
  5
9A
330
1F
100
AcDbEntity
  8
A-2
  6
Continuous
 62
     3
370
     9
100
AcDbLine
 10
-762.0592986504527
 20
477.5777323954816
 30
0.0
 11
-762.0592986504527
 21
388.5767459353886
 31
0.0
  0
LINE
  5
9B
330
1F
100
AcDbEntity
  8
A-2
  6
Continuous
 62
     3
370
     9
100
AcDbLine
 10
-769.0592227689069
 20
-222.4228449641047
 30
0.0
 11
-769.0592227689069
 21
-261.9227773305532
 31
0.0
  0
LINE
  5
9C
330
1F
100
AcDbEntity
  8
A-2
  6
Continuous
 62
     3
370
     9
100
AcDbLine
 10
-762.0592986504527
 20
-222.4228449641047
 30
0.0
 11
-762.0592986504527
 21
-261.9227773305532
 31
0.0
  0
LINE
  5
9D
330
1F
100
AcDbEntity
  8
A-2
  6
Continuous
 62
     3
370
     9
100
AcDbLine
 10
-804.3593342817871
 20
529.0773331925677
 30
0.0
 11
-804.3593342817871
 21
488.5772738070102
 31
0.0
  0
LINE
  5
9E
330
1F
100
AcDbEntity
  8
A-2
  6
Continuous
 62
     3
370
     9
100
AcDbLine
 10
-797.3594101633328
 20
529.0773331925677
 30
0.0
 11
-797.3594101633328
 21
488.5772738070102
 31
0.0
  0
LINE
  5
9F
330
1F
100
AcDbEntity
  8
A-2
  6
Continuous
 62
     3
370
     9
100
AcDbLine
 10
-804.3593342817871
 20
477.5777323954816
 30
0.0
 11
-804.3593342817871
 21
388.5767459353886
 31
0.0
  0
LINE
  5
A0
330
1F
100
AcDbEntity
  8
A-2
  6
Continuous
 62
     3
370
     9
100
AcDbLine
 10
-797.3594101633328
 20
477.5777323954816
 30
0.0
 11
-797.3594101633328
 21
388.5767459353886
 31
0.0
  0
LINE
  5
A1
330
1F
100
AcDbEntity
  8
A-2
  6
Continuous
 62
     3
370
     9
100
AcDbLine
 10
-804.3593342817871
 20
-222.4228449641047
 30
0.0
 11
-804.3593342817871
 21
-261.9227773305532
 31
0.0
  0
LINE
  5
A2
330
1F
100
AcDbEntity
  8
A-2
  6
Continuous
 62
     3
370
     9
100
AcDbLine
 10
-797.3594101633328
 20
-222.4228449641047
 30
0.0
 11
-797.3594101633328
 21
-261.9227773305532
 31
0.0
  0
LINE
  5
A3
330
1F
100
AcDbEntity
  8
A-2
  6
Continuous
 62
     3
370
     9
100
AcDbLine
 10
-839.6595942585607
 20
529.0773331925677
 30
0.0
 11
-839.6595942585607
 21
488.5772738070102
 31
0.0
  0
LINE
  5
A4
330
1F
100
AcDbEntity
  8
A-2
  6
Continuous
 62
     3
370
     9
100
AcDbLine
 10
-832.6595959081594
 20
529.0773331925677
 30
0.0
 11
-832.6595959081594
 21
488.5772738070102
 31
0.0
  0
LINE
  5
A5
330
1F
100
AcDbEntity
  8
A-2
  6
Continuous
 62
     3
370
     9
100
AcDbLine
 10
-839.6595942585607
 20
477.5777323954816
 30
0.0
 11
-839.6595942585607
 21
388.5767459353886
 31
0.0
  0
LINE
  5
A6
330
1F
100
AcDbEntity
  8
A-2
  6
Continuous
 62
     3
370
     9
100
AcDbLine
 10
-832.6595959081594
 20
477.5777323954816
 30
0.0
 11
-832.6595959081594
 21
388.5767459353886
 31
0.0
  0
LINE
  5
A7
330
1F
100
AcDbEntity
  8
A-2
  6
Continuous
 62
     3
370
     9
100
AcDbLine
 10
-839.6595942585607
 20
-222.4228449641047
 30
0.0
 11
-839.6595942585607
 21
-261.9227773305532
 31
0.0
  0
LINE
  5
A8
330
1F
100
AcDbEntity
  8
A-2
  6
Continuous
 62
     3
370
     9
100
AcDbLine
 10
-832.6595959081594
 20
-222.4228449641047
 30
0.0
 11
-832.6595959081594
 21
-261.9227773305532
 31
0.0
  0
LINE
  5
A9
330
1F
100
AcDbEntity
  8
A-1
  6
Continuous
 62
     2
370
     9
100
AcDbLine
 10
-823.0600690131004
 20
-287.0235678183066
 30
0.0
 11
-823.0600690131004
 21
-280.9231864310599
 31
0.0
  0
LINE
  5
AA
330
1F
100
AcDbEntity
  8
A-1
  6
Continuous
 62
     2
370
     9
100
AcDbLine
 10
-723.0601349970531
 20
-297.0233533704603
 30
0.0
 11
-813.0600607651063
 21
-297.0233533704603
 31
0.0
  0
LINE
  5
AB
330
1F
100
AcDbEntity
  8
A-1
  6
Continuous
 62
     2
370
     9
100
AcDbLine
 10
-713.0600525171122
 20
-287.0235678183066
 30
0.0
 11
-713.0600525171122
 21
-280.9231864310599
 31
0.0
  0
LINE
  5
AC
330
1F
100
AcDbEntity
  8
A-1
  6
Continuous
 62
     2
370
     9
100
AcDbLine
 10
-722.060082209891
 20
-287.0235678183066
 30
0.0
 11
-722.060082209891
 21
-280.9231864310599
 31
0.0
  0
LINE
  5
AD
330
1F
100
AcDbEntity
  8
A-1
  6
Continuous
 62
     2
370
     9
100
AcDbLine
 10
-813.0600607651063
 20
-288.0234721415752
 30
0.0
 11
-723.0599865331595
 21
-288.0234721415752
 31
0.0
  0
LINE
  5
AE
330
1F
100
AcDbEntity
  8
A-1
  6
Continuous
 62
     2
370
     9
100
AcDbLine
 10
-814.0601877842154
 20
-287.0235678183066
 30
0.0
 11
-814.0601877842154
 21
-280.9231864310599
 31
0.0
  0
LINE
  5
AF
330
1F
100
AcDbEntity
  8
A-1
  6
JWW_CENTER1
 62
     2
370
     9
100
AcDbLine
 10
-818.5601283986579
 20
-272.8160928262246
 30
0.0
 11
-818.5601283986579
 21
-288.4131898622255
 31
0.0
  0
LINE
  5
B0
330
1F
100
AcDbEntity
  8
A-1
  6
JWW_CENTER1
 62
     2
370
     9
100
AcDbLine
 10
-810.3971381378892
 20
-280.9231864310599
 30
0.0
 11
-826.8041799453216
 21
-280.9231864310599
 31
0.0
  0
LINE
  5
B1
330
1F
100
AcDbEntity
  8
A-1
  6
JWW_CENTER1
 62
     2
370
     9
100
AcDbLine
 10
-717.559918899608
 20
-272.8160928262246
 30
0.0
 11
-717.559918899608
 21
-288.4131898622255
 31
0.0
  0
LINE
  5
B2
330
1F
100
AcDbEntity
  8
A-1
  6
JWW_CENTER1
 62
     2
370
     9
100
AcDbLine
 10
-709.3972255666266
 20
-280.9231864310599
 30
0.0
 11
-725.8041189101655
 21
-280.9231864310599
 31
0.0
  0
LINE
  5
B3
330
1F
100
AcDbEntity
  8
A-1
  6
Continuous
 62
     2
370
     9
100
AcDbLine
 10
-823.0600690131004
 20
554.1773813608531
 30
0.0
 11
-823.0600690131004
 21
548.0772969013935
 31
0.0
  0
LINE
  5
B4
330
1F
100
AcDbEntity
  8
A-1
  6
Continuous
 62
     2
370
     9
100
AcDbLine
 10
-723.0601349970531
 20
564.1771669130069
 30
0.0
 11
-813.0600607651063
 21
564.1771669130069
 31
0.0
  0
LINE
  5
B5
330
1F
100
AcDbEntity
  8
A-1
  6
Continuous
 62
     2
370
     9
100
AcDbLine
 10
-713.0600525171122
 20
554.1773813608531
 30
0.0
 11
-713.0600525171122
 21
548.0772969013935
 31
0.0
  0
LINE
  5
B6
330
1F
100
AcDbEntity
  8
A-1
  6
Continuous
 62
     2
370
     9
100
AcDbLine
 10
-722.060082209891
 20
554.1773813608531
 30
0.0
 11
-722.060082209891
 21
548.0772969013935
 31
0.0
  0
LINE
  5
B7
330
1F
100
AcDbEntity
  8
A-1
  6
Continuous
 62
     2
370
     9
100
AcDbLine
 10
-813.0600607651063
 20
555.1772856841217
 30
0.0
 11
-723.0599865331595
 21
555.1772856841217
 31
0.0
  0
LINE
  5
B8
330
1F
100
AcDbEntity
  8
A-1
  6
Continuous
 62
     2
370
     9
100
AcDbLine
 10
-814.0601877842154
 20
554.1773813608531
 30
0.0
 11
-814.0601877842154
 21
548.0772969013935
 31
0.0
  0
LINE
  5
B9
330
1F
100
AcDbEntity
  8
A-1
  6
JWW_CENTER1
 62
     2
370
     9
100
AcDbLine
 10
-818.5601283986579
 20
539.9698321368244
 30
0.0
 11
-818.5601283986579
 21
555.5674487964528
 31
0.0
  0
LINE
  5
BA
330
1F
100
AcDbEntity
  8
A-1
  6
JWW_CENTER1
 62
     2
370
     9
100
AcDbLine
 10
-717.559918899608
 20
539.9698321368244
 30
0.0
 11
-717.559918899608
 21
555.5674487964528
 31
0.0
  0
LINE
  5
BB
330
1F
100
AcDbEntity
  8
A-1
  6
JWW_CENTER1
 62
     2
370
     9
100
AcDbLine
 10
-709.3972255666266
 20
548.0772969013935
 30
0.0
 11
-725.8041189101655
 21
548.0772969013935
 31
0.0
  0
LINE
  5
BC
330
1F
100
AcDbEntity
  8
A-2
  6
Continuous
 62
     3
370
     9
100
AcDbLine
 10
-867.559448763945
 20
477.5777323954816
 30
0.0
 11
-832.6595959081594
 21
488.5772738070102
 31
0.0
  0
LINE
  5
BD
330
1F
100
AcDbEntity
  8
A-2
  6
Continuous
 62
     3
370
     9
100
AcDbLine
 10
-832.2594114830117
 20
477.5777323954816
 30
0.0
 11
-797.3594843952794
 21
488.5772738070102
 31
0.0
  0
LINE
  5
BE
330
1F
100
AcDbEntity
  8
A-2
  6
Continuous
 62
     3
370
     9
100
AcDbLine
 10
-796.9594484340254
 20
477.5777323954816
 30
0.0
 11
-762.0596698101865
 21
488.5772738070102
 31
0.0
  0
LINE
  5
BF
330
1F
100
AcDbEntity
  8
A-2
  6
Continuous
 62
     3
370
     9
100
AcDbLine
 10
-761.659411153092
 20
477.5777323954816
 30
0.0
 11
-726.7596325292533
 21
488.5772738070102
 31
0.0
  0
LINE
  5
C0
330
1F
100
AcDbEntity
  8
A-2
  6
Continuous
 62
     3
370
     9
100
AcDbLine
 10
-726.3593738721587
 20
477.5777323954816
 30
0.0
 11
-691.4595952483199
 21
488.5772738070102
 31
0.0
  0
LINE
  5
C1
330
1F
100
AcDbEntity
  8
A-2
  6
Continuous
 62
     3
370
     9
100
AcDbLine
 10
-691.0594108231722
 20
477.5777323954816
 30
0.0
 11
-656.1596321993335
 21
488.5772738070102
 31
0.0
  0
LINE
  5
C2
330
1F
100
AcDbEntity
  8
A-2
  6
Continuous
 62
     3
370
     9
100
AcDbLine
 10
-874.5598925060269
 20
486.496997730152
 30
0.0
 11
-867.959558957146
 21
488.5772738070102
 31
0.0
  0
LINE
  5
C3
330
1F
100
AcDbEntity
  8
A-2
  6
Continuous
 62
     3
370
     9
100
AcDbLine
 10
-867.559448763945
 20
-222.4224738043708
 30
0.0
 11
-832.6595959081594
 21
-211.4227839289484
 31
0.0
  0
LINE
  5
C4
330
1F
100
AcDbEntity
  8
A-2
  6
Continuous
 62
     3
370
     9
100
AcDbLine
 10
-832.2594114830117
 20
-222.4224738043708
 30
0.0
 11
-797.3594843952794
 21
-211.4227839289484
 31
0.0
  0
LINE
  5
C5
330
1F
100
AcDbEntity
  8
A-2
  6
Continuous
 62
     3
370
     9
100
AcDbLine
 10
-796.9594484340254
 20
-222.4224738043708
 30
0.0
 11
-762.0596698101865
 21
-211.4227839289484
 31
0.0
  0
LINE
  5
C6
330
1F
100
AcDbEntity
  8
A-2
  6
Continuous
 62
     3
370
     9
100
AcDbLine
 10
-761.659411153092
 20
-222.4224738043708
 30
0.0
 11
-726.7596325292533
 21
-211.4227839289484
 31
0.0
  0
LINE
  5
C7
330
1F
100
AcDbEntity
  8
A-2
  6
Continuous
 62
     3
370
     9
100
AcDbLine
 10
-726.3593738721587
 20
-222.4224738043708
 30
0.0
 11
-691.4595952483199
 21
-211.4227839289484
 31
0.0
  0
LINE
  5
C8
330
1F
100
AcDbEntity
  8
A-2
  6
Continuous
 62
     3
370
     9
100
AcDbLine
 10
-691.0594108231722
 20
-222.4224738043708
 30
0.0
 11
-656.1596321993335
 21
-211.4227839289484
 31
0.0
  0
LINE
  5
C9
330
1F
100
AcDbEntity
  8
A-2
  6
Continuous
 62
     3
370
     9
100
AcDbLine
 10
-874.5598925060269
 20
-213.5030600058066
 30
0.0
 11
-867.959558957146
 21
-211.4227839289484
 31
0.0
  0
LINE
  5
CA
330
1F
100
AcDbEntity
  8
A-1
  6
Continuous
 62
     2
370
     9
100
AcDbLine
 10
-891.5600475683159
 20
543.5772078230575
 30
0.0
 11
-144.5600327219265
 21
543.5772078230575
 31
0.0
  0
LINE
  5
CB
330
1F
100
AcDbEntity
  8
A-2
  6
Continuous
 62
     3
370
     9
100
AcDbLine
 10
-867.559448763945
 20
288.5768119193413
 30
0.0
 11
-867.559448763945
 21
377.5776499155406
 31
0.0
  0
LINE
  5
CC
330
1F
100
AcDbEntity
  8
A-2
  6
Continuous
 62
     3
370
     9
100
AcDbLine
 10
-168.559963438776
 20
377.5776499155406
 30
0.0
 11
-168.559963438776
 21
288.5768119193413
 31
0.0
  0
LINE
  5
CD
330
1F
100
AcDbEntity
  8
A-2
  6
Continuous
 62
     3
370
     9
100
AcDbLine
 10
-627.8595190368546
 20
377.5776499155406
 30
0.0
 11
-627.8595190368546
 21
288.5768119193413
 31
0.0
  0
LINE
  5
CE
330
1F
100
AcDbEntity
  8
A-2
  6
Continuous
 62
     3
370
     9
100
AcDbLine
 10
-620.8595949184003
 20
377.5776499155406
 30
0.0
 11
-620.8595949184003
 21
288.5768119193413
 31
0.0
  0
LINE
  5
CF
330
1F
100
AcDbEntity
  8
A-2
  6
Continuous
 62
     3
370
     9
100
AcDbLine
 10
-663.159185158054
 20
377.5776499155406
 30
0.0
 11
-663.159185158054
 21
288.5768119193413
 31
0.0
  0
LINE
  5
D0
330
1F
100
AcDbEntity
  8
A-2
  6
Continuous
 62
     3
370
     9
100
AcDbLine
 10
-656.1592610395996
 20
377.5776499155406
 30
0.0
 11
-656.1592610395996
 21
288.5768119193413
 31
0.0
  0
LINE
  5
D1
330
1F
100
AcDbEntity
  8
A-2
  6
Continuous
 62
     3
370
     9
100
AcDbLine
 10
-698.4594451348277
 20
377.5776499155406
 30
0.0
 11
-698.4594451348277
 21
288.5768119193413
 31
0.0
  0
LINE
  5
D2
330
1F
100
AcDbEntity
  8
A-2
  6
Continuous
 62
     3
370
     9
100
AcDbLine
 10
-691.4593725524796
 20
377.5776499155406
 30
0.0
 11
-691.4593725524796
 21
288.5768119193413
 31
0.0
  0
LINE
  5
D3
330
1F
100
AcDbEntity
  8
A-2
  6
Continuous
 62
     3
370
     9
100
AcDbLine
 10
-733.7596308796545
 20
377.5776499155406
 30
0.0
 11
-733.7596308796545
 21
288.5768119193413
 31
0.0
  0
LINE
  5
D4
330
1F
100
AcDbEntity
  8
A-2
  6
Continuous
 62
     3
370
     9
100
AcDbLine
 10
-726.7596325292533
 20
377.5776499155406
 30
0.0
 11
-726.7596325292533
 21
288.5768119193413
 31
0.0
  0
LINE
  5
D5
330
1F
100
AcDbEntity
  8
A-2
  6
Continuous
 62
     3
370
     9
100
AcDbLine
 10
-769.0592227689069
 20
377.5776499155406
 30
0.0
 11
-769.0592227689069
 21
288.5768119193413
 31
0.0
  0
LINE
  5
D6
330
1F
100
AcDbEntity
  8
A-2
  6
Continuous
 62
     3
370
     9
100
AcDbLine
 10
-762.0592986504527
 20
377.5776499155406
 30
0.0
 11
-762.0592986504527
 21
288.5768119193413
 31
0.0
  0
LINE
  5
D7
330
1F
100
AcDbEntity
  8
A-2
  6
Continuous
 62
     3
370
     9
100
AcDbLine
 10
-804.3593342817871
 20
377.5776499155406
 30
0.0
 11
-804.3593342817871
 21
288.5768119193413
 31
0.0
  0
LINE
  5
D8
330
1F
100
AcDbEntity
  8
A-2
  6
Continuous
 62
     3
370
     9
100
AcDbLine
 10
-797.3594101633328
 20
377.5776499155406
 30
0.0
 11
-797.3594101633328
 21
288.5768119193413
 31
0.0
  0
LINE
  5
D9
330
1F
100
AcDbEntity
  8
A-2
  6
Continuous
 62
     3
370
     9
100
AcDbLine
 10
-839.6595942585607
 20
377.5776499155406
 30
0.0
 11
-839.6595942585607
 21
288.5768119193413
 31
0.0
  0
LINE
  5
DA
330
1F
100
AcDbEntity
  8
A-2
  6
Continuous
 62
     3
370
     9
100
AcDbLine
 10
-832.6595959081594
 20
377.5776499155406
 30
0.0
 11
-832.6595959081594
 21
288.5768119193413
 31
0.0
  0
LINE
  5
DB
330
1F
100
AcDbEntity
  8
A-2
  6
Continuous
 62
     3
370
     9
100
AcDbLine
 10
-867.559448763945
 20
377.5776499155406
 30
0.0
 11
-832.6595959081594
 21
388.577339790963
 31
0.0
  0
LINE
  5
DC
330
1F
100
AcDbEntity
  8
A-2
  6
Continuous
 62
     3
370
     9
100
AcDbLine
 10
-832.2594114830117
 20
377.5776499155406
 30
0.0
 11
-797.3594843952794
 21
388.577339790963
 31
0.0
  0
LINE
  5
DD
330
1F
100
AcDbEntity
  8
A-2
  6
Continuous
 62
     3
370
     9
100
AcDbLine
 10
-796.9594484340254
 20
377.5776499155406
 30
0.0
 11
-762.0596698101865
 21
388.577339790963
 31
0.0
  0
LINE
  5
DE
330
1F
100
AcDbEntity
  8
A-2
  6
Continuous
 62
     3
370
     9
100
AcDbLine
 10
-761.659411153092
 20
377.5776499155406
 30
0.0
 11
-726.7596325292533
 21
388.577339790963
 31
0.0
  0
LINE
  5
DF
330
1F
100
AcDbEntity
  8
A-2
  6
Continuous
 62
     3
370
     9
100
AcDbLine
 10
-726.3593738721587
 20
377.5776499155406
 30
0.0
 11
-691.4595952483199
 21
388.577339790963
 31
0.0
  0
LINE
  5
E0
330
1F
100
AcDbEntity
  8
A-2
  6
Continuous
 62
     3
370
     9
100
AcDbLine
 10
-691.0594108231722
 20
377.5776499155406
 30
0.0
 11
-656.1596321993335
 21
388.577339790963
 31
0.0
  0
LINE
  5
E1
330
1F
100
AcDbEntity
  8
A-2
  6
Continuous
 62
     3
370
     9
100
AcDbLine
 10
-874.5598925060269
 20
386.4970637141049
 30
0.0
 11
-867.959558957146
 21
388.577339790963
 31
0.0
  0
LINE
  5
E2
330
1F
100
AcDbEntity
  8
A-2
  6
Continuous
 62
     3
370
     9
100
AcDbLine
 10
-867.559448763945
 20
188.5768036713472
 30
0.0
 11
-867.559448763945
 21
277.5777158994933
 31
0.0
  0
LINE
  5
E3
330
1F
100
AcDbEntity
  8
A-2
  6
Continuous
 62
     3
370
     9
100
AcDbLine
 10
-168.559963438776
 20
277.5777158994933
 30
0.0
 11
-168.559963438776
 21
188.5768036713472
 31
0.0
  0
LINE
  5
E4
330
1F
100
AcDbEntity
  8
A-2
  6
Continuous
 62
     3
370
     9
100
AcDbLine
 10
-627.8595190368546
 20
277.5777158994933
 30
0.0
 11
-627.8595190368546
 21
188.5768036713472
 31
0.0
  0
LINE
  5
E5
330
1F
100
AcDbEntity
  8
A-2
  6
Continuous
 62
     3
370
     9
100
AcDbLine
 10
-620.8595949184003
 20
277.5777158994933
 30
0.0
 11
-620.8595949184003
 21
188.5768036713472
 31
0.0
  0
LINE
  5
E6
330
1F
100
AcDbEntity
  8
A-2
  6
Continuous
 62
     3
370
     9
100
AcDbLine
 10
-663.159185158054
 20
277.5777158994933
 30
0.0
 11
-663.159185158054
 21
188.5768036713472
 31
0.0
  0
LINE
  5
E7
330
1F
100
AcDbEntity
  8
A-2
  6
Continuous
 62
     3
370
     9
100
AcDbLine
 10
-656.1592610395996
 20
277.5777158994933
 30
0.0
 11
-656.1592610395996
 21
188.5768036713472
 31
0.0
  0
LINE
  5
E8
330
1F
100
AcDbEntity
  8
A-2
  6
Continuous
 62
     3
370
     9
100
AcDbLine
 10
-698.4594451348277
 20
277.5777158994933
 30
0.0
 11
-698.4594451348277
 21
188.5768036713472
 31
0.0
  0
LINE
  5
E9
330
1F
100
AcDbEntity
  8
A-2
  6
Continuous
 62
     3
370
     9
100
AcDbLine
 10
-691.4593725524796
 20
277.5777158994933
 30
0.0
 11
-691.4593725524796
 21
188.5768036713472
 31
0.0
  0
LINE
  5
EA
330
1F
100
AcDbEntity
  8
A-2
  6
Continuous
 62
     3
370
     9
100
AcDbLine
 10
-733.7596308796545
 20
277.5777158994933
 30
0.0
 11
-733.7596308796545
 21
188.5768036713472
 31
0.0
  0
LINE
  5
EB
330
1F
100
AcDbEntity
  8
A-2
  6
Continuous
 62
     3
370
     9
100
AcDbLine
 10
-726.7596325292533
 20
277.5777158994933
 30
0.0
 11
-726.7596325292533
 21
188.5768036713472
 31
0.0
  0
LINE
  5
EC
330
1F
100
AcDbEntity
  8
A-2
  6
Continuous
 62
     3
370
     9
100
AcDbLine
 10
-769.0592227689069
 20
277.5777158994933
 30
0.0
 11
-769.0592227689069
 21
188.5768036713472
 31
0.0
  0
LINE
  5
ED
330
1F
100
AcDbEntity
  8
A-2
  6
Continuous
 62
     3
370
     9
100
AcDbLine
 10
-762.0592986504527
 20
277.5777158994933
 30
0.0
 11
-762.0592986504527
 21
188.5768036713472
 31
0.0
  0
LINE
  5
EE
330
1F
100
AcDbEntity
  8
A-2
  6
Continuous
 62
     3
370
     9
100
AcDbLine
 10
-804.3593342817871
 20
277.5777158994933
 30
0.0
 11
-804.3593342817871
 21
188.5768036713472
 31
0.0
  0
LINE
  5
EF
330
1F
100
AcDbEntity
  8
A-2
  6
Continuous
 62
     3
370
     9
100
AcDbLine
 10
-797.3594101633328
 20
277.5777158994933
 30
0.0
 11
-797.3594101633328
 21
188.5768036713472
 31
0.0
  0
LINE
  5
F0
330
1F
100
AcDbEntity
  8
A-2
  6
Continuous
 62
     3
370
     9
100
AcDbLine
 10
-839.6595942585607
 20
277.5777158994933
 30
0.0
 11
-839.6595942585607
 21
188.5768036713472
 31
0.0
  0
LINE
  5
F1
330
1F
100
AcDbEntity
  8
A-2
  6
Continuous
 62
     3
370
     9
100
AcDbLine
 10
-832.6595959081594
 20
277.5777158994933
 30
0.0
 11
-832.6595959081594
 21
188.5768036713472
 31
0.0
  0
LINE
  5
F2
330
1F
100
AcDbEntity
  8
A-2
  6
Continuous
 62
     3
370
     9
100
AcDbLine
 10
-867.559448763945
 20
277.5777158994933
 30
0.0
 11
-832.6595959081594
 21
288.5773315429688
 31
0.0
  0
LINE
  5
F3
330
1F
100
AcDbEntity
  8
A-2
  6
Continuous
 62
     3
370
     9
100
AcDbLine
 10
-832.2594114830117
 20
277.5777158994933
 30
0.0
 11
-797.3594843952794
 21
288.5773315429688
 31
0.0
  0
LINE
  5
F4
330
1F
100
AcDbEntity
  8
A-2
  6
Continuous
 62
     3
370
     9
100
AcDbLine
 10
-796.9594484340254
 20
277.5777158994933
 30
0.0
 11
-762.0596698101865
 21
288.5773315429688
 31
0.0
  0
LINE
  5
F5
330
1F
100
AcDbEntity
  8
A-2
  6
Continuous
 62
     3
370
     9
100
AcDbLine
 10
-761.659411153092
 20
277.5777158994933
 30
0.0
 11
-726.7596325292533
 21
288.5773315429688
 31
0.0
  0
LINE
  5
F6
330
1F
100
AcDbEntity
  8
A-2
  6
Continuous
 62
     3
370
     9
100
AcDbLine
 10
-726.3593738721587
 20
277.5777158994933
 30
0.0
 11
-691.4595952483199
 21
288.5773315429688
 31
0.0
  0
LINE
  5
F7
330
1F
100
AcDbEntity
  8
A-2
  6
Continuous
 62
     3
370
     9
100
AcDbLine
 10
-691.0594108231722
 20
277.5777158994933
 30
0.0
 11
-656.1596321993335
 21
288.5773315429688
 31
0.0
  0
LINE
  5
F8
330
1F
100
AcDbEntity
  8
A-2
  6
Continuous
 62
     3
370
     9
100
AcDbLine
 10
-874.5598925060269
 20
286.4970554661106
 30
0.0
 11
-867.959558957146
 21
288.5773315429688
 31
0.0
  0
LINE
  5
F9
330
1F
100
AcDbEntity
  8
A-2
  6
Continuous
 62
     3
370
     9
100
AcDbLine
 10
-867.559448763945
 20
88.57679542335313
 30
0.0
 11
-867.559448763945
 21
177.5777076514992
 31
0.0
  0
LINE
  5
FA
330
1F
100
AcDbEntity
  8
A-2
  6
Continuous
 62
     3
370
     9
100
AcDbLine
 10
-168.559963438776
 20
177.5777076514992
 30
0.0
 11
-168.559963438776
 21
88.57679542335313
 31
0.0
  0
LINE
  5
FB
330
1F
100
AcDbEntity
  8
A-2
  6
Continuous
 62
     3
370
     9
100
AcDbLine
 10
-627.8595190368546
 20
177.5777076514992
 30
0.0
 11
-627.8595190368546
 21
88.57679542335313
 31
0.0
  0
LINE
  5
FC
330
1F
100
AcDbEntity
  8
A-2
  6
Continuous
 62
     3
370
     9
100
AcDbLine
 10
-620.8595949184003
 20
177.5777076514992
 30
0.0
 11
-620.8595949184003
 21
88.57679542335313
 31
0.0
  0
LINE
  5
FD
330
1F
100
AcDbEntity
  8
A-2
  6
Continuous
 62
     3
370
     9
100
AcDbLine
 10
-663.159185158054
 20
177.5777076514992
 30
0.0
 11
-663.159185158054
 21
88.57679542335313
 31
0.0
  0
LINE
  5
FE
330
1F
100
AcDbEntity
  8
A-2
  6
Continuous
 62
     3
370
     9
100
AcDbLine
 10
-656.1592610395996
 20
177.5777076514992
 30
0.0
 11
-656.1592610395996
 21
88.57679542335313
 31
0.0
  0
LINE
  5
FF
330
1F
100
AcDbEntity
  8
A-2
  6
Continuous
 62
     3
370
     9
100
AcDbLine
 10
-698.4594451348277
 20
177.5777076514992
 30
0.0
 11
-698.4594451348277
 21
88.57679542335313
 31
0.0
  0
LINE
  5
100
330
1F
100
AcDbEntity
  8
A-2
  6
Continuous
 62
     3
370
     9
100
AcDbLine
 10
-691.4593725524796
 20
177.5777076514992
 30
0.0
 11
-691.4593725524796
 21
88.57679542335313
 31
0.0
  0
LINE
  5
101
330
1F
100
AcDbEntity
  8
A-2
  6
Continuous
 62
     3
370
     9
100
AcDbLine
 10
-733.7596308796545
 20
177.5777076514992
 30
0.0
 11
-733.7596308796545
 21
88.57679542335313
 31
0.0
  0
LINE
  5
102
330
1F
100
AcDbEntity
  8
A-2
  6
Continuous
 62
     3
370
     9
100
AcDbLine
 10
-726.7596325292533
 20
177.5777076514992
 30
0.0
 11
-726.7596325292533
 21
88.57679542335313
 31
0.0
  0
LINE
  5
103
330
1F
100
AcDbEntity
  8
A-2
  6
Continuous
 62
     3
370
     9
100
AcDbLine
 10
-769.0592227689069
 20
177.5777076514992
 30
0.0
 11
-769.0592227689069
 21
88.57679542335313
 31
0.0
  0
LINE
  5
104
330
1F
100
AcDbEntity
  8
A-2
  6
Continuous
 62
     3
370
     9
100
AcDbLine
 10
-762.0592986504527
 20
177.5777076514992
 30
0.0
 11
-762.0592986504527
 21
88.57679542335313
 31
0.0
  0
LINE
  5
105
330
1F
100
AcDbEntity
  8
A-2
  6
Continuous
 62
     3
370
     9
100
AcDbLine
 10
-804.3593342817871
 20
177.5777076514992
 30
0.0
 11
-804.3593342817871
 21
88.57679542335313
 31
0.0
  0
LINE
  5
106
330
1F
100
AcDbEntity
  8
A-2
  6
Continuous
 62
     3
370
     9
100
AcDbLine
 10
-797.3594101633328
 20
177.5777076514992
 30
0.0
 11
-797.3594101633328
 21
88.57679542335313
 31
0.0
  0
LINE
  5
107
330
1F
100
AcDbEntity
  8
A-2
  6
Continuous
 62
     3
370
     9
100
AcDbLine
 10
-839.6595942585607
 20
177.5777076514992
 30
0.0
 11
-839.6595942585607
 21
88.57679542335313
 31
0.0
  0
LINE
  5
108
330
1F
100
AcDbEntity
  8
A-2
  6
Continuous
 62
     3
370
     9
100
AcDbLine
 10
-832.6595959081594
 20
177.5777076514992
 30
0.0
 11
-832.6595959081594
 21
88.57679542335313
 31
0.0
  0
LINE
  5
109
330
1F
100
AcDbEntity
  8
A-2
  6
Continuous
 62
     3
370
     9
100
AcDbLine
 10
-867.559448763945
 20
177.5777076514992
 30
0.0
 11
-832.6595959081594
 21
188.577249063028
 31
0.0
  0
LINE
  5
10A
330
1F
100
AcDbEntity
  8
A-2
  6
Continuous
 62
     3
370
     9
100
AcDbLine
 10
-832.2594114830117
 20
177.5777076514992
 30
0.0
 11
-797.3594843952794
 21
188.577249063028
 31
0.0
  0
LINE
  5
10B
330
1F
100
AcDbEntity
  8
A-2
  6
Continuous
 62
     3
370
     9
100
AcDbLine
 10
-796.9594484340254
 20
177.5777076514992
 30
0.0
 11
-762.0596698101865
 21
188.577249063028
 31
0.0
  0
LINE
  5
10C
330
1F
100
AcDbEntity
  8
A-2
  6
Continuous
 62
     3
370
     9
100
AcDbLine
 10
-761.659411153092
 20
177.5777076514992
 30
0.0
 11
-726.7596325292533
 21
188.577249063028
 31
0.0
  0
LINE
  5
10D
330
1F
100
AcDbEntity
  8
A-2
  6
Continuous
 62
     3
370
     9
100
AcDbLine
 10
-726.3593738721587
 20
177.5777076514992
 30
0.0
 11
-691.4595952483199
 21
188.577249063028
 31
0.0
  0
LINE
  5
10E
330
1F
100
AcDbEntity
  8
A-2
  6
Continuous
 62
     3
370
     9
100
AcDbLine
 10
-691.0594108231722
 20
177.5777076514992
 30
0.0
 11
-656.1596321993335
 21
188.577249063028
 31
0.0
  0
LINE
  5
10F
330
1F
100
AcDbEntity
  8
A-2
  6
Continuous
 62
     3
370
     9
100
AcDbLine
 10
-874.5598925060269
 20
186.4970472181166
 30
0.0
 11
-867.959558957146
 21
188.577249063028
 31
0.0
  0
LINE
  5
110
330
1F
100
AcDbEntity
  8
A-9
  6
Continuous
 62
     4
370
     9
100
AcDbLine
 10
-843.5598892068292
 20
-276.4230973527237
 30
0.0
 11
-843.5598892068292
 21
-304.4230165223817
 31
0.0
  0
LINE
  5
111
330
1F
100
AcDbEntity
  8
A-9
  6
Continuous
 62
     4
370
     9
100
AcDbLine
 10
-860.0600921074838
 20
-244.7259076092694
 30
0.0
 11
-847.0600739618969
 21
-244.7259076092694
 31
0.0
  0
LINE
  5
112
330
1F
100
AcDbEntity
  8
A-9
  6
Continuous
 62
     4
370
     9
100
AcDbLine
 10
-860.0600921074838
 20
-244.7259076092694
 30
0.0
 11
-860.0600921074838
 21
-261.9230742583403
 31
0.0
  0
LINE
  5
113
330
1F
100
AcDbEntity
  8
A-9
  6
Continuous
 62
     4
370
     9
100
AcDbLine
 10
-860.0600921074838
 20
-266.4230148727829
 30
0.0
 11
-860.0600921074838
 21
-270.423077557538
 31
0.0
  0
LINE
  5
114
330
1F
100
AcDbEntity
  8
A-9
  6
Continuous
 62
     4
370
     9
100
AcDbLine
 10
-847.0600739618969
 20
-244.7259076092694
 30
0.0
 11
-847.0600739618969
 21
-261.9230742583403
 31
0.0
  0
LINE
  5
115
330
1F
100
AcDbEntity
  8
A-9
  6
Continuous
 62
     4
370
     9
100
AcDbLine
 10
-847.0600739618969
 20
-266.4230148727829
 30
0.0
 11
-847.0600739618969
 21
-270.423077557538
 31
0.0
  0
LINE
  5
116
330
1F
100
AcDbEntity
  8
A-9
  6
JWW_CENTER1
 62
     4
370
     9
100
AcDbLine
 10
-853.5599716867703
 20
-237.7196737753378
 30
0.0
 11
-853.5599716867703
 21
-310.9148971970017
 31
0.0
  0
LINE
  5
117
330
1F
100
AcDbEntity
  8
A-9
  6
Continuous
 62
     4
370
     9
100
AcDbLine
 10
-863.5599799347642
 20
-276.4230973527237
 30
0.0
 11
-863.5599799347642
 21
-304.4230165223817
 31
0.0
  0
LINE
  5
118
330
1F
100
AcDbEntity
  8
A-9
  6
Continuous
 62
     4
370
     9
100
AcDbLine
 10
-863.5599799347642
 20
-304.4230165223817
 30
0.0
 11
-843.5598892068292
 21
-304.4230165223817
 31
0.0
  0
LINE
  5
119
330
1F
100
AcDbEntity
  8
A-9
  6
JWW_CENTER1
 62
     4
370
     9
100
AcDbLine
 10
-853.5599716867703
 20
554.4725275812923
 30
0.0
 11
-853.5599716867703
 21
508.1158645217484
 31
0.0
  0
LINE
  5
11A
330
1F
100
AcDbEntity
  8
A-1
  6
JWW_DASHED3
 62
     2
370
     9
100
AcDbLine
 10
-885.5599535411832
 20
483.5774552628802
 30
0.0
 11
-150.560126749059
 21
483.5774552628802
 31
0.0
  0
LINE
  5
11B
330
1F
100
AcDbEntity
  8
A-1
  6
JWW_DASHED3
 62
     2
370
     9
100
AcDbLine
 10
-885.5599535411832
 20
-216.4230478647592
 30
0.0
 11
-150.560126749059
 21
-216.4230478647592
 31
0.0
  0
LINE
  5
11C
330
1F
100
AcDbEntity
  8
A-1
  6
Continuous
 62
     2
370
     9
100
AcDbLine
 10
-891.5600475683159
 20
537.5770395639781
 30
0.0
 11
-144.5600327219265
 21
537.5770395639781
 31
0.0
  0
LINE
  5
11D
330
1F
100
AcDbEntity
  8
A-1
  6
Continuous
 62
     2
370
     9
100
AcDbLine
 10
-891.5600475683159
 20
-270.4227063978039
 30
0.0
 11
-144.5600327219265
 21
-270.4227063978039
 31
0.0
  0
LINE
  5
11E
330
1F
100
AcDbEntity
  8
A-2
  6
Continuous
 62
     3
370
     9
100
AcDbLine
 10
-161.559890856428
 20
-261.9227773305532
 30
0.0
 11
-874.5598925060269
 21
-261.9227773305532
 31
0.0
  0
LINE
  5
11F
330
1F
100
AcDbEntity
  8
A-2
  6
Continuous
 62
     3
370
     9
100
AcDbLine
 10
-874.5598925060269
 20
488.5772738070102
 30
0.0
 11
-161.559890856428
 21
488.5772738070102
 31
0.0
  0
LINE
  5
120
330
1F
100
AcDbEntity
  8
A-2
  6
Continuous
 62
     3
370
     9
100
AcDbLine
 10
-874.5598925060269
 20
477.5777323954816
 30
0.0
 11
-161.559890856428
 21
477.5777323954816
 31
0.0
  0
LINE
  5
121
330
1F
100
AcDbEntity
  8
A-2
  6
Continuous
 62
     3
370
     9
100
AcDbLine
 10
-874.5598925060269
 20
529.0773331925677
 30
0.0
 11
-161.559890856428
 21
529.0773331925677
 31
0.0
  0
LINE
  5
122
330
1F
100
AcDbEntity
  8
A-2
  6
Continuous
 62
     3
370
     9
100
AcDbLine
 10
-874.5598925060269
 20
-211.4231550886824
 30
0.0
 11
-161.559890856428
 21
-211.4231550886824
 31
0.0
  0
LINE
  5
123
330
1F
100
AcDbEntity
  8
A-2
  6
Continuous
 62
     3
370
     9
100
AcDbLine
 10
-874.5598925060269
 20
-222.4228449641047
 30
0.0
 11
-161.559890856428
 21
-222.4228449641047
 31
0.0
  0
LINE
  5
124
330
1F
100
AcDbEntity
  8
A-2
  6
Continuous
 62
     3
370
     9
100
AcDbLine
 10
-874.5598925060269
 20
388.577339790963
 30
0.0
 11
-161.559890856428
 21
388.577339790963
 31
0.0
  0
LINE
  5
125
330
1F
100
AcDbEntity
  8
A-2
  6
Continuous
 62
     3
370
     9
100
AcDbLine
 10
-874.5598925060269
 20
377.5776499155406
 30
0.0
 11
-161.559890856428
 21
377.5776499155406
 31
0.0
  0
LINE
  5
126
330
1F
100
AcDbEntity
  8
A-2
  6
Continuous
 62
     3
370
     9
100
AcDbLine
 10
-874.5598925060269
 20
288.5773315429688
 30
0.0
 11
-161.559890856428
 21
288.5773315429688
 31
0.0
  0
LINE
  5
127
330
1F
100
AcDbEntity
  8
A-2
  6
Continuous
 62
     3
370
     9
100
AcDbLine
 10
-874.5598925060269
 20
277.5777158994933
 30
0.0
 11
-161.559890856428
 21
277.5777158994933
 31
0.0
  0
LINE
  5
128
330
1F
100
AcDbEntity
  8
A-2
  6
Continuous
 62
     3
370
     9
100
AcDbLine
 10
-874.5598925060269
 20
188.577249063028
 30
0.0
 11
-161.559890856428
 21
188.577249063028
 31
0.0
  0
LINE
  5
129
330
1F
100
AcDbEntity
  8
A-2
  6
Continuous
 62
     3
370
     9
100
AcDbLine
 10
-874.5598925060269
 20
177.5777076514992
 30
0.0
 11
-161.559890856428
 21
177.5777076514992
 31
0.0
  0
LINE
  5
12A
330
1F
100
AcDbEntity
  8
A-2
  6
Continuous
 62
     3
370
     9
100
AcDbLine
 10
-515.2587862850598
 20
477.5777323954816
 30
0.0
 11
-480.3590076612211
 21
488.5772738070102
 31
0.0
  0
LINE
  5
12B
330
1F
100
AcDbEntity
  8
A-2
  6
Continuous
 62
     3
370
     9
100
AcDbLine
 10
-515.2587862850598
 20
-222.4224738043708
 30
0.0
 11
-480.3590076612211
 21
-211.4227839289484
 31
0.0
  0
LINE
  5
12C
330
1F
100
AcDbEntity
  8
A-2
  6
Continuous
 62
     3
370
     9
100
AcDbLine
 10
-515.2587862850598
 20
377.5776499155406
 30
0.0
 11
-480.3590076612211
 21
388.577339790963
 31
0.0
  0
LINE
  5
12D
330
1F
100
AcDbEntity
  8
A-2
  6
Continuous
 62
     3
370
     9
100
AcDbLine
 10
-515.2587862850598
 20
277.5777158994933
 30
0.0
 11
-480.3590076612211
 21
288.5773315429688
 31
0.0
  0
LINE
  5
12E
330
1F
100
AcDbEntity
  8
A-2
  6
Continuous
 62
     3
370
     9
100
AcDbLine
 10
-515.2587862850598
 20
177.5777076514992
 30
0.0
 11
-480.3590076612211
 21
188.577249063028
 31
0.0
  0
LINE
  5
12F
330
1F
100
AcDbEntity
  8
A-4
  6
Continuous
 62
     7
370
     9
100
AcDbLine
 10
-695.0596219718209
 20
572.5664161475929
 30
0.0
 11
-659.7593619950472
 21
572.5664161475929
 31
0.0
  0
LINE
  5
130
330
1F
100
AcDbEntity
  8
A-4
  6
Continuous
 62
     7
370
     9
100
AcDbLine
 10
-695.0596219718209
 20
516.1542935758025
 30
0.0
 11
-695.0596219718209
 21
574.36639239337
 31
0.0
  0
LINE
  5
131
330
1F
100
AcDbEntity
  8
A-4
  6
Continuous
 62
     7
370
     9
100
AcDbLine
 10
-659.7593619950472
 20
516.1542935758025
 30
0.0
 11
-659.7593619950472
 21
574.36639239337
 31
0.0
  0
LINE
  5
132
330
1F
100
AcDbEntity
  8
A-1
  6
JWW_CENTER1
 62
     2
370
     9
100
AcDbLine
 10
-810.3974350656765
 20
548.0772969013935
 30
0.0
 11
-826.8043284092154
 21
548.0772969013935
 31
0.0
  0
LINE
  5
133
330
1F
100
AcDbEntity
  8
A-4
  6
Continuous
 62
     7
370
     9
100
AcDbLine
 10
-891.5600475683159
 20
-473.070873363598
 30
0.0
 11
-144.5600327219265
 21
-473.070873363598
 31
0.0
  0
LINE
  5
134
330
1F
100
AcDbEntity
  8
A-4
  6
Continuous
 62
     7
370
     9
100
AcDbLine
 10
-891.5600475683159
 20
-285.4228301177153
 30
0.0
 11
-891.5600475683159
 21
-474.870849609375
 31
0.0
  0
LINE
  5
135
330
1F
100
AcDbEntity
  8
A-4
  6
Continuous
 62
     7
370
     9
100
AcDbLine
 10
-144.5600327219265
 20
-285.4228301177153
 30
0.0
 11
-144.5600327219265
 21
-474.870849609375
 31
0.0
  0
LINE
  5
136
330
1F
100
AcDbEntity
  8
A-4
  6
Continuous
 62
     7
370
     9
100
AcDbLine
 10
-923.9006798265507
 20
-419.303783519848
 30
0.0
 11
-111.3220846908876
 21
-419.303783519848
 31
0.0
  0
LINE
  5
137
330
1F
100
AcDbEntity
  8
A-4
  6
Continuous
 62
     7
370
     9
100
AcDbLine
 10
-885.5599535411832
 20
-279.4227360905827
 30
0.0
 11
-885.5599535411832
 21
-421.103759765625
 31
0.0
  0
LINE
  5
138
330
1F
100
AcDbEntity
  8
A-4
  6
Continuous
 62
     7
370
     9
100
AcDbLine
 10
-150.560126749059
 20
-279.4227360905827
 30
0.0
 11
-150.560126749059
 21
-421.103759765625
 31
0.0
  0
LINE
  5
139
330
1F
100
AcDbEntity
  8
A-4
  6
Continuous
 62
     7
370
     9
100
AcDbLine
 10
-885.5598050772896
 20
-367.6592077306798
 30
0.0
 11
-874.5598925060269
 21
-367.6592077306798
 31
0.0
  0
LINE
  5
13A
330
1F
100
AcDbEntity
  8
A-4
  6
Continuous
 62
     7
370
     9
100
AcDbLine
 10
-885.5598050772896
 20
-376.6592374234586
 30
0.0
 11
-885.5598050772896
 21
-369.4591839764569
 31
0.0
  0
LINE
  5
13B
330
1F
100
AcDbEntity
  8
A-4
  6
Continuous
 62
     7
370
     9
100
AcDbLine
 10
-874.5598925060269
 20
-275.4227476377745
 30
0.0
 11
-874.5598925060269
 21
-369.4591839764569
 31
0.0
  0
LINE
  5
13C
330
1F
100
AcDbEntity
  8
A-4
  6
Continuous
 62
     7
370
     9
100
AcDbLine
 10
-874.5598925060269
 20
-367.6592077306798
 30
0.0
 11
-161.559890856428
 21
-367.6592077306798
 31
0.0
  0
LINE
  5
13D
330
1F
100
AcDbEntity
  8
A-4
  6
Continuous
 62
     7
370
     9
100
AcDbLine
 10
-161.559890856428
 20
-275.4227476377745
 30
0.0
 11
-161.559890856428
 21
-369.4591839764569
 31
0.0
  0
LINE
  5
13E
330
1F
100
AcDbEntity
  8
A-4
  6
Continuous
 62
     7
370
     9
100
AcDbLine
 10
-161.559890856428
 20
-367.6592077306798
 30
0.0
 11
-150.560126749059
 21
-367.6592077306798
 31
0.0
  0
LINE
  5
13F
330
1F
100
AcDbEntity
  8
A-2
  6
Continuous
 62
     3
370
     9
100
AcDbLine
 10
-655.7592993102921
 20
477.5777323954816
 30
0.0
 11
-620.8595206864535
 21
488.5772738070102
 31
0.0
  0
LINE
  5
140
330
1F
100
AcDbEntity
  8
A-2
  6
Continuous
 62
     3
370
     9
100
AcDbLine
 10
-655.7592993102921
 20
377.5777983794342
 30
0.0
 11
-620.8595206864535
 21
388.577339790963
 31
0.0
  0
LINE
  5
141
330
1F
100
AcDbEntity
  8
A-2
  6
Continuous
 62
     3
370
     9
100
AcDbLine
 10
-655.7592993102921
 20
277.5777901314402
 30
0.0
 11
-620.8595206864535
 21
288.5773315429688
 31
0.0
  0
LINE
  5
142
330
1F
100
AcDbEntity
  8
A-2
  6
Continuous
 62
     3
370
     9
100
AcDbLine
 10
-655.7592993102921
 20
177.5778561153928
 30
0.0
 11
-620.8595206864535
 21
188.5773975269216
 31
0.0
  0
LINE
  5
143
330
1F
100
AcDbEntity
  8
A-2
  6
Continuous
 62
     3
370
     9
100
AcDbLine
 10
-655.7592993102921
 20
-222.4222511085304
 30
0.0
 11
-620.8595206864535
 21
-211.4227096970016
 31
0.0
  0
LINE
  5
144
330
1F
100
AcDbEntity
  8
A-2
  6
Continuous
 62
     3
370
     9
100
AcDbLine
 10
-592.5598529156554
 20
529.0773331925677
 30
0.0
 11
-592.5598529156554
 21
488.5772738070102
 31
0.0
  0
LINE
  5
145
330
1F
100
AcDbEntity
  8
A-2
  6
Continuous
 62
     3
370
     9
100
AcDbLine
 10
-585.559928797201
 20
529.0773331925677
 30
0.0
 11
-585.559928797201
 21
488.5772738070102
 31
0.0
  0
LINE
  5
146
330
1F
100
AcDbEntity
  8
A-2
  6
Continuous
 62
     3
370
     9
100
AcDbLine
 10
-592.5598529156554
 20
477.5777323954816
 30
0.0
 11
-592.5598529156554
 21
388.5767459353886
 31
0.0
  0
LINE
  5
147
330
1F
100
AcDbEntity
  8
A-2
  6
Continuous
 62
     3
370
     9
100
AcDbLine
 10
-585.559928797201
 20
477.5777323954816
 30
0.0
 11
-585.559928797201
 21
388.5767459353886
 31
0.0
  0
LINE
  5
148
330
1F
100
AcDbEntity
  8
A-2
  6
Continuous
 62
     3
370
     9
100
AcDbLine
 10
-592.5598529156554
 20
-222.4228449641047
 30
0.0
 11
-592.5598529156554
 21
-261.9227773305532
 31
0.0
  0
LINE
  5
149
330
1F
100
AcDbEntity
  8
A-2
  6
Continuous
 62
     3
370
     9
100
AcDbLine
 10
-585.559928797201
 20
-222.4228449641047
 30
0.0
 11
-585.559928797201
 21
-261.9227773305532
 31
0.0
  0
LINE
  5
14A
330
1F
100
AcDbEntity
  8
A-2
  6
Continuous
 62
     3
370
     9
100
AcDbLine
 10
-592.5598529156554
 20
377.5776499155406
 30
0.0
 11
-592.5598529156554
 21
288.5768119193413
 31
0.0
  0
LINE
  5
14B
330
1F
100
AcDbEntity
  8
A-2
  6
Continuous
 62
     3
370
     9
100
AcDbLine
 10
-585.559928797201
 20
377.5776499155406
 30
0.0
 11
-585.559928797201
 21
288.5768119193413
 31
0.0
  0
LINE
  5
14C
330
1F
100
AcDbEntity
  8
A-2
  6
Continuous
 62
     3
370
     9
100
AcDbLine
 10
-592.5598529156554
 20
277.5777158994933
 30
0.0
 11
-592.5598529156554
 21
188.5768036713472
 31
0.0
  0
LINE
  5
14D
330
1F
100
AcDbEntity
  8
A-2
  6
Continuous
 62
     3
370
     9
100
AcDbLine
 10
-585.559928797201
 20
277.5777158994933
 30
0.0
 11
-585.559928797201
 21
188.5768036713472
 31
0.0
  0
LINE
  5
14E
330
1F
100
AcDbEntity
  8
A-2
  6
Continuous
 62
     3
370
     9
100
AcDbLine
 10
-592.5598529156554
 20
177.5777076514992
 30
0.0
 11
-592.5598529156554
 21
88.57679542335313
 31
0.0
  0
LINE
  5
14F
330
1F
100
AcDbEntity
  8
A-2
  6
Continuous
 62
     3
370
     9
100
AcDbLine
 10
-585.559928797201
 20
177.5777076514992
 30
0.0
 11
-585.559928797201
 21
88.57679542335313
 31
0.0
  0
LINE
  5
150
330
1F
100
AcDbEntity
  8
A-2
  6
Continuous
 62
     3
370
     9
100
AcDbLine
 10
-620.4596331890928
 20
477.5777323954816
 30
0.0
 11
-585.5598545652541
 21
488.5772738070102
 31
0.0
  0
LINE
  5
151
330
1F
100
AcDbEntity
  8
A-2
  6
Continuous
 62
     3
370
     9
100
AcDbLine
 10
-620.4596331890928
 20
377.5777983794342
 30
0.0
 11
-585.5598545652541
 21
388.577339790963
 31
0.0
  0
LINE
  5
152
330
1F
100
AcDbEntity
  8
A-2
  6
Continuous
 62
     3
370
     9
100
AcDbLine
 10
-620.4596331890928
 20
277.5777901314402
 30
0.0
 11
-585.5598545652541
 21
288.5773315429688
 31
0.0
  0
LINE
  5
153
330
1F
100
AcDbEntity
  8
A-2
  6
Continuous
 62
     3
370
     9
100
AcDbLine
 10
-620.4596331890928
 20
177.5778561153928
 30
0.0
 11
-585.5598545652541
 21
188.5773975269216
 31
0.0
  0
LINE
  5
154
330
1F
100
AcDbEntity
  8
A-2
  6
Continuous
 62
     3
370
     9
100
AcDbLine
 10
-620.4596331890928
 20
-222.4222511085304
 30
0.0
 11
-585.5598545652541
 21
-211.4227096970016
 31
0.0
  0
LINE
  5
155
330
1F
100
AcDbEntity
  8
A-2
  6
Continuous
 62
     3
370
     9
100
AcDbLine
 10
-557.260186794456
 20
529.0773331925677
 30
0.0
 11
-557.260186794456
 21
488.5772738070102
 31
0.0
  0
LINE
  5
156
330
1F
100
AcDbEntity
  8
A-2
  6
Continuous
 62
     3
370
     9
100
AcDbLine
 10
-550.2602626760016
 20
529.0773331925677
 30
0.0
 11
-550.2602626760016
 21
488.5772738070102
 31
0.0
  0
LINE
  5
157
330
1F
100
AcDbEntity
  8
A-2
  6
Continuous
 62
     3
370
     9
100
AcDbLine
 10
-557.260186794456
 20
477.5777323954816
 30
0.0
 11
-557.260186794456
 21
388.5767459353886
 31
0.0
  0
LINE
  5
158
330
1F
100
AcDbEntity
  8
A-2
  6
Continuous
 62
     3
370
     9
100
AcDbLine
 10
-550.2602626760016
 20
477.5777323954816
 30
0.0
 11
-550.2602626760016
 21
388.5767459353886
 31
0.0
  0
LINE
  5
159
330
1F
100
AcDbEntity
  8
A-2
  6
Continuous
 62
     3
370
     9
100
AcDbLine
 10
-557.260186794456
 20
-222.4228449641047
 30
0.0
 11
-557.260186794456
 21
-261.9227773305532
 31
0.0
  0
LINE
  5
15A
330
1F
100
AcDbEntity
  8
A-2
  6
Continuous
 62
     3
370
     9
100
AcDbLine
 10
-550.2602626760016
 20
-222.4228449641047
 30
0.0
 11
-550.2602626760016
 21
-261.9227773305532
 31
0.0
  0
LINE
  5
15B
330
1F
100
AcDbEntity
  8
A-2
  6
Continuous
 62
     3
370
     9
100
AcDbLine
 10
-557.260186794456
 20
377.5776499155406
 30
0.0
 11
-557.260186794456
 21
288.5768119193413
 31
0.0
  0
LINE
  5
15C
330
1F
100
AcDbEntity
  8
A-2
  6
Continuous
 62
     3
370
     9
100
AcDbLine
 10
-550.2602626760016
 20
377.5776499155406
 30
0.0
 11
-550.2602626760016
 21
288.5768119193413
 31
0.0
  0
LINE
  5
15D
330
1F
100
AcDbEntity
  8
A-2
  6
Continuous
 62
     3
370
     9
100
AcDbLine
 10
-557.260186794456
 20
277.5777158994933
 30
0.0
 11
-557.260186794456
 21
188.5768036713472
 31
0.0
  0
LINE
  5
15E
330
1F
100
AcDbEntity
  8
A-2
  6
Continuous
 62
     3
370
     9
100
AcDbLine
 10
-550.2602626760016
 20
277.5777158994933
 30
0.0
 11
-550.2602626760016
 21
188.5768036713472
 31
0.0
  0
LINE
  5
15F
330
1F
100
AcDbEntity
  8
A-2
  6
Continuous
 62
     3
370
     9
100
AcDbLine
 10
-557.260186794456
 20
177.5777076514992
 30
0.0
 11
-557.260186794456
 21
88.57679542335313
 31
0.0
  0
LINE
  5
160
330
1F
100
AcDbEntity
  8
A-2
  6
Continuous
 62
     3
370
     9
100
AcDbLine
 10
-550.2602626760016
 20
177.5777076514992
 30
0.0
 11
-550.2602626760016
 21
88.57679542335313
 31
0.0
  0
LINE
  5
161
330
1F
100
AcDbEntity
  8
A-2
  6
Continuous
 62
     3
370
     9
100
AcDbLine
 10
-585.1599670678935
 20
477.5777323954816
 30
0.0
 11
-550.2601884440547
 21
488.5772738070102
 31
0.0
  0
LINE
  5
162
330
1F
100
AcDbEntity
  8
A-2
  6
Continuous
 62
     3
370
     9
100
AcDbLine
 10
-585.1599670678935
 20
377.5777983794342
 30
0.0
 11
-550.2601884440547
 21
388.577339790963
 31
0.0
  0
LINE
  5
163
330
1F
100
AcDbEntity
  8
A-2
  6
Continuous
 62
     3
370
     9
100
AcDbLine
 10
-585.1599670678935
 20
277.5777901314402
 30
0.0
 11
-550.2601884440547
 21
288.5773315429688
 31
0.0
  0
LINE
  5
164
330
1F
100
AcDbEntity
  8
A-2
  6
Continuous
 62
     3
370
     9
100
AcDbLine
 10
-585.1599670678935
 20
177.5778561153928
 30
0.0
 11
-550.2601884440547
 21
188.5773975269216
 31
0.0
  0
LINE
  5
165
330
1F
100
AcDbEntity
  8
A-2
  6
Continuous
 62
     3
370
     9
100
AcDbLine
 10
-585.1599670678935
 20
-222.4222511085304
 30
0.0
 11
-550.2601884440547
 21
-211.4227096970016
 31
0.0
  0
LINE
  5
166
330
1F
100
AcDbEntity
  8
A-2
  6
Continuous
 62
     3
370
     9
100
AcDbLine
 10
-521.9605206732566
 20
529.0773331925677
 30
0.0
 11
-521.9605206732566
 21
488.5772738070102
 31
0.0
  0
LINE
  5
167
330
1F
100
AcDbEntity
  8
A-2
  6
Continuous
 62
     3
370
     9
100
AcDbLine
 10
-514.9605965548022
 20
529.0773331925677
 30
0.0
 11
-514.9605965548022
 21
488.5772738070102
 31
0.0
  0
LINE
  5
168
330
1F
100
AcDbEntity
  8
A-2
  6
Continuous
 62
     3
370
     9
100
AcDbLine
 10
-521.9605206732566
 20
477.5777323954816
 30
0.0
 11
-521.9605206732566
 21
388.5767459353886
 31
0.0
  0
LINE
  5
169
330
1F
100
AcDbEntity
  8
A-2
  6
Continuous
 62
     3
370
     9
100
AcDbLine
 10
-514.9605965548022
 20
477.5777323954816
 30
0.0
 11
-514.9605965548022
 21
388.5767459353886
 31
0.0
  0
LINE
  5
16A
330
1F
100
AcDbEntity
  8
A-2
  6
Continuous
 62
     3
370
     9
100
AcDbLine
 10
-521.9605206732566
 20
-222.4228449641047
 30
0.0
 11
-521.9605206732566
 21
-261.9227773305532
 31
0.0
  0
LINE
  5
16B
330
1F
100
AcDbEntity
  8
A-2
  6
Continuous
 62
     3
370
     9
100
AcDbLine
 10
-514.9605965548022
 20
-222.4228449641047
 30
0.0
 11
-514.9605965548022
 21
-261.9227773305532
 31
0.0
  0
LINE
  5
16C
330
1F
100
AcDbEntity
  8
A-2
  6
Continuous
 62
     3
370
     9
100
AcDbLine
 10
-521.9605206732566
 20
377.5776499155406
 30
0.0
 11
-521.9605206732566
 21
288.5768119193413
 31
0.0
  0
LINE
  5
16D
330
1F
100
AcDbEntity
  8
A-2
  6
Continuous
 62
     3
370
     9
100
AcDbLine
 10
-514.9605965548022
 20
377.5776499155406
 30
0.0
 11
-514.9605965548022
 21
288.5768119193413
 31
0.0
  0
LINE
  5
16E
330
1F
100
AcDbEntity
  8
A-2
  6
Continuous
 62
     3
370
     9
100
AcDbLine
 10
-521.9605206732566
 20
277.5777158994933
 30
0.0
 11
-521.9605206732566
 21
188.5768036713472
 31
0.0
  0
LINE
  5
16F
330
1F
100
AcDbEntity
  8
A-2
  6
Continuous
 62
     3
370
     9
100
AcDbLine
 10
-514.9605965548022
 20
277.5777158994933
 30
0.0
 11
-514.9605965548022
 21
188.5768036713472
 31
0.0
  0
LINE
  5
170
330
1F
100
AcDbEntity
  8
A-2
  6
Continuous
 62
     3
370
     9
100
AcDbLine
 10
-521.9605206732566
 20
177.5777076514992
 30
0.0
 11
-521.9605206732566
 21
88.57679542335313
 31
0.0
  0
LINE
  5
171
330
1F
100
AcDbEntity
  8
A-2
  6
Continuous
 62
     3
370
     9
100
AcDbLine
 10
-514.9605965548022
 20
177.5777076514992
 30
0.0
 11
-514.9605965548022
 21
88.57679542335313
 31
0.0
  0
LINE
  5
172
330
1F
100
AcDbEntity
  8
A-2
  6
Continuous
 62
     3
370
     9
100
AcDbLine
 10
-549.8603009466941
 20
477.5777323954816
 30
0.0
 11
-514.9605223228555
 21
488.5772738070102
 31
0.0
  0
LINE
  5
173
330
1F
100
AcDbEntity
  8
A-2
  6
Continuous
 62
     3
370
     9
100
AcDbLine
 10
-549.8603009466941
 20
377.5777983794342
 30
0.0
 11
-514.9605223228555
 21
388.577339790963
 31
0.0
  0
LINE
  5
174
330
1F
100
AcDbEntity
  8
A-2
  6
Continuous
 62
     3
370
     9
100
AcDbLine
 10
-549.8603009466941
 20
277.5777901314402
 30
0.0
 11
-514.9605223228555
 21
288.5773315429688
 31
0.0
  0
LINE
  5
175
330
1F
100
AcDbEntity
  8
A-2
  6
Continuous
 62
     3
370
     9
100
AcDbLine
 10
-549.8603009466941
 20
177.5778561153928
 30
0.0
 11
-514.9605223228555
 21
188.5773975269216
 31
0.0
  0
LINE
  5
176
330
1F
100
AcDbEntity
  8
A-2
  6
Continuous
 62
     3
370
     9
100
AcDbLine
 10
-549.8603009466941
 20
-222.4222511085304
 30
0.0
 11
-514.9605223228555
 21
-211.4227096970016
 31
0.0
  0
LINE
  5
177
330
1F
100
AcDbEntity
  8
A-2
  6
Continuous
 62
     3
370
     9
100
AcDbLine
 10
-486.6608545520574
 20
529.0773331925677
 30
0.0
 11
-486.6608545520574
 21
488.5772738070102
 31
0.0
  0
LINE
  5
178
330
1F
100
AcDbEntity
  8
A-2
  6
Continuous
 62
     3
370
     9
100
AcDbLine
 10
-479.6609304336029
 20
529.0773331925677
 30
0.0
 11
-479.6609304336029
 21
488.5772738070102
 31
0.0
  0
LINE
  5
179
330
1F
100
AcDbEntity
  8
A-2
  6
Continuous
 62
     3
370
     9
100
AcDbLine
 10
-486.6608545520574
 20
477.5777323954816
 30
0.0
 11
-486.6608545520574
 21
388.5767459353886
 31
0.0
  0
LINE
  5
17A
330
1F
100
AcDbEntity
  8
A-2
  6
Continuous
 62
     3
370
     9
100
AcDbLine
 10
-479.6609304336029
 20
477.5777323954816
 30
0.0
 11
-479.6609304336029
 21
388.5767459353886
 31
0.0
  0
LINE
  5
17B
330
1F
100
AcDbEntity
  8
A-2
  6
Continuous
 62
     3
370
     9
100
AcDbLine
 10
-486.6608545520574
 20
-222.4228449641047
 30
0.0
 11
-486.6608545520574
 21
-261.9227773305532
 31
0.0
  0
LINE
  5
17C
330
1F
100
AcDbEntity
  8
A-2
  6
Continuous
 62
     3
370
     9
100
AcDbLine
 10
-479.6609304336029
 20
-222.4228449641047
 30
0.0
 11
-479.6609304336029
 21
-261.9227773305532
 31
0.0
  0
LINE
  5
17D
330
1F
100
AcDbEntity
  8
A-2
  6
Continuous
 62
     3
370
     9
100
AcDbLine
 10
-486.6608545520574
 20
377.5776499155406
 30
0.0
 11
-486.6608545520574
 21
288.5768119193413
 31
0.0
  0
LINE
  5
17E
330
1F
100
AcDbEntity
  8
A-2
  6
Continuous
 62
     3
370
     9
100
AcDbLine
 10
-479.6609304336029
 20
377.5776499155406
 30
0.0
 11
-479.6609304336029
 21
288.5768119193413
 31
0.0
  0
LINE
  5
17F
330
1F
100
AcDbEntity
  8
A-2
  6
Continuous
 62
     3
370
     9
100
AcDbLine
 10
-486.6608545520574
 20
277.5777158994933
 30
0.0
 11
-486.6608545520574
 21
188.5768036713472
 31
0.0
  0
LINE
  5
180
330
1F
100
AcDbEntity
  8
A-2
  6
Continuous
 62
     3
370
     9
100
AcDbLine
 10
-479.6609304336029
 20
277.5777158994933
 30
0.0
 11
-479.6609304336029
 21
188.5768036713472
 31
0.0
  0
LINE
  5
181
330
1F
100
AcDbEntity
  8
A-2
  6
Continuous
 62
     3
370
     9
100
AcDbLine
 10
-486.6608545520574
 20
177.5777076514992
 30
0.0
 11
-486.6608545520574
 21
88.57679542335313
 31
0.0
  0
LINE
  5
182
330
1F
100
AcDbEntity
  8
A-2
  6
Continuous
 62
     3
370
     9
100
AcDbLine
 10
-479.6609304336029
 20
177.5777076514992
 30
0.0
 11
-479.6609304336029
 21
88.57679542335313
 31
0.0
  0
LINE
  5
183
330
1F
100
AcDbEntity
  8
A-2
  6
Continuous
 62
     3
370
     9
100
AcDbLine
 10
-197.6608908432313
 20
477.5777323954816
 30
0.0
 11
-162.7611122193925
 21
488.5772738070102
 31
0.0
  0
LINE
  5
184
330
1F
100
AcDbEntity
  8
A-2
  6
Continuous
 62
     3
370
     9
100
AcDbLine
 10
-197.6608908432313
 20
377.5777983794342
 30
0.0
 11
-162.7611122193925
 21
388.577339790963
 31
0.0
  0
LINE
  5
185
330
1F
100
AcDbEntity
  8
A-2
  6
Continuous
 62
     3
370
     9
100
AcDbLine
 10
-197.6608908432313
 20
277.5777901314402
 30
0.0
 11
-162.7611122193925
 21
288.5773315429688
 31
0.0
  0
LINE
  5
186
330
1F
100
AcDbEntity
  8
A-2
  6
Continuous
 62
     3
370
     9
100
AcDbLine
 10
-197.6608908432313
 20
177.5778561153928
 30
0.0
 11
-162.7611122193925
 21
188.5773975269216
 31
0.0
  0
LINE
  5
187
330
1F
100
AcDbEntity
  8
A-2
  6
Continuous
 62
     3
370
     9
100
AcDbLine
 10
-197.6608908432313
 20
-222.4222511085304
 30
0.0
 11
-162.7611122193925
 21
-211.4227096970016
 31
0.0
  0
LINE
  5
188
330
1F
100
AcDbEntity
  8
A-2
  6
Continuous
 62
     3
370
     9
100
AcDbLine
 10
-479.9591201638605
 20
477.5777323954816
 30
0.0
 11
-445.0593415400219
 21
488.5772738070102
 31
0.0
  0
LINE
  5
189
330
1F
100
AcDbEntity
  8
A-2
  6
Continuous
 62
     3
370
     9
100
AcDbLine
 10
-479.9591201638605
 20
-222.4224738043708
 30
0.0
 11
-445.0593415400219
 21
-211.4227839289484
 31
0.0
  0
LINE
  5
18A
330
1F
100
AcDbEntity
  8
A-2
  6
Continuous
 62
     3
370
     9
100
AcDbLine
 10
-479.9591201638605
 20
377.5776499155406
 30
0.0
 11
-445.0593415400219
 21
388.577339790963
 31
0.0
  0
LINE
  5
18B
330
1F
100
AcDbEntity
  8
A-2
  6
Continuous
 62
     3
370
     9
100
AcDbLine
 10
-479.9591201638605
 20
277.5777158994933
 30
0.0
 11
-445.0593415400219
 21
288.5773315429688
 31
0.0
  0
LINE
  5
18C
330
1F
100
AcDbEntity
  8
A-2
  6
Continuous
 62
     3
370
     9
100
AcDbLine
 10
-479.9591201638605
 20
177.5777076514992
 30
0.0
 11
-445.0593415400219
 21
188.577249063028
 31
0.0
  0
LINE
  5
18D
330
1F
100
AcDbEntity
  8
A-2
  6
Continuous
 62
     3
370
     9
100
AcDbLine
 10
-451.361188430858
 20
529.0773331925677
 30
0.0
 11
-451.361188430858
 21
488.5772738070102
 31
0.0
  0
LINE
  5
18E
330
1F
100
AcDbEntity
  8
A-2
  6
Continuous
 62
     3
370
     9
100
AcDbLine
 10
-444.3612643124036
 20
529.0773331925677
 30
0.0
 11
-444.3612643124036
 21
488.5772738070102
 31
0.0
  0
LINE
  5
18F
330
1F
100
AcDbEntity
  8
A-2
  6
Continuous
 62
     3
370
     9
100
AcDbLine
 10
-451.361188430858
 20
477.5777323954816
 30
0.0
 11
-451.361188430858
 21
388.5767459353886
 31
0.0
  0
LINE
  5
190
330
1F
100
AcDbEntity
  8
A-2
  6
Continuous
 62
     3
370
     9
100
AcDbLine
 10
-444.3612643124036
 20
477.5777323954816
 30
0.0
 11
-444.3612643124036
 21
388.5767459353886
 31
0.0
  0
LINE
  5
191
330
1F
100
AcDbEntity
  8
A-2
  6
Continuous
 62
     3
370
     9
100
AcDbLine
 10
-451.361188430858
 20
-222.4228449641047
 30
0.0
 11
-451.361188430858
 21
-261.9227773305532
 31
0.0
  0
LINE
  5
192
330
1F
100
AcDbEntity
  8
A-2
  6
Continuous
 62
     3
370
     9
100
AcDbLine
 10
-444.3612643124036
 20
-222.4228449641047
 30
0.0
 11
-444.3612643124036
 21
-261.9227773305532
 31
0.0
  0
LINE
  5
193
330
1F
100
AcDbEntity
  8
A-2
  6
Continuous
 62
     3
370
     9
100
AcDbLine
 10
-451.361188430858
 20
377.5776499155406
 30
0.0
 11
-451.361188430858
 21
288.5768119193413
 31
0.0
  0
LINE
  5
194
330
1F
100
AcDbEntity
  8
A-2
  6
Continuous
 62
     3
370
     9
100
AcDbLine
 10
-444.3612643124036
 20
377.5776499155406
 30
0.0
 11
-444.3612643124036
 21
288.5768119193413
 31
0.0
  0
LINE
  5
195
330
1F
100
AcDbEntity
  8
A-2
  6
Continuous
 62
     3
370
     9
100
AcDbLine
 10
-451.361188430858
 20
277.5777158994933
 30
0.0
 11
-451.361188430858
 21
188.5768036713472
 31
0.0
  0
LINE
  5
196
330
1F
100
AcDbEntity
  8
A-2
  6
Continuous
 62
     3
370
     9
100
AcDbLine
 10
-444.3612643124036
 20
277.5777158994933
 30
0.0
 11
-444.3612643124036
 21
188.5768036713472
 31
0.0
  0
LINE
  5
197
330
1F
100
AcDbEntity
  8
A-2
  6
Continuous
 62
     3
370
     9
100
AcDbLine
 10
-451.361188430858
 20
177.5777076514992
 30
0.0
 11
-451.361188430858
 21
88.57679542335313
 31
0.0
  0
LINE
  5
198
330
1F
100
AcDbEntity
  8
A-2
  6
Continuous
 62
     3
370
     9
100
AcDbLine
 10
-444.3612643124036
 20
177.5777076514992
 30
0.0
 11
-444.3612643124036
 21
88.57679542335313
 31
0.0
  0
LINE
  5
199
330
1F
100
AcDbEntity
  8
A-2
  6
Continuous
 62
     3
370
     9
100
AcDbLine
 10
-444.6594540426611
 20
477.5777323954816
 30
0.0
 11
-409.7596754188226
 21
488.5772738070102
 31
0.0
  0
LINE
  5
19A
330
1F
100
AcDbEntity
  8
A-2
  6
Continuous
 62
     3
370
     9
100
AcDbLine
 10
-444.6594540426611
 20
-222.4224738043708
 30
0.0
 11
-409.7596754188226
 21
-211.4227839289484
 31
0.0
  0
LINE
  5
19B
330
1F
100
AcDbEntity
  8
A-2
  6
Continuous
 62
     3
370
     9
100
AcDbLine
 10
-444.6594540426611
 20
377.5776499155406
 30
0.0
 11
-409.7596754188226
 21
388.577339790963
 31
0.0
  0
LINE
  5
19C
330
1F
100
AcDbEntity
  8
A-2
  6
Continuous
 62
     3
370
     9
100
AcDbLine
 10
-444.6594540426611
 20
277.5777158994933
 30
0.0
 11
-409.7596754188226
 21
288.5773315429688
 31
0.0
  0
LINE
  5
19D
330
1F
100
AcDbEntity
  8
A-2
  6
Continuous
 62
     3
370
     9
100
AcDbLine
 10
-444.6594540426611
 20
177.5777076514992
 30
0.0
 11
-409.7596754188226
 21
188.577249063028
 31
0.0
  0
LINE
  5
19E
330
1F
100
AcDbEntity
  8
A-2
  6
Continuous
 62
     3
370
     9
100
AcDbLine
 10
-416.0615223096586
 20
529.0773331925677
 30
0.0
 11
-416.0615223096586
 21
488.5772738070102
 31
0.0
  0
LINE
  5
19F
330
1F
100
AcDbEntity
  8
A-2
  6
Continuous
 62
     3
370
     9
100
AcDbLine
 10
-416.0615223096586
 20
477.5777323954816
 30
0.0
 11
-416.0615223096586
 21
388.5767459353886
 31
0.0
  0
LINE
  5
1A0
330
1F
100
AcDbEntity
  8
A-2
  6
Continuous
 62
     3
370
     9
100
AcDbLine
 10
-409.0615981912043
 20
477.5777323954816
 30
0.0
 11
-409.0615981912043
 21
388.5767459353886
 31
0.0
  0
LINE
  5
1A1
330
1F
100
AcDbEntity
  8
A-2
  6
Continuous
 62
     3
370
     9
100
AcDbLine
 10
-416.0615223096586
 20
-222.4228449641047
 30
0.0
 11
-416.0615223096586
 21
-261.9227773305532
 31
0.0
  0
LINE
  5
1A2
330
1F
100
AcDbEntity
  8
A-2
  6
Continuous
 62
     3
370
     9
100
AcDbLine
 10
-409.0615981912043
 20
-222.4228449641047
 30
0.0
 11
-409.0615981912043
 21
-261.9227773305532
 31
0.0
  0
LINE
  5
1A3
330
1F
100
AcDbEntity
  8
A-2
  6
Continuous
 62
     3
370
     9
100
AcDbLine
 10
-416.0615223096586
 20
377.5776499155406
 30
0.0
 11
-416.0615223096586
 21
288.5768119193413
 31
0.0
  0
LINE
  5
1A4
330
1F
100
AcDbEntity
  8
A-2
  6
Continuous
 62
     3
370
     9
100
AcDbLine
 10
-409.0615981912043
 20
377.5776499155406
 30
0.0
 11
-409.0615981912043
 21
288.5768119193413
 31
0.0
  0
LINE
  5
1A5
330
1F
100
AcDbEntity
  8
A-2
  6
Continuous
 62
     3
370
     9
100
AcDbLine
 10
-416.0615223096586
 20
277.5777158994933
 30
0.0
 11
-416.0615223096586
 21
188.5768036713472
 31
0.0
  0
LINE
  5
1A6
330
1F
100
AcDbEntity
  8
A-2
  6
Continuous
 62
     3
370
     9
100
AcDbLine
 10
-409.0615981912043
 20
277.5777158994933
 30
0.0
 11
-409.0615981912043
 21
188.5768036713472
 31
0.0
  0
LINE
  5
1A7
330
1F
100
AcDbEntity
  8
A-2
  6
Continuous
 62
     3
370
     9
100
AcDbLine
 10
-416.0615223096586
 20
177.5777076514992
 30
0.0
 11
-416.0615223096586
 21
88.57679542335313
 31
0.0
  0
LINE
  5
1A8
330
1F
100
AcDbEntity
  8
A-2
  6
Continuous
 62
     3
370
     9
100
AcDbLine
 10
-409.0615981912043
 20
177.5777076514992
 30
0.0
 11
-409.0615981912043
 21
88.57679542335313
 31
0.0
  0
LINE
  5
1A9
330
1F
100
AcDbEntity
  8
A-2
  6
Continuous
 62
     3
370
     9
100
AcDbLine
 10
-409.0615981912043
 20
529.0773331925677
 30
0.0
 11
-409.0615981912043
 21
488.5772738070102
 31
0.0
  0
LINE
  5
1AA
330
1F
100
AcDbEntity
  8
A-2
  6
Continuous
 62
     3
370
     9
100
AcDbLine
 10
-867.559448763945
 20
-11.42321282464093
 30
0.0
 11
-867.559448763945
 21
77.57769940350516
 31
0.0
  0
LINE
  5
1AB
330
1F
100
AcDbEntity
  8
A-2
  6
Continuous
 62
     3
370
     9
100
AcDbLine
 10
-168.559963438776
 20
77.57769940350516
 30
0.0
 11
-168.559963438776
 21
-11.42321282464093
 31
0.0
  0
LINE
  5
1AC
330
1F
100
AcDbEntity
  8
A-2
  6
Continuous
 62
     3
370
     9
100
AcDbLine
 10
-627.8595190368546
 20
77.57769940350516
 30
0.0
 11
-627.8595190368546
 21
-11.42321282464093
 31
0.0
  0
LINE
  5
1AD
330
1F
100
AcDbEntity
  8
A-2
  6
Continuous
 62
     3
370
     9
100
AcDbLine
 10
-620.8595949184003
 20
77.57769940350516
 30
0.0
 11
-620.8595949184003
 21
-11.42321282464093
 31
0.0
  0
LINE
  5
1AE
330
1F
100
AcDbEntity
  8
A-2
  6
Continuous
 62
     3
370
     9
100
AcDbLine
 10
-663.159185158054
 20
77.57769940350516
 30
0.0
 11
-663.159185158054
 21
-11.42321282464093
 31
0.0
  0
LINE
  5
1AF
330
1F
100
AcDbEntity
  8
A-2
  6
Continuous
 62
     3
370
     9
100
AcDbLine
 10
-656.1592610395996
 20
77.57769940350516
 30
0.0
 11
-656.1592610395996
 21
-11.42321282464093
 31
0.0
  0
LINE
  5
1B0
330
1F
100
AcDbEntity
  8
A-2
  6
Continuous
 62
     3
370
     9
100
AcDbLine
 10
-698.4594451348277
 20
77.57769940350516
 30
0.0
 11
-698.4594451348277
 21
-11.42321282464093
 31
0.0
  0
LINE
  5
1B1
330
1F
100
AcDbEntity
  8
A-2
  6
Continuous
 62
     3
370
     9
100
AcDbLine
 10
-691.4593725524796
 20
77.57769940350516
 30
0.0
 11
-691.4593725524796
 21
-11.42321282464093
 31
0.0
  0
LINE
  5
1B2
330
1F
100
AcDbEntity
  8
A-2
  6
Continuous
 62
     3
370
     9
100
AcDbLine
 10
-733.7596308796545
 20
77.57769940350516
 30
0.0
 11
-733.7596308796545
 21
-11.42321282464093
 31
0.0
  0
LINE
  5
1B3
330
1F
100
AcDbEntity
  8
A-2
  6
Continuous
 62
     3
370
     9
100
AcDbLine
 10
-726.7596325292533
 20
77.57769940350516
 30
0.0
 11
-726.7596325292533
 21
-11.42321282464093
 31
0.0
  0
LINE
  5
1B4
330
1F
100
AcDbEntity
  8
A-2
  6
Continuous
 62
     3
370
     9
100
AcDbLine
 10
-769.0592227689069
 20
77.57769940350516
 30
0.0
 11
-769.0592227689069
 21
-11.42321282464093
 31
0.0
  0
LINE
  5
1B5
330
1F
100
AcDbEntity
  8
A-2
  6
Continuous
 62
     3
370
     9
100
AcDbLine
 10
-762.0592986504527
 20
77.57769940350516
 30
0.0
 11
-762.0592986504527
 21
-11.42321282464093
 31
0.0
  0
LINE
  5
1B6
330
1F
100
AcDbEntity
  8
A-2
  6
Continuous
 62
     3
370
     9
100
AcDbLine
 10
-804.3593342817871
 20
77.57769940350516
 30
0.0
 11
-804.3593342817871
 21
-11.42321282464093
 31
0.0
  0
LINE
  5
1B7
330
1F
100
AcDbEntity
  8
A-2
  6
Continuous
 62
     3
370
     9
100
AcDbLine
 10
-797.3594101633328
 20
77.57769940350516
 30
0.0
 11
-797.3594101633328
 21
-11.42321282464093
 31
0.0
  0
LINE
  5
1B8
330
1F
100
AcDbEntity
  8
A-2
  6
Continuous
 62
     3
370
     9
100
AcDbLine
 10
-839.6595942585607
 20
77.57769940350516
 30
0.0
 11
-839.6595942585607
 21
-11.42321282464093
 31
0.0
  0
LINE
  5
1B9
330
1F
100
AcDbEntity
  8
A-2
  6
Continuous
 62
     3
370
     9
100
AcDbLine
 10
-832.6595959081594
 20
77.57769940350516
 30
0.0
 11
-832.6595959081594
 21
-11.42321282464093
 31
0.0
  0
LINE
  5
1BA
330
1F
100
AcDbEntity
  8
A-2
  6
Continuous
 62
     3
370
     9
100
AcDbLine
 10
-867.559448763945
 20
77.57769940350516
 30
0.0
 11
-832.6595959081594
 21
88.57724081503392
 31
0.0
  0
LINE
  5
1BB
330
1F
100
AcDbEntity
  8
A-2
  6
Continuous
 62
     3
370
     9
100
AcDbLine
 10
-832.2594114830117
 20
77.57769940350516
 30
0.0
 11
-797.3594843952794
 21
88.57724081503392
 31
0.0
  0
LINE
  5
1BC
330
1F
100
AcDbEntity
  8
A-2
  6
Continuous
 62
     3
370
     9
100
AcDbLine
 10
-796.9594484340254
 20
77.57769940350516
 30
0.0
 11
-762.0596698101865
 21
88.57724081503392
 31
0.0
  0
LINE
  5
1BD
330
1F
100
AcDbEntity
  8
A-2
  6
Continuous
 62
     3
370
     9
100
AcDbLine
 10
-761.659411153092
 20
77.57769940350516
 30
0.0
 11
-726.7596325292533
 21
88.57724081503392
 31
0.0
  0
LINE
  5
1BE
330
1F
100
AcDbEntity
  8
A-2
  6
Continuous
 62
     3
370
     9
100
AcDbLine
 10
-726.3593738721587
 20
77.57769940350516
 30
0.0
 11
-691.4595952483199
 21
88.57724081503392
 31
0.0
  0
LINE
  5
1BF
330
1F
100
AcDbEntity
  8
A-2
  6
Continuous
 62
     3
370
     9
100
AcDbLine
 10
-691.0594108231722
 20
77.57769940350516
 30
0.0
 11
-656.1596321993335
 21
88.57724081503392
 31
0.0
  0
LINE
  5
1C0
330
1F
100
AcDbEntity
  8
A-2
  6
Continuous
 62
     3
370
     9
100
AcDbLine
 10
-874.5598925060269
 20
86.4970389701225
 30
0.0
 11
-867.959558957146
 21
88.57724081503392
 31
0.0
  0
LINE
  5
1C1
330
1F
100
AcDbEntity
  8
A-2
  6
Continuous
 62
     3
370
     9
100
AcDbLine
 10
-874.5598925060269
 20
88.57724081503392
 30
0.0
 11
-161.559890856428
 21
88.57724081503392
 31
0.0
  0
LINE
  5
1C2
330
1F
100
AcDbEntity
  8
A-2
  6
Continuous
 62
     3
370
     9
100
AcDbLine
 10
-874.5598925060269
 20
77.57769940350516
 30
0.0
 11
-161.559890856428
 21
77.57769940350516
 31
0.0
  0
LINE
  5
1C3
330
1F
100
AcDbEntity
  8
A-2
  6
Continuous
 62
     3
370
     9
100
AcDbLine
 10
-515.2587862850598
 20
77.57769940350516
 30
0.0
 11
-480.3590076612211
 21
88.57724081503392
 31
0.0
  0
LINE
  5
1C4
330
1F
100
AcDbEntity
  8
A-2
  6
Continuous
 62
     3
370
     9
100
AcDbLine
 10
-655.7592993102921
 20
77.57784786739876
 30
0.0
 11
-620.8595206864535
 21
88.57738927892734
 31
0.0
  0
LINE
  5
1C5
330
1F
100
AcDbEntity
  8
A-2
  6
Continuous
 62
     3
370
     9
100
AcDbLine
 10
-592.5598529156554
 20
77.57769940350516
 30
0.0
 11
-592.5598529156554
 21
-11.42321282464093
 31
0.0
  0
LINE
  5
1C6
330
1F
100
AcDbEntity
  8
A-2
  6
Continuous
 62
     3
370
     9
100
AcDbLine
 10
-585.559928797201
 20
77.57769940350516
 30
0.0
 11
-585.559928797201
 21
-11.42321282464093
 31
0.0
  0
LINE
  5
1C7
330
1F
100
AcDbEntity
  8
A-2
  6
Continuous
 62
     3
370
     9
100
AcDbLine
 10
-620.4596331890928
 20
77.57784786739876
 30
0.0
 11
-585.5598545652541
 21
88.57738927892734
 31
0.0
  0
LINE
  5
1C8
330
1F
100
AcDbEntity
  8
A-2
  6
Continuous
 62
     3
370
     9
100
AcDbLine
 10
-557.260186794456
 20
77.57769940350516
 30
0.0
 11
-557.260186794456
 21
-11.42321282464093
 31
0.0
  0
LINE
  5
1C9
330
1F
100
AcDbEntity
  8
A-2
  6
Continuous
 62
     3
370
     9
100
AcDbLine
 10
-550.2602626760016
 20
77.57769940350516
 30
0.0
 11
-550.2602626760016
 21
-11.42321282464093
 31
0.0
  0
LINE
  5
1CA
330
1F
100
AcDbEntity
  8
A-2
  6
Continuous
 62
     3
370
     9
100
AcDbLine
 10
-585.1599670678935
 20
77.57784786739876
 30
0.0
 11
-550.2601884440547
 21
88.57738927892734
 31
0.0
  0
LINE
  5
1CB
330
1F
100
AcDbEntity
  8
A-2
  6
Continuous
 62
     3
370
     9
100
AcDbLine
 10
-521.9605206732566
 20
77.57769940350516
 30
0.0
 11
-521.9605206732566
 21
-11.42321282464093
 31
0.0
  0
LINE
  5
1CC
330
1F
100
AcDbEntity
  8
A-2
  6
Continuous
 62
     3
370
     9
100
AcDbLine
 10
-514.9605965548022
 20
77.57769940350516
 30
0.0
 11
-514.9605965548022
 21
-11.42321282464093
 31
0.0
  0
LINE
  5
1CD
330
1F
100
AcDbEntity
  8
A-2
  6
Continuous
 62
     3
370
     9
100
AcDbLine
 10
-549.8603009466941
 20
77.57784786739876
 30
0.0
 11
-514.9605223228555
 21
88.57738927892734
 31
0.0
  0
LINE
  5
1CE
330
1F
100
AcDbEntity
  8
A-2
  6
Continuous
 62
     3
370
     9
100
AcDbLine
 10
-486.6608545520574
 20
77.57769940350516
 30
0.0
 11
-486.6608545520574
 21
-11.42321282464093
 31
0.0
  0
LINE
  5
1CF
330
1F
100
AcDbEntity
  8
A-2
  6
Continuous
 62
     3
370
     9
100
AcDbLine
 10
-479.6609304336029
 20
77.57769940350516
 30
0.0
 11
-479.6609304336029
 21
-11.42321282464093
 31
0.0
  0
LINE
  5
1D0
330
1F
100
AcDbEntity
  8
A-2
  6
Continuous
 62
     3
370
     9
100
AcDbLine
 10
-197.6608908432313
 20
77.57784786739876
 30
0.0
 11
-162.7611122193925
 21
88.57738927892734
 31
0.0
  0
LINE
  5
1D1
330
1F
100
AcDbEntity
  8
A-2
  6
Continuous
 62
     3
370
     9
100
AcDbLine
 10
-479.9591201638605
 20
77.57769940350516
 30
0.0
 11
-445.0593415400219
 21
88.57724081503392
 31
0.0
  0
LINE
  5
1D2
330
1F
100
AcDbEntity
  8
A-2
  6
Continuous
 62
     3
370
     9
100
AcDbLine
 10
-451.361188430858
 20
77.57769940350516
 30
0.0
 11
-451.361188430858
 21
-11.42321282464093
 31
0.0
  0
LINE
  5
1D3
330
1F
100
AcDbEntity
  8
A-2
  6
Continuous
 62
     3
370
     9
100
AcDbLine
 10
-444.3612643124036
 20
77.57769940350516
 30
0.0
 11
-444.3612643124036
 21
-11.42321282464093
 31
0.0
  0
LINE
  5
1D4
330
1F
100
AcDbEntity
  8
A-2
  6
Continuous
 62
     3
370
     9
100
AcDbLine
 10
-444.6594540426611
 20
77.57769940350516
 30
0.0
 11
-409.7596754188226
 21
88.57724081503392
 31
0.0
  0
LINE
  5
1D5
330
1F
100
AcDbEntity
  8
A-2
  6
Continuous
 62
     3
370
     9
100
AcDbLine
 10
-416.0615223096586
 20
77.57769940350516
 30
0.0
 11
-416.0615223096586
 21
-11.42321282464093
 31
0.0
  0
LINE
  5
1D6
330
1F
100
AcDbEntity
  8
A-2
  6
Continuous
 62
     3
370
     9
100
AcDbLine
 10
-409.0615981912043
 20
77.57769940350516
 30
0.0
 11
-409.0615981912043
 21
-11.42321282464093
 31
0.0
  0
LINE
  5
1D7
330
1F
100
AcDbEntity
  8
A-2
  6
Continuous
 62
     3
370
     9
100
AcDbLine
 10
-867.559448763945
 20
-111.4232210726352
 30
0.0
 11
-867.559448763945
 21
-22.4223088444889
 31
0.0
  0
LINE
  5
1D8
330
1F
100
AcDbEntity
  8
A-2
  6
Continuous
 62
     3
370
     9
100
AcDbLine
 10
-168.559963438776
 20
-22.4223088444889
 30
0.0
 11
-168.559963438776
 21
-111.4232210726352
 31
0.0
  0
LINE
  5
1D9
330
1F
100
AcDbEntity
  8
A-2
  6
Continuous
 62
     3
370
     9
100
AcDbLine
 10
-627.8595190368546
 20
-22.4223088444889
 30
0.0
 11
-627.8595190368546
 21
-111.4232210726352
 31
0.0
  0
LINE
  5
1DA
330
1F
100
AcDbEntity
  8
A-2
  6
Continuous
 62
     3
370
     9
100
AcDbLine
 10
-620.8595949184003
 20
-22.4223088444889
 30
0.0
 11
-620.8595949184003
 21
-111.4232210726352
 31
0.0
  0
LINE
  5
1DB
330
1F
100
AcDbEntity
  8
A-2
  6
Continuous
 62
     3
370
     9
100
AcDbLine
 10
-663.159185158054
 20
-22.4223088444889
 30
0.0
 11
-663.159185158054
 21
-111.4232210726352
 31
0.0
  0
LINE
  5
1DC
330
1F
100
AcDbEntity
  8
A-2
  6
Continuous
 62
     3
370
     9
100
AcDbLine
 10
-656.1592610395996
 20
-22.4223088444889
 30
0.0
 11
-656.1592610395996
 21
-111.4232210726352
 31
0.0
  0
LINE
  5
1DD
330
1F
100
AcDbEntity
  8
A-2
  6
Continuous
 62
     3
370
     9
100
AcDbLine
 10
-698.4594451348277
 20
-22.4223088444889
 30
0.0
 11
-698.4594451348277
 21
-111.4232210726352
 31
0.0
  0
LINE
  5
1DE
330
1F
100
AcDbEntity
  8
A-2
  6
Continuous
 62
     3
370
     9
100
AcDbLine
 10
-691.4593725524796
 20
-22.4223088444889
 30
0.0
 11
-691.4593725524796
 21
-111.4232210726352
 31
0.0
  0
LINE
  5
1DF
330
1F
100
AcDbEntity
  8
A-2
  6
Continuous
 62
     3
370
     9
100
AcDbLine
 10
-733.7596308796545
 20
-22.4223088444889
 30
0.0
 11
-733.7596308796545
 21
-111.4232210726352
 31
0.0
  0
LINE
  5
1E0
330
1F
100
AcDbEntity
  8
A-2
  6
Continuous
 62
     3
370
     9
100
AcDbLine
 10
-726.7596325292533
 20
-22.4223088444889
 30
0.0
 11
-726.7596325292533
 21
-111.4232210726352
 31
0.0
  0
LINE
  5
1E1
330
1F
100
AcDbEntity
  8
A-2
  6
Continuous
 62
     3
370
     9
100
AcDbLine
 10
-769.0592227689069
 20
-22.4223088444889
 30
0.0
 11
-769.0592227689069
 21
-111.4232210726352
 31
0.0
  0
LINE
  5
1E2
330
1F
100
AcDbEntity
  8
A-2
  6
Continuous
 62
     3
370
     9
100
AcDbLine
 10
-762.0592986504527
 20
-22.4223088444889
 30
0.0
 11
-762.0592986504527
 21
-111.4232210726352
 31
0.0
  0
LINE
  5
1E3
330
1F
100
AcDbEntity
  8
A-2
  6
Continuous
 62
     3
370
     9
100
AcDbLine
 10
-804.3593342817871
 20
-22.4223088444889
 30
0.0
 11
-804.3593342817871
 21
-111.4232210726352
 31
0.0
  0
LINE
  5
1E4
330
1F
100
AcDbEntity
  8
A-2
  6
Continuous
 62
     3
370
     9
100
AcDbLine
 10
-797.3594101633328
 20
-22.4223088444889
 30
0.0
 11
-797.3594101633328
 21
-111.4232210726352
 31
0.0
  0
LINE
  5
1E5
330
1F
100
AcDbEntity
  8
A-2
  6
Continuous
 62
     3
370
     9
100
AcDbLine
 10
-839.6595942585607
 20
-22.4223088444889
 30
0.0
 11
-839.6595942585607
 21
-111.4232210726352
 31
0.0
  0
LINE
  5
1E6
330
1F
100
AcDbEntity
  8
A-2
  6
Continuous
 62
     3
370
     9
100
AcDbLine
 10
-832.6595959081594
 20
-22.4223088444889
 30
0.0
 11
-832.6595959081594
 21
-111.4232210726352
 31
0.0
  0
LINE
  5
1E7
330
1F
100
AcDbEntity
  8
A-2
  6
Continuous
 62
     3
370
     9
100
AcDbLine
 10
-867.559448763945
 20
-22.4223088444889
 30
0.0
 11
-832.6595959081594
 21
-11.42276743296031
 31
0.0
  0
LINE
  5
1E8
330
1F
100
AcDbEntity
  8
A-2
  6
Continuous
 62
     3
370
     9
100
AcDbLine
 10
-832.2594114830117
 20
-22.4223088444889
 30
0.0
 11
-797.3594843952794
 21
-11.42276743296031
 31
0.0
  0
LINE
  5
1E9
330
1F
100
AcDbEntity
  8
A-2
  6
Continuous
 62
     3
370
     9
100
AcDbLine
 10
-796.9594484340254
 20
-22.4223088444889
 30
0.0
 11
-762.0596698101865
 21
-11.42276743296031
 31
0.0
  0
LINE
  5
1EA
330
1F
100
AcDbEntity
  8
A-2
  6
Continuous
 62
     3
370
     9
100
AcDbLine
 10
-761.659411153092
 20
-22.4223088444889
 30
0.0
 11
-726.7596325292533
 21
-11.42276743296031
 31
0.0
  0
LINE
  5
1EB
330
1F
100
AcDbEntity
  8
A-2
  6
Continuous
 62
     3
370
     9
100
AcDbLine
 10
-726.3593738721587
 20
-22.4223088444889
 30
0.0
 11
-691.4595952483199
 21
-11.42276743296031
 31
0.0
  0
LINE
  5
1EC
330
1F
100
AcDbEntity
  8
A-2
  6
Continuous
 62
     3
370
     9
100
AcDbLine
 10
-691.0594108231722
 20
-22.4223088444889
 30
0.0
 11
-656.1596321993335
 21
-11.42276743296031
 31
0.0
  0
LINE
  5
1ED
330
1F
100
AcDbEntity
  8
A-2
  6
Continuous
 62
     3
370
     9
100
AcDbLine
 10
-874.5598925060269
 20
-13.50296927787156
 30
0.0
 11
-867.959558957146
 21
-11.42276743296031
 31
0.0
  0
LINE
  5
1EE
330
1F
100
AcDbEntity
  8
A-2
  6
Continuous
 62
     3
370
     9
100
AcDbLine
 10
-874.5598925060269
 20
-11.42276743296031
 30
0.0
 11
-161.559890856428
 21
-11.42276743296031
 31
0.0
  0
LINE
  5
1EF
330
1F
100
AcDbEntity
  8
A-2
  6
Continuous
 62
     3
370
     9
100
AcDbLine
 10
-874.5598925060269
 20
-22.4223088444889
 30
0.0
 11
-161.559890856428
 21
-22.4223088444889
 31
0.0
  0
LINE
  5
1F0
330
1F
100
AcDbEntity
  8
A-2
  6
Continuous
 62
     3
370
     9
100
AcDbLine
 10
-515.2587862850598
 20
-22.4223088444889
 30
0.0
 11
-480.3590076612211
 21
-11.42276743296031
 31
0.0
  0
LINE
  5
1F1
330
1F
100
AcDbEntity
  8
A-2
  6
Continuous
 62
     3
370
     9
100
AcDbLine
 10
-655.7592993102921
 20
-22.42216038059547
 30
0.0
 11
-620.8595206864535
 21
-11.42261896906672
 31
0.0
  0
LINE
  5
1F2
330
1F
100
AcDbEntity
  8
A-2
  6
Continuous
 62
     3
370
     9
100
AcDbLine
 10
-592.5598529156554
 20
-22.4223088444889
 30
0.0
 11
-592.5598529156554
 21
-111.4232210726352
 31
0.0
  0
LINE
  5
1F3
330
1F
100
AcDbEntity
  8
A-2
  6
Continuous
 62
     3
370
     9
100
AcDbLine
 10
-585.559928797201
 20
-22.4223088444889
 30
0.0
 11
-585.559928797201
 21
-111.4232210726352
 31
0.0
  0
LINE
  5
1F4
330
1F
100
AcDbEntity
  8
A-2
  6
Continuous
 62
     3
370
     9
100
AcDbLine
 10
-620.4596331890928
 20
-22.42216038059547
 30
0.0
 11
-585.5598545652541
 21
-11.42261896906672
 31
0.0
  0
LINE
  5
1F5
330
1F
100
AcDbEntity
  8
A-2
  6
Continuous
 62
     3
370
     9
100
AcDbLine
 10
-557.260186794456
 20
-22.4223088444889
 30
0.0
 11
-557.260186794456
 21
-111.4232210726352
 31
0.0
  0
LINE
  5
1F6
330
1F
100
AcDbEntity
  8
A-2
  6
Continuous
 62
     3
370
     9
100
AcDbLine
 10
-550.2602626760016
 20
-22.4223088444889
 30
0.0
 11
-550.2602626760016
 21
-111.4232210726352
 31
0.0
  0
LINE
  5
1F7
330
1F
100
AcDbEntity
  8
A-2
  6
Continuous
 62
     3
370
     9
100
AcDbLine
 10
-585.1599670678935
 20
-22.42216038059547
 30
0.0
 11
-550.2601884440547
 21
-11.42261896906672
 31
0.0
  0
LINE
  5
1F8
330
1F
100
AcDbEntity
  8
A-2
  6
Continuous
 62
     3
370
     9
100
AcDbLine
 10
-521.9605206732566
 20
-22.4223088444889
 30
0.0
 11
-521.9605206732566
 21
-111.4232210726352
 31
0.0
  0
LINE
  5
1F9
330
1F
100
AcDbEntity
  8
A-2
  6
Continuous
 62
     3
370
     9
100
AcDbLine
 10
-514.9605965548022
 20
-22.4223088444889
 30
0.0
 11
-514.9605965548022
 21
-111.4232210726352
 31
0.0
  0
LINE
  5
1FA
330
1F
100
AcDbEntity
  8
A-2
  6
Continuous
 62
     3
370
     9
100
AcDbLine
 10
-549.8603009466941
 20
-22.42216038059547
 30
0.0
 11
-514.9605223228555
 21
-11.42261896906672
 31
0.0
  0
LINE
  5
1FB
330
1F
100
AcDbEntity
  8
A-2
  6
Continuous
 62
     3
370
     9
100
AcDbLine
 10
-486.6608545520574
 20
-22.4223088444889
 30
0.0
 11
-486.6608545520574
 21
-111.4232210726352
 31
0.0
  0
LINE
  5
1FC
330
1F
100
AcDbEntity
  8
A-2
  6
Continuous
 62
     3
370
     9
100
AcDbLine
 10
-479.6609304336029
 20
-22.4223088444889
 30
0.0
 11
-479.6609304336029
 21
-111.4232210726352
 31
0.0
  0
LINE
  5
1FD
330
1F
100
AcDbEntity
  8
A-2
  6
Continuous
 62
     3
370
     9
100
AcDbLine
 10
-197.6608908432313
 20
-22.42216038059547
 30
0.0
 11
-162.7611122193925
 21
-11.42261896906672
 31
0.0
  0
LINE
  5
1FE
330
1F
100
AcDbEntity
  8
A-2
  6
Continuous
 62
     3
370
     9
100
AcDbLine
 10
-479.9591201638605
 20
-22.4223088444889
 30
0.0
 11
-445.0593415400219
 21
-11.42276743296031
 31
0.0
  0
LINE
  5
1FF
330
1F
100
AcDbEntity
  8
A-2
  6
Continuous
 62
     3
370
     9
100
AcDbLine
 10
-451.361188430858
 20
-22.4223088444889
 30
0.0
 11
-451.361188430858
 21
-111.4232210726352
 31
0.0
  0
LINE
  5
200
330
1F
100
AcDbEntity
  8
A-2
  6
Continuous
 62
     3
370
     9
100
AcDbLine
 10
-444.3612643124036
 20
-22.4223088444889
 30
0.0
 11
-444.3612643124036
 21
-111.4232210726352
 31
0.0
  0
LINE
  5
201
330
1F
100
AcDbEntity
  8
A-2
  6
Continuous
 62
     3
370
     9
100
AcDbLine
 10
-444.6594540426611
 20
-22.4223088444889
 30
0.0
 11
-409.7596754188226
 21
-11.42276743296031
 31
0.0
  0
LINE
  5
202
330
1F
100
AcDbEntity
  8
A-2
  6
Continuous
 62
     3
370
     9
100
AcDbLine
 10
-416.0615223096586
 20
-22.4223088444889
 30
0.0
 11
-416.0615223096586
 21
-111.4232210726352
 31
0.0
  0
LINE
  5
203
330
1F
100
AcDbEntity
  8
A-2
  6
Continuous
 62
     3
370
     9
100
AcDbLine
 10
-409.0615981912043
 20
-22.4223088444889
 30
0.0
 11
-409.0615981912043
 21
-111.4232210726352
 31
0.0
  0
LINE
  5
204
330
1F
100
AcDbEntity
  8
A-2
  6
Continuous
 62
     3
370
     9
100
AcDbLine
 10
-867.559448763945
 20
-211.4232293206292
 30
0.0
 11
-867.559448763945
 21
-122.4223170924831
 31
0.0
  0
LINE
  5
205
330
1F
100
AcDbEntity
  8
A-2
  6
Continuous
 62
     3
370
     9
100
AcDbLine
 10
-168.559963438776
 20
-122.4223170924831
 30
0.0
 11
-168.559963438776
 21
-211.4232293206292
 31
0.0
  0
LINE
  5
206
330
1F
100
AcDbEntity
  8
A-2
  6
Continuous
 62
     3
370
     9
100
AcDbLine
 10
-627.8595190368546
 20
-122.4223170924831
 30
0.0
 11
-627.8595190368546
 21
-211.4232293206292
 31
0.0
  0
LINE
  5
207
330
1F
100
AcDbEntity
  8
A-2
  6
Continuous
 62
     3
370
     9
100
AcDbLine
 10
-620.8595949184003
 20
-122.4223170924831
 30
0.0
 11
-620.8595949184003
 21
-211.4232293206292
 31
0.0
  0
LINE
  5
208
330
1F
100
AcDbEntity
  8
A-2
  6
Continuous
 62
     3
370
     9
100
AcDbLine
 10
-663.159185158054
 20
-122.4223170924831
 30
0.0
 11
-663.159185158054
 21
-211.4232293206292
 31
0.0
  0
LINE
  5
209
330
1F
100
AcDbEntity
  8
A-2
  6
Continuous
 62
     3
370
     9
100
AcDbLine
 10
-656.1592610395996
 20
-122.4223170924831
 30
0.0
 11
-656.1592610395996
 21
-211.4232293206292
 31
0.0
  0
LINE
  5
20A
330
1F
100
AcDbEntity
  8
A-2
  6
Continuous
 62
     3
370
     9
100
AcDbLine
 10
-698.4594451348277
 20
-122.4223170924831
 30
0.0
 11
-698.4594451348277
 21
-211.4232293206292
 31
0.0
  0
LINE
  5
20B
330
1F
100
AcDbEntity
  8
A-2
  6
Continuous
 62
     3
370
     9
100
AcDbLine
 10
-691.4593725524796
 20
-122.4223170924831
 30
0.0
 11
-691.4593725524796
 21
-211.4232293206292
 31
0.0
  0
LINE
  5
20C
330
1F
100
AcDbEntity
  8
A-2
  6
Continuous
 62
     3
370
     9
100
AcDbLine
 10
-733.7596308796545
 20
-122.4223170924831
 30
0.0
 11
-733.7596308796545
 21
-211.4232293206292
 31
0.0
  0
LINE
  5
20D
330
1F
100
AcDbEntity
  8
A-2
  6
Continuous
 62
     3
370
     9
100
AcDbLine
 10
-726.7596325292533
 20
-122.4223170924831
 30
0.0
 11
-726.7596325292533
 21
-211.4232293206292
 31
0.0
  0
LINE
  5
20E
330
1F
100
AcDbEntity
  8
A-2
  6
Continuous
 62
     3
370
     9
100
AcDbLine
 10
-769.0592227689069
 20
-122.4223170924831
 30
0.0
 11
-769.0592227689069
 21
-211.4232293206292
 31
0.0
  0
LINE
  5
20F
330
1F
100
AcDbEntity
  8
A-2
  6
Continuous
 62
     3
370
     9
100
AcDbLine
 10
-762.0592986504527
 20
-122.4223170924831
 30
0.0
 11
-762.0592986504527
 21
-211.4232293206292
 31
0.0
  0
LINE
  5
210
330
1F
100
AcDbEntity
  8
A-2
  6
Continuous
 62
     3
370
     9
100
AcDbLine
 10
-804.3593342817871
 20
-122.4223170924831
 30
0.0
 11
-804.3593342817871
 21
-211.4232293206292
 31
0.0
  0
LINE
  5
211
330
1F
100
AcDbEntity
  8
A-2
  6
Continuous
 62
     3
370
     9
100
AcDbLine
 10
-797.3594101633328
 20
-122.4223170924831
 30
0.0
 11
-797.3594101633328
 21
-211.4232293206292
 31
0.0
  0
LINE
  5
212
330
1F
100
AcDbEntity
  8
A-2
  6
Continuous
 62
     3
370
     9
100
AcDbLine
 10
-839.6595942585607
 20
-122.4223170924831
 30
0.0
 11
-839.6595942585607
 21
-211.4232293206292
 31
0.0
  0
LINE
  5
213
330
1F
100
AcDbEntity
  8
A-2
  6
Continuous
 62
     3
370
     9
100
AcDbLine
 10
-832.6595959081594
 20
-122.4223170924831
 30
0.0
 11
-832.6595959081594
 21
-211.4232293206292
 31
0.0
  0
LINE
  5
214
330
1F
100
AcDbEntity
  8
A-2
  6
Continuous
 62
     3
370
     9
100
AcDbLine
 10
-867.559448763945
 20
-122.4223170924831
 30
0.0
 11
-832.6595959081594
 21
-111.4227756809544
 31
0.0
  0
LINE
  5
215
330
1F
100
AcDbEntity
  8
A-2
  6
Continuous
 62
     3
370
     9
100
AcDbLine
 10
-832.2594114830117
 20
-122.4223170924831
 30
0.0
 11
-797.3594843952794
 21
-111.4227756809544
 31
0.0
  0
LINE
  5
216
330
1F
100
AcDbEntity
  8
A-2
  6
Continuous
 62
     3
370
     9
100
AcDbLine
 10
-796.9594484340254
 20
-122.4223170924831
 30
0.0
 11
-762.0596698101865
 21
-111.4227756809544
 31
0.0
  0
LINE
  5
217
330
1F
100
AcDbEntity
  8
A-2
  6
Continuous
 62
     3
370
     9
100
AcDbLine
 10
-761.659411153092
 20
-122.4223170924831
 30
0.0
 11
-726.7596325292533
 21
-111.4227756809544
 31
0.0
  0
LINE
  5
218
330
1F
100
AcDbEntity
  8
A-2
  6
Continuous
 62
     3
370
     9
100
AcDbLine
 10
-726.3593738721587
 20
-122.4223170924831
 30
0.0
 11
-691.4595952483199
 21
-111.4227756809544
 31
0.0
  0
LINE
  5
219
330
1F
100
AcDbEntity
  8
A-2
  6
Continuous
 62
     3
370
     9
100
AcDbLine
 10
-691.0594108231722
 20
-122.4223170924831
 30
0.0
 11
-656.1596321993335
 21
-111.4227756809544
 31
0.0
  0
LINE
  5
21A
330
1F
100
AcDbEntity
  8
A-2
  6
Continuous
 62
     3
370
     9
100
AcDbLine
 10
-874.5598925060269
 20
-113.5029775258656
 30
0.0
 11
-867.959558957146
 21
-111.4227756809544
 31
0.0
  0
LINE
  5
21B
330
1F
100
AcDbEntity
  8
A-2
  6
Continuous
 62
     3
370
     9
100
AcDbLine
 10
-874.5598925060269
 20
-111.4227756809544
 30
0.0
 11
-161.559890856428
 21
-111.4227756809544
 31
0.0
  0
LINE
  5
21C
330
1F
100
AcDbEntity
  8
A-2
  6
Continuous
 62
     3
370
     9
100
AcDbLine
 10
-874.5598925060269
 20
-122.4223170924831
 30
0.0
 11
-161.559890856428
 21
-122.4223170924831
 31
0.0
  0
LINE
  5
21D
330
1F
100
AcDbEntity
  8
A-2
  6
Continuous
 62
     3
370
     9
100
AcDbLine
 10
-515.2587862850598
 20
-122.4223170924831
 30
0.0
 11
-480.3590076612211
 21
-111.4227756809544
 31
0.0
  0
LINE
  5
21E
330
1F
100
AcDbEntity
  8
A-2
  6
Continuous
 62
     3
370
     9
100
AcDbLine
 10
-655.7592993102921
 20
-122.4221686285895
 30
0.0
 11
-620.8595206864535
 21
-111.4226272170608
 31
0.0
  0
LINE
  5
21F
330
1F
100
AcDbEntity
  8
A-2
  6
Continuous
 62
     3
370
     9
100
AcDbLine
 10
-592.5598529156554
 20
-122.4223170924831
 30
0.0
 11
-592.5598529156554
 21
-211.4232293206292
 31
0.0
  0
LINE
  5
220
330
1F
100
AcDbEntity
  8
A-2
  6
Continuous
 62
     3
370
     9
100
AcDbLine
 10
-585.559928797201
 20
-122.4223170924831
 30
0.0
 11
-585.559928797201
 21
-211.4232293206292
 31
0.0
  0
LINE
  5
221
330
1F
100
AcDbEntity
  8
A-2
  6
Continuous
 62
     3
370
     9
100
AcDbLine
 10
-620.4596331890928
 20
-122.4221686285895
 30
0.0
 11
-585.5598545652541
 21
-111.4226272170608
 31
0.0
  0
LINE
  5
222
330
1F
100
AcDbEntity
  8
A-2
  6
Continuous
 62
     3
370
     9
100
AcDbLine
 10
-557.260186794456
 20
-122.4223170924831
 30
0.0
 11
-557.260186794456
 21
-211.4232293206292
 31
0.0
  0
LINE
  5
223
330
1F
100
AcDbEntity
  8
A-2
  6
Continuous
 62
     3
370
     9
100
AcDbLine
 10
-550.2602626760016
 20
-122.4223170924831
 30
0.0
 11
-550.2602626760016
 21
-211.4232293206292
 31
0.0
  0
LINE
  5
224
330
1F
100
AcDbEntity
  8
A-2
  6
Continuous
 62
     3
370
     9
100
AcDbLine
 10
-585.1599670678935
 20
-122.4221686285895
 30
0.0
 11
-550.2601884440547
 21
-111.4226272170608
 31
0.0
  0
LINE
  5
225
330
1F
100
AcDbEntity
  8
A-2
  6
Continuous
 62
     3
370
     9
100
AcDbLine
 10
-521.9605206732566
 20
-122.4223170924831
 30
0.0
 11
-521.9605206732566
 21
-211.4232293206292
 31
0.0
  0
LINE
  5
226
330
1F
100
AcDbEntity
  8
A-2
  6
Continuous
 62
     3
370
     9
100
AcDbLine
 10
-514.9605965548022
 20
-122.4223170924831
 30
0.0
 11
-514.9605965548022
 21
-211.4232293206292
 31
0.0
  0
LINE
  5
227
330
1F
100
AcDbEntity
  8
A-2
  6
Continuous
 62
     3
370
     9
100
AcDbLine
 10
-549.8603009466941
 20
-122.4221686285895
 30
0.0
 11
-514.9605223228555
 21
-111.4226272170608
 31
0.0
  0
LINE
  5
228
330
1F
100
AcDbEntity
  8
A-2
  6
Continuous
 62
     3
370
     9
100
AcDbLine
 10
-486.6608545520574
 20
-122.4223170924831
 30
0.0
 11
-486.6608545520574
 21
-211.4232293206292
 31
0.0
  0
LINE
  5
229
330
1F
100
AcDbEntity
  8
A-2
  6
Continuous
 62
     3
370
     9
100
AcDbLine
 10
-479.6609304336029
 20
-122.4223170924831
 30
0.0
 11
-479.6609304336029
 21
-211.4232293206292
 31
0.0
  0
LINE
  5
22A
330
1F
100
AcDbEntity
  8
A-2
  6
Continuous
 62
     3
370
     9
100
AcDbLine
 10
-197.6608908432313
 20
-122.4221686285895
 30
0.0
 11
-162.7611122193925
 21
-111.4226272170608
 31
0.0
  0
LINE
  5
22B
330
1F
100
AcDbEntity
  8
A-2
  6
Continuous
 62
     3
370
     9
100
AcDbLine
 10
-479.9591201638605
 20
-122.4223170924831
 30
0.0
 11
-445.0593415400219
 21
-111.4227756809544
 31
0.0
  0
LINE
  5
22C
330
1F
100
AcDbEntity
  8
A-2
  6
Continuous
 62
     3
370
     9
100
AcDbLine
 10
-451.361188430858
 20
-122.4223170924831
 30
0.0
 11
-451.361188430858
 21
-211.4232293206292
 31
0.0
  0
LINE
  5
22D
330
1F
100
AcDbEntity
  8
A-2
  6
Continuous
 62
     3
370
     9
100
AcDbLine
 10
-444.3612643124036
 20
-122.4223170924831
 30
0.0
 11
-444.3612643124036
 21
-211.4232293206292
 31
0.0
  0
LINE
  5
22E
330
1F
100
AcDbEntity
  8
A-2
  6
Continuous
 62
     3
370
     9
100
AcDbLine
 10
-444.6594540426611
 20
-122.4223170924831
 30
0.0
 11
-409.7596754188226
 21
-111.4227756809544
 31
0.0
  0
LINE
  5
22F
330
1F
100
AcDbEntity
  8
A-2
  6
Continuous
 62
     3
370
     9
100
AcDbLine
 10
-416.0615223096586
 20
-122.4223170924831
 30
0.0
 11
-416.0615223096586
 21
-211.4232293206292
 31
0.0
  0
LINE
  5
230
330
1F
100
AcDbEntity
  8
A-2
  6
Continuous
 62
     3
370
     9
100
AcDbLine
 10
-409.0615981912043
 20
-122.4223170924831
 30
0.0
 11
-409.0615981912043
 21
-211.4232293206292
 31
0.0
  0
LINE
  5
231
330
1F
100
AcDbEntity
  8
A-1
  6
Continuous
 62
     2
370
     9
100
AcDbLine
 10
-891.5600475683159
 20
543.5772078230575
 30
0.0
 11
-891.5600475683159
 21
-276.4228746568834
 31
0.0
  0
LINE
  5
232
330
1F
100
AcDbEntity
  8
A-1
  6
Continuous
 62
     2
370
     9
100
AcDbLine
 10
-144.5600327219265
 20
543.5772078230575
 30
0.0
 11
-144.5600327219265
 21
-276.4228746568834
 31
0.0
  0
LINE
  5
233
330
1F
100
AcDbEntity
  8
A-1
  6
Continuous
 62
     2
370
     9
100
AcDbLine
 10
-891.5600475683159
 20
-276.4228746568834
 30
0.0
 11
-144.5600327219265
 21
-276.4228746568834
 31
0.0
  0
LINE
  5
234
330
1F
100
AcDbEntity
  8
A-2
  6
Continuous
 62
     3
370
     9
100
AcDbLine
 10
-161.559890856428
 20
533.5772738070102
 30
0.0
 11
-161.559890856428
 21
-266.4225694811022
 31
0.0
  0
LINE
  5
235
330
1F
100
AcDbEntity
  8
A-2
  6
Continuous
 62
     3
370
     9
100
AcDbLine
 10
-161.559890856428
 20
-266.4225694811022
 30
0.0
 11
-874.5598925060269
 21
-266.4225694811022
 31
0.0
  0
LINE
  5
236
330
1F
100
AcDbEntity
  8
A-1
  6
Continuous
 62
     2
370
     9
100
AcDbLine
 10
-150.560126749059
 20
537.5770395639781
 30
0.0
 11
-150.560126749059
 21
-270.4227063978039
 31
0.0
  0
LINE
  5
237
330
1F
100
AcDbEntity
  8
A-1
  6
Continuous
 62
     2
370
     9
100
AcDbLine
 10
-885.5599535411832
 20
537.5770395639781
 30
0.0
 11
-885.5599535411832
 21
-270.4227063978039
 31
0.0
  0
LINE
  5
238
330
1F
100
AcDbEntity
  8
A-1
  6
Continuous
 62
     2
370
     9
100
AcDbLine
 10
-323.0601020050768
 20
-287.0235678183066
 30
0.0
 11
-323.0601020050768
 21
-280.9231864310599
 31
0.0
  0
LINE
  5
239
330
1F
100
AcDbEntity
  8
A-1
  6
Continuous
 62
     2
370
     9
100
AcDbLine
 10
-223.0601679890294
 20
-297.0233533704603
 30
0.0
 11
-313.0600195251358
 21
-297.0233533704603
 31
0.0
  0
LINE
  5
23A
330
1F
100
AcDbEntity
  8
A-1
  6
Continuous
 62
     2
370
     9
100
AcDbLine
 10
-213.0600855090885
 20
-287.0235678183066
 30
0.0
 11
-213.0600855090885
 21
-280.9231864310599
 31
0.0
  0
LINE
  5
23B
330
1F
100
AcDbEntity
  8
A-1
  6
Continuous
 62
     2
370
     9
100
AcDbLine
 10
-222.0601152018672
 20
-287.0235678183066
 30
0.0
 11
-222.0601152018672
 21
-280.9231864310599
 31
0.0
  0
LINE
  5
23C
330
1F
100
AcDbEntity
  8
A-1
  6
Continuous
 62
     2
370
     9
100
AcDbLine
 10
-313.0600195251358
 20
-288.0234721415752
 30
0.0
 11
-223.0600195251358
 21
-288.0234721415752
 31
0.0
  0
LINE
  5
23D
330
1F
100
AcDbEntity
  8
A-1
  6
Continuous
 62
     2
370
     9
100
AcDbLine
 10
-314.0602207761916
 20
-287.0235678183066
 30
0.0
 11
-314.0602207761916
 21
-280.9231864310599
 31
0.0
  0
LINE
  5
23E
330
1F
100
AcDbEntity
  8
A-1
  6
JWW_CENTER1
 62
     2
370
     9
100
AcDbLine
 10
-318.5601613906341
 20
-272.8160928262246
 30
0.0
 11
-318.5601613906341
 21
-288.4131898622255
 31
0.0
  0
LINE
  5
23F
330
1F
100
AcDbEntity
  8
A-1
  6
JWW_CENTER1
 62
     2
370
     9
100
AcDbLine
 10
-310.3971711298655
 20
-280.9231864310599
 30
0.0
 11
-326.804212937298
 21
-280.9231864310599
 31
0.0
  0
LINE
  5
240
330
1F
100
AcDbEntity
  8
A-1
  6
JWW_CENTER1
 62
     2
370
     9
100
AcDbLine
 10
-217.5598776596376
 20
-272.8160928262246
 30
0.0
 11
-217.5598776596376
 21
-288.4131898622255
 31
0.0
  0
LINE
  5
241
330
1F
100
AcDbEntity
  8
A-1
  6
JWW_CENTER1
 62
     2
370
     9
100
AcDbLine
 10
-209.3971843266561
 20
-280.9231864310599
 30
0.0
 11
-225.8040776701951
 21
-280.9231864310599
 31
0.0
  0
LINE
  5
242
330
1F
100
AcDbEntity
  8
A-1
  6
Continuous
 62
     2
370
     9
100
AcDbLine
 10
-323.0601020050768
 20
554.1773813608531
 30
0.0
 11
-323.0601020050768
 21
548.0772969013935
 31
0.0
  0
LINE
  5
243
330
1F
100
AcDbEntity
  8
A-1
  6
Continuous
 62
     2
370
     9
100
AcDbLine
 10
-223.0601679890294
 20
564.1771669130069
 30
0.0
 11
-313.0600195251358
 21
564.1771669130069
 31
0.0
  0
LINE
  5
244
330
1F
100
AcDbEntity
  8
A-1
  6
Continuous
 62
     2
370
     9
100
AcDbLine
 10
-213.0600855090885
 20
554.1773813608531
 30
0.0
 11
-213.0600855090885
 21
548.0772969013935
 31
0.0
  0
LINE
  5
245
330
1F
100
AcDbEntity
  8
A-1
  6
Continuous
 62
     2
370
     9
100
AcDbLine
 10
-222.0601152018672
 20
554.1773813608531
 30
0.0
 11
-222.0601152018672
 21
548.0772969013935
 31
0.0
  0
LINE
  5
246
330
1F
100
AcDbEntity
  8
A-1
  6
Continuous
 62
     2
370
     9
100
AcDbLine
 10
-313.0600195251358
 20
555.1772856841217
 30
0.0
 11
-223.0600195251358
 21
555.1772856841217
 31
0.0
  0
LINE
  5
247
330
1F
100
AcDbEntity
  8
A-1
  6
Continuous
 62
     2
370
     9
100
AcDbLine
 10
-314.0602207761916
 20
554.1773813608531
 30
0.0
 11
-314.0602207761916
 21
548.0772969013935
 31
0.0
  0
LINE
  5
248
330
1F
100
AcDbEntity
  8
A-1
  6
JWW_CENTER1
 62
     2
370
     9
100
AcDbLine
 10
-318.5601613906341
 20
539.9698321368244
 30
0.0
 11
-318.5601613906341
 21
555.5674487964528
 31
0.0
  0
LINE
  5
249
330
1F
100
AcDbEntity
  8
A-1
  6
JWW_CENTER1
 62
     2
370
     9
100
AcDbLine
 10
-217.5598776596376
 20
539.9698321368244
 30
0.0
 11
-217.5598776596376
 21
555.5674487964528
 31
0.0
  0
LINE
  5
24A
330
1F
100
AcDbEntity
  8
A-1
  6
JWW_CENTER1
 62
     2
370
     9
100
AcDbLine
 10
-209.3971843266561
 20
548.0772969013935
 30
0.0
 11
-225.8040776701951
 21
548.0772969013935
 31
0.0
  0
LINE
  5
24B
330
1F
100
AcDbEntity
  8
A-1
  6
JWW_CENTER1
 62
     2
370
     9
100
AcDbLine
 10
-310.3974680576527
 20
548.0772969013935
 30
0.0
 11
-326.8043614011916
 21
548.0772969013935
 31
0.0
  0
LINE
  5
24C
330
1F
100
AcDbEntity
  8
A-2
  6
Continuous
 62
     3
370
     9
100
AcDbLine
 10
-874.5598925060269
 20
-266.4225694811022
 30
0.0
 11
-874.5598925060269
 21
533.5772738070102
 31
0.0
  0
LINE
  5
24D
330
1F
100
AcDbEntity
  8
A-2
  6
Continuous
 62
     3
370
     9
100
AcDbLine
 10
-409.3597879214619
 20
477.5777323954816
 30
0.0
 11
-374.4600092976232
 21
488.5772738070102
 31
0.0
  0
LINE
  5
24E
330
1F
100
AcDbEntity
  8
A-2
  6
Continuous
 62
     3
370
     9
100
AcDbLine
 10
-409.3597879214619
 20
-222.4224738043708
 30
0.0
 11
-374.4600092976232
 21
-211.4227839289484
 31
0.0
  0
LINE
  5
24F
330
1F
100
AcDbEntity
  8
A-2
  6
Continuous
 62
     3
370
     9
100
AcDbLine
 10
-409.3597879214619
 20
377.5776499155406
 30
0.0
 11
-374.4600092976232
 21
388.577339790963
 31
0.0
  0
LINE
  5
250
330
1F
100
AcDbEntity
  8
A-2
  6
Continuous
 62
     3
370
     9
100
AcDbLine
 10
-409.3597879214619
 20
277.5777158994933
 30
0.0
 11
-374.4600092976232
 21
288.5773315429688
 31
0.0
  0
LINE
  5
251
330
1F
100
AcDbEntity
  8
A-2
  6
Continuous
 62
     3
370
     9
100
AcDbLine
 10
-409.3597879214619
 20
177.5777076514992
 30
0.0
 11
-374.4600092976232
 21
188.577249063028
 31
0.0
  0
LINE
  5
252
330
1F
100
AcDbEntity
  8
A-2
  6
Continuous
 62
     3
370
     9
100
AcDbLine
 10
-380.7618561884594
 20
529.0773331925677
 30
0.0
 11
-380.7618561884594
 21
488.5772738070102
 31
0.0
  0
LINE
  5
253
330
1F
100
AcDbEntity
  8
A-2
  6
Continuous
 62
     3
370
     9
100
AcDbLine
 10
-380.7618561884594
 20
477.5777323954816
 30
0.0
 11
-380.7618561884594
 21
388.5767459353886
 31
0.0
  0
LINE
  5
254
330
1F
100
AcDbEntity
  8
A-2
  6
Continuous
 62
     3
370
     9
100
AcDbLine
 10
-373.7619320700049
 20
477.5777323954816
 30
0.0
 11
-373.7619320700049
 21
388.5767459353886
 31
0.0
  0
LINE
  5
255
330
1F
100
AcDbEntity
  8
A-2
  6
Continuous
 62
     3
370
     9
100
AcDbLine
 10
-380.7618561884594
 20
-222.4228449641047
 30
0.0
 11
-380.7618561884594
 21
-261.9227773305532
 31
0.0
  0
LINE
  5
256
330
1F
100
AcDbEntity
  8
A-2
  6
Continuous
 62
     3
370
     9
100
AcDbLine
 10
-373.7619320700049
 20
-222.4228449641047
 30
0.0
 11
-373.7619320700049
 21
-261.9227773305532
 31
0.0
  0
LINE
  5
257
330
1F
100
AcDbEntity
  8
A-2
  6
Continuous
 62
     3
370
     9
100
AcDbLine
 10
-380.7618561884594
 20
377.5776499155406
 30
0.0
 11
-380.7618561884594
 21
288.5768119193413
 31
0.0
  0
LINE
  5
258
330
1F
100
AcDbEntity
  8
A-2
  6
Continuous
 62
     3
370
     9
100
AcDbLine
 10
-373.7619320700049
 20
377.5776499155406
 30
0.0
 11
-373.7619320700049
 21
288.5768119193413
 31
0.0
  0
LINE
  5
259
330
1F
100
AcDbEntity
  8
A-2
  6
Continuous
 62
     3
370
     9
100
AcDbLine
 10
-380.7618561884594
 20
277.5777158994933
 30
0.0
 11
-380.7618561884594
 21
188.5768036713472
 31
0.0
  0
LINE
  5
25A
330
1F
100
AcDbEntity
  8
A-2
  6
Continuous
 62
     3
370
     9
100
AcDbLine
 10
-373.7619320700049
 20
277.5777158994933
 30
0.0
 11
-373.7619320700049
 21
188.5768036713472
 31
0.0
  0
LINE
  5
25B
330
1F
100
AcDbEntity
  8
A-2
  6
Continuous
 62
     3
370
     9
100
AcDbLine
 10
-380.7618561884594
 20
177.5777076514992
 30
0.0
 11
-380.7618561884594
 21
88.57679542335313
 31
0.0
  0
LINE
  5
25C
330
1F
100
AcDbEntity
  8
A-2
  6
Continuous
 62
     3
370
     9
100
AcDbLine
 10
-373.7619320700049
 20
177.5777076514992
 30
0.0
 11
-373.7619320700049
 21
88.57679542335313
 31
0.0
  0
LINE
  5
25D
330
1F
100
AcDbEntity
  8
A-2
  6
Continuous
 62
     3
370
     9
100
AcDbLine
 10
-373.7619320700049
 20
529.0773331925677
 30
0.0
 11
-373.7619320700049
 21
488.5772738070102
 31
0.0
  0
LINE
  5
25E
330
1F
100
AcDbEntity
  8
A-2
  6
Continuous
 62
     3
370
     9
100
AcDbLine
 10
-409.3597879214619
 20
77.57769940350516
 30
0.0
 11
-374.4600092976232
 21
88.57724081503392
 31
0.0
  0
LINE
  5
25F
330
1F
100
AcDbEntity
  8
A-2
  6
Continuous
 62
     3
370
     9
100
AcDbLine
 10
-380.7618561884594
 20
77.57769940350516
 30
0.0
 11
-380.7618561884594
 21
-11.42321282464093
 31
0.0
  0
LINE
  5
260
330
1F
100
AcDbEntity
  8
A-2
  6
Continuous
 62
     3
370
     9
100
AcDbLine
 10
-373.7619320700049
 20
77.57769940350516
 30
0.0
 11
-373.7619320700049
 21
-11.42321282464093
 31
0.0
  0
LINE
  5
261
330
1F
100
AcDbEntity
  8
A-2
  6
Continuous
 62
     3
370
     9
100
AcDbLine
 10
-409.3597879214619
 20
-22.4223088444889
 30
0.0
 11
-374.4600092976232
 21
-11.42276743296031
 31
0.0
  0
LINE
  5
262
330
1F
100
AcDbEntity
  8
A-2
  6
Continuous
 62
     3
370
     9
100
AcDbLine
 10
-380.7618561884594
 20
-22.4223088444889
 30
0.0
 11
-380.7618561884594
 21
-111.4232210726352
 31
0.0
  0
LINE
  5
263
330
1F
100
AcDbEntity
  8
A-2
  6
Continuous
 62
     3
370
     9
100
AcDbLine
 10
-373.7619320700049
 20
-22.4223088444889
 30
0.0
 11
-373.7619320700049
 21
-111.4232210726352
 31
0.0
  0
LINE
  5
264
330
1F
100
AcDbEntity
  8
A-2
  6
Continuous
 62
     3
370
     9
100
AcDbLine
 10
-409.3597879214619
 20
-122.4223170924831
 30
0.0
 11
-374.4600092976232
 21
-111.4227756809544
 31
0.0
  0
LINE
  5
265
330
1F
100
AcDbEntity
  8
A-2
  6
Continuous
 62
     3
370
     9
100
AcDbLine
 10
-380.7618561884594
 20
-122.4223170924831
 30
0.0
 11
-380.7618561884594
 21
-211.4232293206292
 31
0.0
  0
LINE
  5
266
330
1F
100
AcDbEntity
  8
A-2
  6
Continuous
 62
     3
370
     9
100
AcDbLine
 10
-373.7619320700049
 20
-122.4223170924831
 30
0.0
 11
-373.7619320700049
 21
-211.4232293206292
 31
0.0
  0
LINE
  5
267
330
1F
100
AcDbEntity
  8
A-2
  6
Continuous
 62
     3
370
     9
100
AcDbLine
 10
-374.0601218002626
 20
477.5777323954816
 30
0.0
 11
-339.1603431764238
 21
488.5772738070102
 31
0.0
  0
LINE
  5
268
330
1F
100
AcDbEntity
  8
A-2
  6
Continuous
 62
     3
370
     9
100
AcDbLine
 10
-374.0601218002626
 20
-222.4224738043708
 30
0.0
 11
-339.1603431764238
 21
-211.4227839289484
 31
0.0
  0
LINE
  5
269
330
1F
100
AcDbEntity
  8
A-2
  6
Continuous
 62
     3
370
     9
100
AcDbLine
 10
-374.0601218002626
 20
377.5776499155406
 30
0.0
 11
-339.1603431764238
 21
388.577339790963
 31
0.0
  0
LINE
  5
26A
330
1F
100
AcDbEntity
  8
A-2
  6
Continuous
 62
     3
370
     9
100
AcDbLine
 10
-374.0601218002626
 20
277.5777158994933
 30
0.0
 11
-339.1603431764238
 21
288.5773315429688
 31
0.0
  0
LINE
  5
26B
330
1F
100
AcDbEntity
  8
A-2
  6
Continuous
 62
     3
370
     9
100
AcDbLine
 10
-374.0601218002626
 20
177.5777076514992
 30
0.0
 11
-339.1603431764238
 21
188.577249063028
 31
0.0
  0
LINE
  5
26C
330
1F
100
AcDbEntity
  8
A-2
  6
Continuous
 62
     3
370
     9
100
AcDbLine
 10
-345.4621900672601
 20
529.0773331925677
 30
0.0
 11
-345.4621900672601
 21
488.5772738070102
 31
0.0
  0
LINE
  5
26D
330
1F
100
AcDbEntity
  8
A-2
  6
Continuous
 62
     3
370
     9
100
AcDbLine
 10
-345.4621900672601
 20
477.5777323954816
 30
0.0
 11
-345.4621900672601
 21
388.5767459353886
 31
0.0
  0
LINE
  5
26E
330
1F
100
AcDbEntity
  8
A-2
  6
Continuous
 62
     3
370
     9
100
AcDbLine
 10
-338.4622659488057
 20
477.5777323954816
 30
0.0
 11
-338.4622659488057
 21
388.5767459353886
 31
0.0
  0
LINE
  5
26F
330
1F
100
AcDbEntity
  8
A-2
  6
Continuous
 62
     3
370
     9
100
AcDbLine
 10
-345.4621900672601
 20
-222.4228449641047
 30
0.0
 11
-345.4621900672601
 21
-261.9227773305532
 31
0.0
  0
LINE
  5
270
330
1F
100
AcDbEntity
  8
A-2
  6
Continuous
 62
     3
370
     9
100
AcDbLine
 10
-338.4622659488057
 20
-222.4228449641047
 30
0.0
 11
-338.4622659488057
 21
-261.9227773305532
 31
0.0
  0
LINE
  5
271
330
1F
100
AcDbEntity
  8
A-2
  6
Continuous
 62
     3
370
     9
100
AcDbLine
 10
-345.4621900672601
 20
377.5776499155406
 30
0.0
 11
-345.4621900672601
 21
288.5768119193413
 31
0.0
  0
LINE
  5
272
330
1F
100
AcDbEntity
  8
A-2
  6
Continuous
 62
     3
370
     9
100
AcDbLine
 10
-338.4622659488057
 20
377.5776499155406
 30
0.0
 11
-338.4622659488057
 21
288.5768119193413
 31
0.0
  0
LINE
  5
273
330
1F
100
AcDbEntity
  8
A-2
  6
Continuous
 62
     3
370
     9
100
AcDbLine
 10
-345.4621900672601
 20
277.5777158994933
 30
0.0
 11
-345.4621900672601
 21
188.5768036713472
 31
0.0
  0
LINE
  5
274
330
1F
100
AcDbEntity
  8
A-2
  6
Continuous
 62
     3
370
     9
100
AcDbLine
 10
-338.4622659488057
 20
277.5777158994933
 30
0.0
 11
-338.4622659488057
 21
188.5768036713472
 31
0.0
  0
LINE
  5
275
330
1F
100
AcDbEntity
  8
A-2
  6
Continuous
 62
     3
370
     9
100
AcDbLine
 10
-345.4621900672601
 20
177.5777076514992
 30
0.0
 11
-345.4621900672601
 21
88.57679542335313
 31
0.0
  0
LINE
  5
276
330
1F
100
AcDbEntity
  8
A-2
  6
Continuous
 62
     3
370
     9
100
AcDbLine
 10
-338.4622659488057
 20
177.5777076514992
 30
0.0
 11
-338.4622659488057
 21
88.57679542335313
 31
0.0
  0
LINE
  5
277
330
1F
100
AcDbEntity
  8
A-2
  6
Continuous
 62
     3
370
     9
100
AcDbLine
 10
-338.4622659488057
 20
529.0773331925677
 30
0.0
 11
-338.4622659488057
 21
488.5772738070102
 31
0.0
  0
LINE
  5
278
330
1F
100
AcDbEntity
  8
A-2
  6
Continuous
 62
     3
370
     9
100
AcDbLine
 10
-374.0601218002626
 20
77.57769940350516
 30
0.0
 11
-339.1603431764238
 21
88.57724081503392
 31
0.0
  0
LINE
  5
279
330
1F
100
AcDbEntity
  8
A-2
  6
Continuous
 62
     3
370
     9
100
AcDbLine
 10
-345.4621900672601
 20
77.57769940350516
 30
0.0
 11
-345.4621900672601
 21
-11.42321282464093
 31
0.0
  0
LINE
  5
27A
330
1F
100
AcDbEntity
  8
A-2
  6
Continuous
 62
     3
370
     9
100
AcDbLine
 10
-338.4622659488057
 20
77.57769940350516
 30
0.0
 11
-338.4622659488057
 21
-11.42321282464093
 31
0.0
  0
LINE
  5
27B
330
1F
100
AcDbEntity
  8
A-2
  6
Continuous
 62
     3
370
     9
100
AcDbLine
 10
-374.0601218002626
 20
-22.4223088444889
 30
0.0
 11
-339.1603431764238
 21
-11.42276743296031
 31
0.0
  0
LINE
  5
27C
330
1F
100
AcDbEntity
  8
A-2
  6
Continuous
 62
     3
370
     9
100
AcDbLine
 10
-345.4621900672601
 20
-22.4223088444889
 30
0.0
 11
-345.4621900672601
 21
-111.4232210726352
 31
0.0
  0
LINE
  5
27D
330
1F
100
AcDbEntity
  8
A-2
  6
Continuous
 62
     3
370
     9
100
AcDbLine
 10
-338.4622659488057
 20
-22.4223088444889
 30
0.0
 11
-338.4622659488057
 21
-111.4232210726352
 31
0.0
  0
LINE
  5
27E
330
1F
100
AcDbEntity
  8
A-2
  6
Continuous
 62
     3
370
     9
100
AcDbLine
 10
-374.0601218002626
 20
-122.4223170924831
 30
0.0
 11
-339.1603431764238
 21
-111.4227756809544
 31
0.0
  0
LINE
  5
27F
330
1F
100
AcDbEntity
  8
A-2
  6
Continuous
 62
     3
370
     9
100
AcDbLine
 10
-345.4621900672601
 20
-122.4223170924831
 30
0.0
 11
-345.4621900672601
 21
-211.4232293206292
 31
0.0
  0
LINE
  5
280
330
1F
100
AcDbEntity
  8
A-2
  6
Continuous
 62
     3
370
     9
100
AcDbLine
 10
-338.4622659488057
 20
-122.4223170924831
 30
0.0
 11
-338.4622659488057
 21
-211.4232293206292
 31
0.0
  0
LINE
  5
281
330
1F
100
AcDbEntity
  8
A-2
  6
Continuous
 62
     3
370
     9
100
AcDbLine
 10
-338.7604556790632
 20
477.5777323954816
 30
0.0
 11
-303.8606770552246
 21
488.5772738070102
 31
0.0
  0
LINE
  5
282
330
1F
100
AcDbEntity
  8
A-2
  6
Continuous
 62
     3
370
     9
100
AcDbLine
 10
-338.7604556790632
 20
-222.4224738043708
 30
0.0
 11
-303.8606770552246
 21
-211.4227839289484
 31
0.0
  0
LINE
  5
283
330
1F
100
AcDbEntity
  8
A-2
  6
Continuous
 62
     3
370
     9
100
AcDbLine
 10
-338.7604556790632
 20
377.5776499155406
 30
0.0
 11
-303.8606770552246
 21
388.577339790963
 31
0.0
  0
LINE
  5
284
330
1F
100
AcDbEntity
  8
A-2
  6
Continuous
 62
     3
370
     9
100
AcDbLine
 10
-338.7604556790632
 20
277.5777158994933
 30
0.0
 11
-303.8606770552246
 21
288.5773315429688
 31
0.0
  0
LINE
  5
285
330
1F
100
AcDbEntity
  8
A-2
  6
Continuous
 62
     3
370
     9
100
AcDbLine
 10
-338.7604556790632
 20
177.5777076514992
 30
0.0
 11
-303.8606770552246
 21
188.577249063028
 31
0.0
  0
LINE
  5
286
330
1F
100
AcDbEntity
  8
A-2
  6
Continuous
 62
     3
370
     9
100
AcDbLine
 10
-310.1625239460607
 20
529.0773331925677
 30
0.0
 11
-310.1625239460607
 21
488.5772738070102
 31
0.0
  0
LINE
  5
287
330
1F
100
AcDbEntity
  8
A-2
  6
Continuous
 62
     3
370
     9
100
AcDbLine
 10
-310.1625239460607
 20
477.5777323954816
 30
0.0
 11
-310.1625239460607
 21
388.5767459353886
 31
0.0
  0
LINE
  5
288
330
1F
100
AcDbEntity
  8
A-2
  6
Continuous
 62
     3
370
     9
100
AcDbLine
 10
-303.1625998276063
 20
477.5777323954816
 30
0.0
 11
-303.1625998276063
 21
388.5767459353886
 31
0.0
  0
LINE
  5
289
330
1F
100
AcDbEntity
  8
A-2
  6
Continuous
 62
     3
370
     9
100
AcDbLine
 10
-310.1625239460607
 20
-222.4228449641047
 30
0.0
 11
-310.1625239460607
 21
-261.9227773305532
 31
0.0
  0
LINE
  5
28A
330
1F
100
AcDbEntity
  8
A-2
  6
Continuous
 62
     3
370
     9
100
AcDbLine
 10
-303.1625998276063
 20
-222.4228449641047
 30
0.0
 11
-303.1625998276063
 21
-261.9227773305532
 31
0.0
  0
LINE
  5
28B
330
1F
100
AcDbEntity
  8
A-2
  6
Continuous
 62
     3
370
     9
100
AcDbLine
 10
-310.1625239460607
 20
377.5776499155406
 30
0.0
 11
-310.1625239460607
 21
288.5768119193413
 31
0.0
  0
LINE
  5
28C
330
1F
100
AcDbEntity
  8
A-2
  6
Continuous
 62
     3
370
     9
100
AcDbLine
 10
-303.1625998276063
 20
377.5776499155406
 30
0.0
 11
-303.1625998276063
 21
288.5768119193413
 31
0.0
  0
LINE
  5
28D
330
1F
100
AcDbEntity
  8
A-2
  6
Continuous
 62
     3
370
     9
100
AcDbLine
 10
-310.1625239460607
 20
277.5777158994933
 30
0.0
 11
-310.1625239460607
 21
188.5768036713472
 31
0.0
  0
LINE
  5
28E
330
1F
100
AcDbEntity
  8
A-2
  6
Continuous
 62
     3
370
     9
100
AcDbLine
 10
-303.1625998276063
 20
277.5777158994933
 30
0.0
 11
-303.1625998276063
 21
188.5768036713472
 31
0.0
  0
LINE
  5
28F
330
1F
100
AcDbEntity
  8
A-2
  6
Continuous
 62
     3
370
     9
100
AcDbLine
 10
-310.1625239460607
 20
177.5777076514992
 30
0.0
 11
-310.1625239460607
 21
88.57679542335313
 31
0.0
  0
LINE
  5
290
330
1F
100
AcDbEntity
  8
A-2
  6
Continuous
 62
     3
370
     9
100
AcDbLine
 10
-303.1625998276063
 20
177.5777076514992
 30
0.0
 11
-303.1625998276063
 21
88.57679542335313
 31
0.0
  0
LINE
  5
291
330
1F
100
AcDbEntity
  8
A-2
  6
Continuous
 62
     3
370
     9
100
AcDbLine
 10
-303.1625998276063
 20
529.0773331925677
 30
0.0
 11
-303.1625998276063
 21
488.5772738070102
 31
0.0
  0
LINE
  5
292
330
1F
100
AcDbEntity
  8
A-2
  6
Continuous
 62
     3
370
     9
100
AcDbLine
 10
-338.7604556790632
 20
77.57769940350516
 30
0.0
 11
-303.8606770552246
 21
88.57724081503392
 31
0.0
  0
LINE
  5
293
330
1F
100
AcDbEntity
  8
A-2
  6
Continuous
 62
     3
370
     9
100
AcDbLine
 10
-310.1625239460607
 20
77.57769940350516
 30
0.0
 11
-310.1625239460607
 21
-11.42321282464093
 31
0.0
  0
LINE
  5
294
330
1F
100
AcDbEntity
  8
A-2
  6
Continuous
 62
     3
370
     9
100
AcDbLine
 10
-303.1625998276063
 20
77.57769940350516
 30
0.0
 11
-303.1625998276063
 21
-11.42321282464093
 31
0.0
  0
LINE
  5
295
330
1F
100
AcDbEntity
  8
A-2
  6
Continuous
 62
     3
370
     9
100
AcDbLine
 10
-338.7604556790632
 20
-22.4223088444889
 30
0.0
 11
-303.8606770552246
 21
-11.42276743296031
 31
0.0
  0
LINE
  5
296
330
1F
100
AcDbEntity
  8
A-2
  6
Continuous
 62
     3
370
     9
100
AcDbLine
 10
-310.1625239460607
 20
-22.4223088444889
 30
0.0
 11
-310.1625239460607
 21
-111.4232210726352
 31
0.0
  0
LINE
  5
297
330
1F
100
AcDbEntity
  8
A-2
  6
Continuous
 62
     3
370
     9
100
AcDbLine
 10
-303.1625998276063
 20
-22.4223088444889
 30
0.0
 11
-303.1625998276063
 21
-111.4232210726352
 31
0.0
  0
LINE
  5
298
330
1F
100
AcDbEntity
  8
A-2
  6
Continuous
 62
     3
370
     9
100
AcDbLine
 10
-338.7604556790632
 20
-122.4223170924831
 30
0.0
 11
-303.8606770552246
 21
-111.4227756809544
 31
0.0
  0
LINE
  5
299
330
1F
100
AcDbEntity
  8
A-2
  6
Continuous
 62
     3
370
     9
100
AcDbLine
 10
-310.1625239460607
 20
-122.4223170924831
 30
0.0
 11
-310.1625239460607
 21
-211.4232293206292
 31
0.0
  0
LINE
  5
29A
330
1F
100
AcDbEntity
  8
A-2
  6
Continuous
 62
     3
370
     9
100
AcDbLine
 10
-303.1625998276063
 20
-122.4223170924831
 30
0.0
 11
-303.1625998276063
 21
-211.4232293206292
 31
0.0
  0
LINE
  5
29B
330
1F
100
AcDbEntity
  8
A-2
  6
Continuous
 62
     3
370
     9
100
AcDbLine
 10
-303.460789557864
 20
477.5777323954816
 30
0.0
 11
-268.5610109340252
 21
488.5772738070102
 31
0.0
  0
LINE
  5
29C
330
1F
100
AcDbEntity
  8
A-2
  6
Continuous
 62
     3
370
     9
100
AcDbLine
 10
-303.460789557864
 20
-222.4224738043708
 30
0.0
 11
-268.5610109340252
 21
-211.4227839289484
 31
0.0
  0
LINE
  5
29D
330
1F
100
AcDbEntity
  8
A-2
  6
Continuous
 62
     3
370
     9
100
AcDbLine
 10
-303.460789557864
 20
377.5776499155406
 30
0.0
 11
-268.5610109340252
 21
388.577339790963
 31
0.0
  0
LINE
  5
29E
330
1F
100
AcDbEntity
  8
A-2
  6
Continuous
 62
     3
370
     9
100
AcDbLine
 10
-303.460789557864
 20
277.5777158994933
 30
0.0
 11
-268.5610109340252
 21
288.5773315429688
 31
0.0
  0
LINE
  5
29F
330
1F
100
AcDbEntity
  8
A-2
  6
Continuous
 62
     3
370
     9
100
AcDbLine
 10
-303.460789557864
 20
177.5777076514992
 30
0.0
 11
-268.5610109340252
 21
188.577249063028
 31
0.0
  0
LINE
  5
2A0
330
1F
100
AcDbEntity
  8
A-2
  6
Continuous
 62
     3
370
     9
100
AcDbLine
 10
-274.8628578248613
 20
529.0773331925677
 30
0.0
 11
-274.8628578248613
 21
488.5772738070102
 31
0.0
  0
LINE
  5
2A1
330
1F
100
AcDbEntity
  8
A-2
  6
Continuous
 62
     3
370
     9
100
AcDbLine
 10
-274.8628578248613
 20
477.5777323954816
 30
0.0
 11
-274.8628578248613
 21
388.5767459353886
 31
0.0
  0
LINE
  5
2A2
330
1F
100
AcDbEntity
  8
A-2
  6
Continuous
 62
     3
370
     9
100
AcDbLine
 10
-267.8629337064069
 20
477.5777323954816
 30
0.0
 11
-267.8629337064069
 21
388.5767459353886
 31
0.0
  0
LINE
  5
2A3
330
1F
100
AcDbEntity
  8
A-2
  6
Continuous
 62
     3
370
     9
100
AcDbLine
 10
-274.8628578248613
 20
-222.4228449641047
 30
0.0
 11
-274.8628578248613
 21
-261.9227773305532
 31
0.0
  0
LINE
  5
2A4
330
1F
100
AcDbEntity
  8
A-2
  6
Continuous
 62
     3
370
     9
100
AcDbLine
 10
-267.8629337064069
 20
-222.4228449641047
 30
0.0
 11
-267.8629337064069
 21
-261.9227773305532
 31
0.0
  0
LINE
  5
2A5
330
1F
100
AcDbEntity
  8
A-2
  6
Continuous
 62
     3
370
     9
100
AcDbLine
 10
-274.8628578248613
 20
377.5776499155406
 30
0.0
 11
-274.8628578248613
 21
288.5768119193413
 31
0.0
  0
LINE
  5
2A6
330
1F
100
AcDbEntity
  8
A-2
  6
Continuous
 62
     3
370
     9
100
AcDbLine
 10
-267.8629337064069
 20
377.5776499155406
 30
0.0
 11
-267.8629337064069
 21
288.5768119193413
 31
0.0
  0
LINE
  5
2A7
330
1F
100
AcDbEntity
  8
A-2
  6
Continuous
 62
     3
370
     9
100
AcDbLine
 10
-274.8628578248613
 20
277.5777158994933
 30
0.0
 11
-274.8628578248613
 21
188.5768036713472
 31
0.0
  0
LINE
  5
2A8
330
1F
100
AcDbEntity
  8
A-2
  6
Continuous
 62
     3
370
     9
100
AcDbLine
 10
-267.8629337064069
 20
277.5777158994933
 30
0.0
 11
-267.8629337064069
 21
188.5768036713472
 31
0.0
  0
LINE
  5
2A9
330
1F
100
AcDbEntity
  8
A-2
  6
Continuous
 62
     3
370
     9
100
AcDbLine
 10
-274.8628578248613
 20
177.5777076514992
 30
0.0
 11
-274.8628578248613
 21
88.57679542335313
 31
0.0
  0
LINE
  5
2AA
330
1F
100
AcDbEntity
  8
A-2
  6
Continuous
 62
     3
370
     9
100
AcDbLine
 10
-267.8629337064069
 20
177.5777076514992
 30
0.0
 11
-267.8629337064069
 21
88.57679542335313
 31
0.0
  0
LINE
  5
2AB
330
1F
100
AcDbEntity
  8
A-2
  6
Continuous
 62
     3
370
     9
100
AcDbLine
 10
-267.8629337064069
 20
529.0773331925677
 30
0.0
 11
-267.8629337064069
 21
488.5772738070102
 31
0.0
  0
LINE
  5
2AC
330
1F
100
AcDbEntity
  8
A-2
  6
Continuous
 62
     3
370
     9
100
AcDbLine
 10
-303.460789557864
 20
77.57769940350516
 30
0.0
 11
-268.5610109340252
 21
88.57724081503392
 31
0.0
  0
LINE
  5
2AD
330
1F
100
AcDbEntity
  8
A-2
  6
Continuous
 62
     3
370
     9
100
AcDbLine
 10
-274.8628578248613
 20
77.57769940350516
 30
0.0
 11
-274.8628578248613
 21
-11.42321282464093
 31
0.0
  0
LINE
  5
2AE
330
1F
100
AcDbEntity
  8
A-2
  6
Continuous
 62
     3
370
     9
100
AcDbLine
 10
-267.8629337064069
 20
77.57769940350516
 30
0.0
 11
-267.8629337064069
 21
-11.42321282464093
 31
0.0
  0
LINE
  5
2AF
330
1F
100
AcDbEntity
  8
A-2
  6
Continuous
 62
     3
370
     9
100
AcDbLine
 10
-303.460789557864
 20
-22.4223088444889
 30
0.0
 11
-268.5610109340252
 21
-11.42276743296031
 31
0.0
  0
LINE
  5
2B0
330
1F
100
AcDbEntity
  8
A-2
  6
Continuous
 62
     3
370
     9
100
AcDbLine
 10
-274.8628578248613
 20
-22.4223088444889
 30
0.0
 11
-274.8628578248613
 21
-111.4232210726352
 31
0.0
  0
LINE
  5
2B1
330
1F
100
AcDbEntity
  8
A-2
  6
Continuous
 62
     3
370
     9
100
AcDbLine
 10
-267.8629337064069
 20
-22.4223088444889
 30
0.0
 11
-267.8629337064069
 21
-111.4232210726352
 31
0.0
  0
LINE
  5
2B2
330
1F
100
AcDbEntity
  8
A-2
  6
Continuous
 62
     3
370
     9
100
AcDbLine
 10
-303.460789557864
 20
-122.4223170924831
 30
0.0
 11
-268.5610109340252
 21
-111.4227756809544
 31
0.0
  0
LINE
  5
2B3
330
1F
100
AcDbEntity
  8
A-2
  6
Continuous
 62
     3
370
     9
100
AcDbLine
 10
-274.8628578248613
 20
-122.4223170924831
 30
0.0
 11
-274.8628578248613
 21
-211.4232293206292
 31
0.0
  0
LINE
  5
2B4
330
1F
100
AcDbEntity
  8
A-2
  6
Continuous
 62
     3
370
     9
100
AcDbLine
 10
-267.8629337064069
 20
-122.4223170924831
 30
0.0
 11
-267.8629337064069
 21
-211.4232293206292
 31
0.0
  0
LINE
  5
2B5
330
1F
100
AcDbEntity
  8
A-2
  6
Continuous
 62
     3
370
     9
100
AcDbLine
 10
-268.1611234366646
 20
477.5777323954816
 30
0.0
 11
-233.2613448128258
 21
488.5772738070102
 31
0.0
  0
LINE
  5
2B6
330
1F
100
AcDbEntity
  8
A-2
  6
Continuous
 62
     3
370
     9
100
AcDbLine
 10
-268.1611234366646
 20
-222.4224738043708
 30
0.0
 11
-233.2613448128258
 21
-211.4227839289484
 31
0.0
  0
LINE
  5
2B7
330
1F
100
AcDbEntity
  8
A-2
  6
Continuous
 62
     3
370
     9
100
AcDbLine
 10
-268.1611234366646
 20
377.5776499155406
 30
0.0
 11
-233.2613448128258
 21
388.577339790963
 31
0.0
  0
LINE
  5
2B8
330
1F
100
AcDbEntity
  8
A-2
  6
Continuous
 62
     3
370
     9
100
AcDbLine
 10
-268.1611234366646
 20
277.5777158994933
 30
0.0
 11
-233.2613448128258
 21
288.5773315429688
 31
0.0
  0
LINE
  5
2B9
330
1F
100
AcDbEntity
  8
A-2
  6
Continuous
 62
     3
370
     9
100
AcDbLine
 10
-268.1611234366646
 20
177.5777076514992
 30
0.0
 11
-233.2613448128258
 21
188.577249063028
 31
0.0
  0
LINE
  5
2BA
330
1F
100
AcDbEntity
  8
A-2
  6
Continuous
 62
     3
370
     9
100
AcDbLine
 10
-239.5631917036621
 20
529.0773331925677
 30
0.0
 11
-239.5631917036621
 21
488.5772738070102
 31
0.0
  0
LINE
  5
2BB
330
1F
100
AcDbEntity
  8
A-2
  6
Continuous
 62
     3
370
     9
100
AcDbLine
 10
-239.5631917036621
 20
477.5777323954816
 30
0.0
 11
-239.5631917036621
 21
388.5767459353886
 31
0.0
  0
LINE
  5
2BC
330
1F
100
AcDbEntity
  8
A-2
  6
Continuous
 62
     3
370
     9
100
AcDbLine
 10
-232.5632675852077
 20
477.5777323954816
 30
0.0
 11
-232.5632675852077
 21
388.5767459353886
 31
0.0
  0
LINE
  5
2BD
330
1F
100
AcDbEntity
  8
A-2
  6
Continuous
 62
     3
370
     9
100
AcDbLine
 10
-239.5631917036621
 20
-222.4228449641047
 30
0.0
 11
-239.5631917036621
 21
-261.9227773305532
 31
0.0
  0
LINE
  5
2BE
330
1F
100
AcDbEntity
  8
A-2
  6
Continuous
 62
     3
370
     9
100
AcDbLine
 10
-232.5632675852077
 20
-222.4228449641047
 30
0.0
 11
-232.5632675852077
 21
-261.9227773305532
 31
0.0
  0
LINE
  5
2BF
330
1F
100
AcDbEntity
  8
A-2
  6
Continuous
 62
     3
370
     9
100
AcDbLine
 10
-239.5631917036621
 20
377.5776499155406
 30
0.0
 11
-239.5631917036621
 21
288.5768119193413
 31
0.0
  0
LINE
  5
2C0
330
1F
100
AcDbEntity
  8
A-2
  6
Continuous
 62
     3
370
     9
100
AcDbLine
 10
-232.5632675852077
 20
377.5776499155406
 30
0.0
 11
-232.5632675852077
 21
288.5768119193413
 31
0.0
  0
LINE
  5
2C1
330
1F
100
AcDbEntity
  8
A-2
  6
Continuous
 62
     3
370
     9
100
AcDbLine
 10
-239.5631917036621
 20
277.5777158994933
 30
0.0
 11
-239.5631917036621
 21
188.5768036713472
 31
0.0
  0
LINE
  5
2C2
330
1F
100
AcDbEntity
  8
A-2
  6
Continuous
 62
     3
370
     9
100
AcDbLine
 10
-232.5632675852077
 20
277.5777158994933
 30
0.0
 11
-232.5632675852077
 21
188.5768036713472
 31
0.0
  0
LINE
  5
2C3
330
1F
100
AcDbEntity
  8
A-2
  6
Continuous
 62
     3
370
     9
100
AcDbLine
 10
-239.5631917036621
 20
177.5777076514992
 30
0.0
 11
-239.5631917036621
 21
88.57679542335313
 31
0.0
  0
LINE
  5
2C4
330
1F
100
AcDbEntity
  8
A-2
  6
Continuous
 62
     3
370
     9
100
AcDbLine
 10
-232.5632675852077
 20
177.5777076514992
 30
0.0
 11
-232.5632675852077
 21
88.57679542335313
 31
0.0
  0
LINE
  5
2C5
330
1F
100
AcDbEntity
  8
A-2
  6
Continuous
 62
     3
370
     9
100
AcDbLine
 10
-232.5632675852077
 20
529.0773331925677
 30
0.0
 11
-232.5632675852077
 21
488.5772738070102
 31
0.0
  0
LINE
  5
2C6
330
1F
100
AcDbEntity
  8
A-2
  6
Continuous
 62
     3
370
     9
100
AcDbLine
 10
-268.1611234366646
 20
77.57769940350516
 30
0.0
 11
-233.2613448128258
 21
88.57724081503392
 31
0.0
  0
LINE
  5
2C7
330
1F
100
AcDbEntity
  8
A-2
  6
Continuous
 62
     3
370
     9
100
AcDbLine
 10
-239.5631917036621
 20
77.57769940350516
 30
0.0
 11
-239.5631917036621
 21
-11.42321282464093
 31
0.0
  0
LINE
  5
2C8
330
1F
100
AcDbEntity
  8
A-2
  6
Continuous
 62
     3
370
     9
100
AcDbLine
 10
-232.5632675852077
 20
77.57769940350516
 30
0.0
 11
-232.5632675852077
 21
-11.42321282464093
 31
0.0
  0
LINE
  5
2C9
330
1F
100
AcDbEntity
  8
A-2
  6
Continuous
 62
     3
370
     9
100
AcDbLine
 10
-268.1611234366646
 20
-22.4223088444889
 30
0.0
 11
-233.2613448128258
 21
-11.42276743296031
 31
0.0
  0
LINE
  5
2CA
330
1F
100
AcDbEntity
  8
A-2
  6
Continuous
 62
     3
370
     9
100
AcDbLine
 10
-239.5631917036621
 20
-22.4223088444889
 30
0.0
 11
-239.5631917036621
 21
-111.4232210726352
 31
0.0
  0
LINE
  5
2CB
330
1F
100
AcDbEntity
  8
A-2
  6
Continuous
 62
     3
370
     9
100
AcDbLine
 10
-232.5632675852077
 20
-22.4223088444889
 30
0.0
 11
-232.5632675852077
 21
-111.4232210726352
 31
0.0
  0
LINE
  5
2CC
330
1F
100
AcDbEntity
  8
A-2
  6
Continuous
 62
     3
370
     9
100
AcDbLine
 10
-268.1611234366646
 20
-122.4223170924831
 30
0.0
 11
-233.2613448128258
 21
-111.4227756809544
 31
0.0
  0
LINE
  5
2CD
330
1F
100
AcDbEntity
  8
A-2
  6
Continuous
 62
     3
370
     9
100
AcDbLine
 10
-239.5631917036621
 20
-122.4223170924831
 30
0.0
 11
-239.5631917036621
 21
-211.4232293206292
 31
0.0
  0
LINE
  5
2CE
330
1F
100
AcDbEntity
  8
A-2
  6
Continuous
 62
     3
370
     9
100
AcDbLine
 10
-232.5632675852077
 20
-122.4223170924831
 30
0.0
 11
-232.5632675852077
 21
-211.4232293206292
 31
0.0
  0
LINE
  5
2CF
330
1F
100
AcDbEntity
  8
A-2
  6
Continuous
 62
     3
370
     9
100
AcDbLine
 10
-232.8614573154652
 20
477.5777323954816
 30
0.0
 11
-197.9616786916266
 21
488.5772738070102
 31
0.0
  0
LINE
  5
2D0
330
1F
100
AcDbEntity
  8
A-2
  6
Continuous
 62
     3
370
     9
100
AcDbLine
 10
-232.8614573154652
 20
-222.4224738043708
 30
0.0
 11
-197.9616786916266
 21
-211.4227839289484
 31
0.0
  0
LINE
  5
2D1
330
1F
100
AcDbEntity
  8
A-2
  6
Continuous
 62
     3
370
     9
100
AcDbLine
 10
-232.8614573154652
 20
377.5776499155406
 30
0.0
 11
-197.9616786916266
 21
388.577339790963
 31
0.0
  0
LINE
  5
2D2
330
1F
100
AcDbEntity
  8
A-2
  6
Continuous
 62
     3
370
     9
100
AcDbLine
 10
-232.8614573154652
 20
277.5777158994933
 30
0.0
 11
-197.9616786916266
 21
288.5773315429688
 31
0.0
  0
LINE
  5
2D3
330
1F
100
AcDbEntity
  8
A-2
  6
Continuous
 62
     3
370
     9
100
AcDbLine
 10
-232.8614573154652
 20
177.5777076514992
 30
0.0
 11
-197.9616786916266
 21
188.577249063028
 31
0.0
  0
LINE
  5
2D4
330
1F
100
AcDbEntity
  8
A-2
  6
Continuous
 62
     3
370
     9
100
AcDbLine
 10
-204.2635255824627
 20
529.0773331925677
 30
0.0
 11
-204.2635255824627
 21
488.5772738070102
 31
0.0
  0
LINE
  5
2D5
330
1F
100
AcDbEntity
  8
A-2
  6
Continuous
 62
     3
370
     9
100
AcDbLine
 10
-204.2635255824627
 20
477.5777323954816
 30
0.0
 11
-204.2635255824627
 21
388.5767459353886
 31
0.0
  0
LINE
  5
2D6
330
1F
100
AcDbEntity
  8
A-2
  6
Continuous
 62
     3
370
     9
100
AcDbLine
 10
-197.2636014640083
 20
477.5777323954816
 30
0.0
 11
-197.2636014640083
 21
388.5767459353886
 31
0.0
  0
LINE
  5
2D7
330
1F
100
AcDbEntity
  8
A-2
  6
Continuous
 62
     3
370
     9
100
AcDbLine
 10
-204.2635255824627
 20
-222.4228449641047
 30
0.0
 11
-204.2635255824627
 21
-261.9227773305532
 31
0.0
  0
LINE
  5
2D8
330
1F
100
AcDbEntity
  8
A-2
  6
Continuous
 62
     3
370
     9
100
AcDbLine
 10
-197.2636014640083
 20
-222.4228449641047
 30
0.0
 11
-197.2636014640083
 21
-261.9227773305532
 31
0.0
  0
LINE
  5
2D9
330
1F
100
AcDbEntity
  8
A-2
  6
Continuous
 62
     3
370
     9
100
AcDbLine
 10
-204.2635255824627
 20
377.5776499155406
 30
0.0
 11
-204.2635255824627
 21
288.5768119193413
 31
0.0
  0
LINE
  5
2DA
330
1F
100
AcDbEntity
  8
A-2
  6
Continuous
 62
     3
370
     9
100
AcDbLine
 10
-197.2636014640083
 20
377.5776499155406
 30
0.0
 11
-197.2636014640083
 21
288.5768119193413
 31
0.0
  0
LINE
  5
2DB
330
1F
100
AcDbEntity
  8
A-2
  6
Continuous
 62
     3
370
     9
100
AcDbLine
 10
-204.2635255824627
 20
277.5777158994933
 30
0.0
 11
-204.2635255824627
 21
188.5768036713472
 31
0.0
  0
LINE
  5
2DC
330
1F
100
AcDbEntity
  8
A-2
  6
Continuous
 62
     3
370
     9
100
AcDbLine
 10
-197.2636014640083
 20
277.5777158994933
 30
0.0
 11
-197.2636014640083
 21
188.5768036713472
 31
0.0
  0
LINE
  5
2DD
330
1F
100
AcDbEntity
  8
A-2
  6
Continuous
 62
     3
370
     9
100
AcDbLine
 10
-204.2635255824627
 20
177.5777076514992
 30
0.0
 11
-204.2635255824627
 21
88.57679542335313
 31
0.0
  0
LINE
  5
2DE
330
1F
100
AcDbEntity
  8
A-2
  6
Continuous
 62
     3
370
     9
100
AcDbLine
 10
-197.2636014640083
 20
177.5777076514992
 30
0.0
 11
-197.2636014640083
 21
88.57679542335313
 31
0.0
  0
LINE
  5
2DF
330
1F
100
AcDbEntity
  8
A-2
  6
Continuous
 62
     3
370
     9
100
AcDbLine
 10
-197.2636014640083
 20
529.0773331925677
 30
0.0
 11
-197.2636014640083
 21
488.5772738070102
 31
0.0
  0
LINE
  5
2E0
330
1F
100
AcDbEntity
  8
A-2
  6
Continuous
 62
     3
370
     9
100
AcDbLine
 10
-232.8614573154652
 20
77.57769940350516
 30
0.0
 11
-197.9616786916266
 21
88.57724081503392
 31
0.0
  0
LINE
  5
2E1
330
1F
100
AcDbEntity
  8
A-2
  6
Continuous
 62
     3
370
     9
100
AcDbLine
 10
-204.2635255824627
 20
77.57769940350516
 30
0.0
 11
-204.2635255824627
 21
-11.42321282464093
 31
0.0
  0
LINE
  5
2E2
330
1F
100
AcDbEntity
  8
A-2
  6
Continuous
 62
     3
370
     9
100
AcDbLine
 10
-197.2636014640083
 20
77.57769940350516
 30
0.0
 11
-197.2636014640083
 21
-11.42321282464093
 31
0.0
  0
LINE
  5
2E3
330
1F
100
AcDbEntity
  8
A-2
  6
Continuous
 62
     3
370
     9
100
AcDbLine
 10
-232.8614573154652
 20
-22.4223088444889
 30
0.0
 11
-197.9616786916266
 21
-11.42276743296031
 31
0.0
  0
LINE
  5
2E4
330
1F
100
AcDbEntity
  8
A-2
  6
Continuous
 62
     3
370
     9
100
AcDbLine
 10
-204.2635255824627
 20
-22.4223088444889
 30
0.0
 11
-204.2635255824627
 21
-111.4232210726352
 31
0.0
  0
LINE
  5
2E5
330
1F
100
AcDbEntity
  8
A-2
  6
Continuous
 62
     3
370
     9
100
AcDbLine
 10
-197.2636014640083
 20
-22.4223088444889
 30
0.0
 11
-197.2636014640083
 21
-111.4232210726352
 31
0.0
  0
LINE
  5
2E6
330
1F
100
AcDbEntity
  8
A-2
  6
Continuous
 62
     3
370
     9
100
AcDbLine
 10
-232.8614573154652
 20
-122.4223170924831
 30
0.0
 11
-197.9616786916266
 21
-111.4227756809544
 31
0.0
  0
LINE
  5
2E7
330
1F
100
AcDbEntity
  8
A-2
  6
Continuous
 62
     3
370
     9
100
AcDbLine
 10
-204.2635255824627
 20
-122.4223170924831
 30
0.0
 11
-204.2635255824627
 21
-211.4232293206292
 31
0.0
  0
LINE
  5
2E8
330
1F
100
AcDbEntity
  8
A-2
  6
Continuous
 62
     3
370
     9
100
AcDbLine
 10
-197.2636014640083
 20
-122.4223170924831
 30
0.0
 11
-197.2636014640083
 21
-211.4232293206292
 31
0.0
  0
LINE
  5
2E9
330
1F
100
AcDbEntity
  8
A-9
  6
Continuous
 62
     4
370
     9
100
AcDbLine
 10
-860.5599700371713
 20
513.5772573110221
 30
0.0
 11
-846.5599733363691
 21
513.5772573110221
 31
0.0
  0
LINE
  5
2EA
330
1F
100
AcDbEntity
  8
A-9
  6
Continuous
 62
     4
370
     9
100
AcDbLine
 10
-863.2794574078429
 20
552.53759765625
 30
0.0
 11
-843.8404859656976
 21
552.53759765625
 31
0.0
  0
LINE
  5
2EB
330
1F
100
AcDbEntity
  8
A-9
  6
Continuous
 62
     4
370
     9
100
AcDbLine
 10
-865.9989447785142
 20
551.4967172983531
 30
0.0
 11
-865.9989447785142
 21
543.5772078230575
 31
0.0
  0
LINE
  5
2EC
330
1F
100
AcDbEntity
  8
A-9
  6
Continuous
 62
     4
370
     9
100
AcDbLine
 10
-865.9989447785142
 20
543.5772078230575
 30
0.0
 11
-841.120998595026
 21
543.5772078230575
 31
0.0
  0
LINE
  5
2ED
330
1F
100
AcDbEntity
  8
A-9
  6
Continuous
 62
     4
370
     9
100
AcDbLine
 10
-841.120998595026
 20
551.4967172983531
 30
0.0
 11
-841.120998595026
 21
543.5772078230575
 31
0.0
  0
LINE
  5
2EE
330
1F
100
AcDbEntity
  8
A-9
  6
Continuous
 62
     4
370
     9
100
AcDbLine
 10
-860.5598958052246
 20
543.5772078230575
 30
0.0
 11
-860.5598958052246
 21
551.4967172983531
 31
0.0
  0
LINE
  5
2EF
330
1F
100
AcDbEntity
  8
A-9
  6
Continuous
 62
     4
370
     9
100
AcDbLine
 10
-846.5598248724754
 20
543.5772078230575
 30
0.0
 11
-846.5598248724754
 21
551.4967172983531
 31
0.0
  0
LINE
  5
2F0
330
1F
100
AcDbEntity
  8
A-2
  6
Continuous
 62
     3
370
     9
100
AcDbLine
 10
-874.5598925060269
 20
533.5772738070102
 30
0.0
 11
-161.559890856428
 21
533.5772738070102
 31
0.0
  0
LINE
  5
2F1
330
1F
100
AcDbEntity
  8
A-9
  6
Continuous
 62
     4
370
     9
100
AcDbLine
 10
-860.5599700371713
 20
537.5770395639781
 30
0.0
 11
-860.5599700371713
 21
533.5772738070102
 31
0.0
  0
LINE
  5
2F2
330
1F
100
AcDbEntity
  8
A-9
  6
Continuous
 62
     4
370
     9
100
AcDbLine
 10
-846.5599733363691
 20
537.5770395639781
 30
0.0
 11
-846.5599733363691
 21
533.5772738070102
 31
0.0
  0
LINE
  5
2F3
330
1F
100
AcDbEntity
  8
A-9
  6
Continuous
 62
     4
370
     9
100
AcDbLine
 10
-860.5599700371713
 20
529.0773331925677
 30
0.0
 11
-860.5599700371713
 21
513.5772573110221
 31
0.0
  0
LINE
  5
2F4
330
1F
100
AcDbEntity
  8
A-9
  6
Continuous
 62
     4
370
     9
100
AcDbLine
 10
-846.5599733363691
 20
529.0773331925677
 30
0.0
 11
-846.5599733363691
 21
513.5772573110221
 31
0.0
  0
CIRCLE
  5
2F5
330
1F
100
AcDbEntity
  8
A-1
  6
Continuous
 62
     2
370
     9
100
AcDbCircle
 10
-818.5601283986579
 20
-280.9231864310599
 30
0.0
 40
4.500000637930793
  0
CIRCLE
  5
2F6
330
1F
100
AcDbEntity
  8
A-1
  6
Continuous
 62
     2
370
     9
100
AcDbCircle
 10
-717.5601415954484
 20
-280.9231864310599
 30
0.0
 40
4.500000637930793
  0
ARC
  5
2F7
330
1F
100
AcDbEntity
  8
A-1
  6
Continuous
 62
     2
370
     9
100
AcDbCircle
 10
-813.0600607651063
 20
-287.0235678183066
 30
0.0
 40
10.00000012887491
100
AcDbArc
 50
180.0
 51
270.0
  0
ARC
  5
2F8
330
1F
100
AcDbEntity
  8
A-1
  6
Continuous
 62
     2
370
     9
100
AcDbCircle
 10
-723.0601349970531
 20
-287.0235678183066
 30
0.0
 40
10.00000012887491
100
AcDbArc
 50
270.0
 51
0.0
  0
ARC
  5
2F9
330
1F
100
AcDbEntity
  8
A-1
  6
Continuous
 62
     2
370
     9
100
AcDbCircle
 10
-723.0599865331595
 20
-287.0235678183066
 30
0.0
 40
1.000000012887491
100
AcDbArc
 50
270.0
 51
0.0
  0
ARC
  5
2FA
330
1F
100
AcDbEntity
  8
A-1
  6
Continuous
 62
     2
370
     9
100
AcDbCircle
 10
-813.0600607651063
 20
-287.0235678183066
 30
0.0
 40
1.000000012887491
100
AcDbArc
 50
180.0
 51
270.0
  0
CIRCLE
  5
2FB
330
1F
100
AcDbEntity
  8
A-1
  6
Continuous
 62
     2
370
     9
100
AcDbCircle
 10
-818.5601283986579
 20
548.0772969013935
 30
0.0
 40
4.500000637930793
  0
CIRCLE
  5
2FC
330
1F
100
AcDbEntity
  8
A-1
  6
Continuous
 62
     2
370
     9
100
AcDbCircle
 10
-717.5601415954484
 20
548.0772969013935
 30
0.0
 40
4.500000637930793
  0
ARC
  5
2FD
330
1F
100
AcDbEntity
  8
A-1
  6
Continuous
 62
     2
370
     9
100
AcDbCircle
 10
-813.0600607651063
 20
554.1773813608531
 30
0.0
 40
10.00000012887491
100
AcDbArc
 50
90.0
 51
180.0
  0
ARC
  5
2FE
330
1F
100
AcDbEntity
  8
A-1
  6
Continuous
 62
     2
370
     9
100
AcDbCircle
 10
-723.0601349970531
 20
554.1773813608531
 30
0.0
 40
10.00000012887491
100
AcDbArc
 50
0.0
 51
90.0
  0
ARC
  5
2FF
330
1F
100
AcDbEntity
  8
A-1
  6
Continuous
 62
     2
370
     9
100
AcDbCircle
 10
-723.0599865331595
 20
554.1773813608531
 30
0.0
 40
1.000000012887491
100
AcDbArc
 50
0.0
 51
90.0
  0
ARC
  5
300
330
1F
100
AcDbEntity
  8
A-1
  6
Continuous
 62
     2
370
     9
100
AcDbCircle
 10
-813.0600607651063
 20
554.1773813608531
 30
0.0
 40
1.000000012887491
100
AcDbArc
 50
90.0
 51
180.0
  0
CIRCLE
  5
301
330
1F
100
AcDbEntity
  8
A-1
  6
Continuous
 62
     2
370
     9
100
AcDbCircle
 10
-318.5601613906341
 20
-280.9231864310599
 30
0.0
 40
4.500000637930793
  0
CIRCLE
  5
302
330
1F
100
AcDbEntity
  8
A-1
  6
Continuous
 62
     2
370
     9
100
AcDbCircle
 10
-217.5601745874247
 20
-280.9231864310599
 30
0.0
 40
4.500000637930793
  0
ARC
  5
303
330
1F
100
AcDbEntity
  8
A-1
  6
Continuous
 62
     2
370
     9
100
AcDbCircle
 10
-313.0600195251358
 20
-287.0235678183066
 30
0.0
 40
10.00000012887491
100
AcDbArc
 50
180.0
 51
270.0
  0
ARC
  5
304
330
1F
100
AcDbEntity
  8
A-1
  6
Continuous
 62
     2
370
     9
100
AcDbCircle
 10
-223.0601679890294
 20
-287.0235678183066
 30
0.0
 40
10.00000012887491
100
AcDbArc
 50
270.0
 51
0.0
  0
ARC
  5
305
330
1F
100
AcDbEntity
  8
A-1
  6
Continuous
 62
     2
370
     9
100
AcDbCircle
 10
-223.0600195251358
 20
-287.0235678183066
 30
0.0
 40
1.000000012887491
100
AcDbArc
 50
270.0
 51
0.0
  0
ARC
  5
306
330
1F
100
AcDbEntity
  8
A-1
  6
Continuous
 62
     2
370
     9
100
AcDbCircle
 10
-313.0600195251358
 20
-287.0235678183066
 30
0.0
 40
1.000000012887491
100
AcDbArc
 50
180.0
 51
270.0
  0
CIRCLE
  5
307
330
1F
100
AcDbEntity
  8
A-1
  6
Continuous
 62
     2
370
     9
100
AcDbCircle
 10
-318.5601613906341
 20
548.0772969013935
 30
0.0
 40
4.500000637930793
  0
CIRCLE
  5
308
330
1F
100
AcDbEntity
  8
A-1
  6
Continuous
 62
     2
370
     9
100
AcDbCircle
 10
-217.5601745874247
 20
548.0772969013935
 30
0.0
 40
4.500000637930793
  0
ARC
  5
309
330
1F
100
AcDbEntity
  8
A-1
  6
Continuous
 62
     2
370
     9
100
AcDbCircle
 10
-313.0600195251358
 20
554.1773813608531
 30
0.0
 40
10.00000012887491
100
AcDbArc
 50
90.0
 51
180.0
  0
ARC
  5
30A
330
1F
100
AcDbEntity
  8
A-1
  6
Continuous
 62
     2
370
     9
100
AcDbCircle
 10
-223.0601679890294
 20
554.1773813608531
 30
0.0
 40
10.00000012887491
100
AcDbArc
 50
0.0
 51
90.0
  0
ARC
  5
30B
330
1F
100
AcDbEntity
  8
A-1
  6
Continuous
 62
     2
370
     9
100
AcDbCircle
 10
-223.0600195251358
 20
554.1773813608531
 30
0.0
 40
1.000000012887491
100
AcDbArc
 50
0.0
 51
90.0
  0
ARC
  5
30C
330
1F
100
AcDbEntity
  8
A-1
  6
Continuous
 62
     2
370
     9
100
AcDbCircle
 10
-313.0600195251358
 20
554.1773813608531
 30
0.0
 40
1.000000012887491
100
AcDbArc
 50
90.0
 51
180.0
  0
ARC
  5
30D
330
1F
100
AcDbEntity
  8
A-9
  6
Continuous
 62
     4
370
     9
100
AcDbCircle
 10
-843.8404859656976
 20
548.4635999524916
 30
0.0
 40
4.074000313475326
100
AcDbArc
 50
48.12370300292969
 51
131.8761138916015
  0
ARC
  5
30E
330
1F
100
AcDbEntity
  8
A-9
  6
Continuous
 62
     4
370
     9
100
AcDbCircle
 10
-863.2794574078429
 20
548.4635999524916
 30
0.0
 40
4.074000313475326
100
AcDbArc
 50
48.12388610839845
 51
131.8762969970703
  0
ARC
  5
30F
330
1F
100
AcDbEntity
  8
A-9
  6
Continuous
 62
     4
370
     9
100
AcDbCircle
 10
-853.5599716867703
 20
528.471155115076
 30
0.0
 40
24.06618504910856
100
AcDbArc
 50
73.09028625488283
 51
106.9097137451172
  0
TEXT
  5
310
330
1F
100
AcDbEntity
  8
A-4
  6
Continuous
 62
     2
370
     9
100
AcDbText
 10
-703.6593806355138
 20
579.5503686391471
 30
0.0
 40
18.288
  1
35.3
 41
1.09375
  7
ＭＳ ゴシック
100
AcDbText
  0
TEXT
  5
311
330
1F
100
AcDbEntity
  8
A-4
  6
Continuous
 62
     2
370
     9
100
AcDbText
 10
-921.1101512456016
 20
-412.3197567963471
 30
0.0
 40
18.288
  1
6
  7
ＭＳ ゴシック
100
AcDbText
  0
TEXT
  5
312
330
1F
100
AcDbEntity
  8
A-4
  6
Continuous
 62
     2
370
     9
100
AcDbText
 10
-128.6819479721376
 20
-412.3197567963471
 30
0.0
 40
18.288
  1
6
  7
ＭＳ ゴシック
100
AcDbText
  0
TEXT
  5
313
330
1F
100
AcDbEntity
  8
A-4
  6
Continuous
 62
     2
370
     9
100
AcDbText
 10
-866.2134701559426
 20
-360.675181007179
 30
0.0
 40
18.288
  1
11
 41
1.0625
  7
ＭＳ ゴシック
100
AcDbText
  0
TEXT
  5
314
330
1F
100
AcDbEntity
  8
A-4
  6
Continuous
 62
     2
370
     9
100
AcDbText
 10
-192.1613378845108
 20
-360.675181007179
 30
0.0
 40
18.288
  1
11
 41
1.0625
  7
ＭＳ ゴシック
100
AcDbText
  0
TEXT
  5
315
330
1F
100
AcDbEntity
  8
A-4
  6
Continuous
 62
     2
370
     9
100
AcDbText
 10
-537.5598545652541
 20
-360.6752181231524
 30
0.0
 40
18.288
  1
713
 41
1.083333333333333
  7
ＭＳ ゴシック
100
AcDbText
  0
TEXT
  5
316
330
1F
100
AcDbEntity
  8
A-4
  6
Continuous
 62
     2
370
     9
100
AcDbText
 10
-537.5600030291478
 20
-412.3197939123204
 30
0.0
 40
18.288
  1
735
 41
1.083333333333333
  7
ＭＳ ゴシック
100
AcDbText
  0
TEXT
  5
317
330
1F
100
AcDbEntity
  8
A-4
  6
Continuous
 62
     2
370
     9
100
AcDbText
 10
-537.5600030291478
 20
-466.0868837560704
 30
0.0
 40
18.288
  1
747
 41
1.083333333333333
  7
ＭＳ ゴシック
100
AcDbText
  0
LWPOLYLINE
  5
318
330
1F
100
AcDbEntity
  8
A-4
  6
Continuous
 62
     7
370
     9
100
AcDbPolyline
 90
        4
 70
     1
 43
1.2
 10
-694.4596219718209
 20
572.5664161475929
 42
0.4142135623731
 10
-695.0596219718209
 20
573.1664161475929
 42
0.4142135623731
 10
-695.6596219718208
 20
572.5664161475929
 42
0.4142135623731
 10
-695.0596219718209
 20
571.966416147593
 42
0.4142135623731
  0
LWPOLYLINE
  5
319
330
1F
100
AcDbEntity
  8
A-4
  6
Continuous
 62
     7
370
     9
100
AcDbPolyline
 90
        4
 70
     1
 43
1.2
 10
-659.1593619950472
 20
572.5664161475929
 42
0.4142135623731
 10
-659.7593619950472
 20
573.1664161475929
 42
0.4142135623731
 10
-660.3593619950473
 20
572.5664161475929
 42
0.4142135623731
 10
-659.7593619950472
 20
571.966416147593
 42
0.4142135623731
  0
LWPOLYLINE
  5
31A
330
1F
100
AcDbEntity
  8
A-4
  6
Continuous
 62
     7
370
     9
100
AcDbPolyline
 90
        4
 70
     1
 43
1.2
 10
-890.9600475683159
 20
-473.070873363598
 42
0.4142135623731
 10
-891.5600475683159
 20
-472.470873363598
 42
0.4142135623731
 10
-892.1600475683158
 20
-473.070873363598
 42
0.4142135623731
 10
-891.5600475683159
 20
-473.6708733635979
 42
0.4142135623731
  0
LWPOLYLINE
  5
31B
330
1F
100
AcDbEntity
  8
A-4
  6
Continuous
 62
     7
370
     9
100
AcDbPolyline
 90
        4
 70
     1
 43
1.2
 10
-143.9600327219264
 20
-473.070873363598
 42
0.4142135623731
 10
-144.5600327219265
 20
-472.470873363598
 42
0.4142135623731
 10
-145.1600327219265
 20
-473.070873363598
 42
0.4142135623731
 10
-144.5600327219265
 20
-473.6708733635979
 42
0.4142135623731
  0
LWPOLYLINE
  5
31C
330
1F
100
AcDbEntity
  8
A-4
  6
Continuous
 62
     7
370
     9
100
AcDbPolyline
 90
        4
 70
     1
 43
1.2
 10
-890.9600475683159
 20
-419.303783519848
 42
0.4142135623731
 10
-891.5600475683159
 20
-418.703783519848
 42
0.4142135623731
 10
-892.1600475683158
 20
-419.303783519848
 42
0.4142135623731
 10
-891.5600475683159
 20
-419.9037835198479
 42
0.4142135623731
  0
LWPOLYLINE
  5
31D
330
1F
100
AcDbEntity
  8
A-4
  6
Continuous
 62
     7
370
     9
100
AcDbPolyline
 90
        4
 70
     1
 43
1.2
 10
-884.9599535411833
 20
-419.303783519848
 42
0.4142135623731
 10
-885.5599535411832
 20
-418.703783519848
 42
0.4142135623731
 10
-886.1599535411831
 20
-419.303783519848
 42
0.4142135623731
 10
-885.5599535411832
 20
-419.9037835198479
 42
0.4142135623731
  0
LWPOLYLINE
  5
31E
330
1F
100
AcDbEntity
  8
A-4
  6
Continuous
 62
     7
370
     9
100
AcDbPolyline
 90
        4
 70
     1
 43
1.2
 10
-149.9601267490589
 20
-419.303783519848
 42
0.4142135623731
 10
-150.560126749059
 20
-418.703783519848
 42
0.4142135623731
 10
-151.160126749059
 20
-419.303783519848
 42
0.4142135623731
 10
-150.560126749059
 20
-419.9037835198479
 42
0.4142135623731
  0
LWPOLYLINE
  5
31F
330
1F
100
AcDbEntity
  8
A-4
  6
Continuous
 62
     7
370
     9
100
AcDbPolyline
 90
        4
 70
     1
 43
1.2
 10
-143.9600327219264
 20
-419.303783519848
 42
0.4142135623731
 10
-144.5600327219265
 20
-418.703783519848
 42
0.4142135623731
 10
-145.1600327219265
 20
-419.303783519848
 42
0.4142135623731
 10
-144.5600327219265
 20
-419.9037835198479
 42
0.4142135623731
  0
LWPOLYLINE
  5
320
330
1F
100
AcDbEntity
  8
A-4
  6
Continuous
 62
     7
370
     9
100
AcDbPolyline
 90
        4
 70
     1
 43
1.2
 10
-884.9598050772896
 20
-367.6592077306798
 42
0.4142135623731
 10
-885.5598050772896
 20
-367.0592077306798
 42
0.4142135623731
 10
-886.1598050772895
 20
-367.6592077306798
 42
0.4142135623731
 10
-885.5598050772896
 20
-368.2592077306799
 42
0.4142135623731
  0
LWPOLYLINE
  5
321
330
1F
100
AcDbEntity
  8
A-4
  6
Continuous
 62
     7
370
     9
100
AcDbPolyline
 90
        4
 70
     1
 43
1.2
 10
-873.959892506027
 20
-367.6592077306798
 42
0.4142135623731
 10
-874.5598925060269
 20
-367.0592077306798
 42
0.4142135623731
 10
-875.1598925060268
 20
-367.6592077306798
 42
0.4142135623731
 10
-874.5598925060269
 20
-368.2592077306799
 42
0.4142135623731
  0
LWPOLYLINE
  5
322
330
1F
100
AcDbEntity
  8
A-4
  6
Continuous
 62
     7
370
     9
100
AcDbPolyline
 90
        4
 70
     1
 43
1.2
 10
-160.959890856428
 20
-367.6592077306798
 42
0.4142135623731
 10
-161.559890856428
 20
-367.0592077306798
 42
0.4142135623731
 10
-162.159890856428
 20
-367.6592077306798
 42
0.4142135623731
 10
-161.559890856428
 20
-368.2592077306799
 42
0.4142135623731
  0
LWPOLYLINE
  5
323
330
1F
100
AcDbEntity
  8
A-4
  6
Continuous
 62
     7
370
     9
100
AcDbPolyline
 90
        4
 70
     1
 43
1.2
 10
-149.9601267490589
 20
-367.6592077306798
 42
0.4142135623731
 10
-150.560126749059
 20
-367.0592077306798
 42
0.4142135623731
 10
-151.160126749059
 20
-367.6592077306798
 42
0.4142135623731
 10
-150.560126749059
 20
-368.2592077306799
 42
0.4142135623731
  0
LINE
  5
324
330
1F
100
AcDbEntity
  8
F-4ﾚｲﾔ
  6
Continuous
 62
     2
370
     9
100
AcDbLine
 10
302.8375640235615
 20
-371.2243803229025
 30
0.0
 11
302.8375640235615
 21
-341.2243926948936
 31
0.0
  0
LINE
  5
325
330
1F
100
AcDbEntity
  8
F-4ﾚｲﾔ
  6
Continuous
 62
     2
370
     9
100
AcDbLine
 10
302.8375640235615
 20
-341.2243926948936
 30
0.0
 11
437.837415559668
 21
-341.2243926948936
 31
0.0
  0
LINE
  5
326
330
1F
100
AcDbEntity
  8
F-4ﾚｲﾔ
  6
Continuous
 62
     2
370
     9
100
AcDbLine
 10
437.837415559668
 20
-341.2243926948936
 30
0.0
 11
437.837415559668
 21
-371.2243803229025
 31
0.0
  0
LINE
  5
327
330
1F
100
AcDbEntity
  8
F-4ﾚｲﾔ
  6
Continuous
 62
     2
370
     9
100
AcDbLine
 10
437.837415559668
 20
-371.2243803229025
 30
0.0
 11
302.8375640235615
 21
-371.2243803229025
 31
0.0
  0
TEXT
  5
328
330
1F
100
AcDbEntity
  8
F-4ﾚｲﾔ
  6
Continuous
 62
     2
370
     9
100
AcDbText
 10
331.3375640235617
 20
-364.8408158169903
 30
0.0
 40
18.288
  1
仕　様
 41
1.083333333333333
  7
ＭＳ ゴシック
100
AcDbText
  0
TEXT
  5
329
330
1F
100
AcDbEntity
  8
F-4ﾚｲﾔ
  6
Continuous
 62
     2
370
     9
100
AcDbText
 10
399.9182327049382
 20
-574.2628888942472
 30
0.0
 40
18.288
  1
材質：ＳＳ４００
 41
1.109375
  7
ＭＳ ゴシック
100
AcDbText
  0
TEXT
  5
32A
330
1F
100
AcDbEntity
  8
F-4ﾚｲﾔ
  6
Continuous
 62
     2
370
     9
100
AcDbText
 10
399.9185444791148
 20
-502.2625028881239
 30
0.0
 40
18.288
  1
処理：溶融亜鉛めっき
 41
1.1125
  7
ＭＳ ゴシック
100
AcDbText
  0
TEXT
  5
32B
330
1F
100
AcDbEntity
  8
F-4ﾚｲﾔ
  6
Continuous
 62
     3
370
     9
100
AcDbText
 10
364.8487195126934
 20
-667.6310413066536
 30
0.0
 40
22.86
  1
※脱着ピン付
 41
1.083333333333334
  7
ＭＳ ゴシック
100
AcDbText
  0
TEXT
  5
32C
330
1F
100
AcDbEntity
  8
F-4ﾚｲﾔ
  6
Continuous
 62
     2
370
     9
100
AcDbText
 10
364.090925905952
 20
-402.5925487205481
 30
0.0
 40
18.288
  1
スチール製グレーチング　１１０°開閉式　プレーンタイプ
 41
1.12037037037037
  7
ＭＳ ゴシック
100
AcDbText
  0
TEXT
  5
32D
330
1F
100
AcDbEntity
  8
F-4ﾚｲﾔ
  6
Continuous
 62
     2
370
     9
100
AcDbText
 10
399.9185296327254
 20
-469.2624682465487
 30
0.0
 40
18.288
  1
材質：ＳＳ４００
 41
1.109375
  7
ＭＳ ゴシック
100
AcDbText
  0
TEXT
  5
32E
330
1F
100
AcDbEntity
  8
F-4ﾚｲﾔ
  6
Continuous
 62
     2
370
     9
100
AcDbText
 10
399.9182475513276
 20
-607.2628493038756
 30
0.0
 40
18.288
  1
処理：樹脂系塗装
 41
1.109375
  7
ＭＳ ゴシック
100
AcDbText
  0
TEXT
  5
32F
330
1F
100
AcDbEntity
  8
F-5ﾚｲﾔ
  6
Continuous
 62
     2
370
     0
100
AcDbText
 10
-512.0455100730139
 20
-793.139783035557
 30
0.0
 40
18.288
  1
スチール製グレーチング　１１０°開閉式　プレーンタイプ
 41
0.8990740740740741
  7
ＭＳ ゴシック
100
AcDbText
  0
TEXT
  5
330
330
1F
100
AcDbEntity
  8
F-4ﾚｲﾔ
  6
Continuous
 62
     2
370
     9
100
AcDbText
 10
364.090925905952
 20
-437.2802791626928
 30
0.0
 40
18.288
  1
集水桝用　ＨＳＦ　７７６０
 41
1.115384615384615
  7
ＭＳ ゴシック
100
AcDbText
  0
TEXT
  5
331
330
1F
100
AcDbEntity
  8
F-4ﾚｲﾔ
  6
Continuous
 62
     2
370
     9
100
AcDbText
 10
364.0918315357026
 20
-541.262854252672
 30
0.0
 40
18.288
  1
スチール製受枠　Ｌ－６０（二方受四方枠）
 41
1.11875
  7
ＭＳ ゴシック
100
AcDbText
  0
TEXT
  5
332
330
1F
100
AcDbEntity
  8
F-5ﾚｲﾔ
  6
Continuous
 62
     2
370
     0
100
AcDbText
 10
-39.07081062922896
 20
-822.5231586954468
 30
0.0
 40
18.288
  1
集水桝用　ＨＳＦ　７７６０
 41
0.8980769230769229
  7
ＭＳ ゴシック
100
AcDbText
  0
LINE
  5
333
330
1F
100
AcDbEntity
  8
A-2
  6
Continuous
 62
     3
370
     9
100
AcDbLine
 10
205.8293981168602
 20
483.5774552628802
 30
0.0
 11
200.172626843634
 21
477.9205355257602
 31
0.0
  0
LINE
  5
334
330
1F
100
AcDbEntity
  8
A-2
  6
Continuous
 62
     3
370
     9
100
AcDbLine
 10
200.172626843634
 20
477.9205355257602
 30
0.0
 11
194.515707106514
 21
483.5774552628802
 31
0.0
  0
LINE
  5
335
330
1F
100
AcDbEntity
  8
A-2
  6
Continuous
 62
     3
370
     9
100
AcDbLine
 10
194.515707106514
 20
483.5774552628802
 30
0.0
 11
200.172626843634
 21
489.2342265361066
 31
0.0
  0
LINE
  5
336
330
1F
100
AcDbEntity
  8
A-2
  6
Continuous
 62
     3
370
     9
100
AcDbLine
 10
200.172626843634
 20
489.2342265361066
 30
0.0
 11
205.8293981168602
 21
483.5774552628802
 31
0.0
  0
LINE
  5
337
330
1F
100
AcDbEntity
  8
A-1
  6
Continuous
 62
     2
370
     9
100
AcDbLine
 10
194.515707106514
 20
540.0773199957771
 30
0.0
 11
194.515707106514
 21
543.5772078230575
 31
0.0
  0
LINE
  5
338
330
1F
100
AcDbEntity
  8
A-1
  6
Continuous
 62
     2
370
     9
100
AcDbLine
 10
257.0157400984903
 20
483.5773067989866
 30
0.0
 11
260.5157763896643
 21
483.5773067989866
 31
0.0
  0
LINE
  5
339
330
1F
100
AcDbEntity
  8
A-1
  6
Continuous
 62
     2
370
     9
100
AcDbLine
 10
254.5157565944783
 20
533.5772738070102
 30
0.0
 11
254.5157565944783
 21
486.0772903029984
 31
0.0
  0
LINE
  5
33A
330
1F
100
AcDbEntity
  8
A-1
  6
Continuous
 62
     2
370
     9
100
AcDbLine
 10
260.5157763896643
 20
543.5772078230575
 30
0.0
 11
194.515707106514
 21
543.5772078230575
 31
0.0
  0
LINE
  5
33B
330
1F
100
AcDbEntity
  8
A-1
  6
Continuous
 62
     2
370
     9
100
AcDbLine
 10
260.5157763896643
 20
543.5772078230575
 30
0.0
 11
260.5157763896643
 21
483.5773067989866
 31
0.0
  0
LINE
  5
33C
330
1F
100
AcDbEntity
  8
A-1
  6
Continuous
 62
     2
370
     9
100
AcDbLine
 10
235.5157928856524
 20
543.5772078230575
 30
0.0
 11
235.5157928856524
 21
552.5772375158363
 31
0.0
  0
LINE
  5
33D
330
1F
100
AcDbEntity
  8
A-1
  6
Continuous
 62
     2
370
     9
100
AcDbLine
 10
249.3308035750527
 20
552.5772375158363
 30
0.0
 11
235.5157928856524
 21
552.5772375158363
 31
0.0
  0
LINE
  5
33E
330
1F
100
AcDbEntity
  8
A-1
  6
Continuous
 62
     2
370
     9
100
AcDbLine
 10
253.9896005556271
 20
544.1906606313346
 30
0.0
 11
312.1804690364128
 21
559.7829325907941
 31
0.0
  0
LINE
  5
33F
330
1F
100
AcDbEntity
  8
A-1
  6
Continuous
 62
     2
370
     9
100
AcDbLine
 10
251.6602020653399
 20
552.8839639199747
 30
0.0
 11
309.8510705461256
 21
568.4760874155406
 31
0.0
  0
LINE
  5
340
330
1F
100
AcDbEntity
  8
A-1
  6
JWW_CENTER2
 62
     2
370
     9
100
AcDbLine
 10
249.3308035750527
 20
548.0772969013935
 30
0.0
 11
231.7108117570631
 21
548.0772969013935
 31
0.0
  0
LINE
  5
341
330
1F
100
AcDbEntity
  8
A-1
  6
JWW_CENTER2
 62
     2
370
     9
100
AcDbLine
 10
252.8249013104837
 20
548.5372380437078
 30
0.0
 11
317.9914942950696
 21
565.9985219594596
 31
0.0
  0
LINE
  5
342
330
1F
100
AcDbEntity
  8
A-2
  6
Continuous
 62
     3
370
     9
100
AcDbLine
 10
204.5157895864549
 20
529.0773331925677
 30
0.0
 11
204.5157895864549
 21
484.8910637932855
 31
0.0
  0
LINE
  5
343
330
1F
100
AcDbEntity
  8
A-2
  6
Continuous
 62
     3
370
     9
100
AcDbLine
 10
205.8293981168602
 20
383.5773727829392
 30
0.0
 11
200.172626843634
 21
377.920601509713
 31
0.0
  0
LINE
  5
344
330
1F
100
AcDbEntity
  8
A-2
  6
Continuous
 62
     3
370
     9
100
AcDbLine
 10
200.172626843634
 20
377.920601509713
 30
0.0
 11
194.515707106514
 21
383.5773727829392
 31
0.0
  0
LINE
  5
345
330
1F
100
AcDbEntity
  8
A-2
  6
Continuous
 62
     3
370
     9
100
AcDbLine
 10
194.515707106514
 20
383.5773727829392
 30
0.0
 11
200.172626843634
 21
389.2341440561656
 31
0.0
  0
LINE
  5
346
330
1F
100
AcDbEntity
  8
A-2
  6
Continuous
 62
     3
370
     9
100
AcDbLine
 10
200.172626843634
 20
389.2341440561656
 30
0.0
 11
205.8293981168602
 21
383.5773727829392
 31
0.0
  0
LINE
  5
347
330
1F
100
AcDbEntity
  8
A-2
  6
Continuous
 62
     3
370
     9
100
AcDbLine
 10
205.8293981168602
 20
283.5774387668919
 30
0.0
 11
200.172626843634
 21
277.920519029772
 31
0.0
  0
LINE
  5
348
330
1F
100
AcDbEntity
  8
A-2
  6
Continuous
 62
     3
370
     9
100
AcDbLine
 10
200.172626843634
 20
277.920519029772
 30
0.0
 11
194.515707106514
 21
283.5774387668919
 31
0.0
  0
LINE
  5
349
330
1F
100
AcDbEntity
  8
A-2
  6
Continuous
 62
     3
370
     9
100
AcDbLine
 10
194.515707106514
 20
283.5774387668919
 30
0.0
 11
200.172626843634
 21
289.2342100401183
 31
0.0
  0
LINE
  5
34A
330
1F
100
AcDbEntity
  8
A-2
  6
Continuous
 62
     3
370
     9
100
AcDbLine
 10
200.172626843634
 20
289.2342100401183
 30
0.0
 11
205.8293981168602
 21
283.5774387668919
 31
0.0
  0
LINE
  5
34B
330
1F
100
AcDbEntity
  8
A-2
  6
Continuous
 62
     3
370
     9
100
AcDbLine
 10
204.5157895864549
 20
482.2636982685811
 30
0.0
 11
204.5157895864549
 21
384.8909813133447
 31
0.0
  0
LINE
  5
34C
330
1F
100
AcDbEntity
  8
A-2
  6
Continuous
 62
     3
370
     9
100
AcDbLine
 10
204.5157895864549
 20
382.2637642525339
 30
0.0
 11
204.5157895864549
 21
284.8910472972973
 31
0.0
  0
LINE
  5
34D
330
1F
100
AcDbEntity
  8
A-2
  6
Continuous
 62
     3
370
     9
100
AcDbLine
 10
205.8293981168602
 20
-16.42266020903719
 30
0.0
 11
200.172626843634
 21
-10.76588893581078
 31
0.0
  0
LINE
  5
34E
330
1F
100
AcDbEntity
  8
A-2
  6
Continuous
 62
     3
370
     9
100
AcDbLine
 10
200.172626843634
 20
-10.76588893581078
 30
0.0
 11
194.515707106514
 21
-16.42266020903719
 31
0.0
  0
LINE
  5
34F
330
1F
100
AcDbEntity
  8
A-2
  6
Continuous
 62
     3
370
     9
100
AcDbLine
 10
194.515707106514
 20
-16.42266020903719
 30
0.0
 11
200.172626843634
 21
-22.07950571421031
 31
0.0
  0
LINE
  5
350
330
1F
100
AcDbEntity
  8
A-2
  6
Continuous
 62
     3
370
     9
100
AcDbLine
 10
200.172626843634
 20
-22.07950571421031
 30
0.0
 11
205.8293981168602
 21
-16.42266020903719
 31
0.0
  0
LINE
  5
351
330
1F
100
AcDbEntity
  8
A-1
  6
Continuous
 62
     2
370
     9
100
AcDbLine
 10
194.515707106514
 20
-272.9230610615498
 30
0.0
 11
194.515707106514
 21
-276.4228746568834
 31
0.0
  0
LINE
  5
352
330
1F
100
AcDbEntity
  8
A-1
  6
Continuous
 62
     2
370
     9
100
AcDbLine
 10
257.0157400984903
 20
-216.423122096706
 30
0.0
 11
260.5157763896643
 21
-216.423122096706
 31
0.0
  0
LINE
  5
353
330
1F
100
AcDbEntity
  8
A-1
  6
Continuous
 62
     2
370
     9
100
AcDbLine
 10
254.5157565944783
 20
-266.4230148727829
 30
0.0
 11
254.5157565944783
 21
-218.9229571368243
 31
0.0
  0
LINE
  5
354
330
1F
100
AcDbEntity
  8
A-1
  6
Continuous
 62
     2
370
     9
100
AcDbLine
 10
260.5157763896643
 20
-276.4228746568834
 30
0.0
 11
194.515707106514
 21
-276.4228746568834
 31
0.0
  0
LINE
  5
355
330
1F
100
AcDbEntity
  8
A-1
  6
Continuous
 62
     2
370
     9
100
AcDbLine
 10
260.5157763896643
 20
-276.4228746568834
 30
0.0
 11
260.5157763896643
 21
-216.423122096706
 31
0.0
  0
LINE
  5
356
330
1F
100
AcDbEntity
  8
A-1
  6
Continuous
 62
     2
370
     9
100
AcDbLine
 10
235.5157928856524
 20
-276.4228746568834
 30
0.0
 11
235.5157928856524
 21
-285.4229043496621
 31
0.0
  0
LINE
  5
357
330
1F
100
AcDbEntity
  8
A-1
  6
Continuous
 62
     2
370
     9
100
AcDbLine
 10
249.3308035750527
 20
-285.4229043496621
 30
0.0
 11
235.5157928856524
 21
-285.4229043496621
 31
0.0
  0
LINE
  5
358
330
1F
100
AcDbEntity
  8
A-1
  6
Continuous
 62
     2
370
     9
100
AcDbLine
 10
253.9896005556271
 20
-277.0363274651605
 30
0.0
 11
312.1804690364128
 21
-292.6285994246199
 31
0.0
  0
LINE
  5
359
330
1F
100
AcDbEntity
  8
A-1
  6
Continuous
 62
     2
370
     9
100
AcDbLine
 10
251.6602020653399
 20
-285.7296307538006
 30
0.0
 11
309.8510705461256
 21
-301.3217542493666
 31
0.0
  0
LINE
  5
35A
330
1F
100
AcDbEntity
  8
A-1
  6
JWW_CENTER2
 62
     2
370
     9
100
AcDbLine
 10
249.3308035750527
 20
-280.9229637352195
 30
0.0
 11
231.7108117570631
 21
-280.9229637352195
 31
0.0
  0
LINE
  5
35B
330
1F
100
AcDbEntity
  8
A-1
  6
JWW_CENTER2
 62
     2
370
     9
100
AcDbLine
 10
252.8249013104837
 20
-281.3829791094805
 30
0.0
 11
317.9914942950696
 21
-298.8442630252323
 31
0.0
  0
LINE
  5
35C
330
1F
100
AcDbEntity
  8
A-2
  6
Continuous
 62
     3
370
     9
100
AcDbLine
 10
205.8293981168602
 20
83.57734803895704
 30
0.0
 11
200.172626843634
 21
89.23419354413016
 31
0.0
  0
LINE
  5
35D
330
1F
100
AcDbEntity
  8
A-2
  6
Continuous
 62
     3
370
     9
100
AcDbLine
 10
200.172626843634
 20
89.23419354413016
 30
0.0
 11
194.515707106514
 21
83.57734803895704
 31
0.0
  0
LINE
  5
35E
330
1F
100
AcDbEntity
  8
A-2
  6
Continuous
 62
     3
370
     9
100
AcDbLine
 10
194.515707106514
 20
83.57734803895704
 30
0.0
 11
200.172626843634
 21
77.92050253378392
 31
0.0
  0
LINE
  5
35F
330
1F
100
AcDbEntity
  8
A-2
  6
Continuous
 62
     3
370
     9
100
AcDbLine
 10
200.172626843634
 20
77.92050253378392
 30
0.0
 11
205.8293981168602
 21
83.57734803895704
 31
0.0
  0
LINE
  5
360
330
1F
100
AcDbEntity
  8
A-2
  6
Continuous
 62
     3
370
     9
100
AcDbLine
 10
205.8293981168602
 20
183.5773562869511
 30
0.0
 11
200.172626843634
 21
189.2341275601773
 31
0.0
  0
LINE
  5
361
330
1F
100
AcDbEntity
  8
A-2
  6
Continuous
 62
     3
370
     9
100
AcDbLine
 10
200.172626843634
 20
189.2341275601773
 30
0.0
 11
194.515707106514
 21
183.5773562869511
 31
0.0
  0
LINE
  5
362
330
1F
100
AcDbEntity
  8
A-2
  6
Continuous
 62
     3
370
     9
100
AcDbLine
 10
194.515707106514
 20
183.5773562869511
 30
0.0
 11
200.172626843634
 21
177.9204365498311
 31
0.0
  0
LINE
  5
363
330
1F
100
AcDbEntity
  8
A-2
  6
Continuous
 62
     3
370
     9
100
AcDbLine
 10
200.172626843634
 20
177.9204365498311
 30
0.0
 11
205.8293981168602
 21
183.5773562869511
 31
0.0
  0
LINE
  5
364
330
1F
100
AcDbEntity
  8
A-2
  6
Continuous
 62
     3
370
     9
100
AcDbLine
 10
204.5157895864549
 20
-15.10905167863172
 30
0.0
 11
204.5157895864549
 21
82.26366527660485
 31
0.0
  0
LINE
  5
365
330
1F
100
AcDbEntity
  8
A-2
  6
Continuous
 62
     3
370
     9
100
AcDbLine
 10
204.5157895864549
 20
84.89103080130923
 30
0.0
 11
204.5157895864549
 21
182.2636735245989
 31
0.0
  0
LINE
  5
366
330
1F
100
AcDbEntity
  8
A-2
  6
Continuous
 62
     3
370
     9
100
AcDbLine
 10
204.5157895864549
 20
282.263681772593
 30
0.0
 11
204.5157895864549
 21
184.8910390493033
 31
0.0
  0
LINE
  5
367
330
1F
100
AcDbEntity
  8
A-9
  6
Continuous
 62
     4
370
     9
100
AcDbLine
 10
202.5156840121305
 20
-304.4229422904349
 30
0.0
 11
222.5158489720124
 21
-304.4229422904349
 31
0.0
  0
LINE
  5
368
330
1F
100
AcDbEntity
  8
A-9
  6
Continuous
 62
     4
370
     9
100
AcDbLine
 10
202.5156840121305
 20
-276.4229488888302
 30
0.0
 11
202.5156840121305
 21
-304.4229422904349
 31
0.0
  0
LINE
  5
369
330
1F
100
AcDbEntity
  8
A-9
  6
Continuous
 62
     4
370
     9
100
AcDbLine
 10
222.5158489720124
 20
-276.4229488888302
 30
0.0
 11
222.5158489720124
 21
-304.4229422904349
 31
0.0
  0
LINE
  5
36A
330
1F
100
AcDbEntity
  8
A-9
  6
JWW_CENTER1
 62
     4
370
     9
100
AcDbLine
 10
212.5157664920715
 20
-237.7195253114442
 30
0.0
 11
212.5157664920715
 21
-310.9148229650548
 31
0.0
  0
LINE
  5
36B
330
1F
100
AcDbEntity
  8
A-9
  6
Continuous
 62
     4
370
     9
100
AcDbLine
 10
206.0157203033046
 20
-244.7258333773226
 30
0.0
 11
219.0158126808384
 21
-244.7258333773226
 31
0.0
  0
LINE
  5
36C
330
1F
100
AcDbEntity
  8
A-9
  6
Continuous
 62
     4
370
     9
100
AcDbLine
 10
206.0157203033046
 20
-244.7258333773226
 30
0.0
 11
206.0157203033046
 21
-276.4229488888302
 31
0.0
  0
LINE
  5
36D
330
1F
100
AcDbEntity
  8
A-9
  6
Continuous
 62
     4
370
     9
100
AcDbLine
 10
219.0158126808384
 20
-244.7258333773226
 30
0.0
 11
219.0158126808384
 21
-276.4229488888302
 31
0.0
  0
LINE
  5
36E
330
1F
100
AcDbEntity
  8
A-9
  6
JWW_CENTER1
 62
     4
370
     9
100
AcDbLine
 10
212.5157664920715
 20
555.9585026921453
 30
0.0
 11
212.5157664920715
 21
501.0010293496622
 31
0.0
  0
LINE
  5
36F
330
1F
100
AcDbEntity
  8
A-2
  6
Continuous
 62
     3
370
     9
100
AcDbLine
 10
194.515707106514
 20
-261.9230742583403
 30
0.0
 11
206.0157203033046
 21
-261.9230742583403
 31
0.0
  0
LINE
  5
370
330
1F
100
AcDbEntity
  8
A-2
  6
Continuous
 62
     3
370
     9
100
AcDbLine
 10
194.515707106514
 20
-266.4230148727829
 30
0.0
 11
206.0157203033046
 21
-266.4230148727829
 31
0.0
  0
LINE
  5
371
330
1F
100
AcDbEntity
  8
A-1
  6
Continuous
 62
     2
370
     9
100
AcDbLine
 10
250.5156939097234
 20
-270.4230033255911
 30
0.0
 11
219.0158126808384
 21
-270.4230033255911
 31
0.0
  0
LINE
  5
372
330
1F
100
AcDbEntity
  8
A-1
  6
Continuous
 62
     2
370
     9
100
AcDbLine
 10
206.0157203033046
 20
-270.4230033255911
 30
0.0
 11
197.0156906105259
 21
-270.4230033255911
 31
0.0
  0
LINE
  5
373
330
1F
100
AcDbEntity
  8
A-2
  6
Continuous
 62
     3
370
     9
100
AcDbLine
 10
205.8293981168602
 20
-216.4226767050253
 30
0.0
 11
200.172626843634
 21
-210.765905431799
 31
0.0
  0
LINE
  5
374
330
1F
100
AcDbEntity
  8
A-2
  6
Continuous
 62
     3
370
     9
100
AcDbLine
 10
200.172626843634
 20
-210.765905431799
 30
0.0
 11
194.515707106514
 21
-216.4226767050253
 31
0.0
  0
LINE
  5
375
330
1F
100
AcDbEntity
  8
A-2
  6
Continuous
 62
     3
370
     9
100
AcDbLine
 10
194.515707106514
 20
-216.4226767050253
 30
0.0
 11
200.172626843634
 21
-222.0795222101984
 31
0.0
  0
LINE
  5
376
330
1F
100
AcDbEntity
  8
A-2
  6
Continuous
 62
     3
370
     9
100
AcDbLine
 10
200.172626843634
 20
-222.0795222101984
 30
0.0
 11
205.8293981168602
 21
-216.4226767050253
 31
0.0
  0
LINE
  5
377
330
1F
100
AcDbEntity
  8
A-2
  6
Continuous
 62
     3
370
     9
100
AcDbLine
 10
204.5157895864549
 20
-115.1090599266258
 30
0.0
 11
204.5157895864549
 21
-17.73634297138938
 31
0.0
  0
LINE
  5
378
330
1F
100
AcDbEntity
  8
A-2
  6
Continuous
 62
     3
370
     9
100
AcDbLine
 10
204.5157895864549
 20
-261.9230742583403
 30
0.0
 11
204.5157895864549
 21
-217.7362852354307
 31
0.0
  0
LINE
  5
379
330
1F
100
AcDbEntity
  8
A-4
  6
Continuous
 62
     7
370
     9
100
AcDbLine
 10
194.515707106514
 20
-419.303783519848
 30
0.0
 11
260.5157763896643
 21
-419.303783519848
 31
0.0
  0
LINE
  5
37A
330
1F
100
AcDbEntity
  8
A-4
  6
Continuous
 62
     7
370
     9
100
AcDbLine
 10
194.515707106514
 20
-285.4229043496621
 30
0.0
 11
194.515707106514
 21
-421.103759765625
 31
0.0
  0
LINE
  5
37B
330
1F
100
AcDbEntity
  8
A-4
  6
Continuous
 62
     7
370
     9
100
AcDbLine
 10
260.5157763896643
 20
-285.4229043496621
 30
0.0
 11
260.5157763896643
 21
-421.103759765625
 31
0.0
  0
LINE
  5
37C
330
1F
100
AcDbEntity
  8
A-4
  6
Continuous
 62
     7
370
     9
100
AcDbLine
 10
194.5155586426206
 20
-364.943431957348
 30
0.0
 11
254.5157565944783
 21
-364.943431957348
 31
0.0
  0
LINE
  5
37D
330
1F
100
AcDbEntity
  8
A-4
  6
Continuous
 62
     7
370
     9
100
AcDbLine
 10
194.5155586426206
 20
-373.9434245341533
 30
0.0
 11
194.5155586426206
 21
-366.743408203125
 31
0.0
  0
LINE
  5
37E
330
1F
100
AcDbEntity
  8
A-2
  6
Continuous
 62
     3
370
     9
100
AcDbLine
 10
205.8293981168602
 20
-116.4226684570312
 30
0.0
 11
200.172626843634
 21
-110.7658971838048
 31
0.0
  0
LINE
  5
37F
330
1F
100
AcDbEntity
  8
A-2
  6
Continuous
 62
     3
370
     9
100
AcDbLine
 10
200.172626843634
 20
-110.7658971838048
 30
0.0
 11
194.515707106514
 21
-116.4226684570312
 31
0.0
  0
LINE
  5
380
330
1F
100
AcDbEntity
  8
A-2
  6
Continuous
 62
     3
370
     9
100
AcDbLine
 10
194.515707106514
 20
-116.4226684570312
 30
0.0
 11
200.172626843634
 21
-122.0795139622044
 31
0.0
  0
LINE
  5
381
330
1F
100
AcDbEntity
  8
A-2
  6
Continuous
 62
     3
370
     9
100
AcDbLine
 10
200.172626843634
 20
-122.0795139622044
 30
0.0
 11
205.8293981168602
 21
-116.4226684570312
 31
0.0
  0
LINE
  5
382
330
1F
100
AcDbEntity
  8
A-2
  6
Continuous
 62
     3
370
     9
100
AcDbLine
 10
204.5157895864549
 20
-215.1090681746199
 30
0.0
 11
204.5157895864549
 21
-117.7363512193834
 31
0.0
  0
LINE
  5
383
330
1F
100
AcDbEntity
  8
A-2
  6
Continuous
 62
     3
370
     9
100
AcDbLine
 10
243.0157433976881
 20
529.0773331925677
 30
0.0
 11
243.0157433976881
 21
-261.9230742583403
 31
0.0
  0
LINE
  5
384
330
1F
100
AcDbEntity
  8
A-2
  6
Continuous
 62
     3
370
     9
100
AcDbLine
 10
244.5156741145377
 20
529.0773331925677
 30
0.0
 11
244.5156741145377
 21
-261.9230742583403
 31
0.0
  0
LINE
  5
385
330
1F
100
AcDbEntity
  8
A-2
  6
Continuous
 62
     3
370
     9
100
AcDbLine
 10
194.515707106514
 20
533.5772738070102
 30
0.0
 11
194.515707106514
 21
-266.4230148727829
 31
0.0
  0
LINE
  5
386
330
1F
100
AcDbEntity
  8
A-9
  6
Continuous
 62
     4
370
     9
100
AcDbLine
 10
205.5158423736171
 20
513.5772573110221
 30
0.0
 11
219.5156906105259
 21
513.5772573110221
 31
0.0
  0
LINE
  5
387
330
1F
100
AcDbEntity
  8
A-9
  6
Continuous
 62
     4
370
     9
100
AcDbLine
 10
202.7962807709987
 20
552.53759765625
 30
0.0
 11
222.235252213144
 21
552.53759765625
 31
0.0
  0
LINE
  5
388
330
1F
100
AcDbEntity
  8
A-9
  6
Continuous
 62
     4
370
     9
100
AcDbLine
 10
200.0767191683805
 20
551.4967172983531
 30
0.0
 11
200.0767191683805
 21
543.5772078230575
 31
0.0
  0
LINE
  5
389
330
1F
100
AcDbEntity
  8
A-9
  6
Continuous
 62
     4
370
     9
100
AcDbLine
 10
200.0767191683805
 20
543.5772078230575
 30
0.0
 11
224.9548138157624
 21
543.5772078230575
 31
0.0
  0
LINE
  5
38A
330
1F
100
AcDbEntity
  8
A-9
  6
Continuous
 62
     4
370
     9
100
AcDbLine
 10
224.9548138157624
 20
551.4967172983531
 30
0.0
 11
224.9548138157624
 21
543.5772078230575
 31
0.0
  0
LINE
  5
38B
330
1F
100
AcDbEntity
  8
A-9
  6
Continuous
 62
     4
370
     9
100
AcDbLine
 10
205.5158423736171
 20
543.5772078230575
 30
0.0
 11
205.5158423736171
 21
551.4967172983531
 31
0.0
  0
LINE
  5
38C
330
1F
100
AcDbEntity
  8
A-9
  6
Continuous
 62
     4
370
     9
100
AcDbLine
 10
219.5159875383131
 20
543.5772078230575
 30
0.0
 11
219.5159875383131
 21
551.4967172983531
 31
0.0
  0
LINE
  5
38D
330
1F
100
AcDbEntity
  8
A-2
  6
Continuous
 62
     3
370
     9
100
AcDbLine
 10
194.515707106514
 20
529.0773331925677
 30
0.0
 11
205.5158423736171
 21
529.0773331925677
 31
0.0
  0
LINE
  5
38E
330
1F
100
AcDbEntity
  8
A-2
  6
Continuous
 62
     3
370
     9
100
AcDbLine
 10
194.515707106514
 20
533.5772738070102
 30
0.0
 11
205.5158423736171
 21
533.5772738070102
 31
0.0
  0
LINE
  5
38F
330
1F
100
AcDbEntity
  8
A-2
  6
Continuous
 62
     3
370
     9
100
AcDbLine
 10
206.0157203033046
 20
513.5772573110221
 30
0.0
 11
206.0157203033046
 21
-261.9230742583403
 31
0.0
  0
LINE
  5
390
330
1F
100
AcDbEntity
  8
A-9
  6
Continuous
 62
     4
370
     9
100
AcDbLine
 10
205.5158423736171
 20
543.5772078230575
 30
0.0
 11
205.5158423736171
 21
513.5772573110221
 31
0.0
  0
LINE
  5
391
330
1F
100
AcDbEntity
  8
A-9
  6
Continuous
 62
     4
370
     9
100
AcDbLine
 10
219.5156906105259
 20
543.5772078230575
 30
0.0
 11
219.5156906105259
 21
513.5772573110221
 31
0.0
  0
LINE
  5
392
330
1F
100
AcDbEntity
  8
A-1
  6
Continuous
 62
     2
370
     9
100
AcDbLine
 10
205.5158423736171
 20
537.5773364917653
 30
0.0
 11
197.0156906105259
 21
537.5773364917653
 31
0.0
  0
LINE
  5
393
330
1F
100
AcDbEntity
  8
A-1
  6
Continuous
 62
     2
370
     9
100
AcDbLine
 10
250.5156939097234
 20
537.5773364917653
 30
0.0
 11
219.5156906105259
 21
537.5773364917653
 31
0.0
  0
LINE
  5
394
330
1F
100
AcDbEntity
  8
A-2
  6
Continuous
 62
     3
370
     9
100
AcDbLine
 10
219.5156906105259
 20
533.5772738070102
 30
0.0
 11
249.5156411225612
 21
533.5772738070102
 31
0.0
  0
LINE
  5
395
330
1F
100
AcDbEntity
  8
A-2
  6
Continuous
 62
     3
370
     9
100
AcDbLine
 10
219.5156906105259
 20
529.0773331925677
 30
0.0
 11
254.5157565944783
 21
529.0773331925677
 31
0.0
  0
LINE
  5
396
330
1F
100
AcDbEntity
  8
A-2
  6
Continuous
 62
     3
370
     9
100
AcDbLine
 10
249.5156411225612
 20
533.5772738070102
 30
0.0
 11
249.5156411225612
 21
529.0773331925677
 31
0.0
  0
LINE
  5
397
330
1F
100
AcDbEntity
  8
A-2
  6
Continuous
 62
     3
370
     9
100
AcDbLine
 10
219.0158126808384
 20
-266.4230148727829
 30
0.0
 11
249.5156411225612
 21
-266.4230148727829
 31
0.0
  0
LINE
  5
398
330
1F
100
AcDbEntity
  8
A-2
  6
Continuous
 62
     3
370
     9
100
AcDbLine
 10
249.5156411225612
 20
-266.4230148727829
 30
0.0
 11
249.5156411225612
 21
-261.9230000263935
 31
0.0
  0
LINE
  5
399
330
1F
100
AcDbEntity
  8
A-2
  6
Continuous
 62
     3
370
     9
100
AcDbLine
 10
219.0158126808384
 20
-261.9230742583403
 30
0.0
 11
254.5157565944783
 21
-261.9230742583403
 31
0.0
  0
LINE
  5
39A
330
1F
100
AcDbEntity
  8
A-2
  6
Continuous
 62
     3
370
     9
100
AcDbLine
 10
254.5157565944783
 20
529.0773331925677
 30
0.0
 11
254.5157565944783
 21
-261.9230742583403
 31
0.0
  0
LINE
  5
39B
330
1F
100
AcDbEntity
  8
A-2
  6
JWW_CENTER1
 62
     3
370
     9
100
AcDbLine
 10
166.443560252629
 20
133.577166583087
 30
0.0
 11
278.1287904046559
 21
133.577166583087
 31
0.0
  0
LINE
  5
39C
330
1F
100
AcDbEntity
  8
A-4
  6
Continuous
 62
     7
370
     9
100
AcDbLine
 10
254.5157565944783
 20
-285.4229043496621
 30
0.0
 11
254.5157565944783
 21
-366.743408203125
 31
0.0
  0
ARC
  5
39D
330
1F
100
AcDbEntity
  8
A-1
  6
Continuous
 62
     2
370
     9
100
AcDbCircle
 10
197.0156906105259
 20
540.0773199957771
 30
0.0
 40
2.500000612155811
100
AcDbArc
 50
180.0
 51
270.0
  0
ARC
  5
39E
330
1F
100
AcDbEntity
  8
A-1
  6
Continuous
 62
     2
370
     9
100
AcDbCircle
 10
257.0157400984903
 20
486.0772903029984
 30
0.0
 40
2.500000612155811
100
AcDbArc
 50
180.0
 51
270.0
  0
ARC
  5
39F
330
1F
100
AcDbEntity
  8
A-1
  6
Continuous
 62
     2
370
     9
100
AcDbCircle
 10
250.5156939097234
 20
533.5772738070102
 30
0.0
 40
4.000000631487048
100
AcDbArc
 50
0.0
 51
90.0
  0
ARC
  5
3A0
330
1F
100
AcDbEntity
  8
A-1
  6
Continuous
 62
     2
370
     9
100
AcDbCircle
 10
249.3308035750527
 20
561.577267208615
 30
0.0
 40
18.00000255172317
100
AcDbArc
 50
270.0
 51
285.0
  0
ARC
  5
3A1
330
1F
100
AcDbEntity
  8
A-1
  6
Continuous
 62
     2
370
     9
100
AcDbCircle
 10
311.015769791269
 20
564.1293615392738
 30
0.0
 40
4.500000637930793
100
AcDbArc
 50
285.0001373291016
 51
104.9999084472657
  0
ARC
  5
3A2
330
1F
100
AcDbEntity
  8
A-1
  6
JWW_CENTER2
 62
     2
370
     9
100
AcDbCircle
 10
249.3308035750527
 20
561.577267208615
 30
0.0
 40
13.50000162382384
100
AcDbArc
 50
270.0
 51
284.9999542236328
  0
ARC
  5
3A3
330
1F
100
AcDbEntity
  8
A-1
  6
Continuous
 62
     2
370
     9
100
AcDbCircle
 10
249.3308035750527
 20
561.577267208615
 30
0.0
 40
9.000001275861585
100
AcDbArc
 50
270.0
 51
285.0000152587891
  0
ARC
  5
3A4
330
1F
100
AcDbEntity
  8
A-1
  6
Continuous
 62
     2
370
     9
100
AcDbCircle
 10
197.0156906105259
 20
-272.9230610615498
 30
0.0
 40
2.500000612155811
100
AcDbArc
 50
90.0
 51
180.0
  0
ARC
  5
3A5
330
1F
100
AcDbEntity
  8
A-1
  6
Continuous
 62
     2
370
     9
100
AcDbCircle
 10
257.0157400984903
 20
-218.9229571368243
 30
0.0
 40
2.500000612155811
100
AcDbArc
 50
90.0
 51
180.0
  0
ARC
  5
3A6
330
1F
100
AcDbEntity
  8
A-1
  6
Continuous
 62
     2
370
     9
100
AcDbCircle
 10
249.3308035750527
 20
-294.4229340424408
 30
0.0
 40
18.00000255172317
100
AcDbArc
 50
74.99998474121094
 51
89.99998474121094
  0
ARC
  5
3A7
330
1F
100
AcDbEntity
  8
A-1
  6
Continuous
 62
     2
370
     9
100
AcDbCircle
 10
311.015769791269
 20
-296.9751768369932
 30
0.0
 40
4.500000637930793
100
AcDbArc
 50
255.0000762939453
 51
74.99986267089842
  0
ARC
  5
3A8
330
1F
100
AcDbEntity
  8
A-1
  6
JWW_CENTER2
 62
     2
370
     9
100
AcDbCircle
 10
249.3308035750527
 20
-294.4229340424408
 30
0.0
 40
13.50000162382384
100
AcDbArc
 50
75.00004577636717
 51
90.0
  0
ARC
  5
3A9
330
1F
100
AcDbEntity
  8
A-1
  6
Continuous
 62
     2
370
     9
100
AcDbCircle
 10
249.3308035750527
 20
-294.4229340424408
 30
0.0
 40
9.000001275861585
100
AcDbArc
 50
74.99998474121094
 51
90.00000000000001
  0
ARC
  5
3AA
330
1F
100
AcDbEntity
  8
A-1
  6
Continuous
 62
     2
370
     9
100
AcDbCircle
 10
250.5156939097234
 20
-266.4230148727829
 30
0.0
 40
4.000000631487048
100
AcDbArc
 50
270.0
 51
0.0
  0
ARC
  5
3AB
330
1F
100
AcDbEntity
  8
A-9
  6
Continuous
 62
     4
370
     9
100
AcDbCircle
 10
222.235252213144
 20
548.4635999524916
 30
0.0
 40
4.074000313475326
100
AcDbArc
 50
48.12370300292969
 51
131.8761138916015
  0
ARC
  5
3AC
330
1F
100
AcDbEntity
  8
A-9
  6
Continuous
 62
     4
370
     9
100
AcDbCircle
 10
202.7962807709987
 20
548.4635999524916
 30
0.0
 40
4.074000313475326
100
AcDbArc
 50
48.12388610839845
 51
131.8762969970703
  0
ARC
  5
3AD
330
1F
100
AcDbEntity
  8
A-9
  6
Continuous
 62
     4
370
     9
100
AcDbCircle
 10
212.5157664920715
 20
528.471155115076
 30
0.0
 40
24.06618504910856
100
AcDbArc
 50
73.09028625488283
 51
106.9097137451172
  0
TEXT
  5
3AE
330
1F
100
AcDbEntity
  8
A-4
  6
Continuous
 62
     2
370
     9
100
AcDbText
 10
214.7657417480891
 20
-412.3197939123204
 30
0.0
 40
18.288
  1
66
 41
1.0625
  7
ＭＳ ゴシック
100
AcDbText
  0
TEXT
  5
3AF
330
1F
100
AcDbEntity
  8
A-4
  6
Continuous
 62
     2
370
     9
100
AcDbText
 10
211.7657318504963
 20
-357.9594052338471
 30
0.0
 40
18.288
  1
60
 41
1.0625
  7
ＭＳ ゴシック
100
AcDbText
  0
LWPOLYLINE
  5
3B0
330
1F
100
AcDbEntity
  8
A-4
  6
Continuous
 62
     7
370
     9
100
AcDbPolyline
 90
        4
 70
     1
 43
1.2
 10
195.115707106514
 20
-419.303783519848
 42
0.4142135623731
 10
194.515707106514
 20
-418.703783519848
 42
0.4142135623731
 10
193.915707106514
 20
-419.303783519848
 42
0.4142135623731
 10
194.515707106514
 20
-419.9037835198479
 42
0.4142135623731
  0
LWPOLYLINE
  5
3B1
330
1F
100
AcDbEntity
  8
A-4
  6
Continuous
 62
     7
370
     9
100
AcDbPolyline
 90
        4
 70
     1
 43
1.2
 10
261.1157763896643
 20
-419.303783519848
 42
0.4142135623731
 10
260.5157763896643
 20
-418.703783519848
 42
0.4142135623731
 10
259.9157763896643
 20
-419.303783519848
 42
0.4142135623731
 10
260.5157763896643
 20
-419.9037835198479
 42
0.4142135623731
  0
LWPOLYLINE
  5
3B2
330
1F
100
AcDbEntity
  8
A-4
  6
Continuous
 62
     7
370
     9
100
AcDbPolyline
 90
        4
 70
     1
 43
1.2
 10
195.1155586426206
 20
-364.943431957348
 42
0.4142135623731
 10
194.5155586426206
 20
-364.3434319573479
 42
0.4142135623731
 10
193.9155586426206
 20
-364.943431957348
 42
0.4142135623731
 10
194.5155586426206
 20
-365.543431957348
 42
0.4142135623731
  0
LWPOLYLINE
  5
3B3
330
1F
100
AcDbEntity
  8
A-4
  6
Continuous
 62
     7
370
     9
100
AcDbPolyline
 90
        4
 70
     1
 43
1.2
 10
255.1157565944783
 20
-364.943431957348
 42
0.4142135623731
 10
254.5157565944783
 20
-364.3434319573479
 42
0.4142135623731
 10
253.9157565944784
 20
-364.943431957348
 42
0.4142135623731
 10
254.5157565944783
 20
-365.543431957348
 42
0.4142135623731
  0
LINE
  5
3B4
330
1F
100
AcDbEntity
  8
A-4
  6
Continuous
 62
     7
370
     9
100
AcDbLine
 10
130.2278842033093
 20
565.2897553315034
 30
0.0
 11
130.2278842033093
 21
-302.1024516337627
 31
0.0
  0
LINE
  5
3B5
330
1F
100
AcDbEntity
  8
A-4
  6
Continuous
 62
     7
370
     9
100
AcDbLine
 10
185.5156774137352
 20
543.5772078230575
 30
0.0
 11
73.50371691253608
 21
543.5772078230575
 31
0.0
  0
LINE
  5
3B6
330
1F
100
AcDbEntity
  8
A-4
  6
Continuous
 62
     7
370
     9
100
AcDbLine
 10
188.0156609177471
 20
537.5773364917653
 30
0.0
 11
128.4279079575324
 21
537.5773364917653
 31
0.0
  0
LINE
  5
3B7
330
1F
100
AcDbEntity
  8
A-4
  6
Continuous
 62
     7
370
     9
100
AcDbLine
 10
185.5156774137352
 20
533.5772738070102
 30
0.0
 11
128.4279079575324
 21
533.5772738070102
 31
0.0
  0
LINE
  5
3B8
330
1F
100
AcDbEntity
  8
A-4
  6
Continuous
 62
     7
370
     9
100
AcDbLine
 10
185.5156774137352
 20
-266.4230148727829
 30
0.0
 11
128.4279079575324
 21
-266.4230148727829
 31
0.0
  0
LINE
  5
3B9
330
1F
100
AcDbEntity
  8
A-4
  6
Continuous
 62
     7
370
     9
100
AcDbLine
 10
188.0156609177471
 20
-270.4230033255911
 30
0.0
 11
128.4279079575324
 21
-270.4230033255911
 31
0.0
  0
LINE
  5
3BA
330
1F
100
AcDbEntity
  8
A-4
  6
Continuous
 62
     7
370
     9
100
AcDbLine
 10
185.5156774137352
 20
-276.4228746568834
 30
0.0
 11
73.50371691253608
 21
-276.4228746568834
 31
0.0
  0
TEXT
  5
3BB
330
1F
100
AcDbEntity
  8
A-4
  6
Continuous
 62
     2
370
     9
100
AcDbText
 10
123.2439317117552
 20
555.4723032358531
 30
0.0
 40
18.288
  1
6
 50
90.0
  7
ＭＳ ゴシック
100
AcDbText
  0
TEXT
  5
3BC
330
1F
100
AcDbEntity
  8
A-4
  6
Continuous
 62
     2
370
     9
100
AcDbText
 10
123.2439317117552
 20
518.2512174039274
 30
0.0
 40
18.288
  1
4
 50
90.0
  7
ＭＳ ゴシック
100
AcDbText
  0
TEXT
  5
3BD
330
1F
100
AcDbEntity
  8
A-4
  6
Continuous
 62
     2
370
     9
100
AcDbText
 10
123.2439317117552
 20
-261.0034319903399
 30
0.0
 40
18.288
  1
4
 50
90.0
  7
ＭＳ ゴシック
100
AcDbText
  0
TEXT
  5
3BE
330
1F
100
AcDbEntity
  8
A-4
  6
Continuous
 62
     2
370
     9
100
AcDbText
 10
123.2439317117552
 20
-299.7908675735061
 30
0.0
 40
18.288
  1
6
 50
90.0
  7
ＭＳ ゴシック
100
AcDbText
  0
TEXT
  5
3BF
330
1F
100
AcDbEntity
  8
A-4
  6
Continuous
 62
     2
370
     9
100
AcDbText
 10
123.2439317117552
 20
114.0770923511402
 30
0.0
 40
18.288
  1
800
 50
90.0
 41
1.083333333333333
  7
ＭＳ ゴシック
100
AcDbText
  0
LWPOLYLINE
  5
3C0
330
1F
100
AcDbEntity
  8
A-4
  6
Continuous
 62
     7
370
     9
100
AcDbPolyline
 90
        4
 70
     1
 43
1.2
 10
130.8278842033093
 20
543.5772078230575
 42
0.4142135623731
 10
130.2278842033093
 20
544.1772078230574
 42
0.4142135623731
 10
129.6278842033093
 20
543.5772078230575
 42
0.4142135623731
 10
130.2278842033093
 20
542.9772078230576
 42
0.4142135623731
  0
LWPOLYLINE
  5
3C1
330
1F
100
AcDbEntity
  8
A-4
  6
Continuous
 62
     7
370
     9
100
AcDbPolyline
 90
        4
 70
     1
 43
1.2
 10
130.8278842033093
 20
537.5773364917653
 42
0.4142135623731
 10
130.2278842033093
 20
538.1773364917653
 42
0.4142135623731
 10
129.6278842033093
 20
537.5773364917653
 42
0.4142135623731
 10
130.2278842033093
 20
536.9773364917653
 42
0.4142135623731
  0
LWPOLYLINE
  5
3C2
330
1F
100
AcDbEntity
  8
A-4
  6
Continuous
 62
     7
370
     9
100
AcDbPolyline
 90
        4
 70
     1
 43
1.2
 10
130.8278842033093
 20
533.5772738070102
 42
0.4142135623731
 10
130.2278842033093
 20
534.1772738070101
 42
0.4142135623731
 10
129.6278842033093
 20
533.5772738070102
 42
0.4142135623731
 10
130.2278842033093
 20
532.9772738070102
 42
0.4142135623731
  0
LWPOLYLINE
  5
3C3
330
1F
100
AcDbEntity
  8
A-4
  6
Continuous
 62
     7
370
     9
100
AcDbPolyline
 90
        4
 70
     1
 43
1.2
 10
130.8278842033093
 20
-266.4230148727829
 42
0.4142135623731
 10
130.2278842033093
 20
-265.8230148727829
 42
0.4142135623731
 10
129.6278842033093
 20
-266.4230148727829
 42
0.4142135623731
 10
130.2278842033093
 20
-267.0230148727829
 42
0.4142135623731
  0
LWPOLYLINE
  5
3C4
330
1F
100
AcDbEntity
  8
A-4
  6
Continuous
 62
     7
370
     9
100
AcDbPolyline
 90
        4
 70
     1
 43
1.2
 10
130.8278842033093
 20
-270.4230033255911
 42
0.4142135623731
 10
130.2278842033093
 20
-269.8230033255912
 42
0.4142135623731
 10
129.6278842033093
 20
-270.4230033255911
 42
0.4142135623731
 10
130.2278842033093
 20
-271.0230033255912
 42
0.4142135623731
  0
LWPOLYLINE
  5
3C5
330
1F
100
AcDbEntity
  8
A-4
  6
Continuous
 62
     7
370
     9
100
AcDbPolyline
 90
        4
 70
     1
 43
1.2
 10
130.8278842033093
 20
-276.4228746568834
 42
0.4142135623731
 10
130.2278842033093
 20
-275.8228746568834
 42
0.4142135623731
 10
129.6278842033093
 20
-276.4228746568834
 42
0.4142135623731
 10
130.2278842033093
 20
-277.0228746568835
 42
0.4142135623731
  0
LINE
  5
3C6
330
1F
100
AcDbEntity
  8
A-4
  6
Continuous
 62
     7
370
     9
100
AcDbLine
 10
75.30369315831311
 20
543.5772078230575
 30
0.0
 11
75.30369315831311
 21
-276.4228746568834
 31
0.0
  0
TEXT
  5
3C7
330
1F
100
AcDbEntity
  8
A-4
  6
Continuous
 62
     2
370
     9
100
AcDbText
 10
68.31974066675905
 20
114.0771665830871
 30
0.0
 40
18.288
  1
820
 50
90.0
 41
1.083333333333333
  7
ＭＳ ゴシック
100
AcDbText
  0
LWPOLYLINE
  5
3C8
330
1F
100
AcDbEntity
  8
A-4
  6
Continuous
 62
     7
370
     9
100
AcDbPolyline
 90
        4
 70
     1
 43
1.2
 10
75.9036931583131
 20
543.5772078230575
 42
0.4142135623731
 10
75.30369315831311
 20
544.1772078230574
 42
0.4142135623731
 10
74.7036931583131
 20
543.5772078230575
 42
0.4142135623731
 10
75.30369315831311
 20
542.9772078230576
 42
0.4142135623731
  0
LWPOLYLINE
  5
3C9
330
1F
100
AcDbEntity
  8
A-4
  6
Continuous
 62
     7
370
     9
100
AcDbPolyline
 90
        4
 70
     1
 43
1.2
 10
75.9036931583131
 20
-276.4228746568834
 42
0.4142135623731
 10
75.30369315831311
 20
-275.8228746568834
 42
0.4142135623731
 10
74.7036931583131
 20
-276.4228746568834
 42
0.4142135623731
 10
75.30369315831311
 20
-277.0228746568835
 42
0.4142135623731
  0
LINE
  5
3CA
330
1F
100
AcDbEntity
  8
A-4
  6
Continuous
 62
     7
370
     9
100
AcDbLine
 10
338.2139074493093
 20
543.5772078230575
 30
0.0
 11
338.2139074493093
 21
483.5773067989866
 31
0.0
  0
LINE
  5
3CB
330
1F
100
AcDbEntity
  8
A-4
  6
Continuous
 62
     7
370
     9
100
AcDbLine
 10
269.5158060824431
 20
543.5772078230575
 30
0.0
 11
340.0138836950862
 21
543.5772078230575
 31
0.0
  0
LINE
  5
3CC
330
1F
100
AcDbEntity
  8
A-4
  6
Continuous
 62
     7
370
     9
100
AcDbLine
 10
269.5158060824431
 20
483.5773067989866
 30
0.0
 11
340.0138836950862
 21
483.5773067989866
 31
0.0
  0
LINE
  5
3CD
330
1F
100
AcDbEntity
  8
A-4
  6
Continuous
 62
     7
370
     9
100
AcDbLine
 10
269.5158060824431
 20
-216.423122096706
 30
0.0
 11
340.0138836950862
 21
-216.423122096706
 31
0.0
  0
LINE
  5
3CE
330
1F
100
AcDbEntity
  8
A-4
  6
Continuous
 62
     7
370
     9
100
AcDbLine
 10
338.2139074493093
 20
483.5773067989866
 30
0.0
 11
338.2139074493093
 21
-276.4228746568834
 31
0.0
  0
LINE
  5
3CF
330
1F
100
AcDbEntity
  8
A-4
  6
Continuous
 62
     7
370
     9
100
AcDbLine
 10
269.5158060824431
 20
-276.4228746568834
 30
0.0
 11
340.0138836950862
 21
-276.4228746568834
 31
0.0
  0
TEXT
  5
3D0
330
1F
100
AcDbEntity
  8
A-4
  6
Continuous
 62
     2
370
     9
100
AcDbText
 10
331.2299549577552
 20
500.8273315429689
 30
0.0
 40
18.288
  1
60
 50
90.0
 41
1.0625
  7
ＭＳ ゴシック
100
AcDbText
  0
TEXT
  5
3D1
330
1F
100
AcDbEntity
  8
A-4
  6
Continuous
 62
     2
370
     9
100
AcDbText
 10
331.2299549577552
 20
-259.1729983767947
 30
0.0
 40
18.288
  1
60
 50
90.0
 41
1.0625
  7
ＭＳ ゴシック
100
AcDbText
  0
TEXT
  5
3D2
330
1F
100
AcDbEntity
  8
A-4
  6
Continuous
 62
     2
370
     9
100
AcDbText
 10
331.2299549577552
 20
114.0770923511402
 30
0.0
 40
18.288
  1
700
 50
90.0
 41
1.083333333333333
  7
ＭＳ ゴシック
100
AcDbText
  0
LWPOLYLINE
  5
3D3
330
1F
100
AcDbEntity
  8
A-4
  6
Continuous
 62
     7
370
     9
100
AcDbPolyline
 90
        4
 70
     1
 43
1.2
 10
338.8139074493093
 20
543.5772078230575
 42
0.4142135623731
 10
338.2139074493093
 20
544.1772078230574
 42
0.4142135623731
 10
337.6139074493093
 20
543.5772078230575
 42
0.4142135623731
 10
338.2139074493093
 20
542.9772078230576
 42
0.4142135623731
  0
LWPOLYLINE
  5
3D4
330
1F
100
AcDbEntity
  8
A-4
  6
Continuous
 62
     7
370
     9
100
AcDbPolyline
 90
        4
 70
     1
 43
1.2
 10
338.8139074493093
 20
483.5773067989866
 42
0.4142135623731
 10
338.2139074493093
 20
484.1773067989865
 42
0.4142135623731
 10
337.6139074493093
 20
483.5773067989866
 42
0.4142135623731
 10
338.2139074493093
 20
482.9773067989866
 42
0.4142135623731
  0
LWPOLYLINE
  5
3D5
330
1F
100
AcDbEntity
  8
A-4
  6
Continuous
 62
     7
370
     9
100
AcDbPolyline
 90
        4
 70
     1
 43
1.2
 10
338.8139074493093
 20
-216.423122096706
 42
0.4142135623731
 10
338.2139074493093
 20
-215.823122096706
 42
0.4142135623731
 10
337.6139074493093
 20
-216.423122096706
 42
0.4142135623731
 10
338.2139074493093
 20
-217.023122096706
 42
0.4142135623731
  0
LWPOLYLINE
  5
3D6
330
1F
100
AcDbEntity
  8
A-4
  6
Continuous
 62
     7
370
     9
100
AcDbPolyline
 90
        4
 70
     1
 43
1.2
 10
338.8139074493093
 20
-276.4228746568834
 42
0.4142135623731
 10
338.2139074493093
 20
-275.8228746568834
 42
0.4142135623731
 10
337.6139074493093
 20
-276.4228746568834
 42
0.4142135623731
 10
338.2139074493093
 20
-277.0228746568835
 42
0.4142135623731
  0
LINE
  5
3D7
330
1F
100
AcDbEntity
  8
A-5
  6
Continuous
 62
     7
370
     9
100
AcDbLine
 10
-853.5599716867703
 20
549.9773378114444
 30
0.0
 11
-858.3434783379525
 21
561.5257502375423
 31
0.0
  0
LINE
  5
3D8
330
1F
100
AcDbEntity
  8
A-5
  6
Continuous
 62
     7
370
     9
100
AcDbLine
 10
-853.5599716867703
 20
549.9773378114444
 30
0.0
 11
-855.1915156452794
 21
562.370361328125
 31
0.0
  0
LINE
  5
3D9
330
1F
100
AcDbEntity
  8
A-5
  6
Continuous
 62
     7
370
     9
100
AcDbLine
 10
-843.5598892068292
 20
-304.4230165223817
 30
0.0
 11
-838.7763083237
 21
-315.9715774123733
 31
0.0
  0
LINE
  5
3DA
330
1F
100
AcDbEntity
  8
A-5
  6
Continuous
 62
     7
370
     9
100
AcDbLine
 10
-843.5598892068292
 20
-304.4230165223817
 30
0.0
 11
-841.92834524832
 21
-316.816188502956
 31
0.0
  0
LINE
  5
3DB
330
1F
100
AcDbEntity
  8
A-5
  6
Continuous
 62
     7
370
     9
100
AcDbLine
 10
-860.0600921074838
 20
-254.7276974239865
 30
0.0
 11
-867.6696089729822
 21
-244.810754724451
 31
0.0
  0
LINE
  5
3DC
330
1F
100
AcDbEntity
  8
A-5
  6
Continuous
 62
     7
370
     9
100
AcDbLine
 10
-860.0600921074838
 20
-254.7276974239865
 30
0.0
 11
-864.8435245267194
 21
-243.1792107659417
 31
0.0
  0
LINE
  5
3DD
330
1F
100
AcDbEntity
  8
A-5
  6
Continuous
 62
     7
370
     9
100
AcDbLine
 10
-853.5599716867703
 20
549.9773378114444
 30
0.0
 11
-884.1597163288732
 21
664.1772493929478
 31
0.0
  0
LINE
  5
3DE
330
1F
100
AcDbEntity
  8
A-5
  6
Continuous
 62
     7
370
     9
100
AcDbLine
 10
-860.0600921074838
 20
-254.7276974239865
 30
0.0
 11
-916.5599568403809
 21
-156.8668311866554
 31
0.0
  0
LINE
  5
3DF
330
1F
100
AcDbEntity
  8
A-5
  6
Continuous
 62
     7
370
     9
100
AcDbLine
 10
-373.7619320700049
 20
495.4257647540119
 30
0.0
 11
-372.1304623434424
 21
507.8187882706927
 31
0.0
  0
LINE
  5
3E0
330
1F
100
AcDbEntity
  8
A-5
  6
Continuous
 62
     7
370
     9
100
AcDbLine
 10
-373.7619320700049
 20
495.4257647540119
 30
0.0
 11
-368.9784254188226
 21
506.9743256440034
 31
0.0
  0
LINE
  5
3E1
330
1F
100
AcDbEntity
  8
A-5
  6
Continuous
 62
     7
370
     9
100
AcDbLine
 10
-399.0356087618335
 20
488.5772738070102
 30
0.0
 11
-397.4039905713774
 21
500.9702973236909
 31
0.0
  0
LINE
  5
3E2
330
1F
100
AcDbEntity
  8
A-5
  6
Continuous
 62
     7
370
     9
100
AcDbLine
 10
-399.0356087618335
 20
488.5772738070102
 30
0.0
 11
-394.2520278787043
 21
500.1258346970017
 31
0.0
  0
LINE
  5
3E3
330
1F
100
AcDbEntity
  8
A-5
  6
Continuous
 62
     7
370
     9
100
AcDbLine
 10
-410.7708629980033
 20
533.5772738070102
 30
0.0
 11
-409.1393932714408
 21
545.9702973236909
 31
0.0
  0
LINE
  5
3E4
330
1F
100
AcDbEntity
  8
A-5
  6
Continuous
 62
     7
370
     9
100
AcDbLine
 10
-410.7708629980033
 20
533.5772738070102
 30
0.0
 11
-405.9873563468208
 21
545.1256862331081
 31
0.0
  0
LINE
  5
3E5
330
1F
100
AcDbEntity
  8
A-5
  6
Continuous
 62
     7
370
     9
100
AcDbLine
 10
-328.5451747853766
 20
664.1772493929478
 30
0.0
 11
-40.30438119637739
 21
664.1772493929478
 31
0.0
  0
LINE
  5
3E6
330
1F
100
AcDbEntity
  8
A-5
  6
Continuous
 62
     7
370
     9
100
AcDbLine
 10
-341.2658581151908
 20
704.1771339210306
 30
0.0
 11
-108.9386453433369
 21
704.1771339210306
 31
0.0
  0
LINE
  5
3E7
330
1F
100
AcDbEntity
  8
A-5
  6
Continuous
 62
     7
370
     9
100
AcDbLine
 10
-354.3407762950894
 20
744.1771669130069
 30
0.0
 11
-79.1235323788099
 21
744.1771669130069
 31
0.0
  0
LINE
  5
3E8
330
1F
100
AcDbEntity
  8
A-5
  6
Continuous
 62
     7
370
     9
100
AcDbLine
 10
-144.0834636235311
 20
418.4000244140625
 30
0.0
 11
-140.5135750704272
 21
430.3794275232264
 31
0.0
  0
LINE
  5
3E9
330
1F
100
AcDbEntity
  8
A-5
  6
Continuous
 62
     7
370
     9
100
AcDbLine
 10
-144.0834636235311
 20
418.4000244140625
 30
0.0
 11
-137.5347212776696
 21
429.0471125422299
 31
0.0
  0
LINE
  5
3EA
330
1F
100
AcDbEntity
  8
A-5
  6
Continuous
 62
     7
370
     9
100
AcDbLine
 10
-410.7708629980033
 20
533.5772738070102
 30
0.0
 11
-354.3407762950894
 21
744.1771669130069
 31
0.0
  0
LINE
  5
3EB
330
1F
100
AcDbEntity
  8
A-5
  6
Continuous
 62
     7
370
     9
100
AcDbLine
 10
-399.0356087618335
 20
488.5772738070102
 30
0.0
 11
-341.2658581151908
 21
704.1771339210306
 31
0.0
  0
LINE
  5
3EC
330
1F
100
AcDbEntity
  8
A-5
  6
Continuous
 62
     7
370
     9
100
AcDbLine
 10
-373.7619320700049
 20
495.4257647540119
 30
0.0
 11
-328.5451747853766
 21
664.1772493929478
 31
0.0
  0
TEXT
  5
3ED
330
1F
100
AcDbEntity
  8
A-5
  6
Continuous
 62
     7
370
     9
100
AcDbText
 10
-334.4370485316815
 20
709.9350188450169
 30
0.0
 40
13.716
  1
クロスバー □８ ＠100
 41
1.158730158730158
  7
ＭＳ ゴシック
100
AcDbText
  0
TEXT
  5
3EE
330
1F
100
AcDbEntity
  8
A-5
  6
Continuous
 62
     7
370
     9
100
AcDbText
 10
-320.2009076361472
 20
671.4732202544341
 30
0.0
 40
13.716
  1
メインバー Ⅰ－６０ ＠35.3
 41
1.16025641025641
  7
ＭＳ ゴシック
100
AcDbText
  0
TEXT
  5
3EF
330
1F
100
AcDbEntity
  8
A-5
  6
Continuous
 62
     7
370
     9
100
AcDbText
 10
-350.565596818738
 20
749.4090442620356
 30
0.0
 40
13.716
  1
エンドプレート ＦＢ4.5×55
 41
1.16025641025641
  7
ＭＳ ゴシック
100
AcDbText
  0
LINE
  5
3F0
330
1F
100
AcDbEntity
  8
A-5
  6
Continuous
 62
     7
370
     9
100
AcDbLine
 10
-916.5599568403809
 20
-156.8668311866554
 30
0.0
 11
-1070.38591745464
 21
-156.8668311866554
 31
0.0
  0
LINE
  5
3F1
330
1F
100
AcDbEntity
  8
A-5
  6
Continuous
 62
     7
370
     9
100
AcDbLine
 10
-884.1597163288732
 20
664.1772493929478
 30
0.0
 11
-1113.183263312312
 21
664.1772493929478
 31
0.0
  0
TEXT
  5
3F2
330
1F
100
AcDbEntity
  8
A-5
  6
Continuous
 62
     7
370
     9
100
AcDbText
 10
-1111.605612984371
 20
672.2191028557856
 30
0.0
 40
13.716
  1
六角ピン φ１４×３０
 41
1.15079365079365
  7
ＭＳ ゴシック
100
AcDbText
  0
LINE
  5
3F3
330
1F
100
AcDbEntity
  8
A-5
  6
Continuous
 62
     7
370
     9
100
AcDbLine
 10
312.1804690364128
 20
568.4760874155406
 30
0.0
 11
347.5934131084143
 21
656.9446823532519
 31
0.0
  0
LINE
  5
3F4
330
1F
100
AcDbEntity
  8
A-5
  6
Continuous
 62
     7
370
     9
100
AcDbLine
 10
347.5934131084143
 20
656.9446823532519
 30
0.0
 11
505.4610097089212
 21
656.9446823532519
 31
0.0
  0
LINE
  5
3F5
330
1F
100
AcDbEntity
  8
A-5
  6
Continuous
 62
     7
370
     9
100
AcDbLine
 10
-22.51801729171243
 20
653.0979828705659
 30
0.0
 11
150.6758039709565
 21
653.0979828705659
 31
0.0
  0
LINE
  5
3F6
330
1F
100
AcDbEntity
  8
A-5
  6
Continuous
 62
     7
370
     9
100
AcDbLine
 10
194.515707106514
 20
543.5772078230575
 30
0.0
 11
150.6758039709565
 21
653.0979828705659
 31
0.0
  0
LINE
  5
3F7
330
1F
100
AcDbEntity
  8
A-5
  6
Continuous
 62
     7
370
     9
100
AcDbLine
 10
312.1804690364128
 20
568.4760874155406
 30
0.0
 11
315.8893940258553
 21
583.0102572054477
 31
0.0
  0
LINE
  5
3F8
330
1F
100
AcDbEntity
  8
A-5
  6
Continuous
 62
     7
370
     9
100
AcDbLine
 10
312.1804690364128
 20
568.4760874155406
 30
0.0
 11
319.5248293879753
 21
581.5551625844596
 31
0.0
  0
LINE
  5
3F9
330
1F
100
AcDbEntity
  8
A-5
  6
Continuous
 62
     7
370
     9
100
AcDbLine
 10
194.515707106514
 20
543.5772078230575
 30
0.0
 11
187.1713467549515
 21
556.6562829919765
 31
0.0
  0
LINE
  5
3FA
330
1F
100
AcDbEntity
  8
A-5
  6
Continuous
 62
     7
370
     9
100
AcDbLine
 10
194.515707106514
 20
543.5772078230575
 30
0.0
 11
190.8067821170715
 21
558.1113776129646
 31
0.0
  0
TEXT
  5
3FB
330
1F
100
AcDbEntity
  8
A-5
  6
Continuous
 62
     7
370
     9
100
AcDbText
 10
351.1622030287057
 20
662.9846486750422
 30
0.0
 40
13.716
  1
アンカー：φ９
 41
1.142857142857143
  7
ＭＳ ゴシック
100
AcDbText
  0
TEXT
  5
3FC
330
1F
100
AcDbEntity
  8
A-5
  6
Continuous
 62
     7
370
     9
100
AcDbText
 10
-19.01444261107468
 20
629.9754835040119
 30
0.0
 40
13.716
  1
（二方受四方枠）
 41
1.145833333333333
  7
ＭＳ ゴシック
100
AcDbText
  0
LINE
  5
3FD
330
1F
100
AcDbEntity
  8
A-5
  6
Continuous
 62
     7
370
     9
100
AcDbLine
 10
-843.5598892068292
 20
-304.4230165223817
 30
0.0
 11
-785.0923582603555
 21
-527.3685731630067
 31
0.0
  0
LINE
  5
3FE
330
1F
100
AcDbEntity
  8
A-5
  6
Continuous
 62
     7
370
     9
100
AcDbLine
 10
-785.0923582603555
 20
-527.3685731630067
 30
0.0
 11
-617.572975474249
 21
-527.3685731630067
 31
0.0
  0
TEXT
  5
3FF
330
1F
100
AcDbEntity
  8
A-5
  6
Continuous
 62
     7
370
     9
100
AcDbText
 10
-779.9965627578217
 20
-521.6261284839527
 30
0.0
 40
13.716
  1
ボックス φ２０
 41
1.144444444444444
  7
ＭＳ ゴシック
100
AcDbText
  0
LINE
  5
400
330
1F
100
AcDbEntity
  8
A-5
  6
Continuous
 62
     7
370
     9
100
AcDbLine
 10
-144.0834636235311
 20
418.4000244140625
 30
0.0
 11
-115.6635597434815
 21
480.5599116549075
 31
0.0
  0
LINE
  5
401
330
1F
100
AcDbEntity
  8
A-4
  6
Continuous
 62
     7
370
     9
100
AcDbLine
 10
-891.5600475683159
 20
609.6181539414736
 30
0.0
 11
-768.0600978810797
 21
609.6181539414736
 31
0.0
  0
LINE
  5
402
330
1F
100
AcDbEntity
  8
A-4
  6
Continuous
 62
     7
370
     9
100
AcDbLine
 10
-891.5600475683159
 20
552.5772375158363
 30
0.0
 11
-891.5600475683159
 21
611.4181301872507
 31
0.0
  0
LINE
  5
403
330
1F
100
AcDbEntity
  8
A-4
  6
Continuous
 62
     7
370
     9
100
AcDbLine
 10
-768.0600978810797
 20
573.1771966057856
 30
0.0
 11
-768.0600978810797
 21
611.4181301872507
 31
0.0
  0
LINE
  5
404
330
1F
100
AcDbEntity
  8
A-4
  6
Continuous
 62
     7
370
     9
100
AcDbLine
 10
-768.0600978810797
 20
609.6181539414736
 30
0.0
 11
-268.0600937570827
 21
609.6181539414736
 31
0.0
  0
LINE
  5
405
330
1F
100
AcDbEntity
  8
A-4
  6
Continuous
 62
     7
370
     9
100
AcDbLine
 10
-268.0600937570827
 20
573.1771966057856
 30
0.0
 11
-268.0600937570827
 21
611.4181301872507
 31
0.0
  0
LINE
  5
406
330
1F
100
AcDbEntity
  8
A-4
  6
Continuous
 62
     7
370
     9
100
AcDbLine
 10
-268.0600937570827
 20
609.6181539414736
 30
0.0
 11
-144.5600327219265
 21
609.6181539414736
 31
0.0
  0
LINE
  5
407
330
1F
100
AcDbEntity
  8
A-4
  6
Continuous
 62
     7
370
     9
100
AcDbLine
 10
-144.5600327219265
 20
552.5772375158363
 30
0.0
 11
-144.5600327219265
 21
611.4181301872507
 31
0.0
  0
TEXT
  5
408
330
1F
100
AcDbEntity
  8
A-4
  6
Continuous
 62
     2
370
     9
100
AcDbText
 10
-862.8100912826844
 20
616.6021064330276
 30
0.0
 40
18.288
  1
123.5
 41
1.1
  7
ＭＳ ゴシック
100
AcDbText
  0
TEXT
  5
409
330
1F
100
AcDbEntity
  8
A-4
  6
Continuous
 62
     2
370
     9
100
AcDbText
 10
-537.5601514930412
 20
616.6021064330276
 30
0.0
 40
18.288
  1
500
 41
1.083333333333333
  7
ＭＳ ゴシック
100
AcDbText
  0
TEXT
  5
40A
330
1F
100
AcDbEntity
  8
A-4
  6
Continuous
 62
     2
370
     9
100
AcDbText
 10
-239.3100632395045
 20
616.6021064330276
 30
0.0
 40
18.288
  1
123.5
 41
1.1
  7
ＭＳ ゴシック
100
AcDbText
  0
LWPOLYLINE
  5
40B
330
1F
100
AcDbEntity
  8
A-4
  6
Continuous
 62
     7
370
     9
100
AcDbPolyline
 90
        4
 70
     1
 43
1.2
 10
-890.9600475683159
 20
609.6181539414736
 42
0.4142135623731
 10
-891.5600475683159
 20
610.2181539414736
 42
0.4142135623731
 10
-892.1600475683158
 20
609.6181539414736
 42
0.4142135623731
 10
-891.5600475683159
 20
609.0181539414737
 42
0.4142135623731
  0
LWPOLYLINE
  5
40C
330
1F
100
AcDbEntity
  8
A-4
  6
Continuous
 62
     7
370
     9
100
AcDbPolyline
 90
        4
 70
     1
 43
1.2
 10
-767.4600978810797
 20
609.6181539414736
 42
0.4142135623731
 10
-768.0600978810797
 20
610.2181539414736
 42
0.4142135623731
 10
-768.6600978810798
 20
609.6181539414736
 42
0.4142135623731
 10
-768.0600978810797
 20
609.0181539414737
 42
0.4142135623731
  0
LWPOLYLINE
  5
40D
330
1F
100
AcDbEntity
  8
A-4
  6
Continuous
 62
     7
370
     9
100
AcDbPolyline
 90
        4
 70
     1
 43
1.2
 10
-267.4600937570827
 20
609.6181539414736
 42
0.4142135623731
 10
-268.0600937570827
 20
610.2181539414736
 42
0.4142135623731
 10
-268.6600937570827
 20
609.6181539414736
 42
0.4142135623731
 10
-268.0600937570827
 20
609.0181539414737
 42
0.4142135623731
  0
LWPOLYLINE
  5
40E
330
1F
100
AcDbEntity
  8
A-4
  6
Continuous
 62
     7
370
     9
100
AcDbPolyline
 90
        4
 70
     1
 43
1.2
 10
-143.9600327219264
 20
609.6181539414736
 42
0.4142135623731
 10
-144.5600327219265
 20
610.2181539414736
 42
0.4142135623731
 10
-145.1600327219265
 20
609.6181539414736
 42
0.4142135623731
 10
-144.5600327219265
 20
609.0181539414737
 42
0.4142135623731
  0
TEXT
  5
40F
330
1F
100
AcDbEntity
  8
A-5
  6
Continuous
 62
     7
370
     9
100
AcDbText
 10
-1.38883963687443
 20
661.8977445101353
 30
0.0
 40
13.716
  1
受枠：Ｌ－６０
 41
1.142857142857143
  7
ＭＳ ゴシック
100
AcDbText
  0
TEXT
  5
410
330
1F
100
AcDbEntity
  8
A-5
  6
Continuous
 62
     7
370
     9
100
AcDbText
 10
-115.9474078616191
 20
486.7571012400003
 30
0.0
 40
13.716
  1
ＦＢ６×６０
 41
1.138888888888889
  7
ＭＳ ゴシック
100
AcDbText
  0
LINE
  5
411
330
1F
100
AcDbEntity
  8
A-5
  6
Continuous
 62
     7
370
     9
100
AcDbLine
 10
-115.6635597434815
 20
480.5599116549075
 30
0.0
 11
9.689632046565869
 21
480.5599116549075
 31
0.0
  0
TEXT
  5
412
330
1F
100
AcDbEntity
  8
A-5
  6
Continuous
 62
     7
370
     9
100
AcDbText
 10
-1067.863757775124
 20
-149.5727903557855
 30
0.0
 40
13.716
  1
脱着ピン φ１３
 41
1.144444444444444
  7
ＭＳ ゴシック
100
AcDbText
  0
TEXT
  5
413
330
1F
100
AcDbEntity
  8
F-5ﾚｲﾔ
  6
Continuous
 62
     3
370
     9
100
AcDbText
 10
467.837415559668
 20
-366.9943803229025
 30
0.0
 40
22.86
  1
※適用荷重：Ｔ－１４，Ｔ－６
 41
1.092857142857143
  7
ＭＳ ゴシック
100
AcDbText
  0
ENDSEC
  0
SECTION
  2
OBJECTS
  0
DICTIONARY
  5
C
330
0
100
AcDbDictionary
281
     1
  3
ACAD_DETAILVIEWSTYLE
350
459
  3
ACAD_GROUP
350
D
  3
ACAD_LAYOUT
350
1A
  3
ACAD_MATERIAL
350
43
  3
ACAD_MLEADERSTYLE
350
6B
  3
ACAD_MLINESTYLE
350
17
  3
ACAD_PLOTSETTINGS
350
19
  3
ACAD_PLOTSTYLENAME
350
E
  3
ACAD_SCALELIST
350
47
  3
ACAD_SECTIONVIEWSTYLE
350
45A
  3
ACAD_TABLESTYLE
350
69
  3
ACAD_VISUALSTYLE
350
2A
  3
ACDB_RECOMPOSE_DATA
350
456
  3
AcDbVariableDictionary
350
416
  0
DICTIONARY
  5
414
330
8
100
AcDbDictionary
280
     1
281
     1
  3
ACAD_XREC_ROUNDTRIP
360
415
  0
DICTIONARY
  5
459
102
{ACAD_REACTORS
330
C
102
}
330
C
100
AcDbDictionary
281
     1
  0
DICTIONARY
  5
D
102
{ACAD_REACTORS
330
C
102
}
330
C
100
AcDbDictionary
281
     1
  0
DICTIONARY
  5
1A
102
{ACAD_REACTORS
330
C
102
}
330
C
100
AcDbDictionary
281
     1
  3
Layout1
350
1E
  3
Layout2
350
26
  3
Model
350
22
  0
DICTIONARY
  5
43
102
{ACAD_REACTORS
330
C
102
}
330
C
100
AcDbDictionary
281
     1
  3
ByBlock
350
45
  3
ByLayer
350
44
  3
Global
350
46
  0
DICTIONARY
  5
6B
102
{ACAD_REACTORS
330
C
102
}
330
C
100
AcDbDictionary
281
     1
  3
Standard
350
6C
  0
DICTIONARY
  5
17
102
{ACAD_REACTORS
330
C
102
}
330
C
100
AcDbDictionary
281
     1
  3
Standard
350
18
  0
DICTIONARY
  5
19
102
{ACAD_REACTORS
330
C
102
}
330
C
100
AcDbDictionary
281
     1
  0
ACDBDICTIONARYWDFLT
  5
E
102
{ACAD_REACTORS
330
C
102
}
330
C
100
AcDbDictionary
281
     1
  3
Normal
350
F
100
AcDbDictionaryWithDefault
340
F
  0
DICTIONARY
  5
47
102
{ACAD_REACTORS
330
C
102
}
330
C
100
AcDbDictionary
281
     1
  3
A0
350
48
  3
A1
350
49
  3
A2
350
4A
  3
A3
350
4B
  3
A4
350
4C
  3
A5
350
4D
  3
A6
350
4E
  3
A7
350
4F
  3
A8
350
50
  3
A9
350
51
  3
B0
350
52
  3
B1
350
53
  3
B2
350
54
  3
B3
350
55
  3
B4
350
56
  3
B5
350
57
  3
B6
350
58
  3
B7
350
59
  3
B8
350
5A
  3
B9
350
5B
  3
C0
350
5C
  3
C1
350
5D
  3
C2
350
5E
  3
C3
350
5F
  3
C4
350
60
  3
C5
350
61
  3
C6
350
62
  3
C7
350
63
  3
C8
350
64
  3
C9
350
65
  3
D0
350
66
  3
D1
350
67
  3
D2
350
68
  0
DICTIONARY
  5
45A
102
{ACAD_REACTORS
330
C
102
}
330
C
100
AcDbDictionary
281
     1
  0
DICTIONARY
  5
69
102
{ACAD_REACTORS
330
C
102
}
330
C
100
AcDbDictionary
281
     1
  3
Standard
350
6A
  0
DICTIONARY
  5
2A
102
{ACAD_REACTORS
330
C
102
}
330
C
100
AcDbDictionary
281
     1
  3
2dWireframe
350
2F
  3
Basic
350
32
  3
Brighten
350
36
  3
ColorChange
350
3A
  3
Conceptual
350
34
  3
Dim
350
35
  3
EdgeColorOff
350
3D
  3
Facepattern
350
39
  3
Flat
350
2B
  3
FlatWithEdges
350
2C
  3
Gouraud
350
2D
  3
GouraudWithEdges
350
2E
  3
Hidden
350
31
  3
JitterOff
350
3B
  3
Linepattern
350
38
  3
OverhangOff
350
3C
  3
Realistic
350
33
  3
Shaded
350
42
  3
Shaded with edges
350
41
  3
Shades of Gray
350
3E
  3
Sketchy
350
3F
  3
Thicken
350
37
  3
Wireframe
350
30
  3
X-Ray
350
40
  0
XRECORD
  5
456
102
{ACAD_REACTORS
330
C
102
}
330
C
100
AcDbXrecord
280
     1
 90
        1
330
6A
  0
DICTIONARY
  5
416
102
{ACAD_REACTORS
330
C
102
}
330
C
100
AcDbDictionary
281
     1
  3
CANNOSCALE
350
417
  3
CENTEREXE
350
45B
  3
CENTERLTYPEFILE
350
45C
  3
CMLEADERSTYLE
350
458
  3
CTABLESTYLE
350
457
  3
MSLTSCALE
350
418
  3
XCLIPFRAME
350
419
  0
XRECORD
  5
415
102
{ACAD_REACTORS
330
414
102
}
330
414
100
AcDbXrecord
280
     1
102
VTR_0.000_0.000_1.000_1.000_VISUALSTYLE
340
2F
102
VTR_0.000_0.000_1.000_1.000_GRIDDISPLAY
 70
     3
102
VTR_0.000_0.000_1.000_1.000_GRIDMAJOR
 70
     5
102
VTR_0.000_0.000_1.000_1.000_DEFAULTLIGHTING
280
     1
102
VTR_0.000_0.000_1.000_1.000_DEFAULTLIGHTINGTYPE
 70
     1
102
VTR_0.000_0.000_1.000_1.000_BRIGHTNESS
141
0.0
102
VTR_0.000_0.000_1.000_1.000_CONTRAST
142
0.0
  0
LAYOUT
  5
1E
102
{ACAD_REACTORS
330
1A
102
}
330
1A
100
AcDbPlotSettings
  1

  2
none_device
  4

  6

 40
0.0
 41
0.0
 42
0.0
 43
0.0
 44
0.0
 45
0.0
 46
0.0
 47
0.0
 48
0.0
 49
0.0
140
0.0
141
0.0
142
1.0
143
1.0
 70
   688
 72
     1
 73
     0
 74
     5
  7

 75
    16
 76
     0
 77
     5
 78
   300
147
1.0
148
0.0
149
0.0
100
AcDbLayout
  1
Layout1
 70
     1
 71
     1
 10
0.0
 20
0.0
 11
420.0
 21
297.0
 12
0.0
 22
0.0
 32
0.0
 14
1.000000000000000E+20
 24
1.000000000000000E+20
 34
1.000000000000000E+20
 15
-1.000000000000000E+20
 25
-1.000000000000000E+20
 35
-1.000000000000000E+20
146
0.0
 13
0.0
 23
0.0
 33
0.0
 16
1.0
 26
0.0
 36
0.0
 17
0.0
 27
1.0
 37
0.0
 76
     0
330
1B
  0
LAYOUT
  5
26
102
{ACAD_REACTORS
330
1A
102
}
330
1A
100
AcDbPlotSettings
  1

  2
none_device
  4

  6

 40
0.0
 41
0.0
 42
0.0
 43
0.0
 44
0.0
 45
0.0
 46
0.0
 47
0.0
 48
0.0
 49
0.0
140
0.0
141
0.0
142
1.0
143
1.0
 70
   688
 72
     1
 73
     0
 74
     5
  7

 75
    16
 76
     0
 77
     5
 78
   300
147
1.0
148
0.0
149
0.0
100
AcDbLayout
  1
Layout2
 70
     1
 71
     2
 10
0.0
 20
0.0
 11
0.0
 21
0.0
 12
0.0
 22
0.0
 32
0.0
 14
0.0
 24
0.0
 34
0.0
 15
0.0
 25
0.0
 35
0.0
146
0.0
 13
0.0
 23
0.0
 33
0.0
 16
1.0
 26
0.0
 36
0.0
 17
0.0
 27
1.0
 37
0.0
 76
     0
330
23
  0
LAYOUT
  5
22
102
{ACAD_REACTORS
330
1A
102
}
330
1A
100
AcDbPlotSettings
  1

  2
none_device
  4
Letter_(8.50_x_11.00_Inches)
  6

 40
6.35
 41
6.35
 42
6.35000508
 43
6.35000508
 44
215.9
 45
279.4
 46
0.0
 47
0.0
 48
0.0
 49
0.0
140
0.0
141
0.0
142
1.0
143
1.0
 70
  1712
 72
     1
 73
     0
 74
     0
  7

 75
     0
 76
     0
 77
     5
 78
   300
147
1.0
148
0.0
149
0.0
100
AcDbLayout
  1
Model
 70
     1
 71
     0
 10
-1260.0
 20
-891.0
 11
1260.0
 21
891.0
 12
0.0
 22
0.0
 32
0.0
 14
-1260.0
 24
-891.0
 34
0.0
 15
1260.0
 25
891.0
 35
0.0
146
0.0
 13
0.0
 23
0.0
 33
0.0
 16
1.0
 26
0.0
 36
0.0
 17
0.0
 27
1.0
 37
0.0
 76
     0
330
1F
331
29
  0
MATERIAL
  5
45
102
{ACAD_REACTORS
330
43
102
}
102
{ACAD_XDICTIONARY
360
44C
102
}
330
43
100
AcDbMaterial
  1
ByBlock
  0
MATERIAL
  5
44
102
{ACAD_REACTORS
330
43
102
}
102
{ACAD_XDICTIONARY
360
44A
102
}
330
43
100
AcDbMaterial
  1
ByLayer
  0
MATERIAL
  5
46
102
{ACAD_REACTORS
330
43
102
}
102
{ACAD_XDICTIONARY
360
44E
102
}
330
43
100
AcDbMaterial
  1
Global
  0
MLEADERSTYLE
  5
6C
102
{ACAD_REACTORS
330
6B
102
}
102
{ACAD_XDICTIONARY
360
454
102
}
330
6B
100
AcDbMLeaderStyle
170
     2
171
     1
172
     0
 90
        2
 40
0.0
 41
0.0
173
     1
 91
-1056964608
340
14
 92
       -2
290
     1
 42
2.0
291
     1
 43
8.0
  3
Standard
341
0
 44
4.0
300

342
11
174
     1
178
     6
175
     1
176
     0
 93
-1056964608
 45
4.0
292
     0
297
     0
 46
4.0
343
0
 94
-1056964608
 47
1.0
 49
1.0
140
1.0
293
     1
141
0.0
294
     1
177
     0
142
1.0
295
     0
296
     0
143
3.75
1001
ACAD_MLEADERVER
1070
     2
  0
MLINESTYLE
  5
18
102
{ACAD_REACTORS
330
17
102
}
330
17
100
AcDbMlineStyle
  2
Standard
 70
     0
  3

 62
   256
 51
90.0
 52
90.0
 71
     2
 49
0.5
 62
   256
  6
BYLAYER
 49
-0.5
 62
   256
  6
BYLAYER
  0
ACDBPLACEHOLDER
  5
F
102
{ACAD_REACTORS
330
E
102
}
330
E
  0
SCALE
  5
48
102
{ACAD_REACTORS
330
47
102
}
330
47
100
AcDbScale
 70
     0
300
1:1
140
1.0
141
1.0
290
     1
  0
SCALE
  5
49
102
{ACAD_REACTORS
330
47
102
}
330
47
100
AcDbScale
 70
     0
300
1:2
140
1.0
141
2.0
290
     0
  0
SCALE
  5
4A
102
{ACAD_REACTORS
330
47
102
}
330
47
100
AcDbScale
 70
     0
300
1:4
140
1.0
141
4.0
290
     0
  0
SCALE
  5
4B
102
{ACAD_REACTORS
330
47
102
}
330
47
100
AcDbScale
 70
     0
300
1:5
140
1.0
141
5.0
290
     0
  0
SCALE
  5
4C
102
{ACAD_REACTORS
330
47
102
}
330
47
100
AcDbScale
 70
     0
300
1:8
140
1.0
141
8.0
290
     0
  0
SCALE
  5
4D
102
{ACAD_REACTORS
330
47
102
}
330
47
100
AcDbScale
 70
     0
300
1:10
140
1.0
141
10.0
290
     0
  0
SCALE
  5
4E
102
{ACAD_REACTORS
330
47
102
}
330
47
100
AcDbScale
 70
     0
300
1:16
140
1.0
141
16.0
290
     0
  0
SCALE
  5
4F
102
{ACAD_REACTORS
330
47
102
}
330
47
100
AcDbScale
 70
     0
300
1:20
140
1.0
141
20.0
290
     0
  0
SCALE
  5
50
102
{ACAD_REACTORS
330
47
102
}
330
47
100
AcDbScale
 70
     0
300
1:30
140
1.0
141
30.0
290
     0
  0
SCALE
  5
51
102
{ACAD_REACTORS
330
47
102
}
330
47
100
AcDbScale
 70
     0
300
1:40
140
1.0
141
40.0
290
     0
  0
SCALE
  5
52
102
{ACAD_REACTORS
330
47
102
}
330
47
100
AcDbScale
 70
     0
300
1:50
140
1.0
141
50.0
290
     0
  0
SCALE
  5
53
102
{ACAD_REACTORS
330
47
102
}
330
47
100
AcDbScale
 70
     0
300
1:100
140
1.0
141
100.0
290
     0
  0
SCALE
  5
54
102
{ACAD_REACTORS
330
47
102
}
330
47
100
AcDbScale
 70
     0
300
2:1
140
2.0
141
1.0
290
     0
  0
SCALE
  5
55
102
{ACAD_REACTORS
330
47
102
}
330
47
100
AcDbScale
 70
     0
300
4:1
140
4.0
141
1.0
290
     0
  0
SCALE
  5
56
102
{ACAD_REACTORS
330
47
102
}
330
47
100
AcDbScale
 70
     0
300
8:1
140
8.0
141
1.0
290
     0
  0
SCALE
  5
57
102
{ACAD_REACTORS
330
47
102
}
330
47
100
AcDbScale
 70
     0
300
10:1
140
10.0
141
1.0
290
     0
  0
SCALE
  5
58
102
{ACAD_REACTORS
330
47
102
}
330
47
100
AcDbScale
 70
     0
300
100:1
140
100.0
141
1.0
290
     0
  0
SCALE
  5
59
102
{ACAD_REACTORS
330
47
102
}
330
47
100
AcDbScale
 70
     0
300
1/128" = 1'-0"
140
0.0078125
141
12.0
290
     0
  0
SCALE
  5
5A
102
{ACAD_REACTORS
330
47
102
}
330
47
100
AcDbScale
 70
     0
300
1/64" = 1'-0"
140
0.015625
141
12.0
290
     0
  0
SCALE
  5
5B
102
{ACAD_REACTORS
330
47
102
}
330
47
100
AcDbScale
 70
     0
300
1/32" = 1'-0"
140
0.03125
141
12.0
290
     0
  0
SCALE
  5
5C
102
{ACAD_REACTORS
330
47
102
}
330
47
100
AcDbScale
 70
     0
300
1/16" = 1'-0"
140
0.0625
141
12.0
290
     0
  0
SCALE
  5
5D
102
{ACAD_REACTORS
330
47
102
}
330
47
100
AcDbScale
 70
     0
300
3/32" = 1'-0"
140
0.09375
141
12.0
290
     0
  0
SCALE
  5
5E
102
{ACAD_REACTORS
330
47
102
}
330
47
100
AcDbScale
 70
     0
300
1/8" = 1'-0"
140
0.125
141
12.0
290
     0
  0
SCALE
  5
5F
102
{ACAD_REACTORS
330
47
102
}
330
47
100
AcDbScale
 70
     0
300
3/16" = 1'-0"
140
0.1875
141
12.0
290
     0
  0
SCALE
  5
60
102
{ACAD_REACTORS
330
47
102
}
330
47
100
AcDbScale
 70
     0
300
1/4" = 1'-0"
140
0.25
141
12.0
290
     0
  0
SCALE
  5
61
102
{ACAD_REACTORS
330
47
102
}
330
47
100
AcDbScale
 70
     0
300
3/8" = 1'-0"
140
0.375
141
12.0
290
     0
  0
SCALE
  5
62
102
{ACAD_REACTORS
330
47
102
}
330
47
100
AcDbScale
 70
     0
300
1/2" = 1'-0"
140
0.5
141
12.0
290
     0
  0
SCALE
  5
63
102
{ACAD_REACTORS
330
47
102
}
330
47
100
AcDbScale
 70
     0
300
3/4" = 1'-0"
140
0.75
141
12.0
290
     0
  0
SCALE
  5
64
102
{ACAD_REACTORS
330
47
102
}
330
47
100
AcDbScale
 70
     0
300
1" = 1'-0"
140
1.0
141
12.0
290
     0
  0
SCALE
  5
65
102
{ACAD_REACTORS
330
47
102
}
330
47
100
AcDbScale
 70
     0
300
1-1/2" = 1'-0"
140
1.5
141
12.0
290
     0
  0
SCALE
  5
66
102
{ACAD_REACTORS
330
47
102
}
330
47
100
AcDbScale
 70
     0
300
3" = 1'-0"
140
3.0
141
12.0
290
     0
  0
SCALE
  5
67
102
{ACAD_REACTORS
330
47
102
}
330
47
100
AcDbScale
 70
     0
300
6" = 1'-0"
140
6.0
141
12.0
290
     0
  0
SCALE
  5
68
102
{ACAD_REACTORS
330
47
102
}
330
47
100
AcDbScale
 70
     0
300
1'-0" = 1'-0"
140
12.0
141
12.0
290
     0
  0
TABLESTYLE
  5
6A
102
{ACAD_REACTORS
330
69
102
}
102
{ACAD_XDICTIONARY
360
450
102
}
330
69
100
AcDbTableStyle
  3
Standard
 70
     0
 71
     0
 40
0.06
 41
0.06
280
     0
281
     0
  7
Standard
140
4.5
170
     2
 62
     0
 63
   257
283
     0
274
    -2
284
     1
 64
     0
275
    -2
285
     1
 65
     0
276
    -2
286
     1
 66
     0
277
    -2
287
     1
 67
     0
278
    -2
288
     1
 68
     0
279
    -2
289
     1
 69
     0
  7
Standard
140
6.0
170
     5
 62
     0
 63
   257
283
     0
274
    -2
284
     1
 64
     0
275
    -2
285
     1
 65
     0
276
    -2
286
     1
 66
     0
277
    -2
287
     1
 67
     0
278
    -2
288
     1
 68
     0
279
    -2
289
     1
 69
     0
  7
Standard
140
4.5
170
     5
 62
     0
 63
   257
283
     0
274
    -2
284
     1
 64
     0
275
    -2
285
     1
 65
     0
276
    -2
286
     1
 66
     0
277
    -2
287
     1
 67
     0
278
    -2
288
     1
 68
     0
279
    -2
289
     1
 69
     0
  0
VISUALSTYLE
  5
2F
102
{ACAD_REACTORS
330
2A
102
}
102
{ACAD_XDICTIONARY
360
422
102
}
330
2A
100
AcDbVisualStyle
  2
2dWireframe
 70
     4
 71
     0
 72
     2
 73
     0
 90
        0
 40
0.6
 41
30.0
 62
     5
 63
     7
421
 16777215
 74
     1
 91
        4
 64
     7
 65
   257
 75
     1
175
     1
 42
1.0
 92
        0
 66
   257
 43
1.0
 76
     1
 77
     6
 78
     2
 67
     7
 79
     5
170
     0
171
     0
290
     0
174
     0
 93
        1
 44
0.0
173
     0
291
     0
 45
0.0
1001
ACAD
1000
AcDbSavedByObjectVersion
1070
     0
  0
VISUALSTYLE
  5
32
102
{ACAD_REACTORS
330
2A
102
}
102
{ACAD_XDICTIONARY
360
428
102
}
330
2A
100
AcDbVisualStyle
  2
Basic
 70
     7
 71
     1
 72
     0
 73
     1
 90
        0
 40
0.6
 41
30.0
 62
     5
 63
     7
421
 16777215
 74
     0
 91
        4
 64
     7
 65
   257
 75
     1
175
     1
 42
1.0
 92
        8
 66
     7
 43
1.0
 76
     1
 77
     6
 78
     2
 67
     7
 79
     5
170
     0
171
     0
290
     0
174
     0
 93
        1
 44
0.0
173
     0
291
     1
 45
0.0
1001
ACAD
1000
AcDbSavedByObjectVersion
1070
     0
  0
VISUALSTYLE
  5
36
102
{ACAD_REACTORS
330
2A
102
}
102
{ACAD_XDICTIONARY
360
430
102
}
330
2A
100
AcDbVisualStyle
  2
Brighten
 70
    12
 71
     2
 72
     2
 73
     0
 90
        0
 40
0.6
 41
30.0
 62
     5
 63
     7
421
 16777215
 74
     1
 91
        4
 64
     7
 65
   257
 75
     1
175
     1
 42
1.0
 92
        8
 66
     7
 43
1.0
 76
     1
 77
     6
 78
     2
 67
     7
 79
     5
170
     0
171
     0
290
     0
174
     0
 93
        1
 44
50.0
173
     0
291
     1
 45
0.0
1001
ACAD
1000
AcDbSavedByObjectVersion
1070
     0
  0
VISUALSTYLE
  5
3A
102
{ACAD_REACTORS
330
2A
102
}
102
{ACAD_XDICTIONARY
360
438
102
}
330
2A
100
AcDbVisualStyle
  2
ColorChange
 70
    16
 71
     2
 72
     2
 73
     3
 90
        0
 40
0.6
 41
30.0
 62
     5
 63
     8
421
  8421504
 74
     1
 91
        4
 64
     7
 65
   257
 75
     1
175
     1
 42
1.0
 92
        8
 66
     8
424
  8421504
 43
1.0
 76
     1
 77
     6
 78
     2
 67
     7
 79
     5
170
     0
171
     0
290
     0
174
     0
 93
        1
 44
0.0
173
     0
291
     1
 45
0.0
1001
ACAD
1000
AcDbSavedByObjectVersion
1070
     0
  0
VISUALSTYLE
  5
34
102
{ACAD_REACTORS
330
2A
102
}
102
{ACAD_XDICTIONARY
360
42C
102
}
330
2A
100
AcDbVisualStyle
  2
Conceptual
 70
     9
 71
     3
 72
     2
 73
     0
 90
        0
 40
0.6
 41
30.0
 62
     5
 63
     7
421
 16777215
 74
     2
 91
        2
 64
     7
 65
   257
 75
     1
175
     1
 42
179.0
 92
        8
 66
     7
 43
1.0
 76
     1
 77
     6
 78
     2
 67
     7
 79
     3
170
     0
171
     0
290
     0
174
     0
 93
        1
 44
0.0
173
     0
291
     0
 45
0.0
1001
ACAD
1000
AcDbSavedByObjectVersion
1070
     0
  0
VISUALSTYLE
  5
35
102
{ACAD_REACTORS
330
2A
102
}
102
{ACAD_XDICTIONARY
360
42E
102
}
330
2A
100
AcDbVisualStyle
  2
Dim
 70
    11
 71
     2
 72
     2
 73
     0
 90
        0
 40
0.6
 41
30.0
 62
     5
 63
     7
421
 16777215
 74
     1
 91
        4
 64
     7
 65
   257
 75
     1
175
     1
 42
1.0
 92
        8
 66
     7
 43
1.0
 76
     1
 77
     6
 78
     2
 67
     7
 79
     5
170
     0
171
     0
290
     0
174
     0
 93
        1
 44
-50.0
173
     0
291
     1
 45
0.0
1001
ACAD
1000
AcDbSavedByObjectVersion
1070
     0
  0
VISUALSTYLE
  5
3D
102
{ACAD_REACTORS
330
2A
102
}
102
{ACAD_XDICTIONARY
360
43E
102
}
330
2A
100
AcDbVisualStyle
  2
EdgeColorOff
 70
    22
 71
     2
 72
     2
 73
     0
 90
        0
 40
0.6
 41
30.0
 62
     5
 63
     7
421
 16777215
 74
     1
 91
        4
 64
     7
 65
   257
 75
     1
175
     1
 42
1.0
 92
        8
 66
     7
 43
1.0
 76
     1
 77
     6
 78
     2
 67
     7
 79
     5
170
     0
171
     0
290
     0
174
     0
 93
        1
 44
0.0
173
     0
291
     1
 45
0.0
1001
ACAD
1000
AcDbSavedByObjectVersion
1070
     0
  0
VISUALSTYLE
  5
39
102
{ACAD_REACTORS
330
2A
102
}
102
{ACAD_XDICTIONARY
360
436
102
}
330
2A
100
AcDbVisualStyle
  2
Facepattern
 70
    15
 71
     2
 72
     2
 73
     0
 90
        0
 40
0.6
 41
30.0
 62
     5
 63
     7
421
 16777215
 74
     1
 91
        4
 64
     7
 65
   257
 75
     1
175
     1
 42
1.0
 92
        8
 66
     7
 43
1.0
 76
     1
 77
     6
 78
     2
 67
     7
 79
     5
170
     0
171
     0
290
     0
174
     0
 93
        1
 44
0.0
173
     0
291
     1
 45
0.0
1001
ACAD
1000
AcDbSavedByObjectVersion
1070
     0
  0
VISUALSTYLE
  5
2B
102
{ACAD_REACTORS
330
2A
102
}
102
{ACAD_XDICTIONARY
360
41A
102
}
330
2A
100
AcDbVisualStyle
  2
Flat
 70
     0
 71
     2
 72
     1
 73
     1
 90
        2
 40
0.6
 41
30.0
 62
     5
 63
     7
421
 16777215
 74
     0
 91
        0
 64
     7
 65
   257
 75
     1
175
     1
 42
1.0
 92
        8
 66
     7
 43
1.0
 76
     1
 77
     6
 78
     2
 67
     7
 79
     5
170
     0
171
     0
290
     0
174
     0
 93
       13
 44
0.0
173
     0
291
     1
 45
0.0
1001
ACAD
1000
AcDbSavedByObjectVersion
1070
     0
  0
VISUALSTYLE
  5
2C
102
{ACAD_REACTORS
330
2A
102
}
102
{ACAD_XDICTIONARY
360
41C
102
}
330
2A
100
AcDbVisualStyle
  2
FlatWithEdges
 70
     1
 71
     2
 72
     1
 73
     1
 90
        2
 40
0.6
 41
30.0
 62
     5
 63
     7
421
 16777215
 74
     1
 91
        0
 64
     7
 65
   257
 75
     1
175
     1
 42
1.0
 92
        0
 66
   257
 43
1.0
 76
     1
 77
     6
 78
     2
 67
     7
 79
     5
170
     0
171
     0
290
     0
174
     0
 93
       13
 44
0.0
173
     0
291
     1
 45
0.0
1001
ACAD
1000
AcDbSavedByObjectVersion
1070
     0
  0
VISUALSTYLE
  5
2D
102
{ACAD_REACTORS
330
2A
102
}
102
{ACAD_XDICTIONARY
360
41E
102
}
330
2A
100
AcDbVisualStyle
  2
Gouraud
 70
     2
 71
     2
 72
     2
 73
     1
 90
        2
 40
0.6
 41
30.0
 62
     5
 63
     7
421
 16777215
 74
     0
 91
        0
 64
     7
 65
   257
 75
     1
175
     1
 42
1.0
 92
        0
 66
     7
 43
1.0
 76
     1
 77
     6
 78
     2
 67
     7
 79
     5
170
     0
171
     0
290
     0
174
     0
 93
       13
 44
0.0
173
     0
291
     1
 45
0.0
1001
ACAD
1000
AcDbSavedByObjectVersion
1070
     0
  0
VISUALSTYLE
  5
2E
102
{ACAD_REACTORS
330
2A
102
}
102
{ACAD_XDICTIONARY
360
420
102
}
330
2A
100
AcDbVisualStyle
  2
GouraudWithEdges
 70
     3
 71
     2
 72
     2
 73
     1
 90
        2
 40
0.6
 41
30.0
 62
     5
 63
     7
421
 16777215
 74
     1
 91
        0
 64
     7
 65
   257
 75
     1
175
     1
 42
1.0
 92
        0
 66
   257
 43
1.0
 76
     1
 77
     6
 78
     2
 67
     7
 79
     5
170
     0
171
     0
290
     0
174
     0
 93
       13
 44
0.0
173
     0
291
     1
 45
0.0
1001
ACAD
1000
AcDbSavedByObjectVersion
1070
     0
  0
VISUALSTYLE
  5
31
102
{ACAD_REACTORS
330
2A
102
}
102
{ACAD_XDICTIONARY
360
426
102
}
330
2A
100
AcDbVisualStyle
  2
Hidden
 70
     6
 71
     1
 72
     2
 73
     2
 90
        0
 40
0.6
 41
30.0
 62
     5
 63
     7
421
 16777215
 74
     2
 91
        2
 64
     7
 65
   257
 75
     2
175
     1
 42
40.0
 92
        0
 66
   257
 43
1.0
 76
     1
 77
     6
 78
     2
 67
     7
 79
     3
170
     0
171
     0
290
     0
174
     0
 93
        1
 44
0.0
173
     0
291
     0
 45
0.0
1001
ACAD
1000
AcDbSavedByObjectVersion
1070
     0
  0
VISUALSTYLE
  5
3B
102
{ACAD_REACTORS
330
2A
102
}
102
{ACAD_XDICTIONARY
360
43A
102
}
330
2A
100
AcDbVisualStyle
  2
JitterOff
 70
    20
 71
     2
 72
     2
 73
     0
 90
        0
 40
0.6
 41
30.0
 62
     5
 63
     7
421
 16777215
 74
     1
 91
        4
 64
     7
 65
   257
 75
     1
175
     1
 42
1.0
 92
       10
 66
     7
 43
1.0
 76
     1
 77
     6
 78
     2
 67
     7
 79
     5
170
     0
171
     0
290
     0
174
     0
 93
        1
 44
0.0
173
     0
291
     1
 45
0.0
1001
ACAD
1000
AcDbSavedByObjectVersion
1070
     0
  0
VISUALSTYLE
  5
38
102
{ACAD_REACTORS
330
2A
102
}
102
{ACAD_XDICTIONARY
360
434
102
}
330
2A
100
AcDbVisualStyle
  2
Linepattern
 70
    14
 71
     2
 72
     2
 73
     0
 90
        0
 40
0.6
 41
30.0
 62
     5
 63
     7
421
 16777215
 74
     1
 91
        4
 64
     7
 65
   257
 75
     7
175
     7
 42
1.0
 92
        8
 66
     7
 43
1.0
 76
     1
 77
     6
 78
     2
 67
     7
 79
     5
170
     0
171
     0
290
     0
174
     0
 93
        1
 44
0.0
173
     0
291
     1
 45
0.0
1001
ACAD
1000
AcDbSavedByObjectVersion
1070
     0
  0
VISUALSTYLE
  5
3C
102
{ACAD_REACTORS
330
2A
102
}
102
{ACAD_XDICTIONARY
360
43C
102
}
330
2A
100
AcDbVisualStyle
  2
OverhangOff
 70
    21
 71
     2
 72
     2
 73
     0
 90
        0
 40
0.6
 41
30.0
 62
     5
 63
     7
421
 16777215
 74
     1
 91
        4
 64
     7
 65
   257
 75
     1
175
     1
 42
1.0
 92
        9
 66
     7
 43
1.0
 76
     1
 77
     6
 78
     2
 67
     7
 79
     5
170
     0
171
     0
290
     0
174
     0
 93
        1
 44
0.0
173
     0
291
     1
 45
0.0
1001
ACAD
1000
AcDbSavedByObjectVersion
1070
     0
  0
VISUALSTYLE
  5
33
102
{ACAD_REACTORS
330
2A
102
}
102
{ACAD_XDICTIONARY
360
42A
102
}
330
2A
100
AcDbVisualStyle
  2
Realistic
 70
     8
 71
     2
 72
     3
 73
     0
 90
        2
 40
0.6
 41
30.0
 62
     5
 63
     7
421
 16777215
 74
     0
 91
        0
 64
     7
 65
   257
 75
     1
175
     1
 42
1.0
 92
        8
 66
   257
 43
1.0
 76
     1
 77
     6
 78
     2
 67
     7
 79
     3
170
     0
171
     0
290
     0
174
     0
 93
       13
 44
0.0
173
     0
291
     0
 45
0.0
1001
ACAD
1000
AcDbSavedByObjectVersion
1070
     0
  0
VISUALSTYLE
  5
42
102
{ACAD_REACTORS
330
2A
102
}
102
{ACAD_XDICTIONARY
360
448
102
}
330
2A
100
AcDbVisualStyle
  2
Shaded
 70
    27
 71
     2
 72
     2
 73
     1
 90
        2
 40
0.6
 41
30.0
 62
     5
 63
     7
421
 16777215
 74
     0
 91
        4
 64
     7
 65
   257
 75
     1
175
     1
 42
1.0
 92
        8
 66
   257
 43
1.0
 76
     1
 77
     6
 78
     2
 67
     8
425
  7895160
 79
     3
170
     0
171
     0
290
     0
174
     0
 93
        5
 44
0.0
173
     0
291
     0
 45
0.0
1001
ACAD
1000
AcDbSavedByObjectVersion
1070
     0
  0
VISUALSTYLE
  5
41
102
{ACAD_REACTORS
330
2A
102
}
102
{ACAD_XDICTIONARY
360
446
102
}
330
2A
100
AcDbVisualStyle
  2
Shaded with edges
 70
    26
 71
     2
 72
     2
 73
     1
 90
        2
 40
0.6
 41
30.0
 62
     5
 63
     7
421
 16777215
 74
     1
 91
       10
 64
     7
 65
   257
 75
     2
175
     1
 42
1.0
 92
        8
 66
   257
 43
1.0
 76
     1
 77
     6
 78
     2
 67
     7
 79
     3
170
     0
171
     0
290
     0
174
     0
 93
        5
 44
0.0
173
     0
291
     0
 45
0.0
1001
ACAD
1000
AcDbSavedByObjectVersion
1070
     0
  0
VISUALSTYLE
  5
3E
102
{ACAD_REACTORS
330
2A
102
}
102
{ACAD_XDICTIONARY
360
440
102
}
330
2A
100
AcDbVisualStyle
  2
Shades of Gray
 70
    23
 71
     2
 72
     2
 73
     3
 90
        0
 40
0.6
 41
30.0
 62
     5
 63
     7
421
 16777215
 74
     2
 91
        2
 64
     7
 65
     7
 75
     1
175
     1
 42
40.0
 92
        8
 66
     7
 43
1.0
 76
     1
 77
     6
 78
     2
 67
     7
 79
     3
170
     0
171
     0
290
     0
174
     0
 93
        1
 44
0.0
173
     0
291
     0
 45
0.0
1001
ACAD
1000
AcDbSavedByObjectVersion
1070
     0
  0
VISUALSTYLE
  5
3F
102
{ACAD_REACTORS
330
2A
102
}
102
{ACAD_XDICTIONARY
360
442
102
}
330
2A
100
AcDbVisualStyle
  2
Sketchy
 70
    24
 71
     1
 72
     2
 73
     2
 90
        0
 40
0.6
 41
30.0
 62
     5
 63
     7
421
 16777215
 74
     2
 91
        2
 64
     7
 65
     7
 75
     1
175
     1
 42
40.0
 92
       11
 66
     7
 43
1.0
 76
     1
 77
     6
 78
     2
 67
     7
 79
     6
170
     0
171
     0
290
     0
174
     0
 93
        1
 44
0.0
173
     0
291
     0
 45
0.0
1001
ACAD
1000
AcDbSavedByObjectVersion
1070
     0
  0
VISUALSTYLE
  5
37
102
{ACAD_REACTORS
330
2A
102
}
102
{ACAD_XDICTIONARY
360
432
102
}
330
2A
100
AcDbVisualStyle
  2
Thicken
 70
    13
 71
     2
 72
     2
 73
     0
 90
        0
 40
0.6
 41
30.0
 62
     5
 63
     7
421
 16777215
 74
     1
 91
        4
 64
     7
 65
   257
 75
     1
175
     1
 42
1.0
 92
       12
 66
     7
 43
1.0
 76
     1
 77
     6
 78
     2
 67
     7
 79
     5
170
     0
171
     0
290
     0
174
     0
 93
        1
 44
0.0
173
     0
291
     1
 45
0.0
1001
ACAD
1000
AcDbSavedByObjectVersion
1070
     0
  0
VISUALSTYLE
  5
30
102
{ACAD_REACTORS
330
2A
102
}
102
{ACAD_XDICTIONARY
360
424
102
}
330
2A
100
AcDbVisualStyle
  2
Wireframe
 70
     5
 71
     0
 72
     2
 73
     0
 90
        0
 40
0.6
 41
30.0
 62
     5
 63
     7
421
 16777215
 74
     1
 91
        4
 64
     7
 65
   257
 75
     1
175
     1
 42
1.0
 92
        0
 66
   257
 43
1.0
 76
     1
 77
     6
 78
     2
 67
     7
 79
     3
170
     0
171
     0
290
     0
174
     0
 93
        1
 44
0.0
173
     0
291
     0
 45
0.0
1001
ACAD
1000
AcDbSavedByObjectVersion
1070
     0
  0
VISUALSTYLE
  5
40
102
{ACAD_REACTORS
330
2A
102
}
102
{ACAD_XDICTIONARY
360
444
102
}
330
2A
100
AcDbVisualStyle
  2
X-Ray
 70
    25
 71
     2
 72
     2
 73
     1
 90
        1
 40
0.5
 41
30.0
 62
     5
 63
     7
421
 16777215
 74
     1
 91
        0
 64
     7
 65
   257
 75
     1
175
     1
 42
1.0
 92
        8
 66
     7
 43
1.0
 76
     1
 77
     6
 78
     2
 67
     7
 79
     3
170
     0
171
     0
290
     0
174
     0
 93
       13
 44
0.0
173
     0
291
     0
 45
0.0
1001
ACAD
1000
AcDbSavedByObjectVersion
1070
     0
  0
DICTIONARYVAR
  5
417
102
{ACAD_REACTORS
330
416
102
}
330
416
100
DictionaryVariables
280
     0
  1
1:1
  0
DICTIONARYVAR
  5
45B
102
{ACAD_REACTORS
330
416
102
}
330
416
100
DictionaryVariables
280
     0
  1
3.500000
  0
DICTIONARYVAR
  5
45C
102
{ACAD_REACTORS
330
416
102
}
330
416
100
DictionaryVariables
280
     0
  1
acadiso.lin
  0
DICTIONARYVAR
  5
458
102
{ACAD_REACTORS
330
416
102
}
330
416
100
DictionaryVariables
280
     0
  1
Standard
  0
DICTIONARYVAR
  5
457
102
{ACAD_REACTORS
330
416
102
}
330
416
100
DictionaryVariables
280
     0
  1
Standard
  0
DICTIONARYVAR
  5
418
102
{ACAD_REACTORS
330
416
102
}
330
416
100
DictionaryVariables
280
     0
  1
1
  0
DICTIONARYVAR
  5
419
102
{ACAD_REACTORS
330
416
102
}
330
416
100
DictionaryVariables
280
     0
  1
2
  0
DICTIONARY
  5
44C
330
45
100
AcDbDictionary
280
     1
281
     1
  3
ACAD_XREC_ROUNDTRIP
360
44D
  0
DICTIONARY
  5
44A
330
44
100
AcDbDictionary
280
     1
281
     1
  3
ACAD_XREC_ROUNDTRIP
360
44B
  0
DICTIONARY
  5
44E
330
46
100
AcDbDictionary
280
     1
281
     1
  3
ACAD_XREC_ROUNDTRIP
360
44F
  0
DICTIONARY
  5
454
330
6C
100
AcDbDictionary
280
     1
281
     1
  3
ACAD_XREC_ROUNDTRIP
360
455
  0
DICTIONARY
  5
450
330
6A
100
AcDbDictionary
280
     1
281
     1
  3
ACAD_ROUNDTRIP_2008_TABLESTYLE_CELLSTYLEMAP
360
452
  3
ACAD_XREC_ROUNDTRIP
360
451
  0
DICTIONARY
  5
422
330
2F
100
AcDbDictionary
280
     1
281
     1
  3
ACAD_XREC_ROUNDTRIP
360
423
  0
DICTIONARY
  5
428
330
32
100
AcDbDictionary
280
     1
281
     1
  3
ACAD_XREC_ROUNDTRIP
360
429
  0
DICTIONARY
  5
430
330
36
100
AcDbDictionary
280
     1
281
     1
  3
ACAD_XREC_ROUNDTRIP
360
431
  0
DICTIONARY
  5
438
330
3A
100
AcDbDictionary
280
     1
281
     1
  3
ACAD_XREC_ROUNDTRIP
360
439
  0
DICTIONARY
  5
42C
330
34
100
AcDbDictionary
280
     1
281
     1
  3
ACAD_XREC_ROUNDTRIP
360
42D
  0
DICTIONARY
  5
42E
330
35
100
AcDbDictionary
280
     1
281
     1
  3
ACAD_XREC_ROUNDTRIP
360
42F
  0
DICTIONARY
  5
43E
330
3D
100
AcDbDictionary
280
     1
281
     1
  3
ACAD_XREC_ROUNDTRIP
360
43F
  0
DICTIONARY
  5
436
330
39
100
AcDbDictionary
280
     1
281
     1
  3
ACAD_XREC_ROUNDTRIP
360
437
  0
DICTIONARY
  5
41A
330
2B
100
AcDbDictionary
280
     1
281
     1
  3
ACAD_XREC_ROUNDTRIP
360
41B
  0
DICTIONARY
  5
41C
330
2C
100
AcDbDictionary
280
     1
281
     1
  3
ACAD_XREC_ROUNDTRIP
360
41D
  0
DICTIONARY
  5
41E
330
2D
100
AcDbDictionary
280
     1
281
     1
  3
ACAD_XREC_ROUNDTRIP
360
41F
  0
DICTIONARY
  5
420
330
2E
100
AcDbDictionary
280
     1
281
     1
  3
ACAD_XREC_ROUNDTRIP
360
421
  0
DICTIONARY
  5
426
330
31
100
AcDbDictionary
280
     1
281
     1
  3
ACAD_XREC_ROUNDTRIP
360
427
  0
DICTIONARY
  5
43A
330
3B
100
AcDbDictionary
280
     1
281
     1
  3
ACAD_XREC_ROUNDTRIP
360
43B
  0
DICTIONARY
  5
434
330
38
100
AcDbDictionary
280
     1
281
     1
  3
ACAD_XREC_ROUNDTRIP
360
435
  0
DICTIONARY
  5
43C
330
3C
100
AcDbDictionary
280
     1
281
     1
  3
ACAD_XREC_ROUNDTRIP
360
43D
  0
DICTIONARY
  5
42A
330
33
100
AcDbDictionary
280
     1
281
     1
  3
ACAD_XREC_ROUNDTRIP
360
42B
  0
DICTIONARY
  5
448
330
42
100
AcDbDictionary
280
     1
281
     1
  3
ACAD_XREC_ROUNDTRIP
360
449
  0
DICTIONARY
  5
446
330
41
100
AcDbDictionary
280
     1
281
     1
  3
ACAD_XREC_ROUNDTRIP
360
447
  0
DICTIONARY
  5
440
330
3E
100
AcDbDictionary
280
     1
281
     1
  3
ACAD_XREC_ROUNDTRIP
360
441
  0
DICTIONARY
  5
442
330
3F
100
AcDbDictionary
280
     1
281
     1
  3
ACAD_XREC_ROUNDTRIP
360
443
  0
DICTIONARY
  5
432
330
37
100
AcDbDictionary
280
     1
281
     1
  3
ACAD_XREC_ROUNDTRIP
360
433
  0
DICTIONARY
  5
424
330
30
100
AcDbDictionary
280
     1
281
     1
  3
ACAD_XREC_ROUNDTRIP
360
425
  0
DICTIONARY
  5
444
330
40
100
AcDbDictionary
280
     1
281
     1
  3
ACAD_XREC_ROUNDTRIP
360
445
  0
XRECORD
  5
44D
102
{ACAD_REACTORS
330
44C
102
}
330
44C
100
AcDbXrecord
280
     1
102
MATERIAL
148
0.0
149
0.0
149
0.0
 93
        0
 94
      127
282
     0
 72
     1
 77
     1
171
     1
175
     1
179
     1
273
     0
  0
XRECORD
  5
44B
102
{ACAD_REACTORS
330
44A
102
}
330
44A
100
AcDbXrecord
280
     1
102
MATERIAL
148
0.0
149
0.0
149
0.0
 93
        0
 94
      127
282
     0
 72
     1
 77
     1
171
     1
175
     1
179
     1
273
     0
  0
XRECORD
  5
44F
102
{ACAD_REACTORS
330
44E
102
}
330
44E
100
AcDbXrecord
280
     1
102
MATERIAL
148
0.0
149
0.0
149
0.0
 93
        0
 94
      127
282
     0
 72
     1
 77
     1
171
     1
175
     1
179
     1
273
     0
  0
XRECORD
  5
455
102
{ACAD_REACTORS
330
454
102
}
330
454
100
AcDbXrecord
280
     1
102
ACAD_ROUNDTRIP_2010_MLEADER_STYLE
  0
CELLSTYLEMAP
  5
452
102
{ACAD_REACTORS
330
450
102
}
330
450
100
AcDbCellStyleMap
 90
        3
300
CELLSTYLE
  1
TABLEFORMAT_BEGIN
 90
        5
170
     1
 91
        0
 92
    32768
 62
   257
 93
        1
300
CONTENTFORMAT
  1
CONTENTFORMAT_BEGIN
 90
        0
 91
        0
 92
        4
 93
        0
300

 40
0.0
140
1.0
 94
        5
 62
     0
340
11
144
6.0
309
CONTENTFORMAT_END
171
     1
301
MARGIN
  1
CELLMARGIN_BEGIN
 40
1.5
 40
1.5
 40
1.5
 40
1.5
 40
1.5
 40
1.5
309
CELLMARGIN_END
 94
        6
 95
        1
302
GRIDFORMAT
  1
GRIDFORMAT_BEGIN
 90
        0
 91
        1
 62
     0
 92
       -2
340
14
 93
        0
 40
0.045
309
GRIDFORMAT_END
 95
        2
302
GRIDFORMAT
  1
GRIDFORMAT_BEGIN
 90
        0
 91
        1
 62
     0
 92
       -2
340
14
 93
        0
 40
0.045
309
GRIDFORMAT_END
 95
        4
302
GRIDFORMAT
  1
GRIDFORMAT_BEGIN
 90
        0
 91
        1
 62
     0
 92
       -2
340
14
 93
        0
 40
0.045
309
GRIDFORMAT_END
 95
        8
302
GRIDFORMAT
  1
GRIDFORMAT_BEGIN
 90
        0
 91
        1
 62
     0
 92
       -2
340
14
 93
        0
 40
0.045
309
GRIDFORMAT_END
 95
       16
302
GRIDFORMAT
  1
GRIDFORMAT_BEGIN
 90
        0
 91
        1
 62
     0
 92
       -2
340
14
 93
        0
 40
0.045
309
GRIDFORMAT_END
 95
       32
302
GRIDFORMAT
  1
GRIDFORMAT_BEGIN
 90
        0
 91
        1
 62
     0
 92
       -2
340
14
 93
        0
 40
0.045
309
GRIDFORMAT_END
309
TABLEFORMAT_END
  1
CELLSTYLE_BEGIN
 90
        1
 91
        1
300
_TITLE
309
CELLSTYLE_END
300
CELLSTYLE
  1
TABLEFORMAT_BEGIN
 90
        5
170
     1
 91
        0
 92
        0
 62
   257
 93
        1
300
CONTENTFORMAT
  1
CONTENTFORMAT_BEGIN
 90
        0
 91
        0
 92
        4
 93
        0
300

 40
0.0
140
1.0
 94
        5
 62
     0
340
11
144
4.5
309
CONTENTFORMAT_END
171
     1
301
MARGIN
  1
CELLMARGIN_BEGIN
 40
1.5
 40
1.5
 40
1.5
 40
1.5
 40
1.5
 40
1.5
309
CELLMARGIN_END
 94
        6
 95
        1
302
GRIDFORMAT
  1
GRIDFORMAT_BEGIN
 90
        0
 91
        1
 62
     0
 92
       -2
340
14
 93
        0
 40
0.045
309
GRIDFORMAT_END
 95
        2
302
GRIDFORMAT
  1
GRIDFORMAT_BEGIN
 90
        0
 91
        1
 62
     0
 92
       -2
340
14
 93
        0
 40
0.045
309
GRIDFORMAT_END
 95
        4
302
GRIDFORMAT
  1
GRIDFORMAT_BEGIN
 90
        0
 91
        1
 62
     0
 92
       -2
340
14
 93
        0
 40
0.045
309
GRIDFORMAT_END
 95
        8
302
GRIDFORMAT
  1
GRIDFORMAT_BEGIN
 90
        0
 91
        1
 62
     0
 92
       -2
340
14
 93
        0
 40
0.045
309
GRIDFORMAT_END
 95
       16
302
GRIDFORMAT
  1
GRIDFORMAT_BEGIN
 90
        0
 91
        1
 62
     0
 92
       -2
340
14
 93
        0
 40
0.045
309
GRIDFORMAT_END
 95
       32
302
GRIDFORMAT
  1
GRIDFORMAT_BEGIN
 90
        0
 91
        1
 62
     0
 92
       -2
340
14
 93
        0
 40
0.045
309
GRIDFORMAT_END
309
TABLEFORMAT_END
  1
CELLSTYLE_BEGIN
 90
        2
 91
        1
300
_HEADER
309
CELLSTYLE_END
300
CELLSTYLE
  1
TABLEFORMAT_BEGIN
 90
        5
170
     1
 91
        0
 92
        0
 62
   257
 93
        1
300
CONTENTFORMAT
  1
CONTENTFORMAT_BEGIN
 90
        0
 91
        0
 92
        4
 93
        0
300

 40
0.0
140
1.0
 94
        2
 62
     0
340
11
144
4.5
309
CONTENTFORMAT_END
171
     1
301
MARGIN
  1
CELLMARGIN_BEGIN
 40
1.5
 40
1.5
 40
1.5
 40
1.5
 40
1.5
 40
1.5
309
CELLMARGIN_END
 94
        6
 95
        1
302
GRIDFORMAT
  1
GRIDFORMAT_BEGIN
 90
        0
 91
        1
 62
     0
 92
       -2
340
14
 93
        0
 40
0.045
309
GRIDFORMAT_END
 95
        2
302
GRIDFORMAT
  1
GRIDFORMAT_BEGIN
 90
        0
 91
        1
 62
     0
 92
       -2
340
14
 93
        0
 40
0.045
309
GRIDFORMAT_END
 95
        4
302
GRIDFORMAT
  1
GRIDFORMAT_BEGIN
 90
        0
 91
        1
 62
     0
 92
       -2
340
14
 93
        0
 40
0.045
309
GRIDFORMAT_END
 95
        8
302
GRIDFORMAT
  1
GRIDFORMAT_BEGIN
 90
        0
 91
        1
 62
     0
 92
       -2
340
14
 93
        0
 40
0.045
309
GRIDFORMAT_END
 95
       16
302
GRIDFORMAT
  1
GRIDFORMAT_BEGIN
 90
        0
 91
        1
 62
     0
 92
       -2
340
14
 93
        0
 40
0.045
309
GRIDFORMAT_END
 95
       32
302
GRIDFORMAT
  1
GRIDFORMAT_BEGIN
 90
        0
 91
        1
 62
     0
 92
       -2
340
14
 93
        0
 40
0.045
309
GRIDFORMAT_END
309
TABLEFORMAT_END
  1
CELLSTYLE_BEGIN
 90
        3
 91
        2
300
_DATA
309
CELLSTYLE_END
  0
XRECORD
  5
451
102
{ACAD_REACTORS
330
450
102
}
330
450
100
AcDbXrecord
280
     1
102
ACAD_ROUNDTRIP_PRE2007_TABLESTYLE
 90
        4
 91
        0
  1

 92
        4
 93
        0
  2

 94
        4
 95
        0
  3

  0
XRECORD
  5
423
102
{ACAD_REACTORS
330
422
102
}
330
422
100
AcDbXrecord
280
     1
102
RTVSPropertyOp0
 70
     1
102
RTVSPropertyOp1
 70
     1
102
RTVSPropertyOp2
 70
     1
102
RTVSPropertyOp3
 70
     1
102
RTVSPropertyOp4
 70
     1
102
RTVSPropertyOp5
 70
     1
102
RTVSPropertyOp6
 70
     1
102
RTVSPropertyOp7
 70
     1
102
RTVSPropertyOp8
 70
     1
102
RTVSPropertyOp9
 70
     1
102
RTVSPropertyOp10
 70
     1
102
RTVSPropertyOp11
 70
     1
102
RTVSPropertyOp12
 70
     1
102
RTVSPropertyOp13
 70
     1
102
RTVSPropertyOp14
 70
     1
102
RTVSPropertyOp15
 70
     1
102
RTVSPropertyOp16
 70
     1
102
RTVSPropertyOp17
 70
     1
102
RTVSPropertyOp18
 70
     1
102
RTVSPropertyOp19
 70
     1
102
RTVSPropertyOp20
 70
     1
102
RTVSPropertyOp21
 70
     1
102
RTVSPropertyOp22
 70
     1
102
RTVSPropertyOp23
 70
     1
102
RTVSPropertyOp24
 70
     1
102
RTVSPropertyOp25
 70
     1
102
RTVSPropertyOp26
 70
     1
102
RTVSPropertyOp27
 70
     1
102
RTVSPropertyOp28
 70
     1
102
RTVSPropertyOp29
 70
     1
102
RTVSPropertyOp30
 70
     1
102
RTVSPropertyOp31
 70
     1
102
RTVSPropertyOp32
 70
     1
102
RTVSPropertyOp33
 70
     1
102
RTVSPropertyOp34
 70
     1
102
RTVSPropertyOp35
 70
     1
102
RTVSPropertyOp36
 70
     1
102
RTVSPropertyOp37
 70
     1
102
RTVSPropertyOp38
 70
     1
102
RTVSPropertyOp39
 70
     1
102
RTVSPropertyOp40
 70
     1
102
RTVSPropertyOp41
 70
     1
102
RTVSPropertyOp42
 70
     1
102
RTVSPropertyOp43
 70
     1
102
RTVSPropertyOp44
 70
     1
102
RTVSPropertyOp45
 70
     1
102
RTVSPropertyOp46
 70
     1
102
RTVSPropertyOp47
 70
     1
102
RTVSPropertyOp48
 70
     1
102
RTVSPropertyOp49
 70
     1
102
RTVSPropertyOp50
 70
     1
102
RTVSPropertyOp51
 70
     0
102
RTVSPropertyOp52
 70
     0
102
RTVSPropertyOp53
 70
     1
102
RTVSPropertyOp54
 70
     1
102
RTVSPropertyOp55
 70
     1
102
RTVSPropertyOp56
 70
     1
102
RTVSPropertyOp57
 70
     1
102
RTVSPost2010Prop28
280
     1
102
RTVSPost2010PropOp28
 70
     1
102
RTVSPost2010Prop29
280
     1
102
RTVSPost2010PropOp29
 70
     1
102
RTVSPost2010Prop30
280
     0
102
RTVSPost2010PropOp30
 70
     1
102
RTVSPost2010Prop31
280
     0
102
RTVSPost2010PropOp31
 70
     1
102
RTVSPost2010Prop32
280
     0
102
RTVSPost2010PropOp32
 70
     1
102
RTVSPost2010Prop33
280
     0
102
RTVSPost2010PropOp33
 70
     1
102
RTVSPost2010Prop34
280
     0
102
RTVSPost2010PropOp34
 70
     1
102
RTVSPost2010Prop35
280
     0
102
RTVSPost2010PropOp35
 70
     1
102
RTVSPost2010Prop36
280
     0
102
RTVSPost2010PropOp36
 70
     1
102
RTVSPost2010Prop37
 90
       50
102
RTVSPost2010PropOp37
 70
     1
102
RTVSPost2010Prop38
140
0.0
102
RTVSPost2010PropOp38
 70
     1
102
RTVSPost2010Prop39
140
1.0
102
RTVSPost2010PropOp39
 70
     1
102
RTVSPost2010Prop40
 90
        0
102
RTVSPost2010PropOp40
 70
     1
102
RTVSPost2010Prop41ColorIndex
 90
       18
102
RTVSPost2010Prop41ColorRGB
 90
        0
102
RTVSPost2010PropOp41
 70
     1
102
RTVSPost2010Prop42
 90
       50
102
RTVSPost2010PropOp42
 70
     1
102
RTVSPost2010Prop43
 90
        3
102
RTVSPost2010PropOp43
 70
     1
102
RTVSPost2010Prop44ColorIndex
 90
        5
102
RTVSPost2010Prop44ColorRGB
 90
      255
102
RTVSPost2010PropOp44
 70
     1
102
RTVSPost2010Prop45
280
     0
102
RTVSPost2010PropOp45
 70
     1
102
RTVSPost2010Prop46
 90
       50
102
RTVSPost2010PropOp46
 70
     1
102
RTVSPost2010Prop47
 90
       50
102
RTVSPost2010PropOp47
 70
     1
102
RTVSPost2010Prop48
 90
       50
102
RTVSPost2010PropOp48
 70
     1
102
RTVSPost2010Prop49
280
     0
102
RTVSPost2010PropOp49
 70
     1
102
RTVSPost2010Prop50
 90
       50
102
RTVSPost2010PropOp50
 70
     1
102
RTVSPost2010Prop51ColorIndex
 90
      256
102
RTVSPost2010Prop51ColorRGB
 90
-16777216
102
RTVSPost2010PropOp51
 70
     0
102
RTVSPost2010Prop52
140
1.0
102
RTVSPost2010PropOp52
 70
     0
102
RTVSPost2010Prop53
 90
        2
102
RTVSPost2010PropOp53
 70
     1
102
RTVSPost2010Prop54
  1
strokes_ogs.tif
102
RTVSPost2010PropOp54
 70
     1
102
RTVSPost2010Prop55
280
     0
102
RTVSPost2010PropOp55
 70
     1
102
RTVSPost2010Prop56
140
1.0
102
RTVSPost2010PropOp56
 70
     1
102
RTVSPost2010Prop57
140
1.0
102
RTVSPost2010PropOp57
 70
     1
  0
XRECORD
  5
429
102
{ACAD_REACTORS
330
428
102
}
330
428
100
AcDbXrecord
280
     1
102
RTVSPropertyOp0
 70
     1
102
RTVSPropertyOp1
 70
     1
102
RTVSPropertyOp2
 70
     1
102
RTVSPropertyOp3
 70
     1
102
RTVSPropertyOp4
 70
     1
102
RTVSPropertyOp5
 70
     1
102
RTVSPropertyOp6
 70
     1
102
RTVSPropertyOp7
 70
     1
102
RTVSPropertyOp8
 70
     1
102
RTVSPropertyOp9
 70
     1
102
RTVSPropertyOp10
 70
     1
102
RTVSPropertyOp11
 70
     1
102
RTVSPropertyOp12
 70
     1
102
RTVSPropertyOp13
 70
     1
102
RTVSPropertyOp14
 70
     1
102
RTVSPropertyOp15
 70
     1
102
RTVSPropertyOp16
 70
     1
102
RTVSPropertyOp17
 70
     1
102
RTVSPropertyOp18
 70
     1
102
RTVSPropertyOp19
 70
     1
102
RTVSPropertyOp20
 70
     1
102
RTVSPropertyOp21
 70
     1
102
RTVSPropertyOp22
 70
     1
102
RTVSPropertyOp23
 70
     1
102
RTVSPropertyOp24
 70
     1
102
RTVSPropertyOp25
 70
     1
102
RTVSPropertyOp26
 70
     1
102
RTVSPropertyOp27
 70
     1
102
RTVSPropertyOp28
 70
     1
102
RTVSPropertyOp29
 70
     1
102
RTVSPropertyOp30
 70
     1
102
RTVSPropertyOp31
 70
     1
102
RTVSPropertyOp32
 70
     1
102
RTVSPropertyOp33
 70
     1
102
RTVSPropertyOp34
 70
     1
102
RTVSPropertyOp35
 70
     1
102
RTVSPropertyOp36
 70
     1
102
RTVSPropertyOp37
 70
     1
102
RTVSPropertyOp38
 70
     1
102
RTVSPropertyOp39
 70
     1
102
RTVSPropertyOp40
 70
     1
102
RTVSPropertyOp41
 70
     1
102
RTVSPropertyOp42
 70
     1
102
RTVSPropertyOp43
 70
     1
102
RTVSPropertyOp44
 70
     1
102
RTVSPropertyOp45
 70
     1
102
RTVSPropertyOp46
 70
     1
102
RTVSPropertyOp47
 70
     1
102
RTVSPropertyOp48
 70
     1
102
RTVSPropertyOp49
 70
     1
102
RTVSPropertyOp50
 70
     1
102
RTVSPropertyOp51
 70
     0
102
RTVSPropertyOp52
 70
     0
102
RTVSPropertyOp53
 70
     1
102
RTVSPropertyOp54
 70
     1
102
RTVSPropertyOp55
 70
     1
102
RTVSPropertyOp56
 70
     1
102
RTVSPropertyOp57
 70
     1
102
RTVSPost2010Prop28
280
     0
102
RTVSPost2010PropOp28
 70
     1
102
RTVSPost2010Prop29
280
     1
102
RTVSPost2010PropOp29
 70
     1
102
RTVSPost2010Prop30
280
     1
102
RTVSPost2010PropOp30
 70
     1
102
RTVSPost2010Prop31
280
     0
102
RTVSPost2010PropOp31
 70
     1
102
RTVSPost2010Prop32
280
     0
102
RTVSPost2010PropOp32
 70
     1
102
RTVSPost2010Prop33
280
     0
102
RTVSPost2010PropOp33
 70
     1
102
RTVSPost2010Prop34
280
     0
102
RTVSPost2010PropOp34
 70
     1
102
RTVSPost2010Prop35
280
     0
102
RTVSPost2010PropOp35
 70
     1
102
RTVSPost2010Prop36
280
     0
102
RTVSPost2010PropOp36
 70
     1
102
RTVSPost2010Prop37
 90
       50
102
RTVSPost2010PropOp37
 70
     1
102
RTVSPost2010Prop38
140
0.0
102
RTVSPost2010PropOp38
 70
     1
102
RTVSPost2010Prop39
140
1.0
102
RTVSPost2010PropOp39
 70
     1
102
RTVSPost2010Prop40
 90
        0
102
RTVSPost2010PropOp40
 70
     1
102
RTVSPost2010Prop41ColorIndex
 90
       18
102
RTVSPost2010Prop41ColorRGB
 90
        0
102
RTVSPost2010PropOp41
 70
     1
102
RTVSPost2010Prop42
 90
       50
102
RTVSPost2010PropOp42
 70
     1
102
RTVSPost2010Prop43
 90
        3
102
RTVSPost2010PropOp43
 70
     1
102
RTVSPost2010Prop44ColorIndex
 90
        5
102
RTVSPost2010Prop44ColorRGB
 90
      255
102
RTVSPost2010PropOp44
 70
     1
102
RTVSPost2010Prop45
280
     0
102
RTVSPost2010PropOp45
 70
     1
102
RTVSPost2010Prop46
 90
       50
102
RTVSPost2010PropOp46
 70
     1
102
RTVSPost2010Prop47
 90
       50
102
RTVSPost2010PropOp47
 70
     1
102
RTVSPost2010Prop48
 90
       50
102
RTVSPost2010PropOp48
 70
     1
102
RTVSPost2010Prop49
280
     0
102
RTVSPost2010PropOp49
 70
     1
102
RTVSPost2010Prop50
 90
       50
102
RTVSPost2010PropOp50
 70
     1
102
RTVSPost2010Prop51ColorIndex
 90
      256
102
RTVSPost2010Prop51ColorRGB
 90
-16777216
102
RTVSPost2010PropOp51
 70
     0
102
RTVSPost2010Prop52
140
1.0
102
RTVSPost2010PropOp52
 70
     0
102
RTVSPost2010Prop53
 90
        2
102
RTVSPost2010PropOp53
 70
     1
102
RTVSPost2010Prop54
  1
strokes_ogs.tif
102
RTVSPost2010PropOp54
 70
     1
102
RTVSPost2010Prop55
280
     0
102
RTVSPost2010PropOp55
 70
     1
102
RTVSPost2010Prop56
140
1.0
102
RTVSPost2010PropOp56
 70
     1
102
RTVSPost2010Prop57
140
1.0
102
RTVSPost2010PropOp57
 70
     1
  0
XRECORD
  5
431
102
{ACAD_REACTORS
330
430
102
}
330
430
100
AcDbXrecord
280
     1
102
RTVSPropertyOp0
 70
     1
102
RTVSPropertyOp1
 70
     1
102
RTVSPropertyOp2
 70
     1
102
RTVSPropertyOp3
 70
     1
102
RTVSPropertyOp4
 70
     1
102
RTVSPropertyOp5
 70
     1
102
RTVSPropertyOp6
 70
     1
102
RTVSPropertyOp7
 70
     1
102
RTVSPropertyOp8
 70
     1
102
RTVSPropertyOp9
 70
     1
102
RTVSPropertyOp10
 70
     1
102
RTVSPropertyOp11
 70
     1
102
RTVSPropertyOp12
 70
     1
102
RTVSPropertyOp13
 70
     1
102
RTVSPropertyOp14
 70
     1
102
RTVSPropertyOp15
 70
     1
102
RTVSPropertyOp16
 70
     1
102
RTVSPropertyOp17
 70
     1
102
RTVSPropertyOp18
 70
     1
102
RTVSPropertyOp19
 70
     1
102
RTVSPropertyOp20
 70
     1
102
RTVSPropertyOp21
 70
     1
102
RTVSPropertyOp22
 70
     1
102
RTVSPropertyOp23
 70
     1
102
RTVSPropertyOp24
 70
     1
102
RTVSPropertyOp25
 70
     1
102
RTVSPropertyOp26
 70
     1
102
RTVSPropertyOp27
 70
     1
102
RTVSPropertyOp28
 70
     1
102
RTVSPropertyOp29
 70
     1
102
RTVSPropertyOp30
 70
     1
102
RTVSPropertyOp31
 70
     1
102
RTVSPropertyOp32
 70
     1
102
RTVSPropertyOp33
 70
     1
102
RTVSPropertyOp34
 70
     1
102
RTVSPropertyOp35
 70
     1
102
RTVSPropertyOp36
 70
     1
102
RTVSPropertyOp37
 70
     1
102
RTVSPropertyOp38
 70
     1
102
RTVSPropertyOp39
 70
     1
102
RTVSPropertyOp40
 70
     1
102
RTVSPropertyOp41
 70
     1
102
RTVSPropertyOp42
 70
     1
102
RTVSPropertyOp43
 70
     1
102
RTVSPropertyOp44
 70
     1
102
RTVSPropertyOp45
 70
     1
102
RTVSPropertyOp46
 70
     1
102
RTVSPropertyOp47
 70
     1
102
RTVSPropertyOp48
 70
     1
102
RTVSPropertyOp49
 70
     1
102
RTVSPropertyOp50
 70
     1
102
RTVSPropertyOp51
 70
     0
102
RTVSPropertyOp52
 70
     0
102
RTVSPropertyOp53
 70
     1
102
RTVSPropertyOp54
 70
     1
102
RTVSPropertyOp55
 70
     1
102
RTVSPropertyOp56
 70
     1
102
RTVSPropertyOp57
 70
     1
102
RTVSPost2010Prop28
280
     0
102
RTVSPost2010PropOp28
 70
     1
102
RTVSPost2010Prop29
280
     1
102
RTVSPost2010PropOp29
 70
     1
102
RTVSPost2010Prop30
280
     1
102
RTVSPost2010PropOp30
 70
     1
102
RTVSPost2010Prop31
280
     0
102
RTVSPost2010PropOp31
 70
     1
102
RTVSPost2010Prop32
280
     0
102
RTVSPost2010PropOp32
 70
     1
102
RTVSPost2010Prop33
280
     0
102
RTVSPost2010PropOp33
 70
     1
102
RTVSPost2010Prop34
280
     0
102
RTVSPost2010PropOp34
 70
     1
102
RTVSPost2010Prop35
280
     0
102
RTVSPost2010PropOp35
 70
     1
102
RTVSPost2010Prop36
280
     0
102
RTVSPost2010PropOp36
 70
     1
102
RTVSPost2010Prop37
 90
       50
102
RTVSPost2010PropOp37
 70
     1
102
RTVSPost2010Prop38
140
0.0
102
RTVSPost2010PropOp38
 70
     1
102
RTVSPost2010Prop39
140
1.0
102
RTVSPost2010PropOp39
 70
     1
102
RTVSPost2010Prop40
 90
        0
102
RTVSPost2010PropOp40
 70
     1
102
RTVSPost2010Prop41ColorIndex
 90
       18
102
RTVSPost2010Prop41ColorRGB
 90
        0
102
RTVSPost2010PropOp41
 70
     1
102
RTVSPost2010Prop42
 90
       50
102
RTVSPost2010PropOp42
 70
     1
102
RTVSPost2010Prop43
 90
        3
102
RTVSPost2010PropOp43
 70
     1
102
RTVSPost2010Prop44ColorIndex
 90
        5
102
RTVSPost2010Prop44ColorRGB
 90
      255
102
RTVSPost2010PropOp44
 70
     1
102
RTVSPost2010Prop45
280
     0
102
RTVSPost2010PropOp45
 70
     1
102
RTVSPost2010Prop46
 90
       50
102
RTVSPost2010PropOp46
 70
     1
102
RTVSPost2010Prop47
 90
       50
102
RTVSPost2010PropOp47
 70
     1
102
RTVSPost2010Prop48
 90
       50
102
RTVSPost2010PropOp48
 70
     1
102
RTVSPost2010Prop49
280
     0
102
RTVSPost2010PropOp49
 70
     1
102
RTVSPost2010Prop50
 90
       50
102
RTVSPost2010PropOp50
 70
     1
102
RTVSPost2010Prop51ColorIndex
 90
      256
102
RTVSPost2010Prop51ColorRGB
 90
-16777216
102
RTVSPost2010PropOp51
 70
     0
102
RTVSPost2010Prop52
140
1.0
102
RTVSPost2010PropOp52
 70
     0
102
RTVSPost2010Prop53
 90
        2
102
RTVSPost2010PropOp53
 70
     1
102
RTVSPost2010Prop54
  1
strokes_ogs.tif
102
RTVSPost2010PropOp54
 70
     1
102
RTVSPost2010Prop55
280
     0
102
RTVSPost2010PropOp55
 70
     1
102
RTVSPost2010Prop56
140
1.0
102
RTVSPost2010PropOp56
 70
     1
102
RTVSPost2010Prop57
140
1.0
102
RTVSPost2010PropOp57
 70
     1
  0
XRECORD
  5
439
102
{ACAD_REACTORS
330
438
102
}
330
438
100
AcDbXrecord
280
     1
102
RTVSPropertyOp0
 70
     1
102
RTVSPropertyOp1
 70
     1
102
RTVSPropertyOp2
 70
     1
102
RTVSPropertyOp3
 70
     1
102
RTVSPropertyOp4
 70
     1
102
RTVSPropertyOp5
 70
     1
102
RTVSPropertyOp6
 70
     1
102
RTVSPropertyOp7
 70
     1
102
RTVSPropertyOp8
 70
     1
102
RTVSPropertyOp9
 70
     1
102
RTVSPropertyOp10
 70
     1
102
RTVSPropertyOp11
 70
     1
102
RTVSPropertyOp12
 70
     1
102
RTVSPropertyOp13
 70
     1
102
RTVSPropertyOp14
 70
     1
102
RTVSPropertyOp15
 70
     1
102
RTVSPropertyOp16
 70
     1
102
RTVSPropertyOp17
 70
     1
102
RTVSPropertyOp18
 70
     1
102
RTVSPropertyOp19
 70
     1
102
RTVSPropertyOp20
 70
     1
102
RTVSPropertyOp21
 70
     1
102
RTVSPropertyOp22
 70
     1
102
RTVSPropertyOp23
 70
     1
102
RTVSPropertyOp24
 70
     1
102
RTVSPropertyOp25
 70
     1
102
RTVSPropertyOp26
 70
     1
102
RTVSPropertyOp27
 70
     1
102
RTVSPropertyOp28
 70
     1
102
RTVSPropertyOp29
 70
     1
102
RTVSPropertyOp30
 70
     1
102
RTVSPropertyOp31
 70
     1
102
RTVSPropertyOp32
 70
     1
102
RTVSPropertyOp33
 70
     1
102
RTVSPropertyOp34
 70
     1
102
RTVSPropertyOp35
 70
     1
102
RTVSPropertyOp36
 70
     1
102
RTVSPropertyOp37
 70
     1
102
RTVSPropertyOp38
 70
     1
102
RTVSPropertyOp39
 70
     1
102
RTVSPropertyOp40
 70
     1
102
RTVSPropertyOp41
 70
     1
102
RTVSPropertyOp42
 70
     1
102
RTVSPropertyOp43
 70
     1
102
RTVSPropertyOp44
 70
     1
102
RTVSPropertyOp45
 70
     1
102
RTVSPropertyOp46
 70
     1
102
RTVSPropertyOp47
 70
     1
102
RTVSPropertyOp48
 70
     1
102
RTVSPropertyOp49
 70
     1
102
RTVSPropertyOp50
 70
     1
102
RTVSPropertyOp51
 70
     0
102
RTVSPropertyOp52
 70
     0
102
RTVSPropertyOp53
 70
     1
102
RTVSPropertyOp54
 70
     1
102
RTVSPropertyOp55
 70
     1
102
RTVSPropertyOp56
 70
     1
102
RTVSPropertyOp57
 70
     1
102
RTVSPost2010Prop28
280
     0
102
RTVSPost2010PropOp28
 70
     1
102
RTVSPost2010Prop29
280
     1
102
RTVSPost2010PropOp29
 70
     1
102
RTVSPost2010Prop30
280
     1
102
RTVSPost2010PropOp30
 70
     1
102
RTVSPost2010Prop31
280
     0
102
RTVSPost2010PropOp31
 70
     1
102
RTVSPost2010Prop32
280
     0
102
RTVSPost2010PropOp32
 70
     1
102
RTVSPost2010Prop33
280
     0
102
RTVSPost2010PropOp33
 70
     1
102
RTVSPost2010Prop34
280
     0
102
RTVSPost2010PropOp34
 70
     1
102
RTVSPost2010Prop35
280
     0
102
RTVSPost2010PropOp35
 70
     1
102
RTVSPost2010Prop36
280
     0
102
RTVSPost2010PropOp36
 70
     1
102
RTVSPost2010Prop37
 90
       50
102
RTVSPost2010PropOp37
 70
     1
102
RTVSPost2010Prop38
140
0.0
102
RTVSPost2010PropOp38
 70
     1
102
RTVSPost2010Prop39
140
1.0
102
RTVSPost2010PropOp39
 70
     1
102
RTVSPost2010Prop40
 90
        0
102
RTVSPost2010PropOp40
 70
     1
102
RTVSPost2010Prop41ColorIndex
 90
       18
102
RTVSPost2010Prop41ColorRGB
 90
        0
102
RTVSPost2010PropOp41
 70
     1
102
RTVSPost2010Prop42
 90
       50
102
RTVSPost2010PropOp42
 70
     1
102
RTVSPost2010Prop43
 90
        3
102
RTVSPost2010PropOp43
 70
     1
102
RTVSPost2010Prop44ColorIndex
 90
        5
102
RTVSPost2010Prop44ColorRGB
 90
      255
102
RTVSPost2010PropOp44
 70
     1
102
RTVSPost2010Prop45
280
     0
102
RTVSPost2010PropOp45
 70
     1
102
RTVSPost2010Prop46
 90
       50
102
RTVSPost2010PropOp46
 70
     1
102
RTVSPost2010Prop47
 90
       50
102
RTVSPost2010PropOp47
 70
     1
102
RTVSPost2010Prop48
 90
       50
102
RTVSPost2010PropOp48
 70
     1
102
RTVSPost2010Prop49
280
     0
102
RTVSPost2010PropOp49
 70
     1
102
RTVSPost2010Prop50
 90
       50
102
RTVSPost2010PropOp50
 70
     1
102
RTVSPost2010Prop51ColorIndex
 90
      256
102
RTVSPost2010Prop51ColorRGB
 90
-16777216
102
RTVSPost2010PropOp51
 70
     0
102
RTVSPost2010Prop52
140
1.0
102
RTVSPost2010PropOp52
 70
     0
102
RTVSPost2010Prop53
 90
        2
102
RTVSPost2010PropOp53
 70
     1
102
RTVSPost2010Prop54
  1
strokes_ogs.tif
102
RTVSPost2010PropOp54
 70
     1
102
RTVSPost2010Prop55
280
     0
102
RTVSPost2010PropOp55
 70
     1
102
RTVSPost2010Prop56
140
1.0
102
RTVSPost2010PropOp56
 70
     1
102
RTVSPost2010Prop57
140
1.0
102
RTVSPost2010PropOp57
 70
     1
  0
XRECORD
  5
42D
102
{ACAD_REACTORS
330
42C
102
}
330
42C
100
AcDbXrecord
280
     1
102
RTVSPropertyOp0
 70
     1
102
RTVSPropertyOp1
 70
     1
102
RTVSPropertyOp2
 70
     1
102
RTVSPropertyOp3
 70
     1
102
RTVSPropertyOp4
 70
     1
102
RTVSPropertyOp5
 70
     1
102
RTVSPropertyOp6
 70
     1
102
RTVSPropertyOp7
 70
     1
102
RTVSPropertyOp8
 70
     1
102
RTVSPropertyOp9
 70
     1
102
RTVSPropertyOp10
 70
     1
102
RTVSPropertyOp11
 70
     1
102
RTVSPropertyOp12
 70
     1
102
RTVSPropertyOp13
 70
     1
102
RTVSPropertyOp14
 70
     1
102
RTVSPropertyOp15
 70
     1
102
RTVSPropertyOp16
 70
     1
102
RTVSPropertyOp17
 70
     1
102
RTVSPropertyOp18
 70
     1
102
RTVSPropertyOp19
 70
     1
102
RTVSPropertyOp20
 70
     1
102
RTVSPropertyOp21
 70
     1
102
RTVSPropertyOp22
 70
     1
102
RTVSPropertyOp23
 70
     1
102
RTVSPropertyOp24
 70
     1
102
RTVSPropertyOp25
 70
     1
102
RTVSPropertyOp26
 70
     1
102
RTVSPropertyOp27
 70
     1
102
RTVSPropertyOp28
 70
     1
102
RTVSPropertyOp29
 70
     1
102
RTVSPropertyOp30
 70
     1
102
RTVSPropertyOp31
 70
     1
102
RTVSPropertyOp32
 70
     1
102
RTVSPropertyOp33
 70
     1
102
RTVSPropertyOp34
 70
     1
102
RTVSPropertyOp35
 70
     1
102
RTVSPropertyOp36
 70
     1
102
RTVSPropertyOp37
 70
     1
102
RTVSPropertyOp38
 70
     1
102
RTVSPropertyOp39
 70
     1
102
RTVSPropertyOp40
 70
     1
102
RTVSPropertyOp41
 70
     1
102
RTVSPropertyOp42
 70
     1
102
RTVSPropertyOp43
 70
     1
102
RTVSPropertyOp44
 70
     1
102
RTVSPropertyOp45
 70
     1
102
RTVSPropertyOp46
 70
     1
102
RTVSPropertyOp47
 70
     1
102
RTVSPropertyOp48
 70
     1
102
RTVSPropertyOp49
 70
     1
102
RTVSPropertyOp50
 70
     1
102
RTVSPropertyOp51
 70
     0
102
RTVSPropertyOp52
 70
     0
102
RTVSPropertyOp53
 70
     1
102
RTVSPropertyOp54
 70
     1
102
RTVSPropertyOp55
 70
     1
102
RTVSPropertyOp56
 70
     1
102
RTVSPropertyOp57
 70
     1
102
RTVSPost2010Prop28
280
     0
102
RTVSPost2010PropOp28
 70
     1
102
RTVSPost2010Prop29
280
     1
102
RTVSPost2010PropOp29
 70
     1
102
RTVSPost2010Prop30
280
     1
102
RTVSPost2010PropOp30
 70
     1
102
RTVSPost2010Prop31
280
     0
102
RTVSPost2010PropOp31
 70
     1
102
RTVSPost2010Prop32
280
     0
102
RTVSPost2010PropOp32
 70
     1
102
RTVSPost2010Prop33
280
     0
102
RTVSPost2010PropOp33
 70
     1
102
RTVSPost2010Prop34
280
     0
102
RTVSPost2010PropOp34
 70
     1
102
RTVSPost2010Prop35
280
     0
102
RTVSPost2010PropOp35
 70
     1
102
RTVSPost2010Prop36
280
     0
102
RTVSPost2010PropOp36
 70
     1
102
RTVSPost2010Prop37
 90
       50
102
RTVSPost2010PropOp37
 70
     1
102
RTVSPost2010Prop38
140
0.0
102
RTVSPost2010PropOp38
 70
     1
102
RTVSPost2010Prop39
140
1.0
102
RTVSPost2010PropOp39
 70
     1
102
RTVSPost2010Prop40
 90
        0
102
RTVSPost2010PropOp40
 70
     1
102
RTVSPost2010Prop41ColorIndex
 90
       18
102
RTVSPost2010Prop41ColorRGB
 90
        0
102
RTVSPost2010PropOp41
 70
     1
102
RTVSPost2010Prop42
 90
       50
102
RTVSPost2010PropOp42
 70
     1
102
RTVSPost2010Prop43
 90
        3
102
RTVSPost2010PropOp43
 70
     1
102
RTVSPost2010Prop44ColorIndex
 90
        5
102
RTVSPost2010Prop44ColorRGB
 90
      255
102
RTVSPost2010PropOp44
 70
     1
102
RTVSPost2010Prop45
280
     0
102
RTVSPost2010PropOp45
 70
     1
102
RTVSPost2010Prop46
 90
       50
102
RTVSPost2010PropOp46
 70
     1
102
RTVSPost2010Prop47
 90
       50
102
RTVSPost2010PropOp47
 70
     1
102
RTVSPost2010Prop48
 90
       50
102
RTVSPost2010PropOp48
 70
     1
102
RTVSPost2010Prop49
280
     0
102
RTVSPost2010PropOp49
 70
     1
102
RTVSPost2010Prop50
 90
       50
102
RTVSPost2010PropOp50
 70
     1
102
RTVSPost2010Prop51ColorIndex
 90
      256
102
RTVSPost2010Prop51ColorRGB
 90
-16777216
102
RTVSPost2010PropOp51
 70
     0
102
RTVSPost2010Prop52
140
1.0
102
RTVSPost2010PropOp52
 70
     0
102
RTVSPost2010Prop53
 90
        2
102
RTVSPost2010PropOp53
 70
     1
102
RTVSPost2010Prop54
  1
strokes_ogs.tif
102
RTVSPost2010PropOp54
 70
     1
102
RTVSPost2010Prop55
280
     0
102
RTVSPost2010PropOp55
 70
     1
102
RTVSPost2010Prop56
140
1.0
102
RTVSPost2010PropOp56
 70
     1
102
RTVSPost2010Prop57
140
1.0
102
RTVSPost2010PropOp57
 70
     1
  0
XRECORD
  5
42F
102
{ACAD_REACTORS
330
42E
102
}
330
42E
100
AcDbXrecord
280
     1
102
RTVSPropertyOp0
 70
     1
102
RTVSPropertyOp1
 70
     1
102
RTVSPropertyOp2
 70
     1
102
RTVSPropertyOp3
 70
     1
102
RTVSPropertyOp4
 70
     1
102
RTVSPropertyOp5
 70
     1
102
RTVSPropertyOp6
 70
     1
102
RTVSPropertyOp7
 70
     1
102
RTVSPropertyOp8
 70
     1
102
RTVSPropertyOp9
 70
     1
102
RTVSPropertyOp10
 70
     1
102
RTVSPropertyOp11
 70
     1
102
RTVSPropertyOp12
 70
     1
102
RTVSPropertyOp13
 70
     1
102
RTVSPropertyOp14
 70
     1
102
RTVSPropertyOp15
 70
     1
102
RTVSPropertyOp16
 70
     1
102
RTVSPropertyOp17
 70
     1
102
RTVSPropertyOp18
 70
     1
102
RTVSPropertyOp19
 70
     1
102
RTVSPropertyOp20
 70
     1
102
RTVSPropertyOp21
 70
     1
102
RTVSPropertyOp22
 70
     1
102
RTVSPropertyOp23
 70
     1
102
RTVSPropertyOp24
 70
     1
102
RTVSPropertyOp25
 70
     1
102
RTVSPropertyOp26
 70
     1
102
RTVSPropertyOp27
 70
     1
102
RTVSPropertyOp28
 70
     1
102
RTVSPropertyOp29
 70
     1
102
RTVSPropertyOp30
 70
     1
102
RTVSPropertyOp31
 70
     1
102
RTVSPropertyOp32
 70
     1
102
RTVSPropertyOp33
 70
     1
102
RTVSPropertyOp34
 70
     1
102
RTVSPropertyOp35
 70
     1
102
RTVSPropertyOp36
 70
     1
102
RTVSPropertyOp37
 70
     1
102
RTVSPropertyOp38
 70
     1
102
RTVSPropertyOp39
 70
     1
102
RTVSPropertyOp40
 70
     1
102
RTVSPropertyOp41
 70
     1
102
RTVSPropertyOp42
 70
     1
102
RTVSPropertyOp43
 70
     1
102
RTVSPropertyOp44
 70
     1
102
RTVSPropertyOp45
 70
     1
102
RTVSPropertyOp46
 70
     1
102
RTVSPropertyOp47
 70
     1
102
RTVSPropertyOp48
 70
     1
102
RTVSPropertyOp49
 70
     1
102
RTVSPropertyOp50
 70
     1
102
RTVSPropertyOp51
 70
     0
102
RTVSPropertyOp52
 70
     0
102
RTVSPropertyOp53
 70
     1
102
RTVSPropertyOp54
 70
     1
102
RTVSPropertyOp55
 70
     1
102
RTVSPropertyOp56
 70
     1
102
RTVSPropertyOp57
 70
     1
102
RTVSPost2010Prop28
280
     0
102
RTVSPost2010PropOp28
 70
     1
102
RTVSPost2010Prop29
280
     1
102
RTVSPost2010PropOp29
 70
     1
102
RTVSPost2010Prop30
280
     1
102
RTVSPost2010PropOp30
 70
     1
102
RTVSPost2010Prop31
280
     0
102
RTVSPost2010PropOp31
 70
     1
102
RTVSPost2010Prop32
280
     0
102
RTVSPost2010PropOp32
 70
     1
102
RTVSPost2010Prop33
280
     0
102
RTVSPost2010PropOp33
 70
     1
102
RTVSPost2010Prop34
280
     0
102
RTVSPost2010PropOp34
 70
     1
102
RTVSPost2010Prop35
280
     0
102
RTVSPost2010PropOp35
 70
     1
102
RTVSPost2010Prop36
280
     0
102
RTVSPost2010PropOp36
 70
     1
102
RTVSPost2010Prop37
 90
       50
102
RTVSPost2010PropOp37
 70
     1
102
RTVSPost2010Prop38
140
0.0
102
RTVSPost2010PropOp38
 70
     1
102
RTVSPost2010Prop39
140
1.0
102
RTVSPost2010PropOp39
 70
     1
102
RTVSPost2010Prop40
 90
        0
102
RTVSPost2010PropOp40
 70
     1
102
RTVSPost2010Prop41ColorIndex
 90
       18
102
RTVSPost2010Prop41ColorRGB
 90
        0
102
RTVSPost2010PropOp41
 70
     1
102
RTVSPost2010Prop42
 90
       50
102
RTVSPost2010PropOp42
 70
     1
102
RTVSPost2010Prop43
 90
        3
102
RTVSPost2010PropOp43
 70
     1
102
RTVSPost2010Prop44ColorIndex
 90
        5
102
RTVSPost2010Prop44ColorRGB
 90
      255
102
RTVSPost2010PropOp44
 70
     1
102
RTVSPost2010Prop45
280
     0
102
RTVSPost2010PropOp45
 70
     1
102
RTVSPost2010Prop46
 90
       50
102
RTVSPost2010PropOp46
 70
     1
102
RTVSPost2010Prop47
 90
       50
102
RTVSPost2010PropOp47
 70
     1
102
RTVSPost2010Prop48
 90
       50
102
RTVSPost2010PropOp48
 70
     1
102
RTVSPost2010Prop49
280
     0
102
RTVSPost2010PropOp49
 70
     1
102
RTVSPost2010Prop50
 90
       50
102
RTVSPost2010PropOp50
 70
     1
102
RTVSPost2010Prop51ColorIndex
 90
      256
102
RTVSPost2010Prop51ColorRGB
 90
-16777216
102
RTVSPost2010PropOp51
 70
     0
102
RTVSPost2010Prop52
140
1.0
102
RTVSPost2010PropOp52
 70
     0
102
RTVSPost2010Prop53
 90
        2
102
RTVSPost2010PropOp53
 70
     1
102
RTVSPost2010Prop54
  1
strokes_ogs.tif
102
RTVSPost2010PropOp54
 70
     1
102
RTVSPost2010Prop55
280
     0
102
RTVSPost2010PropOp55
 70
     1
102
RTVSPost2010Prop56
140
1.0
102
RTVSPost2010PropOp56
 70
     1
102
RTVSPost2010Prop57
140
1.0
102
RTVSPost2010PropOp57
 70
     1
  0
XRECORD
  5
43F
102
{ACAD_REACTORS
330
43E
102
}
330
43E
100
AcDbXrecord
280
     1
102
RTVSPropertyOp0
 70
     0
102
RTVSPropertyOp1
 70
     0
102
RTVSPropertyOp2
 70
     0
102
RTVSPropertyOp3
 70
     0
102
RTVSPropertyOp4
 70
     0
102
RTVSPropertyOp5
 70
     0
102
RTVSPropertyOp6
 70
     0
102
RTVSPropertyOp7
 70
     0
102
RTVSPropertyOp8
 70
     0
102
RTVSPropertyOp9
 70
     0
102
RTVSPropertyOp10
 70
     0
102
RTVSPropertyOp11
 70
     0
102
RTVSPropertyOp12
 70
     0
102
RTVSPropertyOp13
 70
     0
102
RTVSPropertyOp14
 70
     2
102
RTVSPropertyOp15
 70
     0
102
RTVSPropertyOp16
 70
     0
102
RTVSPropertyOp17
 70
     0
102
RTVSPropertyOp18
 70
     0
102
RTVSPropertyOp19
 70
     0
102
RTVSPropertyOp20
 70
     0
102
RTVSPropertyOp21
 70
     0
102
RTVSPropertyOp22
 70
     0
102
RTVSPropertyOp23
 70
     0
102
RTVSPropertyOp24
 70
     0
102
RTVSPropertyOp25
 70
     0
102
RTVSPropertyOp26
 70
     0
102
RTVSPropertyOp27
 70
     0
102
RTVSPropertyOp28
 70
     0
102
RTVSPropertyOp29
 70
     0
102
RTVSPropertyOp30
 70
     0
102
RTVSPropertyOp31
 70
     0
102
RTVSPropertyOp32
 70
     0
102
RTVSPropertyOp33
 70
     0
102
RTVSPropertyOp34
 70
     0
102
RTVSPropertyOp35
 70
     0
102
RTVSPropertyOp36
 70
     0
102
RTVSPropertyOp37
 70
     0
102
RTVSPropertyOp38
 70
     0
102
RTVSPropertyOp39
 70
     0
102
RTVSPropertyOp40
 70
     0
102
RTVSPropertyOp41
 70
     0
102
RTVSPropertyOp42
 70
     0
102
RTVSPropertyOp43
 70
     0
102
RTVSPropertyOp44
 70
     0
102
RTVSPropertyOp45
 70
     0
102
RTVSPropertyOp46
 70
     0
102
RTVSPropertyOp47
 70
     0
102
RTVSPropertyOp48
 70
     0
102
RTVSPropertyOp49
 70
     0
102
RTVSPropertyOp50
 70
     0
102
RTVSPropertyOp51
 70
     0
102
RTVSPropertyOp52
 70
     0
102
RTVSPropertyOp53
 70
     0
102
RTVSPropertyOp54
 70
     0
102
RTVSPropertyOp55
 70
     0
102
RTVSPropertyOp56
 70
     0
102
RTVSPropertyOp57
 70
     0
102
RTVSPost2010Prop28
280
     0
102
RTVSPost2010PropOp28
 70
     0
102
RTVSPost2010Prop29
280
     1
102
RTVSPost2010PropOp29
 70
     0
102
RTVSPost2010Prop30
280
     1
102
RTVSPost2010PropOp30
 70
     0
102
RTVSPost2010Prop31
280
     0
102
RTVSPost2010PropOp31
 70
     0
102
RTVSPost2010Prop32
280
     0
102
RTVSPost2010PropOp32
 70
     0
102
RTVSPost2010Prop33
280
     0
102
RTVSPost2010PropOp33
 70
     0
102
RTVSPost2010Prop34
280
     0
102
RTVSPost2010PropOp34
 70
     0
102
RTVSPost2010Prop35
280
     0
102
RTVSPost2010PropOp35
 70
     0
102
RTVSPost2010Prop36
280
     0
102
RTVSPost2010PropOp36
 70
     0
102
RTVSPost2010Prop37
 90
       50
102
RTVSPost2010PropOp37
 70
     0
102
RTVSPost2010Prop38
140
0.0
102
RTVSPost2010PropOp38
 70
     0
102
RTVSPost2010Prop39
140
1.0
102
RTVSPost2010PropOp39
 70
     0
102
RTVSPost2010Prop40
 90
        0
102
RTVSPost2010PropOp40
 70
     0
102
RTVSPost2010Prop41ColorIndex
 90
       18
102
RTVSPost2010Prop41ColorRGB
 90
        0
102
RTVSPost2010PropOp41
 70
     0
102
RTVSPost2010Prop42
 90
       50
102
RTVSPost2010PropOp42
 70
     0
102
RTVSPost2010Prop43
 90
        3
102
RTVSPost2010PropOp43
 70
     0
102
RTVSPost2010Prop44ColorIndex
 90
        5
102
RTVSPost2010Prop44ColorRGB
 90
      255
102
RTVSPost2010PropOp44
 70
     0
102
RTVSPost2010Prop45
280
     0
102
RTVSPost2010PropOp45
 70
     0
102
RTVSPost2010Prop46
 90
       50
102
RTVSPost2010PropOp46
 70
     0
102
RTVSPost2010Prop47
 90
       50
102
RTVSPost2010PropOp47
 70
     0
102
RTVSPost2010Prop48
 90
       50
102
RTVSPost2010PropOp48
 70
     0
102
RTVSPost2010Prop49
280
     0
102
RTVSPost2010PropOp49
 70
     0
102
RTVSPost2010Prop50
 90
       50
102
RTVSPost2010PropOp50
 70
     0
102
RTVSPost2010Prop51ColorIndex
 90
      256
102
RTVSPost2010Prop51ColorRGB
 90
-16777216
102
RTVSPost2010PropOp51
 70
     0
102
RTVSPost2010Prop52
140
1.0
102
RTVSPost2010PropOp52
 70
     0
102
RTVSPost2010Prop53
 90
        2
102
RTVSPost2010PropOp53
 70
     0
102
RTVSPost2010Prop54
  1
strokes_ogs.tif
102
RTVSPost2010PropOp54
 70
     0
102
RTVSPost2010Prop55
280
     0
102
RTVSPost2010PropOp55
 70
     0
102
RTVSPost2010Prop56
140
1.0
102
RTVSPost2010PropOp56
 70
     0
102
RTVSPost2010Prop57
140
1.0
102
RTVSPost2010PropOp57
 70
     0
  0
XRECORD
  5
437
102
{ACAD_REACTORS
330
436
102
}
330
436
100
AcDbXrecord
280
     1
102
RTVSPropertyOp0
 70
     1
102
RTVSPropertyOp1
 70
     1
102
RTVSPropertyOp2
 70
     1
102
RTVSPropertyOp3
 70
     1
102
RTVSPropertyOp4
 70
     1
102
RTVSPropertyOp5
 70
     1
102
RTVSPropertyOp6
 70
     1
102
RTVSPropertyOp7
 70
     1
102
RTVSPropertyOp8
 70
     1
102
RTVSPropertyOp9
 70
     1
102
RTVSPropertyOp10
 70
     1
102
RTVSPropertyOp11
 70
     1
102
RTVSPropertyOp12
 70
     1
102
RTVSPropertyOp13
 70
     1
102
RTVSPropertyOp14
 70
     1
102
RTVSPropertyOp15
 70
     1
102
RTVSPropertyOp16
 70
     1
102
RTVSPropertyOp17
 70
     1
102
RTVSPropertyOp18
 70
     1
102
RTVSPropertyOp19
 70
     1
102
RTVSPropertyOp20
 70
     1
102
RTVSPropertyOp21
 70
     1
102
RTVSPropertyOp22
 70
     1
102
RTVSPropertyOp23
 70
     1
102
RTVSPropertyOp24
 70
     1
102
RTVSPropertyOp25
 70
     1
102
RTVSPropertyOp26
 70
     1
102
RTVSPropertyOp27
 70
     1
102
RTVSPropertyOp28
 70
     1
102
RTVSPropertyOp29
 70
     1
102
RTVSPropertyOp30
 70
     1
102
RTVSPropertyOp31
 70
     1
102
RTVSPropertyOp32
 70
     1
102
RTVSPropertyOp33
 70
     1
102
RTVSPropertyOp34
 70
     1
102
RTVSPropertyOp35
 70
     1
102
RTVSPropertyOp36
 70
     1
102
RTVSPropertyOp37
 70
     1
102
RTVSPropertyOp38
 70
     1
102
RTVSPropertyOp39
 70
     1
102
RTVSPropertyOp40
 70
     1
102
RTVSPropertyOp41
 70
     1
102
RTVSPropertyOp42
 70
     1
102
RTVSPropertyOp43
 70
     1
102
RTVSPropertyOp44
 70
     1
102
RTVSPropertyOp45
 70
     1
102
RTVSPropertyOp46
 70
     1
102
RTVSPropertyOp47
 70
     1
102
RTVSPropertyOp48
 70
     1
102
RTVSPropertyOp49
 70
     1
102
RTVSPropertyOp50
 70
     1
102
RTVSPropertyOp51
 70
     0
102
RTVSPropertyOp52
 70
     0
102
RTVSPropertyOp53
 70
     1
102
RTVSPropertyOp54
 70
     1
102
RTVSPropertyOp55
 70
     1
102
RTVSPropertyOp56
 70
     1
102
RTVSPropertyOp57
 70
     1
102
RTVSPost2010Prop28
280
     0
102
RTVSPost2010PropOp28
 70
     1
102
RTVSPost2010Prop29
280
     1
102
RTVSPost2010PropOp29
 70
     1
102
RTVSPost2010Prop30
280
     1
102
RTVSPost2010PropOp30
 70
     1
102
RTVSPost2010Prop31
280
     0
102
RTVSPost2010PropOp31
 70
     1
102
RTVSPost2010Prop32
280
     0
102
RTVSPost2010PropOp32
 70
     1
102
RTVSPost2010Prop33
280
     0
102
RTVSPost2010PropOp33
 70
     1
102
RTVSPost2010Prop34
280
     0
102
RTVSPost2010PropOp34
 70
     1
102
RTVSPost2010Prop35
280
     0
102
RTVSPost2010PropOp35
 70
     1
102
RTVSPost2010Prop36
280
     0
102
RTVSPost2010PropOp36
 70
     1
102
RTVSPost2010Prop37
 90
       50
102
RTVSPost2010PropOp37
 70
     1
102
RTVSPost2010Prop38
140
0.0
102
RTVSPost2010PropOp38
 70
     1
102
RTVSPost2010Prop39
140
1.0
102
RTVSPost2010PropOp39
 70
     1
102
RTVSPost2010Prop40
 90
        0
102
RTVSPost2010PropOp40
 70
     1
102
RTVSPost2010Prop41ColorIndex
 90
       18
102
RTVSPost2010Prop41ColorRGB
 90
        0
102
RTVSPost2010PropOp41
 70
     1
102
RTVSPost2010Prop42
 90
       50
102
RTVSPost2010PropOp42
 70
     1
102
RTVSPost2010Prop43
 90
        3
102
RTVSPost2010PropOp43
 70
     1
102
RTVSPost2010Prop44ColorIndex
 90
        5
102
RTVSPost2010Prop44ColorRGB
 90
      255
102
RTVSPost2010PropOp44
 70
     1
102
RTVSPost2010Prop45
280
     0
102
RTVSPost2010PropOp45
 70
     1
102
RTVSPost2010Prop46
 90
       50
102
RTVSPost2010PropOp46
 70
     1
102
RTVSPost2010Prop47
 90
       50
102
RTVSPost2010PropOp47
 70
     1
102
RTVSPost2010Prop48
 90
       50
102
RTVSPost2010PropOp48
 70
     1
102
RTVSPost2010Prop49
280
     0
102
RTVSPost2010PropOp49
 70
     1
102
RTVSPost2010Prop50
 90
       50
102
RTVSPost2010PropOp50
 70
     1
102
RTVSPost2010Prop51ColorIndex
 90
      256
102
RTVSPost2010Prop51ColorRGB
 90
-16777216
102
RTVSPost2010PropOp51
 70
     0
102
RTVSPost2010Prop52
140
1.0
102
RTVSPost2010PropOp52
 70
     0
102
RTVSPost2010Prop53
 90
        2
102
RTVSPost2010PropOp53
 70
     1
102
RTVSPost2010Prop54
  1
strokes_ogs.tif
102
RTVSPost2010PropOp54
 70
     1
102
RTVSPost2010Prop55
280
     0
102
RTVSPost2010PropOp55
 70
     1
102
RTVSPost2010Prop56
140
1.0
102
RTVSPost2010PropOp56
 70
     1
102
RTVSPost2010Prop57
140
1.0
102
RTVSPost2010PropOp57
 70
     1
  0
XRECORD
  5
41B
102
{ACAD_REACTORS
330
41A
102
}
330
41A
100
AcDbXrecord
280
     1
102
RTVSPropertyOp0
 70
     1
102
RTVSPropertyOp1
 70
     1
102
RTVSPropertyOp2
 70
     1
102
RTVSPropertyOp3
 70
     1
102
RTVSPropertyOp4
 70
     1
102
RTVSPropertyOp5
 70
     1
102
RTVSPropertyOp6
 70
     1
102
RTVSPropertyOp7
 70
     1
102
RTVSPropertyOp8
 70
     1
102
RTVSPropertyOp9
 70
     1
102
RTVSPropertyOp10
 70
     1
102
RTVSPropertyOp11
 70
     1
102
RTVSPropertyOp12
 70
     1
102
RTVSPropertyOp13
 70
     1
102
RTVSPropertyOp14
 70
     1
102
RTVSPropertyOp15
 70
     1
102
RTVSPropertyOp16
 70
     1
102
RTVSPropertyOp17
 70
     1
102
RTVSPropertyOp18
 70
     1
102
RTVSPropertyOp19
 70
     1
102
RTVSPropertyOp20
 70
     1
102
RTVSPropertyOp21
 70
     1
102
RTVSPropertyOp22
 70
     1
102
RTVSPropertyOp23
 70
     1
102
RTVSPropertyOp24
 70
     1
102
RTVSPropertyOp25
 70
     1
102
RTVSPropertyOp26
 70
     1
102
RTVSPropertyOp27
 70
     1
102
RTVSPropertyOp28
 70
     1
102
RTVSPropertyOp29
 70
     1
102
RTVSPropertyOp30
 70
     1
102
RTVSPropertyOp31
 70
     1
102
RTVSPropertyOp32
 70
     1
102
RTVSPropertyOp33
 70
     1
102
RTVSPropertyOp34
 70
     1
102
RTVSPropertyOp35
 70
     1
102
RTVSPropertyOp36
 70
     1
102
RTVSPropertyOp37
 70
     1
102
RTVSPropertyOp38
 70
     1
102
RTVSPropertyOp39
 70
     1
102
RTVSPropertyOp40
 70
     1
102
RTVSPropertyOp41
 70
     1
102
RTVSPropertyOp42
 70
     1
102
RTVSPropertyOp43
 70
     1
102
RTVSPropertyOp44
 70
     1
102
RTVSPropertyOp45
 70
     1
102
RTVSPropertyOp46
 70
     1
102
RTVSPropertyOp47
 70
     1
102
RTVSPropertyOp48
 70
     1
102
RTVSPropertyOp49
 70
     1
102
RTVSPropertyOp50
 70
     1
102
RTVSPropertyOp51
 70
     0
102
RTVSPropertyOp52
 70
     0
102
RTVSPropertyOp53
 70
     1
102
RTVSPropertyOp54
 70
     1
102
RTVSPropertyOp55
 70
     1
102
RTVSPropertyOp56
 70
     1
102
RTVSPropertyOp57
 70
     1
102
RTVSPost2010Prop28
280
     0
102
RTVSPost2010PropOp28
 70
     1
102
RTVSPost2010Prop29
280
     1
102
RTVSPost2010PropOp29
 70
     1
102
RTVSPost2010Prop30
280
     1
102
RTVSPost2010PropOp30
 70
     1
102
RTVSPost2010Prop31
280
     0
102
RTVSPost2010PropOp31
 70
     1
102
RTVSPost2010Prop32
280
     0
102
RTVSPost2010PropOp32
 70
     1
102
RTVSPost2010Prop33
280
     0
102
RTVSPost2010PropOp33
 70
     1
102
RTVSPost2010Prop34
280
     0
102
RTVSPost2010PropOp34
 70
     1
102
RTVSPost2010Prop35
280
     0
102
RTVSPost2010PropOp35
 70
     1
102
RTVSPost2010Prop36
280
     0
102
RTVSPost2010PropOp36
 70
     1
102
RTVSPost2010Prop37
 90
       50
102
RTVSPost2010PropOp37
 70
     1
102
RTVSPost2010Prop38
140
0.0
102
RTVSPost2010PropOp38
 70
     1
102
RTVSPost2010Prop39
140
1.0
102
RTVSPost2010PropOp39
 70
     1
102
RTVSPost2010Prop40
 90
        0
102
RTVSPost2010PropOp40
 70
     1
102
RTVSPost2010Prop41ColorIndex
 90
       18
102
RTVSPost2010Prop41ColorRGB
 90
        0
102
RTVSPost2010PropOp41
 70
     1
102
RTVSPost2010Prop42
 90
       50
102
RTVSPost2010PropOp42
 70
     1
102
RTVSPost2010Prop43
 90
        3
102
RTVSPost2010PropOp43
 70
     1
102
RTVSPost2010Prop44ColorIndex
 90
        5
102
RTVSPost2010Prop44ColorRGB
 90
      255
102
RTVSPost2010PropOp44
 70
     1
102
RTVSPost2010Prop45
280
     0
102
RTVSPost2010PropOp45
 70
     1
102
RTVSPost2010Prop46
 90
       50
102
RTVSPost2010PropOp46
 70
     1
102
RTVSPost2010Prop47
 90
       50
102
RTVSPost2010PropOp47
 70
     1
102
RTVSPost2010Prop48
 90
       50
102
RTVSPost2010PropOp48
 70
     1
102
RTVSPost2010Prop49
280
     0
102
RTVSPost2010PropOp49
 70
     1
102
RTVSPost2010Prop50
 90
       50
102
RTVSPost2010PropOp50
 70
     1
102
RTVSPost2010Prop51ColorIndex
 90
      256
102
RTVSPost2010Prop51ColorRGB
 90
-16777216
102
RTVSPost2010PropOp51
 70
     0
102
RTVSPost2010Prop52
140
1.0
102
RTVSPost2010PropOp52
 70
     0
102
RTVSPost2010Prop53
 90
        2
102
RTVSPost2010PropOp53
 70
     1
102
RTVSPost2010Prop54
  1
strokes_ogs.tif
102
RTVSPost2010PropOp54
 70
     1
102
RTVSPost2010Prop55
280
     0
102
RTVSPost2010PropOp55
 70
     1
102
RTVSPost2010Prop56
140
1.0
102
RTVSPost2010PropOp56
 70
     1
102
RTVSPost2010Prop57
140
1.0
102
RTVSPost2010PropOp57
 70
     1
  0
XRECORD
  5
41D
102
{ACAD_REACTORS
330
41C
102
}
330
41C
100
AcDbXrecord
280
     1
102
RTVSPropertyOp0
 70
     1
102
RTVSPropertyOp1
 70
     1
102
RTVSPropertyOp2
 70
     1
102
RTVSPropertyOp3
 70
     1
102
RTVSPropertyOp4
 70
     1
102
RTVSPropertyOp5
 70
     1
102
RTVSPropertyOp6
 70
     1
102
RTVSPropertyOp7
 70
     1
102
RTVSPropertyOp8
 70
     1
102
RTVSPropertyOp9
 70
     1
102
RTVSPropertyOp10
 70
     1
102
RTVSPropertyOp11
 70
     1
102
RTVSPropertyOp12
 70
     1
102
RTVSPropertyOp13
 70
     1
102
RTVSPropertyOp14
 70
     1
102
RTVSPropertyOp15
 70
     1
102
RTVSPropertyOp16
 70
     1
102
RTVSPropertyOp17
 70
     1
102
RTVSPropertyOp18
 70
     1
102
RTVSPropertyOp19
 70
     1
102
RTVSPropertyOp20
 70
     1
102
RTVSPropertyOp21
 70
     1
102
RTVSPropertyOp22
 70
     1
102
RTVSPropertyOp23
 70
     1
102
RTVSPropertyOp24
 70
     1
102
RTVSPropertyOp25
 70
     1
102
RTVSPropertyOp26
 70
     1
102
RTVSPropertyOp27
 70
     1
102
RTVSPropertyOp28
 70
     1
102
RTVSPropertyOp29
 70
     1
102
RTVSPropertyOp30
 70
     1
102
RTVSPropertyOp31
 70
     1
102
RTVSPropertyOp32
 70
     1
102
RTVSPropertyOp33
 70
     1
102
RTVSPropertyOp34
 70
     1
102
RTVSPropertyOp35
 70
     1
102
RTVSPropertyOp36
 70
     1
102
RTVSPropertyOp37
 70
     1
102
RTVSPropertyOp38
 70
     1
102
RTVSPropertyOp39
 70
     1
102
RTVSPropertyOp40
 70
     1
102
RTVSPropertyOp41
 70
     1
102
RTVSPropertyOp42
 70
     1
102
RTVSPropertyOp43
 70
     1
102
RTVSPropertyOp44
 70
     1
102
RTVSPropertyOp45
 70
     1
102
RTVSPropertyOp46
 70
     1
102
RTVSPropertyOp47
 70
     1
102
RTVSPropertyOp48
 70
     1
102
RTVSPropertyOp49
 70
     1
102
RTVSPropertyOp50
 70
     1
102
RTVSPropertyOp51
 70
     0
102
RTVSPropertyOp52
 70
     0
102
RTVSPropertyOp53
 70
     1
102
RTVSPropertyOp54
 70
     1
102
RTVSPropertyOp55
 70
     1
102
RTVSPropertyOp56
 70
     1
102
RTVSPropertyOp57
 70
     1
102
RTVSPost2010Prop28
280
     0
102
RTVSPost2010PropOp28
 70
     1
102
RTVSPost2010Prop29
280
     1
102
RTVSPost2010PropOp29
 70
     1
102
RTVSPost2010Prop30
280
     1
102
RTVSPost2010PropOp30
 70
     1
102
RTVSPost2010Prop31
280
     0
102
RTVSPost2010PropOp31
 70
     1
102
RTVSPost2010Prop32
280
     0
102
RTVSPost2010PropOp32
 70
     1
102
RTVSPost2010Prop33
280
     0
102
RTVSPost2010PropOp33
 70
     1
102
RTVSPost2010Prop34
280
     0
102
RTVSPost2010PropOp34
 70
     1
102
RTVSPost2010Prop35
280
     0
102
RTVSPost2010PropOp35
 70
     1
102
RTVSPost2010Prop36
280
     0
102
RTVSPost2010PropOp36
 70
     1
102
RTVSPost2010Prop37
 90
       50
102
RTVSPost2010PropOp37
 70
     1
102
RTVSPost2010Prop38
140
0.0
102
RTVSPost2010PropOp38
 70
     1
102
RTVSPost2010Prop39
140
1.0
102
RTVSPost2010PropOp39
 70
     1
102
RTVSPost2010Prop40
 90
        0
102
RTVSPost2010PropOp40
 70
     1
102
RTVSPost2010Prop41ColorIndex
 90
       18
102
RTVSPost2010Prop41ColorRGB
 90
        0
102
RTVSPost2010PropOp41
 70
     1
102
RTVSPost2010Prop42
 90
       50
102
RTVSPost2010PropOp42
 70
     1
102
RTVSPost2010Prop43
 90
        3
102
RTVSPost2010PropOp43
 70
     1
102
RTVSPost2010Prop44ColorIndex
 90
        5
102
RTVSPost2010Prop44ColorRGB
 90
      255
102
RTVSPost2010PropOp44
 70
     1
102
RTVSPost2010Prop45
280
     0
102
RTVSPost2010PropOp45
 70
     1
102
RTVSPost2010Prop46
 90
       50
102
RTVSPost2010PropOp46
 70
     1
102
RTVSPost2010Prop47
 90
       50
102
RTVSPost2010PropOp47
 70
     1
102
RTVSPost2010Prop48
 90
       50
102
RTVSPost2010PropOp48
 70
     1
102
RTVSPost2010Prop49
280
     0
102
RTVSPost2010PropOp49
 70
     1
102
RTVSPost2010Prop50
 90
       50
102
RTVSPost2010PropOp50
 70
     1
102
RTVSPost2010Prop51ColorIndex
 90
      256
102
RTVSPost2010Prop51ColorRGB
 90
-16777216
102
RTVSPost2010PropOp51
 70
     0
102
RTVSPost2010Prop52
140
1.0
102
RTVSPost2010PropOp52
 70
     0
102
RTVSPost2010Prop53
 90
        2
102
RTVSPost2010PropOp53
 70
     1
102
RTVSPost2010Prop54
  1
strokes_ogs.tif
102
RTVSPost2010PropOp54
 70
     1
102
RTVSPost2010Prop55
280
     0
102
RTVSPost2010PropOp55
 70
     1
102
RTVSPost2010Prop56
140
1.0
102
RTVSPost2010PropOp56
 70
     1
102
RTVSPost2010Prop57
140
1.0
102
RTVSPost2010PropOp57
 70
     1
  0
XRECORD
  5
41F
102
{ACAD_REACTORS
330
41E
102
}
330
41E
100
AcDbXrecord
280
     1
102
RTVSPropertyOp0
 70
     1
102
RTVSPropertyOp1
 70
     1
102
RTVSPropertyOp2
 70
     1
102
RTVSPropertyOp3
 70
     1
102
RTVSPropertyOp4
 70
     1
102
RTVSPropertyOp5
 70
     1
102
RTVSPropertyOp6
 70
     1
102
RTVSPropertyOp7
 70
     1
102
RTVSPropertyOp8
 70
     1
102
RTVSPropertyOp9
 70
     1
102
RTVSPropertyOp10
 70
     1
102
RTVSPropertyOp11
 70
     1
102
RTVSPropertyOp12
 70
     1
102
RTVSPropertyOp13
 70
     1
102
RTVSPropertyOp14
 70
     1
102
RTVSPropertyOp15
 70
     1
102
RTVSPropertyOp16
 70
     1
102
RTVSPropertyOp17
 70
     1
102
RTVSPropertyOp18
 70
     1
102
RTVSPropertyOp19
 70
     1
102
RTVSPropertyOp20
 70
     1
102
RTVSPropertyOp21
 70
     1
102
RTVSPropertyOp22
 70
     1
102
RTVSPropertyOp23
 70
     1
102
RTVSPropertyOp24
 70
     1
102
RTVSPropertyOp25
 70
     1
102
RTVSPropertyOp26
 70
     1
102
RTVSPropertyOp27
 70
     1
102
RTVSPropertyOp28
 70
     1
102
RTVSPropertyOp29
 70
     1
102
RTVSPropertyOp30
 70
     1
102
RTVSPropertyOp31
 70
     1
102
RTVSPropertyOp32
 70
     1
102
RTVSPropertyOp33
 70
     1
102
RTVSPropertyOp34
 70
     1
102
RTVSPropertyOp35
 70
     1
102
RTVSPropertyOp36
 70
     1
102
RTVSPropertyOp37
 70
     1
102
RTVSPropertyOp38
 70
     1
102
RTVSPropertyOp39
 70
     1
102
RTVSPropertyOp40
 70
     1
102
RTVSPropertyOp41
 70
     1
102
RTVSPropertyOp42
 70
     1
102
RTVSPropertyOp43
 70
     1
102
RTVSPropertyOp44
 70
     1
102
RTVSPropertyOp45
 70
     1
102
RTVSPropertyOp46
 70
     1
102
RTVSPropertyOp47
 70
     1
102
RTVSPropertyOp48
 70
     1
102
RTVSPropertyOp49
 70
     1
102
RTVSPropertyOp50
 70
     1
102
RTVSPropertyOp51
 70
     0
102
RTVSPropertyOp52
 70
     0
102
RTVSPropertyOp53
 70
     1
102
RTVSPropertyOp54
 70
     1
102
RTVSPropertyOp55
 70
     1
102
RTVSPropertyOp56
 70
     1
102
RTVSPropertyOp57
 70
     1
102
RTVSPost2010Prop28
280
     0
102
RTVSPost2010PropOp28
 70
     1
102
RTVSPost2010Prop29
280
     1
102
RTVSPost2010PropOp29
 70
     1
102
RTVSPost2010Prop30
280
     1
102
RTVSPost2010PropOp30
 70
     1
102
RTVSPost2010Prop31
280
     0
102
RTVSPost2010PropOp31
 70
     1
102
RTVSPost2010Prop32
280
     0
102
RTVSPost2010PropOp32
 70
     1
102
RTVSPost2010Prop33
280
     0
102
RTVSPost2010PropOp33
 70
     1
102
RTVSPost2010Prop34
280
     0
102
RTVSPost2010PropOp34
 70
     1
102
RTVSPost2010Prop35
280
     0
102
RTVSPost2010PropOp35
 70
     1
102
RTVSPost2010Prop36
280
     0
102
RTVSPost2010PropOp36
 70
     1
102
RTVSPost2010Prop37
 90
       50
102
RTVSPost2010PropOp37
 70
     1
102
RTVSPost2010Prop38
140
0.0
102
RTVSPost2010PropOp38
 70
     1
102
RTVSPost2010Prop39
140
1.0
102
RTVSPost2010PropOp39
 70
     1
102
RTVSPost2010Prop40
 90
        0
102
RTVSPost2010PropOp40
 70
     1
102
RTVSPost2010Prop41ColorIndex
 90
       18
102
RTVSPost2010Prop41ColorRGB
 90
        0
102
RTVSPost2010PropOp41
 70
     1
102
RTVSPost2010Prop42
 90
       50
102
RTVSPost2010PropOp42
 70
     1
102
RTVSPost2010Prop43
 90
        3
102
RTVSPost2010PropOp43
 70
     1
102
RTVSPost2010Prop44ColorIndex
 90
        5
102
RTVSPost2010Prop44ColorRGB
 90
      255
102
RTVSPost2010PropOp44
 70
     1
102
RTVSPost2010Prop45
280
     0
102
RTVSPost2010PropOp45
 70
     1
102
RTVSPost2010Prop46
 90
       50
102
RTVSPost2010PropOp46
 70
     1
102
RTVSPost2010Prop47
 90
       50
102
RTVSPost2010PropOp47
 70
     1
102
RTVSPost2010Prop48
 90
       50
102
RTVSPost2010PropOp48
 70
     1
102
RTVSPost2010Prop49
280
     0
102
RTVSPost2010PropOp49
 70
     1
102
RTVSPost2010Prop50
 90
       50
102
RTVSPost2010PropOp50
 70
     1
102
RTVSPost2010Prop51ColorIndex
 90
      256
102
RTVSPost2010Prop51ColorRGB
 90
-16777216
102
RTVSPost2010PropOp51
 70
     0
102
RTVSPost2010Prop52
140
1.0
102
RTVSPost2010PropOp52
 70
     0
102
RTVSPost2010Prop53
 90
        2
102
RTVSPost2010PropOp53
 70
     1
102
RTVSPost2010Prop54
  1
strokes_ogs.tif
102
RTVSPost2010PropOp54
 70
     1
102
RTVSPost2010Prop55
280
     0
102
RTVSPost2010PropOp55
 70
     1
102
RTVSPost2010Prop56
140
1.0
102
RTVSPost2010PropOp56
 70
     1
102
RTVSPost2010Prop57
140
1.0
102
RTVSPost2010PropOp57
 70
     1
  0
XRECORD
  5
421
102
{ACAD_REACTORS
330
420
102
}
330
420
100
AcDbXrecord
280
     1
102
RTVSPropertyOp0
 70
     1
102
RTVSPropertyOp1
 70
     1
102
RTVSPropertyOp2
 70
     1
102
RTVSPropertyOp3
 70
     1
102
RTVSPropertyOp4
 70
     1
102
RTVSPropertyOp5
 70
     1
102
RTVSPropertyOp6
 70
     1
102
RTVSPropertyOp7
 70
     1
102
RTVSPropertyOp8
 70
     1
102
RTVSPropertyOp9
 70
     1
102
RTVSPropertyOp10
 70
     1
102
RTVSPropertyOp11
 70
     1
102
RTVSPropertyOp12
 70
     1
102
RTVSPropertyOp13
 70
     1
102
RTVSPropertyOp14
 70
     1
102
RTVSPropertyOp15
 70
     1
102
RTVSPropertyOp16
 70
     1
102
RTVSPropertyOp17
 70
     1
102
RTVSPropertyOp18
 70
     1
102
RTVSPropertyOp19
 70
     1
102
RTVSPropertyOp20
 70
     1
102
RTVSPropertyOp21
 70
     1
102
RTVSPropertyOp22
 70
     1
102
RTVSPropertyOp23
 70
     1
102
RTVSPropertyOp24
 70
     1
102
RTVSPropertyOp25
 70
     1
102
RTVSPropertyOp26
 70
     1
102
RTVSPropertyOp27
 70
     1
102
RTVSPropertyOp28
 70
     1
102
RTVSPropertyOp29
 70
     1
102
RTVSPropertyOp30
 70
     1
102
RTVSPropertyOp31
 70
     1
102
RTVSPropertyOp32
 70
     1
102
RTVSPropertyOp33
 70
     1
102
RTVSPropertyOp34
 70
     1
102
RTVSPropertyOp35
 70
     1
102
RTVSPropertyOp36
 70
     1
102
RTVSPropertyOp37
 70
     1
102
RTVSPropertyOp38
 70
     1
102
RTVSPropertyOp39
 70
     1
102
RTVSPropertyOp40
 70
     1
102
RTVSPropertyOp41
 70
     1
102
RTVSPropertyOp42
 70
     1
102
RTVSPropertyOp43
 70
     1
102
RTVSPropertyOp44
 70
     1
102
RTVSPropertyOp45
 70
     1
102
RTVSPropertyOp46
 70
     1
102
RTVSPropertyOp47
 70
     1
102
RTVSPropertyOp48
 70
     1
102
RTVSPropertyOp49
 70
     1
102
RTVSPropertyOp50
 70
     1
102
RTVSPropertyOp51
 70
     0
102
RTVSPropertyOp52
 70
     0
102
RTVSPropertyOp53
 70
     1
102
RTVSPropertyOp54
 70
     1
102
RTVSPropertyOp55
 70
     1
102
RTVSPropertyOp56
 70
     1
102
RTVSPropertyOp57
 70
     1
102
RTVSPost2010Prop28
280
     0
102
RTVSPost2010PropOp28
 70
     1
102
RTVSPost2010Prop29
280
     1
102
RTVSPost2010PropOp29
 70
     1
102
RTVSPost2010Prop30
280
     1
102
RTVSPost2010PropOp30
 70
     1
102
RTVSPost2010Prop31
280
     0
102
RTVSPost2010PropOp31
 70
     1
102
RTVSPost2010Prop32
280
     0
102
RTVSPost2010PropOp32
 70
     1
102
RTVSPost2010Prop33
280
     0
102
RTVSPost2010PropOp33
 70
     1
102
RTVSPost2010Prop34
280
     0
102
RTVSPost2010PropOp34
 70
     1
102
RTVSPost2010Prop35
280
     0
102
RTVSPost2010PropOp35
 70
     1
102
RTVSPost2010Prop36
280
     0
102
RTVSPost2010PropOp36
 70
     1
102
RTVSPost2010Prop37
 90
       50
102
RTVSPost2010PropOp37
 70
     1
102
RTVSPost2010Prop38
140
0.0
102
RTVSPost2010PropOp38
 70
     1
102
RTVSPost2010Prop39
140
1.0
102
RTVSPost2010PropOp39
 70
     1
102
RTVSPost2010Prop40
 90
        0
102
RTVSPost2010PropOp40
 70
     1
102
RTVSPost2010Prop41ColorIndex
 90
       18
102
RTVSPost2010Prop41ColorRGB
 90
        0
102
RTVSPost2010PropOp41
 70
     1
102
RTVSPost2010Prop42
 90
       50
102
RTVSPost2010PropOp42
 70
     1
102
RTVSPost2010Prop43
 90
        3
102
RTVSPost2010PropOp43
 70
     1
102
RTVSPost2010Prop44ColorIndex
 90
        5
102
RTVSPost2010Prop44ColorRGB
 90
      255
102
RTVSPost2010PropOp44
 70
     1
102
RTVSPost2010Prop45
280
     0
102
RTVSPost2010PropOp45
 70
     1
102
RTVSPost2010Prop46
 90
       50
102
RTVSPost2010PropOp46
 70
     1
102
RTVSPost2010Prop47
 90
       50
102
RTVSPost2010PropOp47
 70
     1
102
RTVSPost2010Prop48
 90
       50
102
RTVSPost2010PropOp48
 70
     1
102
RTVSPost2010Prop49
280
     0
102
RTVSPost2010PropOp49
 70
     1
102
RTVSPost2010Prop50
 90
       50
102
RTVSPost2010PropOp50
 70
     1
102
RTVSPost2010Prop51ColorIndex
 90
      256
102
RTVSPost2010Prop51ColorRGB
 90
-16777216
102
RTVSPost2010PropOp51
 70
     0
102
RTVSPost2010Prop52
140
1.0
102
RTVSPost2010PropOp52
 70
     0
102
RTVSPost2010Prop53
 90
        2
102
RTVSPost2010PropOp53
 70
     1
102
RTVSPost2010Prop54
  1
strokes_ogs.tif
102
RTVSPost2010PropOp54
 70
     1
102
RTVSPost2010Prop55
280
     0
102
RTVSPost2010PropOp55
 70
     1
102
RTVSPost2010Prop56
140
1.0
102
RTVSPost2010PropOp56
 70
     1
102
RTVSPost2010Prop57
140
1.0
102
RTVSPost2010PropOp57
 70
     1
  0
XRECORD
  5
427
102
{ACAD_REACTORS
330
426
102
}
330
426
100
AcDbXrecord
280
     1
102
RTVSPropertyOp0
 70
     1
102
RTVSPropertyOp1
 70
     1
102
RTVSPropertyOp2
 70
     1
102
RTVSPropertyOp3
 70
     1
102
RTVSPropertyOp4
 70
     1
102
RTVSPropertyOp5
 70
     1
102
RTVSPropertyOp6
 70
     1
102
RTVSPropertyOp7
 70
     1
102
RTVSPropertyOp8
 70
     1
102
RTVSPropertyOp9
 70
     1
102
RTVSPropertyOp10
 70
     1
102
RTVSPropertyOp11
 70
     1
102
RTVSPropertyOp12
 70
     1
102
RTVSPropertyOp13
 70
     1
102
RTVSPropertyOp14
 70
     1
102
RTVSPropertyOp15
 70
     1
102
RTVSPropertyOp16
 70
     1
102
RTVSPropertyOp17
 70
     1
102
RTVSPropertyOp18
 70
     1
102
RTVSPropertyOp19
 70
     1
102
RTVSPropertyOp20
 70
     1
102
RTVSPropertyOp21
 70
     1
102
RTVSPropertyOp22
 70
     1
102
RTVSPropertyOp23
 70
     1
102
RTVSPropertyOp24
 70
     1
102
RTVSPropertyOp25
 70
     1
102
RTVSPropertyOp26
 70
     1
102
RTVSPropertyOp27
 70
     1
102
RTVSPropertyOp28
 70
     1
102
RTVSPropertyOp29
 70
     1
102
RTVSPropertyOp30
 70
     1
102
RTVSPropertyOp31
 70
     1
102
RTVSPropertyOp32
 70
     1
102
RTVSPropertyOp33
 70
     1
102
RTVSPropertyOp34
 70
     1
102
RTVSPropertyOp35
 70
     1
102
RTVSPropertyOp36
 70
     1
102
RTVSPropertyOp37
 70
     1
102
RTVSPropertyOp38
 70
     1
102
RTVSPropertyOp39
 70
     1
102
RTVSPropertyOp40
 70
     1
102
RTVSPropertyOp41
 70
     1
102
RTVSPropertyOp42
 70
     1
102
RTVSPropertyOp43
 70
     1
102
RTVSPropertyOp44
 70
     1
102
RTVSPropertyOp45
 70
     1
102
RTVSPropertyOp46
 70
     1
102
RTVSPropertyOp47
 70
     1
102
RTVSPropertyOp48
 70
     1
102
RTVSPropertyOp49
 70
     1
102
RTVSPropertyOp50
 70
     1
102
RTVSPropertyOp51
 70
     0
102
RTVSPropertyOp52
 70
     0
102
RTVSPropertyOp53
 70
     1
102
RTVSPropertyOp54
 70
     1
102
RTVSPropertyOp55
 70
     1
102
RTVSPropertyOp56
 70
     1
102
RTVSPropertyOp57
 70
     1
102
RTVSPost2010Prop28
280
     0
102
RTVSPost2010PropOp28
 70
     1
102
RTVSPost2010Prop29
280
     1
102
RTVSPost2010PropOp29
 70
     1
102
RTVSPost2010Prop30
280
     1
102
RTVSPost2010PropOp30
 70
     1
102
RTVSPost2010Prop31
280
     0
102
RTVSPost2010PropOp31
 70
     1
102
RTVSPost2010Prop32
280
     0
102
RTVSPost2010PropOp32
 70
     1
102
RTVSPost2010Prop33
280
     0
102
RTVSPost2010PropOp33
 70
     1
102
RTVSPost2010Prop34
280
     0
102
RTVSPost2010PropOp34
 70
     1
102
RTVSPost2010Prop35
280
     0
102
RTVSPost2010PropOp35
 70
     1
102
RTVSPost2010Prop36
280
     0
102
RTVSPost2010PropOp36
 70
     1
102
RTVSPost2010Prop37
 90
       50
102
RTVSPost2010PropOp37
 70
     1
102
RTVSPost2010Prop38
140
0.0
102
RTVSPost2010PropOp38
 70
     1
102
RTVSPost2010Prop39
140
1.0
102
RTVSPost2010PropOp39
 70
     1
102
RTVSPost2010Prop40
 90
        0
102
RTVSPost2010PropOp40
 70
     1
102
RTVSPost2010Prop41ColorIndex
 90
       18
102
RTVSPost2010Prop41ColorRGB
 90
        0
102
RTVSPost2010PropOp41
 70
     1
102
RTVSPost2010Prop42
 90
       50
102
RTVSPost2010PropOp42
 70
     1
102
RTVSPost2010Prop43
 90
        3
102
RTVSPost2010PropOp43
 70
     1
102
RTVSPost2010Prop44ColorIndex
 90
        5
102
RTVSPost2010Prop44ColorRGB
 90
      255
102
RTVSPost2010PropOp44
 70
     1
102
RTVSPost2010Prop45
280
     0
102
RTVSPost2010PropOp45
 70
     1
102
RTVSPost2010Prop46
 90
       50
102
RTVSPost2010PropOp46
 70
     1
102
RTVSPost2010Prop47
 90
       50
102
RTVSPost2010PropOp47
 70
     1
102
RTVSPost2010Prop48
 90
       50
102
RTVSPost2010PropOp48
 70
     1
102
RTVSPost2010Prop49
280
     0
102
RTVSPost2010PropOp49
 70
     1
102
RTVSPost2010Prop50
 90
       50
102
RTVSPost2010PropOp50
 70
     1
102
RTVSPost2010Prop51ColorIndex
 90
      256
102
RTVSPost2010Prop51ColorRGB
 90
-16777216
102
RTVSPost2010PropOp51
 70
     0
102
RTVSPost2010Prop52
140
1.0
102
RTVSPost2010PropOp52
 70
     0
102
RTVSPost2010Prop53
 90
        2
102
RTVSPost2010PropOp53
 70
     1
102
RTVSPost2010Prop54
  1
strokes_ogs.tif
102
RTVSPost2010PropOp54
 70
     1
102
RTVSPost2010Prop55
280
     0
102
RTVSPost2010PropOp55
 70
     1
102
RTVSPost2010Prop56
140
1.0
102
RTVSPost2010PropOp56
 70
     1
102
RTVSPost2010Prop57
140
1.0
102
RTVSPost2010PropOp57
 70
     1
  0
XRECORD
  5
43B
102
{ACAD_REACTORS
330
43A
102
}
330
43A
100
AcDbXrecord
280
     1
102
RTVSPropertyOp0
 70
     0
102
RTVSPropertyOp1
 70
     0
102
RTVSPropertyOp2
 70
     0
102
RTVSPropertyOp3
 70
     0
102
RTVSPropertyOp4
 70
     0
102
RTVSPropertyOp5
 70
     0
102
RTVSPropertyOp6
 70
     0
102
RTVSPropertyOp7
 70
     0
102
RTVSPropertyOp8
 70
     0
102
RTVSPropertyOp9
 70
     0
102
RTVSPropertyOp10
 70
     0
102
RTVSPropertyOp11
 70
     0
102
RTVSPropertyOp12
 70
     0
102
RTVSPropertyOp13
 70
     0
102
RTVSPropertyOp14
 70
     2
102
RTVSPropertyOp15
 70
     0
102
RTVSPropertyOp16
 70
     0
102
RTVSPropertyOp17
 70
     0
102
RTVSPropertyOp18
 70
     0
102
RTVSPropertyOp19
 70
     0
102
RTVSPropertyOp20
 70
     0
102
RTVSPropertyOp21
 70
     0
102
RTVSPropertyOp22
 70
     0
102
RTVSPropertyOp23
 70
     0
102
RTVSPropertyOp24
 70
     0
102
RTVSPropertyOp25
 70
     0
102
RTVSPropertyOp26
 70
     0
102
RTVSPropertyOp27
 70
     0
102
RTVSPropertyOp28
 70
     0
102
RTVSPropertyOp29
 70
     0
102
RTVSPropertyOp30
 70
     0
102
RTVSPropertyOp31
 70
     0
102
RTVSPropertyOp32
 70
     0
102
RTVSPropertyOp33
 70
     0
102
RTVSPropertyOp34
 70
     0
102
RTVSPropertyOp35
 70
     0
102
RTVSPropertyOp36
 70
     0
102
RTVSPropertyOp37
 70
     0
102
RTVSPropertyOp38
 70
     0
102
RTVSPropertyOp39
 70
     0
102
RTVSPropertyOp40
 70
     0
102
RTVSPropertyOp41
 70
     0
102
RTVSPropertyOp42
 70
     0
102
RTVSPropertyOp43
 70
     0
102
RTVSPropertyOp44
 70
     0
102
RTVSPropertyOp45
 70
     0
102
RTVSPropertyOp46
 70
     0
102
RTVSPropertyOp47
 70
     0
102
RTVSPropertyOp48
 70
     0
102
RTVSPropertyOp49
 70
     0
102
RTVSPropertyOp50
 70
     0
102
RTVSPropertyOp51
 70
     0
102
RTVSPropertyOp52
 70
     0
102
RTVSPropertyOp53
 70
     0
102
RTVSPropertyOp54
 70
     0
102
RTVSPropertyOp55
 70
     0
102
RTVSPropertyOp56
 70
     0
102
RTVSPropertyOp57
 70
     0
102
RTVSPost2010Prop28
280
     0
102
RTVSPost2010PropOp28
 70
     0
102
RTVSPost2010Prop29
280
     1
102
RTVSPost2010PropOp29
 70
     0
102
RTVSPost2010Prop30
280
     1
102
RTVSPost2010PropOp30
 70
     0
102
RTVSPost2010Prop31
280
     0
102
RTVSPost2010PropOp31
 70
     0
102
RTVSPost2010Prop32
280
     0
102
RTVSPost2010PropOp32
 70
     0
102
RTVSPost2010Prop33
280
     0
102
RTVSPost2010PropOp33
 70
     0
102
RTVSPost2010Prop34
280
     0
102
RTVSPost2010PropOp34
 70
     0
102
RTVSPost2010Prop35
280
     0
102
RTVSPost2010PropOp35
 70
     0
102
RTVSPost2010Prop36
280
     0
102
RTVSPost2010PropOp36
 70
     0
102
RTVSPost2010Prop37
 90
       50
102
RTVSPost2010PropOp37
 70
     0
102
RTVSPost2010Prop38
140
0.0
102
RTVSPost2010PropOp38
 70
     0
102
RTVSPost2010Prop39
140
1.0
102
RTVSPost2010PropOp39
 70
     0
102
RTVSPost2010Prop40
 90
        0
102
RTVSPost2010PropOp40
 70
     0
102
RTVSPost2010Prop41ColorIndex
 90
       18
102
RTVSPost2010Prop41ColorRGB
 90
        0
102
RTVSPost2010PropOp41
 70
     0
102
RTVSPost2010Prop42
 90
       50
102
RTVSPost2010PropOp42
 70
     0
102
RTVSPost2010Prop43
 90
        3
102
RTVSPost2010PropOp43
 70
     0
102
RTVSPost2010Prop44ColorIndex
 90
        5
102
RTVSPost2010Prop44ColorRGB
 90
      255
102
RTVSPost2010PropOp44
 70
     0
102
RTVSPost2010Prop45
280
     0
102
RTVSPost2010PropOp45
 70
     0
102
RTVSPost2010Prop46
 90
       50
102
RTVSPost2010PropOp46
 70
     0
102
RTVSPost2010Prop47
 90
       50
102
RTVSPost2010PropOp47
 70
     0
102
RTVSPost2010Prop48
 90
       50
102
RTVSPost2010PropOp48
 70
     0
102
RTVSPost2010Prop49
280
     0
102
RTVSPost2010PropOp49
 70
     0
102
RTVSPost2010Prop50
 90
       50
102
RTVSPost2010PropOp50
 70
     0
102
RTVSPost2010Prop51ColorIndex
 90
      256
102
RTVSPost2010Prop51ColorRGB
 90
-16777216
102
RTVSPost2010PropOp51
 70
     0
102
RTVSPost2010Prop52
140
1.0
102
RTVSPost2010PropOp52
 70
     0
102
RTVSPost2010Prop53
 90
        2
102
RTVSPost2010PropOp53
 70
     0
102
RTVSPost2010Prop54
  1
strokes_ogs.tif
102
RTVSPost2010PropOp54
 70
     0
102
RTVSPost2010Prop55
280
     0
102
RTVSPost2010PropOp55
 70
     0
102
RTVSPost2010Prop56
140
1.0
102
RTVSPost2010PropOp56
 70
     0
102
RTVSPost2010Prop57
140
1.0
102
RTVSPost2010PropOp57
 70
     0
  0
XRECORD
  5
435
102
{ACAD_REACTORS
330
434
102
}
330
434
100
AcDbXrecord
280
     1
102
RTVSPropertyOp0
 70
     1
102
RTVSPropertyOp1
 70
     1
102
RTVSPropertyOp2
 70
     1
102
RTVSPropertyOp3
 70
     1
102
RTVSPropertyOp4
 70
     1
102
RTVSPropertyOp5
 70
     1
102
RTVSPropertyOp6
 70
     1
102
RTVSPropertyOp7
 70
     1
102
RTVSPropertyOp8
 70
     1
102
RTVSPropertyOp9
 70
     1
102
RTVSPropertyOp10
 70
     1
102
RTVSPropertyOp11
 70
     1
102
RTVSPropertyOp12
 70
     1
102
RTVSPropertyOp13
 70
     1
102
RTVSPropertyOp14
 70
     1
102
RTVSPropertyOp15
 70
     1
102
RTVSPropertyOp16
 70
     1
102
RTVSPropertyOp17
 70
     1
102
RTVSPropertyOp18
 70
     1
102
RTVSPropertyOp19
 70
     1
102
RTVSPropertyOp20
 70
     1
102
RTVSPropertyOp21
 70
     1
102
RTVSPropertyOp22
 70
     1
102
RTVSPropertyOp23
 70
     1
102
RTVSPropertyOp24
 70
     1
102
RTVSPropertyOp25
 70
     1
102
RTVSPropertyOp26
 70
     1
102
RTVSPropertyOp27
 70
     1
102
RTVSPropertyOp28
 70
     1
102
RTVSPropertyOp29
 70
     1
102
RTVSPropertyOp30
 70
     1
102
RTVSPropertyOp31
 70
     1
102
RTVSPropertyOp32
 70
     1
102
RTVSPropertyOp33
 70
     1
102
RTVSPropertyOp34
 70
     1
102
RTVSPropertyOp35
 70
     1
102
RTVSPropertyOp36
 70
     1
102
RTVSPropertyOp37
 70
     1
102
RTVSPropertyOp38
 70
     1
102
RTVSPropertyOp39
 70
     1
102
RTVSPropertyOp40
 70
     1
102
RTVSPropertyOp41
 70
     1
102
RTVSPropertyOp42
 70
     1
102
RTVSPropertyOp43
 70
     1
102
RTVSPropertyOp44
 70
     1
102
RTVSPropertyOp45
 70
     1
102
RTVSPropertyOp46
 70
     1
102
RTVSPropertyOp47
 70
     1
102
RTVSPropertyOp48
 70
     1
102
RTVSPropertyOp49
 70
     1
102
RTVSPropertyOp50
 70
     1
102
RTVSPropertyOp51
 70
     0
102
RTVSPropertyOp52
 70
     0
102
RTVSPropertyOp53
 70
     1
102
RTVSPropertyOp54
 70
     1
102
RTVSPropertyOp55
 70
     1
102
RTVSPropertyOp56
 70
     1
102
RTVSPropertyOp57
 70
     1
102
RTVSPost2010Prop28
280
     0
102
RTVSPost2010PropOp28
 70
     1
102
RTVSPost2010Prop29
280
     1
102
RTVSPost2010PropOp29
 70
     1
102
RTVSPost2010Prop30
280
     1
102
RTVSPost2010PropOp30
 70
     1
102
RTVSPost2010Prop31
280
     0
102
RTVSPost2010PropOp31
 70
     1
102
RTVSPost2010Prop32
280
     0
102
RTVSPost2010PropOp32
 70
     1
102
RTVSPost2010Prop33
280
     0
102
RTVSPost2010PropOp33
 70
     1
102
RTVSPost2010Prop34
280
     0
102
RTVSPost2010PropOp34
 70
     1
102
RTVSPost2010Prop35
280
     0
102
RTVSPost2010PropOp35
 70
     1
102
RTVSPost2010Prop36
280
     0
102
RTVSPost2010PropOp36
 70
     1
102
RTVSPost2010Prop37
 90
       50
102
RTVSPost2010PropOp37
 70
     1
102
RTVSPost2010Prop38
140
0.0
102
RTVSPost2010PropOp38
 70
     1
102
RTVSPost2010Prop39
140
1.0
102
RTVSPost2010PropOp39
 70
     1
102
RTVSPost2010Prop40
 90
        0
102
RTVSPost2010PropOp40
 70
     1
102
RTVSPost2010Prop41ColorIndex
 90
       18
102
RTVSPost2010Prop41ColorRGB
 90
        0
102
RTVSPost2010PropOp41
 70
     1
102
RTVSPost2010Prop42
 90
       50
102
RTVSPost2010PropOp42
 70
     1
102
RTVSPost2010Prop43
 90
        3
102
RTVSPost2010PropOp43
 70
     1
102
RTVSPost2010Prop44ColorIndex
 90
        5
102
RTVSPost2010Prop44ColorRGB
 90
      255
102
RTVSPost2010PropOp44
 70
     1
102
RTVSPost2010Prop45
280
     0
102
RTVSPost2010PropOp45
 70
     1
102
RTVSPost2010Prop46
 90
       50
102
RTVSPost2010PropOp46
 70
     1
102
RTVSPost2010Prop47
 90
       50
102
RTVSPost2010PropOp47
 70
     1
102
RTVSPost2010Prop48
 90
       50
102
RTVSPost2010PropOp48
 70
     1
102
RTVSPost2010Prop49
280
     0
102
RTVSPost2010PropOp49
 70
     1
102
RTVSPost2010Prop50
 90
       50
102
RTVSPost2010PropOp50
 70
     1
102
RTVSPost2010Prop51ColorIndex
 90
      256
102
RTVSPost2010Prop51ColorRGB
 90
-16777216
102
RTVSPost2010PropOp51
 70
     0
102
RTVSPost2010Prop52
140
1.0
102
RTVSPost2010PropOp52
 70
     0
102
RTVSPost2010Prop53
 90
        2
102
RTVSPost2010PropOp53
 70
     1
102
RTVSPost2010Prop54
  1
strokes_ogs.tif
102
RTVSPost2010PropOp54
 70
     1
102
RTVSPost2010Prop55
280
     0
102
RTVSPost2010PropOp55
 70
     1
102
RTVSPost2010Prop56
140
1.0
102
RTVSPost2010PropOp56
 70
     1
102
RTVSPost2010Prop57
140
1.0
102
RTVSPost2010PropOp57
 70
     1
  0
XRECORD
  5
43D
102
{ACAD_REACTORS
330
43C
102
}
330
43C
100
AcDbXrecord
280
     1
102
RTVSPropertyOp0
 70
     0
102
RTVSPropertyOp1
 70
     0
102
RTVSPropertyOp2
 70
     0
102
RTVSPropertyOp3
 70
     0
102
RTVSPropertyOp4
 70
     0
102
RTVSPropertyOp5
 70
     0
102
RTVSPropertyOp6
 70
     0
102
RTVSPropertyOp7
 70
     0
102
RTVSPropertyOp8
 70
     0
102
RTVSPropertyOp9
 70
     0
102
RTVSPropertyOp10
 70
     0
102
RTVSPropertyOp11
 70
     0
102
RTVSPropertyOp12
 70
     0
102
RTVSPropertyOp13
 70
     0
102
RTVSPropertyOp14
 70
     2
102
RTVSPropertyOp15
 70
     0
102
RTVSPropertyOp16
 70
     0
102
RTVSPropertyOp17
 70
     0
102
RTVSPropertyOp18
 70
     0
102
RTVSPropertyOp19
 70
     0
102
RTVSPropertyOp20
 70
     0
102
RTVSPropertyOp21
 70
     0
102
RTVSPropertyOp22
 70
     0
102
RTVSPropertyOp23
 70
     0
102
RTVSPropertyOp24
 70
     0
102
RTVSPropertyOp25
 70
     0
102
RTVSPropertyOp26
 70
     0
102
RTVSPropertyOp27
 70
     0
102
RTVSPropertyOp28
 70
     0
102
RTVSPropertyOp29
 70
     0
102
RTVSPropertyOp30
 70
     0
102
RTVSPropertyOp31
 70
     0
102
RTVSPropertyOp32
 70
     0
102
RTVSPropertyOp33
 70
     0
102
RTVSPropertyOp34
 70
     0
102
RTVSPropertyOp35
 70
     0
102
RTVSPropertyOp36
 70
     0
102
RTVSPropertyOp37
 70
     0
102
RTVSPropertyOp38
 70
     0
102
RTVSPropertyOp39
 70
     0
102
RTVSPropertyOp40
 70
     0
102
RTVSPropertyOp41
 70
     0
102
RTVSPropertyOp42
 70
     0
102
RTVSPropertyOp43
 70
     0
102
RTVSPropertyOp44
 70
     0
102
RTVSPropertyOp45
 70
     0
102
RTVSPropertyOp46
 70
     0
102
RTVSPropertyOp47
 70
     0
102
RTVSPropertyOp48
 70
     0
102
RTVSPropertyOp49
 70
     0
102
RTVSPropertyOp50
 70
     0
102
RTVSPropertyOp51
 70
     0
102
RTVSPropertyOp52
 70
     0
102
RTVSPropertyOp53
 70
     0
102
RTVSPropertyOp54
 70
     0
102
RTVSPropertyOp55
 70
     0
102
RTVSPropertyOp56
 70
     0
102
RTVSPropertyOp57
 70
     0
102
RTVSPost2010Prop28
280
     0
102
RTVSPost2010PropOp28
 70
     0
102
RTVSPost2010Prop29
280
     1
102
RTVSPost2010PropOp29
 70
     0
102
RTVSPost2010Prop30
280
     1
102
RTVSPost2010PropOp30
 70
     0
102
RTVSPost2010Prop31
280
     0
102
RTVSPost2010PropOp31
 70
     0
102
RTVSPost2010Prop32
280
     0
102
RTVSPost2010PropOp32
 70
     0
102
RTVSPost2010Prop33
280
     0
102
RTVSPost2010PropOp33
 70
     0
102
RTVSPost2010Prop34
280
     0
102
RTVSPost2010PropOp34
 70
     0
102
RTVSPost2010Prop35
280
     0
102
RTVSPost2010PropOp35
 70
     0
102
RTVSPost2010Prop36
280
     0
102
RTVSPost2010PropOp36
 70
     0
102
RTVSPost2010Prop37
 90
       50
102
RTVSPost2010PropOp37
 70
     0
102
RTVSPost2010Prop38
140
0.0
102
RTVSPost2010PropOp38
 70
     0
102
RTVSPost2010Prop39
140
1.0
102
RTVSPost2010PropOp39
 70
     0
102
RTVSPost2010Prop40
 90
        0
102
RTVSPost2010PropOp40
 70
     0
102
RTVSPost2010Prop41ColorIndex
 90
       18
102
RTVSPost2010Prop41ColorRGB
 90
        0
102
RTVSPost2010PropOp41
 70
     0
102
RTVSPost2010Prop42
 90
       50
102
RTVSPost2010PropOp42
 70
     0
102
RTVSPost2010Prop43
 90
        3
102
RTVSPost2010PropOp43
 70
     0
102
RTVSPost2010Prop44ColorIndex
 90
        5
102
RTVSPost2010Prop44ColorRGB
 90
      255
102
RTVSPost2010PropOp44
 70
     0
102
RTVSPost2010Prop45
280
     0
102
RTVSPost2010PropOp45
 70
     0
102
RTVSPost2010Prop46
 90
       50
102
RTVSPost2010PropOp46
 70
     0
102
RTVSPost2010Prop47
 90
       50
102
RTVSPost2010PropOp47
 70
     0
102
RTVSPost2010Prop48
 90
       50
102
RTVSPost2010PropOp48
 70
     0
102
RTVSPost2010Prop49
280
     0
102
RTVSPost2010PropOp49
 70
     0
102
RTVSPost2010Prop50
 90
       50
102
RTVSPost2010PropOp50
 70
     0
102
RTVSPost2010Prop51ColorIndex
 90
      256
102
RTVSPost2010Prop51ColorRGB
 90
-16777216
102
RTVSPost2010PropOp51
 70
     0
102
RTVSPost2010Prop52
140
1.0
102
RTVSPost2010PropOp52
 70
     0
102
RTVSPost2010Prop53
 90
        2
102
RTVSPost2010PropOp53
 70
     0
102
RTVSPost2010Prop54
  1
strokes_ogs.tif
102
RTVSPost2010PropOp54
 70
     0
102
RTVSPost2010Prop55
280
     0
102
RTVSPost2010PropOp55
 70
     0
102
RTVSPost2010Prop56
140
1.0
102
RTVSPost2010PropOp56
 70
     0
102
RTVSPost2010Prop57
140
1.0
102
RTVSPost2010PropOp57
 70
     0
  0
XRECORD
  5
42B
102
{ACAD_REACTORS
330
42A
102
}
330
42A
100
AcDbXrecord
280
     1
102
RTVSPropertyOp0
 70
     1
102
RTVSPropertyOp1
 70
     1
102
RTVSPropertyOp2
 70
     1
102
RTVSPropertyOp3
 70
     1
102
RTVSPropertyOp4
 70
     1
102
RTVSPropertyOp5
 70
     1
102
RTVSPropertyOp6
 70
     1
102
RTVSPropertyOp7
 70
     1
102
RTVSPropertyOp8
 70
     1
102
RTVSPropertyOp9
 70
     1
102
RTVSPropertyOp10
 70
     1
102
RTVSPropertyOp11
 70
     1
102
RTVSPropertyOp12
 70
     1
102
RTVSPropertyOp13
 70
     1
102
RTVSPropertyOp14
 70
     1
102
RTVSPropertyOp15
 70
     1
102
RTVSPropertyOp16
 70
     1
102
RTVSPropertyOp17
 70
     1
102
RTVSPropertyOp18
 70
     1
102
RTVSPropertyOp19
 70
     1
102
RTVSPropertyOp20
 70
     1
102
RTVSPropertyOp21
 70
     1
102
RTVSPropertyOp22
 70
     1
102
RTVSPropertyOp23
 70
     1
102
RTVSPropertyOp24
 70
     1
102
RTVSPropertyOp25
 70
     1
102
RTVSPropertyOp26
 70
     1
102
RTVSPropertyOp27
 70
     1
102
RTVSPropertyOp28
 70
     1
102
RTVSPropertyOp29
 70
     1
102
RTVSPropertyOp30
 70
     1
102
RTVSPropertyOp31
 70
     1
102
RTVSPropertyOp32
 70
     1
102
RTVSPropertyOp33
 70
     1
102
RTVSPropertyOp34
 70
     1
102
RTVSPropertyOp35
 70
     1
102
RTVSPropertyOp36
 70
     1
102
RTVSPropertyOp37
 70
     1
102
RTVSPropertyOp38
 70
     1
102
RTVSPropertyOp39
 70
     1
102
RTVSPropertyOp40
 70
     1
102
RTVSPropertyOp41
 70
     1
102
RTVSPropertyOp42
 70
     1
102
RTVSPropertyOp43
 70
     1
102
RTVSPropertyOp44
 70
     1
102
RTVSPropertyOp45
 70
     1
102
RTVSPropertyOp46
 70
     1
102
RTVSPropertyOp47
 70
     1
102
RTVSPropertyOp48
 70
     1
102
RTVSPropertyOp49
 70
     1
102
RTVSPropertyOp50
 70
     1
102
RTVSPropertyOp51
 70
     0
102
RTVSPropertyOp52
 70
     0
102
RTVSPropertyOp53
 70
     1
102
RTVSPropertyOp54
 70
     1
102
RTVSPropertyOp55
 70
     1
102
RTVSPropertyOp56
 70
     1
102
RTVSPropertyOp57
 70
     1
102
RTVSPost2010Prop28
280
     0
102
RTVSPost2010PropOp28
 70
     1
102
RTVSPost2010Prop29
280
     1
102
RTVSPost2010PropOp29
 70
     1
102
RTVSPost2010Prop30
280
     1
102
RTVSPost2010PropOp30
 70
     1
102
RTVSPost2010Prop31
280
     0
102
RTVSPost2010PropOp31
 70
     1
102
RTVSPost2010Prop32
280
     0
102
RTVSPost2010PropOp32
 70
     1
102
RTVSPost2010Prop33
280
     0
102
RTVSPost2010PropOp33
 70
     1
102
RTVSPost2010Prop34
280
     0
102
RTVSPost2010PropOp34
 70
     1
102
RTVSPost2010Prop35
280
     0
102
RTVSPost2010PropOp35
 70
     1
102
RTVSPost2010Prop36
280
     0
102
RTVSPost2010PropOp36
 70
     1
102
RTVSPost2010Prop37
 90
       50
102
RTVSPost2010PropOp37
 70
     1
102
RTVSPost2010Prop38
140
0.0
102
RTVSPost2010PropOp38
 70
     1
102
RTVSPost2010Prop39
140
1.0
102
RTVSPost2010PropOp39
 70
     1
102
RTVSPost2010Prop40
 90
        0
102
RTVSPost2010PropOp40
 70
     1
102
RTVSPost2010Prop41ColorIndex
 90
       18
102
RTVSPost2010Prop41ColorRGB
 90
        0
102
RTVSPost2010PropOp41
 70
     1
102
RTVSPost2010Prop42
 90
       50
102
RTVSPost2010PropOp42
 70
     1
102
RTVSPost2010Prop43
 90
        3
102
RTVSPost2010PropOp43
 70
     1
102
RTVSPost2010Prop44ColorIndex
 90
        5
102
RTVSPost2010Prop44ColorRGB
 90
      255
102
RTVSPost2010PropOp44
 70
     1
102
RTVSPost2010Prop45
280
     0
102
RTVSPost2010PropOp45
 70
     1
102
RTVSPost2010Prop46
 90
       50
102
RTVSPost2010PropOp46
 70
     1
102
RTVSPost2010Prop47
 90
       50
102
RTVSPost2010PropOp47
 70
     1
102
RTVSPost2010Prop48
 90
       50
102
RTVSPost2010PropOp48
 70
     1
102
RTVSPost2010Prop49
280
     0
102
RTVSPost2010PropOp49
 70
     1
102
RTVSPost2010Prop50
 90
       50
102
RTVSPost2010PropOp50
 70
     1
102
RTVSPost2010Prop51ColorIndex
 90
      256
102
RTVSPost2010Prop51ColorRGB
 90
-16777216
102
RTVSPost2010PropOp51
 70
     0
102
RTVSPost2010Prop52
140
1.0
102
RTVSPost2010PropOp52
 70
     0
102
RTVSPost2010Prop53
 90
        2
102
RTVSPost2010PropOp53
 70
     1
102
RTVSPost2010Prop54
  1
strokes_ogs.tif
102
RTVSPost2010PropOp54
 70
     1
102
RTVSPost2010Prop55
280
     0
102
RTVSPost2010PropOp55
 70
     1
102
RTVSPost2010Prop56
140
1.0
102
RTVSPost2010PropOp56
 70
     1
102
RTVSPost2010Prop57
140
1.0
102
RTVSPost2010PropOp57
 70
     1
  0
XRECORD
  5
449
102
{ACAD_REACTORS
330
448
102
}
330
448
100
AcDbXrecord
280
     1
102
RTVSPropertyOp0
 70
     1
102
RTVSPropertyOp1
 70
     1
102
RTVSPropertyOp2
 70
     1
102
RTVSPropertyOp3
 70
     1
102
RTVSPropertyOp4
 70
     1
102
RTVSPropertyOp5
 70
     1
102
RTVSPropertyOp6
 70
     1
102
RTVSPropertyOp7
 70
     1
102
RTVSPropertyOp8
 70
     1
102
RTVSPropertyOp9
 70
     1
102
RTVSPropertyOp10
 70
     1
102
RTVSPropertyOp11
 70
     1
102
RTVSPropertyOp12
 70
     1
102
RTVSPropertyOp13
 70
     1
102
RTVSPropertyOp14
 70
     1
102
RTVSPropertyOp15
 70
     1
102
RTVSPropertyOp16
 70
     1
102
RTVSPropertyOp17
 70
     1
102
RTVSPropertyOp18
 70
     1
102
RTVSPropertyOp19
 70
     1
102
RTVSPropertyOp20
 70
     1
102
RTVSPropertyOp21
 70
     1
102
RTVSPropertyOp22
 70
     1
102
RTVSPropertyOp23
 70
     1
102
RTVSPropertyOp24
 70
     1
102
RTVSPropertyOp25
 70
     1
102
RTVSPropertyOp26
 70
     1
102
RTVSPropertyOp27
 70
     1
102
RTVSPropertyOp28
 70
     1
102
RTVSPropertyOp29
 70
     1
102
RTVSPropertyOp30
 70
     1
102
RTVSPropertyOp31
 70
     1
102
RTVSPropertyOp32
 70
     1
102
RTVSPropertyOp33
 70
     1
102
RTVSPropertyOp34
 70
     1
102
RTVSPropertyOp35
 70
     1
102
RTVSPropertyOp36
 70
     1
102
RTVSPropertyOp37
 70
     1
102
RTVSPropertyOp38
 70
     1
102
RTVSPropertyOp39
 70
     1
102
RTVSPropertyOp40
 70
     1
102
RTVSPropertyOp41
 70
     1
102
RTVSPropertyOp42
 70
     1
102
RTVSPropertyOp43
 70
     1
102
RTVSPropertyOp44
 70
     1
102
RTVSPropertyOp45
 70
     1
102
RTVSPropertyOp46
 70
     1
102
RTVSPropertyOp47
 70
     1
102
RTVSPropertyOp48
 70
     1
102
RTVSPropertyOp49
 70
     1
102
RTVSPropertyOp50
 70
     1
102
RTVSPropertyOp51
 70
     0
102
RTVSPropertyOp52
 70
     0
102
RTVSPropertyOp53
 70
     1
102
RTVSPropertyOp54
 70
     1
102
RTVSPropertyOp55
 70
     1
102
RTVSPropertyOp56
 70
     1
102
RTVSPropertyOp57
 70
     1
102
RTVSPost2010Prop28
280
     0
102
RTVSPost2010PropOp28
 70
     1
102
RTVSPost2010Prop29
280
     1
102
RTVSPost2010PropOp29
 70
     1
102
RTVSPost2010Prop30
280
     1
102
RTVSPost2010PropOp30
 70
     1
102
RTVSPost2010Prop31
280
     0
102
RTVSPost2010PropOp31
 70
     1
102
RTVSPost2010Prop32
280
     0
102
RTVSPost2010PropOp32
 70
     1
102
RTVSPost2010Prop33
280
     0
102
RTVSPost2010PropOp33
 70
     1
102
RTVSPost2010Prop34
280
     0
102
RTVSPost2010PropOp34
 70
     1
102
RTVSPost2010Prop35
280
     0
102
RTVSPost2010PropOp35
 70
     1
102
RTVSPost2010Prop36
280
     0
102
RTVSPost2010PropOp36
 70
     1
102
RTVSPost2010Prop37
 90
       50
102
RTVSPost2010PropOp37
 70
     1
102
RTVSPost2010Prop38
140
0.0
102
RTVSPost2010PropOp38
 70
     1
102
RTVSPost2010Prop39
140
1.0
102
RTVSPost2010PropOp39
 70
     1
102
RTVSPost2010Prop40
 90
        0
102
RTVSPost2010PropOp40
 70
     1
102
RTVSPost2010Prop41ColorIndex
 90
       18
102
RTVSPost2010Prop41ColorRGB
 90
        0
102
RTVSPost2010PropOp41
 70
     1
102
RTVSPost2010Prop42
 90
       50
102
RTVSPost2010PropOp42
 70
     1
102
RTVSPost2010Prop43
 90
        3
102
RTVSPost2010PropOp43
 70
     1
102
RTVSPost2010Prop44ColorIndex
 90
        5
102
RTVSPost2010Prop44ColorRGB
 90
      255
102
RTVSPost2010PropOp44
 70
     1
102
RTVSPost2010Prop45
280
     0
102
RTVSPost2010PropOp45
 70
     1
102
RTVSPost2010Prop46
 90
       50
102
RTVSPost2010PropOp46
 70
     1
102
RTVSPost2010Prop47
 90
       50
102
RTVSPost2010PropOp47
 70
     1
102
RTVSPost2010Prop48
 90
       50
102
RTVSPost2010PropOp48
 70
     1
102
RTVSPost2010Prop49
280
     0
102
RTVSPost2010PropOp49
 70
     1
102
RTVSPost2010Prop50
 90
       50
102
RTVSPost2010PropOp50
 70
     1
102
RTVSPost2010Prop51ColorIndex
 90
      256
102
RTVSPost2010Prop51ColorRGB
 90
-16777216
102
RTVSPost2010PropOp51
 70
     0
102
RTVSPost2010Prop52
140
1.0
102
RTVSPost2010PropOp52
 70
     0
102
RTVSPost2010Prop53
 90
        2
102
RTVSPost2010PropOp53
 70
     1
102
RTVSPost2010Prop54
  1
strokes_ogs.tif
102
RTVSPost2010PropOp54
 70
     1
102
RTVSPost2010Prop55
280
     0
102
RTVSPost2010PropOp55
 70
     1
102
RTVSPost2010Prop56
140
1.0
102
RTVSPost2010PropOp56
 70
     1
102
RTVSPost2010Prop57
140
1.0
102
RTVSPost2010PropOp57
 70
     1
  0
XRECORD
  5
447
102
{ACAD_REACTORS
330
446
102
}
330
446
100
AcDbXrecord
280
     1
102
RTVSPropertyOp0
 70
     1
102
RTVSPropertyOp1
 70
     1
102
RTVSPropertyOp2
 70
     1
102
RTVSPropertyOp3
 70
     1
102
RTVSPropertyOp4
 70
     1
102
RTVSPropertyOp5
 70
     1
102
RTVSPropertyOp6
 70
     1
102
RTVSPropertyOp7
 70
     1
102
RTVSPropertyOp8
 70
     1
102
RTVSPropertyOp9
 70
     1
102
RTVSPropertyOp10
 70
     1
102
RTVSPropertyOp11
 70
     1
102
RTVSPropertyOp12
 70
     1
102
RTVSPropertyOp13
 70
     1
102
RTVSPropertyOp14
 70
     1
102
RTVSPropertyOp15
 70
     1
102
RTVSPropertyOp16
 70
     1
102
RTVSPropertyOp17
 70
     1
102
RTVSPropertyOp18
 70
     1
102
RTVSPropertyOp19
 70
     1
102
RTVSPropertyOp20
 70
     1
102
RTVSPropertyOp21
 70
     1
102
RTVSPropertyOp22
 70
     1
102
RTVSPropertyOp23
 70
     1
102
RTVSPropertyOp24
 70
     1
102
RTVSPropertyOp25
 70
     1
102
RTVSPropertyOp26
 70
     1
102
RTVSPropertyOp27
 70
     1
102
RTVSPropertyOp28
 70
     1
102
RTVSPropertyOp29
 70
     1
102
RTVSPropertyOp30
 70
     1
102
RTVSPropertyOp31
 70
     1
102
RTVSPropertyOp32
 70
     1
102
RTVSPropertyOp33
 70
     1
102
RTVSPropertyOp34
 70
     1
102
RTVSPropertyOp35
 70
     1
102
RTVSPropertyOp36
 70
     1
102
RTVSPropertyOp37
 70
     1
102
RTVSPropertyOp38
 70
     1
102
RTVSPropertyOp39
 70
     1
102
RTVSPropertyOp40
 70
     1
102
RTVSPropertyOp41
 70
     1
102
RTVSPropertyOp42
 70
     1
102
RTVSPropertyOp43
 70
     1
102
RTVSPropertyOp44
 70
     1
102
RTVSPropertyOp45
 70
     1
102
RTVSPropertyOp46
 70
     1
102
RTVSPropertyOp47
 70
     1
102
RTVSPropertyOp48
 70
     1
102
RTVSPropertyOp49
 70
     1
102
RTVSPropertyOp50
 70
     1
102
RTVSPropertyOp51
 70
     0
102
RTVSPropertyOp52
 70
     0
102
RTVSPropertyOp53
 70
     1
102
RTVSPropertyOp54
 70
     1
102
RTVSPropertyOp55
 70
     1
102
RTVSPropertyOp56
 70
     1
102
RTVSPropertyOp57
 70
     1
102
RTVSPost2010Prop28
280
     0
102
RTVSPost2010PropOp28
 70
     1
102
RTVSPost2010Prop29
280
     1
102
RTVSPost2010PropOp29
 70
     1
102
RTVSPost2010Prop30
280
     1
102
RTVSPost2010PropOp30
 70
     1
102
RTVSPost2010Prop31
280
     0
102
RTVSPost2010PropOp31
 70
     1
102
RTVSPost2010Prop32
280
     0
102
RTVSPost2010PropOp32
 70
     1
102
RTVSPost2010Prop33
280
     0
102
RTVSPost2010PropOp33
 70
     1
102
RTVSPost2010Prop34
280
     0
102
RTVSPost2010PropOp34
 70
     1
102
RTVSPost2010Prop35
280
     0
102
RTVSPost2010PropOp35
 70
     1
102
RTVSPost2010Prop36
280
     0
102
RTVSPost2010PropOp36
 70
     1
102
RTVSPost2010Prop37
 90
       50
102
RTVSPost2010PropOp37
 70
     1
102
RTVSPost2010Prop38
140
0.0
102
RTVSPost2010PropOp38
 70
     1
102
RTVSPost2010Prop39
140
1.0
102
RTVSPost2010PropOp39
 70
     1
102
RTVSPost2010Prop40
 90
        0
102
RTVSPost2010PropOp40
 70
     1
102
RTVSPost2010Prop41ColorIndex
 90
       18
102
RTVSPost2010Prop41ColorRGB
 90
        0
102
RTVSPost2010PropOp41
 70
     1
102
RTVSPost2010Prop42
 90
       50
102
RTVSPost2010PropOp42
 70
     1
102
RTVSPost2010Prop43
 90
        3
102
RTVSPost2010PropOp43
 70
     1
102
RTVSPost2010Prop44ColorIndex
 90
        5
102
RTVSPost2010Prop44ColorRGB
 90
      255
102
RTVSPost2010PropOp44
 70
     1
102
RTVSPost2010Prop45
280
     0
102
RTVSPost2010PropOp45
 70
     1
102
RTVSPost2010Prop46
 90
       50
102
RTVSPost2010PropOp46
 70
     1
102
RTVSPost2010Prop47
 90
       50
102
RTVSPost2010PropOp47
 70
     1
102
RTVSPost2010Prop48
 90
       50
102
RTVSPost2010PropOp48
 70
     1
102
RTVSPost2010Prop49
280
     0
102
RTVSPost2010PropOp49
 70
     1
102
RTVSPost2010Prop50
 90
       50
102
RTVSPost2010PropOp50
 70
     1
102
RTVSPost2010Prop51ColorIndex
 90
      256
102
RTVSPost2010Prop51ColorRGB
 90
-16777216
102
RTVSPost2010PropOp51
 70
     0
102
RTVSPost2010Prop52
140
1.0
102
RTVSPost2010PropOp52
 70
     0
102
RTVSPost2010Prop53
 90
        2
102
RTVSPost2010PropOp53
 70
     1
102
RTVSPost2010Prop54
  1
strokes_ogs.tif
102
RTVSPost2010PropOp54
 70
     1
102
RTVSPost2010Prop55
280
     0
102
RTVSPost2010PropOp55
 70
     1
102
RTVSPost2010Prop56
140
1.0
102
RTVSPost2010PropOp56
 70
     1
102
RTVSPost2010Prop57
140
1.0
102
RTVSPost2010PropOp57
 70
     1
  0
XRECORD
  5
441
102
{ACAD_REACTORS
330
440
102
}
330
440
100
AcDbXrecord
280
     1
102
RTVSPropertyOp0
 70
     1
102
RTVSPropertyOp1
 70
     1
102
RTVSPropertyOp2
 70
     1
102
RTVSPropertyOp3
 70
     1
102
RTVSPropertyOp4
 70
     1
102
RTVSPropertyOp5
 70
     1
102
RTVSPropertyOp6
 70
     1
102
RTVSPropertyOp7
 70
     1
102
RTVSPropertyOp8
 70
     1
102
RTVSPropertyOp9
 70
     1
102
RTVSPropertyOp10
 70
     1
102
RTVSPropertyOp11
 70
     1
102
RTVSPropertyOp12
 70
     1
102
RTVSPropertyOp13
 70
     1
102
RTVSPropertyOp14
 70
     1
102
RTVSPropertyOp15
 70
     1
102
RTVSPropertyOp16
 70
     1
102
RTVSPropertyOp17
 70
     1
102
RTVSPropertyOp18
 70
     1
102
RTVSPropertyOp19
 70
     1
102
RTVSPropertyOp20
 70
     1
102
RTVSPropertyOp21
 70
     1
102
RTVSPropertyOp22
 70
     1
102
RTVSPropertyOp23
 70
     1
102
RTVSPropertyOp24
 70
     1
102
RTVSPropertyOp25
 70
     1
102
RTVSPropertyOp26
 70
     1
102
RTVSPropertyOp27
 70
     1
102
RTVSPropertyOp28
 70
     1
102
RTVSPropertyOp29
 70
     1
102
RTVSPropertyOp30
 70
     1
102
RTVSPropertyOp31
 70
     1
102
RTVSPropertyOp32
 70
     1
102
RTVSPropertyOp33
 70
     1
102
RTVSPropertyOp34
 70
     1
102
RTVSPropertyOp35
 70
     1
102
RTVSPropertyOp36
 70
     1
102
RTVSPropertyOp37
 70
     1
102
RTVSPropertyOp38
 70
     1
102
RTVSPropertyOp39
 70
     1
102
RTVSPropertyOp40
 70
     1
102
RTVSPropertyOp41
 70
     1
102
RTVSPropertyOp42
 70
     1
102
RTVSPropertyOp43
 70
     1
102
RTVSPropertyOp44
 70
     1
102
RTVSPropertyOp45
 70
     1
102
RTVSPropertyOp46
 70
     1
102
RTVSPropertyOp47
 70
     1
102
RTVSPropertyOp48
 70
     1
102
RTVSPropertyOp49
 70
     1
102
RTVSPropertyOp50
 70
     1
102
RTVSPropertyOp51
 70
     0
102
RTVSPropertyOp52
 70
     0
102
RTVSPropertyOp53
 70
     1
102
RTVSPropertyOp54
 70
     1
102
RTVSPropertyOp55
 70
     1
102
RTVSPropertyOp56
 70
     1
102
RTVSPropertyOp57
 70
     1
102
RTVSPost2010Prop28
280
     0
102
RTVSPost2010PropOp28
 70
     1
102
RTVSPost2010Prop29
280
     1
102
RTVSPost2010PropOp29
 70
     1
102
RTVSPost2010Prop30
280
     1
102
RTVSPost2010PropOp30
 70
     1
102
RTVSPost2010Prop31
280
     0
102
RTVSPost2010PropOp31
 70
     1
102
RTVSPost2010Prop32
280
     0
102
RTVSPost2010PropOp32
 70
     1
102
RTVSPost2010Prop33
280
     0
102
RTVSPost2010PropOp33
 70
     1
102
RTVSPost2010Prop34
280
     0
102
RTVSPost2010PropOp34
 70
     1
102
RTVSPost2010Prop35
280
     0
102
RTVSPost2010PropOp35
 70
     1
102
RTVSPost2010Prop36
280
     0
102
RTVSPost2010PropOp36
 70
     1
102
RTVSPost2010Prop37
 90
       50
102
RTVSPost2010PropOp37
 70
     1
102
RTVSPost2010Prop38
140
0.0
102
RTVSPost2010PropOp38
 70
     1
102
RTVSPost2010Prop39
140
1.0
102
RTVSPost2010PropOp39
 70
     1
102
RTVSPost2010Prop40
 90
        0
102
RTVSPost2010PropOp40
 70
     1
102
RTVSPost2010Prop41ColorIndex
 90
       18
102
RTVSPost2010Prop41ColorRGB
 90
        0
102
RTVSPost2010PropOp41
 70
     1
102
RTVSPost2010Prop42
 90
       50
102
RTVSPost2010PropOp42
 70
     1
102
RTVSPost2010Prop43
 90
        3
102
RTVSPost2010PropOp43
 70
     1
102
RTVSPost2010Prop44ColorIndex
 90
        5
102
RTVSPost2010Prop44ColorRGB
 90
      255
102
RTVSPost2010PropOp44
 70
     1
102
RTVSPost2010Prop45
280
     0
102
RTVSPost2010PropOp45
 70
     1
102
RTVSPost2010Prop46
 90
       50
102
RTVSPost2010PropOp46
 70
     1
102
RTVSPost2010Prop47
 90
       50
102
RTVSPost2010PropOp47
 70
     1
102
RTVSPost2010Prop48
 90
       50
102
RTVSPost2010PropOp48
 70
     1
102
RTVSPost2010Prop49
280
     0
102
RTVSPost2010PropOp49
 70
     1
102
RTVSPost2010Prop50
 90
       50
102
RTVSPost2010PropOp50
 70
     1
102
RTVSPost2010Prop51ColorIndex
 90
      256
102
RTVSPost2010Prop51ColorRGB
 90
-16777216
102
RTVSPost2010PropOp51
 70
     0
102
RTVSPost2010Prop52
140
1.0
102
RTVSPost2010PropOp52
 70
     0
102
RTVSPost2010Prop53
 90
        2
102
RTVSPost2010PropOp53
 70
     1
102
RTVSPost2010Prop54
  1
strokes_ogs.tif
102
RTVSPost2010PropOp54
 70
     1
102
RTVSPost2010Prop55
280
     0
102
RTVSPost2010PropOp55
 70
     1
102
RTVSPost2010Prop56
140
1.0
102
RTVSPost2010PropOp56
 70
     1
102
RTVSPost2010Prop57
140
1.0
102
RTVSPost2010PropOp57
 70
     1
  0
XRECORD
  5
443
102
{ACAD_REACTORS
330
442
102
}
330
442
100
AcDbXrecord
280
     1
102
RTVSPropertyOp0
 70
     1
102
RTVSPropertyOp1
 70
     1
102
RTVSPropertyOp2
 70
     1
102
RTVSPropertyOp3
 70
     1
102
RTVSPropertyOp4
 70
     1
102
RTVSPropertyOp5
 70
     1
102
RTVSPropertyOp6
 70
     1
102
RTVSPropertyOp7
 70
     1
102
RTVSPropertyOp8
 70
     1
102
RTVSPropertyOp9
 70
     1
102
RTVSPropertyOp10
 70
     1
102
RTVSPropertyOp11
 70
     1
102
RTVSPropertyOp12
 70
     1
102
RTVSPropertyOp13
 70
     1
102
RTVSPropertyOp14
 70
     1
102
RTVSPropertyOp15
 70
     1
102
RTVSPropertyOp16
 70
     1
102
RTVSPropertyOp17
 70
     1
102
RTVSPropertyOp18
 70
     1
102
RTVSPropertyOp19
 70
     1
102
RTVSPropertyOp20
 70
     1
102
RTVSPropertyOp21
 70
     1
102
RTVSPropertyOp22
 70
     1
102
RTVSPropertyOp23
 70
     1
102
RTVSPropertyOp24
 70
     1
102
RTVSPropertyOp25
 70
     1
102
RTVSPropertyOp26
 70
     1
102
RTVSPropertyOp27
 70
     1
102
RTVSPropertyOp28
 70
     1
102
RTVSPropertyOp29
 70
     1
102
RTVSPropertyOp30
 70
     1
102
RTVSPropertyOp31
 70
     1
102
RTVSPropertyOp32
 70
     1
102
RTVSPropertyOp33
 70
     1
102
RTVSPropertyOp34
 70
     1
102
RTVSPropertyOp35
 70
     1
102
RTVSPropertyOp36
 70
     1
102
RTVSPropertyOp37
 70
     1
102
RTVSPropertyOp38
 70
     1
102
RTVSPropertyOp39
 70
     1
102
RTVSPropertyOp40
 70
     1
102
RTVSPropertyOp41
 70
     1
102
RTVSPropertyOp42
 70
     1
102
RTVSPropertyOp43
 70
     1
102
RTVSPropertyOp44
 70
     1
102
RTVSPropertyOp45
 70
     1
102
RTVSPropertyOp46
 70
     1
102
RTVSPropertyOp47
 70
     1
102
RTVSPropertyOp48
 70
     1
102
RTVSPropertyOp49
 70
     1
102
RTVSPropertyOp50
 70
     1
102
RTVSPropertyOp51
 70
     0
102
RTVSPropertyOp52
 70
     0
102
RTVSPropertyOp53
 70
     1
102
RTVSPropertyOp54
 70
     1
102
RTVSPropertyOp55
 70
     1
102
RTVSPropertyOp56
 70
     1
102
RTVSPropertyOp57
 70
     1
102
RTVSPost2010Prop28
280
     0
102
RTVSPost2010PropOp28
 70
     1
102
RTVSPost2010Prop29
280
     1
102
RTVSPost2010PropOp29
 70
     1
102
RTVSPost2010Prop30
280
     1
102
RTVSPost2010PropOp30
 70
     1
102
RTVSPost2010Prop31
280
     0
102
RTVSPost2010PropOp31
 70
     1
102
RTVSPost2010Prop32
280
     0
102
RTVSPost2010PropOp32
 70
     1
102
RTVSPost2010Prop33
280
     0
102
RTVSPost2010PropOp33
 70
     1
102
RTVSPost2010Prop34
280
     0
102
RTVSPost2010PropOp34
 70
     1
102
RTVSPost2010Prop35
280
     0
102
RTVSPost2010PropOp35
 70
     1
102
RTVSPost2010Prop36
280
     0
102
RTVSPost2010PropOp36
 70
     1
102
RTVSPost2010Prop37
 90
       50
102
RTVSPost2010PropOp37
 70
     1
102
RTVSPost2010Prop38
140
0.0
102
RTVSPost2010PropOp38
 70
     1
102
RTVSPost2010Prop39
140
1.0
102
RTVSPost2010PropOp39
 70
     1
102
RTVSPost2010Prop40
 90
        0
102
RTVSPost2010PropOp40
 70
     1
102
RTVSPost2010Prop41ColorIndex
 90
       18
102
RTVSPost2010Prop41ColorRGB
 90
        0
102
RTVSPost2010PropOp41
 70
     1
102
RTVSPost2010Prop42
 90
       50
102
RTVSPost2010PropOp42
 70
     1
102
RTVSPost2010Prop43
 90
        3
102
RTVSPost2010PropOp43
 70
     1
102
RTVSPost2010Prop44ColorIndex
 90
        5
102
RTVSPost2010Prop44ColorRGB
 90
      255
102
RTVSPost2010PropOp44
 70
     1
102
RTVSPost2010Prop45
280
     0
102
RTVSPost2010PropOp45
 70
     1
102
RTVSPost2010Prop46
 90
       50
102
RTVSPost2010PropOp46
 70
     1
102
RTVSPost2010Prop47
 90
       50
102
RTVSPost2010PropOp47
 70
     1
102
RTVSPost2010Prop48
 90
       50
102
RTVSPost2010PropOp48
 70
     1
102
RTVSPost2010Prop49
280
     0
102
RTVSPost2010PropOp49
 70
     1
102
RTVSPost2010Prop50
 90
       50
102
RTVSPost2010PropOp50
 70
     1
102
RTVSPost2010Prop51ColorIndex
 90
      256
102
RTVSPost2010Prop51ColorRGB
 90
-16777216
102
RTVSPost2010PropOp51
 70
     0
102
RTVSPost2010Prop52
140
1.0
102
RTVSPost2010PropOp52
 70
     0
102
RTVSPost2010Prop53
 90
        2
102
RTVSPost2010PropOp53
 70
     1
102
RTVSPost2010Prop54
  1
strokes_ogs.tif
102
RTVSPost2010PropOp54
 70
     1
102
RTVSPost2010Prop55
280
     0
102
RTVSPost2010PropOp55
 70
     1
102
RTVSPost2010Prop56
140
1.0
102
RTVSPost2010PropOp56
 70
     1
102
RTVSPost2010Prop57
140
1.0
102
RTVSPost2010PropOp57
 70
     1
  0
XRECORD
  5
433
102
{ACAD_REACTORS
330
432
102
}
330
432
100
AcDbXrecord
280
     1
102
RTVSPropertyOp0
 70
     1
102
RTVSPropertyOp1
 70
     1
102
RTVSPropertyOp2
 70
     1
102
RTVSPropertyOp3
 70
     1
102
RTVSPropertyOp4
 70
     1
102
RTVSPropertyOp5
 70
     1
102
RTVSPropertyOp6
 70
     1
102
RTVSPropertyOp7
 70
     1
102
RTVSPropertyOp8
 70
     1
102
RTVSPropertyOp9
 70
     1
102
RTVSPropertyOp10
 70
     1
102
RTVSPropertyOp11
 70
     1
102
RTVSPropertyOp12
 70
     1
102
RTVSPropertyOp13
 70
     1
102
RTVSPropertyOp14
 70
     1
102
RTVSPropertyOp15
 70
     1
102
RTVSPropertyOp16
 70
     1
102
RTVSPropertyOp17
 70
     1
102
RTVSPropertyOp18
 70
     1
102
RTVSPropertyOp19
 70
     1
102
RTVSPropertyOp20
 70
     1
102
RTVSPropertyOp21
 70
     1
102
RTVSPropertyOp22
 70
     1
102
RTVSPropertyOp23
 70
     1
102
RTVSPropertyOp24
 70
     1
102
RTVSPropertyOp25
 70
     1
102
RTVSPropertyOp26
 70
     1
102
RTVSPropertyOp27
 70
     1
102
RTVSPropertyOp28
 70
     1
102
RTVSPropertyOp29
 70
     1
102
RTVSPropertyOp30
 70
     1
102
RTVSPropertyOp31
 70
     1
102
RTVSPropertyOp32
 70
     1
102
RTVSPropertyOp33
 70
     1
102
RTVSPropertyOp34
 70
     1
102
RTVSPropertyOp35
 70
     1
102
RTVSPropertyOp36
 70
     1
102
RTVSPropertyOp37
 70
     1
102
RTVSPropertyOp38
 70
     1
102
RTVSPropertyOp39
 70
     1
102
RTVSPropertyOp40
 70
     1
102
RTVSPropertyOp41
 70
     1
102
RTVSPropertyOp42
 70
     1
102
RTVSPropertyOp43
 70
     1
102
RTVSPropertyOp44
 70
     1
102
RTVSPropertyOp45
 70
     1
102
RTVSPropertyOp46
 70
     1
102
RTVSPropertyOp47
 70
     1
102
RTVSPropertyOp48
 70
     1
102
RTVSPropertyOp49
 70
     1
102
RTVSPropertyOp50
 70
     1
102
RTVSPropertyOp51
 70
     0
102
RTVSPropertyOp52
 70
     0
102
RTVSPropertyOp53
 70
     1
102
RTVSPropertyOp54
 70
     1
102
RTVSPropertyOp55
 70
     1
102
RTVSPropertyOp56
 70
     1
102
RTVSPropertyOp57
 70
     1
102
RTVSPost2010Prop28
280
     0
102
RTVSPost2010PropOp28
 70
     1
102
RTVSPost2010Prop29
280
     1
102
RTVSPost2010PropOp29
 70
     1
102
RTVSPost2010Prop30
280
     1
102
RTVSPost2010PropOp30
 70
     1
102
RTVSPost2010Prop31
280
     0
102
RTVSPost2010PropOp31
 70
     1
102
RTVSPost2010Prop32
280
     0
102
RTVSPost2010PropOp32
 70
     1
102
RTVSPost2010Prop33
280
     0
102
RTVSPost2010PropOp33
 70
     1
102
RTVSPost2010Prop34
280
     0
102
RTVSPost2010PropOp34
 70
     1
102
RTVSPost2010Prop35
280
     0
102
RTVSPost2010PropOp35
 70
     1
102
RTVSPost2010Prop36
280
     0
102
RTVSPost2010PropOp36
 70
     1
102
RTVSPost2010Prop37
 90
       50
102
RTVSPost2010PropOp37
 70
     1
102
RTVSPost2010Prop38
140
0.0
102
RTVSPost2010PropOp38
 70
     1
102
RTVSPost2010Prop39
140
1.0
102
RTVSPost2010PropOp39
 70
     1
102
RTVSPost2010Prop40
 90
        0
102
RTVSPost2010PropOp40
 70
     1
102
RTVSPost2010Prop41ColorIndex
 90
       18
102
RTVSPost2010Prop41ColorRGB
 90
        0
102
RTVSPost2010PropOp41
 70
     1
102
RTVSPost2010Prop42
 90
       50
102
RTVSPost2010PropOp42
 70
     1
102
RTVSPost2010Prop43
 90
        3
102
RTVSPost2010PropOp43
 70
     1
102
RTVSPost2010Prop44ColorIndex
 90
        5
102
RTVSPost2010Prop44ColorRGB
 90
      255
102
RTVSPost2010PropOp44
 70
     1
102
RTVSPost2010Prop45
280
     0
102
RTVSPost2010PropOp45
 70
     1
102
RTVSPost2010Prop46
 90
       50
102
RTVSPost2010PropOp46
 70
     1
102
RTVSPost2010Prop47
 90
       50
102
RTVSPost2010PropOp47
 70
     1
102
RTVSPost2010Prop48
 90
       50
102
RTVSPost2010PropOp48
 70
     1
102
RTVSPost2010Prop49
280
     0
102
RTVSPost2010PropOp49
 70
     1
102
RTVSPost2010Prop50
 90
       50
102
RTVSPost2010PropOp50
 70
     1
102
RTVSPost2010Prop51ColorIndex
 90
      256
102
RTVSPost2010Prop51ColorRGB
 90
-16777216
102
RTVSPost2010PropOp51
 70
     0
102
RTVSPost2010Prop52
140
1.0
102
RTVSPost2010PropOp52
 70
     0
102
RTVSPost2010Prop53
 90
        2
102
RTVSPost2010PropOp53
 70
     1
102
RTVSPost2010Prop54
  1
strokes_ogs.tif
102
RTVSPost2010PropOp54
 70
     1
102
RTVSPost2010Prop55
280
     0
102
RTVSPost2010PropOp55
 70
     1
102
RTVSPost2010Prop56
140
1.0
102
RTVSPost2010PropOp56
 70
     1
102
RTVSPost2010Prop57
140
1.0
102
RTVSPost2010PropOp57
 70
     1
  0
XRECORD
  5
425
102
{ACAD_REACTORS
330
424
102
}
330
424
100
AcDbXrecord
280
     1
102
RTVSPropertyOp0
 70
     1
102
RTVSPropertyOp1
 70
     1
102
RTVSPropertyOp2
 70
     1
102
RTVSPropertyOp3
 70
     1
102
RTVSPropertyOp4
 70
     1
102
RTVSPropertyOp5
 70
     1
102
RTVSPropertyOp6
 70
     1
102
RTVSPropertyOp7
 70
     1
102
RTVSPropertyOp8
 70
     1
102
RTVSPropertyOp9
 70
     1
102
RTVSPropertyOp10
 70
     1
102
RTVSPropertyOp11
 70
     1
102
RTVSPropertyOp12
 70
     1
102
RTVSPropertyOp13
 70
     1
102
RTVSPropertyOp14
 70
     1
102
RTVSPropertyOp15
 70
     1
102
RTVSPropertyOp16
 70
     1
102
RTVSPropertyOp17
 70
     1
102
RTVSPropertyOp18
 70
     1
102
RTVSPropertyOp19
 70
     1
102
RTVSPropertyOp20
 70
     1
102
RTVSPropertyOp21
 70
     1
102
RTVSPropertyOp22
 70
     1
102
RTVSPropertyOp23
 70
     1
102
RTVSPropertyOp24
 70
     1
102
RTVSPropertyOp25
 70
     1
102
RTVSPropertyOp26
 70
     1
102
RTVSPropertyOp27
 70
     1
102
RTVSPropertyOp28
 70
     1
102
RTVSPropertyOp29
 70
     1
102
RTVSPropertyOp30
 70
     1
102
RTVSPropertyOp31
 70
     1
102
RTVSPropertyOp32
 70
     1
102
RTVSPropertyOp33
 70
     1
102
RTVSPropertyOp34
 70
     1
102
RTVSPropertyOp35
 70
     1
102
RTVSPropertyOp36
 70
     1
102
RTVSPropertyOp37
 70
     1
102
RTVSPropertyOp38
 70
     1
102
RTVSPropertyOp39
 70
     1
102
RTVSPropertyOp40
 70
     1
102
RTVSPropertyOp41
 70
     1
102
RTVSPropertyOp42
 70
     1
102
RTVSPropertyOp43
 70
     1
102
RTVSPropertyOp44
 70
     1
102
RTVSPropertyOp45
 70
     1
102
RTVSPropertyOp46
 70
     1
102
RTVSPropertyOp47
 70
     1
102
RTVSPropertyOp48
 70
     1
102
RTVSPropertyOp49
 70
     1
102
RTVSPropertyOp50
 70
     1
102
RTVSPropertyOp51
 70
     0
102
RTVSPropertyOp52
 70
     0
102
RTVSPropertyOp53
 70
     1
102
RTVSPropertyOp54
 70
     1
102
RTVSPropertyOp55
 70
     1
102
RTVSPropertyOp56
 70
     1
102
RTVSPropertyOp57
 70
     1
102
RTVSPost2010Prop28
280
     0
102
RTVSPost2010PropOp28
 70
     1
102
RTVSPost2010Prop29
280
     1
102
RTVSPost2010PropOp29
 70
     1
102
RTVSPost2010Prop30
280
     1
102
RTVSPost2010PropOp30
 70
     1
102
RTVSPost2010Prop31
280
     0
102
RTVSPost2010PropOp31
 70
     1
102
RTVSPost2010Prop32
280
     0
102
RTVSPost2010PropOp32
 70
     1
102
RTVSPost2010Prop33
280
     0
102
RTVSPost2010PropOp33
 70
     1
102
RTVSPost2010Prop34
280
     0
102
RTVSPost2010PropOp34
 70
     1
102
RTVSPost2010Prop35
280
     0
102
RTVSPost2010PropOp35
 70
     1
102
RTVSPost2010Prop36
280
     0
102
RTVSPost2010PropOp36
 70
     1
102
RTVSPost2010Prop37
 90
       50
102
RTVSPost2010PropOp37
 70
     1
102
RTVSPost2010Prop38
140
0.0
102
RTVSPost2010PropOp38
 70
     1
102
RTVSPost2010Prop39
140
1.0
102
RTVSPost2010PropOp39
 70
     1
102
RTVSPost2010Prop40
 90
        0
102
RTVSPost2010PropOp40
 70
     1
102
RTVSPost2010Prop41ColorIndex
 90
       18
102
RTVSPost2010Prop41ColorRGB
 90
        0
102
RTVSPost2010PropOp41
 70
     1
102
RTVSPost2010Prop42
 90
       50
102
RTVSPost2010PropOp42
 70
     1
102
RTVSPost2010Prop43
 90
        3
102
RTVSPost2010PropOp43
 70
     1
102
RTVSPost2010Prop44ColorIndex
 90
        5
102
RTVSPost2010Prop44ColorRGB
 90
      255
102
RTVSPost2010PropOp44
 70
     1
102
RTVSPost2010Prop45
280
     0
102
RTVSPost2010PropOp45
 70
     1
102
RTVSPost2010Prop46
 90
       50
102
RTVSPost2010PropOp46
 70
     1
102
RTVSPost2010Prop47
 90
       50
102
RTVSPost2010PropOp47
 70
     1
102
RTVSPost2010Prop48
 90
       50
102
RTVSPost2010PropOp48
 70
     1
102
RTVSPost2010Prop49
280
     0
102
RTVSPost2010PropOp49
 70
     1
102
RTVSPost2010Prop50
 90
       50
102
RTVSPost2010PropOp50
 70
     1
102
RTVSPost2010Prop51ColorIndex
 90
      256
102
RTVSPost2010Prop51ColorRGB
 90
-16777216
102
RTVSPost2010PropOp51
 70
     0
102
RTVSPost2010Prop52
140
1.0
102
RTVSPost2010PropOp52
 70
     0
102
RTVSPost2010Prop53
 90
        2
102
RTVSPost2010PropOp53
 70
     1
102
RTVSPost2010Prop54
  1
strokes_ogs.tif
102
RTVSPost2010PropOp54
 70
     1
102
RTVSPost2010Prop55
280
     0
102
RTVSPost2010PropOp55
 70
     1
102
RTVSPost2010Prop56
140
1.0
102
RTVSPost2010PropOp56
 70
     1
102
RTVSPost2010Prop57
140
1.0
102
RTVSPost2010PropOp57
 70
     1
  0
XRECORD
  5
445
102
{ACAD_REACTORS
330
444
102
}
330
444
100
AcDbXrecord
280
     1
102
RTVSPropertyOp0
 70
     1
102
RTVSPropertyOp1
 70
     1
102
RTVSPropertyOp2
 70
     1
102
RTVSPropertyOp3
 70
     1
102
RTVSPropertyOp4
 70
     1
102
RTVSPropertyOp5
 70
     1
102
RTVSPropertyOp6
 70
     1
102
RTVSPropertyOp7
 70
     1
102
RTVSPropertyOp8
 70
     1
102
RTVSPropertyOp9
 70
     1
102
RTVSPropertyOp10
 70
     1
102
RTVSPropertyOp11
 70
     1
102
RTVSPropertyOp12
 70
     1
102
RTVSPropertyOp13
 70
     1
102
RTVSPropertyOp14
 70
     1
102
RTVSPropertyOp15
 70
     1
102
RTVSPropertyOp16
 70
     1
102
RTVSPropertyOp17
 70
     1
102
RTVSPropertyOp18
 70
     1
102
RTVSPropertyOp19
 70
     1
102
RTVSPropertyOp20
 70
     1
102
RTVSPropertyOp21
 70
     1
102
RTVSPropertyOp22
 70
     1
102
RTVSPropertyOp23
 70
     1
102
RTVSPropertyOp24
 70
     1
102
RTVSPropertyOp25
 70
     1
102
RTVSPropertyOp26
 70
     1
102
RTVSPropertyOp27
 70
     1
102
RTVSPropertyOp28
 70
     1
102
RTVSPropertyOp29
 70
     1
102
RTVSPropertyOp30
 70
     1
102
RTVSPropertyOp31
 70
     1
102
RTVSPropertyOp32
 70
     1
102
RTVSPropertyOp33
 70
     1
102
RTVSPropertyOp34
 70
     1
102
RTVSPropertyOp35
 70
     1
102
RTVSPropertyOp36
 70
     1
102
RTVSPropertyOp37
 70
     1
102
RTVSPropertyOp38
 70
     1
102
RTVSPropertyOp39
 70
     1
102
RTVSPropertyOp40
 70
     1
102
RTVSPropertyOp41
 70
     1
102
RTVSPropertyOp42
 70
     1
102
RTVSPropertyOp43
 70
     1
102
RTVSPropertyOp44
 70
     1
102
RTVSPropertyOp45
 70
     1
102
RTVSPropertyOp46
 70
     1
102
RTVSPropertyOp47
 70
     1
102
RTVSPropertyOp48
 70
     1
102
RTVSPropertyOp49
 70
     1
102
RTVSPropertyOp50
 70
     1
102
RTVSPropertyOp51
 70
     0
102
RTVSPropertyOp52
 70
     0
102
RTVSPropertyOp53
 70
     1
102
RTVSPropertyOp54
 70
     1
102
RTVSPropertyOp55
 70
     1
102
RTVSPropertyOp56
 70
     1
102
RTVSPropertyOp57
 70
     1
102
RTVSPost2010Prop28
280
     0
102
RTVSPost2010PropOp28
 70
     1
102
RTVSPost2010Prop29
280
     1
102
RTVSPost2010PropOp29
 70
     1
102
RTVSPost2010Prop30
280
     1
102
RTVSPost2010PropOp30
 70
     1
102
RTVSPost2010Prop31
280
     0
102
RTVSPost2010PropOp31
 70
     1
102
RTVSPost2010Prop32
280
     0
102
RTVSPost2010PropOp32
 70
     1
102
RTVSPost2010Prop33
280
     0
102
RTVSPost2010PropOp33
 70
     1
102
RTVSPost2010Prop34
280
     0
102
RTVSPost2010PropOp34
 70
     1
102
RTVSPost2010Prop35
280
     0
102
RTVSPost2010PropOp35
 70
     1
102
RTVSPost2010Prop36
280
     0
102
RTVSPost2010PropOp36
 70
     1
102
RTVSPost2010Prop37
 90
       50
102
RTVSPost2010PropOp37
 70
     1
102
RTVSPost2010Prop38
140
0.0
102
RTVSPost2010PropOp38
 70
     1
102
RTVSPost2010Prop39
140
1.0
102
RTVSPost2010PropOp39
 70
     1
102
RTVSPost2010Prop40
 90
        0
102
RTVSPost2010PropOp40
 70
     1
102
RTVSPost2010Prop41ColorIndex
 90
       18
102
RTVSPost2010Prop41ColorRGB
 90
        0
102
RTVSPost2010PropOp41
 70
     1
102
RTVSPost2010Prop42
 90
       50
102
RTVSPost2010PropOp42
 70
     1
102
RTVSPost2010Prop43
 90
        3
102
RTVSPost2010PropOp43
 70
     1
102
RTVSPost2010Prop44ColorIndex
 90
        5
102
RTVSPost2010Prop44ColorRGB
 90
      255
102
RTVSPost2010PropOp44
 70
     1
102
RTVSPost2010Prop45
280
     0
102
RTVSPost2010PropOp45
 70
     1
102
RTVSPost2010Prop46
 90
       50
102
RTVSPost2010PropOp46
 70
     1
102
RTVSPost2010Prop47
 90
       50
102
RTVSPost2010PropOp47
 70
     1
102
RTVSPost2010Prop48
 90
       50
102
RTVSPost2010PropOp48
 70
     1
102
RTVSPost2010Prop49
280
     0
102
RTVSPost2010PropOp49
 70
     1
102
RTVSPost2010Prop50
 90
       50
102
RTVSPost2010PropOp50
 70
     1
102
RTVSPost2010Prop51ColorIndex
 90
      256
102
RTVSPost2010Prop51ColorRGB
 90
-16777216
102
RTVSPost2010PropOp51
 70
     0
102
RTVSPost2010Prop52
140
1.0
102
RTVSPost2010PropOp52
 70
     0
102
RTVSPost2010Prop53
 90
        2
102
RTVSPost2010PropOp53
 70
     1
102
RTVSPost2010Prop54
  1
strokes_ogs.tif
102
RTVSPost2010PropOp54
 70
     1
102
RTVSPost2010Prop55
280
     0
102
RTVSPost2010PropOp55
 70
     1
102
RTVSPost2010Prop56
140
1.0
102
RTVSPost2010PropOp56
 70
     1
102
RTVSPost2010Prop57
140
1.0
102
RTVSPost2010PropOp57
 70
     1
  0
ENDSEC
  0
EOF
