  0
SECTION
  2
HEADER
  9
$ACADVER
  1
AC1018
  9
$ACADMAINTVER
 70
     0
  9
$DWGCODEPAGE
  3
ANSI_932
  9
$INSBASE
 10
0.0
 20
0.0
 30
0.0
  9
$EXTMIN
 10
-1050.0
 20
-742.5
 30
0.0
  9
$EXTMAX
 10
1050.0
 20
742.5
 30
0.0
  9
$LIMMIN
 10
-1050.0
 20
-742.5
  9
$LIMMAX
 10
1050.0
 20
742.5
  9
$ORTHOMODE
 70
     0
  9
$REGENMODE
 70
     1
  9
$FILLMODE
 70
     1
  9
$QTEXTMODE
 70
     0
  9
$MIRRTEXT
 70
     1
  9
$LTSCALE
 40
5.0
  9
$ATTMODE
 70
     1
  9
$TEXTSIZE
 40
2.5
  9
$TRACEWID
 40
1.0
  9
$TEXTSTYLE
  7
Standard
  9
$CLAYER
  8
0
  9
$CELTYPE
  6
ByLayer
  9
$CECOLOR
 62
   256
  9
$CELTSCALE
 40
1.0
  9
$DISPSILH
 70
     0
  9
$DIMSCALE
 40
1.0
  9
$DIMASZ
 40
2.5
  9
$DIMEXO
 40
0.625
  9
$DIMDLI
 40
3.75
  9
$DIMRND
 40
0.0
  9
$DIMDLE
 40
0.0
  9
$DIMEXE
 40
1.25
  9
$DIMTP
 40
0.0
  9
$DIMTM
 40
0.0
  9
$DIMTXT
 40
2.5
  9
$DIMCEN
 40
2.5
  9
$DIMTSZ
 40
0.0
  9
$DIMTOL
 70
     0
  9
$DIMLIM
 70
     0
  9
$DIMTIH
 70
     0
  9
$DIMTOH
 70
     0
  9
$DIMSE1
 70
     0
  9
$DIMSE2
 70
     0
  9
$DIMTAD
 70
     1
  9
$DIMZIN
 70
     8
  9
$DIMBLK
  1

  9
$DIMASO
 70
     1
  9
$DIMSHO
 70
     1
  9
$DIMPOST
  1

  9
$DIMAPOST
  1

  9
$DIMALT
 70
     0
  9
$DIMALTD
 70
     3
  9
$DIMALTF
 40
0.03937007874016
  9
$DIMLFAC
 40
1.0
  9
$DIMTOFL
 70
     1
  9
$DIMTVP
 40
0.0
  9
$DIMTIX
 70
     0
  9
$DIMSOXD
 70
     0
  9
$DIMSAH
 70
     0
  9
$DIMBLK1
  1

  9
$DIMBLK2
  1

  9
$DIMSTYLE
  2
ISO-25
  9
$DIMCLRD
 70
     0
  9
$DIMCLRE
 70
     0
  9
$DIMCLRT
 70
     0
  9
$DIMTFAC
 40
1.0
  9
$DIMGAP
 40
0.625
  9
$DIMJUST
 70
     0
  9
$DIMSD1
 70
     0
  9
$DIMSD2
 70
     0
  9
$DIMTOLJ
 70
     0
  9
$DIMTZIN
 70
     8
  9
$DIMALTZ
 70
     0
  9
$DIMALTTZ
 70
     0
  9
$DIMUPT
 70
     0
  9
$DIMDEC
 70
     2
  9
$DIMTDEC
 70
     2
  9
$DIMALTU
 70
     2
  9
$DIMALTTD
 70
     3
  9
$DIMTXSTY
  7
Standard
  9
$DIMAUNIT
 70
     0
  9
$DIMADEC
 70
     0
  9
$DIMALTRND
 40
0.0
  9
$DIMAZIN
 70
     0
  9
$DIMDSEP
 70
    44
  9
$DIMATFIT
 70
     3
  9
$DIMFRAC
 70
     0
  9
$DIMLDRBLK
  1

  9
$DIMLUNIT
 70
     2
  9
$DIMLWD
 70
    -2
  9
$DIMLWE
 70
    -2
  9
$DIMTMOVE
 70
     0
  9
$LUNITS
 70
     2
  9
$LUPREC
 70
     4
  9
$SKETCHINC
 40
1.0
  9
$FILLETRAD
 40
10.0
  9
$AUNITS
 70
     0
  9
$AUPREC
 70
     0
  9
$MENU
  1
.
  9
$ELEVATION
 40
0.0
  9
$PELEVATION
 40
0.0
  9
$THICKNESS
 40
0.0
  9
$LIMCHECK
 70
     0
  9
$CHAMFERA
 40
0.0
  9
$CHAMFERB
 40
0.0
  9
$CHAMFERC
 40
0.0
  9
$CHAMFERD
 40
0.0
  9
$SKPOLY
 70
     0
  9
$TDCREATE
 40
2459482.583522593
  9
$TDUCREATE
 40
2459482.208522593
  9
$TDUPDATE
 40
2459482.583522685
  9
$TDUUPDATE
 40
2459482.208522685
  9
$TDINDWG
 40
0.0000000116
  9
$TDUSRTIMER
 40
0.0000000116
  9
$USRTIMER
 70
     1
  9
$ANGBASE
 50
0.0
  9
$ANGDIR
 70
     0
  9
$PDMODE
 70
     0
  9
$PDSIZE
 40
0.0
  9
$PLINEWID
 40
0.0
  9
$SPLFRAME
 70
     0
  9
$SPLINETYPE
 70
     6
  9
$SPLINESEGS
 70
     8
  9
$HANDSEED
  5
23A
  9
$SURFTAB1
 70
     6
  9
$SURFTAB2
 70
     6
  9
$SURFTYPE
 70
     6
  9
$SURFU
 70
     6
  9
$SURFV
 70
     6
  9
$UCSBASE
  2

  9
$UCSNAME
  2

  9
$UCSORG
 10
0.0
 20
0.0
 30
0.0
  9
$UCSXDIR
 10
1.0
 20
0.0
 30
0.0
  9
$UCSYDIR
 10
0.0
 20
1.0
 30
0.0
  9
$UCSORTHOREF
  2

  9
$UCSORTHOVIEW
 70
     0
  9
$UCSORGTOP
 10
0.0
 20
0.0
 30
0.0
  9
$UCSORGBOTTOM
 10
0.0
 20
0.0
 30
0.0
  9
$UCSORGLEFT
 10
0.0
 20
0.0
 30
0.0
  9
$UCSORGRIGHT
 10
0.0
 20
0.0
 30
0.0
  9
$UCSORGFRONT
 10
0.0
 20
0.0
 30
0.0
  9
$UCSORGBACK
 10
0.0
 20
0.0
 30
0.0
  9
$PUCSBASE
  2

  9
$PUCSNAME
  2

  9
$PUCSORG
 10
0.0
 20
0.0
 30
0.0
  9
$PUCSXDIR
 10
1.0
 20
0.0
 30
0.0
  9
$PUCSYDIR
 10
0.0
 20
1.0
 30
0.0
  9
$PUCSORTHOREF
  2

  9
$PUCSORTHOVIEW
 70
     0
  9
$PUCSORGTOP
 10
0.0
 20
0.0
 30
0.0
  9
$PUCSORGBOTTOM
 10
0.0
 20
0.0
 30
0.0
  9
$PUCSORGLEFT
 10
0.0
 20
0.0
 30
0.0
  9
$PUCSORGRIGHT
 10
0.0
 20
0.0
 30
0.0
  9
$PUCSORGFRONT
 10
0.0
 20
0.0
 30
0.0
  9
$PUCSORGBACK
 10
0.0
 20
0.0
 30
0.0
  9
$USERI1
 70
     0
  9
$USERI2
 70
     0
  9
$USERI3
 70
     0
  9
$USERI4
 70
     0
  9
$USERI5
 70
     0
  9
$USERR1
 40
0.0
  9
$USERR2
 40
0.0
  9
$USERR3
 40
0.0
  9
$USERR4
 40
0.0
  9
$USERR5
 40
0.0
  9
$WORLDVIEW
 70
     1
  9
$SHADEDGE
 70
     3
  9
$SHADEDIF
 70
    70
  9
$TILEMODE
 70
     1
  9
$MAXACTVP
 70
    64
  9
$PINSBASE
 10
0.0
 20
0.0
 30
0.0
  9
$PLIMCHECK
 70
     0
  9
$PEXTMIN
 10
1.000000000000000E+20
 20
1.000000000000000E+20
 30
1.000000000000000E+20
  9
$PEXTMAX
 10
-1.000000000000000E+20
 20
-1.000000000000000E+20
 30
-1.000000000000000E+20
  9
$PLIMMIN
 10
0.0
 20
0.0
  9
$PLIMMAX
 10
420.0
 20
297.0
  9
$UNITMODE
 70
     0
  9
$VISRETAIN
 70
     1
  9
$PLINEGEN
 70
     0
  9
$PSLTSCALE
 70
     1
  9
$TREEDEPTH
 70
  3020
  9
$CMLSTYLE
  2
Standard
  9
$CMLJUST
 70
     0
  9
$CMLSCALE
 40
20.0
  9
$PROXYGRAPHICS
 70
     1
  9
$MEASUREMENT
 70
     1
  9
$CELWEIGHT
370
    -1
  9
$ENDCAPS
280
     0
  9
$JOINSTYLE
280
     0
  9
$LWDISPLAY
290
     0
  9
$INSUNITS
 70
     4
  9
$HYPERLINKBASE
  1

  9
$STYLESHEET
  1

  9
$XEDIT
290
     1
  9
$CEPSNTYPE
380
     0
  9
$PSTYLEMODE
290
     1
  9
$FINGERPRINTGUID
  2
{2C9DDC28-788E-48D5-8204-1F0FEE3FD01B}
  9
$VERSIONGUID
  2
{FAEB1C32-E019-11D5-929B-00C0DF256EC4}
  9
$EXTNAMES
290
     1
  9
$PSVPSCALE
 40
0.0
  9
$OLESTARTUP
290
     0
  9
$SORTENTS
280
   127
  9
$INDEXCTL
280
     0
  9
$HIDETEXT
280
     1
  9
$XCLIPFRAME
290
     0
  9
$HALOGAP
280
     0
  9
$OBSCOLOR
 70
   257
  9
$OBSLTYPE
280
     0
  9
$INTERSECTIONDISPLAY
280
     0
  9
$INTERSECTIONCOLOR
 70
   257
  9
$DIMASSOC
280
     2
  9
$PROJECTNAME
  1

  0
ENDSEC
  0
SECTION
  2
CLASSES
  0
CLASS
  1
ACDBDICTIONARYWDFLT
  2
AcDbDictionaryWithDefault
  3
ObjectDBX Classes
 90
        0
 91
        4
280
     0
281
     0
  0
CLASS
  1
VISUALSTYLE
  2
AcDbVisualStyle
  3
ObjectDBX Classes
 90
     4095
 91
        4
280
     0
281
     0
  0
CLASS
  1
MATERIAL
  2
AcDbMaterial
  3
ObjectDBX Classes
 90
     1153
 91
        4
280
     0
281
     0
  0
CLASS
  1
SCALE
  2
AcDbScale
  3
ObjectDBX Classes
 90
     1153
 91
        4
280
     0
281
     0
  0
CLASS
  1
TABLESTYLE
  2
AcDbTableStyle
  3
ObjectDBX Classes
 90
     4095
 91
        4
280
     0
281
     0
  0
CLASS
  1
MLEADERSTYLE
  2
AcDbMLeaderStyle
  3
ACDB_MLEADERSTYLE_CLASS
 90
     4095
 91
        4
280
     0
281
     0
  0
CLASS
  1
SUN
  2
AcDbSun
  3
SCENEOE
 90
     1153
 91
        4
280
     0
281
     0
  0
CLASS
  1
DICTIONARYVAR
  2
AcDbDictionaryVar
  3
ObjectDBX Classes
 90
        0
 91
        4
280
     0
281
     0
  0
CLASS
  1
CELLSTYLEMAP
  2
AcDbCellStyleMap
  3
ObjectDBX Classes
 90
     1152
 91
        4
280
     0
281
     0
  0
ENDSEC
  0
SECTION
  2
TABLES
  0
TABLE
  2
VPORT
  5
8
102
{ACAD_XDICTIONARY
360
1F1
102
}
330
0
100
AcDbSymbolTable
 70
     1
  0
VPORT
  5
29
330
8
100
AcDbSymbolTableRecord
100
AcDbViewportTableRecord
  2
*Active
 70
     0
 10
0.0
 20
0.0
 11
1.0
 21
1.0
 12
0.0
 22
0.0
 13
0.0
 23
0.0
 14
10.0
 24
10.0
 15
10.0
 25
10.0
 16
0.0
 26
0.0
 36
1.0
 17
0.0
 27
0.0
 37
0.0
 40
1633.5
 41
1.414141414141414
 42
50.0
 43
0.0
 44
0.0
 50
0.0
 51
0.0
 71
     0
 72
 10000
 73
     1
 74
     3
 75
     0
 76
     0
 77
     0
 78
     0
281
     0
 65
     1
110
0.0
120
0.0
130
0.0
111
1.0
121
0.0
131
0.0
112
0.0
122
1.0
132
0.0
 79
     0
146
0.0
  0
ENDTAB
  0
TABLE
  2
LTYPE
  5
5
330
0
100
AcDbSymbolTable
 70
     3
  0
LTYPE
  5
14
330
5
100
AcDbSymbolTableRecord
100
AcDbLinetypeTableRecord
  2
ByBlock
 70
     0
  3

 72
    65
 73
     0
 40
0.0
  0
LTYPE
  5
15
330
5
100
AcDbSymbolTableRecord
100
AcDbLinetypeTableRecord
  2
ByLayer
 70
     0
  3

 72
    65
 73
     0
 40
0.0
  0
LTYPE
  5
16
330
5
100
AcDbSymbolTableRecord
100
AcDbLinetypeTableRecord
  2
Continuous
 70
     0
  3
Solid line
 72
    65
 73
     0
 40
0.0
  0
LTYPE
  5
6F
330
5
100
AcDbSymbolTableRecord
100
AcDbLinetypeTableRecord
  2
JWW_CENTER1
 70
     0
  3
-----  --  ----------  --  -----
 72
    65
 73
     4
 40
6.773333333333333
 49
4.233333333333333
 74
     0
 49
-0.8466666666666667
 74
     0
 49
0.8466666666666667
 74
     0
 49
-0.8466666666666667
 74
     0
  0
LTYPE
  5
70
330
5
100
AcDbSymbolTableRecord
100
AcDbLinetypeTableRecord
  2
JWW_DASHED1
 70
     0
  3
-  --  --  --  --  --  --  --  -
 72
    65
 73
     2
 40
1.693333333333333
 49
0.8466666666666667
 74
     0
 49
-0.8466666666666667
 74
     0
  0
ENDTAB
  0
TABLE
  2
LAYER
  5
2
330
0
100
AcDbSymbolTable
 70
     6
  0
LAYER
  5
10
330
2
100
AcDbSymbolTableRecord
100
AcDbLayerTableRecord
  2
0
 70
     0
 62
     7
  6
Continuous
370
    -3
390
F
  0
LAYER
  5
71
330
2
100
AcDbSymbolTableRecord
100
AcDbLayerTableRecord
  2
A-4_寸法
 70
     0
 62
     7
  6
Continuous
370
    -3
390
F
  0
LAYER
  5
72
330
2
100
AcDbSymbolTableRecord
100
AcDbLayerTableRecord
  2
A-2_蓋
 70
     0
 62
     7
  6
Continuous
370
    -3
390
F
  0
LAYER
  5
73
330
2
100
AcDbSymbolTableRecord
100
AcDbLayerTableRecord
  2
A-1_ピット
 70
     0
 62
     7
  6
Continuous
370
    -3
390
F
  0
LAYER
  5
74
330
2
100
AcDbSymbolTableRecord
100
AcDbLayerTableRecord
  2
F-4ﾚｲﾔ
 70
     0
 62
     7
  6
Continuous
370
    -3
390
F
  0
LAYER
  5
75
330
2
100
AcDbSymbolTableRecord
100
AcDbLayerTableRecord
  2
F-5ﾚｲﾔ
 70
     0
 62
     7
  6
Continuous
370
    -3
390
F
  0
ENDTAB
  0
TABLE
  2
STYLE
  5
3
330
0
100
AcDbSymbolTable
 70
     2
  0
STYLE
  5
11
330
3
100
AcDbSymbolTableRecord
100
AcDbTextStyleTableRecord
  2
Standard
 70
     0
 40
0.0
 41
1.0
 50
0.0
 71
     0
 42
2.5
  3
txt
  4

  0
STYLE
  5
6E
330
3
100
AcDbSymbolTableRecord
100
AcDbTextStyleTableRecord
  2
ＭＳ ゴシック
 70
     0
 40
1.0
 41
1.0
 50
0.0
 71
     0
 42
2.5
  3

  4

1001
ACAD
1000
MS Gothic
1071
    32817
  0
ENDTAB
  0
TABLE
  2
VIEW
  5
6
330
0
100
AcDbSymbolTable
 70
     0
  0
ENDTAB
  0
TABLE
  2
UCS
  5
7
330
0
100
AcDbSymbolTable
 70
     0
  0
ENDTAB
  0
TABLE
  2
APPID
  5
9
330
0
100
AcDbSymbolTable
 70
     2
  0
APPID
  5
12
330
9
100
AcDbSymbolTableRecord
100
AcDbRegAppTableRecord
  2
ACAD
 70
     0
  0
APPID
  5
230
330
9
100
AcDbSymbolTableRecord
100
AcDbRegAppTableRecord
  2
ACAD_MLEADERVER
 70
     0
  0
ENDTAB
  0
TABLE
  2
DIMSTYLE
  5
A
330
0
100
AcDbSymbolTable
 70
     1
100
AcDbDimStyleTable
  0
DIMSTYLE
105
27
330
A
100
AcDbSymbolTableRecord
100
AcDbDimStyleTableRecord
  2
ISO-25
 70
     0
 41
2.5
 42
0.625
 43
3.75
 44
1.25
 73
     0
 74
     0
 77
     1
 78
     8
140
2.5
141
2.5
143
0.03937007874016
147
0.625
171
     3
172
     1
178
     0
271
     2
272
     2
274
     3
278
    44
283
     0
284
     8
340
11
  0
ENDTAB
  0
TABLE
  2
BLOCK_RECORD
  5
1
330
0
100
AcDbSymbolTable
 70
     1
  0
BLOCK_RECORD
  5
1F
330
1
100
AcDbSymbolTableRecord
100
AcDbBlockTableRecord
  2
*Model_Space
340
22
  0
BLOCK_RECORD
  5
1B
330
1
100
AcDbSymbolTableRecord
100
AcDbBlockTableRecord
  2
*Paper_Space
340
1E
  0
BLOCK_RECORD
  5
23
330
1
100
AcDbSymbolTableRecord
100
AcDbBlockTableRecord
  2
*Paper_Space0
340
26
  0
ENDTAB
  0
ENDSEC
  0
SECTION
  2
BLOCKS
  0
BLOCK
  5
20
330
1F
100
AcDbEntity
  8
0
100
AcDbBlockBegin
  2
*Model_Space
 70
     0
 10
0.0
 20
0.0
 30
0.0
  3
*Model_Space
  1

  0
ENDBLK
  5
21
330
1F
100
AcDbEntity
  8
0
100
AcDbBlockEnd
  0
BLOCK
  5
1C
330
1B
100
AcDbEntity
 67
     1
  8
0
100
AcDbBlockBegin
  2
*Paper_Space
 70
     0
 10
0.0
 20
0.0
 30
0.0
  3
*Paper_Space
  1

  0
ENDBLK
  5
1D
330
1B
100
AcDbEntity
 67
     1
  8
0
100
AcDbBlockEnd
  0
BLOCK
  5
24
330
23
100
AcDbEntity
  8
0
100
AcDbBlockBegin
  2
*Paper_Space0
 70
     0
 10
0.0
 20
0.0
 30
0.0
  3
*Paper_Space0
  1

  0
ENDBLK
  5
25
330
23
100
AcDbEntity
  8
0
100
AcDbBlockEnd
  0
ENDSEC
  0
SECTION
  2
ENTITIES
  0
LWPOLYLINE
  5
76
330
1F
100
AcDbEntity
  8
A-4_寸法
  6
Continuous
 62
     7
370
     9
100
AcDbPolyline
 90
        4
 70
     1
 43
1.0
 10
-281.7153246080553
 20
448.4227257990281
 42
0.4142135623731
 10
-282.2153246080553
 20
448.9227257990281
 42
0.4142135623731
 10
-282.7153246080554
 20
448.4227257990281
 42
0.4142135623731
 10
-282.2153246080553
 20
447.9227257990282
 42
0.4142135623731
  0
LWPOLYLINE
  5
77
330
1F
100
AcDbEntity
  8
A-4_寸法
  6
Continuous
 62
     7
370
     9
100
AcDbPolyline
 90
        4
 70
     1
 43
1.0
 10
-246.4150646312816
 20
448.4227257990281
 42
0.4142135623731
 10
-246.9150646312816
 20
448.9227257990281
 42
0.4142135623731
 10
-247.4150646312816
 20
448.4227257990281
 42
0.4142135623731
 10
-246.9150646312816
 20
447.9227257990282
 42
0.4142135623731
  0
LWPOLYLINE
  5
78
330
1F
100
AcDbEntity
  8
A-4_寸法
  6
Continuous
 62
     7
370
     9
100
AcDbPolyline
 90
        4
 70
     1
 43
1.0
 10
-602.515425398543
 20
-132.6484370691624
 42
0.4142135623731
 10
-603.015425398543
 20
-132.1484370691624
 42
0.4142135623731
 10
-603.515425398543
 20
-132.6484370691624
 42
0.4142135623731
 10
-603.015425398543
 20
-133.1484370691624
 42
0.4142135623731
  0
LWPOLYLINE
  5
79
330
1F
100
AcDbEntity
  8
A-4_寸法
  6
Continuous
 62
     7
370
     9
100
AcDbPolyline
 90
        4
 70
     1
 43
1.0
 10
-112.515417150549
 20
-132.6484370691624
 42
0.4142135623731
 10
-113.015417150549
 20
-132.1484370691624
 42
0.4142135623731
 10
-113.515417150549
 20
-132.6484370691624
 42
0.4142135623731
 10
-113.015417150549
 20
-133.1484370691624
 42
0.4142135623731
  0
LWPOLYLINE
  5
7A
330
1F
100
AcDbEntity
  8
A-4_寸法
  6
Continuous
 62
     7
370
     9
100
AcDbPolyline
 90
        4
 70
     1
 43
1.0
 10
308.6081081081081
 20
-61.48226968107114
 42
0.4142135623731
 10
308.1081081081081
 20
-60.98226968107114
 42
0.4142135623731
 10
307.6081081081081
 20
-61.48226968107114
 42
0.4142135623731
 10
308.1081081081081
 20
-61.98226968107114
 42
0.4142135623731
  0
LWPOLYLINE
  5
7B
330
1F
100
AcDbEntity
  8
A-4_寸法
  6
Continuous
 62
     7
370
     9
100
AcDbPolyline
 90
        4
 70
     1
 43
1.0
 10
308.6081081081081
 20
428.5179241467899
 42
0.4142135623731
 10
308.1081081081081
 20
429.0179241467899
 42
0.4142135623731
 10
307.6081081081081
 20
428.5179241467899
 42
0.4142135623731
 10
308.1081081081081
 20
428.01792414679
 42
0.4142135623731
  0
LWPOLYLINE
  5
7C
330
1F
100
AcDbEntity
  8
A-4_寸法
  6
Continuous
 62
     7
370
     9
100
AcDbPolyline
 90
        4
 70
     1
 43
1.0
 10
385.6351351351351
 20
-185.3718319270329
 42
0.4142135623731
 10
385.1351351351352
 20
-184.8718319270329
 42
0.4142135623731
 10
384.6351351351352
 20
-185.3718319270329
 42
0.4142135623731
 10
385.1351351351352
 20
-185.8718319270329
 42
0.4142135623731
  0
LWPOLYLINE
  5
7D
330
1F
100
AcDbEntity
  8
A-4_寸法
  6
Continuous
 62
     7
370
     9
100
AcDbPolyline
 90
        4
 70
     1
 43
1.0
 10
495.6350031672297
 20
-185.3718319270329
 42
0.4142135623731
 10
495.1350031672297
 20
-184.8718319270329
 42
0.4142135623731
 10
494.6350031672297
 20
-185.3718319270329
 42
0.4142135623731
 10
495.1350031672297
 20
-185.8718319270329
 42
0.4142135623731
  0
LWPOLYLINE
  5
7E
330
1F
100
AcDbEntity
  8
A-4_寸法
  6
Continuous
 62
     7
370
     9
100
AcDbPolyline
 90
        4
 70
     1
 43
1.0
 10
385.6353825749578
 20
-137.6301430182755
 42
0.4142135623731
 10
385.1353825749578
 20
-137.1301430182755
 42
0.4142135623731
 10
384.6353825749578
 20
-137.6301430182755
 42
0.4142135623731
 10
385.1353825749578
 20
-138.1301430182755
 42
0.4142135623731
  0
LWPOLYLINE
  5
7F
330
1F
100
AcDbEntity
  8
A-4_寸法
  6
Continuous
 62
     7
370
     9
100
AcDbPolyline
 90
        4
 70
     1
 43
1.0
 10
440.6351928710938
 20
-137.6301430182755
 42
0.4142135623731
 10
440.1351928710938
 20
-137.1301430182755
 42
0.4142135623731
 10
439.6351928710938
 20
-137.6301430182755
 42
0.4142135623731
 10
440.1351928710938
 20
-138.1301430182755
 42
0.4142135623731
  0
LWPOLYLINE
  5
80
330
1F
100
AcDbEntity
  8
A-4_寸法
  6
Continuous
 62
     7
370
     9
100
AcDbPolyline
 90
        4
 70
     1
 43
1.0
 10
495.6350031672297
 20
-137.6301430182755
 42
0.4142135623731
 10
495.1350031672297
 20
-137.1301430182755
 42
0.4142135623731
 10
494.6350031672297
 20
-137.6301430182755
 42
0.4142135623731
 10
495.1350031672297
 20
-138.1301430182755
 42
0.4142135623731
  0
LWPOLYLINE
  5
81
330
1F
100
AcDbEntity
  8
A-4_寸法
  6
Continuous
 62
     7
370
     9
100
AcDbPolyline
 90
        4
 70
     1
 43
1.0
 10
545.4528049778294
 20
-61.48226968107114
 42
0.4142135623731
 10
544.9528049778294
 20
-60.98226968107114
 42
0.4142135623731
 10
544.4528049778295
 20
-61.48226968107114
 42
0.4142135623731
 10
544.9528049778294
 20
-61.98226968107114
 42
0.4142135623731
  0
LWPOLYLINE
  5
82
330
1F
100
AcDbEntity
  8
A-4_寸法
  6
Continuous
 62
     7
370
     9
100
AcDbPolyline
 90
        4
 70
     1
 43
1.0
 10
545.4528049778294
 20
-54.48225895867882
 42
0.4142135623731
 10
544.9528049778294
 20
-53.98225895867882
 42
0.4142135623731
 10
544.4528049778295
 20
-54.48225895867882
 42
0.4142135623731
 10
544.9528049778294
 20
-54.98225895867882
 42
0.4142135623731
  0
LWPOLYLINE
  5
83
330
1F
100
AcDbEntity
  8
A-4_寸法
  6
Continuous
 62
     7
370
     9
100
AcDbPolyline
 90
        4
 70
     1
 43
1.0
 10
545.4528049778294
 20
-14.48225071068475
 42
0.4142135623731
 10
544.9528049778294
 20
-13.98225071068475
 42
0.4142135623731
 10
544.4528049778295
 20
-14.48225071068475
 42
0.4142135623731
 10
544.9528049778294
 20
-14.98225071068475
 42
0.4142135623731
  0
LWPOLYLINE
  5
84
330
1F
100
AcDbEntity
  8
A-4_寸法
  6
Continuous
 62
     7
370
     9
100
AcDbPolyline
 90
        4
 70
     1
 43
1.0
 10
545.4528049778294
 20
381.5179670363592
 42
0.4142135623731
 10
544.9528049778294
 20
382.0179670363592
 42
0.4142135623731
 10
544.4528049778295
 20
381.5179670363592
 42
0.4142135623731
 10
544.9528049778294
 20
381.0179670363593
 42
0.4142135623731
  0
LWPOLYLINE
  5
85
330
1F
100
AcDbEntity
  8
A-4_寸法
  6
Continuous
 62
     7
370
     9
100
AcDbPolyline
 90
        4
 70
     1
 43
1.0
 10
545.4528049778294
 20
421.5180990042646
 42
0.4142135623731
 10
544.9528049778294
 20
422.0180990042645
 42
0.4142135623731
 10
544.4528049778295
 20
421.5180990042646
 42
0.4142135623731
 10
544.9528049778294
 20
421.0180990042646
 42
0.4142135623731
  0
LWPOLYLINE
  5
86
330
1F
100
AcDbEntity
  8
A-4_寸法
  6
Continuous
 62
     7
370
     9
100
AcDbPolyline
 90
        4
 70
     1
 43
1.0
 10
545.4528049778294
 20
428.5179241467899
 42
0.4142135623731
 10
544.9528049778294
 20
429.0179241467899
 42
0.4142135623731
 10
544.4528049778295
 20
428.5179241467899
 42
0.4142135623731
 10
544.9528049778294
 20
428.01792414679
 42
0.4142135623731
  0
LINE
  5
87
330
1F
100
AcDbEntity
  8
A-2_蓋
  6
Continuous
 62
     3
370
     9
100
AcDbLine
 10
-113.015417150549
 20
-61.48226968107114
 30
0.0
 11
-603.015425398543
 21
-61.48226968107114
 31
0.0
  0
LINE
  5
88
330
1F
100
AcDbEntity
  8
A-2_蓋
  6
Continuous
 62
     3
370
     9
100
AcDbLine
 10
-113.015417150549
 20
-56.98232906662856
 30
0.0
 11
-603.015425398543
 21
-56.98232906662856
 31
0.0
  0
LINE
  5
89
330
1F
100
AcDbEntity
  8
A-2_蓋
  6
Continuous
 62
     3
370
     9
100
AcDbLine
 10
-603.015425398543
 20
424.01823097217
 30
0.0
 11
-113.015417150549
 21
424.01823097217
 31
0.0
  0
LINE
  5
8A
330
1F
100
AcDbEntity
  8
A-2_蓋
  6
Continuous
 62
     3
370
     9
100
AcDbLine
 10
-603.015425398543
 20
428.5179241467899
 30
0.0
 11
-113.015417150549
 21
428.5179241467899
 31
0.0
  0
LINE
  5
8B
330
1F
100
AcDbEntity
  8
A-2_蓋
  6
Continuous
 62
     3
370
     9
100
AcDbLine
 10
-603.015425398543
 20
-61.48226968107114
 30
0.0
 11
-603.015425398543
 21
428.5179241467899
 31
0.0
  0
LINE
  5
8C
330
1F
100
AcDbEntity
  8
A-2_蓋
  6
Continuous
 62
     3
370
     9
100
AcDbLine
 10
-113.015417150549
 20
428.5179241467899
 30
0.0
 11
-113.015417150549
 21
-61.48226968107114
 31
0.0
  0
LINE
  5
8D
330
1F
100
AcDbEntity
  8
A-2_蓋
  6
Continuous
 62
     3
370
     9
100
AcDbLine
 10
-603.015425398543
 20
28.01788950521473
 30
0.0
 11
-113.015417150549
 21
28.01788950521473
 31
0.0
  0
LINE
  5
8E
330
1F
100
AcDbEntity
  8
A-2_蓋
  6
Continuous
 62
     3
370
     9
100
AcDbLine
 10
-596.0149816564611
 20
-56.98232906662856
 30
0.0
 11
-596.0149816564611
 21
28.01788950521473
 31
0.0
  0
LINE
  5
8F
330
1F
100
AcDbEntity
  8
A-2_蓋
  6
Continuous
 62
     3
370
     9
100
AcDbLine
 10
-120.0154897328969
 20
28.01788950521473
 30
0.0
 11
-120.0154897328969
 21
-56.98232906662856
 31
0.0
  0
LINE
  5
90
330
1F
100
AcDbEntity
  8
A-2_蓋
  6
Continuous
 62
     3
370
     9
100
AcDbLine
 10
-596.0149816564611
 20
39.01733194081448
 30
0.0
 11
-596.0149816564611
 21
128.017724545333
 31
0.0
  0
LINE
  5
91
330
1F
100
AcDbEntity
  8
A-2_蓋
  6
Continuous
 62
     3
370
     9
100
AcDbLine
 10
-596.0149816564611
 20
139.0174144207554
 30
0.0
 11
-596.0149816564611
 21
228.0183019049192
 31
0.0
  0
LINE
  5
92
330
1F
100
AcDbEntity
  8
A-2_蓋
  6
Continuous
 62
     3
370
     9
100
AcDbLine
 10
-120.0154897328969
 20
228.0183019049192
 30
0.0
 11
-120.0154897328969
 21
139.0174144207554
 31
0.0
  0
LINE
  5
93
330
1F
100
AcDbEntity
  8
A-2_蓋
  6
Continuous
 62
     3
370
     9
100
AcDbLine
 10
-120.0154897328969
 20
128.017724545333
 30
0.0
 11
-120.0154897328969
 21
39.01733194081448
 31
0.0
  0
LINE
  5
94
330
1F
100
AcDbEntity
  8
A-2_蓋
  6
Continuous
 62
     3
370
     9
100
AcDbLine
 10
-144.5150014516469
 20
228.0183019049192
 30
0.0
 11
-144.5150014516469
 21
139.0174144207554
 31
0.0
  0
LINE
  5
95
330
1F
100
AcDbEntity
  8
A-2_蓋
  6
Continuous
 62
     3
370
     9
100
AcDbLine
 10
-137.5150525892103
 20
228.0183019049192
 30
0.0
 11
-137.5150525892103
 21
139.0174144207554
 31
0.0
  0
LINE
  5
96
330
1F
100
AcDbEntity
  8
A-2_蓋
  6
Continuous
 62
     3
370
     9
100
AcDbLine
 10
-144.5150014516469
 20
128.017724545333
 30
0.0
 11
-144.5150014516469
 21
39.01733194081448
 31
0.0
  0
LINE
  5
97
330
1F
100
AcDbEntity
  8
A-2_蓋
  6
Continuous
 62
     3
370
     9
100
AcDbLine
 10
-137.5150525892103
 20
128.017724545333
 30
0.0
 11
-137.5150525892103
 21
39.01733194081448
 31
0.0
  0
LINE
  5
98
330
1F
100
AcDbEntity
  8
A-2_蓋
  6
Continuous
 62
     3
370
     9
100
AcDbLine
 10
-144.5150014516469
 20
28.01788950521473
 30
0.0
 11
-144.5150014516469
 21
-56.98232906662856
 31
0.0
  0
LINE
  5
99
330
1F
100
AcDbEntity
  8
A-2_蓋
  6
Continuous
 62
     3
370
     9
100
AcDbLine
 10
-137.5150525892103
 20
28.01788950521473
 30
0.0
 11
-137.5150525892103
 21
-56.98232906662856
 31
0.0
  0
LINE
  5
9A
330
1F
100
AcDbEntity
  8
A-2_蓋
  6
Continuous
 62
     3
370
     9
100
AcDbLine
 10
-179.8152614284206
 20
228.0183019049192
 30
0.0
 11
-179.8152614284206
 21
139.0174144207554
 31
0.0
  0
LINE
  5
9B
330
1F
100
AcDbEntity
  8
A-2_蓋
  6
Continuous
 62
     3
370
     9
100
AcDbLine
 10
-172.8151888460725
 20
228.0183019049192
 30
0.0
 11
-172.8151888460725
 21
139.0174144207554
 31
0.0
  0
LINE
  5
9C
330
1F
100
AcDbEntity
  8
A-2_蓋
  6
Continuous
 62
     3
370
     9
100
AcDbLine
 10
-179.8152614284206
 20
128.017724545333
 30
0.0
 11
-179.8152614284206
 21
39.01733194081448
 31
0.0
  0
LINE
  5
9D
330
1F
100
AcDbEntity
  8
A-2_蓋
  6
Continuous
 62
     3
370
     9
100
AcDbLine
 10
-172.8151888460725
 20
128.017724545333
 30
0.0
 11
-172.8151888460725
 21
39.01733194081448
 31
0.0
  0
LINE
  5
9E
330
1F
100
AcDbEntity
  8
A-2_蓋
  6
Continuous
 62
     3
370
     9
100
AcDbLine
 10
-179.8152614284206
 20
28.01788950521473
 30
0.0
 11
-179.8152614284206
 21
-56.98232906662856
 31
0.0
  0
LINE
  5
9F
330
1F
100
AcDbEntity
  8
A-2_蓋
  6
Continuous
 62
     3
370
     9
100
AcDbLine
 10
-172.8151888460725
 20
28.01788950521473
 30
0.0
 11
-172.8151888460725
 21
-56.98232906662856
 31
0.0
  0
LINE
  5
A0
330
1F
100
AcDbEntity
  8
A-2_蓋
  6
Continuous
 62
     3
370
     9
100
AcDbLine
 10
-215.1149028056376
 20
228.0183019049192
 30
0.0
 11
-215.1149028056376
 21
139.0174144207554
 31
0.0
  0
LINE
  5
A1
330
1F
100
AcDbEntity
  8
A-2_蓋
  6
Continuous
 62
     3
370
     9
100
AcDbLine
 10
-208.1149539432009
 20
228.0183019049192
 30
0.0
 11
-208.1149539432009
 21
139.0174144207554
 31
0.0
  0
LINE
  5
A2
330
1F
100
AcDbEntity
  8
A-2_蓋
  6
Continuous
 62
     3
370
     9
100
AcDbLine
 10
-215.1149028056376
 20
128.017724545333
 30
0.0
 11
-215.1149028056376
 21
39.01733194081448
 31
0.0
  0
LINE
  5
A3
330
1F
100
AcDbEntity
  8
A-2_蓋
  6
Continuous
 62
     3
370
     9
100
AcDbLine
 10
-208.1149539432009
 20
128.017724545333
 30
0.0
 11
-208.1149539432009
 21
39.01733194081448
 31
0.0
  0
LINE
  5
A4
330
1F
100
AcDbEntity
  8
A-2_蓋
  6
Continuous
 62
     3
370
     9
100
AcDbLine
 10
-215.1149028056376
 20
28.01788950521473
 30
0.0
 11
-215.1149028056376
 21
-56.98232906662856
 31
0.0
  0
LINE
  5
A5
330
1F
100
AcDbEntity
  8
A-2_蓋
  6
Continuous
 62
     3
370
     9
100
AcDbLine
 10
-208.1149539432009
 20
28.01788950521473
 30
0.0
 11
-208.1149539432009
 21
-56.98232906662856
 31
0.0
  0
LINE
  5
A6
330
1F
100
AcDbEntity
  8
A-2_蓋
  6
Continuous
 62
     3
370
     9
100
AcDbLine
 10
-250.4150390625
 20
228.0183019049192
 30
0.0
 11
-250.4150390625
 21
139.0174144207554
 31
0.0
  0
LINE
  5
A7
330
1F
100
AcDbEntity
  8
A-2_蓋
  6
Continuous
 62
     3
370
     9
100
AcDbLine
 10
-243.4150902000633
 20
228.0183019049192
 30
0.0
 11
-243.4150902000633
 21
139.0174144207554
 31
0.0
  0
LINE
  5
A8
330
1F
100
AcDbEntity
  8
A-2_蓋
  6
Continuous
 62
     3
370
     9
100
AcDbLine
 10
-250.4150390625
 20
128.017724545333
 30
0.0
 11
-250.4150390625
 21
39.01733194081448
 31
0.0
  0
LINE
  5
A9
330
1F
100
AcDbEntity
  8
A-2_蓋
  6
Continuous
 62
     3
370
     9
100
AcDbLine
 10
-243.4150902000633
 20
128.017724545333
 30
0.0
 11
-243.4150902000633
 21
39.01733194081448
 31
0.0
  0
LINE
  5
AA
330
1F
100
AcDbEntity
  8
A-2_蓋
  6
Continuous
 62
     3
370
     9
100
AcDbLine
 10
-250.4150390625
 20
28.01788950521473
 30
0.0
 11
-250.4150390625
 21
-56.98232906662856
 31
0.0
  0
LINE
  5
AB
330
1F
100
AcDbEntity
  8
A-2_蓋
  6
Continuous
 62
     3
370
     9
100
AcDbLine
 10
-243.4150902000633
 20
28.01788950521473
 30
0.0
 11
-243.4150902000633
 21
-56.98232906662856
 31
0.0
  0
LINE
  5
AC
330
1F
100
AcDbEntity
  8
A-2_蓋
  6
Continuous
 62
     3
370
     9
100
AcDbLine
 10
-285.7148041596284
 20
228.0183019049192
 30
0.0
 11
-285.7148041596284
 21
139.0174144207554
 31
0.0
  0
LINE
  5
AD
330
1F
100
AcDbEntity
  8
A-2_蓋
  6
Continuous
 62
     3
370
     9
100
AcDbLine
 10
-278.7147315772803
 20
228.0183019049192
 30
0.0
 11
-278.7147315772803
 21
139.0174144207554
 31
0.0
  0
LINE
  5
AE
330
1F
100
AcDbEntity
  8
A-2_蓋
  6
Continuous
 62
     3
370
     9
100
AcDbLine
 10
-285.7148041596284
 20
128.017724545333
 30
0.0
 11
-285.7148041596284
 21
39.01733194081448
 31
0.0
  0
LINE
  5
AF
330
1F
100
AcDbEntity
  8
A-2_蓋
  6
Continuous
 62
     3
370
     9
100
AcDbLine
 10
-278.7147315772803
 20
128.017724545333
 30
0.0
 11
-278.7147315772803
 21
39.01733194081448
 31
0.0
  0
LINE
  5
B0
330
1F
100
AcDbEntity
  8
A-2_蓋
  6
Continuous
 62
     3
370
     9
100
AcDbLine
 10
-285.7148041596284
 20
28.01788950521473
 30
0.0
 11
-285.7148041596284
 21
-56.98232906662856
 31
0.0
  0
LINE
  5
B1
330
1F
100
AcDbEntity
  8
A-2_蓋
  6
Continuous
 62
     3
370
     9
100
AcDbLine
 10
-278.7147315772803
 20
28.01788950521473
 30
0.0
 11
-278.7147315772803
 21
-56.98232906662856
 31
0.0
  0
LINE
  5
B2
330
1F
100
AcDbEntity
  8
A-2_蓋
  6
Continuous
 62
     3
370
     9
100
AcDbLine
 10
-321.0149404164906
 20
228.0183019049192
 30
0.0
 11
-321.0149404164906
 21
139.0174144207554
 31
0.0
  0
LINE
  5
B3
330
1F
100
AcDbEntity
  8
A-2_蓋
  6
Continuous
 62
     3
370
     9
100
AcDbLine
 10
-314.0150534140096
 20
228.0183019049192
 30
0.0
 11
-314.0150534140096
 21
139.0174144207554
 31
0.0
  0
LINE
  5
B4
330
1F
100
AcDbEntity
  8
A-2_蓋
  6
Continuous
 62
     3
370
     9
100
AcDbLine
 10
-321.0149404164906
 20
128.017724545333
 30
0.0
 11
-321.0149404164906
 21
39.01733194081448
 31
0.0
  0
LINE
  5
B5
330
1F
100
AcDbEntity
  8
A-2_蓋
  6
Continuous
 62
     3
370
     9
100
AcDbLine
 10
-314.0150534140096
 20
128.017724545333
 30
0.0
 11
-314.0150534140096
 21
39.01733194081448
 31
0.0
  0
LINE
  5
B6
330
1F
100
AcDbEntity
  8
A-2_蓋
  6
Continuous
 62
     3
370
     9
100
AcDbLine
 10
-321.0149404164906
 20
28.01788950521473
 30
0.0
 11
-321.0149404164906
 21
-56.98232906662856
 31
0.0
  0
LINE
  5
B7
330
1F
100
AcDbEntity
  8
A-2_蓋
  6
Continuous
 62
     3
370
     9
100
AcDbLine
 10
-314.0150534140096
 20
28.01788950521473
 30
0.0
 11
-314.0150534140096
 21
-56.98232906662856
 31
0.0
  0
LINE
  5
B8
330
1F
100
AcDbEntity
  8
A-2_蓋
  6
Continuous
 62
     3
370
     9
100
AcDbLine
 10
-356.315076673353
 20
228.0183019049192
 30
0.0
 11
-356.315076673353
 21
139.0174144207554
 31
0.0
  0
LINE
  5
B9
330
1F
100
AcDbEntity
  8
A-2_蓋
  6
Continuous
 62
     3
370
     9
100
AcDbLine
 10
-349.3151278109164
 20
228.0183019049192
 30
0.0
 11
-349.3151278109164
 21
139.0174144207554
 31
0.0
  0
LINE
  5
BA
330
1F
100
AcDbEntity
  8
A-2_蓋
  6
Continuous
 62
     3
370
     9
100
AcDbLine
 10
-356.315076673353
 20
128.017724545333
 30
0.0
 11
-356.315076673353
 21
39.01733194081448
 31
0.0
  0
LINE
  5
BB
330
1F
100
AcDbEntity
  8
A-2_蓋
  6
Continuous
 62
     3
370
     9
100
AcDbLine
 10
-349.3151278109164
 20
128.017724545333
 30
0.0
 11
-349.3151278109164
 21
39.01733194081448
 31
0.0
  0
LINE
  5
BC
330
1F
100
AcDbEntity
  8
A-2_蓋
  6
Continuous
 62
     3
370
     9
100
AcDbLine
 10
-356.315076673353
 20
28.01788950521473
 30
0.0
 11
-356.315076673353
 21
-56.98232906662856
 31
0.0
  0
LINE
  5
BD
330
1F
100
AcDbEntity
  8
A-2_蓋
  6
Continuous
 62
     3
370
     9
100
AcDbLine
 10
-349.3151278109164
 20
28.01788950521473
 30
0.0
 11
-349.3151278109164
 21
-56.98232906662856
 31
0.0
  0
LINE
  5
BE
330
1F
100
AcDbEntity
  8
A-2_蓋
  6
Continuous
 62
     3
370
     9
100
AcDbLine
 10
-391.61471805057
 20
228.0183019049192
 30
0.0
 11
-391.61471805057
 21
139.0174144207554
 31
0.0
  0
LINE
  5
BF
330
1F
100
AcDbEntity
  8
A-2_蓋
  6
Continuous
 62
     3
370
     9
100
AcDbLine
 10
-384.6147691881334
 20
228.0183019049192
 30
0.0
 11
-384.6147691881334
 21
139.0174144207554
 31
0.0
  0
LINE
  5
C0
330
1F
100
AcDbEntity
  8
A-2_蓋
  6
Continuous
 62
     3
370
     9
100
AcDbLine
 10
-391.61471805057
 20
128.017724545333
 30
0.0
 11
-391.61471805057
 21
39.01733194081448
 31
0.0
  0
LINE
  5
C1
330
1F
100
AcDbEntity
  8
A-2_蓋
  6
Continuous
 62
     3
370
     9
100
AcDbLine
 10
-384.6147691881334
 20
128.017724545333
 30
0.0
 11
-384.6147691881334
 21
39.01733194081448
 31
0.0
  0
LINE
  5
C2
330
1F
100
AcDbEntity
  8
A-2_蓋
  6
Continuous
 62
     3
370
     9
100
AcDbLine
 10
-391.61471805057
 20
28.01788950521473
 30
0.0
 11
-391.61471805057
 21
-56.98232906662856
 31
0.0
  0
LINE
  5
C3
330
1F
100
AcDbEntity
  8
A-2_蓋
  6
Continuous
 62
     3
370
     9
100
AcDbLine
 10
-384.6147691881334
 20
28.01788950521473
 30
0.0
 11
-384.6147691881334
 21
-56.98232906662856
 31
0.0
  0
LINE
  5
C4
330
1F
100
AcDbEntity
  8
A-2_蓋
  6
Continuous
 62
     3
370
     9
100
AcDbLine
 10
-426.9149780273438
 20
228.0183019049192
 30
0.0
 11
-426.9149780273438
 21
139.0174144207554
 31
0.0
  0
LINE
  5
C5
330
1F
100
AcDbEntity
  8
A-2_蓋
  6
Continuous
 62
     3
370
     9
100
AcDbLine
 10
-419.9149054449958
 20
228.0183019049192
 30
0.0
 11
-419.9149054449958
 21
139.0174144207554
 31
0.0
  0
LINE
  5
C6
330
1F
100
AcDbEntity
  8
A-2_蓋
  6
Continuous
 62
     3
370
     9
100
AcDbLine
 10
-426.9149780273438
 20
128.017724545333
 30
0.0
 11
-426.9149780273438
 21
39.01733194081448
 31
0.0
  0
LINE
  5
C7
330
1F
100
AcDbEntity
  8
A-2_蓋
  6
Continuous
 62
     3
370
     9
100
AcDbLine
 10
-419.9149054449958
 20
128.017724545333
 30
0.0
 11
-419.9149054449958
 21
39.01733194081448
 31
0.0
  0
LINE
  5
C8
330
1F
100
AcDbEntity
  8
A-2_蓋
  6
Continuous
 62
     3
370
     9
100
AcDbLine
 10
-426.9149780273438
 20
28.01788950521473
 30
0.0
 11
-426.9149780273438
 21
-56.98232906662856
 31
0.0
  0
LINE
  5
C9
330
1F
100
AcDbEntity
  8
A-2_蓋
  6
Continuous
 62
     3
370
     9
100
AcDbLine
 10
-419.9149054449958
 20
28.01788950521473
 30
0.0
 11
-419.9149054449958
 21
-56.98232906662856
 31
0.0
  0
LINE
  5
CA
330
1F
100
AcDbEntity
  8
A-2_蓋
  6
Continuous
 62
     3
370
     9
100
AcDbLine
 10
-462.215114284206
 20
228.0183019049192
 30
0.0
 11
-462.215114284206
 21
139.0174144207554
 31
0.0
  0
LINE
  5
CB
330
1F
100
AcDbEntity
  8
A-2_蓋
  6
Continuous
 62
     3
370
     9
100
AcDbLine
 10
-455.2151654217694
 20
228.0183019049192
 30
0.0
 11
-455.2151654217694
 21
139.0174144207554
 31
0.0
  0
LINE
  5
CC
330
1F
100
AcDbEntity
  8
A-2_蓋
  6
Continuous
 62
     3
370
     9
100
AcDbLine
 10
-462.215114284206
 20
128.017724545333
 30
0.0
 11
-462.215114284206
 21
39.01733194081448
 31
0.0
  0
LINE
  5
CD
330
1F
100
AcDbEntity
  8
A-2_蓋
  6
Continuous
 62
     3
370
     9
100
AcDbLine
 10
-455.2151654217694
 20
128.017724545333
 30
0.0
 11
-455.2151654217694
 21
39.01733194081448
 31
0.0
  0
LINE
  5
CE
330
1F
100
AcDbEntity
  8
A-2_蓋
  6
Continuous
 62
     3
370
     9
100
AcDbLine
 10
-462.215114284206
 20
28.01788950521473
 30
0.0
 11
-462.215114284206
 21
-56.98232906662856
 31
0.0
  0
LINE
  5
CF
330
1F
100
AcDbEntity
  8
A-2_蓋
  6
Continuous
 62
     3
370
     9
100
AcDbLine
 10
-455.2151654217694
 20
28.01788950521473
 30
0.0
 11
-455.2151654217694
 21
-56.98232906662856
 31
0.0
  0
LINE
  5
D0
330
1F
100
AcDbEntity
  8
A-2_蓋
  6
Continuous
 62
     3
370
     9
100
AcDbLine
 10
-497.5147556614231
 20
228.0183019049192
 30
0.0
 11
-497.5147556614231
 21
139.0174144207554
 31
0.0
  0
LINE
  5
D1
330
1F
100
AcDbEntity
  8
A-2_蓋
  6
Continuous
 62
     3
370
     9
100
AcDbLine
 10
-490.5148067989865
 20
228.0183019049192
 30
0.0
 11
-490.5148067989865
 21
139.0174144207554
 31
0.0
  0
LINE
  5
D2
330
1F
100
AcDbEntity
  8
A-2_蓋
  6
Continuous
 62
     3
370
     9
100
AcDbLine
 10
-497.5147556614231
 20
128.017724545333
 30
0.0
 11
-497.5147556614231
 21
39.01733194081448
 31
0.0
  0
LINE
  5
D3
330
1F
100
AcDbEntity
  8
A-2_蓋
  6
Continuous
 62
     3
370
     9
100
AcDbLine
 10
-490.5148067989865
 20
128.017724545333
 30
0.0
 11
-490.5148067989865
 21
39.01733194081448
 31
0.0
  0
LINE
  5
D4
330
1F
100
AcDbEntity
  8
A-2_蓋
  6
Continuous
 62
     3
370
     9
100
AcDbLine
 10
-497.5147556614231
 20
28.01788950521473
 30
0.0
 11
-497.5147556614231
 21
-56.98232906662856
 31
0.0
  0
LINE
  5
D5
330
1F
100
AcDbEntity
  8
A-2_蓋
  6
Continuous
 62
     3
370
     9
100
AcDbLine
 10
-490.5148067989865
 20
28.01788950521473
 30
0.0
 11
-490.5148067989865
 21
-56.98232906662856
 31
0.0
  0
LINE
  5
D6
330
1F
100
AcDbEntity
  8
A-2_蓋
  6
Continuous
 62
     3
370
     9
100
AcDbLine
 10
-532.8148919182854
 20
228.0183019049192
 30
0.0
 11
-532.8148919182854
 21
139.0174144207554
 31
0.0
  0
LINE
  5
D7
330
1F
100
AcDbEntity
  8
A-2_蓋
  6
Continuous
 62
     3
370
     9
100
AcDbLine
 10
-525.8149430558487
 20
228.0183019049192
 30
0.0
 11
-525.8149430558487
 21
139.0174144207554
 31
0.0
  0
LINE
  5
D8
330
1F
100
AcDbEntity
  8
A-2_蓋
  6
Continuous
 62
     3
370
     9
100
AcDbLine
 10
-532.8148919182854
 20
128.017724545333
 30
0.0
 11
-532.8148919182854
 21
39.01733194081448
 31
0.0
  0
LINE
  5
D9
330
1F
100
AcDbEntity
  8
A-2_蓋
  6
Continuous
 62
     3
370
     9
100
AcDbLine
 10
-525.8149430558487
 20
128.017724545333
 30
0.0
 11
-525.8149430558487
 21
39.01733194081448
 31
0.0
  0
LINE
  5
DA
330
1F
100
AcDbEntity
  8
A-2_蓋
  6
Continuous
 62
     3
370
     9
100
AcDbLine
 10
-532.8148919182854
 20
28.01788950521473
 30
0.0
 11
-532.8148919182854
 21
-56.98232906662856
 31
0.0
  0
LINE
  5
DB
330
1F
100
AcDbEntity
  8
A-2_蓋
  6
Continuous
 62
     3
370
     9
100
AcDbLine
 10
-525.8149430558487
 20
28.01788950521473
 30
0.0
 11
-525.8149430558487
 21
-56.98232906662856
 31
0.0
  0
LINE
  5
DC
330
1F
100
AcDbEntity
  8
A-2_蓋
  6
Continuous
 62
     3
370
     9
100
AcDbLine
 10
-568.1151518950592
 20
228.0183019049192
 30
0.0
 11
-568.1151518950592
 21
139.0174144207554
 31
0.0
  0
LINE
  5
DD
330
1F
100
AcDbEntity
  8
A-2_蓋
  6
Continuous
 62
     3
370
     9
100
AcDbLine
 10
-561.1150793127111
 20
228.0183019049192
 30
0.0
 11
-561.1150793127111
 21
139.0174144207554
 31
0.0
  0
LINE
  5
DE
330
1F
100
AcDbEntity
  8
A-2_蓋
  6
Continuous
 62
     3
370
     9
100
AcDbLine
 10
-568.1151518950592
 20
128.017724545333
 30
0.0
 11
-568.1151518950592
 21
39.01733194081448
 31
0.0
  0
LINE
  5
DF
330
1F
100
AcDbEntity
  8
A-2_蓋
  6
Continuous
 62
     3
370
     9
100
AcDbLine
 10
-561.1150793127111
 20
128.017724545333
 30
0.0
 11
-561.1150793127111
 21
39.01733194081448
 31
0.0
  0
LINE
  5
E0
330
1F
100
AcDbEntity
  8
A-2_蓋
  6
Continuous
 62
     3
370
     9
100
AcDbLine
 10
-568.1151518950592
 20
28.01788950521473
 30
0.0
 11
-568.1151518950592
 21
-56.98232906662856
 31
0.0
  0
LINE
  5
E1
330
1F
100
AcDbEntity
  8
A-2_蓋
  6
Continuous
 62
     3
370
     9
100
AcDbLine
 10
-561.1150793127111
 20
28.01788950521473
 30
0.0
 11
-561.1150793127111
 21
-56.98232906662856
 31
0.0
  0
LINE
  5
E2
330
1F
100
AcDbEntity
  8
A-2_蓋
  6
Continuous
 62
     3
370
     9
100
AcDbLine
 10
-596.0149816564611
 20
228.0183019049192
 30
0.0
 11
-561.1150793127111
 21
239.0179917803414
 31
0.0
  0
LINE
  5
E3
330
1F
100
AcDbEntity
  8
A-2_蓋
  6
Continuous
 62
     3
370
     9
100
AcDbLine
 10
-560.7149691195101
 20
228.0183019049192
 30
0.0
 11
-525.8150667757601
 21
239.0179917803414
 31
0.0
  0
LINE
  5
E4
330
1F
100
AcDbEntity
  8
A-2_蓋
  6
Continuous
 62
     3
370
     9
100
AcDbLine
 10
-525.4149565825592
 20
228.0183019049192
 30
0.0
 11
-490.5151779587204
 21
239.0179917803414
 31
0.0
  0
LINE
  5
E5
330
1F
100
AcDbEntity
  8
A-2_蓋
  6
Continuous
 62
     3
370
     9
100
AcDbLine
 10
-490.1149440456081
 20
228.0183019049192
 30
0.0
 11
-455.2151654217694
 21
239.0179917803414
 31
0.0
  0
LINE
  5
E6
330
1F
100
AcDbEntity
  8
A-2_蓋
  6
Continuous
 62
     3
370
     9
100
AcDbLine
 10
-454.8149315086571
 20
228.0183019049192
 30
0.0
 11
-419.9151528848183
 21
239.0179917803414
 31
0.0
  0
LINE
  5
E7
330
1F
100
AcDbEntity
  8
A-2_蓋
  6
Continuous
 62
     3
370
     9
100
AcDbLine
 10
-419.514918971706
 20
228.0183019049192
 30
0.0
 11
-384.6151403478673
 21
239.0179917803414
 31
0.0
  0
LINE
  5
E8
330
1F
100
AcDbEntity
  8
A-2_蓋
  6
Continuous
 62
     3
370
     9
100
AcDbLine
 10
-384.2149064347551
 20
228.0183019049192
 30
0.0
 11
-349.3151278109164
 21
239.0179917803414
 31
0.0
  0
LINE
  5
E9
330
1F
100
AcDbEntity
  8
A-2_蓋
  6
Continuous
 62
     3
370
     9
100
AcDbLine
 10
-348.9150176177154
 20
228.0183019049192
 30
0.0
 11
-314.0152389938767
 21
239.0179917803414
 31
0.0
  0
LINE
  5
EA
330
1F
100
AcDbEntity
  8
A-2_蓋
  6
Continuous
 62
     3
370
     9
100
AcDbLine
 10
-313.6150050807643
 20
228.0183019049192
 30
0.0
 11
-278.7151027370143
 21
239.0179917803414
 31
0.0
  0
LINE
  5
EB
330
1F
100
AcDbEntity
  8
A-2_蓋
  6
Continuous
 62
     3
370
     9
100
AcDbLine
 10
-278.314868823902
 20
228.0183019049192
 30
0.0
 11
-243.4150902000633
 21
239.0179917803414
 31
0.0
  0
LINE
  5
EC
330
1F
100
AcDbEntity
  8
A-2_蓋
  6
Continuous
 62
     3
370
     9
100
AcDbLine
 10
-243.0149800068622
 20
228.0183019049192
 30
0.0
 11
-208.1152013830236
 21
239.0179917803414
 31
0.0
  0
LINE
  5
ED
330
1F
100
AcDbEntity
  8
A-2_蓋
  6
Continuous
 62
     3
370
     9
100
AcDbLine
 10
-207.7150911898227
 20
228.0183019049192
 30
0.0
 11
-172.8151888460725
 21
239.0179917803414
 31
0.0
  0
LINE
  5
EE
330
1F
100
AcDbEntity
  8
A-2_蓋
  6
Continuous
 62
     3
370
     9
100
AcDbLine
 10
-172.4150786528716
 20
228.0183019049192
 30
0.0
 11
-137.5151763091216
 21
239.0179917803414
 31
0.0
  0
LINE
  5
EF
330
1F
100
AcDbEntity
  8
A-2_蓋
  6
Continuous
 62
     3
370
     9
100
AcDbLine
 10
-603.015425398543
 20
236.9375177516253
 30
0.0
 11
-596.4150918496621
 21
239.0179917803414
 31
0.0
  0
LINE
  5
F0
330
1F
100
AcDbEntity
  8
A-2_蓋
  6
Continuous
 62
     3
370
     9
100
AcDbLine
 10
-596.0149816564611
 20
128.0182194249783
 30
0.0
 11
-561.1150793127111
 21
139.0179093004005
 31
0.0
  0
LINE
  5
F1
330
1F
100
AcDbEntity
  8
A-2_蓋
  6
Continuous
 62
     3
370
     9
100
AcDbLine
 10
-560.7149691195101
 20
128.0182194249783
 30
0.0
 11
-525.8150667757601
 21
139.0179093004005
 31
0.0
  0
LINE
  5
F2
330
1F
100
AcDbEntity
  8
A-2_蓋
  6
Continuous
 62
     3
370
     9
100
AcDbLine
 10
-525.4149565825592
 20
128.0182194249783
 30
0.0
 11
-490.5151779587204
 21
139.0179093004005
 31
0.0
  0
LINE
  5
F3
330
1F
100
AcDbEntity
  8
A-2_蓋
  6
Continuous
 62
     3
370
     9
100
AcDbLine
 10
-490.1149440456081
 20
128.0182194249783
 30
0.0
 11
-455.2151654217694
 21
139.0179093004005
 31
0.0
  0
LINE
  5
F4
330
1F
100
AcDbEntity
  8
A-2_蓋
  6
Continuous
 62
     3
370
     9
100
AcDbLine
 10
-454.8149315086571
 20
128.0182194249783
 30
0.0
 11
-419.9151528848183
 21
139.0179093004005
 31
0.0
  0
LINE
  5
F5
330
1F
100
AcDbEntity
  8
A-2_蓋
  6
Continuous
 62
     3
370
     9
100
AcDbLine
 10
-419.514918971706
 20
128.0182194249783
 30
0.0
 11
-384.6151403478673
 21
139.0179093004005
 31
0.0
  0
LINE
  5
F6
330
1F
100
AcDbEntity
  8
A-2_蓋
  6
Continuous
 62
     3
370
     9
100
AcDbLine
 10
-384.2149064347551
 20
128.0182194249783
 30
0.0
 11
-349.3151278109164
 21
139.0179093004005
 31
0.0
  0
LINE
  5
F7
330
1F
100
AcDbEntity
  8
A-2_蓋
  6
Continuous
 62
     3
370
     9
100
AcDbLine
 10
-348.9150176177154
 20
128.0182194249783
 30
0.0
 11
-314.0152389938767
 21
139.0179093004005
 31
0.0
  0
LINE
  5
F8
330
1F
100
AcDbEntity
  8
A-2_蓋
  6
Continuous
 62
     3
370
     9
100
AcDbLine
 10
-313.6150050807643
 20
128.0182194249783
 30
0.0
 11
-278.7151027370143
 21
139.0179093004005
 31
0.0
  0
LINE
  5
F9
330
1F
100
AcDbEntity
  8
A-2_蓋
  6
Continuous
 62
     3
370
     9
100
AcDbLine
 10
-278.314868823902
 20
128.0182194249783
 30
0.0
 11
-243.4150902000633
 21
139.0179093004005
 31
0.0
  0
LINE
  5
FA
330
1F
100
AcDbEntity
  8
A-2_蓋
  6
Continuous
 62
     3
370
     9
100
AcDbLine
 10
-243.0149800068622
 20
128.0182194249783
 30
0.0
 11
-208.1152013830236
 21
139.0179093004005
 31
0.0
  0
LINE
  5
FB
330
1F
100
AcDbEntity
  8
A-2_蓋
  6
Continuous
 62
     3
370
     9
100
AcDbLine
 10
-207.7150911898227
 20
128.0182194249783
 30
0.0
 11
-172.8151888460725
 21
139.0179093004005
 31
0.0
  0
LINE
  5
FC
330
1F
100
AcDbEntity
  8
A-2_蓋
  6
Continuous
 62
     3
370
     9
100
AcDbLine
 10
-172.4150786528716
 20
128.0182194249783
 30
0.0
 11
-137.5151763091216
 21
139.0179093004005
 31
0.0
  0
LINE
  5
FD
330
1F
100
AcDbEntity
  8
A-2_蓋
  6
Continuous
 62
     3
370
     9
100
AcDbLine
 10
-603.015425398543
 20
136.9376827115071
 30
0.0
 11
-596.4150918496621
 21
139.0179093004005
 31
0.0
  0
LINE
  5
FE
330
1F
100
AcDbEntity
  8
A-2_蓋
  6
Continuous
 62
     3
370
     9
100
AcDbLine
 10
-596.0149816564611
 20
28.01813694503739
 30
0.0
 11
-561.1150793127111
 21
39.01782682045965
 31
0.0
  0
LINE
  5
FF
330
1F
100
AcDbEntity
  8
A-2_蓋
  6
Continuous
 62
     3
370
     9
100
AcDbLine
 10
-560.7149691195101
 20
28.01813694503739
 30
0.0
 11
-525.8150667757601
 21
39.01782682045965
 31
0.0
  0
LINE
  5
100
330
1F
100
AcDbEntity
  8
A-2_蓋
  6
Continuous
 62
     3
370
     9
100
AcDbLine
 10
-525.4149565825592
 20
28.01813694503739
 30
0.0
 11
-490.5151779587204
 21
39.01782682045965
 31
0.0
  0
LINE
  5
101
330
1F
100
AcDbEntity
  8
A-2_蓋
  6
Continuous
 62
     3
370
     9
100
AcDbLine
 10
-490.1149440456081
 20
28.01813694503739
 30
0.0
 11
-455.2151654217694
 21
39.01782682045965
 31
0.0
  0
LINE
  5
102
330
1F
100
AcDbEntity
  8
A-2_蓋
  6
Continuous
 62
     3
370
     9
100
AcDbLine
 10
-454.8149315086571
 20
28.01813694503739
 30
0.0
 11
-419.9151528848183
 21
39.01782682045965
 31
0.0
  0
LINE
  5
103
330
1F
100
AcDbEntity
  8
A-2_蓋
  6
Continuous
 62
     3
370
     9
100
AcDbLine
 10
-419.514918971706
 20
28.01813694503739
 30
0.0
 11
-384.6151403478673
 21
39.01782682045965
 31
0.0
  0
LINE
  5
104
330
1F
100
AcDbEntity
  8
A-2_蓋
  6
Continuous
 62
     3
370
     9
100
AcDbLine
 10
-384.2149064347551
 20
28.01813694503739
 30
0.0
 11
-349.3151278109164
 21
39.01782682045965
 31
0.0
  0
LINE
  5
105
330
1F
100
AcDbEntity
  8
A-2_蓋
  6
Continuous
 62
     3
370
     9
100
AcDbLine
 10
-348.9150176177154
 20
28.01813694503739
 30
0.0
 11
-314.0152389938767
 21
39.01782682045965
 31
0.0
  0
LINE
  5
106
330
1F
100
AcDbEntity
  8
A-2_蓋
  6
Continuous
 62
     3
370
     9
100
AcDbLine
 10
-313.6150050807643
 20
28.01813694503739
 30
0.0
 11
-278.7151027370143
 21
39.01782682045965
 31
0.0
  0
LINE
  5
107
330
1F
100
AcDbEntity
  8
A-2_蓋
  6
Continuous
 62
     3
370
     9
100
AcDbLine
 10
-278.314868823902
 20
28.01813694503739
 30
0.0
 11
-243.4150902000633
 21
39.01782682045965
 31
0.0
  0
LINE
  5
108
330
1F
100
AcDbEntity
  8
A-2_蓋
  6
Continuous
 62
     3
370
     9
100
AcDbLine
 10
-243.0149800068622
 20
28.01813694503739
 30
0.0
 11
-208.1152013830236
 21
39.01782682045965
 31
0.0
  0
LINE
  5
109
330
1F
100
AcDbEntity
  8
A-2_蓋
  6
Continuous
 62
     3
370
     9
100
AcDbLine
 10
-207.7150911898227
 20
28.01813694503739
 30
0.0
 11
-172.8151888460725
 21
39.01782682045965
 31
0.0
  0
LINE
  5
10A
330
1F
100
AcDbEntity
  8
A-2_蓋
  6
Continuous
 62
     3
370
     9
100
AcDbLine
 10
-172.4150786528716
 20
28.01813694503739
 30
0.0
 11
-137.5151763091216
 21
39.01782682045965
 31
0.0
  0
LINE
  5
10B
330
1F
100
AcDbEntity
  8
A-2_蓋
  6
Continuous
 62
     3
370
     9
100
AcDbLine
 10
-603.015425398543
 20
36.93760023156617
 30
0.0
 11
-596.4150918496621
 21
39.01782682045965
 31
0.0
  0
LINE
  5
10C
330
1F
100
AcDbEntity
  8
A-2_蓋
  6
Continuous
 62
     3
370
     9
100
AcDbLine
 10
-603.015425398543
 20
339.0180742602823
 30
0.0
 11
-113.015417150549
 21
339.0180742602823
 31
0.0
  0
LINE
  5
10D
330
1F
100
AcDbEntity
  8
A-2_蓋
  6
Continuous
 62
     3
370
     9
100
AcDbLine
 10
-596.0149816564611
 20
328.01838438486
 30
0.0
 11
-561.1150793127111
 21
339.0180742602823
 31
0.0
  0
LINE
  5
10E
330
1F
100
AcDbEntity
  8
A-2_蓋
  6
Continuous
 62
     3
370
     9
100
AcDbLine
 10
-560.7149691195101
 20
328.01838438486
 30
0.0
 11
-525.8150667757601
 21
339.0180742602823
 31
0.0
  0
LINE
  5
10F
330
1F
100
AcDbEntity
  8
A-2_蓋
  6
Continuous
 62
     3
370
     9
100
AcDbLine
 10
-525.4149565825592
 20
328.01838438486
 30
0.0
 11
-490.5151779587204
 21
339.0180742602823
 31
0.0
  0
LINE
  5
110
330
1F
100
AcDbEntity
  8
A-2_蓋
  6
Continuous
 62
     3
370
     9
100
AcDbLine
 10
-490.1149440456081
 20
328.01838438486
 30
0.0
 11
-455.2151654217694
 21
339.0180742602823
 31
0.0
  0
LINE
  5
111
330
1F
100
AcDbEntity
  8
A-2_蓋
  6
Continuous
 62
     3
370
     9
100
AcDbLine
 10
-454.8149315086571
 20
328.01838438486
 30
0.0
 11
-419.9151528848183
 21
339.0180742602823
 31
0.0
  0
LINE
  5
112
330
1F
100
AcDbEntity
  8
A-2_蓋
  6
Continuous
 62
     3
370
     9
100
AcDbLine
 10
-419.514918971706
 20
328.01838438486
 30
0.0
 11
-384.6151403478673
 21
339.0180742602823
 31
0.0
  0
LINE
  5
113
330
1F
100
AcDbEntity
  8
A-2_蓋
  6
Continuous
 62
     3
370
     9
100
AcDbLine
 10
-384.2149064347551
 20
328.01838438486
 30
0.0
 11
-349.3151278109164
 21
339.0180742602823
 31
0.0
  0
LINE
  5
114
330
1F
100
AcDbEntity
  8
A-2_蓋
  6
Continuous
 62
     3
370
     9
100
AcDbLine
 10
-348.9150176177154
 20
328.01838438486
 30
0.0
 11
-314.0152389938767
 21
339.0180742602823
 31
0.0
  0
LINE
  5
115
330
1F
100
AcDbEntity
  8
A-2_蓋
  6
Continuous
 62
     3
370
     9
100
AcDbLine
 10
-313.6150050807643
 20
328.01838438486
 30
0.0
 11
-278.7151027370143
 21
339.0180742602823
 31
0.0
  0
LINE
  5
116
330
1F
100
AcDbEntity
  8
A-2_蓋
  6
Continuous
 62
     3
370
     9
100
AcDbLine
 10
-278.314868823902
 20
328.01838438486
 30
0.0
 11
-243.4150902000633
 21
339.0180742602823
 31
0.0
  0
LINE
  5
117
330
1F
100
AcDbEntity
  8
A-2_蓋
  6
Continuous
 62
     3
370
     9
100
AcDbLine
 10
-243.0149800068622
 20
328.01838438486
 30
0.0
 11
-208.1152013830236
 21
339.0180742602823
 31
0.0
  0
LINE
  5
118
330
1F
100
AcDbEntity
  8
A-2_蓋
  6
Continuous
 62
     3
370
     9
100
AcDbLine
 10
-207.7150911898227
 20
328.01838438486
 30
0.0
 11
-172.8151888460725
 21
339.0180742602823
 31
0.0
  0
LINE
  5
119
330
1F
100
AcDbEntity
  8
A-2_蓋
  6
Continuous
 62
     3
370
     9
100
AcDbLine
 10
-172.4150786528716
 20
328.01838438486
 30
0.0
 11
-137.5151763091216
 21
339.0180742602823
 31
0.0
  0
LINE
  5
11A
330
1F
100
AcDbEntity
  8
A-2_蓋
  6
Continuous
 62
     3
370
     9
100
AcDbLine
 10
-603.015425398543
 20
336.9376002315661
 30
0.0
 11
-596.4150918496621
 21
339.0180742602823
 31
0.0
  0
LINE
  5
11B
330
1F
100
AcDbEntity
  8
A-2_蓋
  6
Continuous
 62
     3
370
     9
100
AcDbLine
 10
-596.0149816564611
 20
239.0179917803414
 30
0.0
 11
-596.0149816564611
 21
328.01838438486
 31
0.0
  0
LINE
  5
11C
330
1F
100
AcDbEntity
  8
A-2_蓋
  6
Continuous
 62
     3
370
     9
100
AcDbLine
 10
-596.0149816564611
 20
339.0180742602823
 30
0.0
 11
-596.0149816564611
 21
424.01823097217
 31
0.0
  0
LINE
  5
11D
330
1F
100
AcDbEntity
  8
A-2_蓋
  6
Continuous
 62
     3
370
     9
100
AcDbLine
 10
-120.0154897328969
 20
424.01823097217
 30
0.0
 11
-120.0154897328969
 21
339.0180742602823
 31
0.0
  0
LINE
  5
11E
330
1F
100
AcDbEntity
  8
A-2_蓋
  6
Continuous
 62
     3
370
     9
100
AcDbLine
 10
-120.0154897328969
 20
328.01838438486
 30
0.0
 11
-120.0154897328969
 21
239.0179917803414
 31
0.0
  0
LINE
  5
11F
330
1F
100
AcDbEntity
  8
A-2_蓋
  6
Continuous
 62
     3
370
     9
100
AcDbLine
 10
-144.5150014516469
 20
424.01823097217
 30
0.0
 11
-144.5150014516469
 21
339.0180742602823
 31
0.0
  0
LINE
  5
120
330
1F
100
AcDbEntity
  8
A-2_蓋
  6
Continuous
 62
     3
370
     9
100
AcDbLine
 10
-144.5150014516469
 20
328.01838438486
 30
0.0
 11
-144.5150014516469
 21
239.0179917803414
 31
0.0
  0
LINE
  5
121
330
1F
100
AcDbEntity
  8
A-2_蓋
  6
Continuous
 62
     3
370
     9
100
AcDbLine
 10
-137.5150525892103
 20
424.01823097217
 30
0.0
 11
-137.5150525892103
 21
339.0180742602823
 31
0.0
  0
LINE
  5
122
330
1F
100
AcDbEntity
  8
A-2_蓋
  6
Continuous
 62
     3
370
     9
100
AcDbLine
 10
-137.5150525892103
 20
328.01838438486
 30
0.0
 11
-137.5150525892103
 21
239.0179917803414
 31
0.0
  0
LINE
  5
123
330
1F
100
AcDbEntity
  8
A-2_蓋
  6
Continuous
 62
     3
370
     9
100
AcDbLine
 10
-179.8152614284206
 20
424.01823097217
 30
0.0
 11
-179.8152614284206
 21
339.0180742602823
 31
0.0
  0
LINE
  5
124
330
1F
100
AcDbEntity
  8
A-2_蓋
  6
Continuous
 62
     3
370
     9
100
AcDbLine
 10
-179.8152614284206
 20
328.01838438486
 30
0.0
 11
-179.8152614284206
 21
239.0179917803414
 31
0.0
  0
LINE
  5
125
330
1F
100
AcDbEntity
  8
A-2_蓋
  6
Continuous
 62
     3
370
     9
100
AcDbLine
 10
-172.8151888460725
 20
424.01823097217
 30
0.0
 11
-172.8151888460725
 21
339.0180742602823
 31
0.0
  0
LINE
  5
126
330
1F
100
AcDbEntity
  8
A-2_蓋
  6
Continuous
 62
     3
370
     9
100
AcDbLine
 10
-172.8151888460725
 20
328.01838438486
 30
0.0
 11
-172.8151888460725
 21
239.0179917803414
 31
0.0
  0
LINE
  5
127
330
1F
100
AcDbEntity
  8
A-2_蓋
  6
Continuous
 62
     3
370
     9
100
AcDbLine
 10
-215.1149028056376
 20
424.01823097217
 30
0.0
 11
-215.1149028056376
 21
339.0180742602823
 31
0.0
  0
LINE
  5
128
330
1F
100
AcDbEntity
  8
A-2_蓋
  6
Continuous
 62
     3
370
     9
100
AcDbLine
 10
-215.1149028056376
 20
328.01838438486
 30
0.0
 11
-215.1149028056376
 21
239.0179917803414
 31
0.0
  0
LINE
  5
129
330
1F
100
AcDbEntity
  8
A-2_蓋
  6
Continuous
 62
     3
370
     9
100
AcDbLine
 10
-208.1149539432009
 20
424.01823097217
 30
0.0
 11
-208.1149539432009
 21
339.0180742602823
 31
0.0
  0
LINE
  5
12A
330
1F
100
AcDbEntity
  8
A-2_蓋
  6
Continuous
 62
     3
370
     9
100
AcDbLine
 10
-208.1149539432009
 20
328.01838438486
 30
0.0
 11
-208.1149539432009
 21
239.0179917803414
 31
0.0
  0
LINE
  5
12B
330
1F
100
AcDbEntity
  8
A-2_蓋
  6
Continuous
 62
     3
370
     9
100
AcDbLine
 10
-250.4150390625
 20
424.01823097217
 30
0.0
 11
-250.4150390625
 21
339.0180742602823
 31
0.0
  0
LINE
  5
12C
330
1F
100
AcDbEntity
  8
A-2_蓋
  6
Continuous
 62
     3
370
     9
100
AcDbLine
 10
-250.4150390625
 20
328.01838438486
 30
0.0
 11
-250.4150390625
 21
239.0179917803414
 31
0.0
  0
LINE
  5
12D
330
1F
100
AcDbEntity
  8
A-2_蓋
  6
Continuous
 62
     3
370
     9
100
AcDbLine
 10
-243.4150902000633
 20
424.01823097217
 30
0.0
 11
-243.4150902000633
 21
339.0180742602823
 31
0.0
  0
LINE
  5
12E
330
1F
100
AcDbEntity
  8
A-2_蓋
  6
Continuous
 62
     3
370
     9
100
AcDbLine
 10
-243.4150902000633
 20
328.01838438486
 30
0.0
 11
-243.4150902000633
 21
239.0179917803414
 31
0.0
  0
LINE
  5
12F
330
1F
100
AcDbEntity
  8
A-2_蓋
  6
Continuous
 62
     3
370
     9
100
AcDbLine
 10
-285.7148041596284
 20
424.01823097217
 30
0.0
 11
-285.7148041596284
 21
339.0180742602823
 31
0.0
  0
LINE
  5
130
330
1F
100
AcDbEntity
  8
A-2_蓋
  6
Continuous
 62
     3
370
     9
100
AcDbLine
 10
-285.7148041596284
 20
328.01838438486
 30
0.0
 11
-285.7148041596284
 21
239.0179917803414
 31
0.0
  0
LINE
  5
131
330
1F
100
AcDbEntity
  8
A-2_蓋
  6
Continuous
 62
     3
370
     9
100
AcDbLine
 10
-278.7147315772803
 20
424.01823097217
 30
0.0
 11
-278.7147315772803
 21
339.0180742602823
 31
0.0
  0
LINE
  5
132
330
1F
100
AcDbEntity
  8
A-2_蓋
  6
Continuous
 62
     3
370
     9
100
AcDbLine
 10
-278.7147315772803
 20
328.01838438486
 30
0.0
 11
-278.7147315772803
 21
239.0179917803414
 31
0.0
  0
LINE
  5
133
330
1F
100
AcDbEntity
  8
A-2_蓋
  6
Continuous
 62
     3
370
     9
100
AcDbLine
 10
-321.0149404164906
 20
424.01823097217
 30
0.0
 11
-321.0149404164906
 21
339.0180742602823
 31
0.0
  0
LINE
  5
134
330
1F
100
AcDbEntity
  8
A-2_蓋
  6
Continuous
 62
     3
370
     9
100
AcDbLine
 10
-321.0149404164906
 20
328.01838438486
 30
0.0
 11
-321.0149404164906
 21
239.0179917803414
 31
0.0
  0
LINE
  5
135
330
1F
100
AcDbEntity
  8
A-2_蓋
  6
Continuous
 62
     3
370
     9
100
AcDbLine
 10
-314.0150534140096
 20
424.01823097217
 30
0.0
 11
-314.0150534140096
 21
339.0180742602823
 31
0.0
  0
LINE
  5
136
330
1F
100
AcDbEntity
  8
A-2_蓋
  6
Continuous
 62
     3
370
     9
100
AcDbLine
 10
-314.0150534140096
 20
328.01838438486
 30
0.0
 11
-314.0150534140096
 21
239.0179917803414
 31
0.0
  0
LINE
  5
137
330
1F
100
AcDbEntity
  8
A-2_蓋
  6
Continuous
 62
     3
370
     9
100
AcDbLine
 10
-356.315076673353
 20
424.01823097217
 30
0.0
 11
-356.315076673353
 21
339.0180742602823
 31
0.0
  0
LINE
  5
138
330
1F
100
AcDbEntity
  8
A-2_蓋
  6
Continuous
 62
     3
370
     9
100
AcDbLine
 10
-356.315076673353
 20
328.01838438486
 30
0.0
 11
-356.315076673353
 21
239.0179917803414
 31
0.0
  0
LINE
  5
139
330
1F
100
AcDbEntity
  8
A-2_蓋
  6
Continuous
 62
     3
370
     9
100
AcDbLine
 10
-349.3151278109164
 20
424.01823097217
 30
0.0
 11
-349.3151278109164
 21
339.0180742602823
 31
0.0
  0
LINE
  5
13A
330
1F
100
AcDbEntity
  8
A-2_蓋
  6
Continuous
 62
     3
370
     9
100
AcDbLine
 10
-349.3151278109164
 20
328.01838438486
 30
0.0
 11
-349.3151278109164
 21
239.0179917803414
 31
0.0
  0
LINE
  5
13B
330
1F
100
AcDbEntity
  8
A-2_蓋
  6
Continuous
 62
     3
370
     9
100
AcDbLine
 10
-391.61471805057
 20
424.01823097217
 30
0.0
 11
-391.61471805057
 21
339.0180742602823
 31
0.0
  0
LINE
  5
13C
330
1F
100
AcDbEntity
  8
A-2_蓋
  6
Continuous
 62
     3
370
     9
100
AcDbLine
 10
-391.61471805057
 20
328.01838438486
 30
0.0
 11
-391.61471805057
 21
239.0179917803414
 31
0.0
  0
LINE
  5
13D
330
1F
100
AcDbEntity
  8
A-2_蓋
  6
Continuous
 62
     3
370
     9
100
AcDbLine
 10
-384.6147691881334
 20
424.01823097217
 30
0.0
 11
-384.6147691881334
 21
339.0180742602823
 31
0.0
  0
LINE
  5
13E
330
1F
100
AcDbEntity
  8
A-2_蓋
  6
Continuous
 62
     3
370
     9
100
AcDbLine
 10
-384.6147691881334
 20
328.01838438486
 30
0.0
 11
-384.6147691881334
 21
239.0179917803414
 31
0.0
  0
LINE
  5
13F
330
1F
100
AcDbEntity
  8
A-2_蓋
  6
Continuous
 62
     3
370
     9
100
AcDbLine
 10
-426.9149780273438
 20
424.01823097217
 30
0.0
 11
-426.9149780273438
 21
339.0180742602823
 31
0.0
  0
LINE
  5
140
330
1F
100
AcDbEntity
  8
A-2_蓋
  6
Continuous
 62
     3
370
     9
100
AcDbLine
 10
-426.9149780273438
 20
328.01838438486
 30
0.0
 11
-426.9149780273438
 21
239.0179917803414
 31
0.0
  0
LINE
  5
141
330
1F
100
AcDbEntity
  8
A-2_蓋
  6
Continuous
 62
     3
370
     9
100
AcDbLine
 10
-419.9149054449958
 20
424.01823097217
 30
0.0
 11
-419.9149054449958
 21
339.0180742602823
 31
0.0
  0
LINE
  5
142
330
1F
100
AcDbEntity
  8
A-2_蓋
  6
Continuous
 62
     3
370
     9
100
AcDbLine
 10
-419.9149054449958
 20
328.01838438486
 30
0.0
 11
-419.9149054449958
 21
239.0179917803414
 31
0.0
  0
LINE
  5
143
330
1F
100
AcDbEntity
  8
A-2_蓋
  6
Continuous
 62
     3
370
     9
100
AcDbLine
 10
-462.215114284206
 20
424.01823097217
 30
0.0
 11
-462.215114284206
 21
339.0180742602823
 31
0.0
  0
LINE
  5
144
330
1F
100
AcDbEntity
  8
A-2_蓋
  6
Continuous
 62
     3
370
     9
100
AcDbLine
 10
-462.215114284206
 20
328.01838438486
 30
0.0
 11
-462.215114284206
 21
239.0179917803414
 31
0.0
  0
LINE
  5
145
330
1F
100
AcDbEntity
  8
A-2_蓋
  6
Continuous
 62
     3
370
     9
100
AcDbLine
 10
-455.2151654217694
 20
424.01823097217
 30
0.0
 11
-455.2151654217694
 21
339.0180742602823
 31
0.0
  0
LINE
  5
146
330
1F
100
AcDbEntity
  8
A-2_蓋
  6
Continuous
 62
     3
370
     9
100
AcDbLine
 10
-455.2151654217694
 20
328.01838438486
 30
0.0
 11
-455.2151654217694
 21
239.0179917803414
 31
0.0
  0
LINE
  5
147
330
1F
100
AcDbEntity
  8
A-2_蓋
  6
Continuous
 62
     3
370
     9
100
AcDbLine
 10
-497.5147556614231
 20
424.01823097217
 30
0.0
 11
-497.5147556614231
 21
339.0180742602823
 31
0.0
  0
LINE
  5
148
330
1F
100
AcDbEntity
  8
A-2_蓋
  6
Continuous
 62
     3
370
     9
100
AcDbLine
 10
-497.5147556614231
 20
328.01838438486
 30
0.0
 11
-497.5147556614231
 21
239.0179917803414
 31
0.0
  0
LINE
  5
149
330
1F
100
AcDbEntity
  8
A-2_蓋
  6
Continuous
 62
     3
370
     9
100
AcDbLine
 10
-490.5148067989865
 20
424.01823097217
 30
0.0
 11
-490.5148067989865
 21
339.0180742602823
 31
0.0
  0
LINE
  5
14A
330
1F
100
AcDbEntity
  8
A-2_蓋
  6
Continuous
 62
     3
370
     9
100
AcDbLine
 10
-490.5148067989865
 20
328.01838438486
 30
0.0
 11
-490.5148067989865
 21
239.0179917803414
 31
0.0
  0
LINE
  5
14B
330
1F
100
AcDbEntity
  8
A-2_蓋
  6
Continuous
 62
     3
370
     9
100
AcDbLine
 10
-532.8148919182854
 20
424.01823097217
 30
0.0
 11
-532.8148919182854
 21
339.0180742602823
 31
0.0
  0
LINE
  5
14C
330
1F
100
AcDbEntity
  8
A-2_蓋
  6
Continuous
 62
     3
370
     9
100
AcDbLine
 10
-532.8148919182854
 20
328.01838438486
 30
0.0
 11
-532.8148919182854
 21
239.0179917803414
 31
0.0
  0
LINE
  5
14D
330
1F
100
AcDbEntity
  8
A-2_蓋
  6
Continuous
 62
     3
370
     9
100
AcDbLine
 10
-525.8149430558487
 20
424.01823097217
 30
0.0
 11
-525.8149430558487
 21
339.0180742602823
 31
0.0
  0
LINE
  5
14E
330
1F
100
AcDbEntity
  8
A-2_蓋
  6
Continuous
 62
     3
370
     9
100
AcDbLine
 10
-525.8149430558487
 20
328.01838438486
 30
0.0
 11
-525.8149430558487
 21
239.0179917803414
 31
0.0
  0
LINE
  5
14F
330
1F
100
AcDbEntity
  8
A-2_蓋
  6
Continuous
 62
     3
370
     9
100
AcDbLine
 10
-568.1151518950592
 20
424.01823097217
 30
0.0
 11
-568.1151518950592
 21
339.0180742602823
 31
0.0
  0
LINE
  5
150
330
1F
100
AcDbEntity
  8
A-2_蓋
  6
Continuous
 62
     3
370
     9
100
AcDbLine
 10
-568.1151518950592
 20
328.01838438486
 30
0.0
 11
-568.1151518950592
 21
239.0179917803414
 31
0.0
  0
LINE
  5
151
330
1F
100
AcDbEntity
  8
A-2_蓋
  6
Continuous
 62
     3
370
     9
100
AcDbLine
 10
-561.1150793127111
 20
424.01823097217
 30
0.0
 11
-561.1150793127111
 21
339.0180742602823
 31
0.0
  0
LINE
  5
152
330
1F
100
AcDbEntity
  8
A-2_蓋
  6
Continuous
 62
     3
370
     9
100
AcDbLine
 10
-561.1150793127111
 20
328.01838438486
 30
0.0
 11
-561.1150793127111
 21
239.0179917803414
 31
0.0
  0
LINE
  5
153
330
1F
100
AcDbEntity
  8
A-2_蓋
  6
Continuous
 62
     3
370
     9
100
AcDbLine
 10
435.1350526551943
 20
428.5179241467899
 30
0.0
 11
435.1350526551943
 21
424.0179835323474
 31
0.0
  0
LINE
  5
154
330
1F
100
AcDbEntity
  8
A-2_蓋
  6
Continuous
 62
     3
370
     9
100
AcDbLine
 10
396.4488261454815
 20
333.3613524750206
 30
0.0
 11
390.7919806403083
 21
327.7043832499361
 31
0.0
  0
LINE
  5
155
330
1F
100
AcDbEntity
  8
A-2_蓋
  6
Continuous
 62
     3
370
     9
100
AcDbLine
 10
390.7919806403083
 20
327.7043832499361
 30
0.0
 11
385.1351351351352
 21
333.3613524750206
 31
0.0
  0
LINE
  5
156
330
1F
100
AcDbEntity
  8
A-2_蓋
  6
Continuous
 62
     3
370
     9
100
AcDbLine
 10
385.1351351351352
 20
333.3613524750206
 30
0.0
 11
390.7919806403083
 21
339.0180742602823
 31
0.0
  0
LINE
  5
157
330
1F
100
AcDbEntity
  8
A-2_蓋
  6
Continuous
 62
     3
370
     9
100
AcDbLine
 10
390.7919806403083
 20
339.0180742602823
 30
0.0
 11
396.4488261454815
 21
333.3613524750206
 31
0.0
  0
LINE
  5
158
330
1F
100
AcDbEntity
  8
A-2_蓋
  6
Continuous
 62
     3
370
     9
100
AcDbLine
 10
385.1351351351352
 20
424.0179835323474
 30
0.0
 11
440.1351928710938
 21
424.0179835323474
 31
0.0
  0
LINE
  5
159
330
1F
100
AcDbEntity
  8
A-2_蓋
  6
Continuous
 62
     3
370
     9
100
AcDbLine
 10
385.1351351351352
 20
428.5179241467899
 30
0.0
 11
435.1350526551943
 21
428.5179241467899
 31
0.0
  0
LINE
  5
15A
330
1F
100
AcDbEntity
  8
A-2_蓋
  6
Continuous
 62
     3
370
     9
100
AcDbLine
 10
393.6350642023859
 20
424.0179835323474
 30
0.0
 11
393.6350642023859
 21
336.1749906982047
 31
0.0
  0
LINE
  5
15B
330
1F
100
AcDbEntity
  8
A-2_蓋
  6
Continuous
 62
     3
370
     9
100
AcDbLine
 10
395.1350444072003
 20
424.0179835323474
 30
0.0
 11
395.1350444072003
 21
334.6751342133018
 31
0.0
  0
LINE
  5
15C
330
1F
100
AcDbEntity
  8
A-2_蓋
  6
Continuous
 62
     3
370
     9
100
AcDbLine
 10
396.4488261454815
 20
233.3613318550353
 30
0.0
 11
390.7919806403083
 21
227.7043626299508
 31
0.0
  0
LINE
  5
15D
330
1F
100
AcDbEntity
  8
A-2_蓋
  6
Continuous
 62
     3
370
     9
100
AcDbLine
 10
390.7919806403083
 20
227.7043626299508
 30
0.0
 11
385.1351351351352
 21
233.3613318550353
 31
0.0
  0
LINE
  5
15E
330
1F
100
AcDbEntity
  8
A-2_蓋
  6
Continuous
 62
     3
370
     9
100
AcDbLine
 10
385.1351351351352
 20
233.3613318550353
 30
0.0
 11
390.7919806403083
 21
239.0180536402972
 31
0.0
  0
LINE
  5
15F
330
1F
100
AcDbEntity
  8
A-2_蓋
  6
Continuous
 62
     3
370
     9
100
AcDbLine
 10
390.7919806403083
 20
239.0180536402972
 30
0.0
 11
396.4488261454815
 21
233.3613318550353
 31
0.0
  0
LINE
  5
160
330
1F
100
AcDbEntity
  8
A-2_蓋
  6
Continuous
 62
     3
370
     9
100
AcDbLine
 10
396.4488261454815
 20
133.3613730950057
 30
0.0
 11
390.7919806403083
 21
127.7044038699212
 31
0.0
  0
LINE
  5
161
330
1F
100
AcDbEntity
  8
A-2_蓋
  6
Continuous
 62
     3
370
     9
100
AcDbLine
 10
390.7919806403083
 20
127.7044038699212
 30
0.0
 11
385.1351351351352
 21
133.3613730950057
 31
0.0
  0
LINE
  5
162
330
1F
100
AcDbEntity
  8
A-2_蓋
  6
Continuous
 62
     3
370
     9
100
AcDbLine
 10
385.1351351351352
 20
133.3613730950057
 30
0.0
 11
390.7919806403083
 21
139.0180948802676
 31
0.0
  0
LINE
  5
163
330
1F
100
AcDbEntity
  8
A-2_蓋
  6
Continuous
 62
     3
370
     9
100
AcDbLine
 10
390.7919806403083
 20
139.0180948802676
 30
0.0
 11
396.4488261454815
 21
133.3613730950057
 31
0.0
  0
LINE
  5
164
330
1F
100
AcDbEntity
  8
A-2_蓋
  6
Continuous
 62
     3
370
     9
100
AcDbLine
 10
393.6350642023859
 20
330.5474668120138
 30
0.0
 11
393.6350642023859
 21
236.1750319381752
 31
0.0
  0
LINE
  5
165
330
1F
100
AcDbEntity
  8
A-2_蓋
  6
Continuous
 62
     3
370
     9
100
AcDbLine
 10
395.1350444072003
 20
332.0475707367393
 30
0.0
 11
395.1350444072003
 21
234.6751135933166
 31
0.0
  0
LINE
  5
166
330
1F
100
AcDbEntity
  8
A-2_蓋
  6
Continuous
 62
     3
370
     9
100
AcDbLine
 10
435.1350526551943
 20
-61.48226968107114
 30
0.0
 11
435.1350526551943
 21
-56.98232906662856
 31
0.0
  0
LINE
  5
167
330
1F
100
AcDbEntity
  8
A-2_蓋
  6
Continuous
 62
     3
370
     9
100
AcDbLine
 10
396.4488261454815
 20
8.517651962985049
 30
0.0
 11
390.7919806403083
 21
14.17462118806956
 31
0.0
  0
LINE
  5
168
330
1F
100
AcDbEntity
  8
A-2_蓋
  6
Continuous
 62
     3
370
     9
100
AcDbLine
 10
390.7919806403083
 20
14.17462118806956
 30
0.0
 11
385.1351351351352
 21
8.517651962985049
 31
0.0
  0
LINE
  5
169
330
1F
100
AcDbEntity
  8
A-2_蓋
  6
Continuous
 62
     3
370
     9
100
AcDbLine
 10
385.1351351351352
 20
8.517651962985049
 30
0.0
 11
390.7919806403083
 21
2.860930177723198
 31
0.0
  0
LINE
  5
16A
330
1F
100
AcDbEntity
  8
A-2_蓋
  6
Continuous
 62
     3
370
     9
100
AcDbLine
 10
390.7919806403083
 20
2.860930177723198
 30
0.0
 11
396.4488261454815
 21
8.517651962985049
 31
0.0
  0
LINE
  5
16B
330
1F
100
AcDbEntity
  8
A-2_蓋
  6
Continuous
 62
     3
370
     9
100
AcDbLine
 10
385.1351351351352
 20
-56.98232906662856
 30
0.0
 11
440.1351928710938
 21
-56.98232906662856
 31
0.0
  0
LINE
  5
16C
330
1F
100
AcDbEntity
  8
A-2_蓋
  6
Continuous
 62
     3
370
     9
100
AcDbLine
 10
385.1351351351352
 20
-61.48226968107114
 30
0.0
 11
435.1350526551943
 21
-61.48226968107114
 31
0.0
  0
LINE
  5
16D
330
1F
100
AcDbEntity
  8
A-2_蓋
  6
Continuous
 62
     3
370
     9
100
AcDbLine
 10
393.6350642023859
 20
-56.98232906662856
 30
0.0
 11
393.6350642023859
 21
5.704013739800935
 31
0.0
  0
LINE
  5
16E
330
1F
100
AcDbEntity
  8
A-2_蓋
  6
Continuous
 62
     3
370
     9
100
AcDbLine
 10
395.1350444072003
 20
-56.98232906662856
 30
0.0
 11
395.1350444072003
 21
7.203870224703799
 31
0.0
  0
LINE
  5
16F
330
1F
100
AcDbEntity
  8
A-2_蓋
  6
Continuous
 62
     3
370
     9
100
AcDbLine
 10
393.6350642023859
 20
11.33147576603609
 30
0.0
 11
393.6350642023859
 21
130.5473018521321
 31
0.0
  0
LINE
  5
170
330
1F
100
AcDbEntity
  8
A-2_蓋
  6
Continuous
 62
     3
370
     9
100
AcDbLine
 10
395.1350444072003
 20
9.831433701266299
 30
0.0
 11
395.1350444072003
 21
132.0472820569462
 31
0.0
  0
LINE
  5
171
330
1F
100
AcDbEntity
  8
A-4_寸法
  6
Continuous
 62
     7
370
     9
100
AcDbLine
 10
-384.6147691881334
 20
402.6985684141042
 30
0.0
 11
-382.9832128576329
 21
415.0915919307849
 31
0.0
  0
LINE
  5
172
330
1F
100
AcDbEntity
  8
A-4_寸法
  6
Continuous
 62
     7
370
     9
100
AcDbLine
 10
-384.6147691881334
 20
402.6985684141042
 30
0.0
 11
-379.8312006769953
 21
414.2470798161311
 31
0.0
  0
LINE
  5
173
330
1F
100
AcDbEntity
  8
A-4_寸法
  6
Continuous
 62
     7
370
     9
100
AcDbLine
 10
-447.4101092364336
 20
339.0180742602823
 30
0.0
 11
-445.7785529059333
 21
351.411097776963
 31
0.0
  0
LINE
  5
174
330
1F
100
AcDbEntity
  8
A-4_寸法
  6
Continuous
 62
     7
370
     9
100
AcDbLine
 10
-447.4101092364336
 20
339.0180742602823
 30
0.0
 11
-442.6265407252956
 21
350.5665856623094
 31
0.0
  0
LINE
  5
175
330
1F
100
AcDbEntity
  8
A-4_寸法
  6
Continuous
 62
     7
370
     9
100
AcDbLine
 10
-476.6625687882706
 20
428.5179241467899
 30
0.0
 11
-475.0310124577703
 21
440.9109476634707
 31
0.0
  0
LINE
  5
176
330
1F
100
AcDbEntity
  8
A-4_寸法
  6
Continuous
 62
     7
370
     9
100
AcDbLine
 10
-476.6625687882706
 20
428.5179241467899
 30
0.0
 11
-471.8790002771325
 21
440.0664355488169
 31
0.0
  0
LINE
  5
177
330
1F
100
AcDbEntity
  8
A-4_寸法
  6
Continuous
 62
     7
370
     9
100
AcDbLine
 10
-447.4101092364336
 20
339.0180742602823
 30
0.0
 11
-389.7742606498099
 21
574.1178255007806
 31
0.0
  0
LINE
  5
178
330
1F
100
AcDbEntity
  8
A-4_寸法
  6
Continuous
 62
     7
370
     9
100
AcDbLine
 10
-426.9311853357263
 20
614.1178337487747
 30
0.0
 11
-196.4042457374366
 21
614.1178337487747
 31
0.0
  0
LINE
  5
179
330
1F
100
AcDbEntity
  8
A-4_寸法
  6
Continuous
 62
     7
370
     9
100
AcDbLine
 10
-389.7742606498099
 20
574.1178255007806
 30
0.0
 11
-202.1175075221706
 21
574.1178255007806
 31
0.0
  0
LINE
  5
17A
330
1F
100
AcDbEntity
  8
A-4_寸法
  6
Continuous
 62
     7
370
     9
100
AcDbLine
 10
-349.401113149282
 20
534.1178172527866
 30
0.0
 11
-118.5605435758023
 21
534.1178172527866
 31
0.0
  0
LINE
  5
17B
330
1F
100
AcDbEntity
  8
A-2_蓋
  6
Continuous
 62
     3
370
     9
100
AcDbLine
 10
440.1351928710938
 20
424.0179835323474
 30
0.0
 11
440.1351928710938
 21
-56.98232906662856
 31
0.0
  0
LINE
  5
17C
330
1F
100
AcDbEntity
  8
A-2_蓋
  6
Continuous
 62
     3
370
     9
100
AcDbLine
 10
430.1351598791175
 20
424.0179835323474
 30
0.0
 11
430.1351598791175
 21
-56.98232906662856
 31
0.0
  0
LINE
  5
17D
330
1F
100
AcDbEntity
  8
A-2_蓋
  6
Continuous
 62
     3
370
     9
100
AcDbLine
 10
431.6351400839318
 20
424.0179835323474
 30
0.0
 11
431.6351400839318
 21
-56.98232906662856
 31
0.0
  0
LINE
  5
17E
330
1F
100
AcDbEntity
  8
A-2_蓋
  6
Continuous
 62
     3
370
     9
100
AcDbLine
 10
385.1351351351352
 20
428.5179241467899
 30
0.0
 11
385.1351351351352
 21
-61.48226968107114
 31
0.0
  0
LINE
  5
17F
330
1F
100
AcDbEntity
  8
A-2_蓋
  6
Continuous
 62
     3
370
     9
100
AcDbLine
 10
393.6350642023859
 20
230.5475080519843
 30
0.0
 11
393.6350642023859
 21
136.1750731781455
 31
0.0
  0
LINE
  5
180
330
1F
100
AcDbEntity
  8
A-2_蓋
  6
Continuous
 62
     3
370
     9
100
AcDbLine
 10
395.1350444072003
 20
232.0475501167541
 30
0.0
 11
395.1350444072003
 21
134.6750929733313
 31
0.0
  0
LINE
  5
181
330
1F
100
AcDbEntity
  8
A-4_寸法
  6
Continuous
 62
     7
370
     9
100
AcDbLine
 10
-476.6625687882706
 20
428.5179241467899
 30
0.0
 11
-426.9311853357263
 21
614.1178337487747
 31
0.0
  0
LINE
  5
182
330
1F
100
AcDbEntity
  8
A-4_寸法
  6
Continuous
 62
     7
370
     9
100
AcDbLine
 10
-384.6147691881334
 20
402.6985684141042
 30
0.0
 11
-349.401113149282
 21
534.1178172527866
 31
0.0
  0
LINE
  5
183
330
1F
100
AcDbEntity
  8
A-4_寸法
  6
Continuous
 62
     7
370
     9
100
AcDbLine
 10
-282.2153246080553
 20
448.4227257990281
 30
0.0
 11
-246.9150646312816
 21
448.4227257990281
 31
0.0
  0
LINE
  5
184
330
1F
100
AcDbEntity
  8
A-4_寸法
  6
Continuous
 62
     7
370
     9
100
AcDbLine
 10
-282.2153246080553
 20
409.0759586827908
 30
0.0
 11
-282.2153246080553
 21
449.9227060038423
 31
0.0
  0
LINE
  5
185
330
1F
100
AcDbEntity
  8
A-4_寸法
  6
Continuous
 62
     7
370
     9
100
AcDbLine
 10
-246.9150646312816
 20
409.0759586827908
 30
0.0
 11
-246.9150646312816
 21
449.9227060038423
 31
0.0
  0
LINE
  5
186
330
1F
100
AcDbEntity
  8
A-4_寸法
  6
Continuous
 62
     7
370
     9
100
AcDbLine
 10
-603.015425398543
 20
-132.6484370691624
 30
0.0
 11
-113.015417150549
 21
-132.6484370691624
 31
0.0
  0
LINE
  5
187
330
1F
100
AcDbEntity
  8
A-4_寸法
  6
Continuous
 62
     7
370
     9
100
AcDbLine
 10
-603.015425398543
 20
-68.98229442505337
 30
0.0
 11
-603.015425398543
 21
-134.1484172739765
 31
0.0
  0
LINE
  5
188
330
1F
100
AcDbEntity
  8
A-4_寸法
  6
Continuous
 62
     7
370
     9
100
AcDbLine
 10
-113.015417150549
 20
-68.98229442505337
 30
0.0
 11
-113.015417150549
 21
-134.1484172739765
 31
0.0
  0
LINE
  5
189
330
1F
100
AcDbEntity
  8
A-4_寸法
  6
Continuous
 62
     7
370
     9
100
AcDbLine
 10
308.1081081081081
 20
-61.48226968107114
 30
0.0
 11
308.1081081081081
 21
428.5179241467899
 31
0.0
  0
LINE
  5
18A
330
1F
100
AcDbEntity
  8
A-4_寸法
  6
Continuous
 62
     7
370
     9
100
AcDbLine
 10
377.6351103911529
 20
-61.48226968107114
 30
0.0
 11
306.608127903294
 21
-61.48226968107114
 31
0.0
  0
LINE
  5
18B
330
1F
100
AcDbEntity
  8
A-4_寸法
  6
Continuous
 62
     7
370
     9
100
AcDbLine
 10
377.6351103911529
 20
428.5179241467899
 30
0.0
 11
306.608127903294
 21
428.5179241467899
 31
0.0
  0
LINE
  5
18C
330
1F
100
AcDbEntity
  8
A-2_蓋
  6
JWW_CENTER1
 62
     3
370
     9
100
AcDbLine
 10
479.5836577544341
 20
183.5178581628373
 30
0.0
 11
329.3175362251901
 21
183.5178581628373
 31
0.0
  0
LINE
  5
18D
330
1F
100
AcDbEntity
  8
A-1_ピット
  6
Continuous
 62
     2
370
     9
100
AcDbLine
 10
488.7349721547722
 20
381.5179670363592
 30
0.0
 11
446.5352238835516
 21
381.5179670363592
 31
0.0
  0
LINE
  5
18E
330
1F
100
AcDbEntity
  8
A-1_ピット
  6
Continuous
 62
     2
370
     9
100
AcDbLine
 10
440.1351928710938
 20
387.9179980488169
 30
0.0
 11
440.1351928710938
 21
415.1180679918068
 31
0.0
  0
LINE
  5
18F
330
1F
100
AcDbEntity
  8
A-1_ピット
  6
Continuous
 62
     2
370
     9
100
AcDbLine
 10
488.7349721547722
 20
418.3179597781243
 30
0.0
 11
446.5351001636404
 21
418.3179597781243
 31
0.0
  0
LINE
  5
190
330
1F
100
AcDbEntity
  8
A-1_ピット
  6
Continuous
 62
     2
370
     9
100
AcDbLine
 10
491.9351113809122
 20
387.9179980488169
 30
0.0
 11
491.9351113809122
 21
415.1178205519842
 31
0.0
  0
LINE
  5
191
330
1F
100
AcDbEntity
  8
A-1_ピット
  6
Continuous
 62
     2
370
     9
100
AcDbLine
 10
488.7349721547722
 20
421.5179752843533
 30
0.0
 11
446.5352238835516
 21
421.5179752843533
 31
0.0
  0
LINE
  5
192
330
1F
100
AcDbEntity
  8
A-1_ピット
  6
Continuous
 62
     2
370
     9
100
AcDbLine
 10
495.1350031672297
 20
387.9179980488169
 30
0.0
 11
495.1350031672297
 21
415.1180679918068
 31
0.0
  0
LINE
  5
193
330
1F
100
AcDbEntity
  8
A-1_ピット
  6
Continuous
 62
     2
370
     9
100
AcDbLine
 10
446.5352238835516
 20
384.7181062624993
 30
0.0
 11
488.7349721547722
 21
384.7181062624993
 31
0.0
  0
LINE
  5
194
330
1F
100
AcDbEntity
  8
A-1_ピット
  6
Continuous
 62
     2
370
     9
100
AcDbLine
 10
443.3350846574115
 20
387.9179980488169
 30
0.0
 11
443.3350846574115
 21
415.1178205519842
 31
0.0
  0
LINE
  5
195
330
1F
100
AcDbEntity
  8
A-1_ピット
  6
Continuous
 62
     2
370
     9
100
AcDbLine
 10
488.7349721547722
 20
-14.48225071068475
 30
0.0
 11
446.5352238835516
 21
-14.48225071068475
 31
0.0
  0
LINE
  5
196
330
1F
100
AcDbEntity
  8
A-1_ピット
  6
Continuous
 62
     2
370
     9
100
AcDbLine
 10
440.1351928710938
 20
-20.88228172314249
 30
0.0
 11
440.1351928710938
 21
-48.08235166613233
 31
0.0
  0
LINE
  5
197
330
1F
100
AcDbEntity
  8
A-1_ピット
  6
Continuous
 62
     2
370
     9
100
AcDbLine
 10
488.7349721547722
 20
-51.28224345244991
 30
0.0
 11
446.5351001636404
 21
-51.28224345244991
 31
0.0
  0
LINE
  5
198
330
1F
100
AcDbEntity
  8
A-1_ピット
  6
Continuous
 62
     2
370
     9
100
AcDbLine
 10
491.9351113809122
 20
-20.88228172314249
 30
0.0
 11
491.9351113809122
 21
-48.08210422630975
 31
0.0
  0
LINE
  5
199
330
1F
100
AcDbEntity
  8
A-1_ピット
  6
Continuous
 62
     2
370
     9
100
AcDbLine
 10
488.7349721547722
 20
-54.48225895867882
 30
0.0
 11
446.5352238835516
 21
-54.48225895867882
 31
0.0
  0
LINE
  5
19A
330
1F
100
AcDbEntity
  8
A-1_ピット
  6
Continuous
 62
     2
370
     9
100
AcDbLine
 10
495.1350031672297
 20
-20.88228172314249
 30
0.0
 11
495.1350031672297
 21
-48.08235166613233
 31
0.0
  0
LINE
  5
19B
330
1F
100
AcDbEntity
  8
A-1_ピット
  6
Continuous
 62
     2
370
     9
100
AcDbLine
 10
446.5352238835516
 20
-17.68238993682491
 30
0.0
 11
488.7349721547722
 21
-17.68238993682491
 31
0.0
  0
LINE
  5
19C
330
1F
100
AcDbEntity
  8
A-1_ピット
  6
Continuous
 62
     2
370
     9
100
AcDbLine
 10
443.3350846574115
 20
-20.88228172314249
 30
0.0
 11
443.3350846574115
 21
-48.08210422630975
 31
0.0
  0
LINE
  5
19D
330
1F
100
AcDbEntity
  8
A-4_寸法
  6
Continuous
 62
     7
370
     9
100
AcDbLine
 10
385.1351351351352
 20
-185.3718319270329
 30
0.0
 11
495.1350031672297
 21
-185.3718319270329
 31
0.0
  0
LINE
  5
19E
330
1F
100
AcDbEntity
  8
A-4_寸法
  6
Continuous
 62
     7
370
     9
100
AcDbLine
 10
385.1351351351352
 20
-68.98223256509769
 30
0.0
 11
385.1351351351352
 21
-186.8718430618249
 31
0.0
  0
LINE
  5
19F
330
1F
100
AcDbEntity
  8
A-4_寸法
  6
Continuous
 62
     7
370
     9
100
AcDbLine
 10
495.1350031672297
 20
-55.58237641011463
 30
0.0
 11
495.1350031672297
 21
-186.8718430618249
 31
0.0
  0
LINE
  5
1A0
330
1F
100
AcDbEntity
  8
A-4_寸法
  6
Continuous
 62
     7
370
     9
100
AcDbLine
 10
385.1353825749578
 20
-137.6301430182755
 30
0.0
 11
440.1351928710938
 21
-137.6301430182755
 31
0.0
  0
LINE
  5
1A1
330
1F
100
AcDbEntity
  8
A-4_寸法
  6
Continuous
 62
     7
370
     9
100
AcDbLine
 10
385.1353825749578
 20
-145.1301677622578
 30
0.0
 11
385.1353825749578
 21
-139.1301232230897
 31
0.0
  0
LINE
  5
1A2
330
1F
100
AcDbEntity
  8
A-4_寸法
  6
Continuous
 62
     7
370
     9
100
AcDbLine
 10
440.1351928710938
 20
-64.48235381061085
 30
0.0
 11
440.1351928710938
 21
-139.1301232230897
 31
0.0
  0
LINE
  5
1A3
330
1F
100
AcDbEntity
  8
A-4_寸法
  6
Continuous
 62
     7
370
     9
100
AcDbLine
 10
440.1351928710938
 20
-137.6301430182755
 30
0.0
 11
495.1350031672297
 21
-137.6301430182755
 31
0.0
  0
LINE
  5
1A4
330
1F
100
AcDbEntity
  8
A-4_寸法
  6
Continuous
 62
     7
370
     9
100
AcDbLine
 10
544.9528049778294
 20
-76.10973665610277
 30
0.0
 11
544.9528049778294
 21
-54.48225895867882
 31
0.0
  0
LINE
  5
1A5
330
1F
100
AcDbEntity
  8
A-4_寸法
  6
Continuous
 62
     7
370
     9
100
AcDbLine
 10
442.6350773991766
 20
-61.48226968107114
 30
0.0
 11
546.4527851826438
 21
-61.48226968107114
 31
0.0
  0
LINE
  5
1A6
330
1F
100
AcDbEntity
  8
A-4_寸法
  6
Continuous
 62
     7
370
     9
100
AcDbLine
 10
496.2349968987544
 20
-54.48225895867882
 30
0.0
 11
546.4527851826438
 21
-54.48225895867882
 31
0.0
  0
LINE
  5
1A7
330
1F
100
AcDbEntity
  8
A-4_寸法
  6
Continuous
 62
     7
370
     9
100
AcDbLine
 10
544.9528049778294
 20
-54.48225895867882
 30
0.0
 11
544.9528049778294
 21
-14.48225071068475
 31
0.0
  0
LINE
  5
1A8
330
1F
100
AcDbEntity
  8
A-4_寸法
  6
Continuous
 62
     7
370
     9
100
AcDbLine
 10
496.2349968987544
 20
-14.48225071068475
 30
0.0
 11
546.4527851826438
 21
-14.48225071068475
 31
0.0
  0
LINE
  5
1A9
330
1F
100
AcDbEntity
  8
A-4_寸法
  6
Continuous
 62
     7
370
     9
100
AcDbLine
 10
544.9528049778294
 20
-14.48225071068475
 30
0.0
 11
544.9528049778294
 21
381.5179670363592
 31
0.0
  0
LINE
  5
1AA
330
1F
100
AcDbEntity
  8
A-4_寸法
  6
Continuous
 62
     7
370
     9
100
AcDbLine
 10
496.2349968987544
 20
381.5179670363592
 30
0.0
 11
546.4527851826438
 21
381.5179670363592
 31
0.0
  0
LINE
  5
1AB
330
1F
100
AcDbEntity
  8
A-4_寸法
  6
Continuous
 62
     7
370
     9
100
AcDbLine
 10
544.9528049778294
 20
381.5179670363592
 30
0.0
 11
544.9528049778294
 21
421.5180990042646
 31
0.0
  0
LINE
  5
1AC
330
1F
100
AcDbEntity
  8
A-4_寸法
  6
Continuous
 62
     7
370
     9
100
AcDbLine
 10
496.2349968987544
 20
421.5180990042646
 30
0.0
 11
546.4527851826438
 21
421.5180990042646
 31
0.0
  0
LINE
  5
1AD
330
1F
100
AcDbEntity
  8
A-4_寸法
  6
Continuous
 62
     7
370
     9
100
AcDbLine
 10
544.9528049778294
 20
421.5180990042646
 30
0.0
 11
544.9528049778294
 21
444.6754971250417
 31
0.0
  0
LINE
  5
1AE
330
1F
100
AcDbEntity
  8
A-4_寸法
  6
Continuous
 62
     7
370
     9
100
AcDbLine
 10
442.6350773991766
 20
428.5179241467899
 30
0.0
 11
546.4527851826438
 21
428.5179241467899
 31
0.0
  0
LINE
  5
1AF
330
1F
100
AcDbEntity
  8
A-4_寸法
  6
Continuous
 62
     7
370
     9
100
AcDbLine
 10
469.6246997730154
 20
421.5179752843533
 30
0.0
 11
474.4082064241977
 21
433.0664866863804
 31
0.0
  0
LINE
  5
1B0
330
1F
100
AcDbEntity
  8
A-4_寸法
  6
Continuous
 62
     7
370
     9
100
AcDbLine
 10
469.6246997730154
 20
421.5179752843533
 30
0.0
 11
477.2342166385135
 21
431.4348684959242
 31
0.0
  0
LINE
  5
1B1
330
1F
100
AcDbEntity
  8
A-4_寸法
  6
Continuous
 62
     7
370
     9
100
AcDbLine
 10
807.7429281698693
 20
518.5179736347544
 30
0.0
 11
525.6275073902029
 21
518.5179736347544
 31
0.0
  0
LINE
  5
1B2
330
1F
100
AcDbEntity
  8
A-4_寸法
  6
Continuous
 62
     7
370
     9
100
AcDbLine
 10
469.6246997730154
 20
421.5179752843533
 30
0.0
 11
525.6275073902029
 21
518.5179736347544
 31
0.0
  0
LINE
  5
1B3
330
1F
100
AcDbEntity
  8
A-1_ピット
  6
JWW_DASHED1
 62
     2
370
     9
100
AcDbLine
 10
-598.0154398325327
 20
381.5180288963148
 30
0.0
 11
-598.0154398325327
 21
421.5180990042646
 31
0.0
  0
LINE
  5
1B4
330
1F
100
AcDbEntity
  8
A-1_ピット
  6
JWW_DASHED1
 62
     2
370
     9
100
AcDbLine
 10
-118.0159285261824
 20
421.5180990042646
 30
0.0
 11
-598.0154398325327
 21
421.5180990042646
 31
0.0
  0
LINE
  5
1B5
330
1F
100
AcDbEntity
  8
A-1_ピット
  6
JWW_DASHED1
 62
     2
370
     9
100
AcDbLine
 10
-118.0159285261824
 20
421.5180990042646
 30
0.0
 11
-118.0159285261824
 21
381.5180288963148
 31
0.0
  0
LINE
  5
1B6
330
1F
100
AcDbEntity
  8
A-1_ピット
  6
JWW_DASHED1
 62
     2
370
     9
100
AcDbLine
 10
-118.0159285261824
 20
381.5180288963148
 30
0.0
 11
-598.0154398325327
 21
381.5180288963148
 31
0.0
  0
LINE
  5
1B7
330
1F
100
AcDbEntity
  8
A-1_ピット
  6
JWW_DASHED1
 62
     2
370
     9
100
AcDbLine
 10
-598.0154089025549
 20
-14.48206513081768
 30
0.0
 11
-598.0154089025549
 21
-54.48213523876749
 31
0.0
  0
LINE
  5
1B8
330
1F
100
AcDbEntity
  8
A-1_ピット
  6
JWW_DASHED1
 62
     2
370
     9
100
AcDbLine
 10
-118.0159285261824
 20
-54.48213523876749
 30
0.0
 11
-598.0154089025549
 21
-54.48213523876749
 31
0.0
  0
LINE
  5
1B9
330
1F
100
AcDbEntity
  8
A-1_ピット
  6
JWW_DASHED1
 62
     2
370
     9
100
AcDbLine
 10
-118.0159285261824
 20
-54.48213523876749
 30
0.0
 11
-118.0159285261824
 21
-14.48206513081768
 31
0.0
  0
LINE
  5
1BA
330
1F
100
AcDbEntity
  8
A-1_ピット
  6
JWW_DASHED1
 62
     2
370
     9
100
AcDbLine
 10
-118.0159285261824
 20
-14.48206513081768
 30
0.0
 11
-598.0154089025549
 21
-14.48206513081768
 31
0.0
  0
LINE
  5
1BB
330
1F
100
AcDbEntity
  8
A-2_蓋
  6
Continuous
 62
     3
370
     9
100
AcDbLine
 10
-603.015425398543
 20
239.0179917803414
 30
0.0
 11
-113.015417150549
 21
239.0179917803414
 31
0.0
  0
LINE
  5
1BC
330
1F
100
AcDbEntity
  8
A-2_蓋
  6
Continuous
 62
     3
370
     9
100
AcDbLine
 10
-603.015425398543
 20
228.0183019049192
 30
0.0
 11
-113.015417150549
 21
228.0183019049192
 31
0.0
  0
LINE
  5
1BD
330
1F
100
AcDbEntity
  8
A-2_蓋
  6
Continuous
 62
     3
370
     9
100
AcDbLine
 10
-603.015425398543
 20
139.0174144207554
 30
0.0
 11
-113.015417150549
 21
139.0174144207554
 31
0.0
  0
LINE
  5
1BE
330
1F
100
AcDbEntity
  8
A-2_蓋
  6
Continuous
 62
     3
370
     9
100
AcDbLine
 10
-603.015425398543
 20
128.017724545333
 30
0.0
 11
-113.015417150549
 21
128.017724545333
 31
0.0
  0
LINE
  5
1BF
330
1F
100
AcDbEntity
  8
A-2_蓋
  6
Continuous
 62
     3
370
     9
100
AcDbLine
 10
-603.015425398543
 20
39.01733194081448
 30
0.0
 11
-113.015417150549
 21
39.01733194081448
 31
0.0
  0
LINE
  5
1C0
330
1F
100
AcDbEntity
  8
A-2_蓋
  6
Continuous
 62
     3
370
     9
100
AcDbLine
 10
-137.1149423960092
 20
228.0183019049192
 30
0.0
 11
-113.015417150549
 21
235.6139621403499
 31
0.0
  0
LINE
  5
1C1
330
1F
100
AcDbEntity
  8
A-2_蓋
  6
Continuous
 62
     3
370
     9
100
AcDbLine
 10
-137.1149423960092
 20
128.0182194249783
 30
0.0
 11
-113.015417150549
 21
135.613879660409
 31
0.0
  0
LINE
  5
1C2
330
1F
100
AcDbEntity
  8
A-2_蓋
  6
Continuous
 62
     3
370
     9
100
AcDbLine
 10
-137.1149423960092
 20
28.01813694503739
 30
0.0
 11
-113.015417150549
 21
35.61379718046812
 31
0.0
  0
LINE
  5
1C3
330
1F
100
AcDbEntity
  8
A-2_蓋
  6
Continuous
 62
     3
370
     9
100
AcDbLine
 10
-603.015425398543
 20
328.01838438486
 30
0.0
 11
-113.015417150549
 21
328.01838438486
 31
0.0
  0
LINE
  5
1C4
330
1F
100
AcDbEntity
  8
A-2_蓋
  6
Continuous
 62
     3
370
     9
100
AcDbLine
 10
-137.1149423960092
 20
328.01838438486
 30
0.0
 11
-113.015417150549
 21
335.6140446202908
 31
0.0
  0
ARC
  5
1C5
330
1F
100
AcDbEntity
  8
A-1_ピット
  6
Continuous
 62
     2
370
     9
100
AcDbCircle
 10
446.5352238835516
 20
387.9179980488169
 30
0.0
 40
6.399999599199038
100
AcDbArc
 50
180.0
 51
270.0
  0
ARC
  5
1C6
330
1F
100
AcDbEntity
  8
A-1_ピット
  6
Continuous
 62
     2
370
     9
100
AcDbCircle
 10
488.7349721547722
 20
387.9179980488169
 30
0.0
 40
6.399999599199038
100
AcDbArc
 50
270.0
 51
0.0
  0
ARC
  5
1C7
330
1F
100
AcDbEntity
  8
A-1_ピット
  6
Continuous
 62
     2
370
     9
100
AcDbCircle
 10
488.7349721547722
 20
387.9179980488169
 30
0.0
 40
3.199999799599519
100
AcDbArc
 50
270.0
 51
0.0
  0
ARC
  5
1C8
330
1F
100
AcDbEntity
  8
A-1_ピット
  6
Continuous
 62
     2
370
     9
100
AcDbCircle
 10
446.5352238835516
 20
415.1180679918068
 30
0.0
 40
6.399999599199038
100
AcDbArc
 50
90.0
 51
180.0
  0
ARC
  5
1C9
330
1F
100
AcDbEntity
  8
A-1_ピット
  6
Continuous
 62
     2
370
     9
100
AcDbCircle
 10
446.5351001636404
 20
415.1178205519842
 30
0.0
 40
3.199999799599519
100
AcDbArc
 50
90.0
 51
180.0
  0
ARC
  5
1CA
330
1F
100
AcDbEntity
  8
A-1_ピット
  6
Continuous
 62
     2
370
     9
100
AcDbCircle
 10
488.7349721547722
 20
415.1178205519842
 30
0.0
 40
3.199999799599519
100
AcDbArc
 50
0.0
 51
90.0
  0
ARC
  5
1CB
330
1F
100
AcDbEntity
  8
A-1_ピット
  6
Continuous
 62
     2
370
     9
100
AcDbCircle
 10
488.7349721547722
 20
415.1180679918068
 30
0.0
 40
6.399999599199038
100
AcDbArc
 50
0.0
 51
90.0
  0
ARC
  5
1CC
330
1F
100
AcDbEntity
  8
A-1_ピット
  6
Continuous
 62
     2
370
     9
100
AcDbCircle
 10
446.5352238835516
 20
387.9179980488169
 30
0.0
 40
3.199999799599519
100
AcDbArc
 50
180.0
 51
270.0
  0
ARC
  5
1CD
330
1F
100
AcDbEntity
  8
A-1_ピット
  6
Continuous
 62
     2
370
     9
100
AcDbCircle
 10
446.5352238835516
 20
-20.88228172314249
 30
0.0
 40
6.399999599199038
100
AcDbArc
 50
90.0
 51
180.0
  0
ARC
  5
1CE
330
1F
100
AcDbEntity
  8
A-1_ピット
  6
Continuous
 62
     2
370
     9
100
AcDbCircle
 10
488.7349721547722
 20
-20.88228172314249
 30
0.0
 40
6.399999599199038
100
AcDbArc
 50
0.0
 51
90.0
  0
ARC
  5
1CF
330
1F
100
AcDbEntity
  8
A-1_ピット
  6
Continuous
 62
     2
370
     9
100
AcDbCircle
 10
488.7349721547722
 20
-20.88228172314249
 30
0.0
 40
3.199999799599519
100
AcDbArc
 50
0.0
 51
90.0
  0
ARC
  5
1D0
330
1F
100
AcDbEntity
  8
A-1_ピット
  6
Continuous
 62
     2
370
     9
100
AcDbCircle
 10
446.5352238835516
 20
-48.08235166613233
 30
0.0
 40
6.399999599199038
100
AcDbArc
 50
180.0
 51
270.0
  0
ARC
  5
1D1
330
1F
100
AcDbEntity
  8
A-1_ピット
  6
Continuous
 62
     2
370
     9
100
AcDbCircle
 10
446.5351001636404
 20
-48.08210422630975
 30
0.0
 40
3.199999799599519
100
AcDbArc
 50
180.0
 51
270.0
  0
ARC
  5
1D2
330
1F
100
AcDbEntity
  8
A-1_ピット
  6
Continuous
 62
     2
370
     9
100
AcDbCircle
 10
488.7349721547722
 20
-48.08210422630975
 30
0.0
 40
3.199999799599519
100
AcDbArc
 50
270.0
 51
0.0
  0
ARC
  5
1D3
330
1F
100
AcDbEntity
  8
A-1_ピット
  6
Continuous
 62
     2
370
     9
100
AcDbCircle
 10
488.7349721547722
 20
-48.08235166613233
 30
0.0
 40
6.399999599199038
100
AcDbArc
 50
270.0
 51
0.0
  0
ARC
  5
1D4
330
1F
100
AcDbEntity
  8
A-1_ピット
  6
Continuous
 62
     2
370
     9
100
AcDbCircle
 10
446.5352238835516
 20
-20.88228172314249
 30
0.0
 40
3.199999799599519
100
AcDbArc
 50
90.0
 51
180.0
  0
TEXT
  5
1D5
330
1F
100
AcDbEntity
  8
A-4_寸法
  6
Continuous
 62
     7
370
     9
100
AcDbText
 10
-349.401113149282
 20
541.9027770685593
 30
0.0
 40
11.43
  1
メインバー Ⅰ－５５ ＠35.3
 41
1.160256431405113
  7
ＭＳ ゴシック
100
AcDbText
  0
TEXT
  5
1D6
330
1F
100
AcDbEntity
  8
A-4_寸法
  6
Continuous
 62
     7
370
     9
100
AcDbText
 10
-389.7742606498099
 20
581.7566721012873
 30
0.0
 40
11.43
  1
クロスバー □８ ＠100
 41
1.158730158730159
  7
ＭＳ ゴシック
100
AcDbText
  0
TEXT
  5
1D7
330
1F
100
AcDbEntity
  8
A-4_寸法
  6
Continuous
 62
     2
370
     9
100
AcDbText
 10
-286.440235859639
 20
454.2426862086565
 30
0.0
 40
15.24
  1
35.3
 41
1.09375
  7
ＭＳ ゴシック
100
AcDbText
  0
TEXT
  5
1D8
330
1F
100
AcDbEntity
  8
A-4_寸法
  6
Continuous
 62
     2
370
     9
100
AcDbText
 10
302.2881476984797
 20
167.2678045508757
 30
0.0
 40
15.24
  1
490
 50
90.0
 41
1.083333333333333
  7
ＭＳ ゴシック
100
AcDbText
  0
TEXT
  5
1D9
330
1F
100
AcDbEntity
  8
A-4_寸法
  6
Continuous
 62
     2
370
     9
100
AcDbText
 10
423.8850773991766
 20
-179.5518405874267
 30
0.0
 40
15.24
  1
110
 41
1.083333333333333
  7
ＭＳ ゴシック
100
AcDbText
  0
TEXT
  5
1DA
330
1F
100
AcDbEntity
  8
A-4_寸法
  6
Continuous
 62
     2
370
     9
100
AcDbText
 10
402.0102835990289
 20
-131.8101207486915
 30
0.0
 40
15.24
  1
55
 41
1.0625
  7
ＭＳ ゴシック
100
AcDbText
  0
TEXT
  5
1DB
330
1F
100
AcDbEntity
  8
A-4_寸法
  6
Continuous
 62
     2
370
     9
100
AcDbText
 10
457.0100938951649
 20
-131.8101207486915
 30
0.0
 40
15.24
  1
55
 41
1.0625
  7
ＭＳ ゴシック
100
AcDbText
  0
TEXT
  5
1DC
330
1F
100
AcDbEntity
  8
A-4_寸法
  6
Continuous
 62
     2
370
     9
100
AcDbText
 10
539.132844568201
 20
-76.06018683162009
 30
0.0
 40
15.24
  1
7
 50
90.0
 41
0.9999999999999998
  7
ＭＳ ゴシック
100
AcDbText
  0
TEXT
  5
1DD
330
1F
100
AcDbEntity
  8
A-4_寸法
  6
Continuous
 62
     2
370
     9
100
AcDbText
 10
539.132844568201
 20
-45.10725895867882
 30
0.0
 40
15.24
  1
40
 50
90.0
 41
1.0625
  7
ＭＳ ゴシック
100
AcDbText
  0
TEXT
  5
1DE
330
1F
100
AcDbEntity
  8
A-4_寸法
  6
Continuous
 62
     2
370
     9
100
AcDbText
 10
539.132844568201
 20
167.2678664108313
 30
0.0
 40
15.24
  1
396
 50
90.0
 41
1.083333333333333
  7
ＭＳ ゴシック
100
AcDbText
  0
TEXT
  5
1DF
330
1F
100
AcDbEntity
  8
A-4_寸法
  6
Continuous
 62
     2
370
     9
100
AcDbText
 10
539.132844568201
 20
390.8930907562706
 30
0.0
 40
15.24
  1
40
 50
90.0
 41
1.0625
  7
ＭＳ ゴシック
100
AcDbText
  0
TEXT
  5
1E0
330
1F
100
AcDbEntity
  8
A-4_寸法
  6
Continuous
 62
     2
370
     9
100
AcDbText
 10
539.132844568201
 20
433.1305736004429
 30
0.0
 40
15.24
  1
7
 50
90.0
 41
0.9999999999999998
  7
ＭＳ ゴシック
100
AcDbText
  0
TEXT
  5
1E1
330
1F
100
AcDbEntity
  8
A-4_寸法
  6
Continuous
 62
     7
370
     9
100
AcDbText
 10
530.2427549619932
 20
526.7066315211565
 30
0.0
 40
11.43
  1
かさ上げ材：□５５×４０×３．２
 41
1.15625
  7
ＭＳ ゴシック
100
AcDbText
  0
TEXT
  5
1E2
330
1F
100
AcDbEntity
  8
A-4_寸法
  6
Continuous
 62
     2
370
     9
100
AcDbText
 10
-374.265413026552
 20
-126.8284147995783
 30
0.0
 40
15.24
  1
490
 41
1.083333333333333
  7
ＭＳ ゴシック
100
AcDbText
  0
TEXT
  5
1E3
330
1F
100
AcDbEntity
  8
A-4_寸法
  6
Continuous
 62
     7
370
     9
100
AcDbText
 10
615.6424032675255
 20
498.2401645659201
 30
0.0
 40
11.43
  1
（Ｌ＝４８０）
 41
1.142857142857143
  7
ＭＳ ゴシック
100
AcDbText
  0
TEXT
  5
1E4
330
1F
100
AcDbEntity
  8
A-4_寸法
  6
Continuous
 62
     7
370
     9
100
AcDbText
 10
-426.9311853357263
 20
624.1598159067139
 30
0.0
 40
11.43
  1
エンドプレート ＦＢ4.5×50
 41
1.16025641025641
  7
ＭＳ ゴシック
100
AcDbText
  0
LINE
  5
1E5
330
1F
100
AcDbEntity
  8
F-4ﾚｲﾔ
  6
Continuous
 62
     2
370
     9
100
AcDbLine
 10
242.1321147197003
 20
-378.588397051837
 30
0.0
 11
242.1321147197003
 21
-353.5884382918074
 31
0.0
  0
LINE
  5
1E6
330
1F
100
AcDbEntity
  8
F-4ﾚｲﾔ
  6
Continuous
 62
     2
370
     9
100
AcDbLine
 10
242.1321147197003
 20
-353.5884382918074
 30
0.0
 11
354.6319909997888
 21
-353.5884382918074
 31
0.0
  0
LINE
  5
1E7
330
1F
100
AcDbEntity
  8
F-4ﾚｲﾔ
  6
Continuous
 62
     2
370
     9
100
AcDbLine
 10
354.6319909997888
 20
-353.5884382918074
 30
0.0
 11
354.6319909997888
 21
-378.588397051837
 31
0.0
  0
LINE
  5
1E8
330
1F
100
AcDbEntity
  8
F-4ﾚｲﾔ
  6
Continuous
 62
     2
370
     9
100
AcDbLine
 10
354.6319909997888
 20
-378.588397051837
 30
0.0
 11
242.1321147197003
 21
-378.588397051837
 31
0.0
  0
TEXT
  5
1E9
330
1F
100
AcDbEntity
  8
F-4ﾚｲﾔ
  6
Continuous
 62
     2
370
     9
100
AcDbText
 10
265.8821312156886
 20
-373.2687599635768
 30
0.0
 40
15.24
  1
仕　様
 41
1.083333333333333
  7
ＭＳ ゴシック
100
AcDbText
  0
TEXT
  5
1EA
330
1F
100
AcDbEntity
  8
F-4ﾚｲﾔ
  6
Continuous
 62
     2
370
     9
100
AcDbText
 10
323.0329358899917
 20
-484.9871982423623
 30
0.0
 40
15.24
  1
処理：溶融亜鉛めっき
 41
1.1125
  7
ＭＳ ゴシック
100
AcDbText
  0
TEXT
  5
1EB
330
1F
100
AcDbEntity
  8
F-4ﾚｲﾔ
  6
Continuous
 62
     2
370
     9
100
AcDbText
 10
323.2247687722133
 20
-456.2177315724528
 30
0.0
 40
15.24
  1
材質：ＳＳ４００+ＳＴＫＲ４００
 41
1.116935483870968
  7
ＭＳ ゴシック
100
AcDbText
  0
TEXT
  5
1EC
330
1F
100
AcDbEntity
  8
F-4ﾚｲﾔ
  6
Continuous
 62
     2
370
     9
100
AcDbText
 10
293.176723170925
 20
-404.7285683131862
 30
0.0
 40
15.24
  1
スチール製グレーチング　かさあげ型　プレーンタイプ
 41
1.12
  7
ＭＳ ゴシック
100
AcDbText
  0
TEXT
  5
1ED
330
1F
100
AcDbEntity
  8
F-4ﾚｲﾔ
  6
Continuous
 62
     2
370
     9
100
AcDbText
 10
-479.3111971907417
 20
-686.0890787726197
 30
0.0
 40
15.24
  1
スチール製グレーチング　かさあげ型　プレーンタイプ　自由勾配側溝用　ＨＳＶ　９４９５５Ａ
 41
0.774431818181818
  7
ＭＳ ゴシック
100
AcDbText
  0
TEXT
  5
1EE
330
1F
100
AcDbEntity
  8
F-4ﾚｲﾔ
  6
Continuous
 62
     2
370
     9
100
AcDbText
 10
293.176723170925
 20
-429.2691172234237
 30
0.0
 40
15.24
  1
自由勾配側溝用　ＨＳＶ　９４９５５Ａ
 41
1.118055555555555
  7
ＭＳ ゴシック
100
AcDbText
  0
TEXT
  5
1EF
330
1F
100
AcDbEntity
  8
F-4ﾚｲﾔ
  6
Continuous
 62
     2
370
     9
100
AcDbText
 10
323.0329358899917
 20
-517.3983695540325
 30
0.0
 40
15.24
  1
定尺：４９０
 41
1.104166666666667
  7
ＭＳ ゴシック
100
AcDbText
  0
TEXT
  5
1F0
330
1F
100
AcDbEntity
  8
F-5ﾚｲﾔ
  6
Continuous
 62
     3
370
     9
100
AcDbText
 10
379.6319909997888
 20
-375.063397051837
 30
0.0
 40
19.05
  1
※適用荷重：Ｔ－２０
 41
1.09
  7
ＭＳ ゴシック
100
AcDbText
  0
ENDSEC
  0
SECTION
  2
OBJECTS
  0
DICTIONARY
  5
C
330
0
100
AcDbDictionary
281
     1
  3
ACAD_DETAILVIEWSTYLE
350
236
  3
ACAD_GROUP
350
D
  3
ACAD_LAYOUT
350
1A
  3
ACAD_MATERIAL
350
43
  3
ACAD_MLEADERSTYLE
350
6B
  3
ACAD_MLINESTYLE
350
17
  3
ACAD_PLOTSETTINGS
350
19
  3
ACAD_PLOTSTYLENAME
350
E
  3
ACAD_SCALELIST
350
47
  3
ACAD_SECTIONVIEWSTYLE
350
237
  3
ACAD_TABLESTYLE
350
69
  3
ACAD_VISUALSTYLE
350
2A
  3
ACDB_RECOMPOSE_DATA
350
233
  3
AcDbVariableDictionary
350
1F3
  0
DICTIONARY
  5
1F1
330
8
100
AcDbDictionary
280
     1
281
     1
  3
ACAD_XREC_ROUNDTRIP
360
1F2
  0
DICTIONARY
  5
236
102
{ACAD_REACTORS
330
C
102
}
330
C
100
AcDbDictionary
281
     1
  0
DICTIONARY
  5
D
102
{ACAD_REACTORS
330
C
102
}
330
C
100
AcDbDictionary
281
     1
  0
DICTIONARY
  5
1A
102
{ACAD_REACTORS
330
C
102
}
330
C
100
AcDbDictionary
281
     1
  3
Layout1
350
1E
  3
Layout2
350
26
  3
Model
350
22
  0
DICTIONARY
  5
43
102
{ACAD_REACTORS
330
C
102
}
330
C
100
AcDbDictionary
281
     1
  3
ByBlock
350
45
  3
ByLayer
350
44
  3
Global
350
46
  0
DICTIONARY
  5
6B
102
{ACAD_REACTORS
330
C
102
}
330
C
100
AcDbDictionary
281
     1
  3
Standard
350
6C
  0
DICTIONARY
  5
17
102
{ACAD_REACTORS
330
C
102
}
330
C
100
AcDbDictionary
281
     1
  3
Standard
350
18
  0
DICTIONARY
  5
19
102
{ACAD_REACTORS
330
C
102
}
330
C
100
AcDbDictionary
281
     1
  0
ACDBDICTIONARYWDFLT
  5
E
102
{ACAD_REACTORS
330
C
102
}
330
C
100
AcDbDictionary
281
     1
  3
Normal
350
F
100
AcDbDictionaryWithDefault
340
F
  0
DICTIONARY
  5
47
102
{ACAD_REACTORS
330
C
102
}
330
C
100
AcDbDictionary
281
     1
  3
A0
350
48
  3
A1
350
49
  3
A2
350
4A
  3
A3
350
4B
  3
A4
350
4C
  3
A5
350
4D
  3
A6
350
4E
  3
A7
350
4F
  3
A8
350
50
  3
A9
350
51
  3
B0
350
52
  3
B1
350
53
  3
B2
350
54
  3
B3
350
55
  3
B4
350
56
  3
B5
350
57
  3
B6
350
58
  3
B7
350
59
  3
B8
350
5A
  3
B9
350
5B
  3
C0
350
5C
  3
C1
350
5D
  3
C2
350
5E
  3
C3
350
5F
  3
C4
350
60
  3
C5
350
61
  3
C6
350
62
  3
C7
350
63
  3
C8
350
64
  3
C9
350
65
  3
D0
350
66
  3
D1
350
67
  3
D2
350
68
  0
DICTIONARY
  5
237
102
{ACAD_REACTORS
330
C
102
}
330
C
100
AcDbDictionary
281
     1
  0
DICTIONARY
  5
69
102
{ACAD_REACTORS
330
C
102
}
330
C
100
AcDbDictionary
281
     1
  3
Standard
350
6A
  0
DICTIONARY
  5
2A
102
{ACAD_REACTORS
330
C
102
}
330
C
100
AcDbDictionary
281
     1
  3
2dWireframe
350
2F
  3
Basic
350
32
  3
Brighten
350
36
  3
ColorChange
350
3A
  3
Conceptual
350
34
  3
Dim
350
35
  3
EdgeColorOff
350
3D
  3
Facepattern
350
39
  3
Flat
350
2B
  3
FlatWithEdges
350
2C
  3
Gouraud
350
2D
  3
GouraudWithEdges
350
2E
  3
Hidden
350
31
  3
JitterOff
350
3B
  3
Linepattern
350
38
  3
OverhangOff
350
3C
  3
Realistic
350
33
  3
Shaded
350
42
  3
Shaded with edges
350
41
  3
Shades of Gray
350
3E
  3
Sketchy
350
3F
  3
Thicken
350
37
  3
Wireframe
350
30
  3
X-Ray
350
40
  0
XRECORD
  5
233
102
{ACAD_REACTORS
330
C
102
}
330
C
100
AcDbXrecord
280
     1
 90
        1
330
6A
  0
DICTIONARY
  5
1F3
102
{ACAD_REACTORS
330
C
102
}
330
C
100
AcDbDictionary
281
     1
  3
CANNOSCALE
350
1F4
  3
CENTEREXE
350
238
  3
CENTERLTYPEFILE
350
239
  3
CMLEADERSTYLE
350
235
  3
CTABLESTYLE
350
234
  3
MSLTSCALE
350
1F5
  3
XCLIPFRAME
350
1F6
  0
XRECORD
  5
1F2
102
{ACAD_REACTORS
330
1F1
102
}
330
1F1
100
AcDbXrecord
280
     1
102
VTR_0.000_0.000_1.000_1.000_VISUALSTYLE
340
2F
102
VTR_0.000_0.000_1.000_1.000_GRIDDISPLAY
 70
     3
102
VTR_0.000_0.000_1.000_1.000_GRIDMAJOR
 70
     5
102
VTR_0.000_0.000_1.000_1.000_DEFAULTLIGHTING
280
     1
102
VTR_0.000_0.000_1.000_1.000_DEFAULTLIGHTINGTYPE
 70
     1
102
VTR_0.000_0.000_1.000_1.000_BRIGHTNESS
141
0.0
102
VTR_0.000_0.000_1.000_1.000_CONTRAST
142
0.0
  0
LAYOUT
  5
1E
102
{ACAD_REACTORS
330
1A
102
}
330
1A
100
AcDbPlotSettings
  1

  2
none_device
  4

  6

 40
0.0
 41
0.0
 42
0.0
 43
0.0
 44
0.0
 45
0.0
 46
0.0
 47
0.0
 48
0.0
 49
0.0
140
0.0
141
0.0
142
1.0
143
1.0
 70
   688
 72
     1
 73
     0
 74
     5
  7

 75
    16
 76
     0
 77
     5
 78
   300
147
1.0
148
0.0
149
0.0
100
AcDbLayout
  1
Layout1
 70
     1
 71
     1
 10
0.0
 20
0.0
 11
420.0
 21
297.0
 12
0.0
 22
0.0
 32
0.0
 14
1.000000000000000E+20
 24
1.000000000000000E+20
 34
1.000000000000000E+20
 15
-1.000000000000000E+20
 25
-1.000000000000000E+20
 35
-1.000000000000000E+20
146
0.0
 13
0.0
 23
0.0
 33
0.0
 16
1.0
 26
0.0
 36
0.0
 17
0.0
 27
1.0
 37
0.0
 76
     0
330
1B
  0
LAYOUT
  5
26
102
{ACAD_REACTORS
330
1A
102
}
330
1A
100
AcDbPlotSettings
  1

  2
none_device
  4

  6

 40
0.0
 41
0.0
 42
0.0
 43
0.0
 44
0.0
 45
0.0
 46
0.0
 47
0.0
 48
0.0
 49
0.0
140
0.0
141
0.0
142
1.0
143
1.0
 70
   688
 72
     1
 73
     0
 74
     5
  7

 75
    16
 76
     0
 77
     5
 78
   300
147
1.0
148
0.0
149
0.0
100
AcDbLayout
  1
Layout2
 70
     1
 71
     2
 10
0.0
 20
0.0
 11
0.0
 21
0.0
 12
0.0
 22
0.0
 32
0.0
 14
0.0
 24
0.0
 34
0.0
 15
0.0
 25
0.0
 35
0.0
146
0.0
 13
0.0
 23
0.0
 33
0.0
 16
1.0
 26
0.0
 36
0.0
 17
0.0
 27
1.0
 37
0.0
 76
     0
330
23
  0
LAYOUT
  5
22
102
{ACAD_REACTORS
330
1A
102
}
330
1A
100
AcDbPlotSettings
  1

  2
none_device
  4
Letter_(8.50_x_11.00_Inches)
  6

 40
6.35
 41
6.35
 42
6.35000508
 43
6.35000508
 44
215.9
 45
279.4
 46
0.0
 47
0.0
 48
0.0
 49
0.0
140
0.0
141
0.0
142
1.0
143
1.0
 70
  1712
 72
     1
 73
     0
 74
     0
  7

 75
     0
 76
     0
 77
     5
 78
   300
147
1.0
148
0.0
149
0.0
100
AcDbLayout
  1
Model
 70
     1
 71
     0
 10
-1050.0
 20
-742.5
 11
1050.0
 21
742.5
 12
0.0
 22
0.0
 32
0.0
 14
-1050.0
 24
-742.5
 34
0.0
 15
1050.0
 25
742.5
 35
0.0
146
0.0
 13
0.0
 23
0.0
 33
0.0
 16
1.0
 26
0.0
 36
0.0
 17
0.0
 27
1.0
 37
0.0
 76
     0
330
1F
331
29
  0
MATERIAL
  5
45
102
{ACAD_REACTORS
330
43
102
}
102
{ACAD_XDICTIONARY
360
229
102
}
330
43
100
AcDbMaterial
  1
ByBlock
  0
MATERIAL
  5
44
102
{ACAD_REACTORS
330
43
102
}
102
{ACAD_XDICTIONARY
360
227
102
}
330
43
100
AcDbMaterial
  1
ByLayer
  0
MATERIAL
  5
46
102
{ACAD_REACTORS
330
43
102
}
102
{ACAD_XDICTIONARY
360
22B
102
}
330
43
100
AcDbMaterial
  1
Global
  0
MLEADERSTYLE
  5
6C
102
{ACAD_REACTORS
330
6B
102
}
102
{ACAD_XDICTIONARY
360
231
102
}
330
6B
100
AcDbMLeaderStyle
170
     2
171
     1
172
     0
 90
        2
 40
0.0
 41
0.0
173
     1
 91
-1056964608
340
14
 92
       -2
290
     1
 42
2.0
291
     1
 43
8.0
  3
Standard
341
0
 44
4.0
300

342
11
174
     1
178
     6
175
     1
176
     0
 93
-1056964608
 45
4.0
292
     0
297
     0
 46
4.0
343
0
 94
-1056964608
 47
1.0
 49
1.0
140
1.0
293
     1
141
0.0
294
     1
177
     0
142
1.0
295
     0
296
     0
143
3.75
1001
ACAD_MLEADERVER
1070
     2
  0
MLINESTYLE
  5
18
102
{ACAD_REACTORS
330
17
102
}
330
17
100
AcDbMlineStyle
  2
Standard
 70
     0
  3

 62
   256
 51
90.0
 52
90.0
 71
     2
 49
0.5
 62
   256
  6
BYLAYER
 49
-0.5
 62
   256
  6
BYLAYER
  0
ACDBPLACEHOLDER
  5
F
102
{ACAD_REACTORS
330
E
102
}
330
E
  0
SCALE
  5
48
102
{ACAD_REACTORS
330
47
102
}
330
47
100
AcDbScale
 70
     0
300
1:1
140
1.0
141
1.0
290
     1
  0
SCALE
  5
49
102
{ACAD_REACTORS
330
47
102
}
330
47
100
AcDbScale
 70
     0
300
1:2
140
1.0
141
2.0
290
     0
  0
SCALE
  5
4A
102
{ACAD_REACTORS
330
47
102
}
330
47
100
AcDbScale
 70
     0
300
1:4
140
1.0
141
4.0
290
     0
  0
SCALE
  5
4B
102
{ACAD_REACTORS
330
47
102
}
330
47
100
AcDbScale
 70
     0
300
1:5
140
1.0
141
5.0
290
     0
  0
SCALE
  5
4C
102
{ACAD_REACTORS
330
47
102
}
330
47
100
AcDbScale
 70
     0
300
1:8
140
1.0
141
8.0
290
     0
  0
SCALE
  5
4D
102
{ACAD_REACTORS
330
47
102
}
330
47
100
AcDbScale
 70
     0
300
1:10
140
1.0
141
10.0
290
     0
  0
SCALE
  5
4E
102
{ACAD_REACTORS
330
47
102
}
330
47
100
AcDbScale
 70
     0
300
1:16
140
1.0
141
16.0
290
     0
  0
SCALE
  5
4F
102
{ACAD_REACTORS
330
47
102
}
330
47
100
AcDbScale
 70
     0
300
1:20
140
1.0
141
20.0
290
     0
  0
SCALE
  5
50
102
{ACAD_REACTORS
330
47
102
}
330
47
100
AcDbScale
 70
     0
300
1:30
140
1.0
141
30.0
290
     0
  0
SCALE
  5
51
102
{ACAD_REACTORS
330
47
102
}
330
47
100
AcDbScale
 70
     0
300
1:40
140
1.0
141
40.0
290
     0
  0
SCALE
  5
52
102
{ACAD_REACTORS
330
47
102
}
330
47
100
AcDbScale
 70
     0
300
1:50
140
1.0
141
50.0
290
     0
  0
SCALE
  5
53
102
{ACAD_REACTORS
330
47
102
}
330
47
100
AcDbScale
 70
     0
300
1:100
140
1.0
141
100.0
290
     0
  0
SCALE
  5
54
102
{ACAD_REACTORS
330
47
102
}
330
47
100
AcDbScale
 70
     0
300
2:1
140
2.0
141
1.0
290
     0
  0
SCALE
  5
55
102
{ACAD_REACTORS
330
47
102
}
330
47
100
AcDbScale
 70
     0
300
4:1
140
4.0
141
1.0
290
     0
  0
SCALE
  5
56
102
{ACAD_REACTORS
330
47
102
}
330
47
100
AcDbScale
 70
     0
300
8:1
140
8.0
141
1.0
290
     0
  0
SCALE
  5
57
102
{ACAD_REACTORS
330
47
102
}
330
47
100
AcDbScale
 70
     0
300
10:1
140
10.0
141
1.0
290
     0
  0
SCALE
  5
58
102
{ACAD_REACTORS
330
47
102
}
330
47
100
AcDbScale
 70
     0
300
100:1
140
100.0
141
1.0
290
     0
  0
SCALE
  5
59
102
{ACAD_REACTORS
330
47
102
}
330
47
100
AcDbScale
 70
     0
300
1/128" = 1'-0"
140
0.0078125
141
12.0
290
     0
  0
SCALE
  5
5A
102
{ACAD_REACTORS
330
47
102
}
330
47
100
AcDbScale
 70
     0
300
1/64" = 1'-0"
140
0.015625
141
12.0
290
     0
  0
SCALE
  5
5B
102
{ACAD_REACTORS
330
47
102
}
330
47
100
AcDbScale
 70
     0
300
1/32" = 1'-0"
140
0.03125
141
12.0
290
     0
  0
SCALE
  5
5C
102
{ACAD_REACTORS
330
47
102
}
330
47
100
AcDbScale
 70
     0
300
1/16" = 1'-0"
140
0.0625
141
12.0
290
     0
  0
SCALE
  5
5D
102
{ACAD_REACTORS
330
47
102
}
330
47
100
AcDbScale
 70
     0
300
3/32" = 1'-0"
140
0.09375
141
12.0
290
     0
  0
SCALE
  5
5E
102
{ACAD_REACTORS
330
47
102
}
330
47
100
AcDbScale
 70
     0
300
1/8" = 1'-0"
140
0.125
141
12.0
290
     0
  0
SCALE
  5
5F
102
{ACAD_REACTORS
330
47
102
}
330
47
100
AcDbScale
 70
     0
300
3/16" = 1'-0"
140
0.1875
141
12.0
290
     0
  0
SCALE
  5
60
102
{ACAD_REACTORS
330
47
102
}
330
47
100
AcDbScale
 70
     0
300
1/4" = 1'-0"
140
0.25
141
12.0
290
     0
  0
SCALE
  5
61
102
{ACAD_REACTORS
330
47
102
}
330
47
100
AcDbScale
 70
     0
300
3/8" = 1'-0"
140
0.375
141
12.0
290
     0
  0
SCALE
  5
62
102
{ACAD_REACTORS
330
47
102
}
330
47
100
AcDbScale
 70
     0
300
1/2" = 1'-0"
140
0.5
141
12.0
290
     0
  0
SCALE
  5
63
102
{ACAD_REACTORS
330
47
102
}
330
47
100
AcDbScale
 70
     0
300
3/4" = 1'-0"
140
0.75
141
12.0
290
     0
  0
SCALE
  5
64
102
{ACAD_REACTORS
330
47
102
}
330
47
100
AcDbScale
 70
     0
300
1" = 1'-0"
140
1.0
141
12.0
290
     0
  0
SCALE
  5
65
102
{ACAD_REACTORS
330
47
102
}
330
47
100
AcDbScale
 70
     0
300
1-1/2" = 1'-0"
140
1.5
141
12.0
290
     0
  0
SCALE
  5
66
102
{ACAD_REACTORS
330
47
102
}
330
47
100
AcDbScale
 70
     0
300
3" = 1'-0"
140
3.0
141
12.0
290
     0
  0
SCALE
  5
67
102
{ACAD_REACTORS
330
47
102
}
330
47
100
AcDbScale
 70
     0
300
6" = 1'-0"
140
6.0
141
12.0
290
     0
  0
SCALE
  5
68
102
{ACAD_REACTORS
330
47
102
}
330
47
100
AcDbScale
 70
     0
300
1'-0" = 1'-0"
140
12.0
141
12.0
290
     0
  0
TABLESTYLE
  5
6A
102
{ACAD_REACTORS
330
69
102
}
102
{ACAD_XDICTIONARY
360
22D
102
}
330
69
100
AcDbTableStyle
  3
Standard
 70
     0
 71
     0
 40
0.06
 41
0.06
280
     0
281
     0
  7
Standard
140
4.5
170
     2
 62
     0
 63
   257
283
     0
274
    -2
284
     1
 64
     0
275
    -2
285
     1
 65
     0
276
    -2
286
     1
 66
     0
277
    -2
287
     1
 67
     0
278
    -2
288
     1
 68
     0
279
    -2
289
     1
 69
     0
  7
Standard
140
6.0
170
     5
 62
     0
 63
   257
283
     0
274
    -2
284
     1
 64
     0
275
    -2
285
     1
 65
     0
276
    -2
286
     1
 66
     0
277
    -2
287
     1
 67
     0
278
    -2
288
     1
 68
     0
279
    -2
289
     1
 69
     0
  7
Standard
140
4.5
170
     5
 62
     0
 63
   257
283
     0
274
    -2
284
     1
 64
     0
275
    -2
285
     1
 65
     0
276
    -2
286
     1
 66
     0
277
    -2
287
     1
 67
     0
278
    -2
288
     1
 68
     0
279
    -2
289
     1
 69
     0
  0
VISUALSTYLE
  5
2F
102
{ACAD_REACTORS
330
2A
102
}
102
{ACAD_XDICTIONARY
360
1FF
102
}
330
2A
100
AcDbVisualStyle
  2
2dWireframe
 70
     4
 71
     0
 72
     2
 73
     0
 90
        0
 40
0.6
 41
30.0
 62
     5
 63
     7
421
 16777215
 74
     1
 91
        4
 64
     7
 65
   257
 75
     1
175
     1
 42
1.0
 92
        0
 66
   257
 43
1.0
 76
     1
 77
     6
 78
     2
 67
     7
 79
     5
170
     0
171
     0
290
     0
174
     0
 93
        1
 44
0.0
173
     0
291
     0
 45
0.0
1001
ACAD
1000
AcDbSavedByObjectVersion
1070
     0
  0
VISUALSTYLE
  5
32
102
{ACAD_REACTORS
330
2A
102
}
102
{ACAD_XDICTIONARY
360
205
102
}
330
2A
100
AcDbVisualStyle
  2
Basic
 70
     7
 71
     1
 72
     0
 73
     1
 90
        0
 40
0.6
 41
30.0
 62
     5
 63
     7
421
 16777215
 74
     0
 91
        4
 64
     7
 65
   257
 75
     1
175
     1
 42
1.0
 92
        8
 66
     7
 43
1.0
 76
     1
 77
     6
 78
     2
 67
     7
 79
     5
170
     0
171
     0
290
     0
174
     0
 93
        1
 44
0.0
173
     0
291
     1
 45
0.0
1001
ACAD
1000
AcDbSavedByObjectVersion
1070
     0
  0
VISUALSTYLE
  5
36
102
{ACAD_REACTORS
330
2A
102
}
102
{ACAD_XDICTIONARY
360
20D
102
}
330
2A
100
AcDbVisualStyle
  2
Brighten
 70
    12
 71
     2
 72
     2
 73
     0
 90
        0
 40
0.6
 41
30.0
 62
     5
 63
     7
421
 16777215
 74
     1
 91
        4
 64
     7
 65
   257
 75
     1
175
     1
 42
1.0
 92
        8
 66
     7
 43
1.0
 76
     1
 77
     6
 78
     2
 67
     7
 79
     5
170
     0
171
     0
290
     0
174
     0
 93
        1
 44
50.0
173
     0
291
     1
 45
0.0
1001
ACAD
1000
AcDbSavedByObjectVersion
1070
     0
  0
VISUALSTYLE
  5
3A
102
{ACAD_REACTORS
330
2A
102
}
102
{ACAD_XDICTIONARY
360
215
102
}
330
2A
100
AcDbVisualStyle
  2
ColorChange
 70
    16
 71
     2
 72
     2
 73
     3
 90
        0
 40
0.6
 41
30.0
 62
     5
 63
     8
421
  8421504
 74
     1
 91
        4
 64
     7
 65
   257
 75
     1
175
     1
 42
1.0
 92
        8
 66
     8
424
  8421504
 43
1.0
 76
     1
 77
     6
 78
     2
 67
     7
 79
     5
170
     0
171
     0
290
     0
174
     0
 93
        1
 44
0.0
173
     0
291
     1
 45
0.0
1001
ACAD
1000
AcDbSavedByObjectVersion
1070
     0
  0
VISUALSTYLE
  5
34
102
{ACAD_REACTORS
330
2A
102
}
102
{ACAD_XDICTIONARY
360
209
102
}
330
2A
100
AcDbVisualStyle
  2
Conceptual
 70
     9
 71
     3
 72
     2
 73
     0
 90
        0
 40
0.6
 41
30.0
 62
     5
 63
     7
421
 16777215
 74
     2
 91
        2
 64
     7
 65
   257
 75
     1
175
     1
 42
179.0
 92
        8
 66
     7
 43
1.0
 76
     1
 77
     6
 78
     2
 67
     7
 79
     3
170
     0
171
     0
290
     0
174
     0
 93
        1
 44
0.0
173
     0
291
     0
 45
0.0
1001
ACAD
1000
AcDbSavedByObjectVersion
1070
     0
  0
VISUALSTYLE
  5
35
102
{ACAD_REACTORS
330
2A
102
}
102
{ACAD_XDICTIONARY
360
20B
102
}
330
2A
100
AcDbVisualStyle
  2
Dim
 70
    11
 71
     2
 72
     2
 73
     0
 90
        0
 40
0.6
 41
30.0
 62
     5
 63
     7
421
 16777215
 74
     1
 91
        4
 64
     7
 65
   257
 75
     1
175
     1
 42
1.0
 92
        8
 66
     7
 43
1.0
 76
     1
 77
     6
 78
     2
 67
     7
 79
     5
170
     0
171
     0
290
     0
174
     0
 93
        1
 44
-50.0
173
     0
291
     1
 45
0.0
1001
ACAD
1000
AcDbSavedByObjectVersion
1070
     0
  0
VISUALSTYLE
  5
3D
102
{ACAD_REACTORS
330
2A
102
}
102
{ACAD_XDICTIONARY
360
21B
102
}
330
2A
100
AcDbVisualStyle
  2
EdgeColorOff
 70
    22
 71
     2
 72
     2
 73
     0
 90
        0
 40
0.6
 41
30.0
 62
     5
 63
     7
421
 16777215
 74
     1
 91
        4
 64
     7
 65
   257
 75
     1
175
     1
 42
1.0
 92
        8
 66
     7
 43
1.0
 76
     1
 77
     6
 78
     2
 67
     7
 79
     5
170
     0
171
     0
290
     0
174
     0
 93
        1
 44
0.0
173
     0
291
     1
 45
0.0
1001
ACAD
1000
AcDbSavedByObjectVersion
1070
     0
  0
VISUALSTYLE
  5
39
102
{ACAD_REACTORS
330
2A
102
}
102
{ACAD_XDICTIONARY
360
213
102
}
330
2A
100
AcDbVisualStyle
  2
Facepattern
 70
    15
 71
     2
 72
     2
 73
     0
 90
        0
 40
0.6
 41
30.0
 62
     5
 63
     7
421
 16777215
 74
     1
 91
        4
 64
     7
 65
   257
 75
     1
175
     1
 42
1.0
 92
        8
 66
     7
 43
1.0
 76
     1
 77
     6
 78
     2
 67
     7
 79
     5
170
     0
171
     0
290
     0
174
     0
 93
        1
 44
0.0
173
     0
291
     1
 45
0.0
1001
ACAD
1000
AcDbSavedByObjectVersion
1070
     0
  0
VISUALSTYLE
  5
2B
102
{ACAD_REACTORS
330
2A
102
}
102
{ACAD_XDICTIONARY
360
1F7
102
}
330
2A
100
AcDbVisualStyle
  2
Flat
 70
     0
 71
     2
 72
     1
 73
     1
 90
        2
 40
0.6
 41
30.0
 62
     5
 63
     7
421
 16777215
 74
     0
 91
        0
 64
     7
 65
   257
 75
     1
175
     1
 42
1.0
 92
        8
 66
     7
 43
1.0
 76
     1
 77
     6
 78
     2
 67
     7
 79
     5
170
     0
171
     0
290
     0
174
     0
 93
       13
 44
0.0
173
     0
291
     1
 45
0.0
1001
ACAD
1000
AcDbSavedByObjectVersion
1070
     0
  0
VISUALSTYLE
  5
2C
102
{ACAD_REACTORS
330
2A
102
}
102
{ACAD_XDICTIONARY
360
1F9
102
}
330
2A
100
AcDbVisualStyle
  2
FlatWithEdges
 70
     1
 71
     2
 72
     1
 73
     1
 90
        2
 40
0.6
 41
30.0
 62
     5
 63
     7
421
 16777215
 74
     1
 91
        0
 64
     7
 65
   257
 75
     1
175
     1
 42
1.0
 92
        0
 66
   257
 43
1.0
 76
     1
 77
     6
 78
     2
 67
     7
 79
     5
170
     0
171
     0
290
     0
174
     0
 93
       13
 44
0.0
173
     0
291
     1
 45
0.0
1001
ACAD
1000
AcDbSavedByObjectVersion
1070
     0
  0
VISUALSTYLE
  5
2D
102
{ACAD_REACTORS
330
2A
102
}
102
{ACAD_XDICTIONARY
360
1FB
102
}
330
2A
100
AcDbVisualStyle
  2
Gouraud
 70
     2
 71
     2
 72
     2
 73
     1
 90
        2
 40
0.6
 41
30.0
 62
     5
 63
     7
421
 16777215
 74
     0
 91
        0
 64
     7
 65
   257
 75
     1
175
     1
 42
1.0
 92
        0
 66
     7
 43
1.0
 76
     1
 77
     6
 78
     2
 67
     7
 79
     5
170
     0
171
     0
290
     0
174
     0
 93
       13
 44
0.0
173
     0
291
     1
 45
0.0
1001
ACAD
1000
AcDbSavedByObjectVersion
1070
     0
  0
VISUALSTYLE
  5
2E
102
{ACAD_REACTORS
330
2A
102
}
102
{ACAD_XDICTIONARY
360
1FD
102
}
330
2A
100
AcDbVisualStyle
  2
GouraudWithEdges
 70
     3
 71
     2
 72
     2
 73
     1
 90
        2
 40
0.6
 41
30.0
 62
     5
 63
     7
421
 16777215
 74
     1
 91
        0
 64
     7
 65
   257
 75
     1
175
     1
 42
1.0
 92
        0
 66
   257
 43
1.0
 76
     1
 77
     6
 78
     2
 67
     7
 79
     5
170
     0
171
     0
290
     0
174
     0
 93
       13
 44
0.0
173
     0
291
     1
 45
0.0
1001
ACAD
1000
AcDbSavedByObjectVersion
1070
     0
  0
VISUALSTYLE
  5
31
102
{ACAD_REACTORS
330
2A
102
}
102
{ACAD_XDICTIONARY
360
203
102
}
330
2A
100
AcDbVisualStyle
  2
Hidden
 70
     6
 71
     1
 72
     2
 73
     2
 90
        0
 40
0.6
 41
30.0
 62
     5
 63
     7
421
 16777215
 74
     2
 91
        2
 64
     7
 65
   257
 75
     2
175
     1
 42
40.0
 92
        0
 66
   257
 43
1.0
 76
     1
 77
     6
 78
     2
 67
     7
 79
     3
170
     0
171
     0
290
     0
174
     0
 93
        1
 44
0.0
173
     0
291
     0
 45
0.0
1001
ACAD
1000
AcDbSavedByObjectVersion
1070
     0
  0
VISUALSTYLE
  5
3B
102
{ACAD_REACTORS
330
2A
102
}
102
{ACAD_XDICTIONARY
360
217
102
}
330
2A
100
AcDbVisualStyle
  2
JitterOff
 70
    20
 71
     2
 72
     2
 73
     0
 90
        0
 40
0.6
 41
30.0
 62
     5
 63
     7
421
 16777215
 74
     1
 91
        4
 64
     7
 65
   257
 75
     1
175
     1
 42
1.0
 92
       10
 66
     7
 43
1.0
 76
     1
 77
     6
 78
     2
 67
     7
 79
     5
170
     0
171
     0
290
     0
174
     0
 93
        1
 44
0.0
173
     0
291
     1
 45
0.0
1001
ACAD
1000
AcDbSavedByObjectVersion
1070
     0
  0
VISUALSTYLE
  5
38
102
{ACAD_REACTORS
330
2A
102
}
102
{ACAD_XDICTIONARY
360
211
102
}
330
2A
100
AcDbVisualStyle
  2
Linepattern
 70
    14
 71
     2
 72
     2
 73
     0
 90
        0
 40
0.6
 41
30.0
 62
     5
 63
     7
421
 16777215
 74
     1
 91
        4
 64
     7
 65
   257
 75
     7
175
     7
 42
1.0
 92
        8
 66
     7
 43
1.0
 76
     1
 77
     6
 78
     2
 67
     7
 79
     5
170
     0
171
     0
290
     0
174
     0
 93
        1
 44
0.0
173
     0
291
     1
 45
0.0
1001
ACAD
1000
AcDbSavedByObjectVersion
1070
     0
  0
VISUALSTYLE
  5
3C
102
{ACAD_REACTORS
330
2A
102
}
102
{ACAD_XDICTIONARY
360
219
102
}
330
2A
100
AcDbVisualStyle
  2
OverhangOff
 70
    21
 71
     2
 72
     2
 73
     0
 90
        0
 40
0.6
 41
30.0
 62
     5
 63
     7
421
 16777215
 74
     1
 91
        4
 64
     7
 65
   257
 75
     1
175
     1
 42
1.0
 92
        9
 66
     7
 43
1.0
 76
     1
 77
     6
 78
     2
 67
     7
 79
     5
170
     0
171
     0
290
     0
174
     0
 93
        1
 44
0.0
173
     0
291
     1
 45
0.0
1001
ACAD
1000
AcDbSavedByObjectVersion
1070
     0
  0
VISUALSTYLE
  5
33
102
{ACAD_REACTORS
330
2A
102
}
102
{ACAD_XDICTIONARY
360
207
102
}
330
2A
100
AcDbVisualStyle
  2
Realistic
 70
     8
 71
     2
 72
     3
 73
     0
 90
        2
 40
0.6
 41
30.0
 62
     5
 63
     7
421
 16777215
 74
     0
 91
        0
 64
     7
 65
   257
 75
     1
175
     1
 42
1.0
 92
        8
 66
   257
 43
1.0
 76
     1
 77
     6
 78
     2
 67
     7
 79
     3
170
     0
171
     0
290
     0
174
     0
 93
       13
 44
0.0
173
     0
291
     0
 45
0.0
1001
ACAD
1000
AcDbSavedByObjectVersion
1070
     0
  0
VISUALSTYLE
  5
42
102
{ACAD_REACTORS
330
2A
102
}
102
{ACAD_XDICTIONARY
360
225
102
}
330
2A
100
AcDbVisualStyle
  2
Shaded
 70
    27
 71
     2
 72
     2
 73
     1
 90
        2
 40
0.6
 41
30.0
 62
     5
 63
     7
421
 16777215
 74
     0
 91
        4
 64
     7
 65
   257
 75
     1
175
     1
 42
1.0
 92
        8
 66
   257
 43
1.0
 76
     1
 77
     6
 78
     2
 67
     8
425
  7895160
 79
     3
170
     0
171
     0
290
     0
174
     0
 93
        5
 44
0.0
173
     0
291
     0
 45
0.0
1001
ACAD
1000
AcDbSavedByObjectVersion
1070
     0
  0
VISUALSTYLE
  5
41
102
{ACAD_REACTORS
330
2A
102
}
102
{ACAD_XDICTIONARY
360
223
102
}
330
2A
100
AcDbVisualStyle
  2
Shaded with edges
 70
    26
 71
     2
 72
     2
 73
     1
 90
        2
 40
0.6
 41
30.0
 62
     5
 63
     7
421
 16777215
 74
     1
 91
       10
 64
     7
 65
   257
 75
     2
175
     1
 42
1.0
 92
        8
 66
   257
 43
1.0
 76
     1
 77
     6
 78
     2
 67
     7
 79
     3
170
     0
171
     0
290
     0
174
     0
 93
        5
 44
0.0
173
     0
291
     0
 45
0.0
1001
ACAD
1000
AcDbSavedByObjectVersion
1070
     0
  0
VISUALSTYLE
  5
3E
102
{ACAD_REACTORS
330
2A
102
}
102
{ACAD_XDICTIONARY
360
21D
102
}
330
2A
100
AcDbVisualStyle
  2
Shades of Gray
 70
    23
 71
     2
 72
     2
 73
     3
 90
        0
 40
0.6
 41
30.0
 62
     5
 63
     7
421
 16777215
 74
     2
 91
        2
 64
     7
 65
     7
 75
     1
175
     1
 42
40.0
 92
        8
 66
     7
 43
1.0
 76
     1
 77
     6
 78
     2
 67
     7
 79
     3
170
     0
171
     0
290
     0
174
     0
 93
        1
 44
0.0
173
     0
291
     0
 45
0.0
1001
ACAD
1000
AcDbSavedByObjectVersion
1070
     0
  0
VISUALSTYLE
  5
3F
102
{ACAD_REACTORS
330
2A
102
}
102
{ACAD_XDICTIONARY
360
21F
102
}
330
2A
100
AcDbVisualStyle
  2
Sketchy
 70
    24
 71
     1
 72
     2
 73
     2
 90
        0
 40
0.6
 41
30.0
 62
     5
 63
     7
421
 16777215
 74
     2
 91
        2
 64
     7
 65
     7
 75
     1
175
     1
 42
40.0
 92
       11
 66
     7
 43
1.0
 76
     1
 77
     6
 78
     2
 67
     7
 79
     6
170
     0
171
     0
290
     0
174
     0
 93
        1
 44
0.0
173
     0
291
     0
 45
0.0
1001
ACAD
1000
AcDbSavedByObjectVersion
1070
     0
  0
VISUALSTYLE
  5
37
102
{ACAD_REACTORS
330
2A
102
}
102
{ACAD_XDICTIONARY
360
20F
102
}
330
2A
100
AcDbVisualStyle
  2
Thicken
 70
    13
 71
     2
 72
     2
 73
     0
 90
        0
 40
0.6
 41
30.0
 62
     5
 63
     7
421
 16777215
 74
     1
 91
        4
 64
     7
 65
   257
 75
     1
175
     1
 42
1.0
 92
       12
 66
     7
 43
1.0
 76
     1
 77
     6
 78
     2
 67
     7
 79
     5
170
     0
171
     0
290
     0
174
     0
 93
        1
 44
0.0
173
     0
291
     1
 45
0.0
1001
ACAD
1000
AcDbSavedByObjectVersion
1070
     0
  0
VISUALSTYLE
  5
30
102
{ACAD_REACTORS
330
2A
102
}
102
{ACAD_XDICTIONARY
360
201
102
}
330
2A
100
AcDbVisualStyle
  2
Wireframe
 70
     5
 71
     0
 72
     2
 73
     0
 90
        0
 40
0.6
 41
30.0
 62
     5
 63
     7
421
 16777215
 74
     1
 91
        4
 64
     7
 65
   257
 75
     1
175
     1
 42
1.0
 92
        0
 66
   257
 43
1.0
 76
     1
 77
     6
 78
     2
 67
     7
 79
     3
170
     0
171
     0
290
     0
174
     0
 93
        1
 44
0.0
173
     0
291
     0
 45
0.0
1001
ACAD
1000
AcDbSavedByObjectVersion
1070
     0
  0
VISUALSTYLE
  5
40
102
{ACAD_REACTORS
330
2A
102
}
102
{ACAD_XDICTIONARY
360
221
102
}
330
2A
100
AcDbVisualStyle
  2
X-Ray
 70
    25
 71
     2
 72
     2
 73
     1
 90
        1
 40
0.5
 41
30.0
 62
     5
 63
     7
421
 16777215
 74
     1
 91
        0
 64
     7
 65
   257
 75
     1
175
     1
 42
1.0
 92
        8
 66
     7
 43
1.0
 76
     1
 77
     6
 78
     2
 67
     7
 79
     3
170
     0
171
     0
290
     0
174
     0
 93
       13
 44
0.0
173
     0
291
     0
 45
0.0
1001
ACAD
1000
AcDbSavedByObjectVersion
1070
     0
  0
DICTIONARYVAR
  5
1F4
102
{ACAD_REACTORS
330
1F3
102
}
330
1F3
100
DictionaryVariables
280
     0
  1
1:1
  0
DICTIONARYVAR
  5
238
102
{ACAD_REACTORS
330
1F3
102
}
330
1F3
100
DictionaryVariables
280
     0
  1
3.500000
  0
DICTIONARYVAR
  5
239
102
{ACAD_REACTORS
330
1F3
102
}
330
1F3
100
DictionaryVariables
280
     0
  1
acadiso.lin
  0
DICTIONARYVAR
  5
235
102
{ACAD_REACTORS
330
1F3
102
}
330
1F3
100
DictionaryVariables
280
     0
  1
Standard
  0
DICTIONARYVAR
  5
234
102
{ACAD_REACTORS
330
1F3
102
}
330
1F3
100
DictionaryVariables
280
     0
  1
Standard
  0
DICTIONARYVAR
  5
1F5
102
{ACAD_REACTORS
330
1F3
102
}
330
1F3
100
DictionaryVariables
280
     0
  1
1
  0
DICTIONARYVAR
  5
1F6
102
{ACAD_REACTORS
330
1F3
102
}
330
1F3
100
DictionaryVariables
280
     0
  1
2
  0
DICTIONARY
  5
229
330
45
100
AcDbDictionary
280
     1
281
     1
  3
ACAD_XREC_ROUNDTRIP
360
22A
  0
DICTIONARY
  5
227
330
44
100
AcDbDictionary
280
     1
281
     1
  3
ACAD_XREC_ROUNDTRIP
360
228
  0
DICTIONARY
  5
22B
330
46
100
AcDbDictionary
280
     1
281
     1
  3
ACAD_XREC_ROUNDTRIP
360
22C
  0
DICTIONARY
  5
231
330
6C
100
AcDbDictionary
280
     1
281
     1
  3
ACAD_XREC_ROUNDTRIP
360
232
  0
DICTIONARY
  5
22D
330
6A
100
AcDbDictionary
280
     1
281
     1
  3
ACAD_ROUNDTRIP_2008_TABLESTYLE_CELLSTYLEMAP
360
22F
  3
ACAD_XREC_ROUNDTRIP
360
22E
  0
DICTIONARY
  5
1FF
330
2F
100
AcDbDictionary
280
     1
281
     1
  3
ACAD_XREC_ROUNDTRIP
360
200
  0
DICTIONARY
  5
205
330
32
100
AcDbDictionary
280
     1
281
     1
  3
ACAD_XREC_ROUNDTRIP
360
206
  0
DICTIONARY
  5
20D
330
36
100
AcDbDictionary
280
     1
281
     1
  3
ACAD_XREC_ROUNDTRIP
360
20E
  0
DICTIONARY
  5
215
330
3A
100
AcDbDictionary
280
     1
281
     1
  3
ACAD_XREC_ROUNDTRIP
360
216
  0
DICTIONARY
  5
209
330
34
100
AcDbDictionary
280
     1
281
     1
  3
ACAD_XREC_ROUNDTRIP
360
20A
  0
DICTIONARY
  5
20B
330
35
100
AcDbDictionary
280
     1
281
     1
  3
ACAD_XREC_ROUNDTRIP
360
20C
  0
DICTIONARY
  5
21B
330
3D
100
AcDbDictionary
280
     1
281
     1
  3
ACAD_XREC_ROUNDTRIP
360
21C
  0
DICTIONARY
  5
213
330
39
100
AcDbDictionary
280
     1
281
     1
  3
ACAD_XREC_ROUNDTRIP
360
214
  0
DICTIONARY
  5
1F7
330
2B
100
AcDbDictionary
280
     1
281
     1
  3
ACAD_XREC_ROUNDTRIP
360
1F8
  0
DICTIONARY
  5
1F9
330
2C
100
AcDbDictionary
280
     1
281
     1
  3
ACAD_XREC_ROUNDTRIP
360
1FA
  0
DICTIONARY
  5
1FB
330
2D
100
AcDbDictionary
280
     1
281
     1
  3
ACAD_XREC_ROUNDTRIP
360
1FC
  0
DICTIONARY
  5
1FD
330
2E
100
AcDbDictionary
280
     1
281
     1
  3
ACAD_XREC_ROUNDTRIP
360
1FE
  0
DICTIONARY
  5
203
330
31
100
AcDbDictionary
280
     1
281
     1
  3
ACAD_XREC_ROUNDTRIP
360
204
  0
DICTIONARY
  5
217
330
3B
100
AcDbDictionary
280
     1
281
     1
  3
ACAD_XREC_ROUNDTRIP
360
218
  0
DICTIONARY
  5
211
330
38
100
AcDbDictionary
280
     1
281
     1
  3
ACAD_XREC_ROUNDTRIP
360
212
  0
DICTIONARY
  5
219
330
3C
100
AcDbDictionary
280
     1
281
     1
  3
ACAD_XREC_ROUNDTRIP
360
21A
  0
DICTIONARY
  5
207
330
33
100
AcDbDictionary
280
     1
281
     1
  3
ACAD_XREC_ROUNDTRIP
360
208
  0
DICTIONARY
  5
225
330
42
100
AcDbDictionary
280
     1
281
     1
  3
ACAD_XREC_ROUNDTRIP
360
226
  0
DICTIONARY
  5
223
330
41
100
AcDbDictionary
280
     1
281
     1
  3
ACAD_XREC_ROUNDTRIP
360
224
  0
DICTIONARY
  5
21D
330
3E
100
AcDbDictionary
280
     1
281
     1
  3
ACAD_XREC_ROUNDTRIP
360
21E
  0
DICTIONARY
  5
21F
330
3F
100
AcDbDictionary
280
     1
281
     1
  3
ACAD_XREC_ROUNDTRIP
360
220
  0
DICTIONARY
  5
20F
330
37
100
AcDbDictionary
280
     1
281
     1
  3
ACAD_XREC_ROUNDTRIP
360
210
  0
DICTIONARY
  5
201
330
30
100
AcDbDictionary
280
     1
281
     1
  3
ACAD_XREC_ROUNDTRIP
360
202
  0
DICTIONARY
  5
221
330
40
100
AcDbDictionary
280
     1
281
     1
  3
ACAD_XREC_ROUNDTRIP
360
222
  0
XRECORD
  5
22A
102
{ACAD_REACTORS
330
229
102
}
330
229
100
AcDbXrecord
280
     1
102
MATERIAL
148
0.0
149
0.0
149
0.0
 93
        0
 94
      127
282
     0
 72
     1
 77
     1
171
     1
175
     1
179
     1
273
     0
  0
XRECORD
  5
228
102
{ACAD_REACTORS
330
227
102
}
330
227
100
AcDbXrecord
280
     1
102
MATERIAL
148
0.0
149
0.0
149
0.0
 93
        0
 94
      127
282
     0
 72
     1
 77
     1
171
     1
175
     1
179
     1
273
     0
  0
XRECORD
  5
22C
102
{ACAD_REACTORS
330
22B
102
}
330
22B
100
AcDbXrecord
280
     1
102
MATERIAL
148
0.0
149
0.0
149
0.0
 93
        0
 94
      127
282
     0
 72
     1
 77
     1
171
     1
175
     1
179
     1
273
     0
  0
XRECORD
  5
232
102
{ACAD_REACTORS
330
231
102
}
330
231
100
AcDbXrecord
280
     1
102
ACAD_ROUNDTRIP_2010_MLEADER_STYLE
  0
CELLSTYLEMAP
  5
22F
102
{ACAD_REACTORS
330
22D
102
}
330
22D
100
AcDbCellStyleMap
 90
        3
300
CELLSTYLE
  1
TABLEFORMAT_BEGIN
 90
        5
170
     1
 91
        0
 92
    32768
 62
   257
 93
        1
300
CONTENTFORMAT
  1
CONTENTFORMAT_BEGIN
 90
        0
 91
        0
 92
        4
 93
        0
300

 40
0.0
140
1.0
 94
        5
 62
     0
340
11
144
6.0
309
CONTENTFORMAT_END
171
     1
301
MARGIN
  1
CELLMARGIN_BEGIN
 40
1.5
 40
1.5
 40
1.5
 40
1.5
 40
1.5
 40
1.5
309
CELLMARGIN_END
 94
        6
 95
        1
302
GRIDFORMAT
  1
GRIDFORMAT_BEGIN
 90
        0
 91
        1
 62
     0
 92
       -2
340
14
 93
        0
 40
0.045
309
GRIDFORMAT_END
 95
        2
302
GRIDFORMAT
  1
GRIDFORMAT_BEGIN
 90
        0
 91
        1
 62
     0
 92
       -2
340
14
 93
        0
 40
0.045
309
GRIDFORMAT_END
 95
        4
302
GRIDFORMAT
  1
GRIDFORMAT_BEGIN
 90
        0
 91
        1
 62
     0
 92
       -2
340
14
 93
        0
 40
0.045
309
GRIDFORMAT_END
 95
        8
302
GRIDFORMAT
  1
GRIDFORMAT_BEGIN
 90
        0
 91
        1
 62
     0
 92
       -2
340
14
 93
        0
 40
0.045
309
GRIDFORMAT_END
 95
       16
302
GRIDFORMAT
  1
GRIDFORMAT_BEGIN
 90
        0
 91
        1
 62
     0
 92
       -2
340
14
 93
        0
 40
0.045
309
GRIDFORMAT_END
 95
       32
302
GRIDFORMAT
  1
GRIDFORMAT_BEGIN
 90
        0
 91
        1
 62
     0
 92
       -2
340
14
 93
        0
 40
0.045
309
GRIDFORMAT_END
309
TABLEFORMAT_END
  1
CELLSTYLE_BEGIN
 90
        1
 91
        1
300
_TITLE
309
CELLSTYLE_END
300
CELLSTYLE
  1
TABLEFORMAT_BEGIN
 90
        5
170
     1
 91
        0
 92
        0
 62
   257
 93
        1
300
CONTENTFORMAT
  1
CONTENTFORMAT_BEGIN
 90
        0
 91
        0
 92
        4
 93
        0
300

 40
0.0
140
1.0
 94
        5
 62
     0
340
11
144
4.5
309
CONTENTFORMAT_END
171
     1
301
MARGIN
  1
CELLMARGIN_BEGIN
 40
1.5
 40
1.5
 40
1.5
 40
1.5
 40
1.5
 40
1.5
309
CELLMARGIN_END
 94
        6
 95
        1
302
GRIDFORMAT
  1
GRIDFORMAT_BEGIN
 90
        0
 91
        1
 62
     0
 92
       -2
340
14
 93
        0
 40
0.045
309
GRIDFORMAT_END
 95
        2
302
GRIDFORMAT
  1
GRIDFORMAT_BEGIN
 90
        0
 91
        1
 62
     0
 92
       -2
340
14
 93
        0
 40
0.045
309
GRIDFORMAT_END
 95
        4
302
GRIDFORMAT
  1
GRIDFORMAT_BEGIN
 90
        0
 91
        1
 62
     0
 92
       -2
340
14
 93
        0
 40
0.045
309
GRIDFORMAT_END
 95
        8
302
GRIDFORMAT
  1
GRIDFORMAT_BEGIN
 90
        0
 91
        1
 62
     0
 92
       -2
340
14
 93
        0
 40
0.045
309
GRIDFORMAT_END
 95
       16
302
GRIDFORMAT
  1
GRIDFORMAT_BEGIN
 90
        0
 91
        1
 62
     0
 92
       -2
340
14
 93
        0
 40
0.045
309
GRIDFORMAT_END
 95
       32
302
GRIDFORMAT
  1
GRIDFORMAT_BEGIN
 90
        0
 91
        1
 62
     0
 92
       -2
340
14
 93
        0
 40
0.045
309
GRIDFORMAT_END
309
TABLEFORMAT_END
  1
CELLSTYLE_BEGIN
 90
        2
 91
        1
300
_HEADER
309
CELLSTYLE_END
300
CELLSTYLE
  1
TABLEFORMAT_BEGIN
 90
        5
170
     1
 91
        0
 92
        0
 62
   257
 93
        1
300
CONTENTFORMAT
  1
CONTENTFORMAT_BEGIN
 90
        0
 91
        0
 92
        4
 93
        0
300

 40
0.0
140
1.0
 94
        2
 62
     0
340
11
144
4.5
309
CONTENTFORMAT_END
171
     1
301
MARGIN
  1
CELLMARGIN_BEGIN
 40
1.5
 40
1.5
 40
1.5
 40
1.5
 40
1.5
 40
1.5
309
CELLMARGIN_END
 94
        6
 95
        1
302
GRIDFORMAT
  1
GRIDFORMAT_BEGIN
 90
        0
 91
        1
 62
     0
 92
       -2
340
14
 93
        0
 40
0.045
309
GRIDFORMAT_END
 95
        2
302
GRIDFORMAT
  1
GRIDFORMAT_BEGIN
 90
        0
 91
        1
 62
     0
 92
       -2
340
14
 93
        0
 40
0.045
309
GRIDFORMAT_END
 95
        4
302
GRIDFORMAT
  1
GRIDFORMAT_BEGIN
 90
        0
 91
        1
 62
     0
 92
       -2
340
14
 93
        0
 40
0.045
309
GRIDFORMAT_END
 95
        8
302
GRIDFORMAT
  1
GRIDFORMAT_BEGIN
 90
        0
 91
        1
 62
     0
 92
       -2
340
14
 93
        0
 40
0.045
309
GRIDFORMAT_END
 95
       16
302
GRIDFORMAT
  1
GRIDFORMAT_BEGIN
 90
        0
 91
        1
 62
     0
 92
       -2
340
14
 93
        0
 40
0.045
309
GRIDFORMAT_END
 95
       32
302
GRIDFORMAT
  1
GRIDFORMAT_BEGIN
 90
        0
 91
        1
 62
     0
 92
       -2
340
14
 93
        0
 40
0.045
309
GRIDFORMAT_END
309
TABLEFORMAT_END
  1
CELLSTYLE_BEGIN
 90
        3
 91
        2
300
_DATA
309
CELLSTYLE_END
  0
XRECORD
  5
22E
102
{ACAD_REACTORS
330
22D
102
}
330
22D
100
AcDbXrecord
280
     1
102
ACAD_ROUNDTRIP_PRE2007_TABLESTYLE
 90
        4
 91
        0
  1

 92
        4
 93
        0
  2

 94
        4
 95
        0
  3

  0
XRECORD
  5
200
102
{ACAD_REACTORS
330
1FF
102
}
330
1FF
100
AcDbXrecord
280
     1
102
RTVSPropertyOp0
 70
     1
102
RTVSPropertyOp1
 70
     1
102
RTVSPropertyOp2
 70
     1
102
RTVSPropertyOp3
 70
     1
102
RTVSPropertyOp4
 70
     1
102
RTVSPropertyOp5
 70
     1
102
RTVSPropertyOp6
 70
     1
102
RTVSPropertyOp7
 70
     1
102
RTVSPropertyOp8
 70
     1
102
RTVSPropertyOp9
 70
     1
102
RTVSPropertyOp10
 70
     1
102
RTVSPropertyOp11
 70
     1
102
RTVSPropertyOp12
 70
     1
102
RTVSPropertyOp13
 70
     1
102
RTVSPropertyOp14
 70
     1
102
RTVSPropertyOp15
 70
     1
102
RTVSPropertyOp16
 70
     1
102
RTVSPropertyOp17
 70
     1
102
RTVSPropertyOp18
 70
     1
102
RTVSPropertyOp19
 70
     1
102
RTVSPropertyOp20
 70
     1
102
RTVSPropertyOp21
 70
     1
102
RTVSPropertyOp22
 70
     1
102
RTVSPropertyOp23
 70
     1
102
RTVSPropertyOp24
 70
     1
102
RTVSPropertyOp25
 70
     1
102
RTVSPropertyOp26
 70
     1
102
RTVSPropertyOp27
 70
     1
102
RTVSPropertyOp28
 70
     1
102
RTVSPropertyOp29
 70
     1
102
RTVSPropertyOp30
 70
     1
102
RTVSPropertyOp31
 70
     1
102
RTVSPropertyOp32
 70
     1
102
RTVSPropertyOp33
 70
     1
102
RTVSPropertyOp34
 70
     1
102
RTVSPropertyOp35
 70
     1
102
RTVSPropertyOp36
 70
     1
102
RTVSPropertyOp37
 70
     1
102
RTVSPropertyOp38
 70
     1
102
RTVSPropertyOp39
 70
     1
102
RTVSPropertyOp40
 70
     1
102
RTVSPropertyOp41
 70
     1
102
RTVSPropertyOp42
 70
     1
102
RTVSPropertyOp43
 70
     1
102
RTVSPropertyOp44
 70
     1
102
RTVSPropertyOp45
 70
     1
102
RTVSPropertyOp46
 70
     1
102
RTVSPropertyOp47
 70
     1
102
RTVSPropertyOp48
 70
     1
102
RTVSPropertyOp49
 70
     1
102
RTVSPropertyOp50
 70
     1
102
RTVSPropertyOp51
 70
     0
102
RTVSPropertyOp52
 70
     0
102
RTVSPropertyOp53
 70
     1
102
RTVSPropertyOp54
 70
     1
102
RTVSPropertyOp55
 70
     1
102
RTVSPropertyOp56
 70
     1
102
RTVSPropertyOp57
 70
     1
102
RTVSPost2010Prop28
280
     1
102
RTVSPost2010PropOp28
 70
     1
102
RTVSPost2010Prop29
280
     1
102
RTVSPost2010PropOp29
 70
     1
102
RTVSPost2010Prop30
280
     0
102
RTVSPost2010PropOp30
 70
     1
102
RTVSPost2010Prop31
280
     0
102
RTVSPost2010PropOp31
 70
     1
102
RTVSPost2010Prop32
280
     0
102
RTVSPost2010PropOp32
 70
     1
102
RTVSPost2010Prop33
280
     0
102
RTVSPost2010PropOp33
 70
     1
102
RTVSPost2010Prop34
280
     0
102
RTVSPost2010PropOp34
 70
     1
102
RTVSPost2010Prop35
280
     0
102
RTVSPost2010PropOp35
 70
     1
102
RTVSPost2010Prop36
280
     0
102
RTVSPost2010PropOp36
 70
     1
102
RTVSPost2010Prop37
 90
       50
102
RTVSPost2010PropOp37
 70
     1
102
RTVSPost2010Prop38
140
0.0
102
RTVSPost2010PropOp38
 70
     1
102
RTVSPost2010Prop39
140
1.0
102
RTVSPost2010PropOp39
 70
     1
102
RTVSPost2010Prop40
 90
        0
102
RTVSPost2010PropOp40
 70
     1
102
RTVSPost2010Prop41ColorIndex
 90
       18
102
RTVSPost2010Prop41ColorRGB
 90
        0
102
RTVSPost2010PropOp41
 70
     1
102
RTVSPost2010Prop42
 90
       50
102
RTVSPost2010PropOp42
 70
     1
102
RTVSPost2010Prop43
 90
        3
102
RTVSPost2010PropOp43
 70
     1
102
RTVSPost2010Prop44ColorIndex
 90
        5
102
RTVSPost2010Prop44ColorRGB
 90
      255
102
RTVSPost2010PropOp44
 70
     1
102
RTVSPost2010Prop45
280
     0
102
RTVSPost2010PropOp45
 70
     1
102
RTVSPost2010Prop46
 90
       50
102
RTVSPost2010PropOp46
 70
     1
102
RTVSPost2010Prop47
 90
       50
102
RTVSPost2010PropOp47
 70
     1
102
RTVSPost2010Prop48
 90
       50
102
RTVSPost2010PropOp48
 70
     1
102
RTVSPost2010Prop49
280
     0
102
RTVSPost2010PropOp49
 70
     1
102
RTVSPost2010Prop50
 90
       50
102
RTVSPost2010PropOp50
 70
     1
102
RTVSPost2010Prop51ColorIndex
 90
      256
102
RTVSPost2010Prop51ColorRGB
 90
-16777216
102
RTVSPost2010PropOp51
 70
     0
102
RTVSPost2010Prop52
140
1.0
102
RTVSPost2010PropOp52
 70
     0
102
RTVSPost2010Prop53
 90
        2
102
RTVSPost2010PropOp53
 70
     1
102
RTVSPost2010Prop54
  1
strokes_ogs.tif
102
RTVSPost2010PropOp54
 70
     1
102
RTVSPost2010Prop55
280
     0
102
RTVSPost2010PropOp55
 70
     1
102
RTVSPost2010Prop56
140
1.0
102
RTVSPost2010PropOp56
 70
     1
102
RTVSPost2010Prop57
140
1.0
102
RTVSPost2010PropOp57
 70
     1
  0
XRECORD
  5
206
102
{ACAD_REACTORS
330
205
102
}
330
205
100
AcDbXrecord
280
     1
102
RTVSPropertyOp0
 70
     1
102
RTVSPropertyOp1
 70
     1
102
RTVSPropertyOp2
 70
     1
102
RTVSPropertyOp3
 70
     1
102
RTVSPropertyOp4
 70
     1
102
RTVSPropertyOp5
 70
     1
102
RTVSPropertyOp6
 70
     1
102
RTVSPropertyOp7
 70
     1
102
RTVSPropertyOp8
 70
     1
102
RTVSPropertyOp9
 70
     1
102
RTVSPropertyOp10
 70
     1
102
RTVSPropertyOp11
 70
     1
102
RTVSPropertyOp12
 70
     1
102
RTVSPropertyOp13
 70
     1
102
RTVSPropertyOp14
 70
     1
102
RTVSPropertyOp15
 70
     1
102
RTVSPropertyOp16
 70
     1
102
RTVSPropertyOp17
 70
     1
102
RTVSPropertyOp18
 70
     1
102
RTVSPropertyOp19
 70
     1
102
RTVSPropertyOp20
 70
     1
102
RTVSPropertyOp21
 70
     1
102
RTVSPropertyOp22
 70
     1
102
RTVSPropertyOp23
 70
     1
102
RTVSPropertyOp24
 70
     1
102
RTVSPropertyOp25
 70
     1
102
RTVSPropertyOp26
 70
     1
102
RTVSPropertyOp27
 70
     1
102
RTVSPropertyOp28
 70
     1
102
RTVSPropertyOp29
 70
     1
102
RTVSPropertyOp30
 70
     1
102
RTVSPropertyOp31
 70
     1
102
RTVSPropertyOp32
 70
     1
102
RTVSPropertyOp33
 70
     1
102
RTVSPropertyOp34
 70
     1
102
RTVSPropertyOp35
 70
     1
102
RTVSPropertyOp36
 70
     1
102
RTVSPropertyOp37
 70
     1
102
RTVSPropertyOp38
 70
     1
102
RTVSPropertyOp39
 70
     1
102
RTVSPropertyOp40
 70
     1
102
RTVSPropertyOp41
 70
     1
102
RTVSPropertyOp42
 70
     1
102
RTVSPropertyOp43
 70
     1
102
RTVSPropertyOp44
 70
     1
102
RTVSPropertyOp45
 70
     1
102
RTVSPropertyOp46
 70
     1
102
RTVSPropertyOp47
 70
     1
102
RTVSPropertyOp48
 70
     1
102
RTVSPropertyOp49
 70
     1
102
RTVSPropertyOp50
 70
     1
102
RTVSPropertyOp51
 70
     0
102
RTVSPropertyOp52
 70
     0
102
RTVSPropertyOp53
 70
     1
102
RTVSPropertyOp54
 70
     1
102
RTVSPropertyOp55
 70
     1
102
RTVSPropertyOp56
 70
     1
102
RTVSPropertyOp57
 70
     1
102
RTVSPost2010Prop28
280
     0
102
RTVSPost2010PropOp28
 70
     1
102
RTVSPost2010Prop29
280
     1
102
RTVSPost2010PropOp29
 70
     1
102
RTVSPost2010Prop30
280
     1
102
RTVSPost2010PropOp30
 70
     1
102
RTVSPost2010Prop31
280
     0
102
RTVSPost2010PropOp31
 70
     1
102
RTVSPost2010Prop32
280
     0
102
RTVSPost2010PropOp32
 70
     1
102
RTVSPost2010Prop33
280
     0
102
RTVSPost2010PropOp33
 70
     1
102
RTVSPost2010Prop34
280
     0
102
RTVSPost2010PropOp34
 70
     1
102
RTVSPost2010Prop35
280
     0
102
RTVSPost2010PropOp35
 70
     1
102
RTVSPost2010Prop36
280
     0
102
RTVSPost2010PropOp36
 70
     1
102
RTVSPost2010Prop37
 90
       50
102
RTVSPost2010PropOp37
 70
     1
102
RTVSPost2010Prop38
140
0.0
102
RTVSPost2010PropOp38
 70
     1
102
RTVSPost2010Prop39
140
1.0
102
RTVSPost2010PropOp39
 70
     1
102
RTVSPost2010Prop40
 90
        0
102
RTVSPost2010PropOp40
 70
     1
102
RTVSPost2010Prop41ColorIndex
 90
       18
102
RTVSPost2010Prop41ColorRGB
 90
        0
102
RTVSPost2010PropOp41
 70
     1
102
RTVSPost2010Prop42
 90
       50
102
RTVSPost2010PropOp42
 70
     1
102
RTVSPost2010Prop43
 90
        3
102
RTVSPost2010PropOp43
 70
     1
102
RTVSPost2010Prop44ColorIndex
 90
        5
102
RTVSPost2010Prop44ColorRGB
 90
      255
102
RTVSPost2010PropOp44
 70
     1
102
RTVSPost2010Prop45
280
     0
102
RTVSPost2010PropOp45
 70
     1
102
RTVSPost2010Prop46
 90
       50
102
RTVSPost2010PropOp46
 70
     1
102
RTVSPost2010Prop47
 90
       50
102
RTVSPost2010PropOp47
 70
     1
102
RTVSPost2010Prop48
 90
       50
102
RTVSPost2010PropOp48
 70
     1
102
RTVSPost2010Prop49
280
     0
102
RTVSPost2010PropOp49
 70
     1
102
RTVSPost2010Prop50
 90
       50
102
RTVSPost2010PropOp50
 70
     1
102
RTVSPost2010Prop51ColorIndex
 90
      256
102
RTVSPost2010Prop51ColorRGB
 90
-16777216
102
RTVSPost2010PropOp51
 70
     0
102
RTVSPost2010Prop52
140
1.0
102
RTVSPost2010PropOp52
 70
     0
102
RTVSPost2010Prop53
 90
        2
102
RTVSPost2010PropOp53
 70
     1
102
RTVSPost2010Prop54
  1
strokes_ogs.tif
102
RTVSPost2010PropOp54
 70
     1
102
RTVSPost2010Prop55
280
     0
102
RTVSPost2010PropOp55
 70
     1
102
RTVSPost2010Prop56
140
1.0
102
RTVSPost2010PropOp56
 70
     1
102
RTVSPost2010Prop57
140
1.0
102
RTVSPost2010PropOp57
 70
     1
  0
XRECORD
  5
20E
102
{ACAD_REACTORS
330
20D
102
}
330
20D
100
AcDbXrecord
280
     1
102
RTVSPropertyOp0
 70
     1
102
RTVSPropertyOp1
 70
     1
102
RTVSPropertyOp2
 70
     1
102
RTVSPropertyOp3
 70
     1
102
RTVSPropertyOp4
 70
     1
102
RTVSPropertyOp5
 70
     1
102
RTVSPropertyOp6
 70
     1
102
RTVSPropertyOp7
 70
     1
102
RTVSPropertyOp8
 70
     1
102
RTVSPropertyOp9
 70
     1
102
RTVSPropertyOp10
 70
     1
102
RTVSPropertyOp11
 70
     1
102
RTVSPropertyOp12
 70
     1
102
RTVSPropertyOp13
 70
     1
102
RTVSPropertyOp14
 70
     1
102
RTVSPropertyOp15
 70
     1
102
RTVSPropertyOp16
 70
     1
102
RTVSPropertyOp17
 70
     1
102
RTVSPropertyOp18
 70
     1
102
RTVSPropertyOp19
 70
     1
102
RTVSPropertyOp20
 70
     1
102
RTVSPropertyOp21
 70
     1
102
RTVSPropertyOp22
 70
     1
102
RTVSPropertyOp23
 70
     1
102
RTVSPropertyOp24
 70
     1
102
RTVSPropertyOp25
 70
     1
102
RTVSPropertyOp26
 70
     1
102
RTVSPropertyOp27
 70
     1
102
RTVSPropertyOp28
 70
     1
102
RTVSPropertyOp29
 70
     1
102
RTVSPropertyOp30
 70
     1
102
RTVSPropertyOp31
 70
     1
102
RTVSPropertyOp32
 70
     1
102
RTVSPropertyOp33
 70
     1
102
RTVSPropertyOp34
 70
     1
102
RTVSPropertyOp35
 70
     1
102
RTVSPropertyOp36
 70
     1
102
RTVSPropertyOp37
 70
     1
102
RTVSPropertyOp38
 70
     1
102
RTVSPropertyOp39
 70
     1
102
RTVSPropertyOp40
 70
     1
102
RTVSPropertyOp41
 70
     1
102
RTVSPropertyOp42
 70
     1
102
RTVSPropertyOp43
 70
     1
102
RTVSPropertyOp44
 70
     1
102
RTVSPropertyOp45
 70
     1
102
RTVSPropertyOp46
 70
     1
102
RTVSPropertyOp47
 70
     1
102
RTVSPropertyOp48
 70
     1
102
RTVSPropertyOp49
 70
     1
102
RTVSPropertyOp50
 70
     1
102
RTVSPropertyOp51
 70
     0
102
RTVSPropertyOp52
 70
     0
102
RTVSPropertyOp53
 70
     1
102
RTVSPropertyOp54
 70
     1
102
RTVSPropertyOp55
 70
     1
102
RTVSPropertyOp56
 70
     1
102
RTVSPropertyOp57
 70
     1
102
RTVSPost2010Prop28
280
     0
102
RTVSPost2010PropOp28
 70
     1
102
RTVSPost2010Prop29
280
     1
102
RTVSPost2010PropOp29
 70
     1
102
RTVSPost2010Prop30
280
     1
102
RTVSPost2010PropOp30
 70
     1
102
RTVSPost2010Prop31
280
     0
102
RTVSPost2010PropOp31
 70
     1
102
RTVSPost2010Prop32
280
     0
102
RTVSPost2010PropOp32
 70
     1
102
RTVSPost2010Prop33
280
     0
102
RTVSPost2010PropOp33
 70
     1
102
RTVSPost2010Prop34
280
     0
102
RTVSPost2010PropOp34
 70
     1
102
RTVSPost2010Prop35
280
     0
102
RTVSPost2010PropOp35
 70
     1
102
RTVSPost2010Prop36
280
     0
102
RTVSPost2010PropOp36
 70
     1
102
RTVSPost2010Prop37
 90
       50
102
RTVSPost2010PropOp37
 70
     1
102
RTVSPost2010Prop38
140
0.0
102
RTVSPost2010PropOp38
 70
     1
102
RTVSPost2010Prop39
140
1.0
102
RTVSPost2010PropOp39
 70
     1
102
RTVSPost2010Prop40
 90
        0
102
RTVSPost2010PropOp40
 70
     1
102
RTVSPost2010Prop41ColorIndex
 90
       18
102
RTVSPost2010Prop41ColorRGB
 90
        0
102
RTVSPost2010PropOp41
 70
     1
102
RTVSPost2010Prop42
 90
       50
102
RTVSPost2010PropOp42
 70
     1
102
RTVSPost2010Prop43
 90
        3
102
RTVSPost2010PropOp43
 70
     1
102
RTVSPost2010Prop44ColorIndex
 90
        5
102
RTVSPost2010Prop44ColorRGB
 90
      255
102
RTVSPost2010PropOp44
 70
     1
102
RTVSPost2010Prop45
280
     0
102
RTVSPost2010PropOp45
 70
     1
102
RTVSPost2010Prop46
 90
       50
102
RTVSPost2010PropOp46
 70
     1
102
RTVSPost2010Prop47
 90
       50
102
RTVSPost2010PropOp47
 70
     1
102
RTVSPost2010Prop48
 90
       50
102
RTVSPost2010PropOp48
 70
     1
102
RTVSPost2010Prop49
280
     0
102
RTVSPost2010PropOp49
 70
     1
102
RTVSPost2010Prop50
 90
       50
102
RTVSPost2010PropOp50
 70
     1
102
RTVSPost2010Prop51ColorIndex
 90
      256
102
RTVSPost2010Prop51ColorRGB
 90
-16777216
102
RTVSPost2010PropOp51
 70
     0
102
RTVSPost2010Prop52
140
1.0
102
RTVSPost2010PropOp52
 70
     0
102
RTVSPost2010Prop53
 90
        2
102
RTVSPost2010PropOp53
 70
     1
102
RTVSPost2010Prop54
  1
strokes_ogs.tif
102
RTVSPost2010PropOp54
 70
     1
102
RTVSPost2010Prop55
280
     0
102
RTVSPost2010PropOp55
 70
     1
102
RTVSPost2010Prop56
140
1.0
102
RTVSPost2010PropOp56
 70
     1
102
RTVSPost2010Prop57
140
1.0
102
RTVSPost2010PropOp57
 70
     1
  0
XRECORD
  5
216
102
{ACAD_REACTORS
330
215
102
}
330
215
100
AcDbXrecord
280
     1
102
RTVSPropertyOp0
 70
     1
102
RTVSPropertyOp1
 70
     1
102
RTVSPropertyOp2
 70
     1
102
RTVSPropertyOp3
 70
     1
102
RTVSPropertyOp4
 70
     1
102
RTVSPropertyOp5
 70
     1
102
RTVSPropertyOp6
 70
     1
102
RTVSPropertyOp7
 70
     1
102
RTVSPropertyOp8
 70
     1
102
RTVSPropertyOp9
 70
     1
102
RTVSPropertyOp10
 70
     1
102
RTVSPropertyOp11
 70
     1
102
RTVSPropertyOp12
 70
     1
102
RTVSPropertyOp13
 70
     1
102
RTVSPropertyOp14
 70
     1
102
RTVSPropertyOp15
 70
     1
102
RTVSPropertyOp16
 70
     1
102
RTVSPropertyOp17
 70
     1
102
RTVSPropertyOp18
 70
     1
102
RTVSPropertyOp19
 70
     1
102
RTVSPropertyOp20
 70
     1
102
RTVSPropertyOp21
 70
     1
102
RTVSPropertyOp22
 70
     1
102
RTVSPropertyOp23
 70
     1
102
RTVSPropertyOp24
 70
     1
102
RTVSPropertyOp25
 70
     1
102
RTVSPropertyOp26
 70
     1
102
RTVSPropertyOp27
 70
     1
102
RTVSPropertyOp28
 70
     1
102
RTVSPropertyOp29
 70
     1
102
RTVSPropertyOp30
 70
     1
102
RTVSPropertyOp31
 70
     1
102
RTVSPropertyOp32
 70
     1
102
RTVSPropertyOp33
 70
     1
102
RTVSPropertyOp34
 70
     1
102
RTVSPropertyOp35
 70
     1
102
RTVSPropertyOp36
 70
     1
102
RTVSPropertyOp37
 70
     1
102
RTVSPropertyOp38
 70
     1
102
RTVSPropertyOp39
 70
     1
102
RTVSPropertyOp40
 70
     1
102
RTVSPropertyOp41
 70
     1
102
RTVSPropertyOp42
 70
     1
102
RTVSPropertyOp43
 70
     1
102
RTVSPropertyOp44
 70
     1
102
RTVSPropertyOp45
 70
     1
102
RTVSPropertyOp46
 70
     1
102
RTVSPropertyOp47
 70
     1
102
RTVSPropertyOp48
 70
     1
102
RTVSPropertyOp49
 70
     1
102
RTVSPropertyOp50
 70
     1
102
RTVSPropertyOp51
 70
     0
102
RTVSPropertyOp52
 70
     0
102
RTVSPropertyOp53
 70
     1
102
RTVSPropertyOp54
 70
     1
102
RTVSPropertyOp55
 70
     1
102
RTVSPropertyOp56
 70
     1
102
RTVSPropertyOp57
 70
     1
102
RTVSPost2010Prop28
280
     0
102
RTVSPost2010PropOp28
 70
     1
102
RTVSPost2010Prop29
280
     1
102
RTVSPost2010PropOp29
 70
     1
102
RTVSPost2010Prop30
280
     1
102
RTVSPost2010PropOp30
 70
     1
102
RTVSPost2010Prop31
280
     0
102
RTVSPost2010PropOp31
 70
     1
102
RTVSPost2010Prop32
280
     0
102
RTVSPost2010PropOp32
 70
     1
102
RTVSPost2010Prop33
280
     0
102
RTVSPost2010PropOp33
 70
     1
102
RTVSPost2010Prop34
280
     0
102
RTVSPost2010PropOp34
 70
     1
102
RTVSPost2010Prop35
280
     0
102
RTVSPost2010PropOp35
 70
     1
102
RTVSPost2010Prop36
280
     0
102
RTVSPost2010PropOp36
 70
     1
102
RTVSPost2010Prop37
 90
       50
102
RTVSPost2010PropOp37
 70
     1
102
RTVSPost2010Prop38
140
0.0
102
RTVSPost2010PropOp38
 70
     1
102
RTVSPost2010Prop39
140
1.0
102
RTVSPost2010PropOp39
 70
     1
102
RTVSPost2010Prop40
 90
        0
102
RTVSPost2010PropOp40
 70
     1
102
RTVSPost2010Prop41ColorIndex
 90
       18
102
RTVSPost2010Prop41ColorRGB
 90
        0
102
RTVSPost2010PropOp41
 70
     1
102
RTVSPost2010Prop42
 90
       50
102
RTVSPost2010PropOp42
 70
     1
102
RTVSPost2010Prop43
 90
        3
102
RTVSPost2010PropOp43
 70
     1
102
RTVSPost2010Prop44ColorIndex
 90
        5
102
RTVSPost2010Prop44ColorRGB
 90
      255
102
RTVSPost2010PropOp44
 70
     1
102
RTVSPost2010Prop45
280
     0
102
RTVSPost2010PropOp45
 70
     1
102
RTVSPost2010Prop46
 90
       50
102
RTVSPost2010PropOp46
 70
     1
102
RTVSPost2010Prop47
 90
       50
102
RTVSPost2010PropOp47
 70
     1
102
RTVSPost2010Prop48
 90
       50
102
RTVSPost2010PropOp48
 70
     1
102
RTVSPost2010Prop49
280
     0
102
RTVSPost2010PropOp49
 70
     1
102
RTVSPost2010Prop50
 90
       50
102
RTVSPost2010PropOp50
 70
     1
102
RTVSPost2010Prop51ColorIndex
 90
      256
102
RTVSPost2010Prop51ColorRGB
 90
-16777216
102
RTVSPost2010PropOp51
 70
     0
102
RTVSPost2010Prop52
140
1.0
102
RTVSPost2010PropOp52
 70
     0
102
RTVSPost2010Prop53
 90
        2
102
RTVSPost2010PropOp53
 70
     1
102
RTVSPost2010Prop54
  1
strokes_ogs.tif
102
RTVSPost2010PropOp54
 70
     1
102
RTVSPost2010Prop55
280
     0
102
RTVSPost2010PropOp55
 70
     1
102
RTVSPost2010Prop56
140
1.0
102
RTVSPost2010PropOp56
 70
     1
102
RTVSPost2010Prop57
140
1.0
102
RTVSPost2010PropOp57
 70
     1
  0
XRECORD
  5
20A
102
{ACAD_REACTORS
330
209
102
}
330
209
100
AcDbXrecord
280
     1
102
RTVSPropertyOp0
 70
     1
102
RTVSPropertyOp1
 70
     1
102
RTVSPropertyOp2
 70
     1
102
RTVSPropertyOp3
 70
     1
102
RTVSPropertyOp4
 70
     1
102
RTVSPropertyOp5
 70
     1
102
RTVSPropertyOp6
 70
     1
102
RTVSPropertyOp7
 70
     1
102
RTVSPropertyOp8
 70
     1
102
RTVSPropertyOp9
 70
     1
102
RTVSPropertyOp10
 70
     1
102
RTVSPropertyOp11
 70
     1
102
RTVSPropertyOp12
 70
     1
102
RTVSPropertyOp13
 70
     1
102
RTVSPropertyOp14
 70
     1
102
RTVSPropertyOp15
 70
     1
102
RTVSPropertyOp16
 70
     1
102
RTVSPropertyOp17
 70
     1
102
RTVSPropertyOp18
 70
     1
102
RTVSPropertyOp19
 70
     1
102
RTVSPropertyOp20
 70
     1
102
RTVSPropertyOp21
 70
     1
102
RTVSPropertyOp22
 70
     1
102
RTVSPropertyOp23
 70
     1
102
RTVSPropertyOp24
 70
     1
102
RTVSPropertyOp25
 70
     1
102
RTVSPropertyOp26
 70
     1
102
RTVSPropertyOp27
 70
     1
102
RTVSPropertyOp28
 70
     1
102
RTVSPropertyOp29
 70
     1
102
RTVSPropertyOp30
 70
     1
102
RTVSPropertyOp31
 70
     1
102
RTVSPropertyOp32
 70
     1
102
RTVSPropertyOp33
 70
     1
102
RTVSPropertyOp34
 70
     1
102
RTVSPropertyOp35
 70
     1
102
RTVSPropertyOp36
 70
     1
102
RTVSPropertyOp37
 70
     1
102
RTVSPropertyOp38
 70
     1
102
RTVSPropertyOp39
 70
     1
102
RTVSPropertyOp40
 70
     1
102
RTVSPropertyOp41
 70
     1
102
RTVSPropertyOp42
 70
     1
102
RTVSPropertyOp43
 70
     1
102
RTVSPropertyOp44
 70
     1
102
RTVSPropertyOp45
 70
     1
102
RTVSPropertyOp46
 70
     1
102
RTVSPropertyOp47
 70
     1
102
RTVSPropertyOp48
 70
     1
102
RTVSPropertyOp49
 70
     1
102
RTVSPropertyOp50
 70
     1
102
RTVSPropertyOp51
 70
     0
102
RTVSPropertyOp52
 70
     0
102
RTVSPropertyOp53
 70
     1
102
RTVSPropertyOp54
 70
     1
102
RTVSPropertyOp55
 70
     1
102
RTVSPropertyOp56
 70
     1
102
RTVSPropertyOp57
 70
     1
102
RTVSPost2010Prop28
280
     0
102
RTVSPost2010PropOp28
 70
     1
102
RTVSPost2010Prop29
280
     1
102
RTVSPost2010PropOp29
 70
     1
102
RTVSPost2010Prop30
280
     1
102
RTVSPost2010PropOp30
 70
     1
102
RTVSPost2010Prop31
280
     0
102
RTVSPost2010PropOp31
 70
     1
102
RTVSPost2010Prop32
280
     0
102
RTVSPost2010PropOp32
 70
     1
102
RTVSPost2010Prop33
280
     0
102
RTVSPost2010PropOp33
 70
     1
102
RTVSPost2010Prop34
280
     0
102
RTVSPost2010PropOp34
 70
     1
102
RTVSPost2010Prop35
280
     0
102
RTVSPost2010PropOp35
 70
     1
102
RTVSPost2010Prop36
280
     0
102
RTVSPost2010PropOp36
 70
     1
102
RTVSPost2010Prop37
 90
       50
102
RTVSPost2010PropOp37
 70
     1
102
RTVSPost2010Prop38
140
0.0
102
RTVSPost2010PropOp38
 70
     1
102
RTVSPost2010Prop39
140
1.0
102
RTVSPost2010PropOp39
 70
     1
102
RTVSPost2010Prop40
 90
        0
102
RTVSPost2010PropOp40
 70
     1
102
RTVSPost2010Prop41ColorIndex
 90
       18
102
RTVSPost2010Prop41ColorRGB
 90
        0
102
RTVSPost2010PropOp41
 70
     1
102
RTVSPost2010Prop42
 90
       50
102
RTVSPost2010PropOp42
 70
     1
102
RTVSPost2010Prop43
 90
        3
102
RTVSPost2010PropOp43
 70
     1
102
RTVSPost2010Prop44ColorIndex
 90
        5
102
RTVSPost2010Prop44ColorRGB
 90
      255
102
RTVSPost2010PropOp44
 70
     1
102
RTVSPost2010Prop45
280
     0
102
RTVSPost2010PropOp45
 70
     1
102
RTVSPost2010Prop46
 90
       50
102
RTVSPost2010PropOp46
 70
     1
102
RTVSPost2010Prop47
 90
       50
102
RTVSPost2010PropOp47
 70
     1
102
RTVSPost2010Prop48
 90
       50
102
RTVSPost2010PropOp48
 70
     1
102
RTVSPost2010Prop49
280
     0
102
RTVSPost2010PropOp49
 70
     1
102
RTVSPost2010Prop50
 90
       50
102
RTVSPost2010PropOp50
 70
     1
102
RTVSPost2010Prop51ColorIndex
 90
      256
102
RTVSPost2010Prop51ColorRGB
 90
-16777216
102
RTVSPost2010PropOp51
 70
     0
102
RTVSPost2010Prop52
140
1.0
102
RTVSPost2010PropOp52
 70
     0
102
RTVSPost2010Prop53
 90
        2
102
RTVSPost2010PropOp53
 70
     1
102
RTVSPost2010Prop54
  1
strokes_ogs.tif
102
RTVSPost2010PropOp54
 70
     1
102
RTVSPost2010Prop55
280
     0
102
RTVSPost2010PropOp55
 70
     1
102
RTVSPost2010Prop56
140
1.0
102
RTVSPost2010PropOp56
 70
     1
102
RTVSPost2010Prop57
140
1.0
102
RTVSPost2010PropOp57
 70
     1
  0
XRECORD
  5
20C
102
{ACAD_REACTORS
330
20B
102
}
330
20B
100
AcDbXrecord
280
     1
102
RTVSPropertyOp0
 70
     1
102
RTVSPropertyOp1
 70
     1
102
RTVSPropertyOp2
 70
     1
102
RTVSPropertyOp3
 70
     1
102
RTVSPropertyOp4
 70
     1
102
RTVSPropertyOp5
 70
     1
102
RTVSPropertyOp6
 70
     1
102
RTVSPropertyOp7
 70
     1
102
RTVSPropertyOp8
 70
     1
102
RTVSPropertyOp9
 70
     1
102
RTVSPropertyOp10
 70
     1
102
RTVSPropertyOp11
 70
     1
102
RTVSPropertyOp12
 70
     1
102
RTVSPropertyOp13
 70
     1
102
RTVSPropertyOp14
 70
     1
102
RTVSPropertyOp15
 70
     1
102
RTVSPropertyOp16
 70
     1
102
RTVSPropertyOp17
 70
     1
102
RTVSPropertyOp18
 70
     1
102
RTVSPropertyOp19
 70
     1
102
RTVSPropertyOp20
 70
     1
102
RTVSPropertyOp21
 70
     1
102
RTVSPropertyOp22
 70
     1
102
RTVSPropertyOp23
 70
     1
102
RTVSPropertyOp24
 70
     1
102
RTVSPropertyOp25
 70
     1
102
RTVSPropertyOp26
 70
     1
102
RTVSPropertyOp27
 70
     1
102
RTVSPropertyOp28
 70
     1
102
RTVSPropertyOp29
 70
     1
102
RTVSPropertyOp30
 70
     1
102
RTVSPropertyOp31
 70
     1
102
RTVSPropertyOp32
 70
     1
102
RTVSPropertyOp33
 70
     1
102
RTVSPropertyOp34
 70
     1
102
RTVSPropertyOp35
 70
     1
102
RTVSPropertyOp36
 70
     1
102
RTVSPropertyOp37
 70
     1
102
RTVSPropertyOp38
 70
     1
102
RTVSPropertyOp39
 70
     1
102
RTVSPropertyOp40
 70
     1
102
RTVSPropertyOp41
 70
     1
102
RTVSPropertyOp42
 70
     1
102
RTVSPropertyOp43
 70
     1
102
RTVSPropertyOp44
 70
     1
102
RTVSPropertyOp45
 70
     1
102
RTVSPropertyOp46
 70
     1
102
RTVSPropertyOp47
 70
     1
102
RTVSPropertyOp48
 70
     1
102
RTVSPropertyOp49
 70
     1
102
RTVSPropertyOp50
 70
     1
102
RTVSPropertyOp51
 70
     0
102
RTVSPropertyOp52
 70
     0
102
RTVSPropertyOp53
 70
     1
102
RTVSPropertyOp54
 70
     1
102
RTVSPropertyOp55
 70
     1
102
RTVSPropertyOp56
 70
     1
102
RTVSPropertyOp57
 70
     1
102
RTVSPost2010Prop28
280
     0
102
RTVSPost2010PropOp28
 70
     1
102
RTVSPost2010Prop29
280
     1
102
RTVSPost2010PropOp29
 70
     1
102
RTVSPost2010Prop30
280
     1
102
RTVSPost2010PropOp30
 70
     1
102
RTVSPost2010Prop31
280
     0
102
RTVSPost2010PropOp31
 70
     1
102
RTVSPost2010Prop32
280
     0
102
RTVSPost2010PropOp32
 70
     1
102
RTVSPost2010Prop33
280
     0
102
RTVSPost2010PropOp33
 70
     1
102
RTVSPost2010Prop34
280
     0
102
RTVSPost2010PropOp34
 70
     1
102
RTVSPost2010Prop35
280
     0
102
RTVSPost2010PropOp35
 70
     1
102
RTVSPost2010Prop36
280
     0
102
RTVSPost2010PropOp36
 70
     1
102
RTVSPost2010Prop37
 90
       50
102
RTVSPost2010PropOp37
 70
     1
102
RTVSPost2010Prop38
140
0.0
102
RTVSPost2010PropOp38
 70
     1
102
RTVSPost2010Prop39
140
1.0
102
RTVSPost2010PropOp39
 70
     1
102
RTVSPost2010Prop40
 90
        0
102
RTVSPost2010PropOp40
 70
     1
102
RTVSPost2010Prop41ColorIndex
 90
       18
102
RTVSPost2010Prop41ColorRGB
 90
        0
102
RTVSPost2010PropOp41
 70
     1
102
RTVSPost2010Prop42
 90
       50
102
RTVSPost2010PropOp42
 70
     1
102
RTVSPost2010Prop43
 90
        3
102
RTVSPost2010PropOp43
 70
     1
102
RTVSPost2010Prop44ColorIndex
 90
        5
102
RTVSPost2010Prop44ColorRGB
 90
      255
102
RTVSPost2010PropOp44
 70
     1
102
RTVSPost2010Prop45
280
     0
102
RTVSPost2010PropOp45
 70
     1
102
RTVSPost2010Prop46
 90
       50
102
RTVSPost2010PropOp46
 70
     1
102
RTVSPost2010Prop47
 90
       50
102
RTVSPost2010PropOp47
 70
     1
102
RTVSPost2010Prop48
 90
       50
102
RTVSPost2010PropOp48
 70
     1
102
RTVSPost2010Prop49
280
     0
102
RTVSPost2010PropOp49
 70
     1
102
RTVSPost2010Prop50
 90
       50
102
RTVSPost2010PropOp50
 70
     1
102
RTVSPost2010Prop51ColorIndex
 90
      256
102
RTVSPost2010Prop51ColorRGB
 90
-16777216
102
RTVSPost2010PropOp51
 70
     0
102
RTVSPost2010Prop52
140
1.0
102
RTVSPost2010PropOp52
 70
     0
102
RTVSPost2010Prop53
 90
        2
102
RTVSPost2010PropOp53
 70
     1
102
RTVSPost2010Prop54
  1
strokes_ogs.tif
102
RTVSPost2010PropOp54
 70
     1
102
RTVSPost2010Prop55
280
     0
102
RTVSPost2010PropOp55
 70
     1
102
RTVSPost2010Prop56
140
1.0
102
RTVSPost2010PropOp56
 70
     1
102
RTVSPost2010Prop57
140
1.0
102
RTVSPost2010PropOp57
 70
     1
  0
XRECORD
  5
21C
102
{ACAD_REACTORS
330
21B
102
}
330
21B
100
AcDbXrecord
280
     1
102
RTVSPropertyOp0
 70
     0
102
RTVSPropertyOp1
 70
     0
102
RTVSPropertyOp2
 70
     0
102
RTVSPropertyOp3
 70
     0
102
RTVSPropertyOp4
 70
     0
102
RTVSPropertyOp5
 70
     0
102
RTVSPropertyOp6
 70
     0
102
RTVSPropertyOp7
 70
     0
102
RTVSPropertyOp8
 70
     0
102
RTVSPropertyOp9
 70
     0
102
RTVSPropertyOp10
 70
     0
102
RTVSPropertyOp11
 70
     0
102
RTVSPropertyOp12
 70
     0
102
RTVSPropertyOp13
 70
     0
102
RTVSPropertyOp14
 70
     2
102
RTVSPropertyOp15
 70
     0
102
RTVSPropertyOp16
 70
     0
102
RTVSPropertyOp17
 70
     0
102
RTVSPropertyOp18
 70
     0
102
RTVSPropertyOp19
 70
     0
102
RTVSPropertyOp20
 70
     0
102
RTVSPropertyOp21
 70
     0
102
RTVSPropertyOp22
 70
     0
102
RTVSPropertyOp23
 70
     0
102
RTVSPropertyOp24
 70
     0
102
RTVSPropertyOp25
 70
     0
102
RTVSPropertyOp26
 70
     0
102
RTVSPropertyOp27
 70
     0
102
RTVSPropertyOp28
 70
     0
102
RTVSPropertyOp29
 70
     0
102
RTVSPropertyOp30
 70
     0
102
RTVSPropertyOp31
 70
     0
102
RTVSPropertyOp32
 70
     0
102
RTVSPropertyOp33
 70
     0
102
RTVSPropertyOp34
 70
     0
102
RTVSPropertyOp35
 70
     0
102
RTVSPropertyOp36
 70
     0
102
RTVSPropertyOp37
 70
     0
102
RTVSPropertyOp38
 70
     0
102
RTVSPropertyOp39
 70
     0
102
RTVSPropertyOp40
 70
     0
102
RTVSPropertyOp41
 70
     0
102
RTVSPropertyOp42
 70
     0
102
RTVSPropertyOp43
 70
     0
102
RTVSPropertyOp44
 70
     0
102
RTVSPropertyOp45
 70
     0
102
RTVSPropertyOp46
 70
     0
102
RTVSPropertyOp47
 70
     0
102
RTVSPropertyOp48
 70
     0
102
RTVSPropertyOp49
 70
     0
102
RTVSPropertyOp50
 70
     0
102
RTVSPropertyOp51
 70
     0
102
RTVSPropertyOp52
 70
     0
102
RTVSPropertyOp53
 70
     0
102
RTVSPropertyOp54
 70
     0
102
RTVSPropertyOp55
 70
     0
102
RTVSPropertyOp56
 70
     0
102
RTVSPropertyOp57
 70
     0
102
RTVSPost2010Prop28
280
     0
102
RTVSPost2010PropOp28
 70
     0
102
RTVSPost2010Prop29
280
     1
102
RTVSPost2010PropOp29
 70
     0
102
RTVSPost2010Prop30
280
     1
102
RTVSPost2010PropOp30
 70
     0
102
RTVSPost2010Prop31
280
     0
102
RTVSPost2010PropOp31
 70
     0
102
RTVSPost2010Prop32
280
     0
102
RTVSPost2010PropOp32
 70
     0
102
RTVSPost2010Prop33
280
     0
102
RTVSPost2010PropOp33
 70
     0
102
RTVSPost2010Prop34
280
     0
102
RTVSPost2010PropOp34
 70
     0
102
RTVSPost2010Prop35
280
     0
102
RTVSPost2010PropOp35
 70
     0
102
RTVSPost2010Prop36
280
     0
102
RTVSPost2010PropOp36
 70
     0
102
RTVSPost2010Prop37
 90
       50
102
RTVSPost2010PropOp37
 70
     0
102
RTVSPost2010Prop38
140
0.0
102
RTVSPost2010PropOp38
 70
     0
102
RTVSPost2010Prop39
140
1.0
102
RTVSPost2010PropOp39
 70
     0
102
RTVSPost2010Prop40
 90
        0
102
RTVSPost2010PropOp40
 70
     0
102
RTVSPost2010Prop41ColorIndex
 90
       18
102
RTVSPost2010Prop41ColorRGB
 90
        0
102
RTVSPost2010PropOp41
 70
     0
102
RTVSPost2010Prop42
 90
       50
102
RTVSPost2010PropOp42
 70
     0
102
RTVSPost2010Prop43
 90
        3
102
RTVSPost2010PropOp43
 70
     0
102
RTVSPost2010Prop44ColorIndex
 90
        5
102
RTVSPost2010Prop44ColorRGB
 90
      255
102
RTVSPost2010PropOp44
 70
     0
102
RTVSPost2010Prop45
280
     0
102
RTVSPost2010PropOp45
 70
     0
102
RTVSPost2010Prop46
 90
       50
102
RTVSPost2010PropOp46
 70
     0
102
RTVSPost2010Prop47
 90
       50
102
RTVSPost2010PropOp47
 70
     0
102
RTVSPost2010Prop48
 90
       50
102
RTVSPost2010PropOp48
 70
     0
102
RTVSPost2010Prop49
280
     0
102
RTVSPost2010PropOp49
 70
     0
102
RTVSPost2010Prop50
 90
       50
102
RTVSPost2010PropOp50
 70
     0
102
RTVSPost2010Prop51ColorIndex
 90
      256
102
RTVSPost2010Prop51ColorRGB
 90
-16777216
102
RTVSPost2010PropOp51
 70
     0
102
RTVSPost2010Prop52
140
1.0
102
RTVSPost2010PropOp52
 70
     0
102
RTVSPost2010Prop53
 90
        2
102
RTVSPost2010PropOp53
 70
     0
102
RTVSPost2010Prop54
  1
strokes_ogs.tif
102
RTVSPost2010PropOp54
 70
     0
102
RTVSPost2010Prop55
280
     0
102
RTVSPost2010PropOp55
 70
     0
102
RTVSPost2010Prop56
140
1.0
102
RTVSPost2010PropOp56
 70
     0
102
RTVSPost2010Prop57
140
1.0
102
RTVSPost2010PropOp57
 70
     0
  0
XRECORD
  5
214
102
{ACAD_REACTORS
330
213
102
}
330
213
100
AcDbXrecord
280
     1
102
RTVSPropertyOp0
 70
     1
102
RTVSPropertyOp1
 70
     1
102
RTVSPropertyOp2
 70
     1
102
RTVSPropertyOp3
 70
     1
102
RTVSPropertyOp4
 70
     1
102
RTVSPropertyOp5
 70
     1
102
RTVSPropertyOp6
 70
     1
102
RTVSPropertyOp7
 70
     1
102
RTVSPropertyOp8
 70
     1
102
RTVSPropertyOp9
 70
     1
102
RTVSPropertyOp10
 70
     1
102
RTVSPropertyOp11
 70
     1
102
RTVSPropertyOp12
 70
     1
102
RTVSPropertyOp13
 70
     1
102
RTVSPropertyOp14
 70
     1
102
RTVSPropertyOp15
 70
     1
102
RTVSPropertyOp16
 70
     1
102
RTVSPropertyOp17
 70
     1
102
RTVSPropertyOp18
 70
     1
102
RTVSPropertyOp19
 70
     1
102
RTVSPropertyOp20
 70
     1
102
RTVSPropertyOp21
 70
     1
102
RTVSPropertyOp22
 70
     1
102
RTVSPropertyOp23
 70
     1
102
RTVSPropertyOp24
 70
     1
102
RTVSPropertyOp25
 70
     1
102
RTVSPropertyOp26
 70
     1
102
RTVSPropertyOp27
 70
     1
102
RTVSPropertyOp28
 70
     1
102
RTVSPropertyOp29
 70
     1
102
RTVSPropertyOp30
 70
     1
102
RTVSPropertyOp31
 70
     1
102
RTVSPropertyOp32
 70
     1
102
RTVSPropertyOp33
 70
     1
102
RTVSPropertyOp34
 70
     1
102
RTVSPropertyOp35
 70
     1
102
RTVSPropertyOp36
 70
     1
102
RTVSPropertyOp37
 70
     1
102
RTVSPropertyOp38
 70
     1
102
RTVSPropertyOp39
 70
     1
102
RTVSPropertyOp40
 70
     1
102
RTVSPropertyOp41
 70
     1
102
RTVSPropertyOp42
 70
     1
102
RTVSPropertyOp43
 70
     1
102
RTVSPropertyOp44
 70
     1
102
RTVSPropertyOp45
 70
     1
102
RTVSPropertyOp46
 70
     1
102
RTVSPropertyOp47
 70
     1
102
RTVSPropertyOp48
 70
     1
102
RTVSPropertyOp49
 70
     1
102
RTVSPropertyOp50
 70
     1
102
RTVSPropertyOp51
 70
     0
102
RTVSPropertyOp52
 70
     0
102
RTVSPropertyOp53
 70
     1
102
RTVSPropertyOp54
 70
     1
102
RTVSPropertyOp55
 70
     1
102
RTVSPropertyOp56
 70
     1
102
RTVSPropertyOp57
 70
     1
102
RTVSPost2010Prop28
280
     0
102
RTVSPost2010PropOp28
 70
     1
102
RTVSPost2010Prop29
280
     1
102
RTVSPost2010PropOp29
 70
     1
102
RTVSPost2010Prop30
280
     1
102
RTVSPost2010PropOp30
 70
     1
102
RTVSPost2010Prop31
280
     0
102
RTVSPost2010PropOp31
 70
     1
102
RTVSPost2010Prop32
280
     0
102
RTVSPost2010PropOp32
 70
     1
102
RTVSPost2010Prop33
280
     0
102
RTVSPost2010PropOp33
 70
     1
102
RTVSPost2010Prop34
280
     0
102
RTVSPost2010PropOp34
 70
     1
102
RTVSPost2010Prop35
280
     0
102
RTVSPost2010PropOp35
 70
     1
102
RTVSPost2010Prop36
280
     0
102
RTVSPost2010PropOp36
 70
     1
102
RTVSPost2010Prop37
 90
       50
102
RTVSPost2010PropOp37
 70
     1
102
RTVSPost2010Prop38
140
0.0
102
RTVSPost2010PropOp38
 70
     1
102
RTVSPost2010Prop39
140
1.0
102
RTVSPost2010PropOp39
 70
     1
102
RTVSPost2010Prop40
 90
        0
102
RTVSPost2010PropOp40
 70
     1
102
RTVSPost2010Prop41ColorIndex
 90
       18
102
RTVSPost2010Prop41ColorRGB
 90
        0
102
RTVSPost2010PropOp41
 70
     1
102
RTVSPost2010Prop42
 90
       50
102
RTVSPost2010PropOp42
 70
     1
102
RTVSPost2010Prop43
 90
        3
102
RTVSPost2010PropOp43
 70
     1
102
RTVSPost2010Prop44ColorIndex
 90
        5
102
RTVSPost2010Prop44ColorRGB
 90
      255
102
RTVSPost2010PropOp44
 70
     1
102
RTVSPost2010Prop45
280
     0
102
RTVSPost2010PropOp45
 70
     1
102
RTVSPost2010Prop46
 90
       50
102
RTVSPost2010PropOp46
 70
     1
102
RTVSPost2010Prop47
 90
       50
102
RTVSPost2010PropOp47
 70
     1
102
RTVSPost2010Prop48
 90
       50
102
RTVSPost2010PropOp48
 70
     1
102
RTVSPost2010Prop49
280
     0
102
RTVSPost2010PropOp49
 70
     1
102
RTVSPost2010Prop50
 90
       50
102
RTVSPost2010PropOp50
 70
     1
102
RTVSPost2010Prop51ColorIndex
 90
      256
102
RTVSPost2010Prop51ColorRGB
 90
-16777216
102
RTVSPost2010PropOp51
 70
     0
102
RTVSPost2010Prop52
140
1.0
102
RTVSPost2010PropOp52
 70
     0
102
RTVSPost2010Prop53
 90
        2
102
RTVSPost2010PropOp53
 70
     1
102
RTVSPost2010Prop54
  1
strokes_ogs.tif
102
RTVSPost2010PropOp54
 70
     1
102
RTVSPost2010Prop55
280
     0
102
RTVSPost2010PropOp55
 70
     1
102
RTVSPost2010Prop56
140
1.0
102
RTVSPost2010PropOp56
 70
     1
102
RTVSPost2010Prop57
140
1.0
102
RTVSPost2010PropOp57
 70
     1
  0
XRECORD
  5
1F8
102
{ACAD_REACTORS
330
1F7
102
}
330
1F7
100
AcDbXrecord
280
     1
102
RTVSPropertyOp0
 70
     1
102
RTVSPropertyOp1
 70
     1
102
RTVSPropertyOp2
 70
     1
102
RTVSPropertyOp3
 70
     1
102
RTVSPropertyOp4
 70
     1
102
RTVSPropertyOp5
 70
     1
102
RTVSPropertyOp6
 70
     1
102
RTVSPropertyOp7
 70
     1
102
RTVSPropertyOp8
 70
     1
102
RTVSPropertyOp9
 70
     1
102
RTVSPropertyOp10
 70
     1
102
RTVSPropertyOp11
 70
     1
102
RTVSPropertyOp12
 70
     1
102
RTVSPropertyOp13
 70
     1
102
RTVSPropertyOp14
 70
     1
102
RTVSPropertyOp15
 70
     1
102
RTVSPropertyOp16
 70
     1
102
RTVSPropertyOp17
 70
     1
102
RTVSPropertyOp18
 70
     1
102
RTVSPropertyOp19
 70
     1
102
RTVSPropertyOp20
 70
     1
102
RTVSPropertyOp21
 70
     1
102
RTVSPropertyOp22
 70
     1
102
RTVSPropertyOp23
 70
     1
102
RTVSPropertyOp24
 70
     1
102
RTVSPropertyOp25
 70
     1
102
RTVSPropertyOp26
 70
     1
102
RTVSPropertyOp27
 70
     1
102
RTVSPropertyOp28
 70
     1
102
RTVSPropertyOp29
 70
     1
102
RTVSPropertyOp30
 70
     1
102
RTVSPropertyOp31
 70
     1
102
RTVSPropertyOp32
 70
     1
102
RTVSPropertyOp33
 70
     1
102
RTVSPropertyOp34
 70
     1
102
RTVSPropertyOp35
 70
     1
102
RTVSPropertyOp36
 70
     1
102
RTVSPropertyOp37
 70
     1
102
RTVSPropertyOp38
 70
     1
102
RTVSPropertyOp39
 70
     1
102
RTVSPropertyOp40
 70
     1
102
RTVSPropertyOp41
 70
     1
102
RTVSPropertyOp42
 70
     1
102
RTVSPropertyOp43
 70
     1
102
RTVSPropertyOp44
 70
     1
102
RTVSPropertyOp45
 70
     1
102
RTVSPropertyOp46
 70
     1
102
RTVSPropertyOp47
 70
     1
102
RTVSPropertyOp48
 70
     1
102
RTVSPropertyOp49
 70
     1
102
RTVSPropertyOp50
 70
     1
102
RTVSPropertyOp51
 70
     0
102
RTVSPropertyOp52
 70
     0
102
RTVSPropertyOp53
 70
     1
102
RTVSPropertyOp54
 70
     1
102
RTVSPropertyOp55
 70
     1
102
RTVSPropertyOp56
 70
     1
102
RTVSPropertyOp57
 70
     1
102
RTVSPost2010Prop28
280
     0
102
RTVSPost2010PropOp28
 70
     1
102
RTVSPost2010Prop29
280
     1
102
RTVSPost2010PropOp29
 70
     1
102
RTVSPost2010Prop30
280
     1
102
RTVSPost2010PropOp30
 70
     1
102
RTVSPost2010Prop31
280
     0
102
RTVSPost2010PropOp31
 70
     1
102
RTVSPost2010Prop32
280
     0
102
RTVSPost2010PropOp32
 70
     1
102
RTVSPost2010Prop33
280
     0
102
RTVSPost2010PropOp33
 70
     1
102
RTVSPost2010Prop34
280
     0
102
RTVSPost2010PropOp34
 70
     1
102
RTVSPost2010Prop35
280
     0
102
RTVSPost2010PropOp35
 70
     1
102
RTVSPost2010Prop36
280
     0
102
RTVSPost2010PropOp36
 70
     1
102
RTVSPost2010Prop37
 90
       50
102
RTVSPost2010PropOp37
 70
     1
102
RTVSPost2010Prop38
140
0.0
102
RTVSPost2010PropOp38
 70
     1
102
RTVSPost2010Prop39
140
1.0
102
RTVSPost2010PropOp39
 70
     1
102
RTVSPost2010Prop40
 90
        0
102
RTVSPost2010PropOp40
 70
     1
102
RTVSPost2010Prop41ColorIndex
 90
       18
102
RTVSPost2010Prop41ColorRGB
 90
        0
102
RTVSPost2010PropOp41
 70
     1
102
RTVSPost2010Prop42
 90
       50
102
RTVSPost2010PropOp42
 70
     1
102
RTVSPost2010Prop43
 90
        3
102
RTVSPost2010PropOp43
 70
     1
102
RTVSPost2010Prop44ColorIndex
 90
        5
102
RTVSPost2010Prop44ColorRGB
 90
      255
102
RTVSPost2010PropOp44
 70
     1
102
RTVSPost2010Prop45
280
     0
102
RTVSPost2010PropOp45
 70
     1
102
RTVSPost2010Prop46
 90
       50
102
RTVSPost2010PropOp46
 70
     1
102
RTVSPost2010Prop47
 90
       50
102
RTVSPost2010PropOp47
 70
     1
102
RTVSPost2010Prop48
 90
       50
102
RTVSPost2010PropOp48
 70
     1
102
RTVSPost2010Prop49
280
     0
102
RTVSPost2010PropOp49
 70
     1
102
RTVSPost2010Prop50
 90
       50
102
RTVSPost2010PropOp50
 70
     1
102
RTVSPost2010Prop51ColorIndex
 90
      256
102
RTVSPost2010Prop51ColorRGB
 90
-16777216
102
RTVSPost2010PropOp51
 70
     0
102
RTVSPost2010Prop52
140
1.0
102
RTVSPost2010PropOp52
 70
     0
102
RTVSPost2010Prop53
 90
        2
102
RTVSPost2010PropOp53
 70
     1
102
RTVSPost2010Prop54
  1
strokes_ogs.tif
102
RTVSPost2010PropOp54
 70
     1
102
RTVSPost2010Prop55
280
     0
102
RTVSPost2010PropOp55
 70
     1
102
RTVSPost2010Prop56
140
1.0
102
RTVSPost2010PropOp56
 70
     1
102
RTVSPost2010Prop57
140
1.0
102
RTVSPost2010PropOp57
 70
     1
  0
XRECORD
  5
1FA
102
{ACAD_REACTORS
330
1F9
102
}
330
1F9
100
AcDbXrecord
280
     1
102
RTVSPropertyOp0
 70
     1
102
RTVSPropertyOp1
 70
     1
102
RTVSPropertyOp2
 70
     1
102
RTVSPropertyOp3
 70
     1
102
RTVSPropertyOp4
 70
     1
102
RTVSPropertyOp5
 70
     1
102
RTVSPropertyOp6
 70
     1
102
RTVSPropertyOp7
 70
     1
102
RTVSPropertyOp8
 70
     1
102
RTVSPropertyOp9
 70
     1
102
RTVSPropertyOp10
 70
     1
102
RTVSPropertyOp11
 70
     1
102
RTVSPropertyOp12
 70
     1
102
RTVSPropertyOp13
 70
     1
102
RTVSPropertyOp14
 70
     1
102
RTVSPropertyOp15
 70
     1
102
RTVSPropertyOp16
 70
     1
102
RTVSPropertyOp17
 70
     1
102
RTVSPropertyOp18
 70
     1
102
RTVSPropertyOp19
 70
     1
102
RTVSPropertyOp20
 70
     1
102
RTVSPropertyOp21
 70
     1
102
RTVSPropertyOp22
 70
     1
102
RTVSPropertyOp23
 70
     1
102
RTVSPropertyOp24
 70
     1
102
RTVSPropertyOp25
 70
     1
102
RTVSPropertyOp26
 70
     1
102
RTVSPropertyOp27
 70
     1
102
RTVSPropertyOp28
 70
     1
102
RTVSPropertyOp29
 70
     1
102
RTVSPropertyOp30
 70
     1
102
RTVSPropertyOp31
 70
     1
102
RTVSPropertyOp32
 70
     1
102
RTVSPropertyOp33
 70
     1
102
RTVSPropertyOp34
 70
     1
102
RTVSPropertyOp35
 70
     1
102
RTVSPropertyOp36
 70
     1
102
RTVSPropertyOp37
 70
     1
102
RTVSPropertyOp38
 70
     1
102
RTVSPropertyOp39
 70
     1
102
RTVSPropertyOp40
 70
     1
102
RTVSPropertyOp41
 70
     1
102
RTVSPropertyOp42
 70
     1
102
RTVSPropertyOp43
 70
     1
102
RTVSPropertyOp44
 70
     1
102
RTVSPropertyOp45
 70
     1
102
RTVSPropertyOp46
 70
     1
102
RTVSPropertyOp47
 70
     1
102
RTVSPropertyOp48
 70
     1
102
RTVSPropertyOp49
 70
     1
102
RTVSPropertyOp50
 70
     1
102
RTVSPropertyOp51
 70
     0
102
RTVSPropertyOp52
 70
     0
102
RTVSPropertyOp53
 70
     1
102
RTVSPropertyOp54
 70
     1
102
RTVSPropertyOp55
 70
     1
102
RTVSPropertyOp56
 70
     1
102
RTVSPropertyOp57
 70
     1
102
RTVSPost2010Prop28
280
     0
102
RTVSPost2010PropOp28
 70
     1
102
RTVSPost2010Prop29
280
     1
102
RTVSPost2010PropOp29
 70
     1
102
RTVSPost2010Prop30
280
     1
102
RTVSPost2010PropOp30
 70
     1
102
RTVSPost2010Prop31
280
     0
102
RTVSPost2010PropOp31
 70
     1
102
RTVSPost2010Prop32
280
     0
102
RTVSPost2010PropOp32
 70
     1
102
RTVSPost2010Prop33
280
     0
102
RTVSPost2010PropOp33
 70
     1
102
RTVSPost2010Prop34
280
     0
102
RTVSPost2010PropOp34
 70
     1
102
RTVSPost2010Prop35
280
     0
102
RTVSPost2010PropOp35
 70
     1
102
RTVSPost2010Prop36
280
     0
102
RTVSPost2010PropOp36
 70
     1
102
RTVSPost2010Prop37
 90
       50
102
RTVSPost2010PropOp37
 70
     1
102
RTVSPost2010Prop38
140
0.0
102
RTVSPost2010PropOp38
 70
     1
102
RTVSPost2010Prop39
140
1.0
102
RTVSPost2010PropOp39
 70
     1
102
RTVSPost2010Prop40
 90
        0
102
RTVSPost2010PropOp40
 70
     1
102
RTVSPost2010Prop41ColorIndex
 90
       18
102
RTVSPost2010Prop41ColorRGB
 90
        0
102
RTVSPost2010PropOp41
 70
     1
102
RTVSPost2010Prop42
 90
       50
102
RTVSPost2010PropOp42
 70
     1
102
RTVSPost2010Prop43
 90
        3
102
RTVSPost2010PropOp43
 70
     1
102
RTVSPost2010Prop44ColorIndex
 90
        5
102
RTVSPost2010Prop44ColorRGB
 90
      255
102
RTVSPost2010PropOp44
 70
     1
102
RTVSPost2010Prop45
280
     0
102
RTVSPost2010PropOp45
 70
     1
102
RTVSPost2010Prop46
 90
       50
102
RTVSPost2010PropOp46
 70
     1
102
RTVSPost2010Prop47
 90
       50
102
RTVSPost2010PropOp47
 70
     1
102
RTVSPost2010Prop48
 90
       50
102
RTVSPost2010PropOp48
 70
     1
102
RTVSPost2010Prop49
280
     0
102
RTVSPost2010PropOp49
 70
     1
102
RTVSPost2010Prop50
 90
       50
102
RTVSPost2010PropOp50
 70
     1
102
RTVSPost2010Prop51ColorIndex
 90
      256
102
RTVSPost2010Prop51ColorRGB
 90
-16777216
102
RTVSPost2010PropOp51
 70
     0
102
RTVSPost2010Prop52
140
1.0
102
RTVSPost2010PropOp52
 70
     0
102
RTVSPost2010Prop53
 90
        2
102
RTVSPost2010PropOp53
 70
     1
102
RTVSPost2010Prop54
  1
strokes_ogs.tif
102
RTVSPost2010PropOp54
 70
     1
102
RTVSPost2010Prop55
280
     0
102
RTVSPost2010PropOp55
 70
     1
102
RTVSPost2010Prop56
140
1.0
102
RTVSPost2010PropOp56
 70
     1
102
RTVSPost2010Prop57
140
1.0
102
RTVSPost2010PropOp57
 70
     1
  0
XRECORD
  5
1FC
102
{ACAD_REACTORS
330
1FB
102
}
330
1FB
100
AcDbXrecord
280
     1
102
RTVSPropertyOp0
 70
     1
102
RTVSPropertyOp1
 70
     1
102
RTVSPropertyOp2
 70
     1
102
RTVSPropertyOp3
 70
     1
102
RTVSPropertyOp4
 70
     1
102
RTVSPropertyOp5
 70
     1
102
RTVSPropertyOp6
 70
     1
102
RTVSPropertyOp7
 70
     1
102
RTVSPropertyOp8
 70
     1
102
RTVSPropertyOp9
 70
     1
102
RTVSPropertyOp10
 70
     1
102
RTVSPropertyOp11
 70
     1
102
RTVSPropertyOp12
 70
     1
102
RTVSPropertyOp13
 70
     1
102
RTVSPropertyOp14
 70
     1
102
RTVSPropertyOp15
 70
     1
102
RTVSPropertyOp16
 70
     1
102
RTVSPropertyOp17
 70
     1
102
RTVSPropertyOp18
 70
     1
102
RTVSPropertyOp19
 70
     1
102
RTVSPropertyOp20
 70
     1
102
RTVSPropertyOp21
 70
     1
102
RTVSPropertyOp22
 70
     1
102
RTVSPropertyOp23
 70
     1
102
RTVSPropertyOp24
 70
     1
102
RTVSPropertyOp25
 70
     1
102
RTVSPropertyOp26
 70
     1
102
RTVSPropertyOp27
 70
     1
102
RTVSPropertyOp28
 70
     1
102
RTVSPropertyOp29
 70
     1
102
RTVSPropertyOp30
 70
     1
102
RTVSPropertyOp31
 70
     1
102
RTVSPropertyOp32
 70
     1
102
RTVSPropertyOp33
 70
     1
102
RTVSPropertyOp34
 70
     1
102
RTVSPropertyOp35
 70
     1
102
RTVSPropertyOp36
 70
     1
102
RTVSPropertyOp37
 70
     1
102
RTVSPropertyOp38
 70
     1
102
RTVSPropertyOp39
 70
     1
102
RTVSPropertyOp40
 70
     1
102
RTVSPropertyOp41
 70
     1
102
RTVSPropertyOp42
 70
     1
102
RTVSPropertyOp43
 70
     1
102
RTVSPropertyOp44
 70
     1
102
RTVSPropertyOp45
 70
     1
102
RTVSPropertyOp46
 70
     1
102
RTVSPropertyOp47
 70
     1
102
RTVSPropertyOp48
 70
     1
102
RTVSPropertyOp49
 70
     1
102
RTVSPropertyOp50
 70
     1
102
RTVSPropertyOp51
 70
     0
102
RTVSPropertyOp52
 70
     0
102
RTVSPropertyOp53
 70
     1
102
RTVSPropertyOp54
 70
     1
102
RTVSPropertyOp55
 70
     1
102
RTVSPropertyOp56
 70
     1
102
RTVSPropertyOp57
 70
     1
102
RTVSPost2010Prop28
280
     0
102
RTVSPost2010PropOp28
 70
     1
102
RTVSPost2010Prop29
280
     1
102
RTVSPost2010PropOp29
 70
     1
102
RTVSPost2010Prop30
280
     1
102
RTVSPost2010PropOp30
 70
     1
102
RTVSPost2010Prop31
280
     0
102
RTVSPost2010PropOp31
 70
     1
102
RTVSPost2010Prop32
280
     0
102
RTVSPost2010PropOp32
 70
     1
102
RTVSPost2010Prop33
280
     0
102
RTVSPost2010PropOp33
 70
     1
102
RTVSPost2010Prop34
280
     0
102
RTVSPost2010PropOp34
 70
     1
102
RTVSPost2010Prop35
280
     0
102
RTVSPost2010PropOp35
 70
     1
102
RTVSPost2010Prop36
280
     0
102
RTVSPost2010PropOp36
 70
     1
102
RTVSPost2010Prop37
 90
       50
102
RTVSPost2010PropOp37
 70
     1
102
RTVSPost2010Prop38
140
0.0
102
RTVSPost2010PropOp38
 70
     1
102
RTVSPost2010Prop39
140
1.0
102
RTVSPost2010PropOp39
 70
     1
102
RTVSPost2010Prop40
 90
        0
102
RTVSPost2010PropOp40
 70
     1
102
RTVSPost2010Prop41ColorIndex
 90
       18
102
RTVSPost2010Prop41ColorRGB
 90
        0
102
RTVSPost2010PropOp41
 70
     1
102
RTVSPost2010Prop42
 90
       50
102
RTVSPost2010PropOp42
 70
     1
102
RTVSPost2010Prop43
 90
        3
102
RTVSPost2010PropOp43
 70
     1
102
RTVSPost2010Prop44ColorIndex
 90
        5
102
RTVSPost2010Prop44ColorRGB
 90
      255
102
RTVSPost2010PropOp44
 70
     1
102
RTVSPost2010Prop45
280
     0
102
RTVSPost2010PropOp45
 70
     1
102
RTVSPost2010Prop46
 90
       50
102
RTVSPost2010PropOp46
 70
     1
102
RTVSPost2010Prop47
 90
       50
102
RTVSPost2010PropOp47
 70
     1
102
RTVSPost2010Prop48
 90
       50
102
RTVSPost2010PropOp48
 70
     1
102
RTVSPost2010Prop49
280
     0
102
RTVSPost2010PropOp49
 70
     1
102
RTVSPost2010Prop50
 90
       50
102
RTVSPost2010PropOp50
 70
     1
102
RTVSPost2010Prop51ColorIndex
 90
      256
102
RTVSPost2010Prop51ColorRGB
 90
-16777216
102
RTVSPost2010PropOp51
 70
     0
102
RTVSPost2010Prop52
140
1.0
102
RTVSPost2010PropOp52
 70
     0
102
RTVSPost2010Prop53
 90
        2
102
RTVSPost2010PropOp53
 70
     1
102
RTVSPost2010Prop54
  1
strokes_ogs.tif
102
RTVSPost2010PropOp54
 70
     1
102
RTVSPost2010Prop55
280
     0
102
RTVSPost2010PropOp55
 70
     1
102
RTVSPost2010Prop56
140
1.0
102
RTVSPost2010PropOp56
 70
     1
102
RTVSPost2010Prop57
140
1.0
102
RTVSPost2010PropOp57
 70
     1
  0
XRECORD
  5
1FE
102
{ACAD_REACTORS
330
1FD
102
}
330
1FD
100
AcDbXrecord
280
     1
102
RTVSPropertyOp0
 70
     1
102
RTVSPropertyOp1
 70
     1
102
RTVSPropertyOp2
 70
     1
102
RTVSPropertyOp3
 70
     1
102
RTVSPropertyOp4
 70
     1
102
RTVSPropertyOp5
 70
     1
102
RTVSPropertyOp6
 70
     1
102
RTVSPropertyOp7
 70
     1
102
RTVSPropertyOp8
 70
     1
102
RTVSPropertyOp9
 70
     1
102
RTVSPropertyOp10
 70
     1
102
RTVSPropertyOp11
 70
     1
102
RTVSPropertyOp12
 70
     1
102
RTVSPropertyOp13
 70
     1
102
RTVSPropertyOp14
 70
     1
102
RTVSPropertyOp15
 70
     1
102
RTVSPropertyOp16
 70
     1
102
RTVSPropertyOp17
 70
     1
102
RTVSPropertyOp18
 70
     1
102
RTVSPropertyOp19
 70
     1
102
RTVSPropertyOp20
 70
     1
102
RTVSPropertyOp21
 70
     1
102
RTVSPropertyOp22
 70
     1
102
RTVSPropertyOp23
 70
     1
102
RTVSPropertyOp24
 70
     1
102
RTVSPropertyOp25
 70
     1
102
RTVSPropertyOp26
 70
     1
102
RTVSPropertyOp27
 70
     1
102
RTVSPropertyOp28
 70
     1
102
RTVSPropertyOp29
 70
     1
102
RTVSPropertyOp30
 70
     1
102
RTVSPropertyOp31
 70
     1
102
RTVSPropertyOp32
 70
     1
102
RTVSPropertyOp33
 70
     1
102
RTVSPropertyOp34
 70
     1
102
RTVSPropertyOp35
 70
     1
102
RTVSPropertyOp36
 70
     1
102
RTVSPropertyOp37
 70
     1
102
RTVSPropertyOp38
 70
     1
102
RTVSPropertyOp39
 70
     1
102
RTVSPropertyOp40
 70
     1
102
RTVSPropertyOp41
 70
     1
102
RTVSPropertyOp42
 70
     1
102
RTVSPropertyOp43
 70
     1
102
RTVSPropertyOp44
 70
     1
102
RTVSPropertyOp45
 70
     1
102
RTVSPropertyOp46
 70
     1
102
RTVSPropertyOp47
 70
     1
102
RTVSPropertyOp48
 70
     1
102
RTVSPropertyOp49
 70
     1
102
RTVSPropertyOp50
 70
     1
102
RTVSPropertyOp51
 70
     0
102
RTVSPropertyOp52
 70
     0
102
RTVSPropertyOp53
 70
     1
102
RTVSPropertyOp54
 70
     1
102
RTVSPropertyOp55
 70
     1
102
RTVSPropertyOp56
 70
     1
102
RTVSPropertyOp57
 70
     1
102
RTVSPost2010Prop28
280
     0
102
RTVSPost2010PropOp28
 70
     1
102
RTVSPost2010Prop29
280
     1
102
RTVSPost2010PropOp29
 70
     1
102
RTVSPost2010Prop30
280
     1
102
RTVSPost2010PropOp30
 70
     1
102
RTVSPost2010Prop31
280
     0
102
RTVSPost2010PropOp31
 70
     1
102
RTVSPost2010Prop32
280
     0
102
RTVSPost2010PropOp32
 70
     1
102
RTVSPost2010Prop33
280
     0
102
RTVSPost2010PropOp33
 70
     1
102
RTVSPost2010Prop34
280
     0
102
RTVSPost2010PropOp34
 70
     1
102
RTVSPost2010Prop35
280
     0
102
RTVSPost2010PropOp35
 70
     1
102
RTVSPost2010Prop36
280
     0
102
RTVSPost2010PropOp36
 70
     1
102
RTVSPost2010Prop37
 90
       50
102
RTVSPost2010PropOp37
 70
     1
102
RTVSPost2010Prop38
140
0.0
102
RTVSPost2010PropOp38
 70
     1
102
RTVSPost2010Prop39
140
1.0
102
RTVSPost2010PropOp39
 70
     1
102
RTVSPost2010Prop40
 90
        0
102
RTVSPost2010PropOp40
 70
     1
102
RTVSPost2010Prop41ColorIndex
 90
       18
102
RTVSPost2010Prop41ColorRGB
 90
        0
102
RTVSPost2010PropOp41
 70
     1
102
RTVSPost2010Prop42
 90
       50
102
RTVSPost2010PropOp42
 70
     1
102
RTVSPost2010Prop43
 90
        3
102
RTVSPost2010PropOp43
 70
     1
102
RTVSPost2010Prop44ColorIndex
 90
        5
102
RTVSPost2010Prop44ColorRGB
 90
      255
102
RTVSPost2010PropOp44
 70
     1
102
RTVSPost2010Prop45
280
     0
102
RTVSPost2010PropOp45
 70
     1
102
RTVSPost2010Prop46
 90
       50
102
RTVSPost2010PropOp46
 70
     1
102
RTVSPost2010Prop47
 90
       50
102
RTVSPost2010PropOp47
 70
     1
102
RTVSPost2010Prop48
 90
       50
102
RTVSPost2010PropOp48
 70
     1
102
RTVSPost2010Prop49
280
     0
102
RTVSPost2010PropOp49
 70
     1
102
RTVSPost2010Prop50
 90
       50
102
RTVSPost2010PropOp50
 70
     1
102
RTVSPost2010Prop51ColorIndex
 90
      256
102
RTVSPost2010Prop51ColorRGB
 90
-16777216
102
RTVSPost2010PropOp51
 70
     0
102
RTVSPost2010Prop52
140
1.0
102
RTVSPost2010PropOp52
 70
     0
102
RTVSPost2010Prop53
 90
        2
102
RTVSPost2010PropOp53
 70
     1
102
RTVSPost2010Prop54
  1
strokes_ogs.tif
102
RTVSPost2010PropOp54
 70
     1
102
RTVSPost2010Prop55
280
     0
102
RTVSPost2010PropOp55
 70
     1
102
RTVSPost2010Prop56
140
1.0
102
RTVSPost2010PropOp56
 70
     1
102
RTVSPost2010Prop57
140
1.0
102
RTVSPost2010PropOp57
 70
     1
  0
XRECORD
  5
204
102
{ACAD_REACTORS
330
203
102
}
330
203
100
AcDbXrecord
280
     1
102
RTVSPropertyOp0
 70
     1
102
RTVSPropertyOp1
 70
     1
102
RTVSPropertyOp2
 70
     1
102
RTVSPropertyOp3
 70
     1
102
RTVSPropertyOp4
 70
     1
102
RTVSPropertyOp5
 70
     1
102
RTVSPropertyOp6
 70
     1
102
RTVSPropertyOp7
 70
     1
102
RTVSPropertyOp8
 70
     1
102
RTVSPropertyOp9
 70
     1
102
RTVSPropertyOp10
 70
     1
102
RTVSPropertyOp11
 70
     1
102
RTVSPropertyOp12
 70
     1
102
RTVSPropertyOp13
 70
     1
102
RTVSPropertyOp14
 70
     1
102
RTVSPropertyOp15
 70
     1
102
RTVSPropertyOp16
 70
     1
102
RTVSPropertyOp17
 70
     1
102
RTVSPropertyOp18
 70
     1
102
RTVSPropertyOp19
 70
     1
102
RTVSPropertyOp20
 70
     1
102
RTVSPropertyOp21
 70
     1
102
RTVSPropertyOp22
 70
     1
102
RTVSPropertyOp23
 70
     1
102
RTVSPropertyOp24
 70
     1
102
RTVSPropertyOp25
 70
     1
102
RTVSPropertyOp26
 70
     1
102
RTVSPropertyOp27
 70
     1
102
RTVSPropertyOp28
 70
     1
102
RTVSPropertyOp29
 70
     1
102
RTVSPropertyOp30
 70
     1
102
RTVSPropertyOp31
 70
     1
102
RTVSPropertyOp32
 70
     1
102
RTVSPropertyOp33
 70
     1
102
RTVSPropertyOp34
 70
     1
102
RTVSPropertyOp35
 70
     1
102
RTVSPropertyOp36
 70
     1
102
RTVSPropertyOp37
 70
     1
102
RTVSPropertyOp38
 70
     1
102
RTVSPropertyOp39
 70
     1
102
RTVSPropertyOp40
 70
     1
102
RTVSPropertyOp41
 70
     1
102
RTVSPropertyOp42
 70
     1
102
RTVSPropertyOp43
 70
     1
102
RTVSPropertyOp44
 70
     1
102
RTVSPropertyOp45
 70
     1
102
RTVSPropertyOp46
 70
     1
102
RTVSPropertyOp47
 70
     1
102
RTVSPropertyOp48
 70
     1
102
RTVSPropertyOp49
 70
     1
102
RTVSPropertyOp50
 70
     1
102
RTVSPropertyOp51
 70
     0
102
RTVSPropertyOp52
 70
     0
102
RTVSPropertyOp53
 70
     1
102
RTVSPropertyOp54
 70
     1
102
RTVSPropertyOp55
 70
     1
102
RTVSPropertyOp56
 70
     1
102
RTVSPropertyOp57
 70
     1
102
RTVSPost2010Prop28
280
     0
102
RTVSPost2010PropOp28
 70
     1
102
RTVSPost2010Prop29
280
     1
102
RTVSPost2010PropOp29
 70
     1
102
RTVSPost2010Prop30
280
     1
102
RTVSPost2010PropOp30
 70
     1
102
RTVSPost2010Prop31
280
     0
102
RTVSPost2010PropOp31
 70
     1
102
RTVSPost2010Prop32
280
     0
102
RTVSPost2010PropOp32
 70
     1
102
RTVSPost2010Prop33
280
     0
102
RTVSPost2010PropOp33
 70
     1
102
RTVSPost2010Prop34
280
     0
102
RTVSPost2010PropOp34
 70
     1
102
RTVSPost2010Prop35
280
     0
102
RTVSPost2010PropOp35
 70
     1
102
RTVSPost2010Prop36
280
     0
102
RTVSPost2010PropOp36
 70
     1
102
RTVSPost2010Prop37
 90
       50
102
RTVSPost2010PropOp37
 70
     1
102
RTVSPost2010Prop38
140
0.0
102
RTVSPost2010PropOp38
 70
     1
102
RTVSPost2010Prop39
140
1.0
102
RTVSPost2010PropOp39
 70
     1
102
RTVSPost2010Prop40
 90
        0
102
RTVSPost2010PropOp40
 70
     1
102
RTVSPost2010Prop41ColorIndex
 90
       18
102
RTVSPost2010Prop41ColorRGB
 90
        0
102
RTVSPost2010PropOp41
 70
     1
102
RTVSPost2010Prop42
 90
       50
102
RTVSPost2010PropOp42
 70
     1
102
RTVSPost2010Prop43
 90
        3
102
RTVSPost2010PropOp43
 70
     1
102
RTVSPost2010Prop44ColorIndex
 90
        5
102
RTVSPost2010Prop44ColorRGB
 90
      255
102
RTVSPost2010PropOp44
 70
     1
102
RTVSPost2010Prop45
280
     0
102
RTVSPost2010PropOp45
 70
     1
102
RTVSPost2010Prop46
 90
       50
102
RTVSPost2010PropOp46
 70
     1
102
RTVSPost2010Prop47
 90
       50
102
RTVSPost2010PropOp47
 70
     1
102
RTVSPost2010Prop48
 90
       50
102
RTVSPost2010PropOp48
 70
     1
102
RTVSPost2010Prop49
280
     0
102
RTVSPost2010PropOp49
 70
     1
102
RTVSPost2010Prop50
 90
       50
102
RTVSPost2010PropOp50
 70
     1
102
RTVSPost2010Prop51ColorIndex
 90
      256
102
RTVSPost2010Prop51ColorRGB
 90
-16777216
102
RTVSPost2010PropOp51
 70
     0
102
RTVSPost2010Prop52
140
1.0
102
RTVSPost2010PropOp52
 70
     0
102
RTVSPost2010Prop53
 90
        2
102
RTVSPost2010PropOp53
 70
     1
102
RTVSPost2010Prop54
  1
strokes_ogs.tif
102
RTVSPost2010PropOp54
 70
     1
102
RTVSPost2010Prop55
280
     0
102
RTVSPost2010PropOp55
 70
     1
102
RTVSPost2010Prop56
140
1.0
102
RTVSPost2010PropOp56
 70
     1
102
RTVSPost2010Prop57
140
1.0
102
RTVSPost2010PropOp57
 70
     1
  0
XRECORD
  5
218
102
{ACAD_REACTORS
330
217
102
}
330
217
100
AcDbXrecord
280
     1
102
RTVSPropertyOp0
 70
     0
102
RTVSPropertyOp1
 70
     0
102
RTVSPropertyOp2
 70
     0
102
RTVSPropertyOp3
 70
     0
102
RTVSPropertyOp4
 70
     0
102
RTVSPropertyOp5
 70
     0
102
RTVSPropertyOp6
 70
     0
102
RTVSPropertyOp7
 70
     0
102
RTVSPropertyOp8
 70
     0
102
RTVSPropertyOp9
 70
     0
102
RTVSPropertyOp10
 70
     0
102
RTVSPropertyOp11
 70
     0
102
RTVSPropertyOp12
 70
     0
102
RTVSPropertyOp13
 70
     0
102
RTVSPropertyOp14
 70
     2
102
RTVSPropertyOp15
 70
     0
102
RTVSPropertyOp16
 70
     0
102
RTVSPropertyOp17
 70
     0
102
RTVSPropertyOp18
 70
     0
102
RTVSPropertyOp19
 70
     0
102
RTVSPropertyOp20
 70
     0
102
RTVSPropertyOp21
 70
     0
102
RTVSPropertyOp22
 70
     0
102
RTVSPropertyOp23
 70
     0
102
RTVSPropertyOp24
 70
     0
102
RTVSPropertyOp25
 70
     0
102
RTVSPropertyOp26
 70
     0
102
RTVSPropertyOp27
 70
     0
102
RTVSPropertyOp28
 70
     0
102
RTVSPropertyOp29
 70
     0
102
RTVSPropertyOp30
 70
     0
102
RTVSPropertyOp31
 70
     0
102
RTVSPropertyOp32
 70
     0
102
RTVSPropertyOp33
 70
     0
102
RTVSPropertyOp34
 70
     0
102
RTVSPropertyOp35
 70
     0
102
RTVSPropertyOp36
 70
     0
102
RTVSPropertyOp37
 70
     0
102
RTVSPropertyOp38
 70
     0
102
RTVSPropertyOp39
 70
     0
102
RTVSPropertyOp40
 70
     0
102
RTVSPropertyOp41
 70
     0
102
RTVSPropertyOp42
 70
     0
102
RTVSPropertyOp43
 70
     0
102
RTVSPropertyOp44
 70
     0
102
RTVSPropertyOp45
 70
     0
102
RTVSPropertyOp46
 70
     0
102
RTVSPropertyOp47
 70
     0
102
RTVSPropertyOp48
 70
     0
102
RTVSPropertyOp49
 70
     0
102
RTVSPropertyOp50
 70
     0
102
RTVSPropertyOp51
 70
     0
102
RTVSPropertyOp52
 70
     0
102
RTVSPropertyOp53
 70
     0
102
RTVSPropertyOp54
 70
     0
102
RTVSPropertyOp55
 70
     0
102
RTVSPropertyOp56
 70
     0
102
RTVSPropertyOp57
 70
     0
102
RTVSPost2010Prop28
280
     0
102
RTVSPost2010PropOp28
 70
     0
102
RTVSPost2010Prop29
280
     1
102
RTVSPost2010PropOp29
 70
     0
102
RTVSPost2010Prop30
280
     1
102
RTVSPost2010PropOp30
 70
     0
102
RTVSPost2010Prop31
280
     0
102
RTVSPost2010PropOp31
 70
     0
102
RTVSPost2010Prop32
280
     0
102
RTVSPost2010PropOp32
 70
     0
102
RTVSPost2010Prop33
280
     0
102
RTVSPost2010PropOp33
 70
     0
102
RTVSPost2010Prop34
280
     0
102
RTVSPost2010PropOp34
 70
     0
102
RTVSPost2010Prop35
280
     0
102
RTVSPost2010PropOp35
 70
     0
102
RTVSPost2010Prop36
280
     0
102
RTVSPost2010PropOp36
 70
     0
102
RTVSPost2010Prop37
 90
       50
102
RTVSPost2010PropOp37
 70
     0
102
RTVSPost2010Prop38
140
0.0
102
RTVSPost2010PropOp38
 70
     0
102
RTVSPost2010Prop39
140
1.0
102
RTVSPost2010PropOp39
 70
     0
102
RTVSPost2010Prop40
 90
        0
102
RTVSPost2010PropOp40
 70
     0
102
RTVSPost2010Prop41ColorIndex
 90
       18
102
RTVSPost2010Prop41ColorRGB
 90
        0
102
RTVSPost2010PropOp41
 70
     0
102
RTVSPost2010Prop42
 90
       50
102
RTVSPost2010PropOp42
 70
     0
102
RTVSPost2010Prop43
 90
        3
102
RTVSPost2010PropOp43
 70
     0
102
RTVSPost2010Prop44ColorIndex
 90
        5
102
RTVSPost2010Prop44ColorRGB
 90
      255
102
RTVSPost2010PropOp44
 70
     0
102
RTVSPost2010Prop45
280
     0
102
RTVSPost2010PropOp45
 70
     0
102
RTVSPost2010Prop46
 90
       50
102
RTVSPost2010PropOp46
 70
     0
102
RTVSPost2010Prop47
 90
       50
102
RTVSPost2010PropOp47
 70
     0
102
RTVSPost2010Prop48
 90
       50
102
RTVSPost2010PropOp48
 70
     0
102
RTVSPost2010Prop49
280
     0
102
RTVSPost2010PropOp49
 70
     0
102
RTVSPost2010Prop50
 90
       50
102
RTVSPost2010PropOp50
 70
     0
102
RTVSPost2010Prop51ColorIndex
 90
      256
102
RTVSPost2010Prop51ColorRGB
 90
-16777216
102
RTVSPost2010PropOp51
 70
     0
102
RTVSPost2010Prop52
140
1.0
102
RTVSPost2010PropOp52
 70
     0
102
RTVSPost2010Prop53
 90
        2
102
RTVSPost2010PropOp53
 70
     0
102
RTVSPost2010Prop54
  1
strokes_ogs.tif
102
RTVSPost2010PropOp54
 70
     0
102
RTVSPost2010Prop55
280
     0
102
RTVSPost2010PropOp55
 70
     0
102
RTVSPost2010Prop56
140
1.0
102
RTVSPost2010PropOp56
 70
     0
102
RTVSPost2010Prop57
140
1.0
102
RTVSPost2010PropOp57
 70
     0
  0
XRECORD
  5
212
102
{ACAD_REACTORS
330
211
102
}
330
211
100
AcDbXrecord
280
     1
102
RTVSPropertyOp0
 70
     1
102
RTVSPropertyOp1
 70
     1
102
RTVSPropertyOp2
 70
     1
102
RTVSPropertyOp3
 70
     1
102
RTVSPropertyOp4
 70
     1
102
RTVSPropertyOp5
 70
     1
102
RTVSPropertyOp6
 70
     1
102
RTVSPropertyOp7
 70
     1
102
RTVSPropertyOp8
 70
     1
102
RTVSPropertyOp9
 70
     1
102
RTVSPropertyOp10
 70
     1
102
RTVSPropertyOp11
 70
     1
102
RTVSPropertyOp12
 70
     1
102
RTVSPropertyOp13
 70
     1
102
RTVSPropertyOp14
 70
     1
102
RTVSPropertyOp15
 70
     1
102
RTVSPropertyOp16
 70
     1
102
RTVSPropertyOp17
 70
     1
102
RTVSPropertyOp18
 70
     1
102
RTVSPropertyOp19
 70
     1
102
RTVSPropertyOp20
 70
     1
102
RTVSPropertyOp21
 70
     1
102
RTVSPropertyOp22
 70
     1
102
RTVSPropertyOp23
 70
     1
102
RTVSPropertyOp24
 70
     1
102
RTVSPropertyOp25
 70
     1
102
RTVSPropertyOp26
 70
     1
102
RTVSPropertyOp27
 70
     1
102
RTVSPropertyOp28
 70
     1
102
RTVSPropertyOp29
 70
     1
102
RTVSPropertyOp30
 70
     1
102
RTVSPropertyOp31
 70
     1
102
RTVSPropertyOp32
 70
     1
102
RTVSPropertyOp33
 70
     1
102
RTVSPropertyOp34
 70
     1
102
RTVSPropertyOp35
 70
     1
102
RTVSPropertyOp36
 70
     1
102
RTVSPropertyOp37
 70
     1
102
RTVSPropertyOp38
 70
     1
102
RTVSPropertyOp39
 70
     1
102
RTVSPropertyOp40
 70
     1
102
RTVSPropertyOp41
 70
     1
102
RTVSPropertyOp42
 70
     1
102
RTVSPropertyOp43
 70
     1
102
RTVSPropertyOp44
 70
     1
102
RTVSPropertyOp45
 70
     1
102
RTVSPropertyOp46
 70
     1
102
RTVSPropertyOp47
 70
     1
102
RTVSPropertyOp48
 70
     1
102
RTVSPropertyOp49
 70
     1
102
RTVSPropertyOp50
 70
     1
102
RTVSPropertyOp51
 70
     0
102
RTVSPropertyOp52
 70
     0
102
RTVSPropertyOp53
 70
     1
102
RTVSPropertyOp54
 70
     1
102
RTVSPropertyOp55
 70
     1
102
RTVSPropertyOp56
 70
     1
102
RTVSPropertyOp57
 70
     1
102
RTVSPost2010Prop28
280
     0
102
RTVSPost2010PropOp28
 70
     1
102
RTVSPost2010Prop29
280
     1
102
RTVSPost2010PropOp29
 70
     1
102
RTVSPost2010Prop30
280
     1
102
RTVSPost2010PropOp30
 70
     1
102
RTVSPost2010Prop31
280
     0
102
RTVSPost2010PropOp31
 70
     1
102
RTVSPost2010Prop32
280
     0
102
RTVSPost2010PropOp32
 70
     1
102
RTVSPost2010Prop33
280
     0
102
RTVSPost2010PropOp33
 70
     1
102
RTVSPost2010Prop34
280
     0
102
RTVSPost2010PropOp34
 70
     1
102
RTVSPost2010Prop35
280
     0
102
RTVSPost2010PropOp35
 70
     1
102
RTVSPost2010Prop36
280
     0
102
RTVSPost2010PropOp36
 70
     1
102
RTVSPost2010Prop37
 90
       50
102
RTVSPost2010PropOp37
 70
     1
102
RTVSPost2010Prop38
140
0.0
102
RTVSPost2010PropOp38
 70
     1
102
RTVSPost2010Prop39
140
1.0
102
RTVSPost2010PropOp39
 70
     1
102
RTVSPost2010Prop40
 90
        0
102
RTVSPost2010PropOp40
 70
     1
102
RTVSPost2010Prop41ColorIndex
 90
       18
102
RTVSPost2010Prop41ColorRGB
 90
        0
102
RTVSPost2010PropOp41
 70
     1
102
RTVSPost2010Prop42
 90
       50
102
RTVSPost2010PropOp42
 70
     1
102
RTVSPost2010Prop43
 90
        3
102
RTVSPost2010PropOp43
 70
     1
102
RTVSPost2010Prop44ColorIndex
 90
        5
102
RTVSPost2010Prop44ColorRGB
 90
      255
102
RTVSPost2010PropOp44
 70
     1
102
RTVSPost2010Prop45
280
     0
102
RTVSPost2010PropOp45
 70
     1
102
RTVSPost2010Prop46
 90
       50
102
RTVSPost2010PropOp46
 70
     1
102
RTVSPost2010Prop47
 90
       50
102
RTVSPost2010PropOp47
 70
     1
102
RTVSPost2010Prop48
 90
       50
102
RTVSPost2010PropOp48
 70
     1
102
RTVSPost2010Prop49
280
     0
102
RTVSPost2010PropOp49
 70
     1
102
RTVSPost2010Prop50
 90
       50
102
RTVSPost2010PropOp50
 70
     1
102
RTVSPost2010Prop51ColorIndex
 90
      256
102
RTVSPost2010Prop51ColorRGB
 90
-16777216
102
RTVSPost2010PropOp51
 70
     0
102
RTVSPost2010Prop52
140
1.0
102
RTVSPost2010PropOp52
 70
     0
102
RTVSPost2010Prop53
 90
        2
102
RTVSPost2010PropOp53
 70
     1
102
RTVSPost2010Prop54
  1
strokes_ogs.tif
102
RTVSPost2010PropOp54
 70
     1
102
RTVSPost2010Prop55
280
     0
102
RTVSPost2010PropOp55
 70
     1
102
RTVSPost2010Prop56
140
1.0
102
RTVSPost2010PropOp56
 70
     1
102
RTVSPost2010Prop57
140
1.0
102
RTVSPost2010PropOp57
 70
     1
  0
XRECORD
  5
21A
102
{ACAD_REACTORS
330
219
102
}
330
219
100
AcDbXrecord
280
     1
102
RTVSPropertyOp0
 70
     0
102
RTVSPropertyOp1
 70
     0
102
RTVSPropertyOp2
 70
     0
102
RTVSPropertyOp3
 70
     0
102
RTVSPropertyOp4
 70
     0
102
RTVSPropertyOp5
 70
     0
102
RTVSPropertyOp6
 70
     0
102
RTVSPropertyOp7
 70
     0
102
RTVSPropertyOp8
 70
     0
102
RTVSPropertyOp9
 70
     0
102
RTVSPropertyOp10
 70
     0
102
RTVSPropertyOp11
 70
     0
102
RTVSPropertyOp12
 70
     0
102
RTVSPropertyOp13
 70
     0
102
RTVSPropertyOp14
 70
     2
102
RTVSPropertyOp15
 70
     0
102
RTVSPropertyOp16
 70
     0
102
RTVSPropertyOp17
 70
     0
102
RTVSPropertyOp18
 70
     0
102
RTVSPropertyOp19
 70
     0
102
RTVSPropertyOp20
 70
     0
102
RTVSPropertyOp21
 70
     0
102
RTVSPropertyOp22
 70
     0
102
RTVSPropertyOp23
 70
     0
102
RTVSPropertyOp24
 70
     0
102
RTVSPropertyOp25
 70
     0
102
RTVSPropertyOp26
 70
     0
102
RTVSPropertyOp27
 70
     0
102
RTVSPropertyOp28
 70
     0
102
RTVSPropertyOp29
 70
     0
102
RTVSPropertyOp30
 70
     0
102
RTVSPropertyOp31
 70
     0
102
RTVSPropertyOp32
 70
     0
102
RTVSPropertyOp33
 70
     0
102
RTVSPropertyOp34
 70
     0
102
RTVSPropertyOp35
 70
     0
102
RTVSPropertyOp36
 70
     0
102
RTVSPropertyOp37
 70
     0
102
RTVSPropertyOp38
 70
     0
102
RTVSPropertyOp39
 70
     0
102
RTVSPropertyOp40
 70
     0
102
RTVSPropertyOp41
 70
     0
102
RTVSPropertyOp42
 70
     0
102
RTVSPropertyOp43
 70
     0
102
RTVSPropertyOp44
 70
     0
102
RTVSPropertyOp45
 70
     0
102
RTVSPropertyOp46
 70
     0
102
RTVSPropertyOp47
 70
     0
102
RTVSPropertyOp48
 70
     0
102
RTVSPropertyOp49
 70
     0
102
RTVSPropertyOp50
 70
     0
102
RTVSPropertyOp51
 70
     0
102
RTVSPropertyOp52
 70
     0
102
RTVSPropertyOp53
 70
     0
102
RTVSPropertyOp54
 70
     0
102
RTVSPropertyOp55
 70
     0
102
RTVSPropertyOp56
 70
     0
102
RTVSPropertyOp57
 70
     0
102
RTVSPost2010Prop28
280
     0
102
RTVSPost2010PropOp28
 70
     0
102
RTVSPost2010Prop29
280
     1
102
RTVSPost2010PropOp29
 70
     0
102
RTVSPost2010Prop30
280
     1
102
RTVSPost2010PropOp30
 70
     0
102
RTVSPost2010Prop31
280
     0
102
RTVSPost2010PropOp31
 70
     0
102
RTVSPost2010Prop32
280
     0
102
RTVSPost2010PropOp32
 70
     0
102
RTVSPost2010Prop33
280
     0
102
RTVSPost2010PropOp33
 70
     0
102
RTVSPost2010Prop34
280
     0
102
RTVSPost2010PropOp34
 70
     0
102
RTVSPost2010Prop35
280
     0
102
RTVSPost2010PropOp35
 70
     0
102
RTVSPost2010Prop36
280
     0
102
RTVSPost2010PropOp36
 70
     0
102
RTVSPost2010Prop37
 90
       50
102
RTVSPost2010PropOp37
 70
     0
102
RTVSPost2010Prop38
140
0.0
102
RTVSPost2010PropOp38
 70
     0
102
RTVSPost2010Prop39
140
1.0
102
RTVSPost2010PropOp39
 70
     0
102
RTVSPost2010Prop40
 90
        0
102
RTVSPost2010PropOp40
 70
     0
102
RTVSPost2010Prop41ColorIndex
 90
       18
102
RTVSPost2010Prop41ColorRGB
 90
        0
102
RTVSPost2010PropOp41
 70
     0
102
RTVSPost2010Prop42
 90
       50
102
RTVSPost2010PropOp42
 70
     0
102
RTVSPost2010Prop43
 90
        3
102
RTVSPost2010PropOp43
 70
     0
102
RTVSPost2010Prop44ColorIndex
 90
        5
102
RTVSPost2010Prop44ColorRGB
 90
      255
102
RTVSPost2010PropOp44
 70
     0
102
RTVSPost2010Prop45
280
     0
102
RTVSPost2010PropOp45
 70
     0
102
RTVSPost2010Prop46
 90
       50
102
RTVSPost2010PropOp46
 70
     0
102
RTVSPost2010Prop47
 90
       50
102
RTVSPost2010PropOp47
 70
     0
102
RTVSPost2010Prop48
 90
       50
102
RTVSPost2010PropOp48
 70
     0
102
RTVSPost2010Prop49
280
     0
102
RTVSPost2010PropOp49
 70
     0
102
RTVSPost2010Prop50
 90
       50
102
RTVSPost2010PropOp50
 70
     0
102
RTVSPost2010Prop51ColorIndex
 90
      256
102
RTVSPost2010Prop51ColorRGB
 90
-16777216
102
RTVSPost2010PropOp51
 70
     0
102
RTVSPost2010Prop52
140
1.0
102
RTVSPost2010PropOp52
 70
     0
102
RTVSPost2010Prop53
 90
        2
102
RTVSPost2010PropOp53
 70
     0
102
RTVSPost2010Prop54
  1
strokes_ogs.tif
102
RTVSPost2010PropOp54
 70
     0
102
RTVSPost2010Prop55
280
     0
102
RTVSPost2010PropOp55
 70
     0
102
RTVSPost2010Prop56
140
1.0
102
RTVSPost2010PropOp56
 70
     0
102
RTVSPost2010Prop57
140
1.0
102
RTVSPost2010PropOp57
 70
     0
  0
XRECORD
  5
208
102
{ACAD_REACTORS
330
207
102
}
330
207
100
AcDbXrecord
280
     1
102
RTVSPropertyOp0
 70
     1
102
RTVSPropertyOp1
 70
     1
102
RTVSPropertyOp2
 70
     1
102
RTVSPropertyOp3
 70
     1
102
RTVSPropertyOp4
 70
     1
102
RTVSPropertyOp5
 70
     1
102
RTVSPropertyOp6
 70
     1
102
RTVSPropertyOp7
 70
     1
102
RTVSPropertyOp8
 70
     1
102
RTVSPropertyOp9
 70
     1
102
RTVSPropertyOp10
 70
     1
102
RTVSPropertyOp11
 70
     1
102
RTVSPropertyOp12
 70
     1
102
RTVSPropertyOp13
 70
     1
102
RTVSPropertyOp14
 70
     1
102
RTVSPropertyOp15
 70
     1
102
RTVSPropertyOp16
 70
     1
102
RTVSPropertyOp17
 70
     1
102
RTVSPropertyOp18
 70
     1
102
RTVSPropertyOp19
 70
     1
102
RTVSPropertyOp20
 70
     1
102
RTVSPropertyOp21
 70
     1
102
RTVSPropertyOp22
 70
     1
102
RTVSPropertyOp23
 70
     1
102
RTVSPropertyOp24
 70
     1
102
RTVSPropertyOp25
 70
     1
102
RTVSPropertyOp26
 70
     1
102
RTVSPropertyOp27
 70
     1
102
RTVSPropertyOp28
 70
     1
102
RTVSPropertyOp29
 70
     1
102
RTVSPropertyOp30
 70
     1
102
RTVSPropertyOp31
 70
     1
102
RTVSPropertyOp32
 70
     1
102
RTVSPropertyOp33
 70
     1
102
RTVSPropertyOp34
 70
     1
102
RTVSPropertyOp35
 70
     1
102
RTVSPropertyOp36
 70
     1
102
RTVSPropertyOp37
 70
     1
102
RTVSPropertyOp38
 70
     1
102
RTVSPropertyOp39
 70
     1
102
RTVSPropertyOp40
 70
     1
102
RTVSPropertyOp41
 70
     1
102
RTVSPropertyOp42
 70
     1
102
RTVSPropertyOp43
 70
     1
102
RTVSPropertyOp44
 70
     1
102
RTVSPropertyOp45
 70
     1
102
RTVSPropertyOp46
 70
     1
102
RTVSPropertyOp47
 70
     1
102
RTVSPropertyOp48
 70
     1
102
RTVSPropertyOp49
 70
     1
102
RTVSPropertyOp50
 70
     1
102
RTVSPropertyOp51
 70
     0
102
RTVSPropertyOp52
 70
     0
102
RTVSPropertyOp53
 70
     1
102
RTVSPropertyOp54
 70
     1
102
RTVSPropertyOp55
 70
     1
102
RTVSPropertyOp56
 70
     1
102
RTVSPropertyOp57
 70
     1
102
RTVSPost2010Prop28
280
     0
102
RTVSPost2010PropOp28
 70
     1
102
RTVSPost2010Prop29
280
     1
102
RTVSPost2010PropOp29
 70
     1
102
RTVSPost2010Prop30
280
     1
102
RTVSPost2010PropOp30
 70
     1
102
RTVSPost2010Prop31
280
     0
102
RTVSPost2010PropOp31
 70
     1
102
RTVSPost2010Prop32
280
     0
102
RTVSPost2010PropOp32
 70
     1
102
RTVSPost2010Prop33
280
     0
102
RTVSPost2010PropOp33
 70
     1
102
RTVSPost2010Prop34
280
     0
102
RTVSPost2010PropOp34
 70
     1
102
RTVSPost2010Prop35
280
     0
102
RTVSPost2010PropOp35
 70
     1
102
RTVSPost2010Prop36
280
     0
102
RTVSPost2010PropOp36
 70
     1
102
RTVSPost2010Prop37
 90
       50
102
RTVSPost2010PropOp37
 70
     1
102
RTVSPost2010Prop38
140
0.0
102
RTVSPost2010PropOp38
 70
     1
102
RTVSPost2010Prop39
140
1.0
102
RTVSPost2010PropOp39
 70
     1
102
RTVSPost2010Prop40
 90
        0
102
RTVSPost2010PropOp40
 70
     1
102
RTVSPost2010Prop41ColorIndex
 90
       18
102
RTVSPost2010Prop41ColorRGB
 90
        0
102
RTVSPost2010PropOp41
 70
     1
102
RTVSPost2010Prop42
 90
       50
102
RTVSPost2010PropOp42
 70
     1
102
RTVSPost2010Prop43
 90
        3
102
RTVSPost2010PropOp43
 70
     1
102
RTVSPost2010Prop44ColorIndex
 90
        5
102
RTVSPost2010Prop44ColorRGB
 90
      255
102
RTVSPost2010PropOp44
 70
     1
102
RTVSPost2010Prop45
280
     0
102
RTVSPost2010PropOp45
 70
     1
102
RTVSPost2010Prop46
 90
       50
102
RTVSPost2010PropOp46
 70
     1
102
RTVSPost2010Prop47
 90
       50
102
RTVSPost2010PropOp47
 70
     1
102
RTVSPost2010Prop48
 90
       50
102
RTVSPost2010PropOp48
 70
     1
102
RTVSPost2010Prop49
280
     0
102
RTVSPost2010PropOp49
 70
     1
102
RTVSPost2010Prop50
 90
       50
102
RTVSPost2010PropOp50
 70
     1
102
RTVSPost2010Prop51ColorIndex
 90
      256
102
RTVSPost2010Prop51ColorRGB
 90
-16777216
102
RTVSPost2010PropOp51
 70
     0
102
RTVSPost2010Prop52
140
1.0
102
RTVSPost2010PropOp52
 70
     0
102
RTVSPost2010Prop53
 90
        2
102
RTVSPost2010PropOp53
 70
     1
102
RTVSPost2010Prop54
  1
strokes_ogs.tif
102
RTVSPost2010PropOp54
 70
     1
102
RTVSPost2010Prop55
280
     0
102
RTVSPost2010PropOp55
 70
     1
102
RTVSPost2010Prop56
140
1.0
102
RTVSPost2010PropOp56
 70
     1
102
RTVSPost2010Prop57
140
1.0
102
RTVSPost2010PropOp57
 70
     1
  0
XRECORD
  5
226
102
{ACAD_REACTORS
330
225
102
}
330
225
100
AcDbXrecord
280
     1
102
RTVSPropertyOp0
 70
     1
102
RTVSPropertyOp1
 70
     1
102
RTVSPropertyOp2
 70
     1
102
RTVSPropertyOp3
 70
     1
102
RTVSPropertyOp4
 70
     1
102
RTVSPropertyOp5
 70
     1
102
RTVSPropertyOp6
 70
     1
102
RTVSPropertyOp7
 70
     1
102
RTVSPropertyOp8
 70
     1
102
RTVSPropertyOp9
 70
     1
102
RTVSPropertyOp10
 70
     1
102
RTVSPropertyOp11
 70
     1
102
RTVSPropertyOp12
 70
     1
102
RTVSPropertyOp13
 70
     1
102
RTVSPropertyOp14
 70
     1
102
RTVSPropertyOp15
 70
     1
102
RTVSPropertyOp16
 70
     1
102
RTVSPropertyOp17
 70
     1
102
RTVSPropertyOp18
 70
     1
102
RTVSPropertyOp19
 70
     1
102
RTVSPropertyOp20
 70
     1
102
RTVSPropertyOp21
 70
     1
102
RTVSPropertyOp22
 70
     1
102
RTVSPropertyOp23
 70
     1
102
RTVSPropertyOp24
 70
     1
102
RTVSPropertyOp25
 70
     1
102
RTVSPropertyOp26
 70
     1
102
RTVSPropertyOp27
 70
     1
102
RTVSPropertyOp28
 70
     1
102
RTVSPropertyOp29
 70
     1
102
RTVSPropertyOp30
 70
     1
102
RTVSPropertyOp31
 70
     1
102
RTVSPropertyOp32
 70
     1
102
RTVSPropertyOp33
 70
     1
102
RTVSPropertyOp34
 70
     1
102
RTVSPropertyOp35
 70
     1
102
RTVSPropertyOp36
 70
     1
102
RTVSPropertyOp37
 70
     1
102
RTVSPropertyOp38
 70
     1
102
RTVSPropertyOp39
 70
     1
102
RTVSPropertyOp40
 70
     1
102
RTVSPropertyOp41
 70
     1
102
RTVSPropertyOp42
 70
     1
102
RTVSPropertyOp43
 70
     1
102
RTVSPropertyOp44
 70
     1
102
RTVSPropertyOp45
 70
     1
102
RTVSPropertyOp46
 70
     1
102
RTVSPropertyOp47
 70
     1
102
RTVSPropertyOp48
 70
     1
102
RTVSPropertyOp49
 70
     1
102
RTVSPropertyOp50
 70
     1
102
RTVSPropertyOp51
 70
     0
102
RTVSPropertyOp52
 70
     0
102
RTVSPropertyOp53
 70
     1
102
RTVSPropertyOp54
 70
     1
102
RTVSPropertyOp55
 70
     1
102
RTVSPropertyOp56
 70
     1
102
RTVSPropertyOp57
 70
     1
102
RTVSPost2010Prop28
280
     0
102
RTVSPost2010PropOp28
 70
     1
102
RTVSPost2010Prop29
280
     1
102
RTVSPost2010PropOp29
 70
     1
102
RTVSPost2010Prop30
280
     1
102
RTVSPost2010PropOp30
 70
     1
102
RTVSPost2010Prop31
280
     0
102
RTVSPost2010PropOp31
 70
     1
102
RTVSPost2010Prop32
280
     0
102
RTVSPost2010PropOp32
 70
     1
102
RTVSPost2010Prop33
280
     0
102
RTVSPost2010PropOp33
 70
     1
102
RTVSPost2010Prop34
280
     0
102
RTVSPost2010PropOp34
 70
     1
102
RTVSPost2010Prop35
280
     0
102
RTVSPost2010PropOp35
 70
     1
102
RTVSPost2010Prop36
280
     0
102
RTVSPost2010PropOp36
 70
     1
102
RTVSPost2010Prop37
 90
       50
102
RTVSPost2010PropOp37
 70
     1
102
RTVSPost2010Prop38
140
0.0
102
RTVSPost2010PropOp38
 70
     1
102
RTVSPost2010Prop39
140
1.0
102
RTVSPost2010PropOp39
 70
     1
102
RTVSPost2010Prop40
 90
        0
102
RTVSPost2010PropOp40
 70
     1
102
RTVSPost2010Prop41ColorIndex
 90
       18
102
RTVSPost2010Prop41ColorRGB
 90
        0
102
RTVSPost2010PropOp41
 70
     1
102
RTVSPost2010Prop42
 90
       50
102
RTVSPost2010PropOp42
 70
     1
102
RTVSPost2010Prop43
 90
        3
102
RTVSPost2010PropOp43
 70
     1
102
RTVSPost2010Prop44ColorIndex
 90
        5
102
RTVSPost2010Prop44ColorRGB
 90
      255
102
RTVSPost2010PropOp44
 70
     1
102
RTVSPost2010Prop45
280
     0
102
RTVSPost2010PropOp45
 70
     1
102
RTVSPost2010Prop46
 90
       50
102
RTVSPost2010PropOp46
 70
     1
102
RTVSPost2010Prop47
 90
       50
102
RTVSPost2010PropOp47
 70
     1
102
RTVSPost2010Prop48
 90
       50
102
RTVSPost2010PropOp48
 70
     1
102
RTVSPost2010Prop49
280
     0
102
RTVSPost2010PropOp49
 70
     1
102
RTVSPost2010Prop50
 90
       50
102
RTVSPost2010PropOp50
 70
     1
102
RTVSPost2010Prop51ColorIndex
 90
      256
102
RTVSPost2010Prop51ColorRGB
 90
-16777216
102
RTVSPost2010PropOp51
 70
     0
102
RTVSPost2010Prop52
140
1.0
102
RTVSPost2010PropOp52
 70
     0
102
RTVSPost2010Prop53
 90
        2
102
RTVSPost2010PropOp53
 70
     1
102
RTVSPost2010Prop54
  1
strokes_ogs.tif
102
RTVSPost2010PropOp54
 70
     1
102
RTVSPost2010Prop55
280
     0
102
RTVSPost2010PropOp55
 70
     1
102
RTVSPost2010Prop56
140
1.0
102
RTVSPost2010PropOp56
 70
     1
102
RTVSPost2010Prop57
140
1.0
102
RTVSPost2010PropOp57
 70
     1
  0
XRECORD
  5
224
102
{ACAD_REACTORS
330
223
102
}
330
223
100
AcDbXrecord
280
     1
102
RTVSPropertyOp0
 70
     1
102
RTVSPropertyOp1
 70
     1
102
RTVSPropertyOp2
 70
     1
102
RTVSPropertyOp3
 70
     1
102
RTVSPropertyOp4
 70
     1
102
RTVSPropertyOp5
 70
     1
102
RTVSPropertyOp6
 70
     1
102
RTVSPropertyOp7
 70
     1
102
RTVSPropertyOp8
 70
     1
102
RTVSPropertyOp9
 70
     1
102
RTVSPropertyOp10
 70
     1
102
RTVSPropertyOp11
 70
     1
102
RTVSPropertyOp12
 70
     1
102
RTVSPropertyOp13
 70
     1
102
RTVSPropertyOp14
 70
     1
102
RTVSPropertyOp15
 70
     1
102
RTVSPropertyOp16
 70
     1
102
RTVSPropertyOp17
 70
     1
102
RTVSPropertyOp18
 70
     1
102
RTVSPropertyOp19
 70
     1
102
RTVSPropertyOp20
 70
     1
102
RTVSPropertyOp21
 70
     1
102
RTVSPropertyOp22
 70
     1
102
RTVSPropertyOp23
 70
     1
102
RTVSPropertyOp24
 70
     1
102
RTVSPropertyOp25
 70
     1
102
RTVSPropertyOp26
 70
     1
102
RTVSPropertyOp27
 70
     1
102
RTVSPropertyOp28
 70
     1
102
RTVSPropertyOp29
 70
     1
102
RTVSPropertyOp30
 70
     1
102
RTVSPropertyOp31
 70
     1
102
RTVSPropertyOp32
 70
     1
102
RTVSPropertyOp33
 70
     1
102
RTVSPropertyOp34
 70
     1
102
RTVSPropertyOp35
 70
     1
102
RTVSPropertyOp36
 70
     1
102
RTVSPropertyOp37
 70
     1
102
RTVSPropertyOp38
 70
     1
102
RTVSPropertyOp39
 70
     1
102
RTVSPropertyOp40
 70
     1
102
RTVSPropertyOp41
 70
     1
102
RTVSPropertyOp42
 70
     1
102
RTVSPropertyOp43
 70
     1
102
RTVSPropertyOp44
 70
     1
102
RTVSPropertyOp45
 70
     1
102
RTVSPropertyOp46
 70
     1
102
RTVSPropertyOp47
 70
     1
102
RTVSPropertyOp48
 70
     1
102
RTVSPropertyOp49
 70
     1
102
RTVSPropertyOp50
 70
     1
102
RTVSPropertyOp51
 70
     0
102
RTVSPropertyOp52
 70
     0
102
RTVSPropertyOp53
 70
     1
102
RTVSPropertyOp54
 70
     1
102
RTVSPropertyOp55
 70
     1
102
RTVSPropertyOp56
 70
     1
102
RTVSPropertyOp57
 70
     1
102
RTVSPost2010Prop28
280
     0
102
RTVSPost2010PropOp28
 70
     1
102
RTVSPost2010Prop29
280
     1
102
RTVSPost2010PropOp29
 70
     1
102
RTVSPost2010Prop30
280
     1
102
RTVSPost2010PropOp30
 70
     1
102
RTVSPost2010Prop31
280
     0
102
RTVSPost2010PropOp31
 70
     1
102
RTVSPost2010Prop32
280
     0
102
RTVSPost2010PropOp32
 70
     1
102
RTVSPost2010Prop33
280
     0
102
RTVSPost2010PropOp33
 70
     1
102
RTVSPost2010Prop34
280
     0
102
RTVSPost2010PropOp34
 70
     1
102
RTVSPost2010Prop35
280
     0
102
RTVSPost2010PropOp35
 70
     1
102
RTVSPost2010Prop36
280
     0
102
RTVSPost2010PropOp36
 70
     1
102
RTVSPost2010Prop37
 90
       50
102
RTVSPost2010PropOp37
 70
     1
102
RTVSPost2010Prop38
140
0.0
102
RTVSPost2010PropOp38
 70
     1
102
RTVSPost2010Prop39
140
1.0
102
RTVSPost2010PropOp39
 70
     1
102
RTVSPost2010Prop40
 90
        0
102
RTVSPost2010PropOp40
 70
     1
102
RTVSPost2010Prop41ColorIndex
 90
       18
102
RTVSPost2010Prop41ColorRGB
 90
        0
102
RTVSPost2010PropOp41
 70
     1
102
RTVSPost2010Prop42
 90
       50
102
RTVSPost2010PropOp42
 70
     1
102
RTVSPost2010Prop43
 90
        3
102
RTVSPost2010PropOp43
 70
     1
102
RTVSPost2010Prop44ColorIndex
 90
        5
102
RTVSPost2010Prop44ColorRGB
 90
      255
102
RTVSPost2010PropOp44
 70
     1
102
RTVSPost2010Prop45
280
     0
102
RTVSPost2010PropOp45
 70
     1
102
RTVSPost2010Prop46
 90
       50
102
RTVSPost2010PropOp46
 70
     1
102
RTVSPost2010Prop47
 90
       50
102
RTVSPost2010PropOp47
 70
     1
102
RTVSPost2010Prop48
 90
       50
102
RTVSPost2010PropOp48
 70
     1
102
RTVSPost2010Prop49
280
     0
102
RTVSPost2010PropOp49
 70
     1
102
RTVSPost2010Prop50
 90
       50
102
RTVSPost2010PropOp50
 70
     1
102
RTVSPost2010Prop51ColorIndex
 90
      256
102
RTVSPost2010Prop51ColorRGB
 90
-16777216
102
RTVSPost2010PropOp51
 70
     0
102
RTVSPost2010Prop52
140
1.0
102
RTVSPost2010PropOp52
 70
     0
102
RTVSPost2010Prop53
 90
        2
102
RTVSPost2010PropOp53
 70
     1
102
RTVSPost2010Prop54
  1
strokes_ogs.tif
102
RTVSPost2010PropOp54
 70
     1
102
RTVSPost2010Prop55
280
     0
102
RTVSPost2010PropOp55
 70
     1
102
RTVSPost2010Prop56
140
1.0
102
RTVSPost2010PropOp56
 70
     1
102
RTVSPost2010Prop57
140
1.0
102
RTVSPost2010PropOp57
 70
     1
  0
XRECORD
  5
21E
102
{ACAD_REACTORS
330
21D
102
}
330
21D
100
AcDbXrecord
280
     1
102
RTVSPropertyOp0
 70
     1
102
RTVSPropertyOp1
 70
     1
102
RTVSPropertyOp2
 70
     1
102
RTVSPropertyOp3
 70
     1
102
RTVSPropertyOp4
 70
     1
102
RTVSPropertyOp5
 70
     1
102
RTVSPropertyOp6
 70
     1
102
RTVSPropertyOp7
 70
     1
102
RTVSPropertyOp8
 70
     1
102
RTVSPropertyOp9
 70
     1
102
RTVSPropertyOp10
 70
     1
102
RTVSPropertyOp11
 70
     1
102
RTVSPropertyOp12
 70
     1
102
RTVSPropertyOp13
 70
     1
102
RTVSPropertyOp14
 70
     1
102
RTVSPropertyOp15
 70
     1
102
RTVSPropertyOp16
 70
     1
102
RTVSPropertyOp17
 70
     1
102
RTVSPropertyOp18
 70
     1
102
RTVSPropertyOp19
 70
     1
102
RTVSPropertyOp20
 70
     1
102
RTVSPropertyOp21
 70
     1
102
RTVSPropertyOp22
 70
     1
102
RTVSPropertyOp23
 70
     1
102
RTVSPropertyOp24
 70
     1
102
RTVSPropertyOp25
 70
     1
102
RTVSPropertyOp26
 70
     1
102
RTVSPropertyOp27
 70
     1
102
RTVSPropertyOp28
 70
     1
102
RTVSPropertyOp29
 70
     1
102
RTVSPropertyOp30
 70
     1
102
RTVSPropertyOp31
 70
     1
102
RTVSPropertyOp32
 70
     1
102
RTVSPropertyOp33
 70
     1
102
RTVSPropertyOp34
 70
     1
102
RTVSPropertyOp35
 70
     1
102
RTVSPropertyOp36
 70
     1
102
RTVSPropertyOp37
 70
     1
102
RTVSPropertyOp38
 70
     1
102
RTVSPropertyOp39
 70
     1
102
RTVSPropertyOp40
 70
     1
102
RTVSPropertyOp41
 70
     1
102
RTVSPropertyOp42
 70
     1
102
RTVSPropertyOp43
 70
     1
102
RTVSPropertyOp44
 70
     1
102
RTVSPropertyOp45
 70
     1
102
RTVSPropertyOp46
 70
     1
102
RTVSPropertyOp47
 70
     1
102
RTVSPropertyOp48
 70
     1
102
RTVSPropertyOp49
 70
     1
102
RTVSPropertyOp50
 70
     1
102
RTVSPropertyOp51
 70
     0
102
RTVSPropertyOp52
 70
     0
102
RTVSPropertyOp53
 70
     1
102
RTVSPropertyOp54
 70
     1
102
RTVSPropertyOp55
 70
     1
102
RTVSPropertyOp56
 70
     1
102
RTVSPropertyOp57
 70
     1
102
RTVSPost2010Prop28
280
     0
102
RTVSPost2010PropOp28
 70
     1
102
RTVSPost2010Prop29
280
     1
102
RTVSPost2010PropOp29
 70
     1
102
RTVSPost2010Prop30
280
     1
102
RTVSPost2010PropOp30
 70
     1
102
RTVSPost2010Prop31
280
     0
102
RTVSPost2010PropOp31
 70
     1
102
RTVSPost2010Prop32
280
     0
102
RTVSPost2010PropOp32
 70
     1
102
RTVSPost2010Prop33
280
     0
102
RTVSPost2010PropOp33
 70
     1
102
RTVSPost2010Prop34
280
     0
102
RTVSPost2010PropOp34
 70
     1
102
RTVSPost2010Prop35
280
     0
102
RTVSPost2010PropOp35
 70
     1
102
RTVSPost2010Prop36
280
     0
102
RTVSPost2010PropOp36
 70
     1
102
RTVSPost2010Prop37
 90
       50
102
RTVSPost2010PropOp37
 70
     1
102
RTVSPost2010Prop38
140
0.0
102
RTVSPost2010PropOp38
 70
     1
102
RTVSPost2010Prop39
140
1.0
102
RTVSPost2010PropOp39
 70
     1
102
RTVSPost2010Prop40
 90
        0
102
RTVSPost2010PropOp40
 70
     1
102
RTVSPost2010Prop41ColorIndex
 90
       18
102
RTVSPost2010Prop41ColorRGB
 90
        0
102
RTVSPost2010PropOp41
 70
     1
102
RTVSPost2010Prop42
 90
       50
102
RTVSPost2010PropOp42
 70
     1
102
RTVSPost2010Prop43
 90
        3
102
RTVSPost2010PropOp43
 70
     1
102
RTVSPost2010Prop44ColorIndex
 90
        5
102
RTVSPost2010Prop44ColorRGB
 90
      255
102
RTVSPost2010PropOp44
 70
     1
102
RTVSPost2010Prop45
280
     0
102
RTVSPost2010PropOp45
 70
     1
102
RTVSPost2010Prop46
 90
       50
102
RTVSPost2010PropOp46
 70
     1
102
RTVSPost2010Prop47
 90
       50
102
RTVSPost2010PropOp47
 70
     1
102
RTVSPost2010Prop48
 90
       50
102
RTVSPost2010PropOp48
 70
     1
102
RTVSPost2010Prop49
280
     0
102
RTVSPost2010PropOp49
 70
     1
102
RTVSPost2010Prop50
 90
       50
102
RTVSPost2010PropOp50
 70
     1
102
RTVSPost2010Prop51ColorIndex
 90
      256
102
RTVSPost2010Prop51ColorRGB
 90
-16777216
102
RTVSPost2010PropOp51
 70
     0
102
RTVSPost2010Prop52
140
1.0
102
RTVSPost2010PropOp52
 70
     0
102
RTVSPost2010Prop53
 90
        2
102
RTVSPost2010PropOp53
 70
     1
102
RTVSPost2010Prop54
  1
strokes_ogs.tif
102
RTVSPost2010PropOp54
 70
     1
102
RTVSPost2010Prop55
280
     0
102
RTVSPost2010PropOp55
 70
     1
102
RTVSPost2010Prop56
140
1.0
102
RTVSPost2010PropOp56
 70
     1
102
RTVSPost2010Prop57
140
1.0
102
RTVSPost2010PropOp57
 70
     1
  0
XRECORD
  5
220
102
{ACAD_REACTORS
330
21F
102
}
330
21F
100
AcDbXrecord
280
     1
102
RTVSPropertyOp0
 70
     1
102
RTVSPropertyOp1
 70
     1
102
RTVSPropertyOp2
 70
     1
102
RTVSPropertyOp3
 70
     1
102
RTVSPropertyOp4
 70
     1
102
RTVSPropertyOp5
 70
     1
102
RTVSPropertyOp6
 70
     1
102
RTVSPropertyOp7
 70
     1
102
RTVSPropertyOp8
 70
     1
102
RTVSPropertyOp9
 70
     1
102
RTVSPropertyOp10
 70
     1
102
RTVSPropertyOp11
 70
     1
102
RTVSPropertyOp12
 70
     1
102
RTVSPropertyOp13
 70
     1
102
RTVSPropertyOp14
 70
     1
102
RTVSPropertyOp15
 70
     1
102
RTVSPropertyOp16
 70
     1
102
RTVSPropertyOp17
 70
     1
102
RTVSPropertyOp18
 70
     1
102
RTVSPropertyOp19
 70
     1
102
RTVSPropertyOp20
 70
     1
102
RTVSPropertyOp21
 70
     1
102
RTVSPropertyOp22
 70
     1
102
RTVSPropertyOp23
 70
     1
102
RTVSPropertyOp24
 70
     1
102
RTVSPropertyOp25
 70
     1
102
RTVSPropertyOp26
 70
     1
102
RTVSPropertyOp27
 70
     1
102
RTVSPropertyOp28
 70
     1
102
RTVSPropertyOp29
 70
     1
102
RTVSPropertyOp30
 70
     1
102
RTVSPropertyOp31
 70
     1
102
RTVSPropertyOp32
 70
     1
102
RTVSPropertyOp33
 70
     1
102
RTVSPropertyOp34
 70
     1
102
RTVSPropertyOp35
 70
     1
102
RTVSPropertyOp36
 70
     1
102
RTVSPropertyOp37
 70
     1
102
RTVSPropertyOp38
 70
     1
102
RTVSPropertyOp39
 70
     1
102
RTVSPropertyOp40
 70
     1
102
RTVSPropertyOp41
 70
     1
102
RTVSPropertyOp42
 70
     1
102
RTVSPropertyOp43
 70
     1
102
RTVSPropertyOp44
 70
     1
102
RTVSPropertyOp45
 70
     1
102
RTVSPropertyOp46
 70
     1
102
RTVSPropertyOp47
 70
     1
102
RTVSPropertyOp48
 70
     1
102
RTVSPropertyOp49
 70
     1
102
RTVSPropertyOp50
 70
     1
102
RTVSPropertyOp51
 70
     0
102
RTVSPropertyOp52
 70
     0
102
RTVSPropertyOp53
 70
     1
102
RTVSPropertyOp54
 70
     1
102
RTVSPropertyOp55
 70
     1
102
RTVSPropertyOp56
 70
     1
102
RTVSPropertyOp57
 70
     1
102
RTVSPost2010Prop28
280
     0
102
RTVSPost2010PropOp28
 70
     1
102
RTVSPost2010Prop29
280
     1
102
RTVSPost2010PropOp29
 70
     1
102
RTVSPost2010Prop30
280
     1
102
RTVSPost2010PropOp30
 70
     1
102
RTVSPost2010Prop31
280
     0
102
RTVSPost2010PropOp31
 70
     1
102
RTVSPost2010Prop32
280
     0
102
RTVSPost2010PropOp32
 70
     1
102
RTVSPost2010Prop33
280
     0
102
RTVSPost2010PropOp33
 70
     1
102
RTVSPost2010Prop34
280
     0
102
RTVSPost2010PropOp34
 70
     1
102
RTVSPost2010Prop35
280
     0
102
RTVSPost2010PropOp35
 70
     1
102
RTVSPost2010Prop36
280
     0
102
RTVSPost2010PropOp36
 70
     1
102
RTVSPost2010Prop37
 90
       50
102
RTVSPost2010PropOp37
 70
     1
102
RTVSPost2010Prop38
140
0.0
102
RTVSPost2010PropOp38
 70
     1
102
RTVSPost2010Prop39
140
1.0
102
RTVSPost2010PropOp39
 70
     1
102
RTVSPost2010Prop40
 90
        0
102
RTVSPost2010PropOp40
 70
     1
102
RTVSPost2010Prop41ColorIndex
 90
       18
102
RTVSPost2010Prop41ColorRGB
 90
        0
102
RTVSPost2010PropOp41
 70
     1
102
RTVSPost2010Prop42
 90
       50
102
RTVSPost2010PropOp42
 70
     1
102
RTVSPost2010Prop43
 90
        3
102
RTVSPost2010PropOp43
 70
     1
102
RTVSPost2010Prop44ColorIndex
 90
        5
102
RTVSPost2010Prop44ColorRGB
 90
      255
102
RTVSPost2010PropOp44
 70
     1
102
RTVSPost2010Prop45
280
     0
102
RTVSPost2010PropOp45
 70
     1
102
RTVSPost2010Prop46
 90
       50
102
RTVSPost2010PropOp46
 70
     1
102
RTVSPost2010Prop47
 90
       50
102
RTVSPost2010PropOp47
 70
     1
102
RTVSPost2010Prop48
 90
       50
102
RTVSPost2010PropOp48
 70
     1
102
RTVSPost2010Prop49
280
     0
102
RTVSPost2010PropOp49
 70
     1
102
RTVSPost2010Prop50
 90
       50
102
RTVSPost2010PropOp50
 70
     1
102
RTVSPost2010Prop51ColorIndex
 90
      256
102
RTVSPost2010Prop51ColorRGB
 90
-16777216
102
RTVSPost2010PropOp51
 70
     0
102
RTVSPost2010Prop52
140
1.0
102
RTVSPost2010PropOp52
 70
     0
102
RTVSPost2010Prop53
 90
        2
102
RTVSPost2010PropOp53
 70
     1
102
RTVSPost2010Prop54
  1
strokes_ogs.tif
102
RTVSPost2010PropOp54
 70
     1
102
RTVSPost2010Prop55
280
     0
102
RTVSPost2010PropOp55
 70
     1
102
RTVSPost2010Prop56
140
1.0
102
RTVSPost2010PropOp56
 70
     1
102
RTVSPost2010Prop57
140
1.0
102
RTVSPost2010PropOp57
 70
     1
  0
XRECORD
  5
210
102
{ACAD_REACTORS
330
20F
102
}
330
20F
100
AcDbXrecord
280
     1
102
RTVSPropertyOp0
 70
     1
102
RTVSPropertyOp1
 70
     1
102
RTVSPropertyOp2
 70
     1
102
RTVSPropertyOp3
 70
     1
102
RTVSPropertyOp4
 70
     1
102
RTVSPropertyOp5
 70
     1
102
RTVSPropertyOp6
 70
     1
102
RTVSPropertyOp7
 70
     1
102
RTVSPropertyOp8
 70
     1
102
RTVSPropertyOp9
 70
     1
102
RTVSPropertyOp10
 70
     1
102
RTVSPropertyOp11
 70
     1
102
RTVSPropertyOp12
 70
     1
102
RTVSPropertyOp13
 70
     1
102
RTVSPropertyOp14
 70
     1
102
RTVSPropertyOp15
 70
     1
102
RTVSPropertyOp16
 70
     1
102
RTVSPropertyOp17
 70
     1
102
RTVSPropertyOp18
 70
     1
102
RTVSPropertyOp19
 70
     1
102
RTVSPropertyOp20
 70
     1
102
RTVSPropertyOp21
 70
     1
102
RTVSPropertyOp22
 70
     1
102
RTVSPropertyOp23
 70
     1
102
RTVSPropertyOp24
 70
     1
102
RTVSPropertyOp25
 70
     1
102
RTVSPropertyOp26
 70
     1
102
RTVSPropertyOp27
 70
     1
102
RTVSPropertyOp28
 70
     1
102
RTVSPropertyOp29
 70
     1
102
RTVSPropertyOp30
 70
     1
102
RTVSPropertyOp31
 70
     1
102
RTVSPropertyOp32
 70
     1
102
RTVSPropertyOp33
 70
     1
102
RTVSPropertyOp34
 70
     1
102
RTVSPropertyOp35
 70
     1
102
RTVSPropertyOp36
 70
     1
102
RTVSPropertyOp37
 70
     1
102
RTVSPropertyOp38
 70
     1
102
RTVSPropertyOp39
 70
     1
102
RTVSPropertyOp40
 70
     1
102
RTVSPropertyOp41
 70
     1
102
RTVSPropertyOp42
 70
     1
102
RTVSPropertyOp43
 70
     1
102
RTVSPropertyOp44
 70
     1
102
RTVSPropertyOp45
 70
     1
102
RTVSPropertyOp46
 70
     1
102
RTVSPropertyOp47
 70
     1
102
RTVSPropertyOp48
 70
     1
102
RTVSPropertyOp49
 70
     1
102
RTVSPropertyOp50
 70
     1
102
RTVSPropertyOp51
 70
     0
102
RTVSPropertyOp52
 70
     0
102
RTVSPropertyOp53
 70
     1
102
RTVSPropertyOp54
 70
     1
102
RTVSPropertyOp55
 70
     1
102
RTVSPropertyOp56
 70
     1
102
RTVSPropertyOp57
 70
     1
102
RTVSPost2010Prop28
280
     0
102
RTVSPost2010PropOp28
 70
     1
102
RTVSPost2010Prop29
280
     1
102
RTVSPost2010PropOp29
 70
     1
102
RTVSPost2010Prop30
280
     1
102
RTVSPost2010PropOp30
 70
     1
102
RTVSPost2010Prop31
280
     0
102
RTVSPost2010PropOp31
 70
     1
102
RTVSPost2010Prop32
280
     0
102
RTVSPost2010PropOp32
 70
     1
102
RTVSPost2010Prop33
280
     0
102
RTVSPost2010PropOp33
 70
     1
102
RTVSPost2010Prop34
280
     0
102
RTVSPost2010PropOp34
 70
     1
102
RTVSPost2010Prop35
280
     0
102
RTVSPost2010PropOp35
 70
     1
102
RTVSPost2010Prop36
280
     0
102
RTVSPost2010PropOp36
 70
     1
102
RTVSPost2010Prop37
 90
       50
102
RTVSPost2010PropOp37
 70
     1
102
RTVSPost2010Prop38
140
0.0
102
RTVSPost2010PropOp38
 70
     1
102
RTVSPost2010Prop39
140
1.0
102
RTVSPost2010PropOp39
 70
     1
102
RTVSPost2010Prop40
 90
        0
102
RTVSPost2010PropOp40
 70
     1
102
RTVSPost2010Prop41ColorIndex
 90
       18
102
RTVSPost2010Prop41ColorRGB
 90
        0
102
RTVSPost2010PropOp41
 70
     1
102
RTVSPost2010Prop42
 90
       50
102
RTVSPost2010PropOp42
 70
     1
102
RTVSPost2010Prop43
 90
        3
102
RTVSPost2010PropOp43
 70
     1
102
RTVSPost2010Prop44ColorIndex
 90
        5
102
RTVSPost2010Prop44ColorRGB
 90
      255
102
RTVSPost2010PropOp44
 70
     1
102
RTVSPost2010Prop45
280
     0
102
RTVSPost2010PropOp45
 70
     1
102
RTVSPost2010Prop46
 90
       50
102
RTVSPost2010PropOp46
 70
     1
102
RTVSPost2010Prop47
 90
       50
102
RTVSPost2010PropOp47
 70
     1
102
RTVSPost2010Prop48
 90
       50
102
RTVSPost2010PropOp48
 70
     1
102
RTVSPost2010Prop49
280
     0
102
RTVSPost2010PropOp49
 70
     1
102
RTVSPost2010Prop50
 90
       50
102
RTVSPost2010PropOp50
 70
     1
102
RTVSPost2010Prop51ColorIndex
 90
      256
102
RTVSPost2010Prop51ColorRGB
 90
-16777216
102
RTVSPost2010PropOp51
 70
     0
102
RTVSPost2010Prop52
140
1.0
102
RTVSPost2010PropOp52
 70
     0
102
RTVSPost2010Prop53
 90
        2
102
RTVSPost2010PropOp53
 70
     1
102
RTVSPost2010Prop54
  1
strokes_ogs.tif
102
RTVSPost2010PropOp54
 70
     1
102
RTVSPost2010Prop55
280
     0
102
RTVSPost2010PropOp55
 70
     1
102
RTVSPost2010Prop56
140
1.0
102
RTVSPost2010PropOp56
 70
     1
102
RTVSPost2010Prop57
140
1.0
102
RTVSPost2010PropOp57
 70
     1
  0
XRECORD
  5
202
102
{ACAD_REACTORS
330
201
102
}
330
201
100
AcDbXrecord
280
     1
102
RTVSPropertyOp0
 70
     1
102
RTVSPropertyOp1
 70
     1
102
RTVSPropertyOp2
 70
     1
102
RTVSPropertyOp3
 70
     1
102
RTVSPropertyOp4
 70
     1
102
RTVSPropertyOp5
 70
     1
102
RTVSPropertyOp6
 70
     1
102
RTVSPropertyOp7
 70
     1
102
RTVSPropertyOp8
 70
     1
102
RTVSPropertyOp9
 70
     1
102
RTVSPropertyOp10
 70
     1
102
RTVSPropertyOp11
 70
     1
102
RTVSPropertyOp12
 70
     1
102
RTVSPropertyOp13
 70
     1
102
RTVSPropertyOp14
 70
     1
102
RTVSPropertyOp15
 70
     1
102
RTVSPropertyOp16
 70
     1
102
RTVSPropertyOp17
 70
     1
102
RTVSPropertyOp18
 70
     1
102
RTVSPropertyOp19
 70
     1
102
RTVSPropertyOp20
 70
     1
102
RTVSPropertyOp21
 70
     1
102
RTVSPropertyOp22
 70
     1
102
RTVSPropertyOp23
 70
     1
102
RTVSPropertyOp24
 70
     1
102
RTVSPropertyOp25
 70
     1
102
RTVSPropertyOp26
 70
     1
102
RTVSPropertyOp27
 70
     1
102
RTVSPropertyOp28
 70
     1
102
RTVSPropertyOp29
 70
     1
102
RTVSPropertyOp30
 70
     1
102
RTVSPropertyOp31
 70
     1
102
RTVSPropertyOp32
 70
     1
102
RTVSPropertyOp33
 70
     1
102
RTVSPropertyOp34
 70
     1
102
RTVSPropertyOp35
 70
     1
102
RTVSPropertyOp36
 70
     1
102
RTVSPropertyOp37
 70
     1
102
RTVSPropertyOp38
 70
     1
102
RTVSPropertyOp39
 70
     1
102
RTVSPropertyOp40
 70
     1
102
RTVSPropertyOp41
 70
     1
102
RTVSPropertyOp42
 70
     1
102
RTVSPropertyOp43
 70
     1
102
RTVSPropertyOp44
 70
     1
102
RTVSPropertyOp45
 70
     1
102
RTVSPropertyOp46
 70
     1
102
RTVSPropertyOp47
 70
     1
102
RTVSPropertyOp48
 70
     1
102
RTVSPropertyOp49
 70
     1
102
RTVSPropertyOp50
 70
     1
102
RTVSPropertyOp51
 70
     0
102
RTVSPropertyOp52
 70
     0
102
RTVSPropertyOp53
 70
     1
102
RTVSPropertyOp54
 70
     1
102
RTVSPropertyOp55
 70
     1
102
RTVSPropertyOp56
 70
     1
102
RTVSPropertyOp57
 70
     1
102
RTVSPost2010Prop28
280
     0
102
RTVSPost2010PropOp28
 70
     1
102
RTVSPost2010Prop29
280
     1
102
RTVSPost2010PropOp29
 70
     1
102
RTVSPost2010Prop30
280
     1
102
RTVSPost2010PropOp30
 70
     1
102
RTVSPost2010Prop31
280
     0
102
RTVSPost2010PropOp31
 70
     1
102
RTVSPost2010Prop32
280
     0
102
RTVSPost2010PropOp32
 70
     1
102
RTVSPost2010Prop33
280
     0
102
RTVSPost2010PropOp33
 70
     1
102
RTVSPost2010Prop34
280
     0
102
RTVSPost2010PropOp34
 70
     1
102
RTVSPost2010Prop35
280
     0
102
RTVSPost2010PropOp35
 70
     1
102
RTVSPost2010Prop36
280
     0
102
RTVSPost2010PropOp36
 70
     1
102
RTVSPost2010Prop37
 90
       50
102
RTVSPost2010PropOp37
 70
     1
102
RTVSPost2010Prop38
140
0.0
102
RTVSPost2010PropOp38
 70
     1
102
RTVSPost2010Prop39
140
1.0
102
RTVSPost2010PropOp39
 70
     1
102
RTVSPost2010Prop40
 90
        0
102
RTVSPost2010PropOp40
 70
     1
102
RTVSPost2010Prop41ColorIndex
 90
       18
102
RTVSPost2010Prop41ColorRGB
 90
        0
102
RTVSPost2010PropOp41
 70
     1
102
RTVSPost2010Prop42
 90
       50
102
RTVSPost2010PropOp42
 70
     1
102
RTVSPost2010Prop43
 90
        3
102
RTVSPost2010PropOp43
 70
     1
102
RTVSPost2010Prop44ColorIndex
 90
        5
102
RTVSPost2010Prop44ColorRGB
 90
      255
102
RTVSPost2010PropOp44
 70
     1
102
RTVSPost2010Prop45
280
     0
102
RTVSPost2010PropOp45
 70
     1
102
RTVSPost2010Prop46
 90
       50
102
RTVSPost2010PropOp46
 70
     1
102
RTVSPost2010Prop47
 90
       50
102
RTVSPost2010PropOp47
 70
     1
102
RTVSPost2010Prop48
 90
       50
102
RTVSPost2010PropOp48
 70
     1
102
RTVSPost2010Prop49
280
     0
102
RTVSPost2010PropOp49
 70
     1
102
RTVSPost2010Prop50
 90
       50
102
RTVSPost2010PropOp50
 70
     1
102
RTVSPost2010Prop51ColorIndex
 90
      256
102
RTVSPost2010Prop51ColorRGB
 90
-16777216
102
RTVSPost2010PropOp51
 70
     0
102
RTVSPost2010Prop52
140
1.0
102
RTVSPost2010PropOp52
 70
     0
102
RTVSPost2010Prop53
 90
        2
102
RTVSPost2010PropOp53
 70
     1
102
RTVSPost2010Prop54
  1
strokes_ogs.tif
102
RTVSPost2010PropOp54
 70
     1
102
RTVSPost2010Prop55
280
     0
102
RTVSPost2010PropOp55
 70
     1
102
RTVSPost2010Prop56
140
1.0
102
RTVSPost2010PropOp56
 70
     1
102
RTVSPost2010Prop57
140
1.0
102
RTVSPost2010PropOp57
 70
     1
  0
XRECORD
  5
222
102
{ACAD_REACTORS
330
221
102
}
330
221
100
AcDbXrecord
280
     1
102
RTVSPropertyOp0
 70
     1
102
RTVSPropertyOp1
 70
     1
102
RTVSPropertyOp2
 70
     1
102
RTVSPropertyOp3
 70
     1
102
RTVSPropertyOp4
 70
     1
102
RTVSPropertyOp5
 70
     1
102
RTVSPropertyOp6
 70
     1
102
RTVSPropertyOp7
 70
     1
102
RTVSPropertyOp8
 70
     1
102
RTVSPropertyOp9
 70
     1
102
RTVSPropertyOp10
 70
     1
102
RTVSPropertyOp11
 70
     1
102
RTVSPropertyOp12
 70
     1
102
RTVSPropertyOp13
 70
     1
102
RTVSPropertyOp14
 70
     1
102
RTVSPropertyOp15
 70
     1
102
RTVSPropertyOp16
 70
     1
102
RTVSPropertyOp17
 70
     1
102
RTVSPropertyOp18
 70
     1
102
RTVSPropertyOp19
 70
     1
102
RTVSPropertyOp20
 70
     1
102
RTVSPropertyOp21
 70
     1
102
RTVSPropertyOp22
 70
     1
102
RTVSPropertyOp23
 70
     1
102
RTVSPropertyOp24
 70
     1
102
RTVSPropertyOp25
 70
     1
102
RTVSPropertyOp26
 70
     1
102
RTVSPropertyOp27
 70
     1
102
RTVSPropertyOp28
 70
     1
102
RTVSPropertyOp29
 70
     1
102
RTVSPropertyOp30
 70
     1
102
RTVSPropertyOp31
 70
     1
102
RTVSPropertyOp32
 70
     1
102
RTVSPropertyOp33
 70
     1
102
RTVSPropertyOp34
 70
     1
102
RTVSPropertyOp35
 70
     1
102
RTVSPropertyOp36
 70
     1
102
RTVSPropertyOp37
 70
     1
102
RTVSPropertyOp38
 70
     1
102
RTVSPropertyOp39
 70
     1
102
RTVSPropertyOp40
 70
     1
102
RTVSPropertyOp41
 70
     1
102
RTVSPropertyOp42
 70
     1
102
RTVSPropertyOp43
 70
     1
102
RTVSPropertyOp44
 70
     1
102
RTVSPropertyOp45
 70
     1
102
RTVSPropertyOp46
 70
     1
102
RTVSPropertyOp47
 70
     1
102
RTVSPropertyOp48
 70
     1
102
RTVSPropertyOp49
 70
     1
102
RTVSPropertyOp50
 70
     1
102
RTVSPropertyOp51
 70
     0
102
RTVSPropertyOp52
 70
     0
102
RTVSPropertyOp53
 70
     1
102
RTVSPropertyOp54
 70
     1
102
RTVSPropertyOp55
 70
     1
102
RTVSPropertyOp56
 70
     1
102
RTVSPropertyOp57
 70
     1
102
RTVSPost2010Prop28
280
     0
102
RTVSPost2010PropOp28
 70
     1
102
RTVSPost2010Prop29
280
     1
102
RTVSPost2010PropOp29
 70
     1
102
RTVSPost2010Prop30
280
     1
102
RTVSPost2010PropOp30
 70
     1
102
RTVSPost2010Prop31
280
     0
102
RTVSPost2010PropOp31
 70
     1
102
RTVSPost2010Prop32
280
     0
102
RTVSPost2010PropOp32
 70
     1
102
RTVSPost2010Prop33
280
     0
102
RTVSPost2010PropOp33
 70
     1
102
RTVSPost2010Prop34
280
     0
102
RTVSPost2010PropOp34
 70
     1
102
RTVSPost2010Prop35
280
     0
102
RTVSPost2010PropOp35
 70
     1
102
RTVSPost2010Prop36
280
     0
102
RTVSPost2010PropOp36
 70
     1
102
RTVSPost2010Prop37
 90
       50
102
RTVSPost2010PropOp37
 70
     1
102
RTVSPost2010Prop38
140
0.0
102
RTVSPost2010PropOp38
 70
     1
102
RTVSPost2010Prop39
140
1.0
102
RTVSPost2010PropOp39
 70
     1
102
RTVSPost2010Prop40
 90
        0
102
RTVSPost2010PropOp40
 70
     1
102
RTVSPost2010Prop41ColorIndex
 90
       18
102
RTVSPost2010Prop41ColorRGB
 90
        0
102
RTVSPost2010PropOp41
 70
     1
102
RTVSPost2010Prop42
 90
       50
102
RTVSPost2010PropOp42
 70
     1
102
RTVSPost2010Prop43
 90
        3
102
RTVSPost2010PropOp43
 70
     1
102
RTVSPost2010Prop44ColorIndex
 90
        5
102
RTVSPost2010Prop44ColorRGB
 90
      255
102
RTVSPost2010PropOp44
 70
     1
102
RTVSPost2010Prop45
280
     0
102
RTVSPost2010PropOp45
 70
     1
102
RTVSPost2010Prop46
 90
       50
102
RTVSPost2010PropOp46
 70
     1
102
RTVSPost2010Prop47
 90
       50
102
RTVSPost2010PropOp47
 70
     1
102
RTVSPost2010Prop48
 90
       50
102
RTVSPost2010PropOp48
 70
     1
102
RTVSPost2010Prop49
280
     0
102
RTVSPost2010PropOp49
 70
     1
102
RTVSPost2010Prop50
 90
       50
102
RTVSPost2010PropOp50
 70
     1
102
RTVSPost2010Prop51ColorIndex
 90
      256
102
RTVSPost2010Prop51ColorRGB
 90
-16777216
102
RTVSPost2010PropOp51
 70
     0
102
RTVSPost2010Prop52
140
1.0
102
RTVSPost2010PropOp52
 70
     0
102
RTVSPost2010Prop53
 90
        2
102
RTVSPost2010PropOp53
 70
     1
102
RTVSPost2010Prop54
  1
strokes_ogs.tif
102
RTVSPost2010PropOp54
 70
     1
102
RTVSPost2010Prop55
280
     0
102
RTVSPost2010PropOp55
 70
     1
102
RTVSPost2010Prop56
140
1.0
102
RTVSPost2010PropOp56
 70
     1
102
RTVSPost2010Prop57
140
1.0
102
RTVSPost2010PropOp57
 70
     1
  0
ENDSEC
  0
EOF
