  0
SECTION
  2
HEADER
  9
$ACADVER
  1
AC1018
  9
$ACADMAINTVER
 70
     0
  9
$DWGCODEPAGE
  3
ANSI_932
  9
$INSBASE
 10
0.0
 20
0.0
 30
0.0
  9
$EXTMIN
 10
-2100.0
 20
-1485.0
 30
0.0
  9
$EXTMAX
 10
2100.0
 20
1485.0
 30
0.0
  9
$LIMMIN
 10
-2100.0
 20
-1485.0
  9
$LIMMAX
 10
2100.0
 20
1485.0
  9
$ORTHOMODE
 70
     0
  9
$REGENMODE
 70
     1
  9
$FILLMODE
 70
     1
  9
$QTEXTMODE
 70
     0
  9
$MIRRTEXT
 70
     1
  9
$LTSCALE
 40
10.0
  9
$ATTMODE
 70
     1
  9
$TEXTSIZE
 40
2.5
  9
$TRACEWID
 40
1.0
  9
$TEXTSTYLE
  7
Standard
  9
$CLAYER
  8
0
  9
$CELTYPE
  6
ByLayer
  9
$CECOLOR
 62
   256
  9
$CELTSCALE
 40
1.0
  9
$DISPSILH
 70
     0
  9
$DIMSCALE
 40
1.0
  9
$DIMASZ
 40
2.5
  9
$DIMEXO
 40
0.625
  9
$DIMDLI
 40
3.75
  9
$DIMRND
 40
0.0
  9
$DIMDLE
 40
0.0
  9
$DIMEXE
 40
1.25
  9
$DIMTP
 40
0.0
  9
$DIMTM
 40
0.0
  9
$DIMTXT
 40
2.5
  9
$DIMCEN
 40
2.5
  9
$DIMTSZ
 40
0.0
  9
$DIMTOL
 70
     0
  9
$DIMLIM
 70
     0
  9
$DIMTIH
 70
     0
  9
$DIMTOH
 70
     0
  9
$DIMSE1
 70
     0
  9
$DIMSE2
 70
     0
  9
$DIMTAD
 70
     1
  9
$DIMZIN
 70
     8
  9
$DIMBLK
  1

  9
$DIMASO
 70
     1
  9
$DIMSHO
 70
     1
  9
$DIMPOST
  1

  9
$DIMAPOST
  1

  9
$DIMALT
 70
     0
  9
$DIMALTD
 70
     3
  9
$DIMALTF
 40
0.03937007874016
  9
$DIMLFAC
 40
1.0
  9
$DIMTOFL
 70
     1
  9
$DIMTVP
 40
0.0
  9
$DIMTIX
 70
     0
  9
$DIMSOXD
 70
     0
  9
$DIMSAH
 70
     0
  9
$DIMBLK1
  1

  9
$DIMBLK2
  1

  9
$DIMSTYLE
  2
ISO-25
  9
$DIMCLRD
 70
     0
  9
$DIMCLRE
 70
     0
  9
$DIMCLRT
 70
     0
  9
$DIMTFAC
 40
1.0
  9
$DIMGAP
 40
0.625
  9
$DIMJUST
 70
     0
  9
$DIMSD1
 70
     0
  9
$DIMSD2
 70
     0
  9
$DIMTOLJ
 70
     0
  9
$DIMTZIN
 70
     8
  9
$DIMALTZ
 70
     0
  9
$DIMALTTZ
 70
     0
  9
$DIMUPT
 70
     0
  9
$DIMDEC
 70
     2
  9
$DIMTDEC
 70
     2
  9
$DIMALTU
 70
     2
  9
$DIMALTTD
 70
     3
  9
$DIMTXSTY
  7
Standard
  9
$DIMAUNIT
 70
     0
  9
$DIMADEC
 70
     0
  9
$DIMALTRND
 40
0.0
  9
$DIMAZIN
 70
     0
  9
$DIMDSEP
 70
    44
  9
$DIMATFIT
 70
     3
  9
$DIMFRAC
 70
     0
  9
$DIMLDRBLK
  1

  9
$DIMLUNIT
 70
     2
  9
$DIMLWD
 70
    -2
  9
$DIMLWE
 70
    -2
  9
$DIMTMOVE
 70
     0
  9
$LUNITS
 70
     2
  9
$LUPREC
 70
     4
  9
$SKETCHINC
 40
1.0
  9
$FILLETRAD
 40
10.0
  9
$AUNITS
 70
     0
  9
$AUPREC
 70
     0
  9
$MENU
  1
.
  9
$ELEVATION
 40
0.0
  9
$PELEVATION
 40
0.0
  9
$THICKNESS
 40
0.0
  9
$LIMCHECK
 70
     0
  9
$CHAMFERA
 40
10.0
  9
$CHAMFERB
 40
10.0
  9
$CHAMFERC
 40
20.0
  9
$CHAMFERD
 40
0.0
  9
$SKPOLY
 70
     0
  9
$TDCREATE
 40
2458268.579701528
  9
$TDUCREATE
 40
2458268.204701528
  9
$TDUPDATE
 40
2458268.579701539
  9
$TDUUPDATE
 40
2458268.204701539
  9
$TDINDWG
 40
0.0000000116
  9
$TDUSRTIMER
 40
0.0000000116
  9
$USRTIMER
 70
     1
  9
$ANGBASE
 50
0.0
  9
$ANGDIR
 70
     0
  9
$PDMODE
 70
     0
  9
$PDSIZE
 40
0.0
  9
$PLINEWID
 40
0.0
  9
$SPLFRAME
 70
     0
  9
$SPLINETYPE
 70
     6
  9
$SPLINESEGS
 70
     8
  9
$HANDSEED
  5
4DA
  9
$SURFTAB1
 70
     6
  9
$SURFTAB2
 70
     6
  9
$SURFTYPE
 70
     6
  9
$SURFU
 70
     6
  9
$SURFV
 70
     6
  9
$UCSBASE
  2

  9
$UCSNAME
  2

  9
$UCSORG
 10
0.0
 20
0.0
 30
0.0
  9
$UCSXDIR
 10
1.0
 20
0.0
 30
0.0
  9
$UCSYDIR
 10
0.0
 20
1.0
 30
0.0
  9
$UCSORTHOREF
  2

  9
$UCSORTHOVIEW
 70
     0
  9
$UCSORGTOP
 10
0.0
 20
0.0
 30
0.0
  9
$UCSORGBOTTOM
 10
0.0
 20
0.0
 30
0.0
  9
$UCSORGLEFT
 10
0.0
 20
0.0
 30
0.0
  9
$UCSORGRIGHT
 10
0.0
 20
0.0
 30
0.0
  9
$UCSORGFRONT
 10
0.0
 20
0.0
 30
0.0
  9
$UCSORGBACK
 10
0.0
 20
0.0
 30
0.0
  9
$PUCSBASE
  2

  9
$PUCSNAME
  2

  9
$PUCSORG
 10
0.0
 20
0.0
 30
0.0
  9
$PUCSXDIR
 10
1.0
 20
0.0
 30
0.0
  9
$PUCSYDIR
 10
0.0
 20
1.0
 30
0.0
  9
$PUCSORTHOREF
  2

  9
$PUCSORTHOVIEW
 70
     0
  9
$PUCSORGTOP
 10
0.0
 20
0.0
 30
0.0
  9
$PUCSORGBOTTOM
 10
0.0
 20
0.0
 30
0.0
  9
$PUCSORGLEFT
 10
0.0
 20
0.0
 30
0.0
  9
$PUCSORGRIGHT
 10
0.0
 20
0.0
 30
0.0
  9
$PUCSORGFRONT
 10
0.0
 20
0.0
 30
0.0
  9
$PUCSORGBACK
 10
0.0
 20
0.0
 30
0.0
  9
$USERI1
 70
     0
  9
$USERI2
 70
     0
  9
$USERI3
 70
     0
  9
$USERI4
 70
     0
  9
$USERI5
 70
     0
  9
$USERR1
 40
0.0
  9
$USERR2
 40
0.0
  9
$USERR3
 40
0.0
  9
$USERR4
 40
0.0
  9
$USERR5
 40
0.0
  9
$WORLDVIEW
 70
     1
  9
$SHADEDGE
 70
     3
  9
$SHADEDIF
 70
    70
  9
$TILEMODE
 70
     1
  9
$MAXACTVP
 70
    64
  9
$PINSBASE
 10
0.0
 20
0.0
 30
0.0
  9
$PLIMCHECK
 70
     0
  9
$PEXTMIN
 10
1.000000000000000E+20
 20
1.000000000000000E+20
 30
1.000000000000000E+20
  9
$PEXTMAX
 10
-1.000000000000000E+20
 20
-1.000000000000000E+20
 30
-1.000000000000000E+20
  9
$PLIMMIN
 10
0.0
 20
0.0
  9
$PLIMMAX
 10
420.0
 20
297.0
  9
$UNITMODE
 70
     0
  9
$VISRETAIN
 70
     1
  9
$PLINEGEN
 70
     0
  9
$PSLTSCALE
 70
     1
  9
$TREEDEPTH
 70
  3020
  9
$CMLSTYLE
  2
Standard
  9
$CMLJUST
 70
     0
  9
$CMLSCALE
 40
20.0
  9
$PROXYGRAPHICS
 70
     1
  9
$MEASUREMENT
 70
     1
  9
$CELWEIGHT
370
    -1
  9
$ENDCAPS
280
     0
  9
$JOINSTYLE
280
     0
  9
$LWDISPLAY
290
     0
  9
$INSUNITS
 70
     4
  9
$HYPERLINKBASE
  1

  9
$STYLESHEET
  1

  9
$XEDIT
290
     1
  9
$CEPSNTYPE
380
     0
  9
$PSTYLEMODE
290
     1
  9
$FINGERPRINTGUID
  2
{0463663F-C94D-406F-A470-413A2BE1DF55}
  9
$VERSIONGUID
  2
{FAEB1C32-E019-11D5-929B-00C0DF256EC4}
  9
$EXTNAMES
290
     1
  9
$PSVPSCALE
 40
0.0
  9
$OLESTARTUP
290
     0
  9
$SORTENTS
280
   127
  9
$INDEXCTL
280
     0
  9
$HIDETEXT
280
     1
  9
$XCLIPFRAME
290
     0
  9
$HALOGAP
280
     0
  9
$OBSCOLOR
 70
   257
  9
$OBSLTYPE
280
     0
  9
$INTERSECTIONDISPLAY
280
     0
  9
$INTERSECTIONCOLOR
 70
   257
  9
$DIMASSOC
280
     2
  9
$PROJECTNAME
  1

  0
ENDSEC
  0
SECTION
  2
CLASSES
  0
CLASS
  1
ACDBDICTIONARYWDFLT
  2
AcDbDictionaryWithDefault
  3
ObjectDBX Classes
 90
        0
 91
        4
280
     0
281
     0
  0
CLASS
  1
VISUALSTYLE
  2
AcDbVisualStyle
  3
ObjectDBX Classes
 90
     4095
 91
        4
280
     0
281
     0
  0
ENDSEC
  0
SECTION
  2
TABLES
  0
TABLE
  2
VPORT
  5
8
330
0
100
AcDbSymbolTable
 70
     1
  0
VPORT
  5
29
330
8
100
AcDbSymbolTableRecord
100
AcDbViewportTableRecord
  2
*Active
 70
     0
 10
0.0
 20
0.0
 11
1.0
 21
1.0
 12
0.0
 22
0.0
 13
0.0
 23
0.0
 14
10.0
 24
10.0
 15
10.0
 25
10.0
 16
0.0
 26
0.0
 36
1.0
 17
0.0
 27
0.0
 37
0.0
 40
3267.0
 41
1.414141414141414
 42
50.0
 43
0.0
 44
0.0
 50
0.0
 51
0.0
 71
     0
 72
 10000
 73
     1
 74
     3
 75
     0
 76
     0
 77
     0
 78
     0
281
     0
 65
     1
110
0.0
120
0.0
130
0.0
111
1.0
121
0.0
131
0.0
112
0.0
122
1.0
132
0.0
 79
     0
146
0.0
  0
ENDTAB
  0
TABLE
  2
LTYPE
  5
5
330
0
100
AcDbSymbolTable
 70
     5
  0
LTYPE
  5
14
330
5
100
AcDbSymbolTableRecord
100
AcDbLinetypeTableRecord
  2
ByBlock
 70
     0
  3

 72
    65
 73
     0
 40
0.0
  0
LTYPE
  5
15
330
5
100
AcDbSymbolTableRecord
100
AcDbLinetypeTableRecord
  2
ByLayer
 70
     0
  3

 72
    65
 73
     0
 40
0.0
  0
LTYPE
  5
16
330
5
100
AcDbSymbolTableRecord
100
AcDbLinetypeTableRecord
  2
Continuous
 70
     0
  3
Solid line
 72
    65
 73
     0
 40
0.0
  0
LTYPE
  5
3C
330
5
100
AcDbSymbolTableRecord
100
AcDbLinetypeTableRecord
  2
JWW_CENTER1
 70
     0
  3
-----  --  ----------  --  -----
 72
    65
 73
     4
 40
6.773333333333333
 49
4.233333333333333
 74
     0
 49
-0.8466666666666667
 74
     0
 49
0.8466666666666667
 74
     0
 49
-0.8466666666666667
 74
     0
  0
LTYPE
  5
3D
330
5
100
AcDbSymbolTableRecord
100
AcDbLinetypeTableRecord
  2
JWW_DASHED3
 70
     0
  3
---  ------  ------  ------  ---
 72
    65
 73
     2
 40
3.386666666666667
 49
2.54
 74
     0
 49
-0.8466666666666667
 74
     0
  0
LTYPE
  5
3E
330
5
100
AcDbSymbolTableRecord
100
AcDbLinetypeTableRecord
  2
JWW_CENTER2
 70
     0
  3
-------------  --  -------------
 72
    65
 73
     4
 40
13.54666666666667
 49
11.00666666666667
 74
     0
 49
-0.8466666666666667
 74
     0
 49
0.8466666666666667
 74
     0
 49
-0.8466666666666667
 74
     0
  0
LTYPE
  5
3F
330
5
100
AcDbSymbolTableRecord
100
AcDbLinetypeTableRecord
  2
JWW_HOJO
 70
     0
  3
  -   -   -   -   -   -   -   - 
 72
    65
 73
     2
 40
1.693333333333333
 49
-1.27
 74
     0
 49
0.4233333333333333
 74
     0
  0
ENDTAB
  0
TABLE
  2
LAYER
  5
2
330
0
100
AcDbSymbolTable
 70
     9
  0
LAYER
  5
10
330
2
100
AcDbSymbolTableRecord
100
AcDbLayerTableRecord
  2
0
 70
     0
 62
     7
  6
Continuous
370
    -3
390
F
  0
LAYER
  5
40
330
2
100
AcDbSymbolTableRecord
100
AcDbLayerTableRecord
  2
D-4_寸法
 70
     0
 62
     7
  6
Continuous
370
    -3
390
F
  0
LAYER
  5
41
330
2
100
AcDbSymbolTableRecord
100
AcDbLayerTableRecord
  2
A-1_ピット
 70
     0
 62
     7
  6
Continuous
370
    -3
390
F
  0
LAYER
  5
42
330
2
100
AcDbSymbolTableRecord
100
AcDbLayerTableRecord
  2
A-2_蓋
 70
     0
 62
     7
  6
Continuous
370
    -3
390
F
  0
LAYER
  5
43
330
2
100
AcDbSymbolTableRecord
100
AcDbLayerTableRecord
  2
A-4_寸法
 70
     0
 62
     7
  6
Continuous
370
    -3
390
F
  0
LAYER
  5
44
330
2
100
AcDbSymbolTableRecord
100
AcDbLayerTableRecord
  2
A-3_受枠
 70
     0
 62
     7
  6
Continuous
370
    -3
390
F
  0
LAYER
  5
45
330
2
100
AcDbSymbolTableRecord
100
AcDbLayerTableRecord
  2
D-2_蓋
 70
     0
 62
     7
  6
Continuous
370
    -3
390
F
  0
LAYER
  5
46
330
2
100
AcDbSymbolTableRecord
100
AcDbLayerTableRecord
  2
A-A
 70
     0
 62
     7
  6
Continuous
370
    -3
390
F
  0
LAYER
  5
47
330
2
100
AcDbSymbolTableRecord
100
AcDbLayerTableRecord
  2
F-5
 70
     0
 62
     7
  6
Continuous
370
    -3
390
F
  0
ENDTAB
  0
TABLE
  2
STYLE
  5
3
330
0
100
AcDbSymbolTable
 70
     2
  0
STYLE
  5
11
330
3
100
AcDbSymbolTableRecord
100
AcDbTextStyleTableRecord
  2
Standard
 70
     0
 40
0.0
 41
1.0
 50
0.0
 71
     0
 42
2.5
  3
txt
  4

1001
ACAD
1000

1071
        0
  0
STYLE
  5
3B
330
3
100
AcDbSymbolTableRecord
100
AcDbTextStyleTableRecord
  2
ＭＳ ゴシック
 70
     0
 40
1.0
 41
1.0
 50
0.0
 71
     0
 42
10.0
  3

  4

1001
ACAD
1000
MS Gothic
1071
    32817
  0
ENDTAB
  0
TABLE
  2
VIEW
  5
6
330
0
100
AcDbSymbolTable
 70
     0
  0
ENDTAB
  0
TABLE
  2
UCS
  5
7
330
0
100
AcDbSymbolTable
 70
     0
  0
ENDTAB
  0
TABLE
  2
APPID
  5
9
330
0
100
AcDbSymbolTable
 70
     1
  0
APPID
  5
12
330
9
100
AcDbSymbolTableRecord
100
AcDbRegAppTableRecord
  2
ACAD
 70
     0
  0
ENDTAB
  0
TABLE
  2
DIMSTYLE
  5
A
330
0
100
AcDbSymbolTable
 70
     1
100
AcDbDimStyleTable
  0
DIMSTYLE
105
27
330
A
100
AcDbSymbolTableRecord
100
AcDbDimStyleTableRecord
  2
ISO-25
 70
     0
 41
2.5
 42
0.625
 43
3.75
 44
1.25
 73
     0
 74
     0
 77
     1
 78
     8
140
2.5
141
2.5
143
0.03937007874016
147
0.625
171
     3
172
     1
271
     2
272
     2
274
     3
278
    44
283
     0
284
     8
340
11
  0
ENDTAB
  0
TABLE
  2
BLOCK_RECORD
  5
1
330
0
100
AcDbSymbolTable
 70
     1
  0
BLOCK_RECORD
  5
1F
330
1
100
AcDbSymbolTableRecord
100
AcDbBlockTableRecord
  2
*Model_Space
340
22
  0
BLOCK_RECORD
  5
1B
330
1
100
AcDbSymbolTableRecord
100
AcDbBlockTableRecord
  2
*Paper_Space
340
1E
  0
BLOCK_RECORD
  5
23
330
1
100
AcDbSymbolTableRecord
100
AcDbBlockTableRecord
  2
*Paper_Space0
340
26
  0
ENDTAB
  0
ENDSEC
  0
SECTION
  2
BLOCKS
  0
BLOCK
  5
20
330
1F
100
AcDbEntity
  8
0
100
AcDbBlockBegin
  2
*Model_Space
 70
     0
 10
0.0
 20
0.0
 30
0.0
  3
*Model_Space
  1

  0
ENDBLK
  5
21
330
1F
100
AcDbEntity
  8
0
100
AcDbBlockEnd
  0
BLOCK
  5
1C
330
1B
100
AcDbEntity
 67
     1
  8
0
100
AcDbBlockBegin
  2
*Paper_Space
 70
     0
 10
0.0
 20
0.0
 30
0.0
  3
*Paper_Space
  1

  0
ENDBLK
  5
1D
330
1B
100
AcDbEntity
 67
     1
  8
0
100
AcDbBlockEnd
  0
BLOCK
  5
24
330
23
100
AcDbEntity
  8
0
100
AcDbBlockBegin
  2
*Paper_Space0
 70
     0
 10
0.0
 20
0.0
 30
0.0
  3
*Paper_Space0
  1

  0
ENDBLK
  5
25
330
23
100
AcDbEntity
  8
0
100
AcDbBlockEnd
  0
ENDSEC
  0
SECTION
  2
ENTITIES
  0
LINE
  5
48
330
1F
100
AcDbEntity
  8
D-4_寸法
  6
Continuous
 62
     2
370
     9
100
AcDbLine
 10
769.3488043707771
 20
-580.1000729122677
 30
0.0
 11
769.3488043707771
 21
-530.099351212785
 31
0.0
  0
LINE
  5
49
330
1F
100
AcDbEntity
  8
D-4_寸法
  6
Continuous
 62
     2
370
     9
100
AcDbLine
 10
769.3488043707771
 20
-530.099351212785
 30
0.0
 11
994.3488043707771
 21
-530.099351212785
 31
0.0
  0
LINE
  5
4A
330
1F
100
AcDbEntity
  8
D-4_寸法
  6
Continuous
 62
     2
370
     9
100
AcDbLine
 10
994.3488043707771
 20
-530.099351212785
 30
0.0
 11
994.3488043707771
 21
-580.1000729122677
 31
0.0
  0
LINE
  5
4B
330
1F
100
AcDbEntity
  8
D-4_寸法
  6
Continuous
 62
     2
370
     9
100
AcDbLine
 10
994.3488043707771
 20
-580.1000729122677
 30
0.0
 11
769.3488043707771
 21
-580.1000729122677
 31
0.0
  0
LINE
  5
4C
330
1F
100
AcDbEntity
  8
A-1_ピット
  6
Continuous
 62
     2
370
     9
100
AcDbLine
 10
-1156.466551084776
 20
-62.75907774229296
 30
0.0
 11
-1156.466551084776
 21
-50.55831496779973
 31
0.0
  0
LINE
  5
4D
330
1F
100
AcDbEntity
  8
A-1_ピット
  6
Continuous
 62
     2
370
     9
100
AcDbLine
 10
-956.4666335647171
 20
-82.75864884660052
 30
0.0
 11
-1136.466485100823
 21
-82.75864884660052
 31
0.0
  0
LINE
  5
4E
330
1F
100
AcDbEntity
  8
A-1_ピット
  6
Continuous
 62
     2
370
     9
100
AcDbLine
 10
-936.466443860853
 20
-62.75907774229296
 30
0.0
 11
-936.466443860853
 21
-50.55831496779973
 31
0.0
  0
LINE
  5
4F
330
1F
100
AcDbEntity
  8
A-1_ピット
  6
Continuous
 62
     2
370
     9
100
AcDbLine
 10
-954.4665774783572
 20
-62.75907774229296
 30
0.0
 11
-954.4665774783572
 21
-50.55831496779973
 31
0.0
  0
LINE
  5
50
330
1F
100
AcDbEntity
  8
A-1_ピット
  6
Continuous
 62
     2
370
     9
100
AcDbLine
 10
-1136.466485100823
 20
-64.7588863888302
 30
0.0
 11
-956.4662624049831
 21
-64.7588863888302
 31
0.0
  0
LINE
  5
51
330
1F
100
AcDbEntity
  8
A-1_ピット
  6
Continuous
 62
     2
370
     9
100
AcDbLine
 10
-1138.466788627006
 20
-62.75907774229296
 30
0.0
 11
-1138.466788627006
 21
-50.55831496779973
 31
0.0
  0
LINE
  5
52
330
1F
100
AcDbEntity
  8
A-1_ピット
  6
JWW_CENTER1
 62
     2
370
     9
100
AcDbLine
 10
-1147.466669855891
 20
-34.34407827016457
 30
0.0
 11
-1147.466669855891
 21
-65.53832183013071
 31
0.0
  0
LINE
  5
53
330
1F
100
AcDbEntity
  8
A-1_ピット
  6
JWW_CENTER1
 62
     2
370
     9
100
AcDbLine
 10
-1131.140590358425
 20
-50.55831496779973
 30
0.0
 11
-1163.954822437183
 21
-50.55831496779973
 31
0.0
  0
LINE
  5
54
330
1F
100
AcDbEntity
  8
A-1_ピット
  6
JWW_CENTER1
 62
     2
370
     9
100
AcDbLine
 10
-945.4662013698269
 20
-34.34407827016457
 30
0.0
 11
-945.4662013698269
 21
-65.53832183013071
 31
0.0
  0
LINE
  5
55
330
1F
100
AcDbEntity
  8
A-1_ピット
  6
JWW_CENTER1
 62
     2
370
     9
100
AcDbLine
 10
-929.1407404719172
 20
-50.55831496779973
 30
0.0
 11
-961.9546013909417
 21
-50.55831496779973
 31
0.0
  0
LINE
  5
56
330
1F
100
AcDbEntity
  8
A-1_ピット
  6
Continuous
 62
     2
370
     9
100
AcDbLine
 10
-128.4665494351773
 20
-62.75907774229296
 30
0.0
 11
-128.4665494351773
 21
-50.55831496779973
 31
0.0
  0
LINE
  5
57
330
1F
100
AcDbEntity
  8
A-1_ピット
  6
Continuous
 62
     2
370
     9
100
AcDbLine
 10
71.5343578441724
 20
-82.75864884660052
 30
0.0
 11
-108.4661122914906
 21
-82.75864884660052
 31
0.0
  0
LINE
  5
58
330
1F
100
AcDbEntity
  8
A-1_ピット
  6
Continuous
 62
     2
370
     9
100
AcDbLine
 10
91.53368150865731
 20
-62.75907774229296
 30
0.0
 11
91.53368150865731
 21
-50.55831496779973
 31
0.0
  0
LINE
  5
59
330
1F
100
AcDbEntity
  8
A-1_ピット
  6
Continuous
 62
     2
370
     9
100
AcDbLine
 10
73.53416649070965
 20
-62.75907774229296
 30
0.0
 11
73.53416649070965
 21
-50.55831496779973
 31
0.0
  0
LINE
  5
5A
330
1F
100
AcDbEntity
  8
A-1_ピット
  6
Continuous
 62
     2
370
     9
100
AcDbLine
 10
-108.4667308910471
 20
-64.7588863888302
 30
0.0
 11
71.5343578441724
 21
-64.7588863888302
 31
0.0
  0
LINE
  5
5B
330
1F
100
AcDbEntity
  8
A-1_ピット
  6
Continuous
 62
     2
370
     9
100
AcDbLine
 10
-110.4662920977617
 20
-62.75907774229296
 30
0.0
 11
-110.4662920977617
 21
-50.55831496779973
 31
0.0
  0
LINE
  5
5C
330
1F
100
AcDbEntity
  8
A-1_ピット
  6
JWW_CENTER1
 62
     2
370
     9
100
AcDbLine
 10
-119.4661733266469
 20
-34.34407827016457
 30
0.0
 11
-119.4661733266469
 21
-65.53832183013071
 31
0.0
  0
LINE
  5
5D
330
1F
100
AcDbEntity
  8
A-1_ピット
  6
JWW_CENTER1
 62
     2
370
     9
100
AcDbLine
 10
-103.1404649889146
 20
-50.55831496779973
 30
0.0
 11
-135.9548207875844
 21
-50.55831496779973
 31
0.0
  0
LINE
  5
5E
330
1F
100
AcDbEntity
  8
A-1_ピット
  6
JWW_CENTER1
 62
     2
370
     9
100
AcDbLine
 10
82.53305796030418
 20
-34.34407827016457
 30
0.0
 11
82.53305796030418
 21
-65.53832183013071
 31
0.0
  0
LINE
  5
5F
330
1F
100
AcDbEntity
  8
A-1_ピット
  6
JWW_CENTER1
 62
     2
370
     9
100
AcDbLine
 10
98.86012721706095
 20
-50.55831496779973
 30
0.0
 11
66.04515281883465
 21
-50.55831496779973
 31
0.0
  0
LINE
  5
60
330
1F
100
AcDbEntity
  8
A-1_ピット
  6
Continuous
 62
     2
370
     9
100
AcDbLine
 10
-1156.466551084776
 20
819.6426309121623
 30
0.0
 11
-1156.466551084776
 21
807.4428578969596
 31
0.0
  0
LINE
  5
61
330
1F
100
AcDbEntity
  8
A-1_ピット
  6
Continuous
 62
     2
370
     9
100
AcDbLine
 10
-956.4666335647171
 20
839.6422020164698
 30
0.0
 11
-1136.466485100823
 21
839.6422020164698
 31
0.0
  0
LINE
  5
62
330
1F
100
AcDbEntity
  8
A-1_ピット
  6
Continuous
 62
     2
370
     9
100
AcDbLine
 10
-936.466443860853
 20
819.6426309121623
 30
0.0
 11
-936.466443860853
 21
807.4428578969596
 31
0.0
  0
LINE
  5
63
330
1F
100
AcDbEntity
  8
A-1_ピット
  6
Continuous
 62
     2
370
     9
100
AcDbLine
 10
-954.4665774783572
 20
819.6426309121623
 30
0.0
 11
-954.4665774783572
 21
807.4428578969596
 31
0.0
  0
LINE
  5
64
330
1F
100
AcDbEntity
  8
A-1_ピット
  6
Continuous
 62
     2
370
     9
100
AcDbLine
 10
-1136.466485100823
 20
821.6424395586995
 30
0.0
 11
-956.4662624049831
 21
821.6424395586995
 31
0.0
  0
LINE
  5
65
330
1F
100
AcDbEntity
  8
A-1_ピット
  6
Continuous
 62
     2
370
     9
100
AcDbLine
 10
-1138.466788627006
 20
819.6426309121623
 30
0.0
 11
-1138.466788627006
 21
807.4428578969596
 31
0.0
  0
LINE
  5
66
330
1F
100
AcDbEntity
  8
A-1_ピット
  6
JWW_CENTER1
 62
     2
370
     9
100
AcDbLine
 10
-1147.466669855891
 20
791.2276314400339
 30
0.0
 11
-1147.466669855891
 21
822.4228647592906
 31
0.0
  0
LINE
  5
67
330
1F
100
AcDbEntity
  8
A-1_ピット
  6
JWW_CENTER1
 62
     2
370
     9
100
AcDbLine
 10
-1131.140590358425
 20
807.4428578969596
 30
0.0
 11
-1163.954822437183
 21
807.4428578969596
 31
0.0
  0
LINE
  5
68
330
1F
100
AcDbEntity
  8
A-1_ピット
  6
JWW_CENTER1
 62
     2
370
     9
100
AcDbLine
 10
-945.4662013698269
 20
791.2276314400339
 30
0.0
 11
-945.4662013698269
 21
822.4228647592906
 31
0.0
  0
LINE
  5
69
330
1F
100
AcDbEntity
  8
A-1_ピット
  6
JWW_CENTER1
 62
     2
370
     9
100
AcDbLine
 10
-929.1407404719172
 20
807.4428578969596
 30
0.0
 11
-961.9546013909417
 21
807.4428578969596
 31
0.0
  0
LINE
  5
6A
330
1F
100
AcDbEntity
  8
A-1_ピット
  6
Continuous
 62
     2
370
     9
100
AcDbLine
 10
-128.4665494351773
 20
819.6426309121623
 30
0.0
 11
-128.4665494351773
 21
807.4428578969596
 31
0.0
  0
LINE
  5
6B
330
1F
100
AcDbEntity
  8
A-1_ピット
  6
Continuous
 62
     2
370
     9
100
AcDbLine
 10
71.5343578441724
 20
839.6422020164698
 30
0.0
 11
-108.4661122914906
 21
839.6422020164698
 31
0.0
  0
LINE
  5
6C
330
1F
100
AcDbEntity
  8
A-1_ピット
  6
Continuous
 62
     2
370
     9
100
AcDbLine
 10
91.53368150865731
 20
819.6426309121623
 30
0.0
 11
91.53368150865731
 21
807.4428578969596
 31
0.0
  0
LINE
  5
6D
330
1F
100
AcDbEntity
  8
A-1_ピット
  6
Continuous
 62
     2
370
     9
100
AcDbLine
 10
73.53416649070965
 20
819.6426309121623
 30
0.0
 11
73.53416649070965
 21
807.4428578969596
 31
0.0
  0
LINE
  5
6E
330
1F
100
AcDbEntity
  8
A-1_ピット
  6
Continuous
 62
     2
370
     9
100
AcDbLine
 10
-108.4667308910471
 20
821.6424395586995
 30
0.0
 11
71.5343578441724
 21
821.6424395586995
 31
0.0
  0
LINE
  5
6F
330
1F
100
AcDbEntity
  8
A-1_ピット
  6
Continuous
 62
     2
370
     9
100
AcDbLine
 10
-110.4662920977617
 20
819.6426309121623
 30
0.0
 11
-110.4662920977617
 21
807.4428578969596
 31
0.0
  0
LINE
  5
70
330
1F
100
AcDbEntity
  8
A-1_ピット
  6
JWW_CENTER1
 62
     2
370
     9
100
AcDbLine
 10
-119.4661733266469
 20
791.2276314400339
 30
0.0
 11
-119.4661733266469
 21
822.4228647592906
 31
0.0
  0
LINE
  5
71
330
1F
100
AcDbEntity
  8
A-1_ピット
  6
JWW_CENTER1
 62
     2
370
     9
100
AcDbLine
 10
-103.1404649889146
 20
807.4428578969596
 30
0.0
 11
-135.9548207875844
 21
807.4428578969596
 31
0.0
  0
LINE
  5
72
330
1F
100
AcDbEntity
  8
A-1_ピット
  6
JWW_CENTER1
 62
     2
370
     9
100
AcDbLine
 10
82.53305796030418
 20
791.2276314400339
 30
0.0
 11
82.53305796030418
 21
822.4228647592906
 31
0.0
  0
LINE
  5
73
330
1F
100
AcDbEntity
  8
A-1_ピット
  6
JWW_CENTER1
 62
     2
370
     9
100
AcDbLine
 10
98.86012721706095
 20
807.4428578969596
 30
0.0
 11
66.04515281883465
 21
807.4428578969596
 31
0.0
  0
LINE
  5
74
330
1F
100
AcDbEntity
  8
A-2_蓋
  6
Continuous
 62
     3
370
     9
100
AcDbLine
 10
462.5338167757604
 20
-21.55737799567135
 30
0.0
 11
-1527.466810071791
 21
-21.55737799567135
 31
0.0
  0
LINE
  5
75
330
1F
100
AcDbEntity
  8
A-2_蓋
  6
Continuous
 62
     3
370
     9
100
AcDbLine
 10
462.5338167757604
 20
-12.55786792652032
 30
0.0
 11
-1527.466810071791
 21
-12.55786792652032
 31
0.0
  0
LINE
  5
76
330
1F
100
AcDbEntity
  8
A-2_蓋
  6
Continuous
 62
     3
370
     9
100
AcDbLine
 10
-1527.466810071791
 20
689.4422706397804
 30
0.0
 11
462.5338167757604
 21
689.4422706397804
 31
0.0
  0
LINE
  5
77
330
1F
100
AcDbEntity
  8
A-2_蓋
  6
Continuous
 62
     3
370
     9
100
AcDbLine
 10
-1527.466810071791
 20
667.442890888936
 30
0.0
 11
462.5338167757604
 21
667.442890888936
 31
0.0
  0
LINE
  5
78
330
1F
100
AcDbEntity
  8
A-2_蓋
  6
Continuous
 62
     3
370
     9
100
AcDbLine
 10
-1527.466810071791
 20
769.4425345755915
 30
0.0
 11
462.5338167757604
 21
769.4425345755915
 31
0.0
  0
LINE
  5
79
330
1F
100
AcDbEntity
  8
A-2_蓋
  6
Continuous
 62
     3
370
     9
100
AcDbLine
 10
-1527.466810071791
 20
778.4424158044766
 30
0.0
 11
462.5338167757604
 21
778.4424158044766
 31
0.0
  0
LINE
  5
7A
330
1F
100
AcDbEntity
  8
A-2_蓋
  6
Continuous
 62
     3
370
     9
100
AcDbLine
 10
-1527.466810071791
 20
-21.55737799567135
 30
0.0
 11
-1527.466810071791
 21
778.4424158044766
 31
0.0
  0
LINE
  5
7B
330
1F
100
AcDbEntity
  8
A-2_蓋
  6
Continuous
 62
     3
370
     9
100
AcDbLine
 10
462.5338167757604
 20
778.4424158044766
 30
0.0
 11
462.5338167757604
 21
-21.55737799567135
 31
0.0
  0
LINE
  5
7C
330
1F
100
AcDbEntity
  8
A-2_蓋
  6
Continuous
 62
     3
370
     9
100
AcDbLine
 10
-1513.465922587627
 20
489.4412396405195
 30
0.0
 11
-1513.465922587627
 21
667.442890888936
 31
0.0
  0
LINE
  5
7D
330
1F
100
AcDbEntity
  8
A-2_蓋
  6
Continuous
 62
     3
370
     9
100
AcDbLine
 10
-1513.465922587627
 20
689.4422706397804
 30
0.0
 11
-1513.465922587627
 21
769.4425345755915
 31
0.0
  0
LINE
  5
7E
330
1F
100
AcDbEntity
  8
A-2_蓋
  6
Continuous
 62
     3
370
     9
100
AcDbLine
 10
448.5344139305323
 20
769.4425345755915
 30
0.0
 11
448.5344139305323
 21
689.4422706397804
 31
0.0
  0
LINE
  5
7F
330
1F
100
AcDbEntity
  8
A-2_蓋
  6
Continuous
 62
     3
370
     9
100
AcDbLine
 10
448.5344139305323
 20
667.442890888936
 30
0.0
 11
448.5344139305323
 21
489.4412396405195
 31
0.0
  0
LINE
  5
80
330
1F
100
AcDbEntity
  8
A-2_蓋
  6
Continuous
 62
     3
370
     9
100
AcDbLine
 10
377.9338939769849
 20
769.4425345755915
 30
0.0
 11
377.9338939769849
 21
689.4422706397804
 31
0.0
  0
LINE
  5
81
330
1F
100
AcDbEntity
  8
A-2_蓋
  6
Continuous
 62
     3
370
     9
100
AcDbLine
 10
391.934039141681
 20
769.4425345755915
 30
0.0
 11
391.934039141681
 21
689.4422706397804
 31
0.0
  0
LINE
  5
82
330
1F
100
AcDbEntity
  8
A-2_蓋
  6
Continuous
 62
     3
370
     9
100
AcDbLine
 10
377.9338939769849
 20
667.442890888936
 30
0.0
 11
377.9338939769849
 21
489.4412396405195
 31
0.0
  0
LINE
  5
83
330
1F
100
AcDbEntity
  8
A-2_蓋
  6
Continuous
 62
     3
370
     9
100
AcDbLine
 10
391.934039141681
 20
667.442890888936
 30
0.0
 11
391.934039141681
 21
489.4412396405195
 31
0.0
  0
LINE
  5
84
330
1F
100
AcDbEntity
  8
A-2_蓋
  6
Continuous
 62
     3
370
     9
100
AcDbLine
 10
307.3333740234375
 20
769.4425345755915
 30
0.0
 11
307.3333740234375
 21
689.4422706397804
 31
0.0
  0
LINE
  5
85
330
1F
100
AcDbEntity
  8
A-2_蓋
  6
Continuous
 62
     3
370
     9
100
AcDbLine
 10
321.3335191881336
 20
769.4425345755915
 30
0.0
 11
321.3335191881336
 21
689.4422706397804
 31
0.0
  0
LINE
  5
86
330
1F
100
AcDbEntity
  8
A-2_蓋
  6
Continuous
 62
     3
370
     9
100
AcDbLine
 10
307.3333740234375
 20
667.442890888936
 30
0.0
 11
307.3333740234375
 21
489.4412396405195
 31
0.0
  0
LINE
  5
87
330
1F
100
AcDbEntity
  8
A-2_蓋
  6
Continuous
 62
     3
370
     9
100
AcDbLine
 10
321.3335191881336
 20
667.442890888936
 30
0.0
 11
321.3335191881336
 21
489.4412396405195
 31
0.0
  0
LINE
  5
88
330
1F
100
AcDbEntity
  8
A-2_蓋
  6
Continuous
 62
     3
370
     9
100
AcDbLine
 10
236.733843829181
 20
769.4425345755915
 30
0.0
 11
236.733843829181
 21
689.4422706397804
 31
0.0
  0
LINE
  5
89
330
1F
100
AcDbEntity
  8
A-2_蓋
  6
Continuous
 62
     3
370
     9
100
AcDbLine
 10
250.7339889938768
 20
769.4425345755915
 30
0.0
 11
250.7339889938768
 21
689.4422706397804
 31
0.0
  0
LINE
  5
8A
330
1F
100
AcDbEntity
  8
A-2_蓋
  6
Continuous
 62
     3
370
     9
100
AcDbLine
 10
236.733843829181
 20
667.442890888936
 30
0.0
 11
236.733843829181
 21
489.4412396405195
 31
0.0
  0
LINE
  5
8B
330
1F
100
AcDbEntity
  8
A-2_蓋
  6
Continuous
 62
     3
370
     9
100
AcDbLine
 10
250.7339889938768
 20
667.442890888936
 30
0.0
 11
250.7339889938768
 21
489.4412396405195
 31
0.0
  0
LINE
  5
8C
330
1F
100
AcDbEntity
  8
A-2_蓋
  6
Continuous
 62
     3
370
     9
100
AcDbLine
 10
166.1335713154563
 20
769.4425345755915
 30
0.0
 11
166.1335713154563
 21
689.4422706397804
 31
0.0
  0
LINE
  5
8D
330
1F
100
AcDbEntity
  8
A-2_蓋
  6
Continuous
 62
     3
370
     9
100
AcDbLine
 10
180.1334690403294
 20
769.4425345755915
 30
0.0
 11
180.1334690403294
 21
689.4422706397804
 31
0.0
  0
LINE
  5
8E
330
1F
100
AcDbEntity
  8
A-2_蓋
  6
Continuous
 62
     3
370
     9
100
AcDbLine
 10
166.1335713154563
 20
667.442890888936
 30
0.0
 11
166.1335713154563
 21
489.4412396405195
 31
0.0
  0
LINE
  5
8F
330
1F
100
AcDbEntity
  8
A-2_蓋
  6
Continuous
 62
     3
370
     9
100
AcDbLine
 10
180.1334690403294
 20
667.442890888936
 30
0.0
 11
180.1334690403294
 21
489.4412396405195
 31
0.0
  0
LINE
  5
90
330
1F
100
AcDbEntity
  8
A-2_蓋
  6
Continuous
 62
     3
370
     9
100
AcDbLine
 10
95.53329880173152
 20
769.4425345755915
 30
0.0
 11
95.53329880173152
 21
689.4422706397804
 31
0.0
  0
LINE
  5
91
330
1F
100
AcDbEntity
  8
A-2_蓋
  6
Continuous
 62
     3
370
     9
100
AcDbLine
 10
109.533196526605
 20
769.4425345755915
 30
0.0
 11
109.533196526605
 21
689.4422706397804
 31
0.0
  0
LINE
  5
92
330
1F
100
AcDbEntity
  8
A-2_蓋
  6
Continuous
 62
     3
370
     9
100
AcDbLine
 10
95.53329880173152
 20
667.442890888936
 30
0.0
 11
95.53329880173152
 21
489.4412396405195
 31
0.0
  0
LINE
  5
93
330
1F
100
AcDbEntity
  8
A-2_蓋
  6
Continuous
 62
     3
370
     9
100
AcDbLine
 10
109.533196526605
 20
667.442890888936
 30
0.0
 11
109.533196526605
 21
489.4412396405195
 31
0.0
  0
LINE
  5
94
330
1F
100
AcDbEntity
  8
A-2_蓋
  6
Continuous
 62
     3
370
     9
100
AcDbLine
 10
24.9340160472974
 20
769.4425345755915
 30
0.0
 11
24.9340160472974
 21
689.4422706397804
 31
0.0
  0
LINE
  5
95
330
1F
100
AcDbEntity
  8
A-2_蓋
  6
Continuous
 62
     3
370
     9
100
AcDbLine
 10
38.9336663323482
 20
769.4425345755915
 30
0.0
 11
38.9336663323482
 21
689.4422706397804
 31
0.0
  0
LINE
  5
96
330
1F
100
AcDbEntity
  8
A-2_蓋
  6
Continuous
 62
     3
370
     9
100
AcDbLine
 10
24.9340160472974
 20
667.442890888936
 30
0.0
 11
24.9340160472974
 21
489.4412396405195
 31
0.0
  0
LINE
  5
97
330
1F
100
AcDbEntity
  8
A-2_蓋
  6
Continuous
 62
     3
370
     9
100
AcDbLine
 10
38.9336663323482
 20
667.442890888936
 30
0.0
 11
38.9336663323482
 21
489.4412396405195
 31
0.0
  0
LINE
  5
98
330
1F
100
AcDbEntity
  8
A-2_蓋
  6
Continuous
 62
     3
370
     9
100
AcDbLine
 10
-45.66650390625
 20
769.4425345755915
 30
0.0
 11
-45.66650390625
 21
689.4422706397804
 31
0.0
  0
LINE
  5
99
330
1F
100
AcDbEntity
  8
A-2_蓋
  6
Continuous
 62
     3
370
     9
100
AcDbLine
 10
-31.66635874155389
 20
769.4425345755915
 30
0.0
 11
-31.66635874155389
 21
689.4422706397804
 31
0.0
  0
LINE
  5
9A
330
1F
100
AcDbEntity
  8
A-2_蓋
  6
Continuous
 62
     3
370
     9
100
AcDbLine
 10
-45.66650390625
 20
667.442890888936
 30
0.0
 11
-45.66650390625
 21
489.4412396405195
 31
0.0
  0
LINE
  5
9B
330
1F
100
AcDbEntity
  8
A-2_蓋
  6
Continuous
 62
     3
370
     9
100
AcDbLine
 10
-31.66635874155389
 20
667.442890888936
 30
0.0
 11
-31.66635874155389
 21
489.4412396405195
 31
0.0
  0
LINE
  5
9C
330
1F
100
AcDbEntity
  8
A-2_蓋
  6
Continuous
 62
     3
370
     9
100
AcDbLine
 10
-116.2667764199745
 20
769.4425345755915
 30
0.0
 11
-116.2667764199745
 21
689.4422706397804
 31
0.0
  0
LINE
  5
9D
330
1F
100
AcDbEntity
  8
A-2_蓋
  6
Continuous
 62
     3
370
     9
100
AcDbLine
 10
-102.2666312552786
 20
769.4425345755915
 30
0.0
 11
-102.2666312552786
 21
689.4422706397804
 31
0.0
  0
LINE
  5
9E
330
1F
100
AcDbEntity
  8
A-2_蓋
  6
Continuous
 62
     3
370
     9
100
AcDbLine
 10
-116.2667764199745
 20
667.442890888936
 30
0.0
 11
-116.2667764199745
 21
489.4412396405195
 31
0.0
  0
LINE
  5
9F
330
1F
100
AcDbEntity
  8
A-2_蓋
  6
Continuous
 62
     3
370
     9
100
AcDbLine
 10
-102.2666312552786
 20
667.442890888936
 30
0.0
 11
-102.2666312552786
 21
489.4412396405195
 31
0.0
  0
LINE
  5
A0
330
1F
100
AcDbEntity
  8
A-2_蓋
  6
Continuous
 62
     3
370
     9
100
AcDbLine
 10
-186.8660591744086
 20
769.4425345755915
 30
0.0
 11
-186.8660591744086
 21
689.4422706397804
 31
0.0
  0
LINE
  5
A1
330
1F
100
AcDbEntity
  8
A-2_蓋
  6
Continuous
 62
     3
370
     9
100
AcDbLine
 10
-172.8659140097128
 20
769.4425345755915
 30
0.0
 11
-172.8659140097128
 21
689.4422706397804
 31
0.0
  0
LINE
  5
A2
330
1F
100
AcDbEntity
  8
A-2_蓋
  6
Continuous
 62
     3
370
     9
100
AcDbLine
 10
-186.8660591744086
 20
667.442890888936
 30
0.0
 11
-186.8660591744086
 21
489.4412396405195
 31
0.0
  0
LINE
  5
A3
330
1F
100
AcDbEntity
  8
A-2_蓋
  6
Continuous
 62
     3
370
     9
100
AcDbLine
 10
-172.8659140097128
 20
667.442890888936
 30
0.0
 11
-172.8659140097128
 21
489.4412396405195
 31
0.0
  0
LINE
  5
A4
330
1F
100
AcDbEntity
  8
A-2_蓋
  6
Continuous
 62
     3
370
     9
100
AcDbLine
 10
-257.4663316881333
 20
769.4425345755915
 30
0.0
 11
-257.4663316881333
 21
689.4422706397804
 31
0.0
  0
LINE
  5
A5
330
1F
100
AcDbEntity
  8
A-2_蓋
  6
Continuous
 62
     3
370
     9
100
AcDbLine
 10
-243.4664339632602
 20
769.4425345755915
 30
0.0
 11
-243.4664339632602
 21
689.4422706397804
 31
0.0
  0
LINE
  5
A6
330
1F
100
AcDbEntity
  8
A-2_蓋
  6
Continuous
 62
     3
370
     9
100
AcDbLine
 10
-257.4663316881333
 20
667.442890888936
 30
0.0
 11
-257.4663316881333
 21
489.4412396405195
 31
0.0
  0
LINE
  5
A7
330
1F
100
AcDbEntity
  8
A-2_蓋
  6
Continuous
 62
     3
370
     9
100
AcDbLine
 10
-243.4664339632602
 20
667.442890888936
 30
0.0
 11
-243.4664339632602
 21
489.4412396405195
 31
0.0
  0
LINE
  5
A8
330
1F
100
AcDbEntity
  8
A-2_蓋
  6
Continuous
 62
     3
370
     9
100
AcDbLine
 10
-328.0667279217693
 20
769.4425345755915
 30
0.0
 11
-328.0667279217693
 21
689.4422706397804
 31
0.0
  0
LINE
  5
A9
330
1F
100
AcDbEntity
  8
A-2_蓋
  6
Continuous
 62
     3
370
     9
100
AcDbLine
 10
-314.0665827570734
 20
769.4425345755915
 30
0.0
 11
-314.0665827570734
 21
689.4422706397804
 31
0.0
  0
LINE
  5
AA
330
1F
100
AcDbEntity
  8
A-2_蓋
  6
Continuous
 62
     3
370
     9
100
AcDbLine
 10
-328.0667279217693
 20
667.442890888936
 30
0.0
 11
-328.0667279217693
 21
489.4412396405195
 31
0.0
  0
LINE
  5
AB
330
1F
100
AcDbEntity
  8
A-2_蓋
  6
Continuous
 62
     3
370
     9
100
AcDbLine
 10
-314.0665827570734
 20
667.442890888936
 30
0.0
 11
-314.0665827570734
 21
489.4412396405195
 31
0.0
  0
LINE
  5
AC
330
1F
100
AcDbEntity
  8
A-2_蓋
  6
Continuous
 62
     3
370
     9
100
AcDbLine
 10
-398.6660106762034
 20
769.4425345755915
 30
0.0
 11
-398.6660106762034
 21
689.4422706397804
 31
0.0
  0
LINE
  5
AD
330
1F
100
AcDbEntity
  8
A-2_蓋
  6
Continuous
 62
     3
370
     9
100
AcDbLine
 10
-384.6661129513302
 20
769.4425345755915
 30
0.0
 11
-384.6661129513302
 21
689.4422706397804
 31
0.0
  0
LINE
  5
AE
330
1F
100
AcDbEntity
  8
A-2_蓋
  6
Continuous
 62
     3
370
     9
100
AcDbLine
 10
-398.6660106762034
 20
667.442890888936
 30
0.0
 11
-398.6660106762034
 21
489.4412396405195
 31
0.0
  0
LINE
  5
AF
330
1F
100
AcDbEntity
  8
A-2_蓋
  6
Continuous
 62
     3
370
     9
100
AcDbLine
 10
-384.6661129513302
 20
667.442890888936
 30
0.0
 11
-384.6661129513302
 21
489.4412396405195
 31
0.0
  0
LINE
  5
B0
330
1F
100
AcDbEntity
  8
A-2_蓋
  6
Continuous
 62
     3
370
     9
100
AcDbLine
 10
-469.2662831899281
 20
769.4425345755915
 30
0.0
 11
-469.2662831899281
 21
689.4422706397804
 31
0.0
  0
LINE
  5
B1
330
1F
100
AcDbEntity
  8
A-2_蓋
  6
Continuous
 62
     3
370
     9
100
AcDbLine
 10
-455.2663854650547
 20
769.4425345755915
 30
0.0
 11
-455.2663854650547
 21
689.4422706397804
 31
0.0
  0
LINE
  5
B2
330
1F
100
AcDbEntity
  8
A-2_蓋
  6
Continuous
 62
     3
370
     9
100
AcDbLine
 10
-469.2662831899281
 20
667.442890888936
 30
0.0
 11
-469.2662831899281
 21
489.4412396405195
 31
0.0
  0
LINE
  5
B3
330
1F
100
AcDbEntity
  8
A-2_蓋
  6
Continuous
 62
     3
370
     9
100
AcDbLine
 10
-455.2663854650547
 20
667.442890888936
 30
0.0
 11
-455.2663854650547
 21
489.4412396405195
 31
0.0
  0
LINE
  5
B4
330
1F
100
AcDbEntity
  8
A-2_蓋
  6
Continuous
 62
     3
370
     9
100
AcDbLine
 10
-539.8655659443623
 20
769.4425345755915
 30
0.0
 11
-539.8655659443623
 21
689.4422706397804
 31
0.0
  0
LINE
  5
B5
330
1F
100
AcDbEntity
  8
A-2_蓋
  6
Continuous
 62
     3
370
     9
100
AcDbLine
 10
-525.8657919394002
 20
769.4425345755915
 30
0.0
 11
-525.8657919394002
 21
689.4422706397804
 31
0.0
  0
LINE
  5
B6
330
1F
100
AcDbEntity
  8
A-2_蓋
  6
Continuous
 62
     3
370
     9
100
AcDbLine
 10
-539.8655659443623
 20
667.442890888936
 30
0.0
 11
-539.8655659443623
 21
489.4412396405195
 31
0.0
  0
LINE
  5
B7
330
1F
100
AcDbEntity
  8
A-2_蓋
  6
Continuous
 62
     3
370
     9
100
AcDbLine
 10
-525.8657919394002
 20
667.442890888936
 30
0.0
 11
-525.8657919394002
 21
489.4412396405195
 31
0.0
  0
LINE
  5
B8
330
1F
100
AcDbEntity
  8
A-2_蓋
  6
Continuous
 62
     3
370
     9
100
AcDbLine
 10
-610.4660858979096
 20
769.4425345755915
 30
0.0
 11
-610.4660858979096
 21
689.4422706397804
 31
0.0
  0
LINE
  5
B9
330
1F
100
AcDbEntity
  8
A-2_蓋
  6
Continuous
 62
     3
370
     9
100
AcDbLine
 10
-596.4659407332135
 20
769.4425345755915
 30
0.0
 11
-596.4659407332135
 21
689.4422706397804
 31
0.0
  0
LINE
  5
BA
330
1F
100
AcDbEntity
  8
A-2_蓋
  6
Continuous
 62
     3
370
     9
100
AcDbLine
 10
-610.4660858979096
 20
667.442890888936
 30
0.0
 11
-610.4660858979096
 21
489.4412396405195
 31
0.0
  0
LINE
  5
BB
330
1F
100
AcDbEntity
  8
A-2_蓋
  6
Continuous
 62
     3
370
     9
100
AcDbLine
 10
-596.4659407332135
 20
667.442890888936
 30
0.0
 11
-596.4659407332135
 21
489.4412396405195
 31
0.0
  0
LINE
  5
BC
330
1F
100
AcDbEntity
  8
A-2_蓋
  6
Continuous
 62
     3
370
     9
100
AcDbLine
 10
-681.0663584116342
 20
769.4425345755915
 30
0.0
 11
-681.0663584116342
 21
689.4422706397804
 31
0.0
  0
LINE
  5
BD
330
1F
100
AcDbEntity
  8
A-2_蓋
  6
Continuous
 62
     3
370
     9
100
AcDbLine
 10
-667.0664606867609
 20
769.4425345755915
 30
0.0
 11
-667.0664606867609
 21
689.4422706397804
 31
0.0
  0
LINE
  5
BE
330
1F
100
AcDbEntity
  8
A-2_蓋
  6
Continuous
 62
     3
370
     9
100
AcDbLine
 10
-681.0663584116342
 20
667.442890888936
 30
0.0
 11
-681.0663584116342
 21
489.4412396405195
 31
0.0
  0
LINE
  5
BF
330
1F
100
AcDbEntity
  8
A-2_蓋
  6
Continuous
 62
     3
370
     9
100
AcDbLine
 10
-667.0664606867609
 20
667.442890888936
 30
0.0
 11
-667.0664606867609
 21
489.4412396405195
 31
0.0
  0
LINE
  5
C0
330
1F
100
AcDbEntity
  8
A-2_蓋
  6
Continuous
 62
     3
370
     9
100
AcDbLine
 10
-751.6656411660682
 20
769.4425345755915
 30
0.0
 11
-751.6656411660682
 21
689.4422706397804
 31
0.0
  0
LINE
  5
C1
330
1F
100
AcDbEntity
  8
A-2_蓋
  6
Continuous
 62
     3
370
     9
100
AcDbLine
 10
-737.6658671611062
 20
769.4425345755915
 30
0.0
 11
-737.6658671611062
 21
689.4422706397804
 31
0.0
  0
LINE
  5
C2
330
1F
100
AcDbEntity
  8
A-2_蓋
  6
Continuous
 62
     3
370
     9
100
AcDbLine
 10
-751.6656411660682
 20
667.442890888936
 30
0.0
 11
-751.6656411660682
 21
489.4412396405195
 31
0.0
  0
LINE
  5
C3
330
1F
100
AcDbEntity
  8
A-2_蓋
  6
Continuous
 62
     3
370
     9
100
AcDbLine
 10
-737.6658671611062
 20
667.442890888936
 30
0.0
 11
-737.6658671611062
 21
489.4412396405195
 31
0.0
  0
LINE
  5
C4
330
1F
100
AcDbEntity
  8
A-2_蓋
  6
Continuous
 62
     3
370
     9
100
AcDbLine
 10
-822.2661611196156
 20
769.4425345755915
 30
0.0
 11
-822.2661611196156
 21
689.4422706397804
 31
0.0
  0
LINE
  5
C5
330
1F
100
AcDbEntity
  8
A-2_蓋
  6
Continuous
 62
     3
370
     9
100
AcDbLine
 10
-808.2660159549198
 20
769.4425345755915
 30
0.0
 11
-808.2660159549198
 21
689.4422706397804
 31
0.0
  0
LINE
  5
C6
330
1F
100
AcDbEntity
  8
A-2_蓋
  6
Continuous
 62
     3
370
     9
100
AcDbLine
 10
-822.2661611196156
 20
667.442890888936
 30
0.0
 11
-822.2661611196156
 21
489.4412396405195
 31
0.0
  0
LINE
  5
C7
330
1F
100
AcDbEntity
  8
A-2_蓋
  6
Continuous
 62
     3
370
     9
100
AcDbLine
 10
-808.2660159549198
 20
667.442890888936
 30
0.0
 11
-808.2660159549198
 21
489.4412396405195
 31
0.0
  0
LINE
  5
C8
330
1F
100
AcDbEntity
  8
A-2_蓋
  6
Continuous
 62
     3
370
     9
100
AcDbLine
 10
-892.865567593961
 20
769.4425345755915
 30
0.0
 11
-892.865567593961
 21
689.4422706397804
 31
0.0
  0
LINE
  5
C9
330
1F
100
AcDbEntity
  8
A-2_蓋
  6
Continuous
 62
     3
370
     9
100
AcDbLine
 10
-878.8654224292651
 20
769.4425345755915
 30
0.0
 11
-878.8654224292651
 21
689.4422706397804
 31
0.0
  0
LINE
  5
CA
330
1F
100
AcDbEntity
  8
A-2_蓋
  6
Continuous
 62
     3
370
     9
100
AcDbLine
 10
-892.865567593961
 20
667.442890888936
 30
0.0
 11
-892.865567593961
 21
489.4412396405195
 31
0.0
  0
LINE
  5
CB
330
1F
100
AcDbEntity
  8
A-2_蓋
  6
Continuous
 62
     3
370
     9
100
AcDbLine
 10
-878.8654224292651
 20
667.442890888936
 30
0.0
 11
-878.8654224292651
 21
489.4412396405195
 31
0.0
  0
LINE
  5
CC
330
1F
100
AcDbEntity
  8
A-2_蓋
  6
Continuous
 62
     3
370
     9
100
AcDbLine
 10
-963.4657163877745
 20
769.4425345755915
 30
0.0
 11
-963.4657163877745
 21
689.4422706397804
 31
0.0
  0
LINE
  5
CD
330
1F
100
AcDbEntity
  8
A-2_蓋
  6
Continuous
 62
     3
370
     9
100
AcDbLine
 10
-949.4659423828125
 20
769.4425345755915
 30
0.0
 11
-949.4659423828125
 21
689.4422706397804
 31
0.0
  0
LINE
  5
CE
330
1F
100
AcDbEntity
  8
A-2_蓋
  6
Continuous
 62
     3
370
     9
100
AcDbLine
 10
-963.4657163877745
 20
667.442890888936
 30
0.0
 11
-963.4657163877745
 21
489.4412396405195
 31
0.0
  0
LINE
  5
CF
330
1F
100
AcDbEntity
  8
A-2_蓋
  6
Continuous
 62
     3
370
     9
100
AcDbLine
 10
-949.4659423828125
 20
667.442890888936
 30
0.0
 11
-949.4659423828125
 21
489.4412396405195
 31
0.0
  0
LINE
  5
D0
330
1F
100
AcDbEntity
  8
A-2_蓋
  6
Continuous
 62
     3
370
     9
100
AcDbLine
 10
-1034.06611262141
 20
769.4425345755915
 30
0.0
 11
-1034.06611262141
 21
689.4422706397804
 31
0.0
  0
LINE
  5
D1
330
1F
100
AcDbEntity
  8
A-2_蓋
  6
Continuous
 62
     3
370
     9
100
AcDbLine
 10
-1020.066214896537
 20
769.4425345755915
 30
0.0
 11
-1020.066214896537
 21
689.4422706397804
 31
0.0
  0
LINE
  5
D2
330
1F
100
AcDbEntity
  8
A-2_蓋
  6
Continuous
 62
     3
370
     9
100
AcDbLine
 10
-1034.06611262141
 20
667.442890888936
 30
0.0
 11
-1034.06611262141
 21
489.4412396405195
 31
0.0
  0
LINE
  5
D3
330
1F
100
AcDbEntity
  8
A-2_蓋
  6
Continuous
 62
     3
370
     9
100
AcDbLine
 10
-1020.066214896537
 20
667.442890888936
 30
0.0
 11
-1020.066214896537
 21
489.4412396405195
 31
0.0
  0
LINE
  5
D4
330
1F
100
AcDbEntity
  8
A-2_蓋
  6
Continuous
 62
     3
370
     9
100
AcDbLine
 10
-1104.665519095756
 20
769.4425345755915
 30
0.0
 11
-1104.665519095756
 21
689.4422706397804
 31
0.0
  0
LINE
  5
D5
330
1F
100
AcDbEntity
  8
A-2_蓋
  6
Continuous
 62
     3
370
     9
100
AcDbLine
 10
-1090.665497650971
 20
769.4425345755915
 30
0.0
 11
-1090.665497650971
 21
689.4422706397804
 31
0.0
  0
LINE
  5
D6
330
1F
100
AcDbEntity
  8
A-2_蓋
  6
Continuous
 62
     3
370
     9
100
AcDbLine
 10
-1104.665519095756
 20
667.442890888936
 30
0.0
 11
-1104.665519095756
 21
489.4412396405195
 31
0.0
  0
LINE
  5
D7
330
1F
100
AcDbEntity
  8
A-2_蓋
  6
Continuous
 62
     3
370
     9
100
AcDbLine
 10
-1090.665497650971
 20
667.442890888936
 30
0.0
 11
-1090.665497650971
 21
489.4412396405195
 31
0.0
  0
LINE
  5
D8
330
1F
100
AcDbEntity
  8
A-2_蓋
  6
Continuous
 62
     3
370
     9
100
AcDbLine
 10
-1175.265915329392
 20
769.4425345755915
 30
0.0
 11
-1175.265915329392
 21
689.4422706397804
 31
0.0
  0
LINE
  5
D9
330
1F
100
AcDbEntity
  8
A-2_蓋
  6
Continuous
 62
     3
370
     9
100
AcDbLine
 10
-1161.265893884607
 20
769.4425345755915
 30
0.0
 11
-1161.265893884607
 21
689.4422706397804
 31
0.0
  0
LINE
  5
DA
330
1F
100
AcDbEntity
  8
A-2_蓋
  6
Continuous
 62
     3
370
     9
100
AcDbLine
 10
-1175.265915329392
 20
667.442890888936
 30
0.0
 11
-1175.265915329392
 21
489.4412396405195
 31
0.0
  0
LINE
  5
DB
330
1F
100
AcDbEntity
  8
A-2_蓋
  6
Continuous
 62
     3
370
     9
100
AcDbLine
 10
-1161.265893884607
 20
667.442890888936
 30
0.0
 11
-1161.265893884607
 21
489.4412396405195
 31
0.0
  0
LINE
  5
DC
330
1F
100
AcDbEntity
  8
A-2_蓋
  6
Continuous
 62
     3
370
     9
100
AcDbLine
 10
-1245.866187843116
 20
769.4425345755915
 30
0.0
 11
-1245.866187843116
 21
689.4422706397804
 31
0.0
  0
LINE
  5
DD
330
1F
100
AcDbEntity
  8
A-2_蓋
  6
Continuous
 62
     3
370
     9
100
AcDbLine
 10
-1231.866290118243
 20
769.4425345755915
 30
0.0
 11
-1231.866290118243
 21
689.4422706397804
 31
0.0
  0
LINE
  5
DE
330
1F
100
AcDbEntity
  8
A-2_蓋
  6
Continuous
 62
     3
370
     9
100
AcDbLine
 10
-1245.866187843116
 20
667.442890888936
 30
0.0
 11
-1245.866187843116
 21
489.4412396405195
 31
0.0
  0
LINE
  5
DF
330
1F
100
AcDbEntity
  8
A-2_蓋
  6
Continuous
 62
     3
370
     9
100
AcDbLine
 10
-1231.866290118243
 20
667.442890888936
 30
0.0
 11
-1231.866290118243
 21
489.4412396405195
 31
0.0
  0
LINE
  5
E0
330
1F
100
AcDbEntity
  8
A-2_蓋
  6
Continuous
 62
     3
370
     9
100
AcDbLine
 10
-1316.46547059755
 20
769.4425345755915
 30
0.0
 11
-1316.46547059755
 21
689.4422706397804
 31
0.0
  0
LINE
  5
E1
330
1F
100
AcDbEntity
  8
A-2_蓋
  6
Continuous
 62
     3
370
     9
100
AcDbLine
 10
-1302.465572872677
 20
769.4425345755915
 30
0.0
 11
-1302.465572872677
 21
689.4422706397804
 31
0.0
  0
LINE
  5
E2
330
1F
100
AcDbEntity
  8
A-2_蓋
  6
Continuous
 62
     3
370
     9
100
AcDbLine
 10
-1316.46547059755
 20
667.442890888936
 30
0.0
 11
-1316.46547059755
 21
489.4412396405195
 31
0.0
  0
LINE
  5
E3
330
1F
100
AcDbEntity
  8
A-2_蓋
  6
Continuous
 62
     3
370
     9
100
AcDbLine
 10
-1302.465572872677
 20
667.442890888936
 30
0.0
 11
-1302.465572872677
 21
489.4412396405195
 31
0.0
  0
LINE
  5
E4
330
1F
100
AcDbEntity
  8
A-2_蓋
  6
Continuous
 62
     3
370
     9
100
AcDbLine
 10
-1387.065866831186
 20
769.4425345755915
 30
0.0
 11
-1387.065866831186
 21
689.4422706397804
 31
0.0
  0
LINE
  5
E5
330
1F
100
AcDbEntity
  8
A-2_蓋
  6
Continuous
 62
     3
370
     9
100
AcDbLine
 10
-1373.065845386402
 20
769.4425345755915
 30
0.0
 11
-1373.065845386402
 21
689.4422706397804
 31
0.0
  0
LINE
  5
E6
330
1F
100
AcDbEntity
  8
A-2_蓋
  6
Continuous
 62
     3
370
     9
100
AcDbLine
 10
-1387.065866831186
 20
667.442890888936
 30
0.0
 11
-1387.065866831186
 21
489.4412396405195
 31
0.0
  0
LINE
  5
E7
330
1F
100
AcDbEntity
  8
A-2_蓋
  6
Continuous
 62
     3
370
     9
100
AcDbLine
 10
-1373.065845386402
 20
667.442890888936
 30
0.0
 11
-1373.065845386402
 21
489.4412396405195
 31
0.0
  0
LINE
  5
E8
330
1F
100
AcDbEntity
  8
A-2_蓋
  6
Continuous
 62
     3
370
     9
100
AcDbLine
 10
-1457.666263064823
 20
769.4425345755915
 30
0.0
 11
-1457.666263064823
 21
689.4422706397804
 31
0.0
  0
LINE
  5
E9
330
1F
100
AcDbEntity
  8
A-2_蓋
  6
Continuous
 62
     3
370
     9
100
AcDbLine
 10
-1443.666117900127
 20
769.4425345755915
 30
0.0
 11
-1443.666117900127
 21
689.4422706397804
 31
0.0
  0
LINE
  5
EA
330
1F
100
AcDbEntity
  8
A-2_蓋
  6
Continuous
 62
     3
370
     9
100
AcDbLine
 10
-1457.666263064823
 20
667.442890888936
 30
0.0
 11
-1457.666263064823
 21
489.4412396405195
 31
0.0
  0
LINE
  5
EB
330
1F
100
AcDbEntity
  8
A-2_蓋
  6
Continuous
 62
     3
370
     9
100
AcDbLine
 10
-1443.666117900127
 20
667.442890888936
 30
0.0
 11
-1443.666117900127
 21
489.4412396405195
 31
0.0
  0
LINE
  5
EC
330
1F
100
AcDbEntity
  8
A-2_蓋
  6
Continuous
 62
     3
370
     9
100
AcDbLine
 10
-1513.465922587627
 20
667.442890888936
 30
0.0
 11
-1443.666117900127
 21
689.4422706397804
 31
0.0
  0
LINE
  5
ED
330
1F
100
AcDbEntity
  8
A-2_蓋
  6
Continuous
 62
     3
370
     9
100
AcDbLine
 10
-1442.866144953548
 20
667.442890888936
 30
0.0
 11
-1373.066463985959
 21
689.4422706397804
 31
0.0
  0
LINE
  5
EE
330
1F
100
AcDbEntity
  8
A-2_蓋
  6
Continuous
 62
     3
370
     9
100
AcDbLine
 10
-1372.265748719911
 20
667.442890888936
 30
0.0
 11
-1302.466315192145
 21
689.4422706397804
 31
0.0
  0
LINE
  5
EF
330
1F
100
AcDbEntity
  8
A-2_蓋
  6
Continuous
 62
     3
370
     9
100
AcDbLine
 10
-1301.665847365921
 20
667.442890888936
 30
0.0
 11
-1231.866290118243
 21
689.4422706397804
 31
0.0
  0
LINE
  5
F0
330
1F
100
AcDbEntity
  8
A-2_蓋
  6
Continuous
 62
     3
370
     9
100
AcDbLine
 10
-1231.066069731841
 20
667.442890888936
 30
0.0
 11
-1161.266265044341
 21
689.4422706397804
 31
0.0
  0
LINE
  5
F1
330
1F
100
AcDbEntity
  8
A-2_蓋
  6
Continuous
 62
     3
370
     9
100
AcDbLine
 10
-1160.466044657939
 20
667.442890888936
 30
0.0
 11
-1090.666239970439
 21
689.4422706397804
 31
0.0
  0
LINE
  5
F2
330
1F
100
AcDbEntity
  8
A-2_蓋
  6
Continuous
 62
     3
370
     9
100
AcDbLine
 10
-1089.865895864126
 20
667.442890888936
 30
0.0
 11
-1020.066214896537
 21
689.4422706397804
 31
0.0
  0
LINE
  5
F3
330
1F
100
AcDbEntity
  8
A-2_蓋
  6
Continuous
 62
     3
370
     9
100
AcDbLine
 10
-1019.265994510135
 20
667.442890888936
 30
0.0
 11
-949.466189822635
 21
689.4422706397804
 31
0.0
  0
LINE
  5
F4
330
1F
100
AcDbEntity
  8
A-2_蓋
  6
Continuous
 62
     3
370
     9
100
AcDbLine
 10
-948.6659694362331
 20
667.442890888936
 30
0.0
 11
-878.8662884686444
 21
689.4422706397804
 31
0.0
  0
LINE
  5
F5
330
1F
100
AcDbEntity
  8
A-2_蓋
  6
Continuous
 62
     3
370
     9
100
AcDbLine
 10
-878.0656969225083
 20
667.442890888936
 30
0.0
 11
-808.2660159549198
 21
689.4422706397804
 31
0.0
  0
LINE
  5
F6
330
1F
100
AcDbEntity
  8
A-2_蓋
  6
Continuous
 62
     3
370
     9
100
AcDbLine
 10
-807.4657955685177
 20
667.442890888936
 30
0.0
 11
-737.6663620407516
 21
689.4422706397804
 31
0.0
  0
LINE
  5
F7
330
1F
100
AcDbEntity
  8
A-2_蓋
  6
Continuous
 62
     3
370
     9
100
AcDbLine
 10
-736.8661416543495
 20
667.442890888936
 30
0.0
 11
-667.0664606867609
 21
689.4422706397804
 31
0.0
  0
LINE
  5
F8
330
1F
100
AcDbEntity
  8
A-2_蓋
  6
Continuous
 62
     3
370
     9
100
AcDbLine
 10
-666.2659928605362
 20
667.442890888936
 30
0.0
 11
-596.4663118929477
 21
689.4422706397804
 31
0.0
  0
LINE
  5
F9
330
1F
100
AcDbEntity
  8
A-2_蓋
  6
Continuous
 62
     3
370
     9
100
AcDbLine
 10
-595.6660915065456
 20
667.442890888936
 30
0.0
 11
-525.8662868190456
 21
689.4422706397804
 31
0.0
  0
LINE
  5
FA
330
1F
100
AcDbEntity
  8
A-2_蓋
  6
Continuous
 62
     3
370
     9
100
AcDbLine
 10
-525.0660664326435
 20
667.442890888936
 30
0.0
 11
-455.2663854650547
 21
689.4422706397804
 31
0.0
  0
LINE
  5
FB
330
1F
100
AcDbEntity
  8
A-2_蓋
  6
Continuous
 62
     3
370
     9
100
AcDbLine
 10
-454.4661650786529
 20
667.442890888936
 30
0.0
 11
-384.6664841110641
 21
689.4422706397804
 31
0.0
  0
LINE
  5
FC
330
1F
100
AcDbEntity
  8
A-2_蓋
  6
Continuous
 62
     3
370
     9
100
AcDbLine
 10
-383.866263724662
 20
667.442890888936
 30
0.0
 11
-314.0665827570734
 21
689.4422706397804
 31
0.0
  0
LINE
  5
FD
330
1F
100
AcDbEntity
  8
A-2_蓋
  6
Continuous
 62
     3
370
     9
100
AcDbLine
 10
-313.2659912109375
 20
667.442890888936
 30
0.0
 11
-243.4664339632602
 21
689.4422706397804
 31
0.0
  0
LINE
  5
FE
330
1F
100
AcDbEntity
  8
A-2_蓋
  6
Continuous
 62
     3
370
     9
100
AcDbLine
 10
-242.6662135768581
 20
667.442890888936
 30
0.0
 11
-172.8665326092693
 21
689.4422706397804
 31
0.0
  0
LINE
  5
FF
330
1F
100
AcDbEntity
  8
A-2_蓋
  6
Continuous
 62
     3
370
     9
100
AcDbLine
 10
-172.0663122228672
 20
667.442890888936
 30
0.0
 11
-102.2666312552786
 21
689.4422706397804
 31
0.0
  0
LINE
  5
100
330
1F
100
AcDbEntity
  8
A-2_蓋
  6
Continuous
 62
     3
370
     9
100
AcDbLine
 10
-101.4664108688766
 20
667.442890888936
 30
0.0
 11
-31.6669773411104
 21
689.4422706397804
 31
0.0
  0
LINE
  5
101
330
1F
100
AcDbEntity
  8
A-2_蓋
  6
Continuous
 62
     3
370
     9
100
AcDbLine
 10
-30.8661383551518
 20
667.442890888936
 30
0.0
 11
38.9336663323482
 21
689.4422706397804
 31
0.0
  0
LINE
  5
102
330
1F
100
AcDbEntity
  8
A-2_蓋
  6
Continuous
 62
     3
370
     9
100
AcDbLine
 10
39.73339183910497
 20
667.442890888936
 30
0.0
 11
109.533196526605
 21
689.4422706397804
 31
0.0
  0
LINE
  5
103
330
1F
100
AcDbEntity
  8
A-2_蓋
  6
Continuous
 62
     3
370
     9
100
AcDbLine
 10
110.3334169130068
 20
667.442890888936
 30
0.0
 11
180.1332216005068
 21
689.4422706397804
 31
0.0
  0
LINE
  5
104
330
1F
100
AcDbEntity
  8
A-2_蓋
  6
Continuous
 62
     3
370
     9
100
AcDbLine
 10
180.9339368665542
 20
667.442890888936
 30
0.0
 11
250.7334941142315
 21
689.4422706397804
 31
0.0
  0
LINE
  5
105
330
1F
100
AcDbEntity
  8
A-2_蓋
  6
Continuous
 62
     3
370
     9
100
AcDbLine
 10
251.5339619404563
 20
667.442890888936
 30
0.0
 11
321.3335191881336
 21
689.4422706397804
 31
0.0
  0
LINE
  5
106
330
1F
100
AcDbEntity
  8
A-2_蓋
  6
Continuous
 62
     3
370
     9
100
AcDbLine
 10
322.1332446948904
 20
667.442890888936
 30
0.0
 11
391.933296822213
 21
689.4422706397804
 31
0.0
  0
LINE
  5
107
330
1F
100
AcDbEntity
  8
A-2_蓋
  6
Continuous
 62
     3
370
     9
100
AcDbLine
 10
392.7332697687925
 20
667.442890888936
 30
0.0
 11
462.5333218961151
 21
689.4422706397804
 31
0.0
  0
LINE
  5
108
330
1F
100
AcDbEntity
  8
A-2_蓋
  6
Continuous
 62
     3
370
     9
100
AcDbLine
 10
-1527.466810071791
 20
685.2815700221709
 30
0.0
 11
-1514.266142974029
 21
689.4422706397804
 31
0.0
  0
LINE
  5
109
330
1F
100
AcDbEntity
  8
A-2_蓋
  6
Continuous
 62
     3
370
     9
100
AcDbLine
 10
-1527.466810071791
 20
489.4424768396328
 30
0.0
 11
462.5338167757604
 21
489.4424768396328
 31
0.0
  0
LINE
  5
10A
330
1F
100
AcDbEntity
  8
A-2_蓋
  6
Continuous
 62
     3
370
     9
100
AcDbLine
 10
-1527.466810071791
 20
467.443097088788
 30
0.0
 11
462.5338167757604
 21
467.443097088788
 31
0.0
  0
LINE
  5
10B
330
1F
100
AcDbEntity
  8
A-2_蓋
  6
Continuous
 62
     3
370
     9
100
AcDbLine
 10
-1513.465922587627
 20
289.4414458403716
 30
0.0
 11
-1513.465922587627
 21
467.443097088788
 31
0.0
  0
LINE
  5
10C
330
1F
100
AcDbEntity
  8
A-2_蓋
  6
Continuous
 62
     3
370
     9
100
AcDbLine
 10
448.5344139305323
 20
467.443097088788
 30
0.0
 11
448.5344139305323
 21
289.4414458403716
 31
0.0
  0
LINE
  5
10D
330
1F
100
AcDbEntity
  8
A-2_蓋
  6
Continuous
 62
     3
370
     9
100
AcDbLine
 10
377.9338939769849
 20
467.443097088788
 30
0.0
 11
377.9338939769849
 21
289.4414458403716
 31
0.0
  0
LINE
  5
10E
330
1F
100
AcDbEntity
  8
A-2_蓋
  6
Continuous
 62
     3
370
     9
100
AcDbLine
 10
391.934039141681
 20
467.443097088788
 30
0.0
 11
391.934039141681
 21
289.4414458403716
 31
0.0
  0
LINE
  5
10F
330
1F
100
AcDbEntity
  8
A-2_蓋
  6
Continuous
 62
     3
370
     9
100
AcDbLine
 10
307.3333740234375
 20
467.443097088788
 30
0.0
 11
307.3333740234375
 21
289.4414458403716
 31
0.0
  0
LINE
  5
110
330
1F
100
AcDbEntity
  8
A-2_蓋
  6
Continuous
 62
     3
370
     9
100
AcDbLine
 10
321.3335191881336
 20
467.443097088788
 30
0.0
 11
321.3335191881336
 21
289.4414458403716
 31
0.0
  0
LINE
  5
111
330
1F
100
AcDbEntity
  8
A-2_蓋
  6
Continuous
 62
     3
370
     9
100
AcDbLine
 10
236.733843829181
 20
467.443097088788
 30
0.0
 11
236.733843829181
 21
289.4414458403716
 31
0.0
  0
LINE
  5
112
330
1F
100
AcDbEntity
  8
A-2_蓋
  6
Continuous
 62
     3
370
     9
100
AcDbLine
 10
250.7339889938768
 20
467.443097088788
 30
0.0
 11
250.7339889938768
 21
289.4414458403716
 31
0.0
  0
LINE
  5
113
330
1F
100
AcDbEntity
  8
A-2_蓋
  6
Continuous
 62
     3
370
     9
100
AcDbLine
 10
166.1335713154563
 20
467.443097088788
 30
0.0
 11
166.1335713154563
 21
289.4414458403716
 31
0.0
  0
LINE
  5
114
330
1F
100
AcDbEntity
  8
A-2_蓋
  6
Continuous
 62
     3
370
     9
100
AcDbLine
 10
180.1334690403294
 20
467.443097088788
 30
0.0
 11
180.1334690403294
 21
289.4414458403716
 31
0.0
  0
LINE
  5
115
330
1F
100
AcDbEntity
  8
A-2_蓋
  6
Continuous
 62
     3
370
     9
100
AcDbLine
 10
95.53329880173152
 20
467.443097088788
 30
0.0
 11
95.53329880173152
 21
289.4414458403716
 31
0.0
  0
LINE
  5
116
330
1F
100
AcDbEntity
  8
A-2_蓋
  6
Continuous
 62
     3
370
     9
100
AcDbLine
 10
109.533196526605
 20
467.443097088788
 30
0.0
 11
109.533196526605
 21
289.4414458403716
 31
0.0
  0
LINE
  5
117
330
1F
100
AcDbEntity
  8
A-2_蓋
  6
Continuous
 62
     3
370
     9
100
AcDbLine
 10
24.9340160472974
 20
467.443097088788
 30
0.0
 11
24.9340160472974
 21
289.4414458403716
 31
0.0
  0
LINE
  5
118
330
1F
100
AcDbEntity
  8
A-2_蓋
  6
Continuous
 62
     3
370
     9
100
AcDbLine
 10
38.9336663323482
 20
467.443097088788
 30
0.0
 11
38.9336663323482
 21
289.4414458403716
 31
0.0
  0
LINE
  5
119
330
1F
100
AcDbEntity
  8
A-2_蓋
  6
Continuous
 62
     3
370
     9
100
AcDbLine
 10
-45.66650390625
 20
467.443097088788
 30
0.0
 11
-45.66650390625
 21
289.4414458403716
 31
0.0
  0
LINE
  5
11A
330
1F
100
AcDbEntity
  8
A-2_蓋
  6
Continuous
 62
     3
370
     9
100
AcDbLine
 10
-31.66635874155389
 20
467.443097088788
 30
0.0
 11
-31.66635874155389
 21
289.4414458403716
 31
0.0
  0
LINE
  5
11B
330
1F
100
AcDbEntity
  8
A-2_蓋
  6
Continuous
 62
     3
370
     9
100
AcDbLine
 10
-116.2667764199745
 20
467.443097088788
 30
0.0
 11
-116.2667764199745
 21
289.4414458403716
 31
0.0
  0
LINE
  5
11C
330
1F
100
AcDbEntity
  8
A-2_蓋
  6
Continuous
 62
     3
370
     9
100
AcDbLine
 10
-102.2666312552786
 20
467.443097088788
 30
0.0
 11
-102.2666312552786
 21
289.4414458403716
 31
0.0
  0
LINE
  5
11D
330
1F
100
AcDbEntity
  8
A-2_蓋
  6
Continuous
 62
     3
370
     9
100
AcDbLine
 10
-186.8660591744086
 20
467.443097088788
 30
0.0
 11
-186.8660591744086
 21
289.4414458403716
 31
0.0
  0
LINE
  5
11E
330
1F
100
AcDbEntity
  8
A-2_蓋
  6
Continuous
 62
     3
370
     9
100
AcDbLine
 10
-172.8659140097128
 20
467.443097088788
 30
0.0
 11
-172.8659140097128
 21
289.4414458403716
 31
0.0
  0
LINE
  5
11F
330
1F
100
AcDbEntity
  8
A-2_蓋
  6
Continuous
 62
     3
370
     9
100
AcDbLine
 10
-257.4663316881333
 20
467.443097088788
 30
0.0
 11
-257.4663316881333
 21
289.4414458403716
 31
0.0
  0
LINE
  5
120
330
1F
100
AcDbEntity
  8
A-2_蓋
  6
Continuous
 62
     3
370
     9
100
AcDbLine
 10
-243.4664339632602
 20
467.443097088788
 30
0.0
 11
-243.4664339632602
 21
289.4414458403716
 31
0.0
  0
LINE
  5
121
330
1F
100
AcDbEntity
  8
A-2_蓋
  6
Continuous
 62
     3
370
     9
100
AcDbLine
 10
-328.0667279217693
 20
467.443097088788
 30
0.0
 11
-328.0667279217693
 21
289.4414458403716
 31
0.0
  0
LINE
  5
122
330
1F
100
AcDbEntity
  8
A-2_蓋
  6
Continuous
 62
     3
370
     9
100
AcDbLine
 10
-314.0665827570734
 20
467.443097088788
 30
0.0
 11
-314.0665827570734
 21
289.4414458403716
 31
0.0
  0
LINE
  5
123
330
1F
100
AcDbEntity
  8
A-2_蓋
  6
Continuous
 62
     3
370
     9
100
AcDbLine
 10
-398.6660106762034
 20
467.443097088788
 30
0.0
 11
-398.6660106762034
 21
289.4414458403716
 31
0.0
  0
LINE
  5
124
330
1F
100
AcDbEntity
  8
A-2_蓋
  6
Continuous
 62
     3
370
     9
100
AcDbLine
 10
-384.6661129513302
 20
467.443097088788
 30
0.0
 11
-384.6661129513302
 21
289.4414458403716
 31
0.0
  0
LINE
  5
125
330
1F
100
AcDbEntity
  8
A-2_蓋
  6
Continuous
 62
     3
370
     9
100
AcDbLine
 10
-469.2662831899281
 20
467.443097088788
 30
0.0
 11
-469.2662831899281
 21
289.4414458403716
 31
0.0
  0
LINE
  5
126
330
1F
100
AcDbEntity
  8
A-2_蓋
  6
Continuous
 62
     3
370
     9
100
AcDbLine
 10
-455.2663854650547
 20
467.443097088788
 30
0.0
 11
-455.2663854650547
 21
289.4414458403716
 31
0.0
  0
LINE
  5
127
330
1F
100
AcDbEntity
  8
A-2_蓋
  6
Continuous
 62
     3
370
     9
100
AcDbLine
 10
-539.8655659443623
 20
467.443097088788
 30
0.0
 11
-539.8655659443623
 21
289.4414458403716
 31
0.0
  0
LINE
  5
128
330
1F
100
AcDbEntity
  8
A-2_蓋
  6
Continuous
 62
     3
370
     9
100
AcDbLine
 10
-525.8657919394002
 20
467.443097088788
 30
0.0
 11
-525.8657919394002
 21
289.4414458403716
 31
0.0
  0
LINE
  5
129
330
1F
100
AcDbEntity
  8
A-2_蓋
  6
Continuous
 62
     3
370
     9
100
AcDbLine
 10
-610.4660858979096
 20
467.443097088788
 30
0.0
 11
-610.4660858979096
 21
289.4414458403716
 31
0.0
  0
LINE
  5
12A
330
1F
100
AcDbEntity
  8
A-2_蓋
  6
Continuous
 62
     3
370
     9
100
AcDbLine
 10
-596.4659407332135
 20
467.443097088788
 30
0.0
 11
-596.4659407332135
 21
289.4414458403716
 31
0.0
  0
LINE
  5
12B
330
1F
100
AcDbEntity
  8
A-2_蓋
  6
Continuous
 62
     3
370
     9
100
AcDbLine
 10
-681.0663584116342
 20
467.443097088788
 30
0.0
 11
-681.0663584116342
 21
289.4414458403716
 31
0.0
  0
LINE
  5
12C
330
1F
100
AcDbEntity
  8
A-2_蓋
  6
Continuous
 62
     3
370
     9
100
AcDbLine
 10
-667.0664606867609
 20
467.443097088788
 30
0.0
 11
-667.0664606867609
 21
289.4414458403716
 31
0.0
  0
LINE
  5
12D
330
1F
100
AcDbEntity
  8
A-2_蓋
  6
Continuous
 62
     3
370
     9
100
AcDbLine
 10
-751.6656411660682
 20
467.443097088788
 30
0.0
 11
-751.6656411660682
 21
289.4414458403716
 31
0.0
  0
LINE
  5
12E
330
1F
100
AcDbEntity
  8
A-2_蓋
  6
Continuous
 62
     3
370
     9
100
AcDbLine
 10
-737.6658671611062
 20
467.443097088788
 30
0.0
 11
-737.6658671611062
 21
289.4414458403716
 31
0.0
  0
LINE
  5
12F
330
1F
100
AcDbEntity
  8
A-2_蓋
  6
Continuous
 62
     3
370
     9
100
AcDbLine
 10
-822.2661611196156
 20
467.443097088788
 30
0.0
 11
-822.2661611196156
 21
289.4414458403716
 31
0.0
  0
LINE
  5
130
330
1F
100
AcDbEntity
  8
A-2_蓋
  6
Continuous
 62
     3
370
     9
100
AcDbLine
 10
-808.2660159549198
 20
467.443097088788
 30
0.0
 11
-808.2660159549198
 21
289.4414458403716
 31
0.0
  0
LINE
  5
131
330
1F
100
AcDbEntity
  8
A-2_蓋
  6
Continuous
 62
     3
370
     9
100
AcDbLine
 10
-892.865567593961
 20
467.443097088788
 30
0.0
 11
-892.865567593961
 21
289.4414458403716
 31
0.0
  0
LINE
  5
132
330
1F
100
AcDbEntity
  8
A-2_蓋
  6
Continuous
 62
     3
370
     9
100
AcDbLine
 10
-878.8654224292651
 20
467.443097088788
 30
0.0
 11
-878.8654224292651
 21
289.4414458403716
 31
0.0
  0
LINE
  5
133
330
1F
100
AcDbEntity
  8
A-2_蓋
  6
Continuous
 62
     3
370
     9
100
AcDbLine
 10
-963.4657163877745
 20
467.443097088788
 30
0.0
 11
-963.4657163877745
 21
289.4414458403716
 31
0.0
  0
LINE
  5
134
330
1F
100
AcDbEntity
  8
A-2_蓋
  6
Continuous
 62
     3
370
     9
100
AcDbLine
 10
-949.4659423828125
 20
467.443097088788
 30
0.0
 11
-949.4659423828125
 21
289.4414458403716
 31
0.0
  0
LINE
  5
135
330
1F
100
AcDbEntity
  8
A-2_蓋
  6
Continuous
 62
     3
370
     9
100
AcDbLine
 10
-1034.06611262141
 20
467.443097088788
 30
0.0
 11
-1034.06611262141
 21
289.4414458403716
 31
0.0
  0
LINE
  5
136
330
1F
100
AcDbEntity
  8
A-2_蓋
  6
Continuous
 62
     3
370
     9
100
AcDbLine
 10
-1020.066214896537
 20
467.443097088788
 30
0.0
 11
-1020.066214896537
 21
289.4414458403716
 31
0.0
  0
LINE
  5
137
330
1F
100
AcDbEntity
  8
A-2_蓋
  6
Continuous
 62
     3
370
     9
100
AcDbLine
 10
-1104.665519095756
 20
467.443097088788
 30
0.0
 11
-1104.665519095756
 21
289.4414458403716
 31
0.0
  0
LINE
  5
138
330
1F
100
AcDbEntity
  8
A-2_蓋
  6
Continuous
 62
     3
370
     9
100
AcDbLine
 10
-1090.665497650971
 20
467.443097088788
 30
0.0
 11
-1090.665497650971
 21
289.4414458403716
 31
0.0
  0
LINE
  5
139
330
1F
100
AcDbEntity
  8
A-2_蓋
  6
Continuous
 62
     3
370
     9
100
AcDbLine
 10
-1175.265915329392
 20
467.443097088788
 30
0.0
 11
-1175.265915329392
 21
289.4414458403716
 31
0.0
  0
LINE
  5
13A
330
1F
100
AcDbEntity
  8
A-2_蓋
  6
Continuous
 62
     3
370
     9
100
AcDbLine
 10
-1161.265893884607
 20
467.443097088788
 30
0.0
 11
-1161.265893884607
 21
289.4414458403716
 31
0.0
  0
LINE
  5
13B
330
1F
100
AcDbEntity
  8
A-2_蓋
  6
Continuous
 62
     3
370
     9
100
AcDbLine
 10
-1245.866187843116
 20
467.443097088788
 30
0.0
 11
-1245.866187843116
 21
289.4414458403716
 31
0.0
  0
LINE
  5
13C
330
1F
100
AcDbEntity
  8
A-2_蓋
  6
Continuous
 62
     3
370
     9
100
AcDbLine
 10
-1231.866290118243
 20
467.443097088788
 30
0.0
 11
-1231.866290118243
 21
289.4414458403716
 31
0.0
  0
LINE
  5
13D
330
1F
100
AcDbEntity
  8
A-2_蓋
  6
Continuous
 62
     3
370
     9
100
AcDbLine
 10
-1316.46547059755
 20
467.443097088788
 30
0.0
 11
-1316.46547059755
 21
289.4414458403716
 31
0.0
  0
LINE
  5
13E
330
1F
100
AcDbEntity
  8
A-2_蓋
  6
Continuous
 62
     3
370
     9
100
AcDbLine
 10
-1302.465572872677
 20
467.443097088788
 30
0.0
 11
-1302.465572872677
 21
289.4414458403716
 31
0.0
  0
LINE
  5
13F
330
1F
100
AcDbEntity
  8
A-2_蓋
  6
Continuous
 62
     3
370
     9
100
AcDbLine
 10
-1387.065866831186
 20
467.443097088788
 30
0.0
 11
-1387.065866831186
 21
289.4414458403716
 31
0.0
  0
LINE
  5
140
330
1F
100
AcDbEntity
  8
A-2_蓋
  6
Continuous
 62
     3
370
     9
100
AcDbLine
 10
-1373.065845386402
 20
467.443097088788
 30
0.0
 11
-1373.065845386402
 21
289.4414458403716
 31
0.0
  0
LINE
  5
141
330
1F
100
AcDbEntity
  8
A-2_蓋
  6
Continuous
 62
     3
370
     9
100
AcDbLine
 10
-1457.666263064823
 20
467.443097088788
 30
0.0
 11
-1457.666263064823
 21
289.4414458403716
 31
0.0
  0
LINE
  5
142
330
1F
100
AcDbEntity
  8
A-2_蓋
  6
Continuous
 62
     3
370
     9
100
AcDbLine
 10
-1443.666117900127
 20
467.443097088788
 30
0.0
 11
-1443.666117900127
 21
289.4414458403716
 31
0.0
  0
LINE
  5
143
330
1F
100
AcDbEntity
  8
A-2_蓋
  6
Continuous
 62
     3
370
     9
100
AcDbLine
 10
-1513.465922587627
 20
467.443097088788
 30
0.0
 11
-1443.666117900127
 21
489.4424768396328
 31
0.0
  0
LINE
  5
144
330
1F
100
AcDbEntity
  8
A-2_蓋
  6
Continuous
 62
     3
370
     9
100
AcDbLine
 10
-1442.866144953548
 20
467.443097088788
 30
0.0
 11
-1373.066463985959
 21
489.4424768396328
 31
0.0
  0
LINE
  5
145
330
1F
100
AcDbEntity
  8
A-2_蓋
  6
Continuous
 62
     3
370
     9
100
AcDbLine
 10
-1372.265748719911
 20
467.443097088788
 30
0.0
 11
-1302.466315192145
 21
489.4424768396328
 31
0.0
  0
LINE
  5
146
330
1F
100
AcDbEntity
  8
A-2_蓋
  6
Continuous
 62
     3
370
     9
100
AcDbLine
 10
-1301.665847365921
 20
467.443097088788
 30
0.0
 11
-1231.866290118243
 21
489.4424768396328
 31
0.0
  0
LINE
  5
147
330
1F
100
AcDbEntity
  8
A-2_蓋
  6
Continuous
 62
     3
370
     9
100
AcDbLine
 10
-1231.066069731841
 20
467.443097088788
 30
0.0
 11
-1161.266265044341
 21
489.4424768396328
 31
0.0
  0
LINE
  5
148
330
1F
100
AcDbEntity
  8
A-2_蓋
  6
Continuous
 62
     3
370
     9
100
AcDbLine
 10
-1160.466044657939
 20
467.443097088788
 30
0.0
 11
-1090.666239970439
 21
489.4424768396328
 31
0.0
  0
LINE
  5
149
330
1F
100
AcDbEntity
  8
A-2_蓋
  6
Continuous
 62
     3
370
     9
100
AcDbLine
 10
-1089.865895864126
 20
467.443097088788
 30
0.0
 11
-1020.066214896537
 21
489.4424768396328
 31
0.0
  0
LINE
  5
14A
330
1F
100
AcDbEntity
  8
A-2_蓋
  6
Continuous
 62
     3
370
     9
100
AcDbLine
 10
-1019.265994510135
 20
467.443097088788
 30
0.0
 11
-949.466189822635
 21
489.4424768396328
 31
0.0
  0
LINE
  5
14B
330
1F
100
AcDbEntity
  8
A-2_蓋
  6
Continuous
 62
     3
370
     9
100
AcDbLine
 10
-948.6659694362331
 20
467.443097088788
 30
0.0
 11
-878.8662884686444
 21
489.4424768396328
 31
0.0
  0
LINE
  5
14C
330
1F
100
AcDbEntity
  8
A-2_蓋
  6
Continuous
 62
     3
370
     9
100
AcDbLine
 10
-878.0656969225083
 20
467.443097088788
 30
0.0
 11
-808.2660159549198
 21
489.4424768396328
 31
0.0
  0
LINE
  5
14D
330
1F
100
AcDbEntity
  8
A-2_蓋
  6
Continuous
 62
     3
370
     9
100
AcDbLine
 10
-807.4657955685177
 20
467.443097088788
 30
0.0
 11
-737.6663620407516
 21
489.4424768396328
 31
0.0
  0
LINE
  5
14E
330
1F
100
AcDbEntity
  8
A-2_蓋
  6
Continuous
 62
     3
370
     9
100
AcDbLine
 10
-736.8661416543495
 20
467.443097088788
 30
0.0
 11
-667.0664606867609
 21
489.4424768396328
 31
0.0
  0
LINE
  5
14F
330
1F
100
AcDbEntity
  8
A-2_蓋
  6
Continuous
 62
     3
370
     9
100
AcDbLine
 10
-666.2659928605362
 20
467.443097088788
 30
0.0
 11
-596.4663118929477
 21
489.4424768396328
 31
0.0
  0
LINE
  5
150
330
1F
100
AcDbEntity
  8
A-2_蓋
  6
Continuous
 62
     3
370
     9
100
AcDbLine
 10
-595.6660915065456
 20
467.443097088788
 30
0.0
 11
-525.8662868190456
 21
489.4424768396328
 31
0.0
  0
LINE
  5
151
330
1F
100
AcDbEntity
  8
A-2_蓋
  6
Continuous
 62
     3
370
     9
100
AcDbLine
 10
-525.0660664326435
 20
467.443097088788
 30
0.0
 11
-455.2663854650547
 21
489.4424768396328
 31
0.0
  0
LINE
  5
152
330
1F
100
AcDbEntity
  8
A-2_蓋
  6
Continuous
 62
     3
370
     9
100
AcDbLine
 10
-454.4661650786529
 20
467.443097088788
 30
0.0
 11
-384.6664841110641
 21
489.4424768396328
 31
0.0
  0
LINE
  5
153
330
1F
100
AcDbEntity
  8
A-2_蓋
  6
Continuous
 62
     3
370
     9
100
AcDbLine
 10
-383.866263724662
 20
467.443097088788
 30
0.0
 11
-314.0665827570734
 21
489.4424768396328
 31
0.0
  0
LINE
  5
154
330
1F
100
AcDbEntity
  8
A-2_蓋
  6
Continuous
 62
     3
370
     9
100
AcDbLine
 10
-313.2659912109375
 20
467.443097088788
 30
0.0
 11
-243.4664339632602
 21
489.4424768396328
 31
0.0
  0
LINE
  5
155
330
1F
100
AcDbEntity
  8
A-2_蓋
  6
Continuous
 62
     3
370
     9
100
AcDbLine
 10
-242.6662135768581
 20
467.443097088788
 30
0.0
 11
-172.8665326092693
 21
489.4424768396328
 31
0.0
  0
LINE
  5
156
330
1F
100
AcDbEntity
  8
A-2_蓋
  6
Continuous
 62
     3
370
     9
100
AcDbLine
 10
-172.0663122228672
 20
467.443097088788
 30
0.0
 11
-102.2666312552786
 21
489.4424768396328
 31
0.0
  0
LINE
  5
157
330
1F
100
AcDbEntity
  8
A-2_蓋
  6
Continuous
 62
     3
370
     9
100
AcDbLine
 10
-101.4664108688766
 20
467.443097088788
 30
0.0
 11
-31.6669773411104
 21
489.4424768396328
 31
0.0
  0
LINE
  5
158
330
1F
100
AcDbEntity
  8
A-2_蓋
  6
Continuous
 62
     3
370
     9
100
AcDbLine
 10
-30.8661383551518
 20
467.443097088788
 30
0.0
 11
38.9336663323482
 21
489.4424768396328
 31
0.0
  0
LINE
  5
159
330
1F
100
AcDbEntity
  8
A-2_蓋
  6
Continuous
 62
     3
370
     9
100
AcDbLine
 10
39.73339183910497
 20
467.443097088788
 30
0.0
 11
109.533196526605
 21
489.4424768396328
 31
0.0
  0
LINE
  5
15A
330
1F
100
AcDbEntity
  8
A-2_蓋
  6
Continuous
 62
     3
370
     9
100
AcDbLine
 10
110.3334169130068
 20
467.443097088788
 30
0.0
 11
180.1332216005068
 21
489.4424768396328
 31
0.0
  0
LINE
  5
15B
330
1F
100
AcDbEntity
  8
A-2_蓋
  6
Continuous
 62
     3
370
     9
100
AcDbLine
 10
180.9339368665542
 20
467.443097088788
 30
0.0
 11
250.7334941142315
 21
489.4424768396328
 31
0.0
  0
LINE
  5
15C
330
1F
100
AcDbEntity
  8
A-2_蓋
  6
Continuous
 62
     3
370
     9
100
AcDbLine
 10
251.5339619404563
 20
467.443097088788
 30
0.0
 11
321.3335191881336
 21
489.4424768396328
 31
0.0
  0
LINE
  5
15D
330
1F
100
AcDbEntity
  8
A-2_蓋
  6
Continuous
 62
     3
370
     9
100
AcDbLine
 10
322.1332446948904
 20
467.443097088788
 30
0.0
 11
391.933296822213
 21
489.4424768396328
 31
0.0
  0
LINE
  5
15E
330
1F
100
AcDbEntity
  8
A-2_蓋
  6
Continuous
 62
     3
370
     9
100
AcDbLine
 10
392.7332697687925
 20
467.443097088788
 30
0.0
 11
462.5333218961151
 21
489.4424768396328
 31
0.0
  0
LINE
  5
15F
330
1F
100
AcDbEntity
  8
A-2_蓋
  6
Continuous
 62
     3
370
     9
100
AcDbLine
 10
-1527.466810071791
 20
485.2820236618456
 30
0.0
 11
-1514.266142974029
 21
489.4424768396328
 31
0.0
  0
LINE
  5
160
330
1F
100
AcDbEntity
  8
A-2_蓋
  6
Continuous
 62
     3
370
     9
100
AcDbLine
 10
-1527.466810071791
 20
289.4423118797511
 30
0.0
 11
462.5338167757604
 21
289.4423118797511
 31
0.0
  0
LINE
  5
161
330
1F
100
AcDbEntity
  8
A-2_蓋
  6
Continuous
 62
     3
370
     9
100
AcDbLine
 10
-1527.466810071791
 20
267.4429321289062
 30
0.0
 11
462.5338167757604
 21
267.4429321289062
 31
0.0
  0
LINE
  5
162
330
1F
100
AcDbEntity
  8
A-2_蓋
  6
Continuous
 62
     3
370
     9
100
AcDbLine
 10
-1513.465922587627
 20
267.4429321289062
 30
0.0
 11
-1443.666117900127
 21
289.4423118797511
 31
0.0
  0
LINE
  5
163
330
1F
100
AcDbEntity
  8
A-2_蓋
  6
Continuous
 62
     3
370
     9
100
AcDbLine
 10
-1442.866144953548
 20
267.4429321289062
 30
0.0
 11
-1373.066463985959
 21
289.4423118797511
 31
0.0
  0
LINE
  5
164
330
1F
100
AcDbEntity
  8
A-2_蓋
  6
Continuous
 62
     3
370
     9
100
AcDbLine
 10
-1372.265748719911
 20
267.4429321289062
 30
0.0
 11
-1302.466315192145
 21
289.4423118797511
 31
0.0
  0
LINE
  5
165
330
1F
100
AcDbEntity
  8
A-2_蓋
  6
Continuous
 62
     3
370
     9
100
AcDbLine
 10
-1301.665847365921
 20
267.4429321289062
 30
0.0
 11
-1231.866290118243
 21
289.4423118797511
 31
0.0
  0
LINE
  5
166
330
1F
100
AcDbEntity
  8
A-2_蓋
  6
Continuous
 62
     3
370
     9
100
AcDbLine
 10
-1231.066069731841
 20
267.4429321289062
 30
0.0
 11
-1161.266265044341
 21
289.4423118797511
 31
0.0
  0
LINE
  5
167
330
1F
100
AcDbEntity
  8
A-2_蓋
  6
Continuous
 62
     3
370
     9
100
AcDbLine
 10
-1160.466044657939
 20
267.4429321289062
 30
0.0
 11
-1090.666239970439
 21
289.4423118797511
 31
0.0
  0
LINE
  5
168
330
1F
100
AcDbEntity
  8
A-2_蓋
  6
Continuous
 62
     3
370
     9
100
AcDbLine
 10
-1089.865895864126
 20
267.4429321289062
 30
0.0
 11
-1020.066214896537
 21
289.4423118797511
 31
0.0
  0
LINE
  5
169
330
1F
100
AcDbEntity
  8
A-2_蓋
  6
Continuous
 62
     3
370
     9
100
AcDbLine
 10
-1019.265994510135
 20
267.4429321289062
 30
0.0
 11
-949.466189822635
 21
289.4423118797511
 31
0.0
  0
LINE
  5
16A
330
1F
100
AcDbEntity
  8
A-2_蓋
  6
Continuous
 62
     3
370
     9
100
AcDbLine
 10
-948.6659694362331
 20
267.4429321289062
 30
0.0
 11
-878.8662884686444
 21
289.4423118797511
 31
0.0
  0
LINE
  5
16B
330
1F
100
AcDbEntity
  8
A-2_蓋
  6
Continuous
 62
     3
370
     9
100
AcDbLine
 10
-878.0656969225083
 20
267.4429321289062
 30
0.0
 11
-808.2660159549198
 21
289.4423118797511
 31
0.0
  0
LINE
  5
16C
330
1F
100
AcDbEntity
  8
A-2_蓋
  6
Continuous
 62
     3
370
     9
100
AcDbLine
 10
-807.4657955685177
 20
267.4429321289062
 30
0.0
 11
-737.6663620407516
 21
289.4423118797511
 31
0.0
  0
LINE
  5
16D
330
1F
100
AcDbEntity
  8
A-2_蓋
  6
Continuous
 62
     3
370
     9
100
AcDbLine
 10
-736.8661416543495
 20
267.4429321289062
 30
0.0
 11
-667.0664606867609
 21
289.4423118797511
 31
0.0
  0
LINE
  5
16E
330
1F
100
AcDbEntity
  8
A-2_蓋
  6
Continuous
 62
     3
370
     9
100
AcDbLine
 10
-666.2659928605362
 20
267.4429321289062
 30
0.0
 11
-596.4663118929477
 21
289.4423118797511
 31
0.0
  0
LINE
  5
16F
330
1F
100
AcDbEntity
  8
A-2_蓋
  6
Continuous
 62
     3
370
     9
100
AcDbLine
 10
-595.6660915065456
 20
267.4429321289062
 30
0.0
 11
-525.8662868190456
 21
289.4423118797511
 31
0.0
  0
LINE
  5
170
330
1F
100
AcDbEntity
  8
A-2_蓋
  6
Continuous
 62
     3
370
     9
100
AcDbLine
 10
-525.0660664326435
 20
267.4429321289062
 30
0.0
 11
-455.2663854650547
 21
289.4423118797511
 31
0.0
  0
LINE
  5
171
330
1F
100
AcDbEntity
  8
A-2_蓋
  6
Continuous
 62
     3
370
     9
100
AcDbLine
 10
-454.4661650786529
 20
267.4429321289062
 30
0.0
 11
-384.6664841110641
 21
289.4423118797511
 31
0.0
  0
LINE
  5
172
330
1F
100
AcDbEntity
  8
A-2_蓋
  6
Continuous
 62
     3
370
     9
100
AcDbLine
 10
-383.866263724662
 20
267.4429321289062
 30
0.0
 11
-314.0665827570734
 21
289.4423118797511
 31
0.0
  0
LINE
  5
173
330
1F
100
AcDbEntity
  8
A-2_蓋
  6
Continuous
 62
     3
370
     9
100
AcDbLine
 10
-313.2659912109375
 20
267.4429321289062
 30
0.0
 11
-243.4664339632602
 21
289.4423118797511
 31
0.0
  0
LINE
  5
174
330
1F
100
AcDbEntity
  8
A-2_蓋
  6
Continuous
 62
     3
370
     9
100
AcDbLine
 10
-242.6662135768581
 20
267.4429321289062
 30
0.0
 11
-172.8665326092693
 21
289.4423118797511
 31
0.0
  0
LINE
  5
175
330
1F
100
AcDbEntity
  8
A-2_蓋
  6
Continuous
 62
     3
370
     9
100
AcDbLine
 10
-172.0663122228672
 20
267.4429321289062
 30
0.0
 11
-102.2666312552786
 21
289.4423118797511
 31
0.0
  0
LINE
  5
176
330
1F
100
AcDbEntity
  8
A-2_蓋
  6
Continuous
 62
     3
370
     9
100
AcDbLine
 10
-101.4664108688766
 20
267.4429321289062
 30
0.0
 11
-31.6669773411104
 21
289.4423118797511
 31
0.0
  0
LINE
  5
177
330
1F
100
AcDbEntity
  8
A-2_蓋
  6
Continuous
 62
     3
370
     9
100
AcDbLine
 10
-30.8661383551518
 20
267.4429321289062
 30
0.0
 11
38.9336663323482
 21
289.4423118797511
 31
0.0
  0
LINE
  5
178
330
1F
100
AcDbEntity
  8
A-2_蓋
  6
Continuous
 62
     3
370
     9
100
AcDbLine
 10
39.73339183910497
 20
267.4429321289062
 30
0.0
 11
109.533196526605
 21
289.4423118797511
 31
0.0
  0
LINE
  5
179
330
1F
100
AcDbEntity
  8
A-2_蓋
  6
Continuous
 62
     3
370
     9
100
AcDbLine
 10
110.3334169130068
 20
267.4429321289062
 30
0.0
 11
180.1332216005068
 21
289.4423118797511
 31
0.0
  0
LINE
  5
17A
330
1F
100
AcDbEntity
  8
A-2_蓋
  6
Continuous
 62
     3
370
     9
100
AcDbLine
 10
180.9339368665542
 20
267.4429321289062
 30
0.0
 11
250.7334941142315
 21
289.4423118797511
 31
0.0
  0
LINE
  5
17B
330
1F
100
AcDbEntity
  8
A-2_蓋
  6
Continuous
 62
     3
370
     9
100
AcDbLine
 10
251.5339619404563
 20
267.4429321289062
 30
0.0
 11
321.3335191881336
 21
289.4423118797511
 31
0.0
  0
LINE
  5
17C
330
1F
100
AcDbEntity
  8
A-2_蓋
  6
Continuous
 62
     3
370
     9
100
AcDbLine
 10
322.1332446948904
 20
267.4429321289062
 30
0.0
 11
391.933296822213
 21
289.4423118797511
 31
0.0
  0
LINE
  5
17D
330
1F
100
AcDbEntity
  8
A-2_蓋
  6
Continuous
 62
     3
370
     9
100
AcDbLine
 10
392.7332697687925
 20
267.4429321289062
 30
0.0
 11
462.5333218961151
 21
289.4423118797511
 31
0.0
  0
LINE
  5
17E
330
1F
100
AcDbEntity
  8
A-2_蓋
  6
Continuous
 62
     3
370
     9
100
AcDbLine
 10
-1527.466810071791
 20
285.2818587019638
 30
0.0
 11
-1514.266142974029
 21
289.4423118797511
 31
0.0
  0
LINE
  5
17F
330
1F
100
AcDbEntity
  8
A-4_寸法
  6
Continuous
 62
     7
370
     9
100
AcDbLine
 10
1288.581476984798
 20
-41.55756769953541
 30
0.0
 11
1120.581467087205
 21
-41.55756769953541
 31
0.0
  0
LINE
  5
180
330
1F
100
AcDbEntity
  8
A-4_寸法
  6
Continuous
 62
     7
370
     9
100
AcDbLine
 10
1288.581476984798
 20
-29.55772606102187
 30
0.0
 11
1200.581483583193
 21
-29.55772606102187
 31
0.0
  0
LINE
  5
181
330
1F
100
AcDbEntity
  8
A-4_寸法
  6
Continuous
 62
     7
370
     9
100
AcDbLine
 10
1288.581476984798
 20
-21.5570068359375
 30
0.0
 11
1200.581483583193
 21
-21.5570068359375
 31
0.0
  0
LINE
  5
182
330
1F
100
AcDbEntity
  8
A-4_寸法
  6
Continuous
 62
     7
370
     9
100
AcDbLine
 10
1288.581476984798
 20
778.4426632442992
 30
0.0
 11
1200.581483583193
 21
778.4426632442992
 31
0.0
  0
LINE
  5
183
330
1F
100
AcDbEntity
  8
A-4_寸法
  6
Continuous
 62
     7
370
     9
100
AcDbLine
 10
1288.581476984798
 20
786.4426401499156
 30
0.0
 11
1200.581483583193
 21
786.4426401499156
 31
0.0
  0
LINE
  5
184
330
1F
100
AcDbEntity
  8
A-4_寸法
  6
Continuous
 62
     7
370
     9
100
AcDbLine
 10
1288.581476984798
 20
798.4424817884292
 30
0.0
 11
1120.581467087205
 21
798.4424817884292
 31
0.0
  0
LINE
  5
185
330
1F
100
AcDbEntity
  8
A-4_寸法
  6
Continuous
 62
     7
370
     9
100
AcDbLine
 10
1123.581427496833
 20
-41.55756769953541
 30
0.0
 11
1123.581427496833
 21
798.4424817884292
 31
0.0
  0
LINE
  5
186
330
1F
100
AcDbEntity
  8
A-4_寸法
  6
Continuous
 62
     7
370
     9
100
AcDbLine
 10
1620.25798075908
 20
-41.55756769953541
 30
0.0
 11
1620.25798075908
 21
798.4424817884292
 31
0.0
  0
LINE
  5
187
330
1F
100
AcDbEntity
  8
A-4_寸法
  6
Continuous
 62
     7
370
     9
100
AcDbLine
 10
1411.257934570312
 20
-41.55756769953541
 30
0.0
 11
1623.257941168708
 21
-41.55756769953541
 31
0.0
  0
LINE
  5
188
330
1F
100
AcDbEntity
  8
A-4_寸法
  6
Continuous
 62
     7
370
     9
100
AcDbLine
 10
1435.258112726985
 20
78.44208588471304
 30
0.0
 11
1623.257941168708
 21
78.44208588471304
 31
0.0
  0
LINE
  5
189
330
1F
100
AcDbEntity
  8
A-4_寸法
  6
Continuous
 62
     7
370
     9
100
AcDbLine
 10
1435.258112726985
 20
678.4428282041807
 30
0.0
 11
1623.257941168708
 21
678.4428282041807
 31
0.0
  0
LINE
  5
18A
330
1F
100
AcDbEntity
  8
A-4_寸法
  6
Continuous
 62
     7
370
     9
100
AcDbLine
 10
1411.257934570312
 20
798.4424817884292
 30
0.0
 11
1623.257941168708
 21
798.4424817884292
 31
0.0
  0
LINE
  5
18B
330
1F
100
AcDbEntity
  8
A-4_寸法
  6
Continuous
 62
     7
370
     9
100
AcDbLine
 10
1300.25816221495
 20
-182.757865287162
 30
0.0
 11
1400.258739574535
 21
-182.757865287162
 31
0.0
  0
LINE
  5
18C
330
1F
100
AcDbEntity
  8
A-4_寸法
  6
Continuous
 62
     7
370
     9
100
AcDbLine
 10
1300.25816221495
 20
-56.5576171875
 30
0.0
 11
1300.25816221495
 21
-265.75796591269
 31
0.0
  0
LINE
  5
18D
330
1F
100
AcDbEntity
  8
A-4_寸法
  6
Continuous
 62
     7
370
     9
100
AcDbLine
 10
1400.258739574535
 20
-36.55705632390209
 30
0.0
 11
1400.258739574535
 21
-185.7578256967903
 31
0.0
  0
LINE
  5
18E
330
1F
100
AcDbEntity
  8
A-4_寸法
  6
Continuous
 62
     7
370
     9
100
AcDbLine
 10
1300.25816221495
 20
-262.7578817831503
 30
0.0
 11
1412.258086333404
 21
-262.7578817831503
 31
0.0
  0
LINE
  5
18F
330
1F
100
AcDbEntity
  8
A-4_寸法
  6
Continuous
 62
     7
370
     9
100
AcDbLine
 10
1412.258086333404
 20
-32.5580576303841
 30
0.0
 11
1412.258086333404
 21
-265.75796591269
 31
0.0
  0
LINE
  5
190
330
1F
100
AcDbEntity
  8
A-4_寸法
  6
Continuous
 62
     7
370
     9
100
AcDbLine
 10
1203.581443992821
 20
-98.97981385926926
 30
0.0
 11
1203.581443992821
 21
857.1005661423144
 31
0.0
  0
LINE
  5
191
330
1F
100
AcDbEntity
  8
A-4_寸法
  6
Continuous
 62
     7
370
     9
100
AcDbLine
 10
1515.757957664696
 20
847.3410446579394
 30
0.0
 11
1525.324970967061
 21
870.4380674619936
 31
0.0
  0
LINE
  5
192
330
1F
100
AcDbEntity
  8
A-4_寸法
  6
Continuous
 62
     7
370
     9
100
AcDbLine
 10
1515.757957664696
 20
847.3410446579394
 30
0.0
 11
1530.976991395693
 21
867.1748310810813
 31
0.0
  0
LINE
  5
193
330
1F
100
AcDbEntity
  8
A-4_寸法
  6
Continuous
 62
     7
370
     9
100
AcDbLine
 10
1300.25816221495
 20
798.4424817884292
 30
0.0
 11
1285.039128483953
 21
818.276268211571
 31
0.0
  0
LINE
  5
194
330
1F
100
AcDbEntity
  8
A-4_寸法
  6
Continuous
 62
     7
370
     9
100
AcDbLine
 10
1300.25816221495
 20
798.4424817884292
 30
0.0
 11
1290.691148912584
 21
821.5395045924834
 31
0.0
  0
LINE
  5
195
330
1F
100
AcDbEntity
  8
A-4_寸法
  6
Continuous
 62
     7
370
     9
100
AcDbLine
 10
-667.0663369668495
 20
729.442402607686
 30
0.0
 11
-663.8032243058487
 21
754.2284496410474
 31
0.0
  0
LINE
  5
196
330
1F
100
AcDbEntity
  8
A-4_寸法
  6
Continuous
 62
     7
370
     9
100
AcDbLine
 10
-667.0663369668495
 20
729.442402607686
 30
0.0
 11
-657.4991999445734
 21
752.5394254117401
 31
0.0
  0
LINE
  5
197
330
1F
100
AcDbEntity
  8
A-4_寸法
  6
Continuous
 62
     7
370
     9
100
AcDbLine
 10
-779.9661997202279
 20
689.4422706397804
 30
0.0
 11
-770.3990626979519
 21
712.5392934438346
 31
0.0
  0
LINE
  5
198
330
1F
100
AcDbEntity
  8
A-4_寸法
  6
Continuous
 62
     7
370
     9
100
AcDbLine
 10
-851.3585271062077
 20
778.4424158044766
 30
0.0
 11
-848.0954144452069
 21
803.228462837838
 31
0.0
  0
LINE
  5
199
330
1F
100
AcDbEntity
  8
A-4_寸法
  6
Continuous
 62
     7
370
     9
100
AcDbLine
 10
-851.3585271062077
 20
778.4424158044766
 30
0.0
 11
-841.7913900839314
 21
801.5394386085304
 31
0.0
  0
LINE
  5
19A
330
1F
100
AcDbEntity
  8
A-4_寸法
  6
Continuous
 62
     7
370
     9
100
AcDbLine
 10
-667.0663369668495
 20
729.442402607686
 30
0.0
 11
-583.9484549857474
 21
1039.642366976352
 31
0.0
  0
LINE
  5
19B
330
1F
100
AcDbEntity
  8
A-4_寸法
  6
Continuous
 62
     7
370
     9
100
AcDbLine
 10
-851.3585271062077
 20
778.4424158044766
 30
0.0
 11
-738.4985021642738
 21
1199.642399968327
 31
0.0
  0
LINE
  5
19C
330
1F
100
AcDbEntity
  8
A-4_寸法
  6
Continuous
 62
     7
370
     9
100
AcDbLine
 10
-738.4985021642738
 20
1199.642399968327
 30
0.0
 11
-259.8850559543919
 21
1199.642399968327
 31
0.0
  0
LINE
  5
19D
330
1F
100
AcDbEntity
  8
A-4_寸法
  6
Continuous
 62
     7
370
     9
100
AcDbLine
 10
-664.6943788270693
 20
1119.64238347234
 30
0.0
 11
-287.3385042757602
 21
1119.64238347234
 31
0.0
  0
LINE
  5
19E
330
1F
100
AcDbEntity
  8
A-4_寸法
  6
Continuous
 62
     7
370
     9
100
AcDbLine
 10
-583.9484549857474
 20
1039.642366976352
 30
0.0
 11
-78.6932867926518
 21
1039.642366976352
 31
0.0
  0
LINE
  5
19F
330
1F
100
AcDbEntity
  8
A-4_寸法
  6
Continuous
 62
     7
370
     9
100
AcDbLine
 10
1515.757957664696
 20
847.3410446579394
 30
0.0
 11
1608.520177892736
 21
1002.052793760558
 31
0.0
  0
LINE
  5
1A0
330
1F
100
AcDbEntity
  8
A-4_寸法
  6
Continuous
 62
     7
370
     9
100
AcDbLine
 10
1608.520177892736
 20
1002.052793760558
 30
0.0
 11
1861.912412901183
 21
1002.052793760558
 31
0.0
  0
LINE
  5
1A1
330
1F
100
AcDbEntity
  8
A-3_受枠
  6
Continuous
 62
     4
370
     9
100
AcDbLine
 10
-1319.365712758657
 20
735.4425708667654
 30
0.0
 11
-1370.166098104941
 21
735.4425708667654
 31
0.0
  0
LINE
  5
1A2
330
1F
100
AcDbEntity
  8
A-3_受枠
  6
Continuous
 62
     4
370
     9
100
AcDbLine
 10
-1328.565772804054
 20
741.2423128695102
 30
0.0
 11
-1360.965790619721
 21
741.2423128695102
 31
0.0
  0
LINE
  5
1A3
330
1F
100
AcDbEntity
  8
A-3_受枠
  6
Continuous
 62
     4
370
     9
100
AcDbLine
 10
-1367.765808105469
 20
741.2423128695102
 30
0.0
 11
-1370.166098104941
 21
741.2423128695102
 31
0.0
  0
LINE
  5
1A4
330
1F
100
AcDbEntity
  8
A-3_受枠
  6
Continuous
 62
     4
370
     9
100
AcDbLine
 10
-1321.765755318306
 20
741.2423128695102
 30
0.0
 11
-1319.365712758657
 21
741.2423128695102
 31
0.0
  0
LINE
  5
1A5
330
1F
100
AcDbEntity
  8
A-3_受枠
  6
Continuous
 62
     4
370
     9
100
AcDbLine
 10
-1366.765780062289
 20
742.2424646326016
 30
0.0
 11
-1366.765780062289
 21
769.4422871357688
 31
0.0
  0
LINE
  5
1A6
330
1F
100
AcDbEntity
  8
A-3_受枠
  6
Continuous
 62
     4
370
     9
100
AcDbLine
 10
-1360.965790619721
 20
738.3423181482266
 30
0.0
 11
-1360.965790619721
 21
769.4422871357688
 31
0.0
  0
LINE
  5
1A7
330
1F
100
AcDbEntity
  8
A-3_受枠
  6
Continuous
 62
     4
370
     9
100
AcDbLine
 10
-1328.565772804054
 20
738.3423181482266
 30
0.0
 11
-1328.565772804054
 21
769.4422871357688
 31
0.0
  0
LINE
  5
1A8
330
1F
100
AcDbEntity
  8
A-3_受枠
  6
Continuous
 62
     4
370
     9
100
AcDbLine
 10
-1322.765659641575
 20
742.2424646326016
 30
0.0
 11
-1322.765659641575
 21
769.4422871357688
 31
0.0
  0
LINE
  5
1A9
330
1F
100
AcDbEntity
  8
A-3_受枠
  6
Continuous
 62
     4
370
     9
100
AcDbLine
 10
-1361.965942382812
 20
757.4421980574325
 30
0.0
 11
-1365.765628299198
 21
757.4421980574325
 31
0.0
  0
LINE
  5
1AA
330
1F
100
AcDbEntity
  8
A-3_受枠
  6
Continuous
 62
     4
370
     9
100
AcDbLine
 10
-1327.565992200697
 20
757.4421980574325
 30
0.0
 11
-1323.765563964844
 21
757.4421980574325
 31
0.0
  0
LINE
  5
1AB
330
1F
100
AcDbEntity
  8
A-3_受枠
  6
Continuous
 62
     4
370
     9
100
AcDbLine
 10
-1366.765780062289
 20
778.442168364654
 30
0.0
 11
-1366.765780062289
 21
783.5604610958617
 31
0.0
  0
LINE
  5
1AC
330
1F
100
AcDbEntity
  8
A-3_受枠
  6
Continuous
 62
     4
370
     9
100
AcDbLine
 10
-1360.965790619721
 20
778.442168364654
 30
0.0
 11
-1360.965790619721
 21
783.5604610958617
 31
0.0
  0
LINE
  5
1AD
330
1F
100
AcDbEntity
  8
A-3_受枠
  6
Continuous
 62
     4
370
     9
100
AcDbLine
 10
-1328.565772804054
 20
778.442168364654
 30
0.0
 11
-1328.565772804054
 21
783.5604610958617
 31
0.0
  0
LINE
  5
1AE
330
1F
100
AcDbEntity
  8
A-3_受枠
  6
Continuous
 62
     4
370
     9
100
AcDbLine
 10
-1322.765659641575
 20
778.442168364654
 30
0.0
 11
-1322.765659641575
 21
783.5604610958617
 31
0.0
  0
LINE
  5
1AF
330
1F
100
AcDbEntity
  8
A-3_受枠
  6
Continuous
 62
     4
370
     9
100
AcDbLine
 10
304.0352486275339
 20
735.4425708667654
 30
0.0
 11
253.23486328125
 21
735.4425708667654
 31
0.0
  0
LINE
  5
1B0
330
1F
100
AcDbEntity
  8
A-3_受枠
  6
Continuous
 62
     4
370
     9
100
AcDbLine
 10
294.8349411423143
 20
741.2423128695102
 30
0.0
 11
262.4351707664698
 21
741.2423128695102
 31
0.0
  0
LINE
  5
1B1
330
1F
100
AcDbEntity
  8
A-3_受枠
  6
Continuous
 62
     4
370
     9
100
AcDbLine
 10
255.6347821209883
 20
741.2423128695102
 30
0.0
 11
253.23486328125
 21
741.2423128695102
 31
0.0
  0
LINE
  5
1B2
330
1F
100
AcDbEntity
  8
A-3_受枠
  6
Continuous
 62
     4
370
     9
100
AcDbLine
 10
301.6348349081505
 20
741.2423128695102
 30
0.0
 11
304.0352486275339
 21
741.2423128695102
 31
0.0
  0
LINE
  5
1B3
330
1F
100
AcDbEntity
  8
A-3_受枠
  6
Continuous
 62
     4
370
     9
100
AcDbLine
 10
256.6351813239021
 20
742.2424646326016
 30
0.0
 11
256.6351813239021
 21
769.4422871357688
 31
0.0
  0
LINE
  5
1B4
330
1F
100
AcDbEntity
  8
A-3_受枠
  6
Continuous
 62
     4
370
     9
100
AcDbLine
 10
262.4351707664698
 20
738.3423181482266
 30
0.0
 11
262.4351707664698
 21
769.4422871357688
 31
0.0
  0
LINE
  5
1B5
330
1F
100
AcDbEntity
  8
A-3_受枠
  6
Continuous
 62
     4
370
     9
100
AcDbLine
 10
294.8349411423143
 20
738.3423181482266
 30
0.0
 11
294.8349411423143
 21
769.4422871357688
 31
0.0
  0
LINE
  5
1B6
330
1F
100
AcDbEntity
  8
A-3_受枠
  6
Continuous
 62
     4
370
     9
100
AcDbLine
 10
300.6349305848818
 20
742.2424646326016
 30
0.0
 11
300.6349305848818
 21
769.4422871357688
 31
0.0
  0
LINE
  5
1B7
330
1F
100
AcDbEntity
  8
A-3_受枠
  6
Continuous
 62
     4
370
     9
100
AcDbLine
 10
261.4350190033784
 20
757.4421980574325
 30
0.0
 11
257.6345907675255
 21
757.4421980574325
 31
0.0
  0
LINE
  5
1B8
330
1F
100
AcDbEntity
  8
A-3_受枠
  6
Continuous
 62
     4
370
     9
100
AcDbLine
 10
295.8350929054055
 20
757.4421980574325
 30
0.0
 11
299.6347788217906
 21
757.4421980574325
 31
0.0
  0
LINE
  5
1B9
330
1F
100
AcDbEntity
  8
A-3_受枠
  6
Continuous
 62
     4
370
     9
100
AcDbLine
 10
256.6351813239021
 20
778.442168364654
 30
0.0
 11
256.6351813239021
 21
783.5604610958617
 31
0.0
  0
LINE
  5
1BA
330
1F
100
AcDbEntity
  8
A-3_受枠
  6
Continuous
 62
     4
370
     9
100
AcDbLine
 10
262.4351707664698
 20
778.442168364654
 30
0.0
 11
262.4351707664698
 21
783.5604610958617
 31
0.0
  0
LINE
  5
1BB
330
1F
100
AcDbEntity
  8
A-3_受枠
  6
Continuous
 62
     4
370
     9
100
AcDbLine
 10
294.8349411423143
 20
778.442168364654
 30
0.0
 11
294.8349411423143
 21
783.5604610958617
 31
0.0
  0
LINE
  5
1BC
330
1F
100
AcDbEntity
  8
A-3_受枠
  6
Continuous
 62
     4
370
     9
100
AcDbLine
 10
300.6349305848818
 20
778.442168364654
 30
0.0
 11
300.6349305848818
 21
783.5604610958617
 31
0.0
  0
LINE
  5
1BD
330
1F
100
AcDbEntity
  8
A-3_受枠
  6
Continuous
 62
     4
370
     9
100
AcDbLine
 10
-1319.365712758657
 20
21.44246694203986
 30
0.0
 11
-1370.166098104941
 21
21.44246694203986
 31
0.0
  0
LINE
  5
1BE
330
1F
100
AcDbEntity
  8
A-3_受枠
  6
Continuous
 62
     4
370
     9
100
AcDbLine
 10
-1328.565772804054
 20
15.64272493929479
 30
0.0
 11
-1360.965790619721
 21
15.64272493929479
 31
0.0
  0
LINE
  5
1BF
330
1F
100
AcDbEntity
  8
A-3_受枠
  6
Continuous
 62
     4
370
     9
100
AcDbLine
 10
-1367.765808105469
 20
15.64272493929479
 30
0.0
 11
-1370.166098104941
 21
15.64272493929479
 31
0.0
  0
LINE
  5
1C0
330
1F
100
AcDbEntity
  8
A-3_受枠
  6
Continuous
 62
     4
370
     9
100
AcDbLine
 10
-1321.765755318306
 20
15.64272493929479
 30
0.0
 11
-1319.365712758657
 21
15.64272493929479
 31
0.0
  0
LINE
  5
1C1
330
1F
100
AcDbEntity
  8
A-3_受枠
  6
Continuous
 62
     4
370
     9
100
AcDbLine
 10
-1366.765780062289
 20
14.64257317620365
 30
0.0
 11
-1366.765780062289
 21
-12.55724932696353
 31
0.0
  0
LINE
  5
1C2
330
1F
100
AcDbEntity
  8
A-3_受枠
  6
Continuous
 62
     4
370
     9
100
AcDbLine
 10
-1360.965790619721
 20
18.54271966057865
 30
0.0
 11
-1360.965790619721
 21
-12.55724932696353
 31
0.0
  0
LINE
  5
1C3
330
1F
100
AcDbEntity
  8
A-3_受枠
  6
Continuous
 62
     4
370
     9
100
AcDbLine
 10
-1328.565772804054
 20
18.54271966057865
 30
0.0
 11
-1328.565772804054
 21
-12.55724932696353
 31
0.0
  0
LINE
  5
1C4
330
1F
100
AcDbEntity
  8
A-3_受枠
  6
Continuous
 62
     4
370
     9
100
AcDbLine
 10
-1322.765659641575
 20
14.64257317620365
 30
0.0
 11
-1322.765659641575
 21
-12.55724932696353
 31
0.0
  0
LINE
  5
1C5
330
1F
100
AcDbEntity
  8
A-3_受枠
  6
Continuous
 62
     4
370
     9
100
AcDbLine
 10
-1361.965942382812
 20
-0.5571602486273264
 30
0.0
 11
-1365.765628299198
 21
-0.5571602486273264
 31
0.0
  0
LINE
  5
1C6
330
1F
100
AcDbEntity
  8
A-3_受枠
  6
Continuous
 62
     4
370
     9
100
AcDbLine
 10
-1327.565992200697
 20
-0.5571602486273264
 30
0.0
 11
-1323.765563964844
 21
-0.5571602486273264
 31
0.0
  0
LINE
  5
1C7
330
1F
100
AcDbEntity
  8
A-3_受枠
  6
Continuous
 62
     4
370
     9
100
AcDbLine
 10
-1366.765780062289
 20
-21.55713055584869
 30
0.0
 11
-1366.765780062289
 21
-26.6754232870565
 31
0.0
  0
LINE
  5
1C8
330
1F
100
AcDbEntity
  8
A-3_受枠
  6
Continuous
 62
     4
370
     9
100
AcDbLine
 10
-1360.965790619721
 20
-21.55713055584869
 30
0.0
 11
-1360.965790619721
 21
-26.6754232870565
 31
0.0
  0
LINE
  5
1C9
330
1F
100
AcDbEntity
  8
A-3_受枠
  6
Continuous
 62
     4
370
     9
100
AcDbLine
 10
-1328.565772804054
 20
-21.55713055584869
 30
0.0
 11
-1328.565772804054
 21
-26.6754232870565
 31
0.0
  0
LINE
  5
1CA
330
1F
100
AcDbEntity
  8
A-3_受枠
  6
Continuous
 62
     4
370
     9
100
AcDbLine
 10
-1322.765659641575
 20
-21.55713055584869
 30
0.0
 11
-1322.765659641575
 21
-26.6754232870565
 31
0.0
  0
LINE
  5
1CB
330
1F
100
AcDbEntity
  8
A-3_受枠
  6
Continuous
 62
     4
370
     9
100
AcDbLine
 10
304.0352486275339
 20
21.44246694203986
 30
0.0
 11
253.23486328125
 21
21.44246694203986
 31
0.0
  0
LINE
  5
1CC
330
1F
100
AcDbEntity
  8
A-3_受枠
  6
Continuous
 62
     4
370
     9
100
AcDbLine
 10
294.8349411423143
 20
15.64272493929479
 30
0.0
 11
262.4351707664698
 21
15.64272493929479
 31
0.0
  0
LINE
  5
1CD
330
1F
100
AcDbEntity
  8
A-3_受枠
  6
Continuous
 62
     4
370
     9
100
AcDbLine
 10
255.6347821209883
 20
15.64272493929479
 30
0.0
 11
253.23486328125
 21
15.64272493929479
 31
0.0
  0
LINE
  5
1CE
330
1F
100
AcDbEntity
  8
A-3_受枠
  6
Continuous
 62
     4
370
     9
100
AcDbLine
 10
301.6348349081505
 20
15.64272493929479
 30
0.0
 11
304.0352486275339
 21
15.64272493929479
 31
0.0
  0
LINE
  5
1CF
330
1F
100
AcDbEntity
  8
A-3_受枠
  6
Continuous
 62
     4
370
     9
100
AcDbLine
 10
256.6351813239021
 20
14.64257317620365
 30
0.0
 11
256.6351813239021
 21
-12.55724932696353
 31
0.0
  0
LINE
  5
1D0
330
1F
100
AcDbEntity
  8
A-3_受枠
  6
Continuous
 62
     4
370
     9
100
AcDbLine
 10
262.4351707664698
 20
18.54271966057865
 30
0.0
 11
262.4351707664698
 21
-12.55724932696353
 31
0.0
  0
LINE
  5
1D1
330
1F
100
AcDbEntity
  8
A-3_受枠
  6
Continuous
 62
     4
370
     9
100
AcDbLine
 10
294.8349411423143
 20
18.54271966057865
 30
0.0
 11
294.8349411423143
 21
-12.55724932696353
 31
0.0
  0
LINE
  5
1D2
330
1F
100
AcDbEntity
  8
A-3_受枠
  6
Continuous
 62
     4
370
     9
100
AcDbLine
 10
300.6349305848818
 20
14.64257317620365
 30
0.0
 11
300.6349305848818
 21
-12.55724932696353
 31
0.0
  0
LINE
  5
1D3
330
1F
100
AcDbEntity
  8
A-3_受枠
  6
Continuous
 62
     4
370
     9
100
AcDbLine
 10
261.4350190033784
 20
-0.5571602486273264
 30
0.0
 11
257.6345907675255
 21
-0.5571602486273264
 31
0.0
  0
LINE
  5
1D4
330
1F
100
AcDbEntity
  8
A-3_受枠
  6
Continuous
 62
     4
370
     9
100
AcDbLine
 10
295.8350929054055
 20
-0.5571602486273264
 30
0.0
 11
299.6347788217906
 21
-0.5571602486273264
 31
0.0
  0
LINE
  5
1D5
330
1F
100
AcDbEntity
  8
A-3_受枠
  6
Continuous
 62
     4
370
     9
100
AcDbLine
 10
256.6351813239021
 20
-21.55713055584869
 30
0.0
 11
256.6351813239021
 21
-26.6754232870565
 31
0.0
  0
LINE
  5
1D6
330
1F
100
AcDbEntity
  8
A-3_受枠
  6
Continuous
 62
     4
370
     9
100
AcDbLine
 10
262.4351707664698
 20
-21.55713055584869
 30
0.0
 11
262.4351707664698
 21
-26.6754232870565
 31
0.0
  0
LINE
  5
1D7
330
1F
100
AcDbEntity
  8
A-3_受枠
  6
Continuous
 62
     4
370
     9
100
AcDbLine
 10
294.8349411423143
 20
-21.55713055584869
 30
0.0
 11
294.8349411423143
 21
-26.6754232870565
 31
0.0
  0
LINE
  5
1D8
330
1F
100
AcDbEntity
  8
A-3_受枠
  6
Continuous
 62
     4
370
     9
100
AcDbLine
 10
300.6349305848818
 20
-21.55713055584869
 30
0.0
 11
300.6349305848818
 21
-26.6754232870565
 31
0.0
  0
LINE
  5
1D9
330
1F
100
AcDbEntity
  8
A-3_受枠
  6
Continuous
 62
     4
370
     9
100
AcDbLine
 10
1326.157193570524
 20
780.6790243612755
 30
0.0
 11
1326.80573334565
 21
786.4428875897383
 31
0.0
  0
LINE
  5
1DA
330
1F
100
AcDbEntity
  8
A-3_受枠
  6
Continuous
 62
     4
370
     9
100
AcDbLine
 10
1346.219861829603
 20
784.25799395587
 30
0.0
 11
1326.80573334565
 21
786.4428875897383
 31
0.0
  0
LINE
  5
1DB
330
1F
100
AcDbEntity
  8
A-3_受枠
  6
Continuous
 62
     4
370
     9
100
AcDbLine
 10
1346.0318075644
 20
778.4426632442992
 30
0.0
 11
1326.157193570524
 21
780.6790243612755
 31
0.0
  0
LINE
  5
1DC
330
1F
100
AcDbEntity
  8
A-3_受枠
  6
Continuous
 62
     4
370
     9
100
AcDbLine
 10
1387.21074284734
 20
780.3932313661318
 30
0.0
 11
1346.0318075644
 21
778.4426632442992
 31
0.0
  0
LINE
  5
1DD
330
1F
100
AcDbEntity
  8
A-3_受枠
  6
Continuous
 62
     4
370
     9
100
AcDbLine
 10
1386.93657952386
 20
786.1865399334883
 30
0.0
 11
1346.219861829603
 21
784.25799395587
 31
0.0
  0
LINE
  5
1DE
330
1F
100
AcDbEntity
  8
A-3_受枠
  6
Continuous
 62
     4
370
     9
100
AcDbLine
 10
1394.058392498944
 20
768.499541411529
 30
0.0
 11
1394.058392498944
 21
779.394316802154
 31
0.0
  0
LINE
  5
1DF
330
1F
100
AcDbEntity
  8
A-3_受枠
  6
Continuous
 62
     4
370
     9
100
AcDbLine
 10
1332.858111407306
 20
741.2425603093328
 30
0.0
 11
1391.158150337838
 21
741.2425603093328
 31
0.0
  0
LINE
  5
1E0
330
1F
100
AcDbEntity
  8
A-3_受枠
  6
Continuous
 62
     4
370
     9
100
AcDbLine
 10
1332.858111407306
 20
735.442818306588
 30
0.0
 11
1391.158150337838
 21
735.442818306588
 31
0.0
  0
LINE
  5
1E1
330
1F
100
AcDbEntity
  8
A-3_受枠
  6
Continuous
 62
     4
370
     9
100
AcDbLine
 10
1326.05821764147
 20
753.094185494088
 30
0.0
 11
1326.05821764147
 21
742.2427120724242
 31
0.0
  0
LINE
  5
1E2
330
1F
100
AcDbEntity
  8
A-3_受枠
  6
Continuous
 62
     4
370
     9
100
AcDbLine
 10
1331.858207084038
 20
753.094185494088
 30
0.0
 11
1331.858207084038
 21
742.2427120724242
 31
0.0
  0
LINE
  5
1E3
330
1F
100
AcDbEntity
  8
A-3_受枠
  6
Continuous
 62
     4
370
     9
100
AcDbLine
 10
1332.438948347762
 20
754.0020422033363
 30
0.0
 11
1353.1494140625
 21
763.5720247835727
 31
0.0
  0
LINE
  5
1E4
330
1F
100
AcDbEntity
  8
A-3_受枠
  6
Continuous
 62
     4
370
     9
100
AcDbLine
 10
1386.883627401816
 20
761.7097926784209
 30
0.0
 11
1353.1494140625
 21
763.5720247835727
 31
0.0
  0
LINE
  5
1E5
330
1F
100
AcDbEntity
  8
A-3_受枠
  6
Continuous
 62
     4
370
     9
100
AcDbLine
 10
1330.005872571791
 20
759.266819309544
 30
0.0
 11
1352.02727446685
 21
769.4427820154141
 31
0.0
  0
LINE
  5
1E6
330
1F
100
AcDbEntity
  8
A-3_受枠
  6
Continuous
 62
     4
370
     9
100
AcDbLine
 10
1387.203072212838
 20
767.5008742873734
 30
0.0
 11
1352.02727446685
 21
769.4427820154141
 31
0.0
  0
LINE
  5
1E7
330
1F
100
AcDbEntity
  8
A-3_受枠
  6
Continuous
 62
     4
370
     9
100
AcDbLine
 10
1388.258403056377
 20
779.394316802154
 30
0.0
 11
1388.258403056377
 21
768.499541411529
 31
0.0
  0
LINE
  5
1E8
330
1F
100
AcDbEntity
  8
A-4_寸法
  6
Continuous
 62
     7
370
     9
100
AcDbLine
 10
278.6350559543919
 20
741.2423128695102
 30
0.0
 11
281.8982923353042
 21
766.0283599028717
 31
0.0
  0
LINE
  5
1E9
330
1F
100
AcDbEntity
  8
A-4_寸法
  6
Continuous
 62
     7
370
     9
100
AcDbLine
 10
278.6350559543919
 20
741.2423128695102
 30
0.0
 11
288.2020692567568
 21
764.3393356735644
 31
0.0
  0
LINE
  5
1EA
330
1F
100
AcDbEntity
  8
A-4_寸法
  6
Continuous
 62
     7
370
     9
100
AcDbLine
 10
278.6350559543919
 20
741.2423128695102
 30
0.0
 11
358.591028161951
 21
1039.642366976352
 31
0.0
  0
LINE
  5
1EB
330
1F
100
AcDbEntity
  8
A-4_寸法
  6
Continuous
 62
     7
370
     9
100
AcDbLine
 10
358.591028161951
 20
1039.642366976352
 30
0.0
 11
757.1220604149073
 21
1039.642366976352
 31
0.0
  0
LINE
  5
1EC
330
1F
100
AcDbEntity
  8
A-2_蓋
  6
JWW_CENTER1
 62
     3
370
     9
100
AcDbLine
 10
1252.749716269004
 20
378.4422096046242
 30
0.0
 11
1451.382528769004
 21
378.4422096046242
 31
0.0
  0
LINE
  5
1ED
330
1F
100
AcDbEntity
  8
A-1_ピット
  6
Continuous
 62
     2
370
     9
100
AcDbLine
 10
-1546.466848012563
 20
798.4422343486065
 30
0.0
 11
-1546.466848012563
 21
-41.55756769953541
 31
0.0
  0
LINE
  5
1EE
330
1F
100
AcDbEntity
  8
A-1_ピット
  6
Continuous
 62
     2
370
     9
100
AcDbLine
 10
-1546.466724292652
 20
798.4422343486065
 30
0.0
 11
481.5339784364443
 21
798.4422343486065
 31
0.0
  0
LINE
  5
1EF
330
1F
100
AcDbEntity
  8
A-1_ピット
  6
Continuous
 62
     2
370
     9
100
AcDbLine
 10
-1534.466882654139
 20
786.4421452702703
 30
0.0
 11
469.5338893581084
 21
786.4421452702703
 31
0.0
  0
LINE
  5
1F0
330
1F
100
AcDbEntity
  8
A-1_ピット
  6
Continuous
 62
     2
370
     9
100
AcDbLine
 10
-1546.466724292652
 20
-41.55756769953541
 30
0.0
 11
481.5339784364443
 21
-41.55756769953541
 31
0.0
  0
LINE
  5
1F1
330
1F
100
AcDbEntity
  8
A-1_ピット
  6
Continuous
 62
     2
370
     9
100
AcDbLine
 10
-1534.466882654139
 20
-29.55723118137655
 30
0.0
 11
469.5338893581084
 21
-29.55723118137655
 31
0.0
  0
LINE
  5
1F2
330
1F
100
AcDbEntity
  8
A-1_ピット
  6
Continuous
 62
     2
370
     9
100
AcDbLine
 10
481.5339784364443
 20
798.4422343486065
 30
0.0
 11
481.5339784364443
 21
-41.55756769953541
 31
0.0
  0
LINE
  5
1F3
330
1F
100
AcDbEntity
  8
A-1_ピット
  6
JWW_DASHED3
 62
     2
370
     9
100
AcDbLine
 10
469.5338893581084
 20
678.4428282041807
 30
0.0
 11
-1534.466882654139
 21
678.4428282041807
 31
0.0
  0
LINE
  5
1F4
330
1F
100
AcDbEntity
  8
A-1_ピット
  6
JWW_DASHED3
 62
     2
370
     9
100
AcDbLine
 10
-1534.466882654139
 20
78.44196216480157
 30
0.0
 11
469.5338893581084
 21
78.44196216480157
 31
0.0
  0
LINE
  5
1F5
330
1F
100
AcDbEntity
  8
A-4_寸法
  6
Continuous
 62
     7
370
     9
100
AcDbLine
 10
-1546.466724292652
 20
939.6422844964106
 30
0.0
 11
481.5339784364443
 21
939.6422844964106
 31
0.0
  0
LINE
  5
1F6
330
1F
100
AcDbEntity
  8
A-4_寸法
  6
Continuous
 62
     7
370
     9
100
AcDbLine
 10
-1546.466724292652
 20
813.442283836571
 30
0.0
 11
-1546.466724292652
 21
942.6422449060391
 31
0.0
  0
LINE
  5
1F7
330
1F
100
AcDbEntity
  8
A-4_寸法
  6
Continuous
 62
     7
370
     9
100
AcDbLine
 10
-1046.466683052681
 20
854.6422515044342
 30
0.0
 11
-1046.466683052681
 21
942.6422449060391
 31
0.0
  0
LINE
  5
1F8
330
1F
100
AcDbEntity
  8
A-4_寸法
  6
Continuous
 62
     7
370
     9
100
AcDbLine
 10
-18.46593908361484
 20
854.6422515044342
 30
0.0
 11
-18.46593908361484
 21
942.6422449060391
 31
0.0
  0
LINE
  5
1F9
330
1F
100
AcDbEntity
  8
A-4_寸法
  6
Continuous
 62
     7
370
     9
100
AcDbLine
 10
481.5339784364443
 20
813.442283836571
 30
0.0
 11
481.5339784364443
 21
942.6422449060391
 31
0.0
  0
LINE
  5
1FA
330
1F
100
AcDbEntity
  8
A-4_寸法
  6
Continuous
 62
     7
370
     9
100
AcDbLine
 10
481.5339784364443
 20
563.8596323374156
 30
0.0
 11
544.3901268211573
 21
798.4422343486065
 31
0.0
  0
LINE
  5
1FB
330
1F
100
AcDbEntity
  8
A-4_寸法
  6
Continuous
 62
     7
370
     9
100
AcDbLine
 10
481.5339784364443
 20
563.8596323374156
 30
0.0
 11
484.7972148173568
 21
588.6456793707771
 31
0.0
  0
LINE
  5
1FC
330
1F
100
AcDbEntity
  8
A-4_寸法
  6
Continuous
 62
     7
370
     9
100
AcDbLine
 10
481.5339784364443
 20
563.8596323374156
 30
0.0
 11
491.1009917388094
 21
586.9566551414698
 31
0.0
  0
LINE
  5
1FD
330
1F
100
AcDbEntity
  8
A-4_寸法
  6
Continuous
 62
     7
370
     9
100
AcDbLine
 10
544.3901268211573
 20
798.4422343486065
 30
0.0
 11
767.1626735377959
 21
798.4422343486065
 31
0.0
  0
LINE
  5
1FE
330
1F
100
AcDbEntity
  8
A-4_寸法
  6
Continuous
 62
     7
370
     9
100
AcDbLine
 10
1300.25816221495
 20
798.4424817884292
 30
0.0
 11
1161.001256994299
 21
1039.642366976352
 31
0.0
  0
LINE
  5
1FF
330
1F
100
AcDbEntity
  8
A-4_寸法
  6
Continuous
 62
     7
370
     9
100
AcDbLine
 10
870.1429212415542
 20
1039.642366976352
 30
0.0
 11
1161.001256994299
 21
1039.642366976352
 31
0.0
  0
LINE
  5
200
330
1F
100
AcDbEntity
  8
D-4_寸法
  6
Continuous
 62
     7
370
     9
100
AcDbLine
 10
-833.803537729624
 20
-526.5774783572634
 30
0.0
 11
-584.1097857501054
 21
-526.5774783572634
 31
0.0
  0
LINE
  5
201
330
1F
100
AcDbEntity
  8
D-2_蓋
  6
Continuous
 62
     3
370
     9
100
AcDbLine
 10
-398.3647526921453
 20
-579.1888757654137
 30
0.0
 11
-404.0812311945734
 21
-579.1888757654137
 31
0.0
  0
LINE
  5
202
330
1F
100
AcDbEntity
  8
D-2_蓋
  6
Continuous
 62
     3
370
     9
100
AcDbLine
 10
-398.3647526921453
 20
-829.1890201053104
 30
0.0
 11
-794.8792741105362
 21
-829.1890201053104
 31
0.0
  0
LINE
  5
203
330
1F
100
AcDbEntity
  8
D-2_蓋
  6
Continuous
 62
     3
370
     9
100
AcDbLine
 10
-272.5868843697211
 20
-579.1888757654137
 30
0.0
 11
-237.5872637774492
 21
-579.1888757654137
 31
0.0
  0
LINE
  5
204
330
1F
100
AcDbEntity
  8
D-2_蓋
  6
Continuous
 62
     3
370
     9
100
AcDbLine
 10
-237.5872637774492
 20
-829.1890201053104
 30
0.0
 11
-272.5868843697211
 21
-829.1890201053104
 31
0.0
  0
LINE
  5
205
330
1F
100
AcDbEntity
  8
D-2_蓋
  6
Continuous
 62
     3
370
     9
100
AcDbLine
 10
-272.5868843697211
 20
-571.6889128813873
 30
0.0
 11
-237.5872637774492
 21
-571.6889128813873
 31
0.0
  0
LINE
  5
206
330
1F
100
AcDbEntity
  8
D-2_蓋
  6
Continuous
 62
     3
370
     9
100
AcDbLine
 10
-272.5868843697211
 20
-571.6889128813873
 30
0.0
 11
-272.5868843697211
 21
-619.1890077333193
 31
0.0
  0
LINE
  5
207
330
1F
100
AcDbEntity
  8
D-2_蓋
  6
Continuous
 62
     3
370
     9
100
AcDbLine
 10
-237.5872637774492
 20
-571.6889128813873
 30
0.0
 11
-237.5872637774492
 21
-619.1890077333193
 31
0.0
  0
LINE
  5
208
330
1F
100
AcDbEntity
  8
D-4_寸法
  6
Continuous
 62
     7
370
     9
100
AcDbLine
 10
-115.140677787162
 20
-829.1890201053104
 30
0.0
 11
-115.140677787162
 21
-579.1888757654137
 31
0.0
  0
LINE
  5
209
330
1F
100
AcDbEntity
  8
D-4_寸法
  6
Continuous
 62
     7
370
     9
100
AcDbLine
 10
-218.8125197951857
 20
-829.1890201053104
 30
0.0
 11
-112.1407173775336
 21
-829.1890201053104
 31
0.0
  0
LINE
  5
20A
330
1F
100
AcDbEntity
  8
D-4_寸法
  6
Continuous
 62
     7
370
     9
100
AcDbLine
 10
-218.8125197951857
 20
-579.1888757654137
 30
0.0
 11
-112.1407173775336
 21
-579.1888757654137
 31
0.0
  0
LINE
  5
20B
330
1F
100
AcDbEntity
  8
D-4_寸法
  6
Continuous
 62
     7
370
     9
100
AcDbLine
 10
-115.140677787162
 20
-829.1890201053104
 30
0.0
 11
-118.4039141680742
 21
-804.4029112119932
 31
0.0
  0
LINE
  5
20C
330
1F
100
AcDbEntity
  8
D-4_寸法
  6
Continuous
 62
     7
370
     9
100
AcDbLine
 10
-115.140677787162
 20
-829.1890201053104
 30
0.0
 11
-111.8780600058065
 21
-804.4029112119932
 31
0.0
  0
LINE
  5
20D
330
1F
100
AcDbEntity
  8
D-4_寸法
  6
Continuous
 62
     7
370
     9
100
AcDbLine
 10
-115.140677787162
 20
-579.1888757654137
 30
0.0
 11
-118.4039141680742
 21
-603.9749227987752
 31
0.0
  0
LINE
  5
20E
330
1F
100
AcDbEntity
  8
D-4_寸法
  6
Continuous
 62
     7
370
     9
100
AcDbLine
 10
-115.140677787162
 20
-579.1888757654137
 30
0.0
 11
-111.8780600058065
 21
-603.9749227987752
 31
0.0
  0
LINE
  5
20F
330
1F
100
AcDbEntity
  8
D-2_蓋
  6
Continuous
 62
     3
370
     9
100
AcDbLine
 10
-903.6924207532728
 20
-623.8214523727829
 30
0.0
 11
-896.1656725084458
 21
-631.3475820180531
 31
0.0
  0
LINE
  5
210
330
1F
100
AcDbEntity
  8
D-2_蓋
  6
Continuous
 62
     3
370
     9
100
AcDbLine
 10
-921.1661261481207
 20
-627.560762972445
 30
0.0
 11
-900.1068940033782
 21
-648.6201188370989
 31
0.0
  0
LINE
  5
211
330
1F
100
AcDbEntity
  8
D-2_蓋
  6
Continuous
 62
     3
370
     9
100
AcDbLine
 10
-921.1661261481207
 20
-566.2746821223078
 30
0.0
 11
-896.1656725084458
 21
-591.2745790223818
 31
0.0
  0
LINE
  5
212
330
1F
100
AcDbEntity
  8
D-2_蓋
  6
Continuous
 62
     3
370
     9
100
AcDbLine
 10
-907.671747980891
 20
-569.1624904323269
 30
0.0
 11
-896.1656725084458
 21
-580.6680710251267
 31
0.0
  0
LINE
  5
213
330
1F
100
AcDbEntity
  8
D-2_蓋
  6
Continuous
 62
     3
370
     9
100
AcDbLine
 10
-896.1656725084458
 20
-551.9400601773648
 30
0.0
 11
-896.1656725084458
 21
-843.4146448083825
 31
0.0
  0
LINE
  5
214
330
1F
100
AcDbEntity
  8
D-4_寸法
  6
Continuous
 62
     7
370
     9
100
AcDbLine
 10
-938.1026396880279
 20
-771.3985216295397
 30
0.0
 11
-991.7975760794974
 21
-771.3985216295397
 31
0.0
  0
LINE
  5
215
330
1F
100
AcDbEntity
  8
D-4_寸法
  6
Continuous
 62
     7
370
     9
100
AcDbLine
 10
-938.1026396880279
 20
-796.5118696882918
 30
0.0
 11
-991.7975760794974
 21
-796.5118696882918
 31
0.0
  0
LINE
  5
216
330
1F
100
AcDbEntity
  8
D-4_寸法
  6
Continuous
 62
     7
370
     9
100
AcDbLine
 10
-988.7978631096917
 20
-771.3985216295397
 30
0.0
 11
-992.0609757706925
 21
-746.6124745961781
 31
0.0
  0
LINE
  5
217
330
1F
100
AcDbEntity
  8
D-4_寸法
  6
Continuous
 62
     7
370
     9
100
AcDbLine
 10
-988.7978631096917
 20
-771.3985216295397
 30
0.0
 11
-985.5343792889569
 21
-746.6124745961781
 31
0.0
  0
LINE
  5
218
330
1F
100
AcDbEntity
  8
D-4_寸法
  6
Continuous
 62
     7
370
     9
100
AcDbLine
 10
-988.7978631096917
 20
-796.5118696882918
 30
0.0
 11
-992.0609757706925
 21
-821.2979167216532
 31
0.0
  0
LINE
  5
219
330
1F
100
AcDbEntity
  8
D-4_寸法
  6
Continuous
 62
     7
370
     9
100
AcDbLine
 10
-988.7978631096917
 20
-796.5118696882918
 30
0.0
 11
-985.5343792889569
 21
-821.2979167216532
 31
0.0
  0
LINE
  5
21A
330
1F
100
AcDbEntity
  8
D-4_寸法
  6
Continuous
 62
     7
370
     9
100
AcDbLine
 10
-988.7978631096917
 20
-739.8991229083088
 30
0.0
 11
-988.7978631096917
 21
-835.7720947265625
 31
0.0
  0
LINE
  5
21B
330
1F
100
AcDbEntity
  8
D-4_寸法
  6
Continuous
 62
     7
370
     9
100
AcDbLine
 10
-884.710693359375
 20
-645.3252101588894
 30
0.0
 11
-852.69494958826
 21
-638.4741582097233
 31
0.0
  0
LINE
  5
21C
330
1F
100
AcDbEntity
  8
D-4_寸法
  6
Continuous
 62
     7
370
     9
100
AcDbLine
 10
-889.942066089527
 20
-620.8788361420502
 30
0.0
 11
-857.9264460383234
 21
-614.027474893106
 31
0.0
  0
LINE
  5
21D
330
1F
100
AcDbEntity
  8
D-4_寸法
  6
Continuous
 62
     7
370
     9
100
AcDbLine
 10
-855.6287198453335
 20
-639.1021604795714
 30
0.0
 11
-847.2507786106418
 21
-662.6565139358108
 31
0.0
  0
LINE
  5
21E
330
1F
100
AcDbEntity
  8
D-4_寸法
  6
Continuous
 62
     7
370
     9
100
AcDbLine
 10
-855.6287198453335
 20
-639.1021604795714
 30
0.0
 11
-853.6327465160473
 21
-664.0220105970228
 31
0.0
  0
LINE
  5
21F
330
1F
100
AcDbEntity
  8
D-4_寸法
  6
Continuous
 62
     7
370
     9
100
AcDbLine
 10
-860.8600925754855
 20
-614.6552297231312
 30
0.0
 11
-862.8558184649492
 21
-589.7351321658572
 31
0.0
  0
LINE
  5
220
330
1F
100
AcDbEntity
  8
D-4_寸法
  6
Continuous
 62
     7
370
     9
100
AcDbLine
 10
-860.8600925754855
 20
-614.6552297231312
 30
0.0
 11
-869.2372914907094
 21
-591.1008762668918
 31
0.0
  0
LINE
  5
221
330
1F
100
AcDbEntity
  8
D-4_寸法
  6
Continuous
 62
     7
370
     9
100
AcDbLine
 10
-849.3545119826858
 20
-668.4207483240075
 30
0.0
 11
-867.710711504962
 21
-582.6425170898438
 31
0.0
  0
LINE
  5
222
330
1F
100
AcDbEntity
  8
D-4_寸法
  6
Continuous
 62
     7
370
     9
100
AcDbLine
 10
-237.5872637774492
 20
-560.1048320048563
 30
0.0
 11
-237.5872637774492
 21
-523.9346973316088
 31
0.0
  0
LINE
  5
223
330
1F
100
AcDbEntity
  8
D-4_寸法
  6
Continuous
 62
     7
370
     9
100
AcDbLine
 10
-272.5868843697211
 20
-560.1048320048563
 30
0.0
 11
-272.5868843697211
 21
-523.9346973316088
 31
0.0
  0
LINE
  5
224
330
1F
100
AcDbEntity
  8
D-4_寸法
  6
Continuous
 62
     7
370
     9
100
AcDbLine
 10
-237.5872637774492
 20
-526.9347814611485
 30
0.0
 11
-212.8007218644424
 21
-523.6715450802365
 31
0.0
  0
LINE
  5
225
330
1F
100
AcDbEntity
  8
D-4_寸法
  6
Continuous
 62
     7
370
     9
100
AcDbLine
 10
-237.5872637774492
 20
-526.9347814611485
 30
0.0
 11
-212.8007218644424
 21
-530.1978941221495
 31
0.0
  0
LINE
  5
226
330
1F
100
AcDbEntity
  8
D-4_寸法
  6
Continuous
 62
     7
370
     9
100
AcDbLine
 10
-272.5868843697211
 20
-526.9347814611485
 30
0.0
 11
-297.3731788429052
 21
-523.6715450802365
 31
0.0
  0
LINE
  5
227
330
1F
100
AcDbEntity
  8
D-4_寸法
  6
Continuous
 62
     7
370
     9
100
AcDbLine
 10
-272.5868843697211
 20
-526.9347814611485
 30
0.0
 11
-297.3731788429052
 21
-530.1978941221495
 31
0.0
  0
LINE
  5
228
330
1F
100
AcDbEntity
  8
D-4_寸法
  6
Continuous
 62
     7
370
     9
100
AcDbLine
 10
-209.7142812368031
 20
-526.9347814611485
 30
0.0
 11
-300.2702042863174
 21
-526.9347814611485
 31
0.0
  0
LINE
  5
229
330
1F
100
AcDbEntity
  8
D-4_寸法
  6
Continuous
 62
     7
370
     9
100
AcDbLine
 10
-245.0867936417862
 20
-747.3031410011084
 30
0.0
 11
-245.0867936417862
 21
-750.3031632706926
 31
0.0
  0
LINE
  5
22A
330
1F
100
AcDbEntity
  8
D-4_寸法
  6
Continuous
 62
     7
370
     9
100
AcDbLine
 10
-265.0868596257388
 20
-747.3031410011084
 30
0.0
 11
-265.0868596257388
 21
-750.3031632706926
 31
0.0
  0
LINE
  5
22B
330
1F
100
AcDbEntity
  8
D-4_寸法
  6
Continuous
 62
     7
370
     9
100
AcDbLine
 10
-245.0867936417862
 20
-747.3031410011084
 30
0.0
 11
-220.3011177681586
 21
-744.039966480152
 31
0.0
  0
LINE
  5
22C
330
1F
100
AcDbEntity
  8
D-4_寸法
  6
Continuous
 62
     7
370
     9
100
AcDbLine
 10
-245.0867936417862
 20
-747.3031410011084
 30
0.0
 11
-220.3011177681586
 21
-750.566315522065
 31
0.0
  0
LINE
  5
22D
330
1F
100
AcDbEntity
  8
D-4_寸法
  6
Continuous
 62
     7
370
     9
100
AcDbLine
 10
-265.0868596257388
 20
-747.3031410011084
 30
0.0
 11
-289.8727829391891
 21
-744.039966480152
 31
0.0
  0
LINE
  5
22E
330
1F
100
AcDbEntity
  8
D-4_寸法
  6
Continuous
 62
     7
370
     9
100
AcDbLine
 10
-265.0868596257388
 20
-747.3031410011084
 30
0.0
 11
-289.8727829391891
 21
-750.566315522065
 31
0.0
  0
LINE
  5
22F
330
1F
100
AcDbEntity
  8
D-2_蓋
  6
Continuous
 62
     3
370
     9
100
AcDbLine
 10
-931.166159140097
 20
-551.9400601773648
 30
0.0
 11
-931.166159140097
 21
-843.4146448083825
 31
0.0
  0
LINE
  5
230
330
1F
100
AcDbEntity
  8
D-2_蓋
  6
Continuous
 62
     3
370
     9
100
AcDbLine
 10
-931.166159140097
 20
-589.7009854703335
 30
0.0
 11
-896.1656725084458
 21
-597.1904940218537
 31
0.0
  0
LINE
  5
231
330
1F
100
AcDbEntity
  8
D-2_蓋
  6
Continuous
 62
     3
370
     9
100
AcDbLine
 10
-931.166159140097
 20
-592.2573481379328
 30
0.0
 11
-896.1656725084458
 21
-599.74704226932
 31
0.0
  0
LINE
  5
232
330
1F
100
AcDbEntity
  8
D-2_蓋
  6
Continuous
 62
     3
370
     9
100
AcDbLine
 10
-896.1656725084458
 20
-569.0681539999471
 30
0.0
 11
-931.166159140097
 21
-561.5783980086043
 31
0.0
  0
LINE
  5
233
330
1F
100
AcDbEntity
  8
D-2_蓋
  6
Continuous
 62
     3
370
     9
100
AcDbLine
 10
-896.1656725084458
 20
-571.6245166675463
 30
0.0
 11
-931.166159140097
 21
-564.1347606762035
 31
0.0
  0
LINE
  5
234
330
1F
100
AcDbEntity
  8
D-2_蓋
  6
Continuous
 62
     3
370
     9
100
AcDbLine
 10
-912.429026010874
 20
-625.691293252481
 30
0.0
 11
-896.1656725084458
 21
-641.9540900153082
 31
0.0
  0
LINE
  5
235
330
1F
100
AcDbEntity
  8
D-2_蓋
  6
Continuous
 62
     3
370
     9
100
AcDbLine
 10
-931.166159140097
 20
-629.7006225585938
 30
0.0
 11
-896.1656725084458
 21
-622.2108665672508
 31
0.0
  0
LINE
  5
236
330
1F
100
AcDbEntity
  8
D-2_蓋
  6
Continuous
 62
     3
370
     9
100
AcDbLine
 10
-931.166159140097
 20
-627.1440124511719
 30
0.0
 11
-896.1656725084458
 21
-619.6545038996516
 31
0.0
  0
LINE
  5
237
330
1F
100
AcDbEntity
  8
D-2_蓋
  6
Continuous
 62
     3
370
     9
100
AcDbLine
 10
-931.166159140097
 20
-655.2665999129011
 30
0.0
 11
-896.1656725084458
 21
-647.7768439215582
 31
0.0
  0
LINE
  5
238
330
1F
100
AcDbEntity
  8
D-2_蓋
  6
Continuous
 62
     3
370
     9
100
AcDbLine
 10
-931.166159140097
 20
-657.8234574601457
 30
0.0
 11
-896.1656725084458
 21
-650.3337014688027
 31
0.0
  0
LINE
  5
239
330
1F
100
AcDbEntity
  8
D-2_蓋
  6
Continuous
 62
     3
370
     9
100
AcDbLine
 10
-931.166159140097
 20
-566.8814045674092
 30
0.0
 11
-902.1339210304053
 21
-595.9136426771009
 31
0.0
  0
LINE
  5
23A
330
1F
100
AcDbEntity
  8
D-2_蓋
  6
Continuous
 62
     3
370
     9
100
AcDbLine
 10
-931.166159140097
 20
-577.4879125646642
 30
0.0
 11
-915.6281754777237
 21
-593.0255869272593
 31
0.0
  0
LINE
  5
23B
330
1F
100
AcDbEntity
  8
D-2_蓋
  6
Continuous
 62
     3
370
     9
100
AcDbLine
 10
-931.166159140097
 20
-588.0946061417864
 30
0.0
 11
-929.1225536449535
 21
-590.1379641971072
 31
0.0
  0
LINE
  5
23C
330
1F
100
AcDbEntity
  8
D-2_蓋
  6
Continuous
 62
     3
370
     9
100
AcDbLine
 10
-929.903102565456
 20
-629.4303564123204
 30
0.0
 11
-908.8434992609797
 21
-650.4897741369298
 31
0.0
  0
LINE
  5
23D
330
1F
100
AcDbEntity
  8
D-2_蓋
  6
Continuous
 62
     3
370
     9
100
AcDbLine
 10
-931.166159140097
 20
-638.7744264344911
 30
0.0
 11
-917.5805993982262
 21
-652.3594294367609
 31
0.0
  0
LINE
  5
23E
330
1F
100
AcDbEntity
  8
D-2_蓋
  6
Continuous
 62
     3
370
     9
100
AcDbLine
 10
-931.166159140097
 20
-649.3808725717905
 30
0.0
 11
-926.3176995354729
 21
-654.2290847365921
 31
0.0
  0
LINE
  5
23F
330
1F
100
AcDbEntity
  8
D-4_寸法
  6
Continuous
 62
     7
370
     9
100
AcDbLine
 10
-938.1026396880279
 20
-589.7009854703335
 30
0.0
 11
-991.7975760794974
 21
-589.7009854703335
 31
0.0
  0
LINE
  5
240
330
1F
100
AcDbEntity
  8
D-4_寸法
  6
Continuous
 62
     7
370
     9
100
AcDbLine
 10
-938.1026396880279
 20
-629.7006225585938
 30
0.0
 11
-991.7975760794974
 21
-629.7006225585938
 31
0.0
  0
LINE
  5
241
330
1F
100
AcDbEntity
  8
D-4_寸法
  6
Continuous
 62
     7
370
     9
100
AcDbLine
 10
-988.7978631096917
 20
-589.7009854703335
 30
0.0
 11
-992.0604808910473
 21
-564.9146291371937
 31
0.0
  0
LINE
  5
242
330
1F
100
AcDbEntity
  8
D-4_寸法
  6
Continuous
 62
     7
370
     9
100
AcDbLine
 10
-988.7978631096917
 20
-589.7009854703335
 30
0.0
 11
-985.5343792889569
 21
-564.9146291371937
 31
0.0
  0
LINE
  5
243
330
1F
100
AcDbEntity
  8
D-4_寸法
  6
Continuous
 62
     7
370
     9
100
AcDbLine
 10
-988.7978631096917
 20
-629.7006225585938
 30
0.0
 11
-992.0604808910473
 21
-654.4866695919552
 31
0.0
  0
LINE
  5
244
330
1F
100
AcDbEntity
  8
D-4_寸法
  6
Continuous
 62
     7
370
     9
100
AcDbLine
 10
-988.7978631096917
 20
-629.7006225585938
 30
0.0
 11
-985.5343792889569
 21
-654.4866695919552
 31
0.0
  0
LINE
  5
245
330
1F
100
AcDbEntity
  8
D-4_寸法
  6
Continuous
 62
     7
370
     9
100
AcDbLine
 10
-988.7978631096917
 20
-559.0064466321791
 30
0.0
 11
-988.7978631096917
 21
-658.1544700828758
 31
0.0
  0
LINE
  5
246
330
1F
100
AcDbEntity
  8
D-2_蓋
  6
Continuous
 62
     3
370
     9
100
AcDbLine
 10
-931.166159140097
 20
-745.8325442752322
 30
0.0
 11
-896.1656725084458
 21
-738.3427882838894
 31
0.0
  0
LINE
  5
247
330
1F
100
AcDbEntity
  8
D-2_蓋
  6
Continuous
 62
     3
370
     9
100
AcDbLine
 10
-931.166159140097
 20
-743.275996027766
 30
0.0
 11
-896.1656725084458
 21
-735.786240036423
 31
0.0
  0
LINE
  5
248
330
1F
100
AcDbEntity
  8
D-2_蓋
  6
Continuous
 62
     3
370
     9
100
AcDbLine
 10
-896.1656725084458
 20
-766.4653757456186
 30
0.0
 11
-931.166159140097
 21
-773.9551317369616
 31
0.0
  0
LINE
  5
249
330
1F
100
AcDbEntity
  8
D-2_蓋
  6
Continuous
 62
     3
370
     9
100
AcDbLine
 10
-896.1656725084458
 20
-763.9087656381968
 30
0.0
 11
-931.166159140097
 21
-771.3985216295397
 31
0.0
  0
LINE
  5
24A
330
1F
100
AcDbEntity
  8
D-2_蓋
  6
Continuous
 62
     3
370
     9
100
AcDbLine
 10
-931.166159140097
 20
-705.8326597471495
 30
0.0
 11
-896.1656725084458
 21
-713.3224157384923
 31
0.0
  0
LINE
  5
24B
330
1F
100
AcDbEntity
  8
D-2_蓋
  6
Continuous
 62
     3
370
     9
100
AcDbLine
 10
-931.166159140097
 20
-708.3892698545714
 30
0.0
 11
-896.1656725084458
 21
-715.8790258459142
 31
0.0
  0
LINE
  5
24C
330
1F
100
AcDbEntity
  8
D-2_蓋
  6
Continuous
 62
     3
370
     9
100
AcDbLine
 10
-931.166159140097
 20
-680.2666823928421
 30
0.0
 11
-896.1656725084458
 21
-687.7564383841849
 31
0.0
  0
LINE
  5
24D
330
1F
100
AcDbEntity
  8
D-2_蓋
  6
Continuous
 62
     3
370
     9
100
AcDbLine
 10
-931.166159140097
 20
-677.7100722854202
 30
0.0
 11
-896.1656725084458
 21
-685.1995808369404
 31
0.0
  0
LINE
  5
24E
330
1F
100
AcDbEntity
  8
D-2_蓋
  6
Continuous
 62
     3
370
     9
100
AcDbLine
 10
-931.166159140097
 20
-822.0777851826435
 30
0.0
 11
-896.1656725084458
 21
-829.5675411739865
 31
0.0
  0
LINE
  5
24F
330
1F
100
AcDbEntity
  8
D-2_蓋
  6
Continuous
 62
     3
370
     9
100
AcDbLine
 10
-931.166159140097
 20
-824.6342097101984
 30
0.0
 11
-896.1656725084458
 21
-832.1239038415856
 31
0.0
  0
LINE
  5
250
330
1F
100
AcDbEntity
  8
D-2_蓋
  6
Continuous
 62
     3
370
     9
100
AcDbLine
 10
-931.166159140097
 20
-796.5118696882918
 30
0.0
 11
-896.1656725084458
 21
-804.0015638196791
 31
0.0
  0
LINE
  5
251
330
1F
100
AcDbEntity
  8
D-2_蓋
  6
Continuous
 62
     3
370
     9
100
AcDbLine
 10
-931.166159140097
 20
-793.9550121410473
 30
0.0
 11
-896.1656725084458
 21
-801.4447681323901
 31
0.0
  0
LINE
  5
252
330
1F
100
AcDbEntity
  8
D-2_蓋
  6
Continuous
 62
     3
370
     9
100
AcDbLine
 10
-921.1661261481207
 20
-798.6515436945734
 30
0.0
 11
-896.1656725084458
 21
-823.6513787346917
 31
0.0
  0
LINE
  5
253
330
1F
100
AcDbEntity
  8
D-2_蓋
  6
Continuous
 62
     3
370
     9
100
AcDbLine
 10
-907.671747980891
 20
-801.539413864548
 30
0.0
 11
-896.1656725084458
 21
-813.0449325973923
 31
0.0
  0
LINE
  5
254
330
1F
100
AcDbEntity
  8
D-2_蓋
  6
Continuous
 62
     3
370
     9
100
AcDbLine
 10
-931.166159140097
 20
-799.2582661396748
 30
0.0
 11
-902.1339210304053
 21
-828.2905042493666
 31
0.0
  0
LINE
  5
255
330
1F
100
AcDbEntity
  8
D-2_蓋
  6
Continuous
 62
     3
370
     9
100
AcDbLine
 10
-931.166159140097
 20
-809.8647122769742
 30
0.0
 11
-915.6281754777237
 21
-825.4026340793918
 31
0.0
  0
LINE
  5
256
330
1F
100
AcDbEntity
  8
D-2_蓋
  6
Continuous
 62
     3
370
     9
100
AcDbLine
 10
-931.166159140097
 20
-820.4717151538745
 30
0.0
 11
-929.1225536449535
 21
-822.5150732091954
 31
0.0
  0
LINE
  5
257
330
1F
100
AcDbEntity
  8
D-2_蓋
  6
Continuous
 62
     3
370
     9
100
AcDbLine
 10
-921.1661261481207
 20
-682.406665698902
 30
0.0
 11
-896.1656725084458
 21
-707.4065007390202
 31
0.0
  0
LINE
  5
258
330
1F
100
AcDbEntity
  8
D-2_蓋
  6
Continuous
 62
     3
370
     9
100
AcDbLine
 10
-907.671747980891
 20
-685.2944740089209
 30
0.0
 11
-896.1656725084458
 21
-696.7999927417651
 31
0.0
  0
LINE
  5
259
330
1F
100
AcDbEntity
  8
D-2_蓋
  6
Continuous
 62
     3
370
     9
100
AcDbLine
 10
-931.166159140097
 20
-683.0133881440033
 30
0.0
 11
-902.1339210304053
 21
-712.0455643937395
 31
0.0
  0
LINE
  5
25A
330
1F
100
AcDbEntity
  8
D-2_蓋
  6
Continuous
 62
     3
370
     9
100
AcDbLine
 10
-931.166159140097
 20
-693.6198342813027
 30
0.0
 11
-915.6281754777237
 21
-709.1575086438978
 31
0.0
  0
LINE
  5
25B
330
1F
100
AcDbEntity
  8
D-2_蓋
  6
Continuous
 62
     3
370
     9
100
AcDbLine
 10
-931.166159140097
 20
-704.2265897183804
 30
0.0
 11
-929.1225536449535
 21
-706.2698859137457
 31
0.0
  0
LINE
  5
25C
330
1F
100
AcDbEntity
  8
D-2_蓋
  6
Continuous
 62
     3
370
     9
100
AcDbLine
 10
-903.6924207532728
 20
-739.9533740894213
 30
0.0
 11
-896.1656725084458
 21
-747.479256294869
 31
0.0
  0
LINE
  5
25D
330
1F
100
AcDbEntity
  8
D-2_蓋
  6
Continuous
 62
     3
370
     9
100
AcDbLine
 10
-921.1661261481207
 20
-743.6926846890835
 30
0.0
 11
-900.1068940033782
 21
-764.7520405537373
 31
0.0
  0
LINE
  5
25E
330
1F
100
AcDbEntity
  8
D-2_蓋
  6
Continuous
 62
     3
370
     9
100
AcDbLine
 10
-912.429026010874
 20
-741.8230293892525
 30
0.0
 11
-896.1656725084458
 21
-758.0860117319468
 31
0.0
  0
LINE
  5
25F
330
1F
100
AcDbEntity
  8
D-2_蓋
  6
Continuous
 62
     3
370
     9
100
AcDbLine
 10
-929.903102565456
 20
-745.5623399889147
 30
0.0
 11
-908.8434992609797
 21
-766.6216958535683
 31
0.0
  0
LINE
  5
260
330
1F
100
AcDbEntity
  8
D-2_蓋
  6
Continuous
 62
     3
370
     9
100
AcDbLine
 10
-931.166159140097
 20
-754.9061007113071
 30
0.0
 11
-917.5805993982262
 21
-768.4913511533995
 31
0.0
  0
LINE
  5
261
330
1F
100
AcDbEntity
  8
D-2_蓋
  6
Continuous
 62
     3
370
     9
100
AcDbLine
 10
-931.166159140097
 20
-765.5128561483846
 30
0.0
 11
-926.3176995354729
 21
-770.3610064532306
 31
0.0
  0
LINE
  5
262
330
1F
100
AcDbEntity
  8
D-4_寸法
  6
Continuous
 62
     7
370
     9
100
AcDbLine
 10
-896.1656725084458
 20
-538.8010055954392
 30
0.0
 11
-896.1656725084458
 21
-506.4533213022593
 31
0.0
  0
LINE
  5
263
330
1F
100
AcDbEntity
  8
D-4_寸法
  6
Continuous
 62
     7
370
     9
100
AcDbLine
 10
-931.166159140097
 20
-538.8010055954392
 30
0.0
 11
-931.166159140097
 21
-506.4533213022593
 31
0.0
  0
LINE
  5
264
330
1F
100
AcDbEntity
  8
D-4_寸法
  6
Continuous
 62
     7
370
     9
100
AcDbLine
 10
-896.1656725084458
 20
-509.4533435718432
 30
0.0
 11
-871.3796254750844
 21
-506.1901690508867
 31
0.0
  0
LINE
  5
265
330
1F
100
AcDbEntity
  8
D-4_寸法
  6
Continuous
 62
     7
370
     9
100
AcDbLine
 10
-896.1656725084458
 20
-509.4533435718432
 30
0.0
 11
-871.3796254750844
 21
-512.7165180927998
 31
0.0
  0
LINE
  5
266
330
1F
100
AcDbEntity
  8
D-4_寸法
  6
Continuous
 62
     7
370
     9
100
AcDbLine
 10
-931.166159140097
 20
-509.4533435718432
 30
0.0
 11
-955.9522061734585
 21
-506.1901690508867
 31
0.0
  0
LINE
  5
267
330
1F
100
AcDbEntity
  8
D-4_寸法
  6
Continuous
 62
     7
370
     9
100
AcDbLine
 10
-931.166159140097
 20
-509.4533435718432
 30
0.0
 11
-955.9522061734585
 21
-512.7165180927998
 31
0.0
  0
LINE
  5
268
330
1F
100
AcDbEntity
  8
D-4_寸法
  6
Continuous
 62
     7
370
     9
100
AcDbLine
 10
-865.2234464078335
 20
-509.4533435718432
 30
0.0
 11
-956.6518422719594
 21
-509.4533435718432
 31
0.0
  0
LINE
  5
269
330
1F
100
AcDbEntity
  8
D-2_蓋
  6
Continuous
 62
     3
370
     9
100
AcDbLine
 10
-409.0810002507391
 20
-571.6887273015202
 30
0.0
 11
-424.0814208984375
 21
-571.6887273015202
 31
0.0
  0
LINE
  5
26A
330
1F
100
AcDbEntity
  8
D-2_蓋
  6
Continuous
 62
     3
370
     9
100
AcDbLine
 10
-409.0810002507391
 20
-571.6887273015202
 30
0.0
 11
-404.0812311945734
 21
-579.1888757654137
 31
0.0
  0
LINE
  5
26B
330
1F
100
AcDbEntity
  8
D-2_蓋
  6
Continuous
 62
     3
370
     9
100
AcDbLine
 10
-489.646293021537
 20
-571.6887273015202
 30
0.0
 11
-494.6460620777026
 21
-579.1888757654137
 31
0.0
  0
LINE
  5
26C
330
1F
100
AcDbEntity
  8
D-2_蓋
  6
Continuous
 62
     3
370
     9
100
AcDbLine
 10
-459.6460703256966
 20
-571.6887273015202
 30
0.0
 11
-489.646293021537
 21
-571.6887273015202
 31
0.0
  0
LINE
  5
26D
330
1F
100
AcDbEntity
  8
D-2_蓋
  6
Continuous
 62
     3
370
     9
100
AcDbLine
 10
-459.6460703256966
 20
-571.6887273015202
 30
0.0
 11
-454.6465487093539
 21
-579.1888757654137
 31
0.0
  0
LINE
  5
26E
330
1F
100
AcDbEntity
  8
D-2_蓋
  6
Continuous
 62
     3
370
     9
100
AcDbLine
 10
-429.0811899546028
 20
-579.1888757654137
 30
0.0
 11
-454.6465487093539
 21
-579.1888757654137
 31
0.0
  0
LINE
  5
26F
330
1F
100
AcDbEntity
  8
D-2_蓋
  6
Continuous
 62
     3
370
     9
100
AcDbLine
 10
-424.0814208984375
 20
-571.6887273015202
 30
0.0
 11
-429.0811899546028
 21
-579.1888757654137
 31
0.0
  0
LINE
  5
270
330
1F
100
AcDbEntity
  8
D-2_蓋
  6
Continuous
 62
     3
370
     9
100
AcDbLine
 10
-525.2114373284417
 20
-571.6887273015202
 30
0.0
 11
-540.2112393765835
 21
-571.6887273015202
 31
0.0
  0
LINE
  5
271
330
1F
100
AcDbEntity
  8
D-2_蓋
  6
Continuous
 62
     3
370
     9
100
AcDbLine
 10
-525.2114373284417
 20
-571.6887273015202
 30
0.0
 11
-520.2111733926307
 21
-579.1888757654137
 31
0.0
  0
LINE
  5
272
330
1F
100
AcDbEntity
  8
D-2_蓋
  6
Continuous
 62
     3
370
     9
100
AcDbLine
 10
-605.7757403399492
 20
-571.6887273015202
 30
0.0
 11
-610.7760042757602
 21
-579.1888757654137
 31
0.0
  0
LINE
  5
273
330
1F
100
AcDbEntity
  8
D-2_蓋
  6
Continuous
 62
     3
370
     9
100
AcDbLine
 10
-575.7760125237542
 20
-571.6887273015202
 30
0.0
 11
-605.7757403399492
 21
-571.6887273015202
 31
0.0
  0
LINE
  5
274
330
1F
100
AcDbEntity
  8
D-2_蓋
  6
Continuous
 62
     3
370
     9
100
AcDbLine
 10
-575.7760125237542
 20
-571.6887273015202
 30
0.0
 11
-570.7757485879432
 21
-579.1888757654137
 31
0.0
  0
LINE
  5
275
330
1F
100
AcDbEntity
  8
D-2_蓋
  6
Continuous
 62
     3
370
     9
100
AcDbLine
 10
-545.2112558725717
 20
-579.1888757654137
 30
0.0
 11
-570.7757485879432
 21
-579.1888757654137
 31
0.0
  0
LINE
  5
276
330
1F
100
AcDbEntity
  8
D-2_蓋
  6
Continuous
 62
     3
370
     9
100
AcDbLine
 10
-540.2112393765835
 20
-571.6887273015202
 30
0.0
 11
-545.2112558725717
 21
-579.1888757654137
 31
0.0
  0
LINE
  5
277
330
1F
100
AcDbEntity
  8
D-2_蓋
  6
Continuous
 62
     3
370
     9
100
AcDbLine
 10
-520.2111733926307
 20
-579.1888757654137
 30
0.0
 11
-494.6460620777026
 21
-579.1888757654137
 31
0.0
  0
LINE
  5
278
330
1F
100
AcDbEntity
  8
D-2_蓋
  6
Continuous
 62
     3
370
     9
100
AcDbLine
 10
-641.3406372070312
 20
-571.6887273015202
 30
0.0
 11
-656.3409341348182
 21
-571.6887273015202
 31
0.0
  0
LINE
  5
279
330
1F
100
AcDbEntity
  8
D-2_蓋
  6
Continuous
 62
     3
370
     9
100
AcDbLine
 10
-641.3406372070312
 20
-571.6887273015202
 30
0.0
 11
-636.3411155906883
 21
-579.1888757654137
 31
0.0
  0
LINE
  5
27A
330
1F
100
AcDbEntity
  8
D-2_蓋
  6
Continuous
 62
     3
370
     9
100
AcDbLine
 10
-721.9061774176521
 20
-571.6887273015202
 30
0.0
 11
-726.9059464738175
 21
-579.1888757654137
 31
0.0
  0
LINE
  5
27B
330
1F
100
AcDbEntity
  8
D-2_蓋
  6
Continuous
 62
     3
370
     9
100
AcDbLine
 10
-691.9059547218114
 20
-571.6887273015202
 30
0.0
 11
-721.9061774176521
 21
-571.6887273015202
 31
0.0
  0
LINE
  5
27C
330
1F
100
AcDbEntity
  8
D-2_蓋
  6
Continuous
 62
     3
370
     9
100
AcDbLine
 10
-691.9059547218114
 20
-571.6887273015202
 30
0.0
 11
-686.906185665646
 21
-579.1888757654137
 31
0.0
  0
LINE
  5
27D
330
1F
100
AcDbEntity
  8
D-2_蓋
  6
Continuous
 62
     3
370
     9
100
AcDbLine
 10
-661.3407031909838
 20
-579.1888757654137
 30
0.0
 11
-686.906185665646
 21
-579.1888757654137
 31
0.0
  0
LINE
  5
27E
330
1F
100
AcDbEntity
  8
D-2_蓋
  6
Continuous
 62
     3
370
     9
100
AcDbLine
 10
-656.3409341348182
 20
-571.6887273015202
 30
0.0
 11
-661.3407031909838
 21
-579.1888757654137
 31
0.0
  0
LINE
  5
27F
330
1F
100
AcDbEntity
  8
D-2_蓋
  6
Continuous
 62
     3
370
     9
100
AcDbLine
 10
-636.3411155906883
 20
-579.1888757654137
 30
0.0
 11
-610.7760042757602
 21
-579.1888757654137
 31
0.0
  0
LINE
  5
280
330
1F
100
AcDbEntity
  8
D-2_蓋
  6
Continuous
 62
     3
370
     9
100
AcDbLine
 10
-757.4705794050885
 20
-571.6887273015202
 30
0.0
 11
-772.471000052787
 21
-571.6887273015202
 31
0.0
  0
LINE
  5
281
330
1F
100
AcDbEntity
  8
D-2_蓋
  6
Continuous
 62
     3
370
     9
100
AcDbLine
 10
-757.4705794050885
 20
-571.6887273015202
 30
0.0
 11
-752.4708103489231
 21
-579.1888757654137
 31
0.0
  0
LINE
  5
282
330
1F
100
AcDbEntity
  8
D-2_蓋
  6
Continuous
 62
     3
370
     9
100
AcDbLine
 10
-772.471000052787
 20
-571.6887273015202
 30
0.0
 11
-777.4712639885979
 21
-579.1888757654137
 31
0.0
  0
LINE
  5
283
330
1F
100
AcDbEntity
  8
D-2_蓋
  6
Continuous
 62
     3
370
     9
100
AcDbLine
 10
-752.4708103489231
 20
-579.1888757654137
 30
0.0
 11
-726.9059464738175
 21
-579.1888757654137
 31
0.0
  0
LINE
  5
284
330
1F
100
AcDbEntity
  8
D-2_蓋
  6
Continuous
 62
     3
370
     9
100
AcDbLine
 10
-777.4712639885979
 20
-579.1888757654137
 30
0.0
 11
-794.8792741105362
 21
-579.1888757654137
 31
0.0
  0
LINE
  5
285
330
1F
100
AcDbEntity
  8
D-2_蓋
  6
Continuous
 62
     3
370
     9
100
AcDbLine
 10
-265.0868596257388
 20
-626.6889706173458
 30
0.0
 11
-272.5868843697211
 21
-619.1890077333193
 31
0.0
  0
LINE
  5
286
330
1F
100
AcDbEntity
  8
D-2_蓋
  6
Continuous
 62
     3
370
     9
100
AcDbLine
 10
-245.0867936417862
 20
-626.6889706173458
 30
0.0
 11
-237.5872637774492
 21
-619.1890077333193
 31
0.0
  0
LINE
  5
287
330
1F
100
AcDbEntity
  8
D-2_蓋
  6
Continuous
 62
     3
370
     9
100
AcDbLine
 10
-272.5868843697211
 20
-829.1890201053104
 30
0.0
 11
-272.5868843697211
 21
-789.1890737172719
 31
0.0
  0
LINE
  5
288
330
1F
100
AcDbEntity
  8
D-2_蓋
  6
Continuous
 62
     3
370
     9
100
AcDbLine
 10
-272.5868843697211
 20
-789.1890737172719
 30
0.0
 11
-265.0868596257388
 21
-781.689172693201
 31
0.0
  0
LINE
  5
289
330
1F
100
AcDbEntity
  8
D-2_蓋
  6
Continuous
 62
     3
370
     9
100
AcDbLine
 10
-265.0868596257388
 20
-626.6889706173458
 30
0.0
 11
-265.0868596257388
 21
-781.689172693201
 31
0.0
  0
LINE
  5
28A
330
1F
100
AcDbEntity
  8
D-2_蓋
  6
Continuous
 62
     3
370
     9
100
AcDbLine
 10
-245.0867936417862
 20
-626.6889706173458
 30
0.0
 11
-245.0867936417862
 21
-781.689172693201
 31
0.0
  0
LINE
  5
28B
330
1F
100
AcDbEntity
  8
D-2_蓋
  6
Continuous
 62
     3
370
     9
100
AcDbLine
 10
-245.0867936417862
 20
-781.689172693201
 30
0.0
 11
-237.5872637774492
 21
-789.1890737172719
 31
0.0
  0
LINE
  5
28C
330
1F
100
AcDbEntity
  8
D-2_蓋
  6
Continuous
 62
     3
370
     9
100
AcDbLine
 10
-237.5872637774492
 20
-789.1890737172719
 30
0.0
 11
-237.5872637774492
 21
-829.1890201053104
 31
0.0
  0
LINE
  5
28D
330
1F
100
AcDbEntity
  8
D-2_蓋
  6
Continuous
 62
     3
370
     9
100
AcDbLine
 10
-398.3647526921453
 20
-789.1890737172719
 30
0.0
 11
-794.8792741105362
 21
-789.1890737172719
 31
0.0
  0
LINE
  5
28E
330
1F
100
AcDbEntity
  8
D-2_蓋
  6
Continuous
 62
     3
370
     9
100
AcDbLine
 10
-398.3647526921453
 20
-781.689172693201
 30
0.0
 11
-794.8792741105362
 21
-781.689172693201
 31
0.0
  0
LINE
  5
28F
330
1F
100
AcDbEntity
  8
D-2_蓋
  6
Continuous
 62
     3
370
     9
100
AcDbLine
 10
-398.3647526921453
 20
-619.1887602934967
 30
0.0
 11
-794.8792741105362
 21
-619.1887602934967
 31
0.0
  0
LINE
  5
290
330
1F
100
AcDbEntity
  8
D-2_蓋
  6
Continuous
 62
     3
370
     9
100
AcDbLine
 10
-398.3647526921453
 20
-626.6886613175676
 30
0.0
 11
-794.8792741105362
 21
-626.6886613175676
 31
0.0
  0
LINE
  5
291
330
1F
100
AcDbEntity
  8
D-4_寸法
  6
Continuous
 62
     7
370
     9
100
AcDbLine
 10
-833.803537729624
 20
-526.5774783572634
 30
0.0
 11
-901.349536792652
 21
-610.856471706081
 31
0.0
  0
LINE
  5
292
330
1F
100
AcDbEntity
  8
D-4_寸法
  6
Continuous
 62
     7
370
     9
100
AcDbLine
 10
-901.349536792652
 20
-610.856471706081
 30
0.0
 11
-888.3950723184121
 21
-589.4745161726668
 31
0.0
  0
LINE
  5
293
330
1F
100
AcDbEntity
  8
D-4_寸法
  6
Continuous
 62
     7
370
     9
100
AcDbLine
 10
-901.349536792652
 20
-610.856471706081
 30
0.0
 11
-883.302389608847
 21
-593.5562216269002
 31
0.0
  0
LINE
  5
294
330
1F
100
AcDbEntity
  8
D-4_寸法
  6
Continuous
 62
     7
370
     9
100
AcDbLine
 10
-1021.621621621622
 20
-904.189081965266
 30
0.0
 11
-1021.621621621622
 21
-974.1891891891892
 31
0.0
  0
LINE
  5
295
330
1F
100
AcDbEntity
  8
D-4_寸法
  6
Continuous
 62
     7
370
     9
100
AcDbLine
 10
-171.6215391416807
 20
-904.189081965266
 30
0.0
 11
-1021.621621621622
 21
-904.189081965266
 31
0.0
  0
LINE
  5
296
330
1F
100
AcDbEntity
  8
D-4_寸法
  6
Continuous
 62
     7
370
     9
100
AcDbLine
 10
-171.6215391416807
 20
-904.189081965266
 30
0.0
 11
-171.6215391416807
 21
-974.1891891891892
 31
0.0
  0
LINE
  5
297
330
1F
100
AcDbEntity
  8
D-4_寸法
  6
Continuous
 62
     7
370
     9
100
AcDbLine
 10
-171.6215391416807
 20
-974.1891891891892
 30
0.0
 11
-1021.621621621622
 21
-974.1891891891892
 31
0.0
  0
LINE
  5
298
330
1F
100
AcDbEntity
  8
D-4_寸法
  6
Continuous
 62
     7
370
     9
100
AcDbLine
 10
-196.5726285367398
 20
-747.3031410011084
 30
0.0
 11
-305.3298537795607
 21
-747.3031410011084
 31
0.0
  0
LINE
  5
299
330
1F
100
AcDbEntity
  8
D-2_蓋
  6
Continuous
 62
     3
370
     9
100
AcDbLine
 10
-931.166159140097
 20
-769.7924516007707
 30
0.0
 11
-929.8429746885557
 21
-771.1153267525337
 31
0.0
  0
LINE
  5
29A
330
1F
100
AcDbEntity
  8
A-1_ピット
  6
Continuous
 62
     2
370
     9
100
AcDbLine
 10
1300.25816221495
 20
791.442656645904
 30
0.0
 11
1300.25816221495
 21
798.4424817884292
 31
0.0
  0
LINE
  5
29B
330
1F
100
AcDbEntity
  8
A-1_ピット
  6
Continuous
 62
     2
370
     9
100
AcDbLine
 10
1405.258261190879
 20
678.4428282041807
 30
0.0
 11
1412.258086333404
 21
678.4428282041807
 31
0.0
  0
LINE
  5
29C
330
1F
100
AcDbEntity
  8
A-1_ピット
  6
Continuous
 62
     2
370
     9
100
AcDbLine
 10
1400.258244694891
 20
778.4426632442992
 30
0.0
 11
1400.258244694891
 21
683.4425972603464
 31
0.0
  0
LINE
  5
29D
330
1F
100
AcDbEntity
  8
A-1_ピット
  6
Continuous
 62
     2
370
     9
100
AcDbLine
 10
1392.258267789274
 20
786.4426401499156
 30
0.0
 11
1305.258178710938
 21
786.4426401499156
 31
0.0
  0
LINE
  5
29E
330
1F
100
AcDbEntity
  8
A-1_ピット
  6
Continuous
 62
     2
370
     9
100
AcDbLine
 10
1412.258086333404
 20
798.4424817884292
 30
0.0
 11
1300.25816221495
 21
798.4424817884292
 31
0.0
  0
LINE
  5
29F
330
1F
100
AcDbEntity
  8
A-1_ピット
  6
Continuous
 62
     2
370
     9
100
AcDbLine
 10
1412.258086333404
 20
798.4424817884292
 30
0.0
 11
1412.258086333404
 21
678.4428282041807
 31
0.0
  0
LINE
  5
2A0
330
1F
100
AcDbEntity
  8
A-1_ピット
  6
Continuous
 62
     2
370
     9
100
AcDbLine
 10
1362.258168813345
 20
798.4424817884292
 30
0.0
 11
1362.258168813345
 21
816.4427391258448
 31
0.0
  0
LINE
  5
2A1
330
1F
100
AcDbEntity
  8
A-1_ピット
  6
Continuous
 62
     2
370
     9
100
AcDbLine
 10
1389.888289168075
 20
798.4424817884292
 30
0.0
 11
1362.258168813345
 21
798.4424817884292
 31
0.0
  0
LINE
  5
2A2
330
1F
100
AcDbEntity
  8
A-1_ピット
  6
Continuous
 62
     2
370
     9
100
AcDbLine
 10
1389.888536607898
 20
816.4427391258448
 30
0.0
 11
1362.258168813345
 21
816.4427391258448
 31
0.0
  0
LINE
  5
2A3
330
1F
100
AcDbEntity
  8
A-1_ピット
  6
Continuous
 62
     2
370
     9
100
AcDbLine
 10
1399.205883129223
 20
799.6692884290542
 30
0.0
 11
1515.5874716269
 21
830.8536343961151
 31
0.0
  0
LINE
  5
2A4
330
1F
100
AcDbEntity
  8
A-1_ピット
  6
Continuous
 62
     2
370
     9
100
AcDbLine
 10
1394.547333588471
 20
817.0558950063346
 30
0.0
 11
1510.928674646326
 21
848.2402409733953
 31
0.0
  0
LINE
  5
2A5
330
1F
100
AcDbEntity
  8
A-1_ピット
  6
JWW_CENTER2
 62
     2
370
     9
100
AcDbLine
 10
1389.888289168075
 20
807.442610457137
 30
0.0
 11
1354.648404508024
 21
807.442610457137
 31
0.0
  0
LINE
  5
2A6
330
1F
100
AcDbEntity
  8
A-1_ピット
  6
JWW_CENTER2
 62
     2
370
     9
100
AcDbLine
 10
1396.876237199114
 20
808.3625917176943
 30
0.0
 11
1527.209720096073
 21
843.2852585251269
 31
0.0
  0
LINE
  5
2A7
330
1F
100
AcDbEntity
  8
A-2_蓋
  6
Continuous
 62
     3
370
     9
100
AcDbLine
 10
1388.258155616554
 20
778.4426632442992
 30
0.0
 11
1388.258155616554
 21
769.4427820154141
 31
0.0
  0
LINE
  5
2A8
330
1F
100
AcDbEntity
  8
A-2_蓋
  6
Continuous
 62
     3
370
     9
100
AcDbLine
 10
1322.885544235642
 20
678.4425807643584
 30
0.0
 11
1311.571853225296
 21
667.128889754012
 31
0.0
  0
LINE
  5
2A9
330
1F
100
AcDbEntity
  8
A-2_蓋
  6
Continuous
 62
     3
370
     9
100
AcDbLine
 10
1311.571853225296
 20
667.128889754012
 30
0.0
 11
1300.25816221495
 21
678.4425807643584
 31
0.0
  0
LINE
  5
2AA
330
1F
100
AcDbEntity
  8
A-2_蓋
  6
Continuous
 62
     3
370
     9
100
AcDbLine
 10
1300.25816221495
 20
678.4425807643584
 30
0.0
 11
1311.571853225296
 21
689.7562717747044
 31
0.0
  0
LINE
  5
2AB
330
1F
100
AcDbEntity
  8
A-2_蓋
  6
Continuous
 62
     3
370
     9
100
AcDbLine
 10
1311.571853225296
 20
689.7562717747044
 30
0.0
 11
1322.885544235642
 21
678.4425807643584
 31
0.0
  0
LINE
  5
2AC
330
1F
100
AcDbEntity
  8
A-A
  6
Continuous
 62
     3
370
     9
100
AcDbLine
 10
1297.257954365498
 20
765.1563819679054
 30
0.0
 11
1297.257954365498
 21
759.156213708826
 31
0.0
  0
LINE
  5
2AD
330
1F
100
AcDbEntity
  8
A-A
  6
Continuous
 62
     3
370
     9
100
AcDbLine
 10
1297.257954365498
 20
765.1563819679054
 30
0.0
 11
1300.25816221495
 21
767.1561906144427
 31
0.0
  0
LINE
  5
2AE
330
1F
100
AcDbEntity
  8
A-A
  6
Continuous
 62
     3
370
     9
100
AcDbLine
 10
1297.257954365498
 20
732.9303143475508
 30
0.0
 11
1300.25816221495
 21
730.9302582611908
 31
0.0
  0
LINE
  5
2AF
330
1F
100
AcDbEntity
  8
A-A
  6
Continuous
 62
     3
370
     9
100
AcDbLine
 10
1297.257954365498
 20
744.9301559860644
 30
0.0
 11
1297.257954365498
 21
732.9303143475508
 31
0.0
  0
LINE
  5
2B0
330
1F
100
AcDbEntity
  8
A-A
  6
Continuous
 62
     3
370
     9
100
AcDbLine
 10
1297.257954365498
 20
744.9301559860644
 30
0.0
 11
1300.25816221495
 21
746.9302120724242
 31
0.0
  0
LINE
  5
2B1
330
1F
100
AcDbEntity
  8
A-A
  6
Continuous
 62
     3
370
     9
100
AcDbLine
 10
1300.25816221495
 20
757.1564050622891
 30
0.0
 11
1300.25816221495
 21
746.9302120724242
 31
0.0
  0
LINE
  5
2B2
330
1F
100
AcDbEntity
  8
A-A
  6
Continuous
 62
     3
370
     9
100
AcDbLine
 10
1297.257954365498
 20
759.156213708826
 30
0.0
 11
1300.25816221495
 21
757.1564050622891
 31
0.0
  0
LINE
  5
2B3
330
1F
100
AcDbEntity
  8
A-A
  6
Continuous
 62
     3
370
     9
100
AcDbLine
 10
1297.257954365498
 20
718.7045040646117
 30
0.0
 11
1297.257954365498
 21
712.7043358055323
 31
0.0
  0
LINE
  5
2B4
330
1F
100
AcDbEntity
  8
A-A
  6
Continuous
 62
     3
370
     9
100
AcDbLine
 10
1297.257954365498
 20
718.7045040646117
 30
0.0
 11
1300.25816221495
 21
720.7043127111488
 31
0.0
  0
LINE
  5
2B5
330
1F
100
AcDbEntity
  8
A-A
  6
Continuous
 62
     3
370
     9
100
AcDbLine
 10
1297.257954365498
 20
686.4781890044342
 30
0.0
 11
1300.25816221495
 21
684.4783803578971
 31
0.0
  0
LINE
  5
2B6
330
1F
100
AcDbEntity
  8
A-A
  6
Continuous
 62
     3
370
     9
100
AcDbLine
 10
1297.257954365498
 20
698.4782780827703
 30
0.0
 11
1297.257954365498
 21
686.4781890044342
 31
0.0
  0
LINE
  5
2B7
330
1F
100
AcDbEntity
  8
A-A
  6
Continuous
 62
     3
370
     9
100
AcDbLine
 10
1297.257954365498
 20
698.4782780827703
 30
0.0
 11
1300.25816221495
 21
700.4783341691302
 31
0.0
  0
LINE
  5
2B8
330
1F
100
AcDbEntity
  8
A-A
  6
Continuous
 62
     3
370
     9
100
AcDbLine
 10
1300.25816221495
 20
710.7042797191724
 30
0.0
 11
1300.25816221495
 21
700.4783341691302
 31
0.0
  0
LINE
  5
2B9
330
1F
100
AcDbEntity
  8
A-A
  6
Continuous
 62
     3
370
     9
100
AcDbLine
 10
1297.257954365498
 20
712.7043358055323
 30
0.0
 11
1300.25816221495
 21
710.7042797191724
 31
0.0
  0
LINE
  5
2BA
330
1F
100
AcDbEntity
  8
A-A
  6
Continuous
 62
     3
370
     9
100
AcDbLine
 10
1300.25816221495
 20
720.7043127111488
 30
0.0
 11
1300.25816221495
 21
730.9302582611908
 31
0.0
  0
LINE
  5
2BB
330
1F
100
AcDbEntity
  8
A-A
  6
Continuous
 62
     3
370
     9
100
AcDbLine
 10
1297.257954365498
 20
672.252378721495
 30
0.0
 11
1297.257954365498
 21
666.2522104624156
 31
0.0
  0
LINE
  5
2BC
330
1F
100
AcDbEntity
  8
A-A
  6
Continuous
 62
     3
370
     9
100
AcDbLine
 10
1297.257954365498
 20
672.252378721495
 30
0.0
 11
1300.25816221495
 21
674.252434807855
 31
0.0
  0
LINE
  5
2BD
330
1F
100
AcDbEntity
  8
A-A
  6
Continuous
 62
     3
370
     9
100
AcDbLine
 10
1297.257954365498
 20
640.0263111011404
 30
0.0
 11
1300.25816221495
 21
638.0262550147804
 31
0.0
  0
LINE
  5
2BE
330
1F
100
AcDbEntity
  8
A-A
  6
Continuous
 62
     3
370
     9
100
AcDbLine
 10
1297.257954365498
 20
652.026152739654
 30
0.0
 11
1297.257954365498
 21
640.0263111011404
 31
0.0
  0
LINE
  5
2BF
330
1F
100
AcDbEntity
  8
A-A
  6
Continuous
 62
     3
370
     9
100
AcDbLine
 10
1297.257954365498
 20
652.026152739654
 30
0.0
 11
1300.25816221495
 21
654.0262088260135
 31
0.0
  0
LINE
  5
2C0
330
1F
100
AcDbEntity
  8
A-A
  6
Continuous
 62
     3
370
     9
100
AcDbLine
 10
1300.25816221495
 20
664.2524018158783
 30
0.0
 11
1300.25816221495
 21
654.0262088260135
 31
0.0
  0
LINE
  5
2C1
330
1F
100
AcDbEntity
  8
A-A
  6
Continuous
 62
     3
370
     9
100
AcDbLine
 10
1297.257954365498
 20
666.2522104624156
 30
0.0
 11
1300.25816221495
 21
664.2524018158783
 31
0.0
  0
LINE
  5
2C2
330
1F
100
AcDbEntity
  8
A-A
  6
Continuous
 62
     3
370
     9
100
AcDbLine
 10
1300.25816221495
 20
674.252434807855
 30
0.0
 11
1300.25816221495
 21
684.4783803578971
 31
0.0
  0
LINE
  5
2C3
330
1F
100
AcDbEntity
  8
A-A
  6
Continuous
 62
     3
370
     9
100
AcDbLine
 10
1297.257954365498
 20
625.8002533783783
 30
0.0
 11
1297.257954365498
 21
619.8003325591217
 31
0.0
  0
LINE
  5
2C4
330
1F
100
AcDbEntity
  8
A-A
  6
Continuous
 62
     3
370
     9
100
AcDbLine
 10
1297.257954365498
 20
625.8002533783783
 30
0.0
 11
1300.25816221495
 21
627.8003094647383
 31
0.0
  0
LINE
  5
2C5
330
1F
100
AcDbEntity
  8
A-A
  6
Continuous
 62
     3
370
     9
100
AcDbLine
 10
1297.257954365498
 20
619.8003325591217
 30
0.0
 11
1300.25816221495
 21
617.800276472762
 31
0.0
  0
LINE
  5
2C6
330
1F
100
AcDbEntity
  8
A-A
  6
Continuous
 62
     3
370
     9
100
AcDbLine
 10
1300.25816221495
 20
627.8003094647383
 30
0.0
 11
1300.25816221495
 21
638.0262550147804
 31
0.0
  0
LINE
  5
2C7
330
1F
100
AcDbEntity
  8
A-A
  6
Continuous
 62
     3
370
     9
100
AcDbLine
 10
1300.25816221495
 20
778.4426632442992
 30
0.0
 11
1300.25816221495
 21
767.1561906144427
 31
0.0
  0
LINE
  5
2C8
330
1F
100
AcDbEntity
  8
A-2_蓋
  6
Continuous
 62
     3
370
     9
100
AcDbLine
 10
1300.25816221495
 20
778.4426632442992
 30
0.0
 11
1388.258155616554
 21
778.4426632442992
 31
0.0
  0
LINE
  5
2C9
330
1F
100
AcDbEntity
  8
A-A
  6
Continuous
 62
     3
370
     9
100
AcDbLine
 10
1297.257954365498
 20
593.5741857580238
 30
0.0
 11
1300.25816221495
 21
591.5741296716641
 31
0.0
  0
LINE
  5
2CA
330
1F
100
AcDbEntity
  8
A-A
  6
Continuous
 62
     3
370
     9
100
AcDbLine
 10
1297.257954365498
 20
605.5740273965373
 30
0.0
 11
1297.257954365498
 21
593.5741857580238
 31
0.0
  0
LINE
  5
2CB
330
1F
100
AcDbEntity
  8
A-A
  6
Continuous
 62
     3
370
     9
100
AcDbLine
 10
1297.257954365498
 20
605.5740273965373
 30
0.0
 11
1300.25816221495
 21
607.5740834828971
 31
0.0
  0
LINE
  5
2CC
330
1F
100
AcDbEntity
  8
A-A
  6
Continuous
 62
     3
370
     9
100
AcDbLine
 10
1300.25816221495
 20
617.800276472762
 30
0.0
 11
1300.25816221495
 21
607.5740834828971
 31
0.0
  0
LINE
  5
2CD
330
1F
100
AcDbEntity
  8
A-A
  6
Continuous
 62
     3
370
     9
100
AcDbLine
 10
1297.257954365498
 20
579.348128035262
 30
0.0
 11
1297.257954365498
 21
573.3482072160052
 31
0.0
  0
LINE
  5
2CE
330
1F
100
AcDbEntity
  8
A-A
  6
Continuous
 62
     3
370
     9
100
AcDbLine
 10
1297.257954365498
 20
579.348128035262
 30
0.0
 11
1300.25816221495
 21
581.3481841216217
 31
0.0
  0
LINE
  5
2CF
330
1F
100
AcDbEntity
  8
A-A
  6
Continuous
 62
     3
370
     9
100
AcDbLine
 10
1297.257954365498
 20
573.3482072160052
 30
0.0
 11
1300.25816221495
 21
571.3481511296453
 31
0.0
  0
LINE
  5
2D0
330
1F
100
AcDbEntity
  8
A-A
  6
Continuous
 62
     3
370
     9
100
AcDbLine
 10
1300.25816221495
 20
581.3481841216217
 30
0.0
 11
1300.25816221495
 21
591.5741296716641
 31
0.0
  0
LINE
  5
2D1
330
1F
100
AcDbEntity
  8
A-A
  6
Continuous
 62
     3
370
     9
100
AcDbLine
 10
1297.257954365498
 20
559.1219020534209
 30
0.0
 11
1297.257954365498
 21
547.1220604149073
 31
0.0
  0
LINE
  5
2D2
330
1F
100
AcDbEntity
  8
A-A
  6
Continuous
 62
     3
370
     9
100
AcDbLine
 10
1297.257954365498
 20
559.1219020534209
 30
0.0
 11
1300.25816221495
 21
561.1222055796031
 31
0.0
  0
LINE
  5
2D3
330
1F
100
AcDbEntity
  8
A-A
  6
Continuous
 62
     3
370
     9
100
AcDbLine
 10
1300.25816221495
 20
571.3481511296453
 30
0.0
 11
1300.25816221495
 21
561.1222055796031
 31
0.0
  0
LINE
  5
2D4
330
1F
100
AcDbEntity
  8
A-2_蓋
  6
Continuous
 62
     3
370
     9
100
AcDbLine
 10
1400.257997255068
 20
769.4427820154141
 30
0.0
 11
1400.257997255068
 21
549.3756185995568
 31
0.0
  0
LINE
  5
2D5
330
1F
100
AcDbEntity
  8
A-2_蓋
  6
Continuous
 62
     3
370
     9
100
AcDbLine
 10
1381.258083034206
 20
769.4427820154141
 30
0.0
 11
1381.258083034206
 21
767.8289794921875
 31
0.0
  0
LINE
  5
2D6
330
1F
100
AcDbEntity
  8
A-2_蓋
  6
Continuous
 62
     3
370
     9
100
AcDbLine
 10
1384.258043443835
 20
769.4427820154141
 30
0.0
 11
1384.258043443835
 21
767.6634422508448
 31
0.0
  0
LINE
  5
2D7
330
1F
100
AcDbEntity
  8
A-2_蓋
  6
Continuous
 62
     3
370
     9
100
AcDbLine
 10
1381.258083034206
 20
762.0203296558279
 30
0.0
 11
1381.258083034206
 21
741.2425603093328
 31
0.0
  0
LINE
  5
2D8
330
1F
100
AcDbEntity
  8
A-2_蓋
  6
Continuous
 62
     3
370
     9
100
AcDbLine
 10
1381.258083034206
 20
735.442818306588
 30
0.0
 11
1381.258083034206
 21
549.3756185995568
 31
0.0
  0
LINE
  5
2D9
330
1F
100
AcDbEntity
  8
A-2_蓋
  6
Continuous
 62
     3
370
     9
100
AcDbLine
 10
1384.258043443835
 20
761.8547924144849
 30
0.0
 11
1384.258043443835
 21
741.2425603093328
 31
0.0
  0
LINE
  5
2DA
330
1F
100
AcDbEntity
  8
A-2_蓋
  6
Continuous
 62
     3
370
     9
100
AcDbLine
 10
1384.258043443835
 20
735.442818306588
 30
0.0
 11
1384.258043443835
 21
549.3756185995568
 31
0.0
  0
LINE
  5
2DB
330
1F
100
AcDbEntity
  8
A-2_蓋
  6
Continuous
 62
     3
370
     9
100
AcDbLine
 10
1300.25816221495
 20
769.4427820154141
 30
0.0
 11
1388.258155616554
 21
769.4427820154141
 31
0.0
  0
LINE
  5
2DC
330
1F
100
AcDbEntity
  8
A-2_蓋
  6
Continuous
 62
     3
370
     9
100
AcDbLine
 10
1394.058392498944
 20
769.4427820154141
 30
0.0
 11
1400.257997255068
 21
769.4427820154141
 31
0.0
  0
LINE
  5
2DD
330
1F
100
AcDbEntity
  8
A-3_受枠
  6
Continuous
 62
     4
370
     9
100
AcDbLine
 10
1326.157193570524
 20
-23.79411027238177
 30
0.0
 11
1326.80573334565
 21
-29.55797350084453
 31
0.0
  0
LINE
  5
2DE
330
1F
100
AcDbEntity
  8
A-3_受枠
  6
Continuous
 62
     4
370
     9
100
AcDbLine
 10
1346.219861829603
 20
-27.3730798669763
 30
0.0
 11
1326.80573334565
 21
-29.55797350084453
 31
0.0
  0
LINE
  5
2DF
330
1F
100
AcDbEntity
  8
A-3_受枠
  6
Continuous
 62
     4
370
     9
100
AcDbLine
 10
1346.0318075644
 20
-21.55774915540519
 30
0.0
 11
1326.157193570524
 21
-23.79411027238177
 31
0.0
  0
LINE
  5
2E0
330
1F
100
AcDbEntity
  8
A-3_受枠
  6
Continuous
 62
     4
370
     9
100
AcDbLine
 10
1387.21074284734
 20
-23.50831727723801
 30
0.0
 11
1346.0318075644
 21
-21.55774915540519
 31
0.0
  0
LINE
  5
2E1
330
1F
100
AcDbEntity
  8
A-3_受枠
  6
Continuous
 62
     4
370
     9
100
AcDbLine
 10
1386.93657952386
 20
-29.30162584459453
 30
0.0
 11
1346.219861829603
 21
-27.3730798669763
 31
0.0
  0
LINE
  5
2E2
330
1F
100
AcDbEntity
  8
A-3_受枠
  6
Continuous
 62
     4
370
     9
100
AcDbLine
 10
1394.058392498944
 20
-11.61462732263516
 30
0.0
 11
1394.058392498944
 21
-22.50940271326016
 31
0.0
  0
LINE
  5
2E3
330
1F
100
AcDbEntity
  8
A-3_受枠
  6
Continuous
 62
     4
370
     9
100
AcDbLine
 10
1332.858111407306
 20
15.64235377956095
 30
0.0
 11
1391.158150337838
 21
15.64235377956095
 31
0.0
  0
LINE
  5
2E4
330
1F
100
AcDbEntity
  8
A-3_受枠
  6
Continuous
 62
     4
370
     9
100
AcDbLine
 10
1332.858111407306
 20
21.44209578230573
 30
0.0
 11
1391.158150337838
 21
21.44209578230573
 31
0.0
  0
LINE
  5
2E5
330
1F
100
AcDbEntity
  8
A-3_受枠
  6
Continuous
 62
     4
370
     9
100
AcDbLine
 10
1326.05821764147
 20
3.790728594805728
 30
0.0
 11
1326.05821764147
 21
14.64220201646981
 31
0.0
  0
LINE
  5
2E6
330
1F
100
AcDbEntity
  8
A-3_受枠
  6
Continuous
 62
     4
370
     9
100
AcDbLine
 10
1331.858207084038
 20
3.790728594805728
 30
0.0
 11
1331.858207084038
 21
14.64220201646981
 31
0.0
  0
LINE
  5
2E7
330
1F
100
AcDbEntity
  8
A-3_受枠
  6
Continuous
 62
     4
370
     9
100
AcDbLine
 10
1332.438948347762
 20
2.882871885557563
 30
0.0
 11
1353.1494140625
 21
-6.687110694678893
 31
0.0
  0
LINE
  5
2E8
330
1F
100
AcDbEntity
  8
A-3_受枠
  6
Continuous
 62
     4
370
     9
100
AcDbLine
 10
1386.883627401816
 20
-4.824878589526804
 30
0.0
 11
1353.1494140625
 21
-6.687110694678893
 31
0.0
  0
LINE
  5
2E9
330
1F
100
AcDbEntity
  8
A-3_受枠
  6
Continuous
 62
     4
370
     9
100
AcDbLine
 10
1330.005872571791
 20
-2.381905220650253
 30
0.0
 11
1352.02727446685
 21
-12.55786792652032
 31
0.0
  0
LINE
  5
2EA
330
1F
100
AcDbEntity
  8
A-3_受枠
  6
Continuous
 62
     4
370
     9
100
AcDbLine
 10
1387.203072212838
 20
-10.61596019847968
 30
0.0
 11
1352.02727446685
 21
-12.55786792652032
 31
0.0
  0
LINE
  5
2EB
330
1F
100
AcDbEntity
  8
A-3_受枠
  6
Continuous
 62
     4
370
     9
100
AcDbLine
 10
1388.258403056377
 20
-22.50940271326016
 30
0.0
 11
1388.258403056377
 21
-11.61462732263516
 31
0.0
  0
LINE
  5
2EC
330
1F
100
AcDbEntity
  8
A-1_ピット
  6
Continuous
 62
     2
370
     9
100
AcDbLine
 10
1300.25816221495
 20
-34.55774255701016
 30
0.0
 11
1300.25816221495
 21
-41.55756769953541
 31
0.0
  0
LINE
  5
2ED
330
1F
100
AcDbEntity
  8
A-1_ピット
  6
Continuous
 62
     2
370
     9
100
AcDbLine
 10
1405.258261190879
 20
78.44208588471304
 30
0.0
 11
1412.258086333404
 21
78.44208588471304
 31
0.0
  0
LINE
  5
2EE
330
1F
100
AcDbEntity
  8
A-1_ピット
  6
Continuous
 62
     2
370
     9
100
AcDbLine
 10
1400.258244694891
 20
-21.55774915540519
 30
0.0
 11
1400.258244694891
 21
73.4423168285474
 31
0.0
  0
LINE
  5
2EF
330
1F
100
AcDbEntity
  8
A-1_ピット
  6
Continuous
 62
     2
370
     9
100
AcDbLine
 10
1392.258267789274
 20
-29.55772606102187
 30
0.0
 11
1305.258178710938
 21
-29.55772606102187
 31
0.0
  0
LINE
  5
2F0
330
1F
100
AcDbEntity
  8
A-1_ピット
  6
Continuous
 62
     2
370
     9
100
AcDbLine
 10
1412.258086333404
 20
-41.55756769953541
 30
0.0
 11
1300.25816221495
 21
-41.55756769953541
 31
0.0
  0
LINE
  5
2F1
330
1F
100
AcDbEntity
  8
A-1_ピット
  6
Continuous
 62
     2
370
     9
100
AcDbLine
 10
1412.258086333404
 20
-41.55756769953541
 30
0.0
 11
1412.258086333404
 21
78.44208588471304
 31
0.0
  0
LINE
  5
2F2
330
1F
100
AcDbEntity
  8
A-1_ピット
  6
Continuous
 62
     2
370
     9
100
AcDbLine
 10
1362.258168813345
 20
-41.55756769953541
 30
0.0
 11
1362.258168813345
 21
-59.55782503695104
 31
0.0
  0
LINE
  5
2F3
330
1F
100
AcDbEntity
  8
A-1_ピット
  6
Continuous
 62
     2
370
     9
100
AcDbLine
 10
1389.888289168075
 20
-41.55756769953541
 30
0.0
 11
1362.258168813345
 21
-41.55756769953541
 31
0.0
  0
LINE
  5
2F4
330
1F
100
AcDbEntity
  8
A-1_ピット
  6
Continuous
 62
     2
370
     9
100
AcDbLine
 10
1389.888536607898
 20
-59.55782503695104
 30
0.0
 11
1362.258168813345
 21
-59.55782503695104
 31
0.0
  0
LINE
  5
2F5
330
1F
100
AcDbEntity
  8
A-1_ピット
  6
Continuous
 62
     2
370
     9
100
AcDbLine
 10
1399.205883129223
 20
-42.78437434016041
 30
0.0
 11
1515.5874716269
 21
-73.96872030722108
 31
0.0
  0
LINE
  5
2F6
330
1F
100
AcDbEntity
  8
A-1_ピット
  6
Continuous
 62
     2
370
     9
100
AcDbLine
 10
1394.547333588471
 20
-60.17098091744089
 30
0.0
 11
1510.928674646326
 21
-91.35532688450155
 31
0.0
  0
LINE
  5
2F7
330
1F
100
AcDbEntity
  8
A-1_ピット
  6
JWW_CENTER2
 62
     2
370
     9
100
AcDbLine
 10
1389.888289168075
 20
-50.55769636824323
 30
0.0
 11
1354.648404508024
 21
-50.55769636824323
 31
0.0
  0
LINE
  5
2F8
330
1F
100
AcDbEntity
  8
A-1_ピット
  6
JWW_CENTER2
 62
     2
370
     9
100
AcDbLine
 10
1396.876237199114
 20
-51.47767762880051
 30
0.0
 11
1527.209720096073
 21
-86.40034443623307
 31
0.0
  0
LINE
  5
2F9
330
1F
100
AcDbEntity
  8
A-2_蓋
  6
Continuous
 62
     3
370
     9
100
AcDbLine
 10
1388.258155616554
 20
-21.55774915540519
 30
0.0
 11
1388.258155616554
 21
-12.55786792652032
 31
0.0
  0
LINE
  5
2FA
330
1F
100
AcDbEntity
  8
A-2_蓋
  6
Continuous
 62
     3
370
     9
100
AcDbLine
 10
1300.25816221495
 20
-21.55774915540519
 30
0.0
 11
1300.25816221495
 21
-12.55786792652032
 31
0.0
  0
LINE
  5
2FB
330
1F
100
AcDbEntity
  8
A-2_蓋
  6
Continuous
 62
     3
370
     9
100
AcDbLine
 10
1300.25816221495
 20
-21.55774915540519
 30
0.0
 11
1388.258155616554
 21
-21.55774915540519
 31
0.0
  0
LINE
  5
2FC
330
1F
100
AcDbEntity
  8
A-2_蓋
  6
Continuous
 62
     3
370
     9
100
AcDbLine
 10
1400.257997255068
 20
-12.55786792652032
 30
0.0
 11
1400.257997255068
 21
549.3756185995568
 31
0.0
  0
LINE
  5
2FD
330
1F
100
AcDbEntity
  8
A-2_蓋
  6
Continuous
 62
     3
370
     9
100
AcDbLine
 10
1381.258083034206
 20
-12.55786792652032
 30
0.0
 11
1381.258083034206
 21
-10.94406540329373
 31
0.0
  0
LINE
  5
2FE
330
1F
100
AcDbEntity
  8
A-2_蓋
  6
Continuous
 62
     3
370
     9
100
AcDbLine
 10
1384.258043443835
 20
-12.55786792652032
 30
0.0
 11
1384.258043443835
 21
-10.77852816195104
 31
0.0
  0
LINE
  5
2FF
330
1F
100
AcDbEntity
  8
A-2_蓋
  6
Continuous
 62
     3
370
     9
100
AcDbLine
 10
1381.258083034206
 20
-5.135415566934114
 30
0.0
 11
1381.258083034206
 21
15.64235377956095
 31
0.0
  0
LINE
  5
300
330
1F
100
AcDbEntity
  8
A-2_蓋
  6
Continuous
 62
     3
370
     9
100
AcDbLine
 10
1381.258083034206
 20
21.44209578230573
 30
0.0
 11
1381.258083034206
 21
549.3756185995568
 31
0.0
  0
LINE
  5
301
330
1F
100
AcDbEntity
  8
A-2_蓋
  6
Continuous
 62
     3
370
     9
100
AcDbLine
 10
1384.258043443835
 20
-4.969878325591139
 30
0.0
 11
1384.258043443835
 21
15.64235377956095
 31
0.0
  0
LINE
  5
302
330
1F
100
AcDbEntity
  8
A-2_蓋
  6
Continuous
 62
     3
370
     9
100
AcDbLine
 10
1384.258043443835
 20
21.44209578230573
 30
0.0
 11
1384.258043443835
 21
549.3756185995568
 31
0.0
  0
LINE
  5
303
330
1F
100
AcDbEntity
  8
A-2_蓋
  6
Continuous
 62
     3
370
     9
100
AcDbLine
 10
1394.058392498944
 20
-12.55786792652032
 30
0.0
 11
1400.257997255068
 21
-12.55786792652032
 31
0.0
  0
LINE
  5
304
330
1F
100
AcDbEntity
  8
A-A
  6
Continuous
 62
     3
370
     9
100
AcDbLine
 10
1297.257954365498
 20
547.1220604149073
 30
0.0
 11
1300.25816221495
 21
545.1220043285474
 31
0.0
  0
LINE
  5
305
330
1F
100
AcDbEntity
  8
A-A
  6
Continuous
 62
     3
370
     9
100
AcDbLine
 10
1297.257954365498
 20
532.8960026921453
 30
0.0
 11
1297.257954365498
 21
526.8960818728885
 31
0.0
  0
LINE
  5
306
330
1F
100
AcDbEntity
  8
A-A
  6
Continuous
 62
     3
370
     9
100
AcDbLine
 10
1297.257954365498
 20
532.8960026921453
 30
0.0
 11
1300.25816221495
 21
534.8960587785052
 31
0.0
  0
LINE
  5
307
330
1F
100
AcDbEntity
  8
A-A
  6
Continuous
 62
     3
370
     9
100
AcDbLine
 10
1297.257954365498
 20
526.8960818728885
 30
0.0
 11
1300.25816221495
 21
524.896025786529
 31
0.0
  0
LINE
  5
308
330
1F
100
AcDbEntity
  8
A-A
  6
Continuous
 62
     3
370
     9
100
AcDbLine
 10
1300.25816221495
 20
534.8960587785052
 30
0.0
 11
1300.25816221495
 21
545.1220043285474
 31
0.0
  0
LINE
  5
309
330
1F
100
AcDbEntity
  8
A-A
  6
Continuous
 62
     3
370
     9
100
AcDbLine
 10
1297.257954365498
 20
512.6697767103042
 30
0.0
 11
1297.257954365498
 21
500.6699350717906
 31
0.0
  0
LINE
  5
30A
330
1F
100
AcDbEntity
  8
A-A
  6
Continuous
 62
     3
370
     9
100
AcDbLine
 10
1297.257954365498
 20
512.6697767103042
 30
0.0
 11
1300.25816221495
 21
514.6700802364865
 31
0.0
  0
LINE
  5
30B
330
1F
100
AcDbEntity
  8
A-A
  6
Continuous
 62
     3
370
     9
100
AcDbLine
 10
1300.25816221495
 20
524.896025786529
 30
0.0
 11
1300.25816221495
 21
514.6700802364865
 31
0.0
  0
LINE
  5
30C
330
1F
100
AcDbEntity
  8
A-A
  6
Continuous
 62
     3
370
     9
100
AcDbLine
 10
1297.257954365498
 20
500.6699350717906
 30
0.0
 11
1300.25816221495
 21
498.6698789854307
 31
0.0
  0
LINE
  5
30D
330
1F
100
AcDbEntity
  8
A-A
  6
Continuous
 62
     3
370
     9
100
AcDbLine
 10
1297.257954365498
 20
486.4438773490289
 30
0.0
 11
1297.257954365498
 21
480.4439565297722
 31
0.0
  0
LINE
  5
30E
330
1F
100
AcDbEntity
  8
A-A
  6
Continuous
 62
     3
370
     9
100
AcDbLine
 10
1297.257954365498
 20
486.4438773490289
 30
0.0
 11
1300.25816221495
 21
488.4439334353885
 31
0.0
  0
LINE
  5
30F
330
1F
100
AcDbEntity
  8
A-A
  6
Continuous
 62
     3
370
     9
100
AcDbLine
 10
1297.257954365498
 20
480.4439565297722
 30
0.0
 11
1300.25816221495
 21
478.4439004434122
 31
0.0
  0
LINE
  5
310
330
1F
100
AcDbEntity
  8
A-A
  6
Continuous
 62
     3
370
     9
100
AcDbLine
 10
1300.25816221495
 20
488.4439334353885
 30
0.0
 11
1300.25816221495
 21
498.6698789854307
 31
0.0
  0
LINE
  5
311
330
1F
100
AcDbEntity
  8
A-A
  6
Continuous
 62
     3
370
     9
100
AcDbLine
 10
1297.257954365498
 20
466.2176513671875
 30
0.0
 11
1297.257954365498
 21
454.217809728674
 31
0.0
  0
LINE
  5
312
330
1F
100
AcDbEntity
  8
A-A
  6
Continuous
 62
     3
370
     9
100
AcDbLine
 10
1297.257954365498
 20
466.2176513671875
 30
0.0
 11
1300.25816221495
 21
468.2179548933701
 31
0.0
  0
LINE
  5
313
330
1F
100
AcDbEntity
  8
A-A
  6
Continuous
 62
     3
370
     9
100
AcDbLine
 10
1300.25816221495
 20
478.4439004434122
 30
0.0
 11
1300.25816221495
 21
468.2179548933701
 31
0.0
  0
LINE
  5
314
330
1F
100
AcDbEntity
  8
A-A
  6
Continuous
 62
     3
370
     9
100
AcDbLine
 10
1297.257954365498
 20
454.217809728674
 30
0.0
 11
1300.25816221495
 21
452.2177536423143
 31
0.0
  0
LINE
  5
315
330
1F
100
AcDbEntity
  8
A-A
  6
Continuous
 62
     3
370
     9
100
AcDbLine
 10
1297.257954365498
 20
439.9917520059122
 30
0.0
 11
1297.257954365498
 21
433.9918311866555
 31
0.0
  0
LINE
  5
316
330
1F
100
AcDbEntity
  8
A-A
  6
Continuous
 62
     3
370
     9
100
AcDbLine
 10
1297.257954365498
 20
439.9917520059122
 30
0.0
 11
1300.25816221495
 21
441.9918080922722
 31
0.0
  0
LINE
  5
317
330
1F
100
AcDbEntity
  8
A-A
  6
Continuous
 62
     3
370
     9
100
AcDbLine
 10
1297.257954365498
 20
433.9918311866555
 30
0.0
 11
1300.25816221495
 21
431.9917751002959
 31
0.0
  0
LINE
  5
318
330
1F
100
AcDbEntity
  8
A-A
  6
Continuous
 62
     3
370
     9
100
AcDbLine
 10
1300.25816221495
 20
441.9918080922722
 30
0.0
 11
1300.25816221495
 21
452.2177536423143
 31
0.0
  0
LINE
  5
319
330
1F
100
AcDbEntity
  8
A-A
  6
Continuous
 62
     3
370
     9
100
AcDbLine
 10
1297.257954365498
 20
419.7655260240711
 30
0.0
 11
1297.257954365498
 21
407.7656843855576
 31
0.0
  0
LINE
  5
31A
330
1F
100
AcDbEntity
  8
A-A
  6
Continuous
 62
     3
370
     9
100
AcDbLine
 10
1297.257954365498
 20
419.7655260240711
 30
0.0
 11
1300.25816221495
 21
421.7658295502534
 31
0.0
  0
LINE
  5
31B
330
1F
100
AcDbEntity
  8
A-A
  6
Continuous
 62
     3
370
     9
100
AcDbLine
 10
1300.25816221495
 20
431.9917751002959
 30
0.0
 11
1300.25816221495
 21
421.7658295502534
 31
0.0
  0
LINE
  5
31C
330
1F
100
AcDbEntity
  8
A-A
  6
Continuous
 62
     3
370
     9
100
AcDbLine
 10
1297.257954365498
 20
407.7656843855576
 30
0.0
 11
1300.25816221495
 21
405.7656282991977
 31
0.0
  0
LINE
  5
31D
330
1F
100
AcDbEntity
  8
A-A
  6
Continuous
 62
     3
370
     9
100
AcDbLine
 10
1297.257954365498
 20
393.5396266627959
 30
0.0
 11
1297.257954365498
 21
387.5397058435391
 31
0.0
  0
LINE
  5
31E
330
1F
100
AcDbEntity
  8
A-A
  6
Continuous
 62
     3
370
     9
100
AcDbLine
 10
1297.257954365498
 20
393.5396266627959
 30
0.0
 11
1300.25816221495
 21
395.5396827491555
 31
0.0
  0
LINE
  5
31F
330
1F
100
AcDbEntity
  8
A-A
  6
Continuous
 62
     3
370
     9
100
AcDbLine
 10
1297.257954365498
 20
387.5397058435391
 30
0.0
 11
1300.25816221495
 21
385.5396497571792
 31
0.0
  0
LINE
  5
320
330
1F
100
AcDbEntity
  8
A-A
  6
Continuous
 62
     3
370
     9
100
AcDbLine
 10
1300.25816221495
 20
395.5396827491555
 30
0.0
 11
1300.25816221495
 21
405.7656282991977
 31
0.0
  0
LINE
  5
321
330
1F
100
AcDbEntity
  8
A-A
  6
Continuous
 62
     3
370
     9
100
AcDbLine
 10
1297.257954365498
 20
373.3134006809544
 30
0.0
 11
1297.257954365498
 21
361.3135590424409
 31
0.0
  0
LINE
  5
322
330
1F
100
AcDbEntity
  8
A-A
  6
Continuous
 62
     3
370
     9
100
AcDbLine
 10
1297.257954365498
 20
373.3134006809544
 30
0.0
 11
1300.25816221495
 21
375.313704207137
 31
0.0
  0
LINE
  5
323
330
1F
100
AcDbEntity
  8
A-A
  6
Continuous
 62
     3
370
     9
100
AcDbLine
 10
1300.25816221495
 20
385.5396497571792
 30
0.0
 11
1300.25816221495
 21
375.313704207137
 31
0.0
  0
LINE
  5
324
330
1F
100
AcDbEntity
  8
A-A
  6
Continuous
 62
     3
370
     9
100
AcDbLine
 10
1297.257954365498
 20
361.3135590424409
 30
0.0
 11
1300.25816221495
 21
359.3135029560813
 31
0.0
  0
LINE
  5
325
330
1F
100
AcDbEntity
  8
A-A
  6
Continuous
 62
     3
370
     9
100
AcDbLine
 10
1297.257954365498
 20
347.0875013196792
 30
0.0
 11
1297.257954365498
 21
341.0875805004224
 31
0.0
  0
LINE
  5
326
330
1F
100
AcDbEntity
  8
A-A
  6
Continuous
 62
     3
370
     9
100
AcDbLine
 10
1297.257954365498
 20
347.0875013196792
 30
0.0
 11
1300.25816221495
 21
349.0875574060391
 31
0.0
  0
LINE
  5
327
330
1F
100
AcDbEntity
  8
A-A
  6
Continuous
 62
     3
370
     9
100
AcDbLine
 10
1297.257954365498
 20
341.0875805004224
 30
0.0
 11
1300.25816221495
 21
339.0875244140625
 31
0.0
  0
LINE
  5
328
330
1F
100
AcDbEntity
  8
A-A
  6
Continuous
 62
     3
370
     9
100
AcDbLine
 10
1300.25816221495
 20
349.0875574060391
 30
0.0
 11
1300.25816221495
 21
359.3135029560813
 31
0.0
  0
LINE
  5
329
330
1F
100
AcDbEntity
  8
A-A
  6
Continuous
 62
     3
370
     9
100
AcDbLine
 10
1297.257954365498
 20
326.861275337838
 30
0.0
 11
1297.257954365498
 21
314.8614336993245
 31
0.0
  0
LINE
  5
32A
330
1F
100
AcDbEntity
  8
A-A
  6
Continuous
 62
     3
370
     9
100
AcDbLine
 10
1297.257954365498
 20
326.861275337838
 30
0.0
 11
1300.25816221495
 21
328.8615788640203
 31
0.0
  0
LINE
  5
32B
330
1F
100
AcDbEntity
  8
A-A
  6
Continuous
 62
     3
370
     9
100
AcDbLine
 10
1300.25816221495
 20
339.0875244140625
 30
0.0
 11
1300.25816221495
 21
328.8615788640203
 31
0.0
  0
LINE
  5
32C
330
1F
100
AcDbEntity
  8
A-A
  6
Continuous
 62
     3
370
     9
100
AcDbLine
 10
1297.257954365498
 20
314.8614336993245
 30
0.0
 11
1300.25816221495
 21
312.8613776129646
 31
0.0
  0
LINE
  5
32D
330
1F
100
AcDbEntity
  8
A-A
  6
Continuous
 62
     3
370
     9
100
AcDbLine
 10
1297.257954365498
 20
300.6353759765625
 30
0.0
 11
1297.257954365498
 21
294.6354551573057
 31
0.0
  0
LINE
  5
32E
330
1F
100
AcDbEntity
  8
A-A
  6
Continuous
 62
     3
370
     9
100
AcDbLine
 10
1297.257954365498
 20
300.6353759765625
 30
0.0
 11
1300.25816221495
 21
302.6354320629224
 31
0.0
  0
LINE
  5
32F
330
1F
100
AcDbEntity
  8
A-A
  6
Continuous
 62
     3
370
     9
100
AcDbLine
 10
1297.257954365498
 20
294.6354551573057
 30
0.0
 11
1300.25816221495
 21
292.6353990709461
 31
0.0
  0
LINE
  5
330
330
1F
100
AcDbEntity
  8
A-A
  6
Continuous
 62
     3
370
     9
100
AcDbLine
 10
1300.25816221495
 20
302.6354320629224
 30
0.0
 11
1300.25816221495
 21
312.8613776129646
 31
0.0
  0
LINE
  5
331
330
1F
100
AcDbEntity
  8
A-A
  6
Continuous
 62
     3
370
     9
100
AcDbLine
 10
1297.257954365498
 20
280.4091499947214
 30
0.0
 11
1297.257954365498
 21
268.4093083562078
 31
0.0
  0
LINE
  5
332
330
1F
100
AcDbEntity
  8
A-A
  6
Continuous
 62
     3
370
     9
100
AcDbLine
 10
1297.257954365498
 20
280.4091499947214
 30
0.0
 11
1300.25816221495
 21
282.4094535209039
 31
0.0
  0
LINE
  5
333
330
1F
100
AcDbEntity
  8
A-A
  6
Continuous
 62
     3
370
     9
100
AcDbLine
 10
1300.25816221495
 20
292.6353990709461
 30
0.0
 11
1300.25816221495
 21
282.4094535209039
 31
0.0
  0
LINE
  5
334
330
1F
100
AcDbEntity
  8
A-A
  6
Continuous
 62
     3
370
     9
100
AcDbLine
 10
1297.257954365498
 20
268.4093083562078
 30
0.0
 11
1300.25816221495
 21
266.4092522698482
 31
0.0
  0
LINE
  5
335
330
1F
100
AcDbEntity
  8
A-A
  6
Continuous
 62
     3
370
     9
100
AcDbLine
 10
1297.257954365498
 20
254.1832506334461
 30
0.0
 11
1297.257954365498
 21
248.1833298141893
 31
0.0
  0
LINE
  5
336
330
1F
100
AcDbEntity
  8
A-A
  6
Continuous
 62
     3
370
     9
100
AcDbLine
 10
1297.257954365498
 20
254.1832506334461
 30
0.0
 11
1300.25816221495
 21
256.1833067198057
 31
0.0
  0
LINE
  5
337
330
1F
100
AcDbEntity
  8
A-A
  6
Continuous
 62
     3
370
     9
100
AcDbLine
 10
1297.257954365498
 20
248.1833298141893
 30
0.0
 11
1300.25816221495
 21
246.1832737278294
 31
0.0
  0
LINE
  5
338
330
1F
100
AcDbEntity
  8
A-A
  6
Continuous
 62
     3
370
     9
100
AcDbLine
 10
1300.25816221495
 20
256.1833067198057
 30
0.0
 11
1300.25816221495
 21
266.4092522698482
 31
0.0
  0
LINE
  5
339
330
1F
100
AcDbEntity
  8
A-A
  6
Continuous
 62
     3
370
     9
100
AcDbLine
 10
1297.257954365498
 20
233.9570246516047
 30
0.0
 11
1297.257954365498
 21
221.9571830130914
 31
0.0
  0
LINE
  5
33A
330
1F
100
AcDbEntity
  8
A-A
  6
Continuous
 62
     3
370
     9
100
AcDbLine
 10
1297.257954365498
 20
233.9570246516047
 30
0.0
 11
1300.25816221495
 21
235.9573281777872
 31
0.0
  0
LINE
  5
33B
330
1F
100
AcDbEntity
  8
A-A
  6
Continuous
 62
     3
370
     9
100
AcDbLine
 10
1300.25816221495
 20
246.1832737278294
 30
0.0
 11
1300.25816221495
 21
235.9573281777872
 31
0.0
  0
LINE
  5
33C
330
1F
100
AcDbEntity
  8
A-A
  6
Continuous
 62
     3
370
     9
100
AcDbLine
 10
1297.257954365498
 20
221.9571830130914
 30
0.0
 11
1300.25816221495
 21
219.9571269267315
 31
0.0
  0
LINE
  5
33D
330
1F
100
AcDbEntity
  8
A-A
  6
Continuous
 62
     3
370
     9
100
AcDbLine
 10
1297.257954365498
 20
207.7311252903294
 30
0.0
 11
1297.257954365498
 21
201.7312044710727
 31
0.0
  0
LINE
  5
33E
330
1F
100
AcDbEntity
  8
A-A
  6
Continuous
 62
     3
370
     9
100
AcDbLine
 10
1297.257954365498
 20
207.7311252903294
 30
0.0
 11
1300.25816221495
 21
209.7311813766893
 31
0.0
  0
LINE
  5
33F
330
1F
100
AcDbEntity
  8
A-A
  6
Continuous
 62
     3
370
     9
100
AcDbLine
 10
1297.257954365498
 20
201.7312044710727
 30
0.0
 11
1300.25816221495
 21
199.731148384713
 31
0.0
  0
LINE
  5
340
330
1F
100
AcDbEntity
  8
A-A
  6
Continuous
 62
     3
370
     9
100
AcDbLine
 10
1300.25816221495
 20
209.7311813766893
 30
0.0
 11
1300.25816221495
 21
219.9571269267315
 31
0.0
  0
LINE
  5
341
330
1F
100
AcDbEntity
  8
A-A
  6
Continuous
 62
     3
370
     9
100
AcDbLine
 10
1297.257954365498
 20
187.5048993084883
 30
0.0
 11
1297.257954365498
 21
175.5050576699747
 31
0.0
  0
LINE
  5
342
330
1F
100
AcDbEntity
  8
A-A
  6
Continuous
 62
     3
370
     9
100
AcDbLine
 10
1297.257954365498
 20
187.5048993084883
 30
0.0
 11
1300.25816221495
 21
189.5052028346706
 31
0.0
  0
LINE
  5
343
330
1F
100
AcDbEntity
  8
A-A
  6
Continuous
 62
     3
370
     9
100
AcDbLine
 10
1300.25816221495
 20
199.731148384713
 30
0.0
 11
1300.25816221495
 21
189.5052028346706
 31
0.0
  0
LINE
  5
344
330
1F
100
AcDbEntity
  8
A-A
  6
Continuous
 62
     3
370
     9
100
AcDbLine
 10
1297.257954365498
 20
175.5050576699747
 30
0.0
 11
1300.25816221495
 21
173.5050015836148
 31
0.0
  0
LINE
  5
345
330
1F
100
AcDbEntity
  8
A-A
  6
Continuous
 62
     3
370
     9
100
AcDbLine
 10
1297.257954365498
 20
161.278999947213
 30
0.0
 11
1297.257954365498
 21
155.2790791279563
 31
0.0
  0
LINE
  5
346
330
1F
100
AcDbEntity
  8
A-A
  6
Continuous
 62
     3
370
     9
100
AcDbLine
 10
1297.257954365498
 20
161.278999947213
 30
0.0
 11
1300.25816221495
 21
163.2790560335727
 31
0.0
  0
LINE
  5
347
330
1F
100
AcDbEntity
  8
A-A
  6
Continuous
 62
     3
370
     9
100
AcDbLine
 10
1297.257954365498
 20
155.2790791279563
 30
0.0
 11
1300.25816221495
 21
153.2790230415964
 31
0.0
  0
LINE
  5
348
330
1F
100
AcDbEntity
  8
A-A
  6
Continuous
 62
     3
370
     9
100
AcDbLine
 10
1300.25816221495
 20
163.2790560335727
 30
0.0
 11
1300.25816221495
 21
173.5050015836148
 31
0.0
  0
LINE
  5
349
330
1F
100
AcDbEntity
  8
A-A
  6
Continuous
 62
     3
370
     9
100
AcDbLine
 10
1297.257954365498
 20
141.0527739653716
 30
0.0
 11
1297.257954365498
 21
129.0529323268581
 31
0.0
  0
LINE
  5
34A
330
1F
100
AcDbEntity
  8
A-A
  6
Continuous
 62
     3
370
     9
100
AcDbLine
 10
1297.257954365498
 20
141.0527739653716
 30
0.0
 11
1300.25816221495
 21
143.0530774915542
 31
0.0
  0
LINE
  5
34B
330
1F
100
AcDbEntity
  8
A-A
  6
Continuous
 62
     3
370
     9
100
AcDbLine
 10
1300.25816221495
 20
153.2790230415964
 30
0.0
 11
1300.25816221495
 21
143.0530774915542
 31
0.0
  0
LINE
  5
34C
330
1F
100
AcDbEntity
  8
A-2_蓋
  6
Continuous
 62
     3
370
     9
100
AcDbLine
 10
1316.258116026183
 20
499.375453639675
 30
0.0
 11
1316.258116026183
 21
671.8151525548988
 31
0.0
  0
LINE
  5
34D
330
1F
100
AcDbEntity
  8
A-2_蓋
  6
Continuous
 62
     3
370
     9
100
AcDbLine
 10
1316.258116026183
 20
685.0700089738177
 30
0.0
 11
1316.258116026183
 21
769.4427820154141
 31
0.0
  0
LINE
  5
34E
330
1F
100
AcDbEntity
  8
A-2_蓋
  6
Continuous
 62
     3
370
     9
100
AcDbLine
 10
1319.258076435811
 20
499.375453639675
 30
0.0
 11
1319.258076435811
 21
674.8151129645271
 31
0.0
  0
LINE
  5
34F
330
1F
100
AcDbEntity
  8
A-2_蓋
  6
Continuous
 62
     3
370
     9
100
AcDbLine
 10
1319.258076435811
 20
682.0700485641894
 30
0.0
 11
1319.258076435811
 21
769.4427820154141
 31
0.0
  0
LINE
  5
350
330
1F
100
AcDbEntity
  8
A-2_蓋
  6
Continuous
 62
     3
370
     9
100
AcDbLine
 10
1322.885544235642
 20
478.442663244299
 30
0.0
 11
1311.571853225296
 21
467.1289722339529
 31
0.0
  0
LINE
  5
351
330
1F
100
AcDbEntity
  8
A-2_蓋
  6
Continuous
 62
     3
370
     9
100
AcDbLine
 10
1311.571853225296
 20
467.1289722339529
 30
0.0
 11
1300.25816221495
 21
478.442663244299
 31
0.0
  0
LINE
  5
352
330
1F
100
AcDbEntity
  8
A-2_蓋
  6
Continuous
 62
     3
370
     9
100
AcDbLine
 10
1300.25816221495
 20
478.442663244299
 30
0.0
 11
1311.571853225296
 21
489.7564779745568
 31
0.0
  0
LINE
  5
353
330
1F
100
AcDbEntity
  8
A-2_蓋
  6
Continuous
 62
     3
370
     9
100
AcDbLine
 10
1311.571853225296
 20
489.7564779745568
 30
0.0
 11
1322.885544235642
 21
478.442663244299
 31
0.0
  0
LINE
  5
354
330
1F
100
AcDbEntity
  8
A-2_蓋
  6
Continuous
 62
     3
370
     9
100
AcDbLine
 10
1322.885544235642
 20
278.4427457242398
 30
0.0
 11
1311.571853225296
 21
267.1290547138938
 31
0.0
  0
LINE
  5
355
330
1F
100
AcDbEntity
  8
A-2_蓋
  6
Continuous
 62
     3
370
     9
100
AcDbLine
 10
1311.571853225296
 20
267.1290547138938
 30
0.0
 11
1300.25816221495
 21
278.4427457242398
 31
0.0
  0
LINE
  5
356
330
1F
100
AcDbEntity
  8
A-2_蓋
  6
Continuous
 62
     3
370
     9
100
AcDbLine
 10
1300.25816221495
 20
278.4427457242398
 30
0.0
 11
1311.571853225296
 21
289.7564367345862
 31
0.0
  0
LINE
  5
357
330
1F
100
AcDbEntity
  8
A-2_蓋
  6
Continuous
 62
     3
370
     9
100
AcDbLine
 10
1311.571853225296
 20
289.7564367345862
 30
0.0
 11
1322.885544235642
 21
278.4427457242398
 31
0.0
  0
LINE
  5
358
330
1F
100
AcDbEntity
  8
A-2_蓋
  6
Continuous
 62
     3
370
     9
100
AcDbLine
 10
1316.258116026183
 20
499.375453639675
 30
0.0
 11
1316.258116026183
 21
485.0702151736698
 31
0.0
  0
LINE
  5
359
330
1F
100
AcDbEntity
  8
A-2_蓋
  6
Continuous
 62
     3
370
     9
100
AcDbLine
 10
1319.258076435811
 20
499.375453639675
 30
0.0
 11
1319.258076435811
 21
482.0701310441302
 31
0.0
  0
LINE
  5
35A
330
1F
100
AcDbEntity
  8
A-2_蓋
  6
Continuous
 62
     3
370
     9
100
AcDbLine
 10
1316.258116026183
 20
471.8152350348396
 30
0.0
 11
1316.258116026183
 21
285.0701739336995
 31
0.0
  0
LINE
  5
35B
330
1F
100
AcDbEntity
  8
A-2_蓋
  6
Continuous
 62
     3
370
     9
100
AcDbLine
 10
1319.258076435811
 20
474.815195444468
 30
0.0
 11
1319.258076435811
 21
282.0702135240711
 31
0.0
  0
LINE
  5
35C
330
1F
100
AcDbEntity
  8
A-4_寸法
  6
Continuous
 62
     7
370
     9
100
AcDbLine
 10
-391.6660618137669
 20
847.1297310494089
 30
0.0
 11
-321.0666553394213
 21
847.1297310494089
 31
0.0
  0
LINE
  5
35D
330
1F
100
AcDbEntity
  8
A-4_寸法
  6
Continuous
 62
     7
370
     9
100
AcDbLine
 10
-391.6660618137669
 20
847.1297310494089
 30
0.0
 11
-391.6660618137669
 21
725.5004387932856
 31
0.0
  0
LINE
  5
35E
330
1F
100
AcDbEntity
  8
A-4_寸法
  6
Continuous
 62
     7
370
     9
100
AcDbLine
 10
-321.0666553394213
 20
847.1297310494089
 30
0.0
 11
-321.0666553394213
 21
725.5004387932856
 31
0.0
  0
LINE
  5
35F
330
1F
100
AcDbEntity
  8
A-4_寸法
  6
Continuous
 62
     7
370
     9
100
AcDbLine
 10
-1546.466848012563
 20
-295.8107695708404
 30
0.0
 11
481.5339784364443
 21
-295.8107695708404
 31
0.0
  0
LINE
  5
360
330
1F
100
AcDbEntity
  8
A-4_寸法
  6
Continuous
 62
     7
370
     9
100
AcDbLine
 10
-1546.466848012563
 20
-56.5576171875
 30
0.0
 11
-1546.466848012563
 21
-298.8107299804688
 31
0.0
  0
LINE
  5
361
330
1F
100
AcDbEntity
  8
A-4_寸法
  6
Continuous
 62
     7
370
     9
100
AcDbLine
 10
481.5339784364443
 20
-56.5576171875
 30
0.0
 11
481.5339784364443
 21
-298.8107299804688
 31
0.0
  0
LINE
  5
362
330
1F
100
AcDbEntity
  8
A-4_寸法
  6
Continuous
 62
     7
370
     9
100
AcDbLine
 10
-1546.466848012563
 20
-190.4053641654349
 30
0.0
 11
-1534.466882654139
 21
-190.4053641654349
 31
0.0
  0
LINE
  5
363
330
1F
100
AcDbEntity
  8
A-4_寸法
  6
Continuous
 62
     7
370
     9
100
AcDbLine
 10
-1546.466848012563
 20
-205.4054136533995
 30
0.0
 11
-1546.466848012563
 21
-193.4053245750633
 31
0.0
  0
LINE
  5
364
330
1F
100
AcDbEntity
  8
A-4_寸法
  6
Continuous
 62
     7
370
     9
100
AcDbLine
 10
-1534.466882654139
 20
-44.55728066934114
 30
0.0
 11
-1534.466882654139
 21
-193.4053245750633
 31
0.0
  0
LINE
  5
365
330
1F
100
AcDbEntity
  8
A-4_寸法
  6
Continuous
 62
     7
370
     9
100
AcDbLine
 10
-1534.466882654139
 20
-190.4053641654349
 30
0.0
 11
-1527.466810071791
 21
-190.4053641654349
 31
0.0
  0
LINE
  5
366
330
1F
100
AcDbEntity
  8
A-4_寸法
  6
Continuous
 62
     7
370
     9
100
AcDbLine
 10
-1527.466810071791
 20
-36.55742748363593
 30
0.0
 11
-1527.466810071791
 21
-193.4053245750633
 31
0.0
  0
LINE
  5
367
330
1F
100
AcDbEntity
  8
A-4_寸法
  6
Continuous
 62
     7
370
     9
100
AcDbLine
 10
-1601.460967192779
 20
-190.4053641654349
 30
0.0
 11
544.7771227037583
 21
-190.4053641654349
 31
0.0
  0
LINE
  5
368
330
1F
100
AcDbEntity
  8
A-4_寸法
  6
Continuous
 62
     7
370
     9
100
AcDbLine
 10
462.5338167757604
 20
-36.55742748363593
 30
0.0
 11
462.5338167757604
 21
-193.4053245750633
 31
0.0
  0
LINE
  5
369
330
1F
100
AcDbEntity
  8
A-4_寸法
  6
Continuous
 62
     7
370
     9
100
AcDbLine
 10
462.5338167757604
 20
-190.4053641654349
 30
0.0
 11
469.5338893581084
 21
-190.4053641654349
 31
0.0
  0
LINE
  5
36A
330
1F
100
AcDbEntity
  8
A-4_寸法
  6
Continuous
 62
     7
370
     9
100
AcDbLine
 10
469.5338893581084
 20
-44.55728066934114
 30
0.0
 11
469.5338893581084
 21
-193.4053245750633
 31
0.0
  0
LINE
  5
36B
330
1F
100
AcDbEntity
  8
A-4_寸法
  6
Continuous
 62
     7
370
     9
100
AcDbLine
 10
469.5338893581084
 20
-190.4053641654349
 30
0.0
 11
481.5339784364443
 21
-190.4053641654349
 31
0.0
  0
LINE
  5
36C
330
1F
100
AcDbEntity
  8
A-4_寸法
  6
Continuous
 62
     7
370
     9
100
AcDbLine
 10
481.5339784364443
 20
-56.5576171875
 30
0.0
 11
481.5339784364443
 21
-193.4053245750633
 31
0.0
  0
LINE
  5
36D
330
1F
100
AcDbEntity
  8
A-4_寸法
  6
Continuous
 62
     7
370
     9
100
AcDbLine
 10
-779.9661997202279
 20
689.4422706397804
 30
0.0
 11
-776.7030870592271
 21
714.2283176731419
 31
0.0
  0
LINE
  5
36E
330
1F
100
AcDbEntity
  8
A-2_蓋
  6
Continuous
 62
     3
370
     9
100
AcDbLine
 10
-1527.466810071791
 20
89.44227063978047
 30
0.0
 11
462.5338167757604
 21
89.44227063978047
 31
0.0
  0
LINE
  5
36F
330
1F
100
AcDbEntity
  8
A-2_蓋
  6
Continuous
 62
     3
370
     9
100
AcDbLine
 10
-1527.466810071791
 20
67.44289088893595
 30
0.0
 11
462.5338167757604
 21
67.44289088893595
 31
0.0
  0
LINE
  5
370
330
1F
100
AcDbEntity
  8
A-2_蓋
  6
Continuous
 62
     3
370
     9
100
AcDbLine
 10
-1513.465922587627
 20
67.44289088893595
 30
0.0
 11
-1443.666117900127
 21
89.44227063978047
 31
0.0
  0
LINE
  5
371
330
1F
100
AcDbEntity
  8
A-2_蓋
  6
Continuous
 62
     3
370
     9
100
AcDbLine
 10
-1442.866144953548
 20
67.44289088893595
 30
0.0
 11
-1373.066463985959
 21
89.44227063978047
 31
0.0
  0
LINE
  5
372
330
1F
100
AcDbEntity
  8
A-2_蓋
  6
Continuous
 62
     3
370
     9
100
AcDbLine
 10
-1372.265748719911
 20
67.44289088893595
 30
0.0
 11
-1302.466315192145
 21
89.44227063978047
 31
0.0
  0
LINE
  5
373
330
1F
100
AcDbEntity
  8
A-2_蓋
  6
Continuous
 62
     3
370
     9
100
AcDbLine
 10
-1301.665847365921
 20
67.44289088893595
 30
0.0
 11
-1231.866290118243
 21
89.44227063978047
 31
0.0
  0
LINE
  5
374
330
1F
100
AcDbEntity
  8
A-2_蓋
  6
Continuous
 62
     3
370
     9
100
AcDbLine
 10
-1231.066069731841
 20
67.44289088893595
 30
0.0
 11
-1161.266265044341
 21
89.44227063978047
 31
0.0
  0
LINE
  5
375
330
1F
100
AcDbEntity
  8
A-2_蓋
  6
Continuous
 62
     3
370
     9
100
AcDbLine
 10
-1160.466044657939
 20
67.44289088893595
 30
0.0
 11
-1090.666239970439
 21
89.44227063978047
 31
0.0
  0
LINE
  5
376
330
1F
100
AcDbEntity
  8
A-2_蓋
  6
Continuous
 62
     3
370
     9
100
AcDbLine
 10
-1089.865895864126
 20
67.44289088893595
 30
0.0
 11
-1020.066214896537
 21
89.44227063978047
 31
0.0
  0
LINE
  5
377
330
1F
100
AcDbEntity
  8
A-2_蓋
  6
Continuous
 62
     3
370
     9
100
AcDbLine
 10
-1019.265994510135
 20
67.44289088893595
 30
0.0
 11
-949.466189822635
 21
89.44227063978047
 31
0.0
  0
LINE
  5
378
330
1F
100
AcDbEntity
  8
A-2_蓋
  6
Continuous
 62
     3
370
     9
100
AcDbLine
 10
-948.6659694362331
 20
67.44289088893595
 30
0.0
 11
-878.8662884686444
 21
89.44227063978047
 31
0.0
  0
LINE
  5
379
330
1F
100
AcDbEntity
  8
A-2_蓋
  6
Continuous
 62
     3
370
     9
100
AcDbLine
 10
-878.0656969225083
 20
67.44289088893595
 30
0.0
 11
-808.2660159549198
 21
89.44227063978047
 31
0.0
  0
LINE
  5
37A
330
1F
100
AcDbEntity
  8
A-2_蓋
  6
Continuous
 62
     3
370
     9
100
AcDbLine
 10
-807.4657955685177
 20
67.44289088893595
 30
0.0
 11
-737.6663620407516
 21
89.44227063978047
 31
0.0
  0
LINE
  5
37B
330
1F
100
AcDbEntity
  8
A-2_蓋
  6
Continuous
 62
     3
370
     9
100
AcDbLine
 10
-736.8661416543495
 20
67.44289088893595
 30
0.0
 11
-667.0664606867609
 21
89.44227063978047
 31
0.0
  0
LINE
  5
37C
330
1F
100
AcDbEntity
  8
A-2_蓋
  6
Continuous
 62
     3
370
     9
100
AcDbLine
 10
-666.2659928605362
 20
67.44289088893595
 30
0.0
 11
-596.4663118929477
 21
89.44227063978047
 31
0.0
  0
LINE
  5
37D
330
1F
100
AcDbEntity
  8
A-2_蓋
  6
Continuous
 62
     3
370
     9
100
AcDbLine
 10
-595.6660915065456
 20
67.44289088893595
 30
0.0
 11
-525.8662868190456
 21
89.44227063978047
 31
0.0
  0
LINE
  5
37E
330
1F
100
AcDbEntity
  8
A-2_蓋
  6
Continuous
 62
     3
370
     9
100
AcDbLine
 10
-525.0660664326435
 20
67.44289088893595
 30
0.0
 11
-455.2663854650547
 21
89.44227063978047
 31
0.0
  0
LINE
  5
37F
330
1F
100
AcDbEntity
  8
A-2_蓋
  6
Continuous
 62
     3
370
     9
100
AcDbLine
 10
-454.4661650786529
 20
67.44289088893595
 30
0.0
 11
-384.6664841110641
 21
89.44227063978047
 31
0.0
  0
LINE
  5
380
330
1F
100
AcDbEntity
  8
A-2_蓋
  6
Continuous
 62
     3
370
     9
100
AcDbLine
 10
-383.866263724662
 20
67.44289088893595
 30
0.0
 11
-314.0665827570734
 21
89.44227063978047
 31
0.0
  0
LINE
  5
381
330
1F
100
AcDbEntity
  8
A-2_蓋
  6
Continuous
 62
     3
370
     9
100
AcDbLine
 10
-313.2659912109375
 20
67.44289088893595
 30
0.0
 11
-243.4664339632602
 21
89.44227063978047
 31
0.0
  0
LINE
  5
382
330
1F
100
AcDbEntity
  8
A-2_蓋
  6
Continuous
 62
     3
370
     9
100
AcDbLine
 10
-242.6662135768581
 20
67.44289088893595
 30
0.0
 11
-172.8665326092693
 21
89.44227063978047
 31
0.0
  0
LINE
  5
383
330
1F
100
AcDbEntity
  8
A-2_蓋
  6
Continuous
 62
     3
370
     9
100
AcDbLine
 10
-172.0663122228672
 20
67.44289088893595
 30
0.0
 11
-102.2666312552786
 21
89.44227063978047
 31
0.0
  0
LINE
  5
384
330
1F
100
AcDbEntity
  8
A-2_蓋
  6
Continuous
 62
     3
370
     9
100
AcDbLine
 10
-101.4664108688766
 20
67.44289088893595
 30
0.0
 11
-31.6669773411104
 21
89.44227063978047
 31
0.0
  0
LINE
  5
385
330
1F
100
AcDbEntity
  8
A-2_蓋
  6
Continuous
 62
     3
370
     9
100
AcDbLine
 10
-30.8661383551518
 20
67.44289088893595
 30
0.0
 11
38.9336663323482
 21
89.44227063978047
 31
0.0
  0
LINE
  5
386
330
1F
100
AcDbEntity
  8
A-2_蓋
  6
Continuous
 62
     3
370
     9
100
AcDbLine
 10
39.73339183910497
 20
67.44289088893595
 30
0.0
 11
109.533196526605
 21
89.44227063978047
 31
0.0
  0
LINE
  5
387
330
1F
100
AcDbEntity
  8
A-2_蓋
  6
Continuous
 62
     3
370
     9
100
AcDbLine
 10
110.3334169130068
 20
67.44289088893595
 30
0.0
 11
180.1332216005068
 21
89.44227063978047
 31
0.0
  0
LINE
  5
388
330
1F
100
AcDbEntity
  8
A-2_蓋
  6
Continuous
 62
     3
370
     9
100
AcDbLine
 10
180.9339368665542
 20
67.44289088893595
 30
0.0
 11
250.7334941142315
 21
89.44227063978047
 31
0.0
  0
LINE
  5
389
330
1F
100
AcDbEntity
  8
A-2_蓋
  6
Continuous
 62
     3
370
     9
100
AcDbLine
 10
251.5339619404563
 20
67.44289088893595
 30
0.0
 11
321.3335191881336
 21
89.44227063978047
 31
0.0
  0
LINE
  5
38A
330
1F
100
AcDbEntity
  8
A-2_蓋
  6
Continuous
 62
     3
370
     9
100
AcDbLine
 10
322.1332446948904
 20
67.44289088893595
 30
0.0
 11
391.933296822213
 21
89.44227063978047
 31
0.0
  0
LINE
  5
38B
330
1F
100
AcDbEntity
  8
A-2_蓋
  6
Continuous
 62
     3
370
     9
100
AcDbLine
 10
392.7332697687925
 20
67.44289088893595
 30
0.0
 11
462.5333218961151
 21
89.44227063978047
 31
0.0
  0
LINE
  5
38C
330
1F
100
AcDbEntity
  8
A-2_蓋
  6
Continuous
 62
     3
370
     9
100
AcDbLine
 10
-1527.466810071791
 20
85.28181746199323
 30
0.0
 11
-1514.266142974029
 21
89.44227063978047
 31
0.0
  0
LINE
  5
38D
330
1F
100
AcDbEntity
  8
A-2_蓋
  6
Continuous
 62
     3
370
     9
100
AcDbLine
 10
1322.885544235642
 20
78.44270448426954
 30
0.0
 11
1311.571853225296
 21
67.12901347392318
 31
0.0
  0
LINE
  5
38E
330
1F
100
AcDbEntity
  8
A-2_蓋
  6
Continuous
 62
     3
370
     9
100
AcDbLine
 10
1311.571853225296
 20
67.12901347392318
 30
0.0
 11
1300.25816221495
 21
78.44270448426954
 31
0.0
  0
LINE
  5
38F
330
1F
100
AcDbEntity
  8
A-2_蓋
  6
Continuous
 62
     3
370
     9
100
AcDbLine
 10
1300.25816221495
 20
78.44270448426954
 30
0.0
 11
1311.571853225296
 21
89.7563954946159
 31
0.0
  0
LINE
  5
390
330
1F
100
AcDbEntity
  8
A-2_蓋
  6
Continuous
 62
     3
370
     9
100
AcDbLine
 10
1311.571853225296
 20
89.7563954946159
 30
0.0
 11
1322.885544235642
 21
78.44270448426954
 31
0.0
  0
LINE
  5
391
330
1F
100
AcDbEntity
  8
A-2_蓋
  6
Continuous
 62
     3
370
     9
100
AcDbLine
 10
-1513.465922587627
 20
-12.55786792652032
 30
0.0
 11
-1513.465922587627
 21
67.44289088893595
 31
0.0
  0
LINE
  5
392
330
1F
100
AcDbEntity
  8
A-2_蓋
  6
Continuous
 62
     3
370
     9
100
AcDbLine
 10
-1513.465922587627
 20
89.44227063978047
 30
0.0
 11
-1513.465922587627
 21
267.4429321289062
 31
0.0
  0
LINE
  5
393
330
1F
100
AcDbEntity
  8
A-2_蓋
  6
Continuous
 62
     3
370
     9
100
AcDbLine
 10
-1387.065866831186
 20
267.4429321289062
 30
0.0
 11
-1387.065866831186
 21
89.44227063978047
 31
0.0
  0
LINE
  5
394
330
1F
100
AcDbEntity
  8
A-2_蓋
  6
Continuous
 62
     3
370
     9
100
AcDbLine
 10
-1387.065866831186
 20
67.44289088893595
 30
0.0
 11
-1387.065866831186
 21
-12.55786792652032
 31
0.0
  0
LINE
  5
395
330
1F
100
AcDbEntity
  8
A-2_蓋
  6
Continuous
 62
     3
370
     9
100
AcDbLine
 10
-1457.666263064823
 20
267.4429321289062
 30
0.0
 11
-1457.666263064823
 21
89.44227063978047
 31
0.0
  0
LINE
  5
396
330
1F
100
AcDbEntity
  8
A-2_蓋
  6
Continuous
 62
     3
370
     9
100
AcDbLine
 10
-1457.666263064823
 20
67.44289088893595
 30
0.0
 11
-1457.666263064823
 21
-12.55786792652032
 31
0.0
  0
LINE
  5
397
330
1F
100
AcDbEntity
  8
A-2_蓋
  6
Continuous
 62
     3
370
     9
100
AcDbLine
 10
-1443.666117900127
 20
267.4429321289062
 30
0.0
 11
-1443.666117900127
 21
89.44227063978047
 31
0.0
  0
LINE
  5
398
330
1F
100
AcDbEntity
  8
A-2_蓋
  6
Continuous
 62
     3
370
     9
100
AcDbLine
 10
-1443.666117900127
 20
67.44289088893595
 30
0.0
 11
-1443.666117900127
 21
-12.55786792652032
 31
0.0
  0
LINE
  5
399
330
1F
100
AcDbEntity
  8
A-2_蓋
  6
Continuous
 62
     3
370
     9
100
AcDbLine
 10
-1175.265915329392
 20
267.4429321289062
 30
0.0
 11
-1175.265915329392
 21
89.44227063978047
 31
0.0
  0
LINE
  5
39A
330
1F
100
AcDbEntity
  8
A-2_蓋
  6
Continuous
 62
     3
370
     9
100
AcDbLine
 10
-1175.265915329392
 20
67.44289088893595
 30
0.0
 11
-1175.265915329392
 21
-12.55786792652032
 31
0.0
  0
LINE
  5
39B
330
1F
100
AcDbEntity
  8
A-2_蓋
  6
Continuous
 62
     3
370
     9
100
AcDbLine
 10
-1245.866187843116
 20
267.4429321289062
 30
0.0
 11
-1245.866187843116
 21
89.44227063978047
 31
0.0
  0
LINE
  5
39C
330
1F
100
AcDbEntity
  8
A-2_蓋
  6
Continuous
 62
     3
370
     9
100
AcDbLine
 10
-1245.866187843116
 20
67.44289088893595
 30
0.0
 11
-1245.866187843116
 21
-12.55786792652032
 31
0.0
  0
LINE
  5
39D
330
1F
100
AcDbEntity
  8
A-2_蓋
  6
Continuous
 62
     3
370
     9
100
AcDbLine
 10
-1231.866290118243
 20
267.4429321289062
 30
0.0
 11
-1231.866290118243
 21
89.44227063978047
 31
0.0
  0
LINE
  5
39E
330
1F
100
AcDbEntity
  8
A-2_蓋
  6
Continuous
 62
     3
370
     9
100
AcDbLine
 10
-1231.866290118243
 20
67.44289088893595
 30
0.0
 11
-1231.866290118243
 21
-12.55786792652032
 31
0.0
  0
LINE
  5
39F
330
1F
100
AcDbEntity
  8
A-2_蓋
  6
Continuous
 62
     3
370
     9
100
AcDbLine
 10
-1316.46547059755
 20
267.4429321289062
 30
0.0
 11
-1316.46547059755
 21
89.44227063978047
 31
0.0
  0
LINE
  5
3A0
330
1F
100
AcDbEntity
  8
A-2_蓋
  6
Continuous
 62
     3
370
     9
100
AcDbLine
 10
-1316.46547059755
 20
67.44289088893595
 30
0.0
 11
-1316.46547059755
 21
-12.55786792652032
 31
0.0
  0
LINE
  5
3A1
330
1F
100
AcDbEntity
  8
A-2_蓋
  6
Continuous
 62
     3
370
     9
100
AcDbLine
 10
-1302.465572872677
 20
267.4429321289062
 30
0.0
 11
-1302.465572872677
 21
89.44227063978047
 31
0.0
  0
LINE
  5
3A2
330
1F
100
AcDbEntity
  8
A-2_蓋
  6
Continuous
 62
     3
370
     9
100
AcDbLine
 10
-1302.465572872677
 20
67.44289088893595
 30
0.0
 11
-1302.465572872677
 21
-12.55786792652032
 31
0.0
  0
LINE
  5
3A3
330
1F
100
AcDbEntity
  8
A-2_蓋
  6
Continuous
 62
     3
370
     9
100
AcDbLine
 10
-1373.065845386402
 20
267.4429321289062
 30
0.0
 11
-1373.065845386402
 21
89.44227063978047
 31
0.0
  0
LINE
  5
3A4
330
1F
100
AcDbEntity
  8
A-2_蓋
  6
Continuous
 62
     3
370
     9
100
AcDbLine
 10
-1373.065845386402
 20
67.44289088893595
 30
0.0
 11
-1373.065845386402
 21
-12.55786792652032
 31
0.0
  0
LINE
  5
3A5
330
1F
100
AcDbEntity
  8
A-2_蓋
  6
Continuous
 62
     3
370
     9
100
AcDbLine
 10
-963.4657163877745
 20
267.4429321289062
 30
0.0
 11
-963.4657163877745
 21
89.44227063978047
 31
0.0
  0
LINE
  5
3A6
330
1F
100
AcDbEntity
  8
A-2_蓋
  6
Continuous
 62
     3
370
     9
100
AcDbLine
 10
-963.4657163877745
 20
67.44289088893595
 30
0.0
 11
-963.4657163877745
 21
-12.55786792652032
 31
0.0
  0
LINE
  5
3A7
330
1F
100
AcDbEntity
  8
A-2_蓋
  6
Continuous
 62
     3
370
     9
100
AcDbLine
 10
-949.4659423828125
 20
267.4429321289062
 30
0.0
 11
-949.4659423828125
 21
89.44227063978047
 31
0.0
  0
LINE
  5
3A8
330
1F
100
AcDbEntity
  8
A-2_蓋
  6
Continuous
 62
     3
370
     9
100
AcDbLine
 10
-949.4659423828125
 20
67.44289088893595
 30
0.0
 11
-949.4659423828125
 21
-12.55786792652032
 31
0.0
  0
LINE
  5
3A9
330
1F
100
AcDbEntity
  8
A-2_蓋
  6
Continuous
 62
     3
370
     9
100
AcDbLine
 10
-1034.06611262141
 20
267.4429321289062
 30
0.0
 11
-1034.06611262141
 21
89.44227063978047
 31
0.0
  0
LINE
  5
3AA
330
1F
100
AcDbEntity
  8
A-2_蓋
  6
Continuous
 62
     3
370
     9
100
AcDbLine
 10
-1034.06611262141
 20
67.44289088893595
 30
0.0
 11
-1034.06611262141
 21
-12.55786792652032
 31
0.0
  0
LINE
  5
3AB
330
1F
100
AcDbEntity
  8
A-2_蓋
  6
Continuous
 62
     3
370
     9
100
AcDbLine
 10
-1020.066214896537
 20
267.4429321289062
 30
0.0
 11
-1020.066214896537
 21
89.44227063978047
 31
0.0
  0
LINE
  5
3AC
330
1F
100
AcDbEntity
  8
A-2_蓋
  6
Continuous
 62
     3
370
     9
100
AcDbLine
 10
-1020.066214896537
 20
67.44289088893595
 30
0.0
 11
-1020.066214896537
 21
-12.55786792652032
 31
0.0
  0
LINE
  5
3AD
330
1F
100
AcDbEntity
  8
A-2_蓋
  6
Continuous
 62
     3
370
     9
100
AcDbLine
 10
-1104.665519095756
 20
267.4429321289062
 30
0.0
 11
-1104.665519095756
 21
89.44227063978047
 31
0.0
  0
LINE
  5
3AE
330
1F
100
AcDbEntity
  8
A-2_蓋
  6
Continuous
 62
     3
370
     9
100
AcDbLine
 10
-1104.665519095756
 20
67.44289088893595
 30
0.0
 11
-1104.665519095756
 21
-12.55786792652032
 31
0.0
  0
LINE
  5
3AF
330
1F
100
AcDbEntity
  8
A-2_蓋
  6
Continuous
 62
     3
370
     9
100
AcDbLine
 10
-1090.665497650971
 20
267.4429321289062
 30
0.0
 11
-1090.665497650971
 21
89.44227063978047
 31
0.0
  0
LINE
  5
3B0
330
1F
100
AcDbEntity
  8
A-2_蓋
  6
Continuous
 62
     3
370
     9
100
AcDbLine
 10
-1090.665497650971
 20
67.44289088893595
 30
0.0
 11
-1090.665497650971
 21
-12.55786792652032
 31
0.0
  0
LINE
  5
3B1
330
1F
100
AcDbEntity
  8
A-2_蓋
  6
Continuous
 62
     3
370
     9
100
AcDbLine
 10
-1161.265893884607
 20
267.4429321289062
 30
0.0
 11
-1161.265893884607
 21
89.44227063978047
 31
0.0
  0
LINE
  5
3B2
330
1F
100
AcDbEntity
  8
A-2_蓋
  6
Continuous
 62
     3
370
     9
100
AcDbLine
 10
-1161.265893884607
 20
67.44289088893595
 30
0.0
 11
-1161.265893884607
 21
-12.55786792652032
 31
0.0
  0
LINE
  5
3B3
330
1F
100
AcDbEntity
  8
A-2_蓋
  6
Continuous
 62
     3
370
     9
100
AcDbLine
 10
-681.0663584116342
 20
267.4429321289062
 30
0.0
 11
-681.0663584116342
 21
89.44227063978047
 31
0.0
  0
LINE
  5
3B4
330
1F
100
AcDbEntity
  8
A-2_蓋
  6
Continuous
 62
     3
370
     9
100
AcDbLine
 10
-681.0663584116342
 20
67.44289088893595
 30
0.0
 11
-681.0663584116342
 21
-12.55786792652032
 31
0.0
  0
LINE
  5
3B5
330
1F
100
AcDbEntity
  8
A-2_蓋
  6
Continuous
 62
     3
370
     9
100
AcDbLine
 10
-667.0664606867609
 20
267.4429321289062
 30
0.0
 11
-667.0664606867609
 21
89.44227063978047
 31
0.0
  0
LINE
  5
3B6
330
1F
100
AcDbEntity
  8
A-2_蓋
  6
Continuous
 62
     3
370
     9
100
AcDbLine
 10
-667.0664606867609
 20
67.44289088893595
 30
0.0
 11
-667.0664606867609
 21
-12.55786792652032
 31
0.0
  0
LINE
  5
3B7
330
1F
100
AcDbEntity
  8
A-2_蓋
  6
Continuous
 62
     3
370
     9
100
AcDbLine
 10
-751.6656411660682
 20
267.4429321289062
 30
0.0
 11
-751.6656411660682
 21
89.44227063978047
 31
0.0
  0
LINE
  5
3B8
330
1F
100
AcDbEntity
  8
A-2_蓋
  6
Continuous
 62
     3
370
     9
100
AcDbLine
 10
-751.6656411660682
 20
67.44289088893595
 30
0.0
 11
-751.6656411660682
 21
-12.55786792652032
 31
0.0
  0
LINE
  5
3B9
330
1F
100
AcDbEntity
  8
A-2_蓋
  6
Continuous
 62
     3
370
     9
100
AcDbLine
 10
-737.6658671611062
 20
267.4429321289062
 30
0.0
 11
-737.6658671611062
 21
89.44227063978047
 31
0.0
  0
LINE
  5
3BA
330
1F
100
AcDbEntity
  8
A-2_蓋
  6
Continuous
 62
     3
370
     9
100
AcDbLine
 10
-737.6658671611062
 20
67.44289088893595
 30
0.0
 11
-737.6658671611062
 21
-12.55786792652032
 31
0.0
  0
LINE
  5
3BB
330
1F
100
AcDbEntity
  8
A-2_蓋
  6
Continuous
 62
     3
370
     9
100
AcDbLine
 10
-822.2661611196156
 20
267.4429321289062
 30
0.0
 11
-822.2661611196156
 21
89.44227063978047
 31
0.0
  0
LINE
  5
3BC
330
1F
100
AcDbEntity
  8
A-2_蓋
  6
Continuous
 62
     3
370
     9
100
AcDbLine
 10
-822.2661611196156
 20
67.44289088893595
 30
0.0
 11
-822.2661611196156
 21
-12.55786792652032
 31
0.0
  0
LINE
  5
3BD
330
1F
100
AcDbEntity
  8
A-2_蓋
  6
Continuous
 62
     3
370
     9
100
AcDbLine
 10
-808.2660159549198
 20
267.4429321289062
 30
0.0
 11
-808.2660159549198
 21
89.44227063978047
 31
0.0
  0
LINE
  5
3BE
330
1F
100
AcDbEntity
  8
A-2_蓋
  6
Continuous
 62
     3
370
     9
100
AcDbLine
 10
-808.2660159549198
 20
67.44289088893595
 30
0.0
 11
-808.2660159549198
 21
-12.55786792652032
 31
0.0
  0
LINE
  5
3BF
330
1F
100
AcDbEntity
  8
A-2_蓋
  6
Continuous
 62
     3
370
     9
100
AcDbLine
 10
-892.865567593961
 20
267.4429321289062
 30
0.0
 11
-892.865567593961
 21
89.44227063978047
 31
0.0
  0
LINE
  5
3C0
330
1F
100
AcDbEntity
  8
A-2_蓋
  6
Continuous
 62
     3
370
     9
100
AcDbLine
 10
-892.865567593961
 20
67.44289088893595
 30
0.0
 11
-892.865567593961
 21
-12.55786792652032
 31
0.0
  0
LINE
  5
3C1
330
1F
100
AcDbEntity
  8
A-2_蓋
  6
Continuous
 62
     3
370
     9
100
AcDbLine
 10
-878.8654224292651
 20
267.4429321289062
 30
0.0
 11
-878.8654224292651
 21
89.44227063978047
 31
0.0
  0
LINE
  5
3C2
330
1F
100
AcDbEntity
  8
A-2_蓋
  6
Continuous
 62
     3
370
     9
100
AcDbLine
 10
-878.8654224292651
 20
67.44289088893595
 30
0.0
 11
-878.8654224292651
 21
-12.55786792652032
 31
0.0
  0
LINE
  5
3C3
330
1F
100
AcDbEntity
  8
A-2_蓋
  6
Continuous
 62
     3
370
     9
100
AcDbLine
 10
-398.6660106762034
 20
267.4429321289062
 30
0.0
 11
-398.6660106762034
 21
89.44227063978047
 31
0.0
  0
LINE
  5
3C4
330
1F
100
AcDbEntity
  8
A-2_蓋
  6
Continuous
 62
     3
370
     9
100
AcDbLine
 10
-398.6660106762034
 20
67.44289088893595
 30
0.0
 11
-398.6660106762034
 21
-12.55786792652032
 31
0.0
  0
LINE
  5
3C5
330
1F
100
AcDbEntity
  8
A-2_蓋
  6
Continuous
 62
     3
370
     9
100
AcDbLine
 10
-384.6661129513302
 20
267.4429321289062
 30
0.0
 11
-384.6661129513302
 21
89.44227063978047
 31
0.0
  0
LINE
  5
3C6
330
1F
100
AcDbEntity
  8
A-2_蓋
  6
Continuous
 62
     3
370
     9
100
AcDbLine
 10
-384.6661129513302
 20
67.44289088893595
 30
0.0
 11
-384.6661129513302
 21
-12.55786792652032
 31
0.0
  0
LINE
  5
3C7
330
1F
100
AcDbEntity
  8
A-2_蓋
  6
Continuous
 62
     3
370
     9
100
AcDbLine
 10
-469.2662831899281
 20
267.4429321289062
 30
0.0
 11
-469.2662831899281
 21
89.44227063978047
 31
0.0
  0
LINE
  5
3C8
330
1F
100
AcDbEntity
  8
A-2_蓋
  6
Continuous
 62
     3
370
     9
100
AcDbLine
 10
-469.2662831899281
 20
67.44289088893595
 30
0.0
 11
-469.2662831899281
 21
-12.55786792652032
 31
0.0
  0
LINE
  5
3C9
330
1F
100
AcDbEntity
  8
A-2_蓋
  6
Continuous
 62
     3
370
     9
100
AcDbLine
 10
-455.2663854650547
 20
267.4429321289062
 30
0.0
 11
-455.2663854650547
 21
89.44227063978047
 31
0.0
  0
LINE
  5
3CA
330
1F
100
AcDbEntity
  8
A-2_蓋
  6
Continuous
 62
     3
370
     9
100
AcDbLine
 10
-455.2663854650547
 20
67.44289088893595
 30
0.0
 11
-455.2663854650547
 21
-12.55786792652032
 31
0.0
  0
LINE
  5
3CB
330
1F
100
AcDbEntity
  8
A-2_蓋
  6
Continuous
 62
     3
370
     9
100
AcDbLine
 10
-539.8655659443623
 20
267.4429321289062
 30
0.0
 11
-539.8655659443623
 21
89.44227063978047
 31
0.0
  0
LINE
  5
3CC
330
1F
100
AcDbEntity
  8
A-2_蓋
  6
Continuous
 62
     3
370
     9
100
AcDbLine
 10
-539.8655659443623
 20
67.44289088893595
 30
0.0
 11
-539.8655659443623
 21
-12.55786792652032
 31
0.0
  0
LINE
  5
3CD
330
1F
100
AcDbEntity
  8
A-2_蓋
  6
Continuous
 62
     3
370
     9
100
AcDbLine
 10
-525.8657919394002
 20
267.4429321289062
 30
0.0
 11
-525.8657919394002
 21
89.44227063978047
 31
0.0
  0
LINE
  5
3CE
330
1F
100
AcDbEntity
  8
A-2_蓋
  6
Continuous
 62
     3
370
     9
100
AcDbLine
 10
-525.8657919394002
 20
67.44289088893595
 30
0.0
 11
-525.8657919394002
 21
-12.55786792652032
 31
0.0
  0
LINE
  5
3CF
330
1F
100
AcDbEntity
  8
A-2_蓋
  6
Continuous
 62
     3
370
     9
100
AcDbLine
 10
-610.4660858979096
 20
267.4429321289062
 30
0.0
 11
-610.4660858979096
 21
89.44227063978047
 31
0.0
  0
LINE
  5
3D0
330
1F
100
AcDbEntity
  8
A-2_蓋
  6
Continuous
 62
     3
370
     9
100
AcDbLine
 10
-610.4660858979096
 20
67.44289088893595
 30
0.0
 11
-610.4660858979096
 21
-12.55786792652032
 31
0.0
  0
LINE
  5
3D1
330
1F
100
AcDbEntity
  8
A-2_蓋
  6
Continuous
 62
     3
370
     9
100
AcDbLine
 10
-596.4659407332135
 20
267.4429321289062
 30
0.0
 11
-596.4659407332135
 21
89.44227063978047
 31
0.0
  0
LINE
  5
3D2
330
1F
100
AcDbEntity
  8
A-2_蓋
  6
Continuous
 62
     3
370
     9
100
AcDbLine
 10
-596.4659407332135
 20
67.44289088893595
 30
0.0
 11
-596.4659407332135
 21
-12.55786792652032
 31
0.0
  0
LINE
  5
3D3
330
1F
100
AcDbEntity
  8
A-2_蓋
  6
Continuous
 62
     3
370
     9
100
AcDbLine
 10
-116.2667764199745
 20
267.4429321289062
 30
0.0
 11
-116.2667764199745
 21
89.44227063978047
 31
0.0
  0
LINE
  5
3D4
330
1F
100
AcDbEntity
  8
A-2_蓋
  6
Continuous
 62
     3
370
     9
100
AcDbLine
 10
-116.2667764199745
 20
67.44289088893595
 30
0.0
 11
-116.2667764199745
 21
-12.55786792652032
 31
0.0
  0
LINE
  5
3D5
330
1F
100
AcDbEntity
  8
A-2_蓋
  6
Continuous
 62
     3
370
     9
100
AcDbLine
 10
-102.2666312552786
 20
267.4429321289062
 30
0.0
 11
-102.2666312552786
 21
89.44227063978047
 31
0.0
  0
LINE
  5
3D6
330
1F
100
AcDbEntity
  8
A-2_蓋
  6
Continuous
 62
     3
370
     9
100
AcDbLine
 10
-102.2666312552786
 20
67.44289088893595
 30
0.0
 11
-102.2666312552786
 21
-12.55786792652032
 31
0.0
  0
LINE
  5
3D7
330
1F
100
AcDbEntity
  8
A-2_蓋
  6
Continuous
 62
     3
370
     9
100
AcDbLine
 10
-186.8660591744086
 20
267.4429321289062
 30
0.0
 11
-186.8660591744086
 21
89.44227063978047
 31
0.0
  0
LINE
  5
3D8
330
1F
100
AcDbEntity
  8
A-2_蓋
  6
Continuous
 62
     3
370
     9
100
AcDbLine
 10
-186.8660591744086
 20
67.44289088893595
 30
0.0
 11
-186.8660591744086
 21
-12.55786792652032
 31
0.0
  0
LINE
  5
3D9
330
1F
100
AcDbEntity
  8
A-2_蓋
  6
Continuous
 62
     3
370
     9
100
AcDbLine
 10
-172.8659140097128
 20
267.4429321289062
 30
0.0
 11
-172.8659140097128
 21
89.44227063978047
 31
0.0
  0
LINE
  5
3DA
330
1F
100
AcDbEntity
  8
A-2_蓋
  6
Continuous
 62
     3
370
     9
100
AcDbLine
 10
-172.8659140097128
 20
67.44289088893595
 30
0.0
 11
-172.8659140097128
 21
-12.55786792652032
 31
0.0
  0
LINE
  5
3DB
330
1F
100
AcDbEntity
  8
A-2_蓋
  6
Continuous
 62
     3
370
     9
100
AcDbLine
 10
-257.4663316881333
 20
267.4429321289062
 30
0.0
 11
-257.4663316881333
 21
89.44227063978047
 31
0.0
  0
LINE
  5
3DC
330
1F
100
AcDbEntity
  8
A-2_蓋
  6
Continuous
 62
     3
370
     9
100
AcDbLine
 10
-257.4663316881333
 20
67.44289088893595
 30
0.0
 11
-257.4663316881333
 21
-12.55786792652032
 31
0.0
  0
LINE
  5
3DD
330
1F
100
AcDbEntity
  8
A-2_蓋
  6
Continuous
 62
     3
370
     9
100
AcDbLine
 10
-243.4664339632602
 20
267.4429321289062
 30
0.0
 11
-243.4664339632602
 21
89.44227063978047
 31
0.0
  0
LINE
  5
3DE
330
1F
100
AcDbEntity
  8
A-2_蓋
  6
Continuous
 62
     3
370
     9
100
AcDbLine
 10
-243.4664339632602
 20
67.44289088893595
 30
0.0
 11
-243.4664339632602
 21
-12.55786792652032
 31
0.0
  0
LINE
  5
3DF
330
1F
100
AcDbEntity
  8
A-2_蓋
  6
Continuous
 62
     3
370
     9
100
AcDbLine
 10
-328.0667279217693
 20
267.4429321289062
 30
0.0
 11
-328.0667279217693
 21
89.44227063978047
 31
0.0
  0
LINE
  5
3E0
330
1F
100
AcDbEntity
  8
A-2_蓋
  6
Continuous
 62
     3
370
     9
100
AcDbLine
 10
-328.0667279217693
 20
67.44289088893595
 30
0.0
 11
-328.0667279217693
 21
-12.55786792652032
 31
0.0
  0
LINE
  5
3E1
330
1F
100
AcDbEntity
  8
A-2_蓋
  6
Continuous
 62
     3
370
     9
100
AcDbLine
 10
-314.0665827570734
 20
267.4429321289062
 30
0.0
 11
-314.0665827570734
 21
89.44227063978047
 31
0.0
  0
LINE
  5
3E2
330
1F
100
AcDbEntity
  8
A-2_蓋
  6
Continuous
 62
     3
370
     9
100
AcDbLine
 10
-314.0665827570734
 20
67.44289088893595
 30
0.0
 11
-314.0665827570734
 21
-12.55786792652032
 31
0.0
  0
LINE
  5
3E3
330
1F
100
AcDbEntity
  8
A-2_蓋
  6
Continuous
 62
     3
370
     9
100
AcDbLine
 10
95.53329880173152
 20
267.4429321289062
 30
0.0
 11
95.53329880173152
 21
89.44227063978047
 31
0.0
  0
LINE
  5
3E4
330
1F
100
AcDbEntity
  8
A-2_蓋
  6
Continuous
 62
     3
370
     9
100
AcDbLine
 10
95.53329880173152
 20
67.44289088893595
 30
0.0
 11
95.53329880173152
 21
-12.55786792652032
 31
0.0
  0
LINE
  5
3E5
330
1F
100
AcDbEntity
  8
A-2_蓋
  6
Continuous
 62
     3
370
     9
100
AcDbLine
 10
24.9340160472974
 20
267.4429321289062
 30
0.0
 11
24.9340160472974
 21
89.44227063978047
 31
0.0
  0
LINE
  5
3E6
330
1F
100
AcDbEntity
  8
A-2_蓋
  6
Continuous
 62
     3
370
     9
100
AcDbLine
 10
24.9340160472974
 20
67.44289088893595
 30
0.0
 11
24.9340160472974
 21
-12.55786792652032
 31
0.0
  0
LINE
  5
3E7
330
1F
100
AcDbEntity
  8
A-2_蓋
  6
Continuous
 62
     3
370
     9
100
AcDbLine
 10
38.9336663323482
 20
267.4429321289062
 30
0.0
 11
38.9336663323482
 21
89.44227063978047
 31
0.0
  0
LINE
  5
3E8
330
1F
100
AcDbEntity
  8
A-2_蓋
  6
Continuous
 62
     3
370
     9
100
AcDbLine
 10
38.9336663323482
 20
67.44289088893595
 30
0.0
 11
38.9336663323482
 21
-12.55786792652032
 31
0.0
  0
LINE
  5
3E9
330
1F
100
AcDbEntity
  8
A-2_蓋
  6
Continuous
 62
     3
370
     9
100
AcDbLine
 10
-45.66650390625
 20
267.4429321289062
 30
0.0
 11
-45.66650390625
 21
89.44227063978047
 31
0.0
  0
LINE
  5
3EA
330
1F
100
AcDbEntity
  8
A-2_蓋
  6
Continuous
 62
     3
370
     9
100
AcDbLine
 10
-45.66650390625
 20
67.44289088893595
 30
0.0
 11
-45.66650390625
 21
-12.55786792652032
 31
0.0
  0
LINE
  5
3EB
330
1F
100
AcDbEntity
  8
A-2_蓋
  6
Continuous
 62
     3
370
     9
100
AcDbLine
 10
-31.66635874155389
 20
267.4429321289062
 30
0.0
 11
-31.66635874155389
 21
89.44227063978047
 31
0.0
  0
LINE
  5
3EC
330
1F
100
AcDbEntity
  8
A-2_蓋
  6
Continuous
 62
     3
370
     9
100
AcDbLine
 10
-31.66635874155389
 20
67.44289088893595
 30
0.0
 11
-31.66635874155389
 21
-12.55786792652032
 31
0.0
  0
LINE
  5
3ED
330
1F
100
AcDbEntity
  8
A-2_蓋
  6
Continuous
 62
     3
370
     9
100
AcDbLine
 10
166.1335713154563
 20
267.4429321289062
 30
0.0
 11
166.1335713154563
 21
89.44227063978047
 31
0.0
  0
LINE
  5
3EE
330
1F
100
AcDbEntity
  8
A-2_蓋
  6
Continuous
 62
     3
370
     9
100
AcDbLine
 10
166.1335713154563
 20
67.44289088893595
 30
0.0
 11
166.1335713154563
 21
-12.55786792652032
 31
0.0
  0
LINE
  5
3EF
330
1F
100
AcDbEntity
  8
A-2_蓋
  6
Continuous
 62
     3
370
     9
100
AcDbLine
 10
180.1334690403294
 20
267.4429321289062
 30
0.0
 11
180.1334690403294
 21
89.44227063978047
 31
0.0
  0
LINE
  5
3F0
330
1F
100
AcDbEntity
  8
A-2_蓋
  6
Continuous
 62
     3
370
     9
100
AcDbLine
 10
180.1334690403294
 20
67.44289088893595
 30
0.0
 11
180.1334690403294
 21
-12.55786792652032
 31
0.0
  0
LINE
  5
3F1
330
1F
100
AcDbEntity
  8
A-2_蓋
  6
Continuous
 62
     3
370
     9
100
AcDbLine
 10
109.533196526605
 20
267.4429321289062
 30
0.0
 11
109.533196526605
 21
89.44227063978047
 31
0.0
  0
LINE
  5
3F2
330
1F
100
AcDbEntity
  8
A-2_蓋
  6
Continuous
 62
     3
370
     9
100
AcDbLine
 10
109.533196526605
 20
67.44289088893595
 30
0.0
 11
109.533196526605
 21
-12.55786792652032
 31
0.0
  0
LINE
  5
3F3
330
1F
100
AcDbEntity
  8
A-2_蓋
  6
Continuous
 62
     3
370
     9
100
AcDbLine
 10
307.3333740234375
 20
267.4429321289062
 30
0.0
 11
307.3333740234375
 21
89.44227063978047
 31
0.0
  0
LINE
  5
3F4
330
1F
100
AcDbEntity
  8
A-2_蓋
  6
Continuous
 62
     3
370
     9
100
AcDbLine
 10
307.3333740234375
 20
67.44289088893595
 30
0.0
 11
307.3333740234375
 21
-12.55786792652032
 31
0.0
  0
LINE
  5
3F5
330
1F
100
AcDbEntity
  8
A-2_蓋
  6
Continuous
 62
     3
370
     9
100
AcDbLine
 10
236.733843829181
 20
267.4429321289062
 30
0.0
 11
236.733843829181
 21
89.44227063978047
 31
0.0
  0
LINE
  5
3F6
330
1F
100
AcDbEntity
  8
A-2_蓋
  6
Continuous
 62
     3
370
     9
100
AcDbLine
 10
236.733843829181
 20
67.44289088893595
 30
0.0
 11
236.733843829181
 21
-12.55786792652032
 31
0.0
  0
LINE
  5
3F7
330
1F
100
AcDbEntity
  8
A-2_蓋
  6
Continuous
 62
     3
370
     9
100
AcDbLine
 10
250.7339889938768
 20
267.4429321289062
 30
0.0
 11
250.7339889938768
 21
89.44227063978047
 31
0.0
  0
LINE
  5
3F8
330
1F
100
AcDbEntity
  8
A-2_蓋
  6
Continuous
 62
     3
370
     9
100
AcDbLine
 10
250.7339889938768
 20
67.44289088893595
 30
0.0
 11
250.7339889938768
 21
-12.55786792652032
 31
0.0
  0
LINE
  5
3F9
330
1F
100
AcDbEntity
  8
A-2_蓋
  6
Continuous
 62
     3
370
     9
100
AcDbLine
 10
321.3335191881336
 20
267.4429321289062
 30
0.0
 11
321.3335191881336
 21
89.44227063978047
 31
0.0
  0
LINE
  5
3FA
330
1F
100
AcDbEntity
  8
A-2_蓋
  6
Continuous
 62
     3
370
     9
100
AcDbLine
 10
321.3335191881336
 20
67.44289088893595
 30
0.0
 11
321.3335191881336
 21
-12.55786792652032
 31
0.0
  0
LINE
  5
3FB
330
1F
100
AcDbEntity
  8
A-2_蓋
  6
Continuous
 62
     3
370
     9
100
AcDbLine
 10
448.5344139305323
 20
267.4429321289062
 30
0.0
 11
448.5344139305323
 21
89.44227063978047
 31
0.0
  0
LINE
  5
3FC
330
1F
100
AcDbEntity
  8
A-2_蓋
  6
Continuous
 62
     3
370
     9
100
AcDbLine
 10
448.5344139305323
 20
67.44289088893595
 30
0.0
 11
448.5344139305323
 21
-12.55786792652032
 31
0.0
  0
LINE
  5
3FD
330
1F
100
AcDbEntity
  8
A-2_蓋
  6
Continuous
 62
     3
370
     9
100
AcDbLine
 10
391.934039141681
 20
267.4429321289062
 30
0.0
 11
391.934039141681
 21
89.44227063978047
 31
0.0
  0
LINE
  5
3FE
330
1F
100
AcDbEntity
  8
A-2_蓋
  6
Continuous
 62
     3
370
     9
100
AcDbLine
 10
391.934039141681
 20
67.44289088893595
 30
0.0
 11
391.934039141681
 21
-12.55786792652032
 31
0.0
  0
LINE
  5
3FF
330
1F
100
AcDbEntity
  8
A-2_蓋
  6
Continuous
 62
     3
370
     9
100
AcDbLine
 10
377.9338939769849
 20
267.4429321289062
 30
0.0
 11
377.9338939769849
 21
89.44227063978047
 31
0.0
  0
LINE
  5
400
330
1F
100
AcDbEntity
  8
A-2_蓋
  6
Continuous
 62
     3
370
     9
100
AcDbLine
 10
377.9338939769849
 20
67.44289088893595
 30
0.0
 11
377.9338939769849
 21
-12.55786792652032
 31
0.0
  0
LINE
  5
401
330
1F
100
AcDbEntity
  8
A-2_蓋
  6
Continuous
 62
     3
370
     9
100
AcDbLine
 10
1316.258116026183
 20
271.8153175147805
 30
0.0
 11
1316.258116026183
 21
85.07013269372891
 31
0.0
  0
LINE
  5
402
330
1F
100
AcDbEntity
  8
A-2_蓋
  6
Continuous
 62
     3
370
     9
100
AcDbLine
 10
1316.258116026183
 20
71.81527627481017
 30
0.0
 11
1316.258116026183
 21
-12.55786792652032
 31
0.0
  0
LINE
  5
403
330
1F
100
AcDbEntity
  8
A-2_蓋
  6
Continuous
 62
     3
370
     9
100
AcDbLine
 10
1319.258076435811
 20
274.8152779244089
 30
0.0
 11
1319.258076435811
 21
82.07017228410052
 31
0.0
  0
LINE
  5
404
330
1F
100
AcDbEntity
  8
A-2_蓋
  6
Continuous
 62
     3
370
     9
100
AcDbLine
 10
1319.258076435811
 20
74.81523668443856
 30
0.0
 11
1319.258076435811
 21
-12.55786792652032
 31
0.0
  0
LINE
  5
405
330
1F
100
AcDbEntity
  8
A-A
  6
Continuous
 62
     3
370
     9
100
AcDbLine
 10
1297.257954365498
 20
129.0529323268581
 30
0.0
 11
1300.25816221495
 21
127.0528762404984
 31
0.0
  0
LINE
  5
406
330
1F
100
AcDbEntity
  8
A-A
  6
Continuous
 62
     3
370
     9
100
AcDbLine
 10
1297.257954365498
 20
114.8268746040964
 30
0.0
 11
1297.257954365498
 21
108.8269537848396
 31
0.0
  0
LINE
  5
407
330
1F
100
AcDbEntity
  8
A-A
  6
Continuous
 62
     3
370
     9
100
AcDbLine
 10
1297.257954365498
 20
114.8268746040964
 30
0.0
 11
1300.25816221495
 21
116.8269306904563
 31
0.0
  0
LINE
  5
408
330
1F
100
AcDbEntity
  8
A-A
  6
Continuous
 62
     3
370
     9
100
AcDbLine
 10
1297.257954365498
 20
108.8269537848396
 30
0.0
 11
1300.25816221495
 21
106.8268976984797
 31
0.0
  0
LINE
  5
409
330
1F
100
AcDbEntity
  8
A-A
  6
Continuous
 62
     3
370
     9
100
AcDbLine
 10
1300.25816221495
 20
116.8269306904563
 30
0.0
 11
1300.25816221495
 21
127.0528762404984
 31
0.0
  0
LINE
  5
40A
330
1F
100
AcDbEntity
  8
A-A
  6
Continuous
 62
     3
370
     9
100
AcDbLine
 10
1297.257954365498
 20
94.60064862225522
 30
0.0
 11
1297.257954365498
 21
82.60080698374168
 31
0.0
  0
LINE
  5
40B
330
1F
100
AcDbEntity
  8
A-A
  6
Continuous
 62
     3
370
     9
100
AcDbLine
 10
1297.257954365498
 20
94.60064862225522
 30
0.0
 11
1300.25816221495
 21
96.6009521484375
 31
0.0
  0
LINE
  5
40C
330
1F
100
AcDbEntity
  8
A-A
  6
Continuous
 62
     3
370
     9
100
AcDbLine
 10
1300.25816221495
 20
106.8268976984797
 30
0.0
 11
1300.25816221495
 21
96.6009521484375
 31
0.0
  0
LINE
  5
40D
330
1F
100
AcDbEntity
  8
A-A
  6
Continuous
 62
     3
370
     9
100
AcDbLine
 10
1297.257954365498
 20
82.60080698374168
 30
0.0
 11
1300.25816221495
 21
80.60075089738177
 31
0.0
  0
LINE
  5
40E
330
1F
100
AcDbEntity
  8
A-A
  6
Continuous
 62
     3
370
     9
100
AcDbLine
 10
1297.257954365498
 20
68.37474926097968
 30
0.0
 11
1297.257954365498
 21
62.3748284417232
 31
0.0
  0
LINE
  5
40F
330
1F
100
AcDbEntity
  8
A-A
  6
Continuous
 62
     3
370
     9
100
AcDbLine
 10
1297.257954365498
 20
68.37474926097968
 30
0.0
 11
1300.25816221495
 21
70.37480534733959
 31
0.0
  0
LINE
  5
410
330
1F
100
AcDbEntity
  8
A-A
  6
Continuous
 62
     3
370
     9
100
AcDbLine
 10
1297.257954365498
 20
62.3748284417232
 30
0.0
 11
1300.25816221495
 21
60.37477235536329
 31
0.0
  0
LINE
  5
411
330
1F
100
AcDbEntity
  8
A-A
  6
Continuous
 62
     3
370
     9
100
AcDbLine
 10
1300.25816221495
 20
70.37480534733959
 30
0.0
 11
1300.25816221495
 21
80.60075089738177
 31
0.0
  0
LINE
  5
412
330
1F
100
AcDbEntity
  8
A-A
  6
Continuous
 62
     3
370
     9
100
AcDbLine
 10
1297.257954365498
 20
48.14852327913854
 30
0.0
 11
1297.257954365498
 21
36.148681640625
 31
0.0
  0
LINE
  5
413
330
1F
100
AcDbEntity
  8
A-A
  6
Continuous
 62
     3
370
     9
100
AcDbLine
 10
1297.257954365498
 20
48.14852327913854
 30
0.0
 11
1300.25816221495
 21
50.14882680532111
 31
0.0
  0
LINE
  5
414
330
1F
100
AcDbEntity
  8
A-A
  6
Continuous
 62
     3
370
     9
100
AcDbLine
 10
1300.25816221495
 20
60.37477235536329
 30
0.0
 11
1300.25816221495
 21
50.14882680532111
 31
0.0
  0
LINE
  5
415
330
1F
100
AcDbEntity
  8
A-A
  6
Continuous
 62
     3
370
     9
100
AcDbLine
 10
1297.257954365498
 20
36.148681640625
 30
0.0
 11
1300.25816221495
 21
34.14862555426538
 31
0.0
  0
LINE
  5
416
330
1F
100
AcDbEntity
  8
A-A
  6
Continuous
 62
     3
370
     9
100
AcDbLine
 10
1297.257954365498
 20
21.92262391786329
 30
0.0
 11
1297.257954365498
 21
15.92270309860652
 31
0.0
  0
LINE
  5
417
330
1F
100
AcDbEntity
  8
A-A
  6
Continuous
 62
     3
370
     9
100
AcDbLine
 10
1297.257954365498
 20
21.92262391786329
 30
0.0
 11
1300.25816221495
 21
23.9226800042232
 31
0.0
  0
LINE
  5
418
330
1F
100
AcDbEntity
  8
A-A
  6
Continuous
 62
     3
370
     9
100
AcDbLine
 10
1297.257954365498
 20
15.92270309860652
 30
0.0
 11
1300.25816221495
 21
13.92264701224661
 31
0.0
  0
LINE
  5
419
330
1F
100
AcDbEntity
  8
A-A
  6
Continuous
 62
     3
370
     9
100
AcDbLine
 10
1300.25816221495
 20
23.9226800042232
 30
0.0
 11
1300.25816221495
 21
34.14862555426538
 31
0.0
  0
LINE
  5
41A
330
1F
100
AcDbEntity
  8
A-A
  6
Continuous
 62
     3
370
     9
100
AcDbLine
 10
1297.257954365498
 20
1.696397936022151
 30
0.0
 11
1300.25816221495
 21
3.69670146220443
 31
0.0
  0
LINE
  5
41B
330
1F
100
AcDbEntity
  8
A-A
  6
Continuous
 62
     3
370
     9
100
AcDbLine
 10
1300.25816221495
 20
13.92264701224661
 30
0.0
 11
1300.25816221495
 21
3.69670146220443
 31
0.0
  0
LINE
  5
41C
330
1F
100
AcDbEntity
  8
A-A
  6
Continuous
 62
     3
370
     9
100
AcDbLine
 10
1297.257954365498
 20
1.696397936022151
 30
0.0
 11
1297.257954365498
 21
-12.55786792652032
 31
0.0
  0
LINE
  5
41D
330
1F
100
AcDbEntity
  8
A-2_蓋
  6
Continuous
 62
     3
370
     9
100
AcDbLine
 10
1297.257954365498
 20
-12.55786792652032
 30
0.0
 11
1388.258155616554
 21
-12.55786792652032
 31
0.0
  0
LINE
  5
41E
330
1F
100
AcDbEntity
  8
A-4_寸法
  6
Continuous
 62
     7
370
     9
100
AcDbLine
 10
-779.9661997202279
 20
689.4422706397804
 30
0.0
 11
-664.6943788270693
 21
1119.64238347234
 31
0.0
  0
LINE
  5
41F
330
1F
100
AcDbEntity
  8
A-1_ピット
  6
Continuous
 62
     2
370
     9
100
AcDbLine
 10
-1534.466882654139
 20
798.4422343486065
 30
0.0
 11
-1534.466882654139
 21
-41.55756769953541
 31
0.0
  0
LINE
  5
420
330
1F
100
AcDbEntity
  8
A-1_ピット
  6
Continuous
 62
     2
370
     9
100
AcDbLine
 10
469.5338893581084
 20
798.4422343486065
 30
0.0
 11
469.5338893581084
 21
-41.55756769953541
 31
0.0
  0
CIRCLE
  5
421
330
1F
100
AcDbEntity
  8
A-1_ピット
  6
Continuous
 62
     2
370
     9
100
AcDbCircle
 10
-1147.466669855891
 20
-50.55831496779973
 30
0.0
 40
9.000002049111032
  0
CIRCLE
  5
422
330
1F
100
AcDbEntity
  8
A-1_ピット
  6
Continuous
 62
     2
370
     9
100
AcDbCircle
 10
-945.4665725295608
 20
-50.55831496779973
 30
0.0
 40
9.000002049111032
  0
ARC
  5
423
330
1F
100
AcDbEntity
  8
A-1_ピット
  6
Continuous
 62
     2
370
     9
100
AcDbCircle
 10
-1136.466485100823
 20
-62.75907774229296
 30
0.0
 40
20.00000025774982
100
AcDbArc
 50
180.0
 51
270.0
  0
ARC
  5
424
330
1F
100
AcDbEntity
  8
A-1_ピット
  6
Continuous
 62
     2
370
     9
100
AcDbCircle
 10
-956.4666335647171
 20
-62.75907774229296
 30
0.0
 40
20.00000025774982
100
AcDbArc
 50
270.0
 51
0.0
  0
ARC
  5
425
330
1F
100
AcDbEntity
  8
A-1_ピット
  6
Continuous
 62
     2
370
     9
100
AcDbCircle
 10
-956.4662624049831
 20
-62.75907774229296
 30
0.0
 40
2.000000146595208
100
AcDbArc
 50
270.0
 51
0.0
  0
ARC
  5
426
330
1F
100
AcDbEntity
  8
A-1_ピット
  6
Continuous
 62
     2
370
     9
100
AcDbCircle
 10
-1136.466485100823
 20
-62.75907774229296
 30
0.0
 40
2.000000146595208
100
AcDbArc
 50
180.0
 51
270.0
  0
CIRCLE
  5
427
330
1F
100
AcDbEntity
  8
A-1_ピット
  6
Continuous
 62
     2
370
     9
100
AcDbCircle
 10
-119.4661733266469
 20
-50.55831496779973
 30
0.0
 40
9.000002049111032
  0
CIRCLE
  5
428
330
1F
100
AcDbEntity
  8
A-1_ピット
  6
Continuous
 62
     2
370
     9
100
AcDbCircle
 10
82.53305796030418
 20
-50.55831496779973
 30
0.0
 40
9.000002049111032
  0
ARC
  5
429
330
1F
100
AcDbEntity
  8
A-1_ピット
  6
Continuous
 62
     2
370
     9
100
AcDbCircle
 10
-108.4661122914906
 20
-62.75907774229296
 30
0.0
 40
20.00000025774982
100
AcDbArc
 50
180.0
 51
270.0
  0
ARC
  5
42A
330
1F
100
AcDbEntity
  8
A-1_ピット
  6
Continuous
 62
     2
370
     9
100
AcDbCircle
 10
71.5343578441724
 20
-62.75907774229296
 30
0.0
 40
20.00000025774982
100
AcDbArc
 50
270.0
 51
0.0
  0
ARC
  5
42B
330
1F
100
AcDbEntity
  8
A-1_ピット
  6
Continuous
 62
     2
370
     9
100
AcDbCircle
 10
71.5343578441724
 20
-62.75907774229296
 30
0.0
 40
2.000000146595208
100
AcDbArc
 50
270.0
 51
0.0
  0
ARC
  5
42C
330
1F
100
AcDbEntity
  8
A-1_ピット
  6
Continuous
 62
     2
370
     9
100
AcDbCircle
 10
-108.4667308910471
 20
-62.75907774229296
 30
0.0
 40
2.000000146595208
100
AcDbArc
 50
180.0
 51
270.0
  0
CIRCLE
  5
42D
330
1F
100
AcDbEntity
  8
A-1_ピット
  6
Continuous
 62
     2
370
     9
100
AcDbCircle
 10
-1147.466669855891
 20
807.4428578969596
 30
0.0
 40
9.000002049111032
  0
CIRCLE
  5
42E
330
1F
100
AcDbEntity
  8
A-1_ピット
  6
Continuous
 62
     2
370
     9
100
AcDbCircle
 10
-945.4665725295608
 20
807.4428578969596
 30
0.0
 40
9.000002049111032
  0
ARC
  5
42F
330
1F
100
AcDbEntity
  8
A-1_ピット
  6
Continuous
 62
     2
370
     9
100
AcDbCircle
 10
-1136.466485100823
 20
819.6426309121623
 30
0.0
 40
20.00000025774982
100
AcDbArc
 50
90.0
 51
180.0
  0
ARC
  5
430
330
1F
100
AcDbEntity
  8
A-1_ピット
  6
Continuous
 62
     2
370
     9
100
AcDbCircle
 10
-956.4666335647171
 20
819.6426309121623
 30
0.0
 40
20.00000025774982
100
AcDbArc
 50
0.0
 51
90.0
  0
ARC
  5
431
330
1F
100
AcDbEntity
  8
A-1_ピット
  6
Continuous
 62
     2
370
     9
100
AcDbCircle
 10
-956.4662624049831
 20
819.6426309121623
 30
0.0
 40
2.000000146595208
100
AcDbArc
 50
0.0
 51
90.0
  0
ARC
  5
432
330
1F
100
AcDbEntity
  8
A-1_ピット
  6
Continuous
 62
     2
370
     9
100
AcDbCircle
 10
-1136.466485100823
 20
819.6426309121623
 30
0.0
 40
2.000000146595208
100
AcDbArc
 50
90.0
 51
180.0
  0
CIRCLE
  5
433
330
1F
100
AcDbEntity
  8
A-1_ピット
  6
Continuous
 62
     2
370
     9
100
AcDbCircle
 10
-119.4661733266469
 20
807.4428578969596
 30
0.0
 40
9.000002049111032
  0
CIRCLE
  5
434
330
1F
100
AcDbEntity
  8
A-1_ピット
  6
Continuous
 62
     2
370
     9
100
AcDbCircle
 10
82.53305796030418
 20
807.4428578969596
 30
0.0
 40
9.000002049111032
  0
ARC
  5
435
330
1F
100
AcDbEntity
  8
A-1_ピット
  6
Continuous
 62
     2
370
     9
100
AcDbCircle
 10
-108.4661122914906
 20
819.6426309121623
 30
0.0
 40
20.00000025774982
100
AcDbArc
 50
90.0
 51
180.0
  0
ARC
  5
436
330
1F
100
AcDbEntity
  8
A-1_ピット
  6
Continuous
 62
     2
370
     9
100
AcDbCircle
 10
71.5343578441724
 20
819.6426309121623
 30
0.0
 40
20.00000025774982
100
AcDbArc
 50
0.0
 51
90.0
  0
ARC
  5
437
330
1F
100
AcDbEntity
  8
A-1_ピット
  6
Continuous
 62
     2
370
     9
100
AcDbCircle
 10
71.5343578441724
 20
819.6426309121623
 30
0.0
 40
2.000000146595208
100
AcDbArc
 50
0.0
 51
90.0
  0
ARC
  5
438
330
1F
100
AcDbEntity
  8
A-1_ピット
  6
Continuous
 62
     2
370
     9
100
AcDbCircle
 10
-108.4667308910471
 20
819.6426309121623
 30
0.0
 40
2.000000146595208
100
AcDbArc
 50
90.0
 51
180.0
  0
ARC
  5
439
330
1F
100
AcDbEntity
  8
A-3_受枠
  6
Continuous
 62
     4
370
     9
100
AcDbCircle
 10
-1319.365712758657
 20
738.3423181482266
 30
0.0
 40
2.899994479643332
100
AcDbArc
 50
270.0
 51
90.0
  0
ARC
  5
43A
330
1F
100
AcDbEntity
  8
A-3_受枠
  6
Continuous
 62
     4
370
     9
100
AcDbCircle
 10
-1370.166098104941
 20
738.3423181482266
 30
0.0
 40
2.899994479643332
100
AcDbArc
 50
90.0
 51
270.0
  0
ARC
  5
43B
330
1F
100
AcDbEntity
  8
A-3_受枠
  6
Continuous
 62
     4
370
     9
100
AcDbCircle
 10
-1363.865661621094
 20
738.3423181482266
 30
0.0
 40
2.900000762295079
100
AcDbArc
 50
270.0
 51
0.0
  0
ARC
  5
43C
330
1F
100
AcDbEntity
  8
A-3_受枠
  6
Continuous
 62
     4
370
     9
100
AcDbCircle
 10
-1325.66577808277
 20
738.3423181482266
 30
0.0
 40
2.900000762295079
100
AcDbArc
 50
180.0
 51
270.0
  0
ARC
  5
43D
330
1F
100
AcDbEntity
  8
A-3_受枠
  6
Continuous
 62
     4
370
     9
100
AcDbCircle
 10
-1367.765808105469
 20
742.2424646326016
 30
0.0
 40
0.9999999524773778
100
AcDbArc
 50
270.0
 51
0.0
  0
ARC
  5
43E
330
1F
100
AcDbEntity
  8
A-3_受枠
  6
Continuous
 62
     4
370
     9
100
AcDbCircle
 10
-1321.765755318306
 20
742.2424646326016
 30
0.0
 40
0.9999999524773778
100
AcDbArc
 50
180.0
 51
270.0
  0
ARC
  5
43F
330
1F
100
AcDbEntity
  8
A-3_受枠
  6
JWW_HOJO
 62
     4
370
     9
100
AcDbCircle
 10
-1363.865661621094
 20
766.5420449746623
 30
0.0
 40
2.899988196991586
100
AcDbArc
 50
0.0
 51
180.0
  0
ARC
  5
440
330
1F
100
AcDbEntity
  8
A-3_受枠
  6
JWW_HOJO
 62
     4
370
     9
100
AcDbCircle
 10
-1325.66577808277
 20
766.5420449746623
 30
0.0
 40
2.899988196991586
100
AcDbArc
 50
0.0
 51
180.0
  0
ELLIPSE
  5
441
330
1F
100
AcDbEntity
  8
A-3_受枠
  6
Continuous
 62
     4
370
     9
100
AcDbEllipse
 10
-1363.865661621094
 20
783.5604610958617
 30
0.0
 11
2.899994479643332
 21
0.0
 31
0.0
210
0.0
220
0.0
230
1.0
 40
0.9937
 41
0.0
 42
6.283185307179586
  0
ELLIPSE
  5
442
330
1F
100
AcDbEntity
  8
A-3_受枠
  6
Continuous
 62
     4
370
     9
100
AcDbEllipse
 10
-1325.66577808277
 20
783.5604610958617
 30
0.0
 11
-2.899994479643332
 21
3.551351665821042E-16
 31
0.0
210
0.0
220
0.0
230
1.0
 40
0.9937
 41
0.0
 42
6.283185307179586
  0
ARC
  5
443
330
1F
100
AcDbEntity
  8
A-3_受枠
  6
JWW_HOJO
 62
     4
370
     9
100
AcDbCircle
 10
-1363.865661621094
 20
781.3419156461151
 30
0.0
 40
2.899988196991586
100
AcDbArc
 50
180.0
 51
0.0
  0
ARC
  5
444
330
1F
100
AcDbEntity
  8
A-3_受枠
  6
JWW_HOJO
 62
     4
370
     9
100
AcDbCircle
 10
-1325.66577808277
 20
781.3419156461151
 30
0.0
 40
2.899988196991586
100
AcDbArc
 50
180.0
 51
0.0
  0
ARC
  5
445
330
1F
100
AcDbEntity
  8
A-3_受枠
  6
Continuous
 62
     4
370
     9
100
AcDbCircle
 10
304.0352486275339
 20
738.3423181482266
 30
0.0
 40
2.899994479643332
100
AcDbArc
 50
270.0
 51
90.0
  0
ARC
  5
446
330
1F
100
AcDbEntity
  8
A-3_受枠
  6
Continuous
 62
     4
370
     9
100
AcDbCircle
 10
253.23486328125
 20
738.3423181482266
 30
0.0
 40
2.899994479643332
100
AcDbArc
 50
90.0
 51
270.0
  0
ARC
  5
447
330
1F
100
AcDbEntity
  8
A-3_受枠
  6
Continuous
 62
     4
370
     9
100
AcDbCircle
 10
259.5349286053633
 20
738.3423181482266
 30
0.0
 40
2.900000762295079
100
AcDbArc
 50
270.0
 51
0.0
  0
ARC
  5
448
330
1F
100
AcDbEntity
  8
A-3_受枠
  6
Continuous
 62
     4
370
     9
100
AcDbCircle
 10
297.7346884237755
 20
738.3423181482266
 30
0.0
 40
2.900000762295079
100
AcDbArc
 50
180.0
 51
270.0
  0
ARC
  5
449
330
1F
100
AcDbEntity
  8
A-3_受枠
  6
Continuous
 62
     4
370
     9
100
AcDbCircle
 10
255.6347821209883
 20
742.2424646326016
 30
0.0
 40
0.9999999524773778
100
AcDbArc
 50
270.0
 51
0.0
  0
ARC
  5
44A
330
1F
100
AcDbEntity
  8
A-3_受枠
  6
Continuous
 62
     4
370
     9
100
AcDbCircle
 10
301.6348349081505
 20
742.2424646326016
 30
0.0
 40
0.9999999524773778
100
AcDbArc
 50
180.0
 51
270.0
  0
ARC
  5
44B
330
1F
100
AcDbEntity
  8
A-3_受枠
  6
JWW_HOJO
 62
     4
370
     9
100
AcDbCircle
 10
259.5349286053633
 20
766.5420449746623
 30
0.0
 40
2.899988196991586
100
AcDbArc
 50
0.0
 51
180.0
  0
ARC
  5
44C
330
1F
100
AcDbEntity
  8
A-3_受枠
  6
JWW_HOJO
 62
     4
370
     9
100
AcDbCircle
 10
297.7346884237755
 20
766.5420449746623
 30
0.0
 40
2.899988196991586
100
AcDbArc
 50
0.0
 51
180.0
  0
ELLIPSE
  5
44D
330
1F
100
AcDbEntity
  8
A-3_受枠
  6
Continuous
 62
     4
370
     9
100
AcDbEllipse
 10
259.5349286053633
 20
783.5604610958617
 30
0.0
 11
2.899994479643332
 21
0.0
 31
0.0
210
0.0
220
0.0
230
1.0
 40
0.9937
 41
0.0
 42
6.283185307179586
  0
ELLIPSE
  5
44E
330
1F
100
AcDbEntity
  8
A-3_受枠
  6
Continuous
 62
     4
370
     9
100
AcDbEllipse
 10
297.7346884237755
 20
783.5604610958617
 30
0.0
 11
-2.899994479643332
 21
3.551351665821042E-16
 31
0.0
210
0.0
220
0.0
230
1.0
 40
0.9937
 41
0.0
 42
6.283185307179586
  0
ARC
  5
44F
330
1F
100
AcDbEntity
  8
A-3_受枠
  6
JWW_HOJO
 62
     4
370
     9
100
AcDbCircle
 10
259.5349286053633
 20
781.3419156461151
 30
0.0
 40
2.899988196991586
100
AcDbArc
 50
180.0
 51
0.0
  0
ARC
  5
450
330
1F
100
AcDbEntity
  8
A-3_受枠
  6
JWW_HOJO
 62
     4
370
     9
100
AcDbCircle
 10
297.7346884237755
 20
781.3419156461151
 30
0.0
 40
2.899988196991586
100
AcDbArc
 50
180.0
 51
0.0
  0
ARC
  5
451
330
1F
100
AcDbEntity
  8
A-3_受枠
  6
Continuous
 62
     4
370
     9
100
AcDbCircle
 10
-1319.365712758657
 20
18.54271966057865
 30
0.0
 40
2.899994479643332
100
AcDbArc
 50
270.0
 51
90.0
  0
ARC
  5
452
330
1F
100
AcDbEntity
  8
A-3_受枠
  6
Continuous
 62
     4
370
     9
100
AcDbCircle
 10
-1370.166098104941
 20
18.54271966057865
 30
0.0
 40
2.899994479643332
100
AcDbArc
 50
90.0
 51
270.0
  0
ARC
  5
453
330
1F
100
AcDbEntity
  8
A-3_受枠
  6
Continuous
 62
     4
370
     9
100
AcDbCircle
 10
-1363.865661621094
 20
18.54271966057865
 30
0.0
 40
2.900000762295079
100
AcDbArc
 50
0.0
 51
90.0
  0
ARC
  5
454
330
1F
100
AcDbEntity
  8
A-3_受枠
  6
Continuous
 62
     4
370
     9
100
AcDbCircle
 10
-1325.66577808277
 20
18.54271966057865
 30
0.0
 40
2.900000762295079
100
AcDbArc
 50
90.0
 51
180.0
  0
ARC
  5
455
330
1F
100
AcDbEntity
  8
A-3_受枠
  6
Continuous
 62
     4
370
     9
100
AcDbCircle
 10
-1367.765808105469
 20
14.64257317620365
 30
0.0
 40
0.9999999524773778
100
AcDbArc
 50
0.0
 51
90.0
  0
ARC
  5
456
330
1F
100
AcDbEntity
  8
A-3_受枠
  6
Continuous
 62
     4
370
     9
100
AcDbCircle
 10
-1321.765755318306
 20
14.64257317620365
 30
0.0
 40
0.9999999524773778
100
AcDbArc
 50
90.0
 51
180.0
  0
ARC
  5
457
330
1F
100
AcDbEntity
  8
A-3_受枠
  6
JWW_HOJO
 62
     4
370
     9
100
AcDbCircle
 10
-1363.865661621094
 20
-9.657007165857294
 30
0.0
 40
2.899988196991586
100
AcDbArc
 50
180.0
 51
0.0
  0
ARC
  5
458
330
1F
100
AcDbEntity
  8
A-3_受枠
  6
JWW_HOJO
 62
     4
370
     9
100
AcDbCircle
 10
-1325.66577808277
 20
-9.657007165857294
 30
0.0
 40
2.899988196991586
100
AcDbArc
 50
180.0
 51
0.0
  0
ELLIPSE
  5
459
330
1F
100
AcDbEntity
  8
A-3_受枠
  6
Continuous
 62
     4
370
     9
100
AcDbEllipse
 10
-1363.865661621094
 20
-26.6754232870565
 30
0.0
 11
2.899994479643332
 21
0.0
 31
0.0
210
0.0
220
0.0
230
1.0
 40
0.9937
 41
0.0
 42
6.283185307179586
  0
ELLIPSE
  5
45A
330
1F
100
AcDbEntity
  8
A-3_受枠
  6
Continuous
 62
     4
370
     9
100
AcDbEllipse
 10
-1325.66577808277
 20
-26.6754232870565
 30
0.0
 11
-2.899994479643332
 21
3.551351665821042E-16
 31
0.0
210
0.0
220
0.0
230
1.0
 40
0.9937
 41
0.0
 42
6.283185307179586
  0
ARC
  5
45B
330
1F
100
AcDbEntity
  8
A-3_受枠
  6
JWW_HOJO
 62
     4
370
     9
100
AcDbCircle
 10
-1363.865661621094
 20
-24.45687783730989
 30
0.0
 40
2.899988196991586
100
AcDbArc
 50
0.0
 51
180.0
  0
ARC
  5
45C
330
1F
100
AcDbEntity
  8
A-3_受枠
  6
JWW_HOJO
 62
     4
370
     9
100
AcDbCircle
 10
-1325.66577808277
 20
-24.45687783730989
 30
0.0
 40
2.899988196991586
100
AcDbArc
 50
0.0
 51
180.0
  0
ARC
  5
45D
330
1F
100
AcDbEntity
  8
A-3_受枠
  6
Continuous
 62
     4
370
     9
100
AcDbCircle
 10
304.0352486275339
 20
18.54271966057865
 30
0.0
 40
2.899994479643332
100
AcDbArc
 50
270.0
 51
90.0
  0
ARC
  5
45E
330
1F
100
AcDbEntity
  8
A-3_受枠
  6
Continuous
 62
     4
370
     9
100
AcDbCircle
 10
253.23486328125
 20
18.54271966057865
 30
0.0
 40
2.899994479643332
100
AcDbArc
 50
90.0
 51
270.0
  0
ARC
  5
45F
330
1F
100
AcDbEntity
  8
A-3_受枠
  6
Continuous
 62
     4
370
     9
100
AcDbCircle
 10
259.5349286053633
 20
18.54271966057865
 30
0.0
 40
2.900000762295079
100
AcDbArc
 50
0.0
 51
90.0
  0
ARC
  5
460
330
1F
100
AcDbEntity
  8
A-3_受枠
  6
Continuous
 62
     4
370
     9
100
AcDbCircle
 10
297.7346884237755
 20
18.54271966057865
 30
0.0
 40
2.900000762295079
100
AcDbArc
 50
90.0
 51
180.0
  0
ARC
  5
461
330
1F
100
AcDbEntity
  8
A-3_受枠
  6
Continuous
 62
     4
370
     9
100
AcDbCircle
 10
255.6347821209883
 20
14.64257317620365
 30
0.0
 40
0.9999999524773778
100
AcDbArc
 50
0.0
 51
90.0
  0
ARC
  5
462
330
1F
100
AcDbEntity
  8
A-3_受枠
  6
Continuous
 62
     4
370
     9
100
AcDbCircle
 10
301.6348349081505
 20
14.64257317620365
 30
0.0
 40
0.9999999524773778
100
AcDbArc
 50
90.0
 51
180.0
  0
ARC
  5
463
330
1F
100
AcDbEntity
  8
A-3_受枠
  6
JWW_HOJO
 62
     4
370
     9
100
AcDbCircle
 10
259.5349286053633
 20
-9.657007165857294
 30
0.0
 40
2.899988196991586
100
AcDbArc
 50
180.0
 51
0.0
  0
ARC
  5
464
330
1F
100
AcDbEntity
  8
A-3_受枠
  6
JWW_HOJO
 62
     4
370
     9
100
AcDbCircle
 10
297.7346884237755
 20
-9.657007165857294
 30
0.0
 40
2.899988196991586
100
AcDbArc
 50
180.0
 51
0.0
  0
ELLIPSE
  5
465
330
1F
100
AcDbEntity
  8
A-3_受枠
  6
Continuous
 62
     4
370
     9
100
AcDbEllipse
 10
259.5349286053633
 20
-26.6754232870565
 30
0.0
 11
2.899994479643332
 21
0.0
 31
0.0
210
0.0
220
0.0
230
1.0
 40
0.9937
 41
0.0
 42
6.283185307179586
  0
ELLIPSE
  5
466
330
1F
100
AcDbEntity
  8
A-3_受枠
  6
Continuous
 62
     4
370
     9
100
AcDbEllipse
 10
297.7346884237755
 20
-26.6754232870565
 30
0.0
 11
-2.899994479643332
 21
3.551351665821042E-16
 31
0.0
210
0.0
220
0.0
230
1.0
 40
0.9937
 41
0.0
 42
6.283185307179586
  0
ARC
  5
467
330
1F
100
AcDbEntity
  8
A-3_受枠
  6
JWW_HOJO
 62
     4
370
     9
100
AcDbCircle
 10
259.5349286053633
 20
-24.45687783730989
 30
0.0
 40
2.899988196991586
100
AcDbArc
 50
0.0
 51
180.0
  0
ARC
  5
468
330
1F
100
AcDbEntity
  8
A-3_受枠
  6
JWW_HOJO
 62
     4
370
     9
100
AcDbCircle
 10
297.7346884237755
 20
-24.45687783730989
 30
0.0
 40
2.899988196991586
100
AcDbArc
 50
0.0
 51
180.0
  0
ARC
  5
469
330
1F
100
AcDbEntity
  8
A-3_受枠
  6
Continuous
 62
     4
370
     9
100
AcDbCircle
 10
1387.258251293285
 20
779.394316802154
 30
0.0
 40
0.9999999524773778
100
AcDbArc
 50
0.0
 51
92.71160888671875
  0
ARC
  5
46A
330
1F
100
AcDbEntity
  8
A-3_受枠
  6
Continuous
 62
     4
370
     9
100
AcDbCircle
 10
1387.258251293285
 20
779.394316802154
 30
0.0
 40
6.800000570915841
100
AcDbArc
 50
0.0
 51
92.71179199218751
  0
ARC
  5
46B
330
1F
100
AcDbEntity
  8
A-3_受枠
  6
Continuous
 62
     4
370
     9
100
AcDbCircle
 10
1387.258251293285
 20
768.499541411529
 30
0.0
 40
6.800000570915841
100
AcDbArc
 50
266.8402252197266
 51
0.0000000000000568
  0
ARC
  5
46C
330
1F
100
AcDbEntity
  8
A-3_受枠
  6
Continuous
 62
     4
370
     9
100
AcDbCircle
 10
1387.258251293285
 20
768.499541411529
 30
0.0
 40
0.9999999524773778
100
AcDbArc
 50
266.8396759033203
 51
0.0
  0
ARC
  5
46D
330
1F
100
AcDbEntity
  8
A-3_受枠
  6
Continuous
 62
     4
370
     9
100
AcDbCircle
 10
1391.158150337838
 20
738.3428130278717
 30
0.0
 40
2.899994479643332
100
AcDbArc
 50
270.0
 51
90.0
  0
ARC
  5
46E
330
1F
100
AcDbEntity
  8
A-3_受枠
  6
Continuous
 62
     4
370
     9
100
AcDbCircle
 10
1332.858111407306
 20
742.2427120724242
 30
0.0
 40
0.9999999524773778
100
AcDbArc
 50
180.0
 51
270.0
  0
ARC
  5
46F
330
1F
100
AcDbEntity
  8
A-3_受枠
  6
Continuous
 62
     4
370
     9
100
AcDbCircle
 10
1332.858111407306
 20
742.2427120724242
 30
0.0
 40
6.800000570915841
100
AcDbArc
 50
180.0
 51
270.0
  0
ARC
  5
470
330
1F
100
AcDbEntity
  8
A-3_受枠
  6
Continuous
 62
     4
370
     9
100
AcDbCircle
 10
1332.858111407306
 20
753.094185494088
 30
0.0
 40
6.800000570915841
100
AcDbArc
 50
114.8012390136719
 51
180.0
  0
ARC
  5
471
330
1F
100
AcDbEntity
  8
A-3_受枠
  6
Continuous
 62
     4
370
     9
100
AcDbCircle
 10
1332.858111407306
 20
753.094185494088
 30
0.0
 40
0.9999999524773778
100
AcDbArc
 50
114.8008880615234
 51
180.0
  0
ARC
  5
472
330
1F
100
AcDbEntity
  8
A-1_ピット
  6
Continuous
 62
     2
370
     9
100
AcDbCircle
 10
1305.258178710938
 20
791.442656645904
 30
0.0
 40
4.99999958115655
100
AcDbArc
 50
180.0
 51
270.0
  0
ARC
  5
473
330
1F
100
AcDbEntity
  8
A-1_ピット
  6
Continuous
 62
     2
370
     9
100
AcDbCircle
 10
1405.258261190879
 20
683.4425972603464
 30
0.0
 40
4.99999958115655
100
AcDbArc
 50
180.0
 51
270.0
  0
ARC
  5
474
330
1F
100
AcDbEntity
  8
A-1_ピット
  6
Continuous
 62
     2
370
     9
100
AcDbCircle
 10
1392.258267789274
 20
778.4426632442992
 30
0.0
 40
7.999999619819023
100
AcDbArc
 50
0.0
 51
90.0
  0
ARC
  5
475
330
1F
100
AcDbEntity
  8
A-1_ピット
  6
Continuous
 62
     2
370
     9
100
AcDbCircle
 10
1389.888289168075
 20
834.4425015836151
 30
0.0
 40
35.99999659770244
100
AcDbArc
 50
270.0
 51
285.0
  0
ARC
  5
476
330
1F
100
AcDbEntity
  8
A-1_ピット
  6
Continuous
 62
     2
370
     9
100
AcDbCircle
 10
1513.258320576436
 20
839.5469376847552
 30
0.0
 40
8.99999914942561
100
AcDbArc
 50
285.0001373291016
 51
104.9999084472656
  0
ARC
  5
477
330
1F
100
AcDbEntity
  8
A-1_ピット
  6
JWW_CENTER2
 62
     2
370
     9
100
AcDbCircle
 10
1389.888289168075
 20
834.4425015836151
 30
0.0
 40
27.00000131452406
100
AcDbArc
 50
270.0
 51
284.9999542236328
  0
ARC
  5
478
330
1F
100
AcDbEntity
  8
A-1_ピット
  6
Continuous
 62
     2
370
     9
100
AcDbCircle
 10
1389.888536607898
 20
834.4425015836151
 30
0.0
 40
17.99999829885122
100
AcDbArc
 50
270.0
 51
285.0000152587891
  0
ARC
  5
479
330
1F
100
AcDbEntity
  8
A-3_受枠
  6
Continuous
 62
     4
370
     9
100
AcDbCircle
 10
1387.258251293285
 20
-22.50940271326016
 30
0.0
 40
0.9999999524773778
100
AcDbArc
 50
267.2883911132812
 51
0.0000000000000254
  0
ARC
  5
47A
330
1F
100
AcDbEntity
  8
A-3_受枠
  6
Continuous
 62
     4
370
     9
100
AcDbCircle
 10
1387.258251293285
 20
-22.50940271326016
 30
0.0
 40
6.800000570915841
100
AcDbArc
 50
267.2882080078125
 51
0.0000000000000254
  0
ARC
  5
47B
330
1F
100
AcDbEntity
  8
A-3_受枠
  6
Continuous
 62
     4
370
     9
100
AcDbCircle
 10
1387.258251293285
 20
-11.61462732263516
 30
0.0
 40
6.800000570915841
100
AcDbArc
 50
0.0
 51
93.15977478027344
  0
ARC
  5
47C
330
1F
100
AcDbEntity
  8
A-3_受枠
  6
Continuous
 62
     4
370
     9
100
AcDbCircle
 10
1387.258251293285
 20
-11.61462732263516
 30
0.0
 40
0.9999999524773778
100
AcDbArc
 50
0.0
 51
93.16032409667969
  0
ARC
  5
47D
330
1F
100
AcDbEntity
  8
A-3_受枠
  6
Continuous
 62
     4
370
     9
100
AcDbCircle
 10
1391.158150337838
 20
18.54210106102215
 30
0.0
 40
2.899994479643332
100
AcDbArc
 50
270.0
 51
90.0
  0
ARC
  5
47E
330
1F
100
AcDbEntity
  8
A-3_受枠
  6
Continuous
 62
     4
370
     9
100
AcDbCircle
 10
1332.858111407306
 20
14.64220201646981
 30
0.0
 40
0.9999999524773778
100
AcDbArc
 50
90.0
 51
180.0
  0
ARC
  5
47F
330
1F
100
AcDbEntity
  8
A-3_受枠
  6
Continuous
 62
     4
370
     9
100
AcDbCircle
 10
1332.858111407306
 20
14.64220201646981
 30
0.0
 40
6.800000570915841
100
AcDbArc
 50
90.0
 51
180.0
  0
ARC
  5
480
330
1F
100
AcDbEntity
  8
A-3_受枠
  6
Continuous
 62
     4
370
     9
100
AcDbCircle
 10
1332.858111407306
 20
3.790728594805728
 30
0.0
 40
6.800000570915841
100
AcDbArc
 50
180.0
 51
245.1987609863281
  0
ARC
  5
481
330
1F
100
AcDbEntity
  8
A-3_受枠
  6
Continuous
 62
     4
370
     9
100
AcDbCircle
 10
1332.858111407306
 20
3.790728594805728
 30
0.0
 40
0.9999999524773778
100
AcDbArc
 50
180.0
 51
245.1991119384766
  0
ARC
  5
482
330
1F
100
AcDbEntity
  8
A-1_ピット
  6
Continuous
 62
     2
370
     9
100
AcDbCircle
 10
1305.258178710938
 20
-34.55774255701016
 30
0.0
 40
4.99999958115655
100
AcDbArc
 50
90.0
 51
180.0
  0
ARC
  5
483
330
1F
100
AcDbEntity
  8
A-1_ピット
  6
Continuous
 62
     2
370
     9
100
AcDbCircle
 10
1405.258261190879
 20
73.4423168285474
 30
0.0
 40
4.99999958115655
100
AcDbArc
 50
90.0
 51
180.0
  0
ARC
  5
484
330
1F
100
AcDbEntity
  8
A-1_ピット
  6
Continuous
 62
     2
370
     9
100
AcDbCircle
 10
1392.258267789274
 20
-21.55774915540519
 30
0.0
 40
7.999999619819023
100
AcDbArc
 50
270.0
 51
0.0
  0
ARC
  5
485
330
1F
100
AcDbEntity
  8
A-1_ピット
  6
Continuous
 62
     2
370
     9
100
AcDbCircle
 10
1389.888289168075
 20
-77.55758749472108
 30
0.0
 40
35.99999659770244
100
AcDbArc
 50
74.99999999999999
 51
89.99999999999999
  0
ARC
  5
486
330
1F
100
AcDbEntity
  8
A-1_ピット
  6
Continuous
 62
     2
370
     9
100
AcDbCircle
 10
1513.258320576436
 20
-82.66202359586146
 30
0.0
 40
8.99999914942561
100
AcDbArc
 50
255.0000915527343
 51
74.9998626708984
  0
ARC
  5
487
330
1F
100
AcDbEntity
  8
A-1_ピット
  6
JWW_CENTER2
 62
     2
370
     9
100
AcDbCircle
 10
1389.888289168075
 20
-77.55758749472108
 30
0.0
 40
27.00000131452406
100
AcDbArc
 50
75.00004577636717
 51
90.0
  0
ARC
  5
488
330
1F
100
AcDbEntity
  8
A-1_ピット
  6
Continuous
 62
     2
370
     9
100
AcDbCircle
 10
1389.888536607898
 20
-77.55758749472108
 30
0.0
 40
17.99999829885122
100
AcDbArc
 50
74.99998474121095
 51
90.0
  0
TEXT
  5
489
330
1F
100
AcDbEntity
  8
D-4_寸法
  6
Continuous
 62
     2
370
     9
100
AcDbText
 10
931.1506611592063
 20
-972.3799288033151
 30
0.0
 40
30.48
  1
材質：ＳＳ４００
 41
1.109375
  7
ＭＳ ゴシック
100
AcDbText
  0
TEXT
  5
48A
330
1F
100
AcDbEntity
  8
D-4_寸法
  6
Continuous
 62
     2
370
     9
100
AcDbText
 10
931.1506859031886
 20
-1027.379862819362
 30
0.0
 40
30.48
  1
処理：樹脂系塗料塗装
 41
1.1125
  7
ＭＳ ゴシック
100
AcDbText
  0
TEXT
  5
48B
330
1F
100
AcDbEntity
  8
D-4_寸法
  6
Continuous
 62
     2
370
     9
100
AcDbText
 10
816.8490518105998
 20
-569.4598089764569
 30
0.0
 40
30.48
  1
仕　様
 41
1.083333333333333
  7
ＭＳ ゴシック
100
AcDbText
  0
TEXT
  5
48C
330
1F
100
AcDbEntity
  8
D-4_寸法
  6
Continuous
 62
     2
370
     9
100
AcDbText
 10
931.1506859031886
 20
-797.379351443729
 30
0.0
 40
30.48
  1
処理：溶融亜鉛めっき
 41
1.1125
  7
ＭＳ ゴシック
100
AcDbText
  0
TEXT
  5
48D
330
1F
100
AcDbEntity
  8
D-4_寸法
  6
Continuous
 62
     2
370
     9
100
AcDbText
 10
931.1507601351354
 20
-852.380398938978
 30
0.0
 40
30.48
  1
定尺：９９５
 41
1.104166666666667
  7
ＭＳ ゴシック
100
AcDbText
  0
TEXT
  5
48E
330
1F
100
AcDbEntity
  8
D-4_寸法
  6
Continuous
 62
     2
370
     9
100
AcDbText
 10
871.4383099530196
 20
-632.3804154349662
 30
0.0
 40
30.48
  1
ノンスリップタイプ
 41
1.111111111111111
  7
ＭＳ ゴシック
100
AcDbText
  0
TEXT
  5
48F
330
1F
100
AcDbEntity
  8
D-4_寸法
  6
Continuous
 62
     2
370
     9
100
AcDbText
 10
931.1506611592063
 20
-742.3783039484797
 30
0.0
 40
30.48
  1
材質：ＳＳ４００
 41
1.109375
  7
ＭＳ ゴシック
100
AcDbText
  0
TEXT
  5
490
330
1F
100
AcDbEntity
  8
A-4_寸法
  6
Continuous
 62
     7
370
     9
100
AcDbText
 10
1618.264135412268
 20
1018.739904191301
 30
0.0
 40
22.86
  1
アンカー：φ９
 41
1.142857142857143
  7
ＭＳ ゴシック
100
AcDbText
  0
TEXT
  5
491
330
1F
100
AcDbEntity
  8
A-4_寸法
  6
Continuous
 62
     2
370
     9
100
AcDbText
 10
1187.941411437959
 20
-82.18845288984927
 30
0.0
 40
30.48
  1
6
 50
90.00000250447816
 41
0.9999999999999998
  7
ＭＳ ゴシック
100
AcDbText
  0
TEXT
  5
492
330
1F
100
AcDbEntity
  8
A-4_寸法
  6
Continuous
 62
     2
370
     9
100
AcDbText
 10
1187.941411437959
 20
-14.76592629831648
 30
0.0
 40
30.48
  1
4
 50
90.00000250447816
 41
0.9999999999999997
  7
ＭＳ ゴシック
100
AcDbText
  0
TEXT
  5
493
330
1F
100
AcDbEntity
  8
A-4_寸法
  6
Continuous
 62
     2
370
     9
100
AcDbText
 10
1187.941411437959
 20
747.5317710266942
 30
0.0
 40
30.48
  1
4
 50
90.00000250447816
 41
1.000000000000001
  7
ＭＳ ゴシック
100
AcDbText
  0
TEXT
  5
494
330
1F
100
AcDbEntity
  8
A-4_寸法
  6
Continuous
 62
     2
370
     9
100
AcDbText
 10
1187.941411437959
 20
820.6413307817617
 30
0.0
 40
30.48
  1
6
 50
90.00000250447816
 41
1.000000000000001
  7
ＭＳ ゴシック
100
AcDbText
  0
TEXT
  5
495
330
1F
100
AcDbEntity
  8
A-4_寸法
  6
Continuous
 62
     2
370
     9
100
AcDbText
 10
1604.61794869597
 20
-2.807741153943404
 30
0.0
 40
30.48
  1
60
 50
90.00000250447816
 41
1.0625
  7
ＭＳ ゴシック
100
AcDbText
  0
TEXT
  5
496
330
1F
100
AcDbEntity
  8
A-4_寸法
  6
Continuous
 62
     2
370
     9
100
AcDbText
 10
1604.61794869597
 20
717.1926547497728
 30
0.0
 40
30.48
  1
60
 50
90.00000250447816
 41
1.062500000000001
  7
ＭＳ ゴシック
100
AcDbText
  0
TEXT
  5
497
330
1F
100
AcDbEntity
  8
A-4_寸法
  6
Continuous
 62
     7
370
     9
100
AcDbText
 10
-660.7033175714126
 20
1133.872663904124
 30
0.0
 40
22.86
  1
クロスバー □８ ＠100
 50
0.0000388418058018
 41
1.158730158730159
  7
ＭＳ ゴシック
100
AcDbText
  0
TEXT
  5
498
330
1F
100
AcDbEntity
  8
A-4_寸法
  6
Continuous
 62
     7
370
     9
100
AcDbText
 10
370.5624224688559
 20
1053.87165764886
 30
0.0
 40
22.86
  1
ＵＳクリップ：ＵＳ－２
 41
1.151515151515152
  7
ＭＳ ゴシック
100
AcDbText
  0
TEXT
  5
499
330
1F
100
AcDbEntity
  8
A-4_寸法
  6
Continuous
 62
     7
370
     9
100
AcDbText
 10
874.6039725638727
 20
997.2589108688769
 30
0.0
 40
22.86
  1
（二方受四方枠）
 41
1.145833333333333
  7
ＭＳ ゴシック
100
AcDbText
  0
TEXT
  5
49A
330
1F
100
AcDbEntity
  8
D-4_寸法
  6
Continuous
 62
     7
370
     9
100
AcDbText
 10
-979.1215817498278
 20
-1029.959201561175
 30
0.0
 40
22.86
  1
※デルタパターンの配列は一定ではありません。
 50
0.0000185323619753
 41
1.159090909090909
  7
ＭＳ ゴシック
100
AcDbText
  0
TEXT
  5
49B
330
1F
100
AcDbEntity
  8
D-4_寸法
  6
Continuous
 62
     7
370
     9
100
AcDbText
 10
-831.5584914748731
 20
-515.6972856841217
 30
0.0
 40
22.86
  1
デルタパターン
 41
1.142857142857143
  7
ＭＳ ゴシック
100
AcDbText
  0
TEXT
  5
49C
330
1F
100
AcDbEntity
  8
D-4_寸法
  6
Continuous
 62
     2
370
     9
100
AcDbText
 10
-1004.437895664554
 20
-619.7008351909737
 30
0.0
 40
30.48
  1
8
 50
90.00000250447816
 41
1.000000000000001
  7
ＭＳ ゴシック
100
AcDbText
  0
TEXT
  5
49D
330
1F
100
AcDbEntity
  8
D-4_寸法
  6
Continuous
 62
     2
370
     9
100
AcDbText
 10
-1004.437895664554
 20
-793.9552577654036
 30
0.0
 40
30.48
  1
5
 50
90.00000250447816
 41
1.000000000000001
  7
ＭＳ ゴシック
100
AcDbText
  0
TEXT
  5
49E
330
1F
100
AcDbEntity
  8
D-4_寸法
  6
Continuous
 62
     2
370
     9
100
AcDbText
 10
-923.6657921043602
 20
-493.8133105798669
 30
0.0
 40
30.48
  1
7
 41
0.9999999999999998
  7
ＭＳ ゴシック
100
AcDbText
  0
TEXT
  5
49F
330
1F
100
AcDbEntity
  8
D-4_寸法
  6
Continuous
 62
     2
370
     9
100
AcDbText
 10
-845.0429273008608
 20
-613.8270541103153
 30
0.0
 40
30.48
  1
5
 50
282.0789753068251
 41
1.0
  7
ＭＳ ゴシック
100
AcDbText
  0
TEXT
  5
4A0
330
1F
100
AcDbEntity
  8
D-4_寸法
  6
Continuous
 62
     2
370
     9
100
AcDbText
 10
-265.0868884937182
 20
-511.2946247492609
 30
0.0
 40
30.48
  1
7
 41
0.9999999999999998
  7
ＭＳ ゴシック
100
AcDbText
  0
TEXT
  5
4A1
330
1F
100
AcDbEntity
  8
D-4_寸法
  6
Continuous
 62
     2
370
     9
100
AcDbText
 10
-216.1535603291279
 20
-731.6633554489548
 30
0.0
 40
30.48
  1
4
 41
0.9999999999999998
  7
ＭＳ ゴシック
100
AcDbText
  0
TEXT
  5
4A2
330
1F
100
AcDbEntity
  8
D-4_寸法
  6
Continuous
 62
     2
370
     9
100
AcDbText
 10
-130.7807098502715
 20
-725.4388553919609
 30
0.0
 40
30.48
  1
50
 50
90.00000250447816
 41
1.062500000000001
  7
ＭＳ ゴシック
100
AcDbText
  0
TEXT
  5
4A3
330
1F
100
AcDbEntity
  8
D-4_寸法
  6
Continuous
 62
     2
370
     9
100
AcDbText
 10
-999.1219515413852
 20
-953.5491397012246
 30
0.0
 40
30.48
  1
ＤⅠ－５０　バー形状詳細　Ｓ＝１：２
 41
1.118055555555555
  7
ＭＳ ゴシック
100
AcDbText
  0
TEXT
  5
4A4
330
1F
100
AcDbEntity
  8
A-4_寸法
  6
Continuous
 62
     7
370
     9
100
AcDbText
 10
892.4481613571584
 20
1053.765258525127
 30
0.0
 40
22.86
  1
受枠：Ｌ－５０
 41
1.142857142857143
  7
ＭＳ ゴシック
100
AcDbText
  0
TEXT
  5
4A5
330
1F
100
AcDbEntity
  8
A-4_寸法
  6
Continuous
 62
     7
370
     9
100
AcDbText
 10
-576.5131293140525
 20
1053.872399968325
 30
0.0
 40
22.86
  1
メインバー ＤⅠ－５０ ＠35.3
 50
359.9999127553377
 41
1.160714285714286
  7
ＭＳ ゴシック
100
AcDbText
  0
TEXT
  5
4A6
330
1F
100
AcDbEntity
  8
A-4_寸法
  6
Continuous
 62
     2
370
     9
100
AcDbText
 10
-400.1163585765942
 20
858.7696518686656
 30
0.0
 40
30.48
  1
35.3
 41
1.09375
  7
ＭＳ ゴシック
100
AcDbText
  0
TEXT
  5
4A7
330
1F
100
AcDbEntity
  8
A-4_寸法
  6
Continuous
 62
     2
370
     9
100
AcDbText
 10
-576.2164347880595
 20
-284.1707250316723
 30
0.0
 40
30.48
  1
1014
 41
1.09375
  7
ＭＳ ゴシック
100
AcDbText
  0
TEXT
  5
4A8
330
1F
100
AcDbEntity
  8
A-4_寸法
  6
Continuous
 62
     2
370
     9
100
AcDbText
 10
-1588.563040656013
 20
-178.7653196262669
 30
0.0
 40
30.48
  1
6
 41
0.9999999999999998
  7
ＭＳ ゴシック
100
AcDbText
  0
TEXT
  5
4A9
330
1F
100
AcDbEntity
  8
A-4_寸法
  6
Continuous
 62
     2
370
     9
100
AcDbText
 10
-1512.788170479439
 20
-178.7653196262669
 30
0.0
 40
30.48
  1
3.5
 41
1.083333333333333
  7
ＭＳ ゴシック
100
AcDbText
  0
TEXT
  5
4AA
330
1F
100
AcDbEntity
  8
A-4_寸法
  6
Continuous
 62
     2
370
     9
100
AcDbText
 10
-564.9664966480151
 20
-178.7653196262669
 30
0.0
 40
30.48
  1
995
 41
1.083333333333333
  7
ＭＳ ゴシック
100
AcDbText
  0
TEXT
  5
4AB
330
1F
100
AcDbEntity
  8
A-4_寸法
  6
Continuous
 62
     2
370
     9
100
AcDbText
 10
376.0409628378379
 20
-178.7653196262669
 30
0.0
 40
30.48
  1
3.5
 41
1.083333333333333
  7
ＭＳ ゴシック
100
AcDbText
  0
TEXT
  5
4AC
330
1F
100
AcDbEntity
  8
A-4_寸法
  6
Continuous
 62
     2
370
     9
100
AcDbText
 10
503.3601833034206
 20
-178.7653196262669
 30
0.0
 40
30.48
  1
6
 41
0.9999999999999998
  7
ＭＳ ゴシック
100
AcDbText
  0
TEXT
  5
4AD
330
1F
100
AcDbEntity
  8
A-4_寸法
  6
Continuous
 62
     2
370
     9
100
AcDbText
 10
1329.008450894743
 20
-171.117820747994
 30
0.0
 40
30.48
  1
50
 41
1.0625
  7
ＭＳ ゴシック
100
AcDbText
  0
TEXT
  5
4AE
330
1F
100
AcDbEntity
  8
A-4_寸法
  6
Continuous
 62
     2
370
     9
100
AcDbText
 10
1335.008124274177
 20
-251.1178372439822
 30
0.0
 40
30.48
  1
56
 41
1.0625
  7
ＭＳ ゴシック
100
AcDbText
  0
TEXT
  5
4AF
330
1F
100
AcDbEntity
  8
D-4_寸法
  6
Continuous
 62
     2
370
     9
100
AcDbText
 10
871.4397451039908
 20
-917.3798710673564
 30
0.0
 40
30.48
  1
スチール製受枠　Ｌ－５０（二方受四方枠）
 41
1.11875
  7
ＭＳ ゴシック
100
AcDbText
  0
TEXT
  5
4B0
330
1F
100
AcDbEntity
  8
A-4_寸法
  6
Continuous
 62
     7
370
     9
100
AcDbText
 10
555.6134693042654
 20
816.7607155299834
 30
0.0
 40
22.86
  1
ＦＢ５０×６
 41
1.138888888888889
  7
ＭＳ ゴシック
100
AcDbText
  0
TEXT
  5
4B1
330
1F
100
AcDbEntity
  8
A-4_寸法
  6
Continuous
 62
     2
370
     9
100
AcDbText
 10
1191.941524594185
 20
345.9428279576486
 30
0.0
 40
30.48
  1
400
 50
90.00000250447816
 41
1.083333333333333
  7
ＭＳ ゴシック
100
AcDbText
  0
TEXT
  5
4B2
330
1F
100
AcDbEntity
  8
A-4_寸法
  6
Continuous
 62
     2
370
     9
100
AcDbText
 10
1111.941508098196
 20
345.9424567979146
 30
0.0
 40
30.48
  1
420
 50
90.00000250447816
 41
1.083333333333333
  7
ＭＳ ゴシック
100
AcDbText
  0
TEXT
  5
4B3
330
1F
100
AcDbEntity
  8
A-4_寸法
  6
Continuous
 62
     2
370
     9
100
AcDbText
 10
1608.618061360443
 20
345.9424567979146
 30
0.0
 40
30.48
  1
300
 50
90.00000250447816
 41
1.083333333333333
  7
ＭＳ ゴシック
100
AcDbText
  0
TEXT
  5
4B4
330
1F
100
AcDbEntity
  8
D-4_寸法
  6
Continuous
 62
     2
370
     9
100
AcDbText
 10
871.438260465055
 20
-687.3814629302154
 30
0.0
 40
30.48
  1
圧接式グレーチング　ＨＸＢＣ　１４０５０
 41
1.11875
  7
ＭＳ ゴシック
100
AcDbText
  0
TEXT
  5
4B5
330
1F
100
AcDbEntity
  8
A-4_寸法
  6
Continuous
 62
     2
370
     9
100
AcDbText
 10
-1328.966672742689
 20
951.2822053156675
 30
0.0
 40
30.48
  1
250
 41
1.083333333333333
  7
ＭＳ ゴシック
100
AcDbText
  0
TEXT
  5
4B6
330
1F
100
AcDbEntity
  8
A-4_寸法
  6
Continuous
 62
     2
370
     9
100
AcDbText
 10
-564.9663729281037
 20
951.2822053156675
 30
0.0
 40
30.48
  1
514
 41
1.083333333333333
  7
ＭＳ ゴシック
100
AcDbText
  0
TEXT
  5
4B7
330
1F
100
AcDbEntity
  8
A-4_寸法
  6
Continuous
 62
     2
370
     9
100
AcDbText
 10
199.0338959565035
 20
951.2822053156675
 30
0.0
 40
30.48
  1
250
 41
1.083333333333333
  7
ＭＳ ゴシック
100
AcDbText
  0
LWPOLYLINE
  5
4B8
330
1F
100
AcDbEntity
  8
A-4_寸法
  6
Continuous
 62
     7
370
     9
100
AcDbPolyline
 90
        4
 70
     1
 43
1.0
 10
1204.081443992821
 20
-41.55756769953541
 42
0.4142135623731
 10
1203.581443992821
 20
-41.05756769953541
 42
0.4142135623731
 10
1203.081443992822
 20
-41.55756769953541
 42
0.4142135623731
 10
1203.581443992821
 20
-42.05756769953541
 42
0.4142135623731
  0
LWPOLYLINE
  5
4B9
330
1F
100
AcDbEntity
  8
A-4_寸法
  6
Continuous
 62
     7
370
     9
100
AcDbPolyline
 90
        4
 70
     1
 43
1.0
 10
1204.081443992821
 20
-29.55772606102187
 42
0.4142135623731
 10
1203.581443992821
 20
-29.05772606102187
 42
0.4142135623731
 10
1203.081443992822
 20
-29.55772606102187
 42
0.4142135623731
 10
1203.581443992821
 20
-30.05772606102187
 42
0.4142135623731
  0
LWPOLYLINE
  5
4BA
330
1F
100
AcDbEntity
  8
A-4_寸法
  6
Continuous
 62
     7
370
     9
100
AcDbPolyline
 90
        4
 70
     1
 43
1.0
 10
1204.081443992821
 20
-21.5570068359375
 42
0.4142135623731
 10
1203.581443992821
 20
-21.0570068359375
 42
0.4142135623731
 10
1203.081443992822
 20
-21.5570068359375
 42
0.4142135623731
 10
1203.581443992821
 20
-22.0570068359375
 42
0.4142135623731
  0
LWPOLYLINE
  5
4BB
330
1F
100
AcDbEntity
  8
A-4_寸法
  6
Continuous
 62
     7
370
     9
100
AcDbPolyline
 90
        4
 70
     1
 43
1.0
 10
1204.081443992821
 20
778.4426632442992
 42
0.4142135623731
 10
1203.581443992821
 20
778.9426632442992
 42
0.4142135623731
 10
1203.081443992822
 20
778.4426632442992
 42
0.4142135623731
 10
1203.581443992821
 20
777.9426632442993
 42
0.4142135623731
  0
LWPOLYLINE
  5
4BC
330
1F
100
AcDbEntity
  8
A-4_寸法
  6
Continuous
 62
     7
370
     9
100
AcDbPolyline
 90
        4
 70
     1
 43
1.0
 10
1204.081443992821
 20
786.4426401499156
 42
0.4142135623731
 10
1203.581443992821
 20
786.9426401499156
 42
0.4142135623731
 10
1203.081443992822
 20
786.4426401499156
 42
0.4142135623731
 10
1203.581443992821
 20
785.9426401499156
 42
0.4142135623731
  0
LWPOLYLINE
  5
4BD
330
1F
100
AcDbEntity
  8
A-4_寸法
  6
Continuous
 62
     7
370
     9
100
AcDbPolyline
 90
        4
 70
     1
 43
1.0
 10
1204.081443992821
 20
798.4424817884292
 42
0.4142135623731
 10
1203.581443992821
 20
798.9424817884292
 42
0.4142135623731
 10
1203.081443992822
 20
798.4424817884292
 42
0.4142135623731
 10
1203.581443992821
 20
797.9424817884292
 42
0.4142135623731
  0
LWPOLYLINE
  5
4BE
330
1F
100
AcDbEntity
  8
A-4_寸法
  6
Continuous
 62
     7
370
     9
100
AcDbPolyline
 90
        4
 70
     1
 43
1.0
 10
1124.081427496833
 20
-41.55756769953541
 42
0.4142135623731
 10
1123.581427496833
 20
-41.05756769953541
 42
0.4142135623731
 10
1123.081427496833
 20
-41.55756769953541
 42
0.4142135623731
 10
1123.581427496833
 20
-42.05756769953541
 42
0.4142135623731
  0
LWPOLYLINE
  5
4BF
330
1F
100
AcDbEntity
  8
A-4_寸法
  6
Continuous
 62
     7
370
     9
100
AcDbPolyline
 90
        4
 70
     1
 43
1.0
 10
1124.081427496833
 20
798.4424817884292
 42
0.4142135623731
 10
1123.581427496833
 20
798.9424817884292
 42
0.4142135623731
 10
1123.081427496833
 20
798.4424817884292
 42
0.4142135623731
 10
1123.581427496833
 20
797.9424817884292
 42
0.4142135623731
  0
LWPOLYLINE
  5
4C0
330
1F
100
AcDbEntity
  8
A-4_寸法
  6
Continuous
 62
     7
370
     9
100
AcDbPolyline
 90
        4
 70
     1
 43
1.0
 10
1620.75798075908
 20
-41.55756769953541
 42
0.4142135623731
 10
1620.25798075908
 20
-41.05756769953541
 42
0.4142135623731
 10
1619.75798075908
 20
-41.55756769953541
 42
0.4142135623731
 10
1620.25798075908
 20
-42.05756769953541
 42
0.4142135623731
  0
LWPOLYLINE
  5
4C1
330
1F
100
AcDbEntity
  8
A-4_寸法
  6
Continuous
 62
     7
370
     9
100
AcDbPolyline
 90
        4
 70
     1
 43
1.0
 10
1620.75798075908
 20
78.44208588471304
 42
0.4142135623731
 10
1620.25798075908
 20
78.94208588471304
 42
0.4142135623731
 10
1619.75798075908
 20
78.44208588471304
 42
0.4142135623731
 10
1620.25798075908
 20
77.94208588471304
 42
0.4142135623731
  0
LWPOLYLINE
  5
4C2
330
1F
100
AcDbEntity
  8
A-4_寸法
  6
Continuous
 62
     7
370
     9
100
AcDbPolyline
 90
        4
 70
     1
 43
1.0
 10
1620.75798075908
 20
678.4428282041807
 42
0.4142135623731
 10
1620.25798075908
 20
678.9428282041807
 42
0.4142135623731
 10
1619.75798075908
 20
678.4428282041807
 42
0.4142135623731
 10
1620.25798075908
 20
677.9428282041807
 42
0.4142135623731
  0
LWPOLYLINE
  5
4C3
330
1F
100
AcDbEntity
  8
A-4_寸法
  6
Continuous
 62
     7
370
     9
100
AcDbPolyline
 90
        4
 70
     1
 43
1.0
 10
1620.75798075908
 20
798.4424817884292
 42
0.4142135623731
 10
1620.25798075908
 20
798.9424817884292
 42
0.4142135623731
 10
1619.75798075908
 20
798.4424817884292
 42
0.4142135623731
 10
1620.25798075908
 20
797.9424817884292
 42
0.4142135623731
  0
LWPOLYLINE
  5
4C4
330
1F
100
AcDbEntity
  8
A-4_寸法
  6
Continuous
 62
     7
370
     9
100
AcDbPolyline
 90
        4
 70
     1
 43
1.0
 10
1300.75816221495
 20
-182.757865287162
 42
0.4142135623731
 10
1300.25816221495
 20
-182.257865287162
 42
0.4142135623731
 10
1299.758162214949
 20
-182.757865287162
 42
0.4142135623731
 10
1300.25816221495
 20
-183.257865287162
 42
0.4142135623731
  0
LWPOLYLINE
  5
4C5
330
1F
100
AcDbEntity
  8
A-4_寸法
  6
Continuous
 62
     7
370
     9
100
AcDbPolyline
 90
        4
 70
     1
 43
1.0
 10
1400.758739574535
 20
-182.757865287162
 42
0.4142135623731
 10
1400.258739574535
 20
-182.257865287162
 42
0.4142135623731
 10
1399.758739574535
 20
-182.757865287162
 42
0.4142135623731
 10
1400.258739574535
 20
-183.257865287162
 42
0.4142135623731
  0
LWPOLYLINE
  5
4C6
330
1F
100
AcDbEntity
  8
A-4_寸法
  6
Continuous
 62
     7
370
     9
100
AcDbPolyline
 90
        4
 70
     1
 43
1.0
 10
1300.75816221495
 20
-262.7578817831503
 42
0.4142135623731
 10
1300.25816221495
 20
-262.2578817831503
 42
0.4142135623731
 10
1299.758162214949
 20
-262.7578817831503
 42
0.4142135623731
 10
1300.25816221495
 20
-263.2578817831503
 42
0.4142135623731
  0
LWPOLYLINE
  5
4C7
330
1F
100
AcDbEntity
  8
A-4_寸法
  6
Continuous
 62
     7
370
     9
100
AcDbPolyline
 90
        4
 70
     1
 43
1.0
 10
1412.758086333404
 20
-262.7578817831503
 42
0.4142135623731
 10
1412.258086333404
 20
-262.2578817831503
 42
0.4142135623731
 10
1411.758086333404
 20
-262.7578817831503
 42
0.4142135623731
 10
1412.258086333404
 20
-263.2578817831503
 42
0.4142135623731
  0
LWPOLYLINE
  5
4C8
330
1F
100
AcDbEntity
  8
A-4_寸法
  6
Continuous
 62
     7
370
     9
100
AcDbPolyline
 90
        4
 70
     1
 43
1.0
 10
-1545.966724292652
 20
939.6422844964106
 42
0.4142135623731
 10
-1546.466724292652
 20
940.1422844964106
 42
0.4142135623731
 10
-1546.966724292652
 20
939.6422844964106
 42
0.4142135623731
 10
-1546.466724292652
 20
939.1422844964108
 42
0.4142135623731
  0
LWPOLYLINE
  5
4C9
330
1F
100
AcDbEntity
  8
A-4_寸法
  6
Continuous
 62
     7
370
     9
100
AcDbPolyline
 90
        4
 70
     1
 43
1.0
 10
-1045.966683052681
 20
939.6422844964106
 42
0.4142135623731
 10
-1046.466683052681
 20
940.1422844964106
 42
0.4142135623731
 10
-1046.966683052681
 20
939.6422844964106
 42
0.4142135623731
 10
-1046.466683052681
 20
939.1422844964108
 42
0.4142135623731
  0
LWPOLYLINE
  5
4CA
330
1F
100
AcDbEntity
  8
A-4_寸法
  6
Continuous
 62
     7
370
     9
100
AcDbPolyline
 90
        4
 70
     1
 43
1.0
 10
-17.96593908361484
 20
939.6422844964106
 42
0.4142135623731
 10
-18.46593908361484
 20
940.1422844964106
 42
0.4142135623731
 10
-18.96593908361484
 20
939.6422844964106
 42
0.4142135623731
 10
-18.46593908361484
 20
939.1422844964108
 42
0.4142135623731
  0
LWPOLYLINE
  5
4CB
330
1F
100
AcDbEntity
  8
A-4_寸法
  6
Continuous
 62
     7
370
     9
100
AcDbPolyline
 90
        4
 70
     1
 43
1.0
 10
482.0339784364443
 20
939.6422844964106
 42
0.4142135623731
 10
481.5339784364443
 20
940.1422844964106
 42
0.4142135623731
 10
481.0339784364443
 20
939.6422844964106
 42
0.4142135623731
 10
481.5339784364443
 20
939.1422844964108
 42
0.4142135623731
  0
LWPOLYLINE
  5
4CC
330
1F
100
AcDbEntity
  8
A-4_寸法
  6
Continuous
 62
     7
370
     9
100
AcDbPolyline
 90
        4
 70
     1
 43
1.0
 10
-391.166061813767
 20
847.1297310494089
 42
0.4142135623731
 10
-391.6660618137669
 20
847.6297310494089
 42
0.4142135623731
 10
-392.1660618137669
 20
847.1297310494089
 42
0.4142135623731
 10
-391.6660618137669
 20
846.6297310494089
 42
0.4142135623731
  0
LWPOLYLINE
  5
4CD
330
1F
100
AcDbEntity
  8
A-4_寸法
  6
Continuous
 62
     7
370
     9
100
AcDbPolyline
 90
        4
 70
     1
 43
1.0
 10
-320.5666553394213
 20
847.1297310494089
 42
0.4142135623731
 10
-321.0666553394213
 20
847.6297310494089
 42
0.4142135623731
 10
-321.5666553394213
 20
847.1297310494089
 42
0.4142135623731
 10
-321.0666553394213
 20
846.6297310494089
 42
0.4142135623731
  0
LWPOLYLINE
  5
4CE
330
1F
100
AcDbEntity
  8
A-4_寸法
  6
Continuous
 62
     7
370
     9
100
AcDbPolyline
 90
        4
 70
     1
 43
1.0
 10
-1545.966848012563
 20
-295.8107695708404
 42
0.4142135623731
 10
-1546.466848012563
 20
-295.3107695708404
 42
0.4142135623731
 10
-1546.966848012563
 20
-295.8107695708404
 42
0.4142135623731
 10
-1546.466848012563
 20
-296.3107695708404
 42
0.4142135623731
  0
LWPOLYLINE
  5
4CF
330
1F
100
AcDbEntity
  8
A-4_寸法
  6
Continuous
 62
     7
370
     9
100
AcDbPolyline
 90
        4
 70
     1
 43
1.0
 10
482.0339784364443
 20
-295.8107695708404
 42
0.4142135623731
 10
481.5339784364443
 20
-295.3107695708404
 42
0.4142135623731
 10
481.0339784364443
 20
-295.8107695708404
 42
0.4142135623731
 10
481.5339784364443
 20
-296.3107695708404
 42
0.4142135623731
  0
LWPOLYLINE
  5
4D0
330
1F
100
AcDbEntity
  8
A-4_寸法
  6
Continuous
 62
     7
370
     9
100
AcDbPolyline
 90
        4
 70
     1
 43
1.0
 10
-1545.966848012563
 20
-190.4053641654349
 42
0.4142135623731
 10
-1546.466848012563
 20
-189.9053641654349
 42
0.4142135623731
 10
-1546.966848012563
 20
-190.4053641654349
 42
0.4142135623731
 10
-1546.466848012563
 20
-190.9053641654349
 42
0.4142135623731
  0
LWPOLYLINE
  5
4D1
330
1F
100
AcDbEntity
  8
A-4_寸法
  6
Continuous
 62
     7
370
     9
100
AcDbPolyline
 90
        4
 70
     1
 43
1.0
 10
-1533.966882654138
 20
-190.4053641654349
 42
0.4142135623731
 10
-1534.466882654139
 20
-189.9053641654349
 42
0.4142135623731
 10
-1534.966882654139
 20
-190.4053641654349
 42
0.4142135623731
 10
-1534.466882654139
 20
-190.9053641654349
 42
0.4142135623731
  0
LWPOLYLINE
  5
4D2
330
1F
100
AcDbEntity
  8
A-4_寸法
  6
Continuous
 62
     7
370
     9
100
AcDbPolyline
 90
        4
 70
     1
 43
1.0
 10
-1526.96681007179
 20
-190.4053641654349
 42
0.4142135623731
 10
-1527.466810071791
 20
-189.9053641654349
 42
0.4142135623731
 10
-1527.966810071791
 20
-190.4053641654349
 42
0.4142135623731
 10
-1527.466810071791
 20
-190.9053641654349
 42
0.4142135623731
  0
LWPOLYLINE
  5
4D3
330
1F
100
AcDbEntity
  8
A-4_寸法
  6
Continuous
 62
     7
370
     9
100
AcDbPolyline
 90
        4
 70
     1
 43
1.0
 10
463.0338167757604
 20
-190.4053641654349
 42
0.4142135623731
 10
462.5338167757604
 20
-189.9053641654349
 42
0.4142135623731
 10
462.0338167757604
 20
-190.4053641654349
 42
0.4142135623731
 10
462.5338167757604
 20
-190.9053641654349
 42
0.4142135623731
  0
LWPOLYLINE
  5
4D4
330
1F
100
AcDbEntity
  8
A-4_寸法
  6
Continuous
 62
     7
370
     9
100
AcDbPolyline
 90
        4
 70
     1
 43
1.0
 10
470.0338893581084
 20
-190.4053641654349
 42
0.4142135623731
 10
469.5338893581084
 20
-189.9053641654349
 42
0.4142135623731
 10
469.0338893581084
 20
-190.4053641654349
 42
0.4142135623731
 10
469.5338893581084
 20
-190.9053641654349
 42
0.4142135623731
  0
LWPOLYLINE
  5
4D5
330
1F
100
AcDbEntity
  8
A-4_寸法
  6
Continuous
 62
     7
370
     9
100
AcDbPolyline
 90
        4
 70
     1
 43
1.0
 10
482.0339784364443
 20
-190.4053641654349
 42
0.4142135623731
 10
481.5339784364443
 20
-189.9053641654349
 42
0.4142135623731
 10
481.0339784364443
 20
-190.4053641654349
 42
0.4142135623731
 10
481.5339784364443
 20
-190.9053641654349
 42
0.4142135623731
  0
TEXT
  5
4D6
330
1F
100
AcDbEntity
  8
F-5
  6
Continuous
 62
     2
370
     9
100
AcDbText
 10
-904.6689560348923
 20
-1362.093442976668
 30
0.0
 40
30.48
  1
騒音防止型　ノンスリップタイプ　横断溝用　スチール製グレーチング　　ＨＸＢＣ　１４０５０
 41
0.7238636363636363
  7
ＭＳ ゴシック
100
AcDbText
  0
TEXT
  5
4D7
330
1F
100
AcDbEntity
  8
A-4_寸法
  6
Continuous
 62
     7
370
     9
100
AcDbText
 10
-726.5911988954285
 20
1213.872432960304
 30
0.0
 40
22.86
  1
エンドプレート ＦＢ4.5×44
 41
1.16025641025641
  7
ＭＳ ゴシック
100
AcDbText
  0
ENDSEC
  0
SECTION
  2
OBJECTS
  0
DICTIONARY
  5
C
330
0
100
AcDbDictionary
281
     1
  3
ACAD_GROUP
350
D
  3
ACAD_LAYOUT
350
1A
  3
ACAD_MLEADERSTYLE
350
4D9
  3
ACAD_MLINESTYLE
350
17
  3
ACAD_PLOTSETTINGS
350
19
  3
ACAD_PLOTSTYLENAME
350
E
  3
ACAD_TABLESTYLE
350
4D8
  3
ACAD_VISUALSTYLE
350
2A
  0
DICTIONARY
  5
D
102
{ACAD_REACTORS
330
C
102
}
330
C
100
AcDbDictionary
281
     1
  0
DICTIONARY
  5
1A
102
{ACAD_REACTORS
330
C
102
}
330
C
100
AcDbDictionary
281
     1
  3
Layout1
350
1E
  3
Layout2
350
26
  3
Model
350
22
  0
DICTIONARY
  5
4D9
102
{ACAD_REACTORS
330
C
102
}
330
C
100
AcDbDictionary
281
     1
  0
DICTIONARY
  5
17
102
{ACAD_REACTORS
330
C
102
}
330
C
100
AcDbDictionary
281
     1
  3
Standard
350
18
  0
DICTIONARY
  5
19
102
{ACAD_REACTORS
330
C
102
}
330
C
100
AcDbDictionary
281
     1
  0
ACDBDICTIONARYWDFLT
  5
E
102
{ACAD_REACTORS
330
C
102
}
330
C
100
AcDbDictionary
281
     1
  3
Normal
350
F
100
AcDbDictionaryWithDefault
340
F
  0
DICTIONARY
  5
4D8
102
{ACAD_REACTORS
330
C
102
}
330
C
100
AcDbDictionary
281
     1
  0
DICTIONARY
  5
2A
102
{ACAD_REACTORS
330
C
102
}
330
C
100
AcDbDictionary
281
     1
  3
2dWireframe
350
2F
  3
3D Hidden
350
31
  3
3dWireframe
350
30
  3
Basic
350
32
  3
Brighten
350
36
  3
ColorChange
350
3A
  3
Conceptual
350
34
  3
Dim
350
35
  3
Facepattern
350
39
  3
Flat
350
2B
  3
FlatWithEdges
350
2C
  3
Gouraud
350
2D
  3
GouraudWithEdges
350
2E
  3
Linepattern
350
38
  3
Realistic
350
33
  3
Thicken
350
37
  0
LAYOUT
  5
1E
102
{ACAD_REACTORS
330
1A
102
}
330
1A
100
AcDbPlotSettings
  1

  2
none_device
  4

  6

 40
0.0
 41
0.0
 42
0.0
 43
0.0
 44
0.0
 45
0.0
 46
0.0
 47
0.0
 48
0.0
 49
0.0
140
0.0
141
0.0
142
1.0
143
1.0
 70
   688
 72
     0
 73
     0
 74
     5
  7

 75
    16
 76
     0
 77
     5
 78
   300
147
1.0
148
0.0
149
0.0
100
AcDbLayout
  1
Layout1
 70
     1
 71
     1
 10
0.0
 20
0.0
 11
420.0
 21
297.0
 12
0.0
 22
0.0
 32
0.0
 14
1.000000000000000E+20
 24
1.000000000000000E+20
 34
1.000000000000000E+20
 15
-1.000000000000000E+20
 25
-1.000000000000000E+20
 35
-1.000000000000000E+20
146
0.0
 13
0.0
 23
0.0
 33
0.0
 16
1.0
 26
0.0
 36
0.0
 17
0.0
 27
1.0
 37
0.0
 76
     0
330
1B
  0
LAYOUT
  5
26
102
{ACAD_REACTORS
330
1A
102
}
330
1A
100
AcDbPlotSettings
  1

  2
none_device
  4

  6

 40
0.0
 41
0.0
 42
0.0
 43
0.0
 44
0.0
 45
0.0
 46
0.0
 47
0.0
 48
0.0
 49
0.0
140
0.0
141
0.0
142
1.0
143
1.0
 70
   688
 72
     0
 73
     0
 74
     5
  7

 75
    16
 76
     0
 77
     5
 78
   300
147
1.0
148
0.0
149
0.0
100
AcDbLayout
  1
Layout2
 70
     1
 71
     2
 10
0.0
 20
0.0
 11
0.0
 21
0.0
 12
0.0
 22
0.0
 32
0.0
 14
0.0
 24
0.0
 34
0.0
 15
0.0
 25
0.0
 35
0.0
146
0.0
 13
0.0
 23
0.0
 33
0.0
 16
1.0
 26
0.0
 36
0.0
 17
0.0
 27
1.0
 37
0.0
 76
     0
330
23
  0
LAYOUT
  5
22
102
{ACAD_REACTORS
330
1A
102
}
330
1A
100
AcDbPlotSettings
  1

  2
none_device
  4

  6

 40
0.0
 41
0.0
 42
0.0
 43
0.0
 44
0.0
 45
0.0
 46
0.0
 47
0.0
 48
0.0
 49
0.0
140
0.0
141
0.0
142
1.0
143
1.0
 70
  1712
 72
     0
 73
     0
 74
     0
  7

 75
     0
 76
     0
 77
     5
 78
   300
147
1.0
148
0.0
149
0.0
100
AcDbLayout
  1
Model
 70
     1
 71
     0
 10
-2100.0
 20
-1485.0
 11
2100.0
 21
1485.0
 12
0.0
 22
0.0
 32
0.0
 14
-2100.0
 24
-1485.0
 34
0.0
 15
2100.0
 25
1485.0
 35
0.0
146
0.0
 13
0.0
 23
0.0
 33
0.0
 16
1.0
 26
0.0
 36
0.0
 17
0.0
 27
1.0
 37
0.0
 76
     0
330
1F
331
29
  0
MLINESTYLE
  5
18
102
{ACAD_REACTORS
330
17
102
}
330
17
100
AcDbMlineStyle
  2
Standard
 70
     0
  3

 62
   256
 51
90.0
 52
90.0
 71
     2
 49
0.5
 62
   256
  6
BYLAYER
 49
-0.5
 62
   256
  6
BYLAYER
  0
ACDBPLACEHOLDER
  5
F
102
{ACAD_REACTORS
330
E
102
}
330
E
  0
VISUALSTYLE
  5
2F
102
{ACAD_REACTORS
330
2A
102
}
330
2A
100
AcDbVisualStyle
  2
2dWireframe
 70
     4
 71
     0
 72
     2
 73
     0
 90
        0
 40
-0.6
 41
-30.0
 62
     5
 63
     7
421
 16777215
 74
     1
 91
        4
 64
     7
 65
   257
 75
     1
175
     1
 42
1.0
 92
        0
 66
   257
 43
1.0
 76
     1
 77
     6
 78
     2
 67
     7
 79
     5
170
     0
171
     0
290
     0
174
     0
 93
        1
 44
0.0
173
     0
291
     0
 45
0.0
1001
ACAD
1000
AcDbSavedByObjectVersion
1070
     0
  0
VISUALSTYLE
  5
31
102
{ACAD_REACTORS
330
2A
102
}
330
2A
100
AcDbVisualStyle
  2
3D Hidden
 70
     6
 71
     1
 72
     2
 73
     2
 90
        0
 40
-0.6
 41
-30.0
 62
     5
 63
     7
421
 16777215
 74
     2
 91
        2
 64
     7
 65
   257
 75
     2
175
     1
 42
40.0
 92
        0
 66
   257
 43
1.0
 76
     1
 77
     6
 78
     2
 67
     7
 79
     3
170
     0
171
     0
290
     0
174
     0
 93
        1
 44
0.0
173
     0
291
     0
 45
0.0
1001
ACAD
1000
AcDbSavedByObjectVersion
1070
     0
  0
VISUALSTYLE
  5
30
102
{ACAD_REACTORS
330
2A
102
}
330
2A
100
AcDbVisualStyle
  2
3dWireframe
 70
     5
 71
     0
 72
     2
 73
     0
 90
        0
 40
-0.6
 41
-30.0
 62
     5
 63
     7
421
 16777215
 74
     1
 91
        4
 64
     7
 65
   257
 75
     1
175
     1
 42
1.0
 92
        0
 66
   257
 43
1.0
 76
     1
 77
     6
 78
     2
 67
     7
 79
     5
170
     0
171
     0
290
     0
174
     0
 93
        1
 44
0.0
173
     0
291
     0
 45
0.0
1001
ACAD
1000
AcDbSavedByObjectVersion
1070
     0
  0
VISUALSTYLE
  5
32
102
{ACAD_REACTORS
330
2A
102
}
330
2A
100
AcDbVisualStyle
  2
Basic
 70
     7
 71
     1
 72
     0
 73
     1
 90
        0
 40
-0.6
 41
-30.0
 62
     5
 63
     7
421
 16777215
 74
     0
 91
        4
 64
     7
 65
   257
 75
     1
175
     1
 42
1.0
 92
        8
 66
     7
 43
1.0
 76
     1
 77
     6
 78
     2
 67
     7
 79
     5
170
     0
171
     0
290
     0
174
     0
 93
        1
 44
0.0
173
     0
291
     1
 45
0.0
1001
ACAD
1000
AcDbSavedByObjectVersion
1070
     0
  0
VISUALSTYLE
  5
36
102
{ACAD_REACTORS
330
2A
102
}
330
2A
100
AcDbVisualStyle
  2
Brighten
 70
    12
 71
     2
 72
     2
 73
     0
 90
        0
 40
-0.6
 41
-30.0
 62
     5
 63
     7
421
 16777215
 74
     1
 91
        4
 64
     7
 65
   257
 75
     1
175
     1
 42
1.0
 92
        8
 66
     7
 43
1.0
 76
     1
 77
     6
 78
     2
 67
     7
 79
     5
170
     0
171
     0
290
     0
174
     0
 93
        1
 44
50.0
173
     0
291
     1
 45
0.0
1001
ACAD
1000
AcDbSavedByObjectVersion
1070
     0
  0
VISUALSTYLE
  5
3A
102
{ACAD_REACTORS
330
2A
102
}
330
2A
100
AcDbVisualStyle
  2
ColorChange
 70
    16
 71
     2
 72
     2
 73
     3
 90
        0
 40
-0.6
 41
-30.0
 62
     5
 63
     8
421
  8421504
 74
     1
 91
        4
 64
     7
 65
   257
 75
     1
175
     1
 42
1.0
 92
        8
 66
     8
424
  8421504
 43
1.0
 76
     1
 77
     6
 78
     2
 67
     7
 79
     5
170
     0
171
     0
290
     0
174
     0
 93
        1
 44
0.0
173
     0
291
     1
 45
0.0
1001
ACAD
1000
AcDbSavedByObjectVersion
1070
     0
  0
VISUALSTYLE
  5
34
102
{ACAD_REACTORS
330
2A
102
}
330
2A
100
AcDbVisualStyle
  2
Conceptual
 70
     9
 71
     3
 72
     2
 73
     0
 90
        0
 40
-0.6
 41
-30.0
 62
     5
 63
     7
421
 16777215
 74
     2
 91
        2
 64
     7
 65
   257
 75
     1
175
     1
 42
40.0
 92
        8
 66
     7
 43
1.0
 76
     1
 77
     6
 78
     2
 67
     7
 79
     3
170
     0
171
     0
290
     0
174
     0
 93
        1
 44
0.0
173
     0
291
     0
 45
0.0
1001
ACAD
1000
AcDbSavedByObjectVersion
1070
     0
  0
VISUALSTYLE
  5
35
102
{ACAD_REACTORS
330
2A
102
}
330
2A
100
AcDbVisualStyle
  2
Dim
 70
    11
 71
     2
 72
     2
 73
     0
 90
        0
 40
-0.6
 41
-30.0
 62
     5
 63
     7
421
 16777215
 74
     1
 91
        4
 64
     7
 65
   257
 75
     1
175
     1
 42
1.0
 92
        8
 66
     7
 43
1.0
 76
     1
 77
     6
 78
     2
 67
     7
 79
     5
170
     0
171
     0
290
     0
174
     0
 93
        1
 44
-50.0
173
     0
291
     1
 45
0.0
1001
ACAD
1000
AcDbSavedByObjectVersion
1070
     0
  0
VISUALSTYLE
  5
39
102
{ACAD_REACTORS
330
2A
102
}
330
2A
100
AcDbVisualStyle
  2
Facepattern
 70
    15
 71
     2
 72
     2
 73
     0
 90
        0
 40
-0.6
 41
-30.0
 62
     5
 63
     7
421
 16777215
 74
     1
 91
        4
 64
     7
 65
   257
 75
     1
175
     1
 42
1.0
 92
        8
 66
     7
 43
1.0
 76
     1
 77
     6
 78
     2
 67
     7
 79
     5
170
     0
171
     0
290
     0
174
     0
 93
        1
 44
0.0
173
     0
291
     1
 45
0.0
1001
ACAD
1000
AcDbSavedByObjectVersion
1070
     0
  0
VISUALSTYLE
  5
2B
102
{ACAD_REACTORS
330
2A
102
}
330
2A
100
AcDbVisualStyle
  2
Flat
 70
     0
 71
     2
 72
     1
 73
     1
 90
        2
 40
-0.6
 41
30.0
 62
     5
 63
     7
421
 16777215
 74
     0
 91
        4
 64
     7
 65
   257
 75
     1
175
     1
 42
1.0
 92
        8
 66
     7
 43
1.0
 76
     1
 77
     6
 78
     2
 67
     7
 79
     5
170
     0
171
     0
290
     0
174
     0
 93
       13
 44
0.0
173
     0
291
     1
 45
0.0
1001
ACAD
1000
AcDbSavedByObjectVersion
1070
     0
  0
VISUALSTYLE
  5
2C
102
{ACAD_REACTORS
330
2A
102
}
330
2A
100
AcDbVisualStyle
  2
FlatWithEdges
 70
     1
 71
     2
 72
     1
 73
     1
 90
        2
 40
-0.6
 41
30.0
 62
     5
 63
     7
421
 16777215
 74
     1
 91
        4
 64
     7
 65
   257
 75
     1
175
     1
 42
1.0
 92
        0
 66
   257
 43
1.0
 76
     1
 77
     6
 78
     2
 67
     7
 79
     5
170
     0
171
     0
290
     0
174
     0
 93
       13
 44
0.0
173
     0
291
     1
 45
0.0
1001
ACAD
1000
AcDbSavedByObjectVersion
1070
     0
  0
VISUALSTYLE
  5
2D
102
{ACAD_REACTORS
330
2A
102
}
330
2A
100
AcDbVisualStyle
  2
Gouraud
 70
     2
 71
     2
 72
     2
 73
     1
 90
        2
 40
-0.6
 41
30.0
 62
     5
 63
     7
421
 16777215
 74
     0
 91
        4
 64
     7
 65
   257
 75
     1
175
     1
 42
1.0
 92
        0
 66
     7
 43
1.0
 76
     1
 77
     6
 78
     2
 67
     7
 79
     5
170
     0
171
     0
290
     0
174
     0
 93
       13
 44
0.0
173
     0
291
     1
 45
0.0
1001
ACAD
1000
AcDbSavedByObjectVersion
1070
     0
  0
VISUALSTYLE
  5
2E
102
{ACAD_REACTORS
330
2A
102
}
330
2A
100
AcDbVisualStyle
  2
GouraudWithEdges
 70
     3
 71
     2
 72
     2
 73
     1
 90
        2
 40
-0.6
 41
30.0
 62
     5
 63
     7
421
 16777215
 74
     1
 91
        4
 64
     7
 65
   257
 75
     1
175
     1
 42
1.0
 92
        0
 66
   257
 43
1.0
 76
     1
 77
     6
 78
     2
 67
     7
 79
     5
170
     0
171
     0
290
     0
174
     0
 93
       13
 44
0.0
173
     0
291
     1
 45
0.0
1001
ACAD
1000
AcDbSavedByObjectVersion
1070
     0
  0
VISUALSTYLE
  5
38
102
{ACAD_REACTORS
330
2A
102
}
330
2A
100
AcDbVisualStyle
  2
Linepattern
 70
    14
 71
     2
 72
     2
 73
     0
 90
        0
 40
-0.6
 41
-30.0
 62
     5
 63
     7
421
 16777215
 74
     1
 91
        4
 64
     7
 65
   257
 75
     7
175
     7
 42
1.0
 92
        8
 66
     7
 43
1.0
 76
     1
 77
     6
 78
     2
 67
     7
 79
     5
170
     0
171
     0
290
     0
174
     0
 93
        1
 44
0.0
173
     0
291
     1
 45
0.0
1001
ACAD
1000
AcDbSavedByObjectVersion
1070
     0
  0
VISUALSTYLE
  5
33
102
{ACAD_REACTORS
330
2A
102
}
330
2A
100
AcDbVisualStyle
  2
Realistic
 70
     8
 71
     2
 72
     2
 73
     0
 90
        0
 40
-0.6
 41
-30.0
 62
     5
 63
     7
421
 16777215
 74
     1
 91
        0
 64
     7
 65
   257
 75
     1
175
     1
 42
1.0
 92
        8
 66
     8
424
  7895160
 43
1.0
 76
     1
 77
     6
 78
     2
 67
     7
 79
     5
170
     0
171
     0
290
     0
174
     0
 93
       13
 44
0.0
173
     0
291
     0
 45
0.0
1001
ACAD
1000
AcDbSavedByObjectVersion
1070
     0
  0
VISUALSTYLE
  5
37
102
{ACAD_REACTORS
330
2A
102
}
330
2A
100
AcDbVisualStyle
  2
Thicken
 70
    13
 71
     2
 72
     2
 73
     0
 90
        0
 40
-0.6
 41
-30.0
 62
     5
 63
     7
421
 16777215
 74
     1
 91
        4
 64
     7
 65
   257
 75
     1
175
     1
 42
1.0
 92
       12
 66
     7
 43
1.0
 76
     1
 77
     6
 78
     2
 67
     7
 79
     5
170
     0
171
     0
290
     0
174
     0
 93
        1
 44
0.0
173
     0
291
     1
 45
0.0
1001
ACAD
1000
AcDbSavedByObjectVersion
1070
     0
  0
ENDSEC
  0
EOF
