  0
SECTION
  2
HEADER
  9
$ACADVER
  1
AC1018
  9
$ACADMAINTVER
 70
     0
  9
$DWGCODEPAGE
  3
ANSI_932
  9
$INSBASE
 10
0.0
 20
0.0
 30
0.0
  9
$EXTMIN
 10
-2100.0
 20
-1485.0
 30
0.0
  9
$EXTMAX
 10
2100.0
 20
1485.0
 30
0.0
  9
$LIMMIN
 10
-2100.0
 20
-1485.0
  9
$LIMMAX
 10
2100.0
 20
1485.0
  9
$ORTHOMODE
 70
     0
  9
$REGENMODE
 70
     1
  9
$FILLMODE
 70
     1
  9
$QTEXTMODE
 70
     0
  9
$MIRRTEXT
 70
     1
  9
$LTSCALE
 40
10.0
  9
$ATTMODE
 70
     1
  9
$TEXTSIZE
 40
2.5
  9
$TRACEWID
 40
1.0
  9
$TEXTSTYLE
  7
Standard
  9
$CLAYER
  8
0
  9
$CELTYPE
  6
ByLayer
  9
$CECOLOR
 62
   256
  9
$CELTSCALE
 40
1.0
  9
$DISPSILH
 70
     0
  9
$DIMSCALE
 40
1.0
  9
$DIMASZ
 40
2.5
  9
$DIMEXO
 40
0.625
  9
$DIMDLI
 40
3.75
  9
$DIMRND
 40
0.0
  9
$DIMDLE
 40
0.0
  9
$DIMEXE
 40
1.25
  9
$DIMTP
 40
0.0
  9
$DIMTM
 40
0.0
  9
$DIMTXT
 40
2.5
  9
$DIMCEN
 40
2.5
  9
$DIMTSZ
 40
0.0
  9
$DIMTOL
 70
     0
  9
$DIMLIM
 70
     0
  9
$DIMTIH
 70
     0
  9
$DIMTOH
 70
     0
  9
$DIMSE1
 70
     0
  9
$DIMSE2
 70
     0
  9
$DIMTAD
 70
     1
  9
$DIMZIN
 70
     8
  9
$DIMBLK
  1

  9
$DIMASO
 70
     1
  9
$DIMSHO
 70
     1
  9
$DIMPOST
  1

  9
$DIMAPOST
  1

  9
$DIMALT
 70
     0
  9
$DIMALTD
 70
     3
  9
$DIMALTF
 40
0.03937007874016
  9
$DIMLFAC
 40
1.0
  9
$DIMTOFL
 70
     1
  9
$DIMTVP
 40
0.0
  9
$DIMTIX
 70
     0
  9
$DIMSOXD
 70
     0
  9
$DIMSAH
 70
     0
  9
$DIMBLK1
  1

  9
$DIMBLK2
  1

  9
$DIMSTYLE
  2
ISO-25
  9
$DIMCLRD
 70
     0
  9
$DIMCLRE
 70
     0
  9
$DIMCLRT
 70
     0
  9
$DIMTFAC
 40
1.0
  9
$DIMGAP
 40
0.625
  9
$DIMJUST
 70
     0
  9
$DIMSD1
 70
     0
  9
$DIMSD2
 70
     0
  9
$DIMTOLJ
 70
     0
  9
$DIMTZIN
 70
     8
  9
$DIMALTZ
 70
     0
  9
$DIMALTTZ
 70
     0
  9
$DIMUPT
 70
     0
  9
$DIMDEC
 70
     2
  9
$DIMTDEC
 70
     2
  9
$DIMALTU
 70
     2
  9
$DIMALTTD
 70
     3
  9
$DIMTXSTY
  7
Standard
  9
$DIMAUNIT
 70
     0
  9
$DIMADEC
 70
     0
  9
$DIMALTRND
 40
0.0
  9
$DIMAZIN
 70
     0
  9
$DIMDSEP
 70
    44
  9
$DIMATFIT
 70
     3
  9
$DIMFRAC
 70
     0
  9
$DIMLDRBLK
  1

  9
$DIMLUNIT
 70
     2
  9
$DIMLWD
 70
    -2
  9
$DIMLWE
 70
    -2
  9
$DIMTMOVE
 70
     0
  9
$LUNITS
 70
     2
  9
$LUPREC
 70
     4
  9
$SKETCHINC
 40
1.0
  9
$FILLETRAD
 40
10.0
  9
$AUNITS
 70
     0
  9
$AUPREC
 70
     0
  9
$MENU
  1
.
  9
$ELEVATION
 40
0.0
  9
$PELEVATION
 40
0.0
  9
$THICKNESS
 40
0.0
  9
$LIMCHECK
 70
     0
  9
$CHAMFERA
 40
10.0
  9
$CHAMFERB
 40
10.0
  9
$CHAMFERC
 40
20.0
  9
$CHAMFERD
 40
0.0
  9
$SKPOLY
 70
     0
  9
$TDCREATE
 40
2458268.579704525
  9
$TDUCREATE
 40
2458268.204704525
  9
$TDUPDATE
 40
2458268.579704537
  9
$TDUUPDATE
 40
2458268.204704537
  9
$TDINDWG
 40
0.0000000116
  9
$TDUSRTIMER
 40
0.0000000116
  9
$USRTIMER
 70
     1
  9
$ANGBASE
 50
0.0
  9
$ANGDIR
 70
     0
  9
$PDMODE
 70
     0
  9
$PDSIZE
 40
0.0
  9
$PLINEWID
 40
0.0
  9
$SPLFRAME
 70
     0
  9
$SPLINETYPE
 70
     6
  9
$SPLINESEGS
 70
     8
  9
$HANDSEED
  5
4F1
  9
$SURFTAB1
 70
     6
  9
$SURFTAB2
 70
     6
  9
$SURFTYPE
 70
     6
  9
$SURFU
 70
     6
  9
$SURFV
 70
     6
  9
$UCSBASE
  2

  9
$UCSNAME
  2

  9
$UCSORG
 10
0.0
 20
0.0
 30
0.0
  9
$UCSXDIR
 10
1.0
 20
0.0
 30
0.0
  9
$UCSYDIR
 10
0.0
 20
1.0
 30
0.0
  9
$UCSORTHOREF
  2

  9
$UCSORTHOVIEW
 70
     0
  9
$UCSORGTOP
 10
0.0
 20
0.0
 30
0.0
  9
$UCSORGBOTTOM
 10
0.0
 20
0.0
 30
0.0
  9
$UCSORGLEFT
 10
0.0
 20
0.0
 30
0.0
  9
$UCSORGRIGHT
 10
0.0
 20
0.0
 30
0.0
  9
$UCSORGFRONT
 10
0.0
 20
0.0
 30
0.0
  9
$UCSORGBACK
 10
0.0
 20
0.0
 30
0.0
  9
$PUCSBASE
  2

  9
$PUCSNAME
  2

  9
$PUCSORG
 10
0.0
 20
0.0
 30
0.0
  9
$PUCSXDIR
 10
1.0
 20
0.0
 30
0.0
  9
$PUCSYDIR
 10
0.0
 20
1.0
 30
0.0
  9
$PUCSORTHOREF
  2

  9
$PUCSORTHOVIEW
 70
     0
  9
$PUCSORGTOP
 10
0.0
 20
0.0
 30
0.0
  9
$PUCSORGBOTTOM
 10
0.0
 20
0.0
 30
0.0
  9
$PUCSORGLEFT
 10
0.0
 20
0.0
 30
0.0
  9
$PUCSORGRIGHT
 10
0.0
 20
0.0
 30
0.0
  9
$PUCSORGFRONT
 10
0.0
 20
0.0
 30
0.0
  9
$PUCSORGBACK
 10
0.0
 20
0.0
 30
0.0
  9
$USERI1
 70
     0
  9
$USERI2
 70
     0
  9
$USERI3
 70
     0
  9
$USERI4
 70
     0
  9
$USERI5
 70
     0
  9
$USERR1
 40
0.0
  9
$USERR2
 40
0.0
  9
$USERR3
 40
0.0
  9
$USERR4
 40
0.0
  9
$USERR5
 40
0.0
  9
$WORLDVIEW
 70
     1
  9
$SHADEDGE
 70
     3
  9
$SHADEDIF
 70
    70
  9
$TILEMODE
 70
     1
  9
$MAXACTVP
 70
    64
  9
$PINSBASE
 10
0.0
 20
0.0
 30
0.0
  9
$PLIMCHECK
 70
     0
  9
$PEXTMIN
 10
1.000000000000000E+20
 20
1.000000000000000E+20
 30
1.000000000000000E+20
  9
$PEXTMAX
 10
-1.000000000000000E+20
 20
-1.000000000000000E+20
 30
-1.000000000000000E+20
  9
$PLIMMIN
 10
0.0
 20
0.0
  9
$PLIMMAX
 10
420.0
 20
297.0
  9
$UNITMODE
 70
     0
  9
$VISRETAIN
 70
     1
  9
$PLINEGEN
 70
     0
  9
$PSLTSCALE
 70
     1
  9
$TREEDEPTH
 70
  3020
  9
$CMLSTYLE
  2
Standard
  9
$CMLJUST
 70
     0
  9
$CMLSCALE
 40
20.0
  9
$PROXYGRAPHICS
 70
     1
  9
$MEASUREMENT
 70
     1
  9
$CELWEIGHT
370
    -1
  9
$ENDCAPS
280
     0
  9
$JOINSTYLE
280
     0
  9
$LWDISPLAY
290
     0
  9
$INSUNITS
 70
     4
  9
$HYPERLINKBASE
  1

  9
$STYLESHEET
  1

  9
$XEDIT
290
     1
  9
$CEPSNTYPE
380
     0
  9
$PSTYLEMODE
290
     1
  9
$FINGERPRINTGUID
  2
{529F52DB-E7E9-4253-953A-675CA219B1AC}
  9
$VERSIONGUID
  2
{FAEB1C32-E019-11D5-929B-00C0DF256EC4}
  9
$EXTNAMES
290
     1
  9
$PSVPSCALE
 40
0.0
  9
$OLESTARTUP
290
     0
  9
$SORTENTS
280
   127
  9
$INDEXCTL
280
     0
  9
$HIDETEXT
280
     1
  9
$XCLIPFRAME
290
     0
  9
$HALOGAP
280
     0
  9
$OBSCOLOR
 70
   257
  9
$OBSLTYPE
280
     0
  9
$INTERSECTIONDISPLAY
280
     0
  9
$INTERSECTIONCOLOR
 70
   257
  9
$DIMASSOC
280
     2
  9
$PROJECTNAME
  1

  0
ENDSEC
  0
SECTION
  2
CLASSES
  0
CLASS
  1
ACDBDICTIONARYWDFLT
  2
AcDbDictionaryWithDefault
  3
ObjectDBX Classes
 90
        0
 91
        4
280
     0
281
     0
  0
CLASS
  1
VISUALSTYLE
  2
AcDbVisualStyle
  3
ObjectDBX Classes
 90
     4095
 91
        4
280
     0
281
     0
  0
ENDSEC
  0
SECTION
  2
TABLES
  0
TABLE
  2
VPORT
  5
8
330
0
100
AcDbSymbolTable
 70
     1
  0
VPORT
  5
29
330
8
100
AcDbSymbolTableRecord
100
AcDbViewportTableRecord
  2
*Active
 70
     0
 10
0.0
 20
0.0
 11
1.0
 21
1.0
 12
0.0
 22
0.0
 13
0.0
 23
0.0
 14
10.0
 24
10.0
 15
10.0
 25
10.0
 16
0.0
 26
0.0
 36
1.0
 17
0.0
 27
0.0
 37
0.0
 40
3267.0
 41
1.414141414141414
 42
50.0
 43
0.0
 44
0.0
 50
0.0
 51
0.0
 71
     0
 72
 10000
 73
     1
 74
     3
 75
     0
 76
     0
 77
     0
 78
     0
281
     0
 65
     1
110
0.0
120
0.0
130
0.0
111
1.0
121
0.0
131
0.0
112
0.0
122
1.0
132
0.0
 79
     0
146
0.0
  0
ENDTAB
  0
TABLE
  2
LTYPE
  5
5
330
0
100
AcDbSymbolTable
 70
     5
  0
LTYPE
  5
14
330
5
100
AcDbSymbolTableRecord
100
AcDbLinetypeTableRecord
  2
ByBlock
 70
     0
  3

 72
    65
 73
     0
 40
0.0
  0
LTYPE
  5
15
330
5
100
AcDbSymbolTableRecord
100
AcDbLinetypeTableRecord
  2
ByLayer
 70
     0
  3

 72
    65
 73
     0
 40
0.0
  0
LTYPE
  5
16
330
5
100
AcDbSymbolTableRecord
100
AcDbLinetypeTableRecord
  2
Continuous
 70
     0
  3
Solid line
 72
    65
 73
     0
 40
0.0
  0
LTYPE
  5
3C
330
5
100
AcDbSymbolTableRecord
100
AcDbLinetypeTableRecord
  2
JWW_CENTER1
 70
     0
  3
-----  --  ----------  --  -----
 72
    65
 73
     4
 40
6.773333333333333
 49
4.233333333333333
 74
     0
 49
-0.8466666666666667
 74
     0
 49
0.8466666666666667
 74
     0
 49
-0.8466666666666667
 74
     0
  0
LTYPE
  5
3D
330
5
100
AcDbSymbolTableRecord
100
AcDbLinetypeTableRecord
  2
JWW_DASHED3
 70
     0
  3
---  ------  ------  ------  ---
 72
    65
 73
     2
 40
3.386666666666667
 49
2.54
 74
     0
 49
-0.8466666666666667
 74
     0
  0
LTYPE
  5
3E
330
5
100
AcDbSymbolTableRecord
100
AcDbLinetypeTableRecord
  2
JWW_CENTER2
 70
     0
  3
-------------  --  -------------
 72
    65
 73
     4
 40
13.54666666666667
 49
11.00666666666667
 74
     0
 49
-0.8466666666666667
 74
     0
 49
0.8466666666666667
 74
     0
 49
-0.8466666666666667
 74
     0
  0
LTYPE
  5
3F
330
5
100
AcDbSymbolTableRecord
100
AcDbLinetypeTableRecord
  2
JWW_HOJO
 70
     0
  3
  -   -   -   -   -   -   -   - 
 72
    65
 73
     2
 40
1.693333333333333
 49
-1.27
 74
     0
 49
0.4233333333333333
 74
     0
  0
ENDTAB
  0
TABLE
  2
LAYER
  5
2
330
0
100
AcDbSymbolTable
 70
     9
  0
LAYER
  5
10
330
2
100
AcDbSymbolTableRecord
100
AcDbLayerTableRecord
  2
0
 70
     0
 62
     7
  6
Continuous
370
    -3
390
F
  0
LAYER
  5
40
330
2
100
AcDbSymbolTableRecord
100
AcDbLayerTableRecord
  2
D-4_寸法
 70
     0
 62
     7
  6
Continuous
370
    -3
390
F
  0
LAYER
  5
41
330
2
100
AcDbSymbolTableRecord
100
AcDbLayerTableRecord
  2
A-1_ピット
 70
     0
 62
     7
  6
Continuous
370
    -3
390
F
  0
LAYER
  5
42
330
2
100
AcDbSymbolTableRecord
100
AcDbLayerTableRecord
  2
A-2_蓋
 70
     0
 62
     7
  6
Continuous
370
    -3
390
F
  0
LAYER
  5
43
330
2
100
AcDbSymbolTableRecord
100
AcDbLayerTableRecord
  2
A-4_寸法
 70
     0
 62
     7
  6
Continuous
370
    -3
390
F
  0
LAYER
  5
44
330
2
100
AcDbSymbolTableRecord
100
AcDbLayerTableRecord
  2
A-3_受枠
 70
     0
 62
     7
  6
Continuous
370
    -3
390
F
  0
LAYER
  5
45
330
2
100
AcDbSymbolTableRecord
100
AcDbLayerTableRecord
  2
A-A
 70
     0
 62
     7
  6
Continuous
370
    -3
390
F
  0
LAYER
  5
46
330
2
100
AcDbSymbolTableRecord
100
AcDbLayerTableRecord
  2
D-2_蓋
 70
     0
 62
     7
  6
Continuous
370
    -3
390
F
  0
LAYER
  5
47
330
2
100
AcDbSymbolTableRecord
100
AcDbLayerTableRecord
  2
F-5
 70
     0
 62
     7
  6
Continuous
370
    -3
390
F
  0
ENDTAB
  0
TABLE
  2
STYLE
  5
3
330
0
100
AcDbSymbolTable
 70
     2
  0
STYLE
  5
11
330
3
100
AcDbSymbolTableRecord
100
AcDbTextStyleTableRecord
  2
Standard
 70
     0
 40
0.0
 41
1.0
 50
0.0
 71
     0
 42
2.5
  3
txt
  4

1001
ACAD
1000

1071
        0
  0
STYLE
  5
3B
330
3
100
AcDbSymbolTableRecord
100
AcDbTextStyleTableRecord
  2
ＭＳ ゴシック
 70
     0
 40
1.0
 41
1.0
 50
0.0
 71
     0
 42
10.0
  3

  4

1001
ACAD
1000
MS Gothic
1071
    32817
  0
ENDTAB
  0
TABLE
  2
VIEW
  5
6
330
0
100
AcDbSymbolTable
 70
     0
  0
ENDTAB
  0
TABLE
  2
UCS
  5
7
330
0
100
AcDbSymbolTable
 70
     0
  0
ENDTAB
  0
TABLE
  2
APPID
  5
9
330
0
100
AcDbSymbolTable
 70
     1
  0
APPID
  5
12
330
9
100
AcDbSymbolTableRecord
100
AcDbRegAppTableRecord
  2
ACAD
 70
     0
  0
ENDTAB
  0
TABLE
  2
DIMSTYLE
  5
A
330
0
100
AcDbSymbolTable
 70
     1
100
AcDbDimStyleTable
  0
DIMSTYLE
105
27
330
A
100
AcDbSymbolTableRecord
100
AcDbDimStyleTableRecord
  2
ISO-25
 70
     0
 41
2.5
 42
0.625
 43
3.75
 44
1.25
 73
     0
 74
     0
 77
     1
 78
     8
140
2.5
141
2.5
143
0.03937007874016
147
0.625
171
     3
172
     1
271
     2
272
     2
274
     3
278
    44
283
     0
284
     8
340
11
  0
ENDTAB
  0
TABLE
  2
BLOCK_RECORD
  5
1
330
0
100
AcDbSymbolTable
 70
     1
  0
BLOCK_RECORD
  5
1F
330
1
100
AcDbSymbolTableRecord
100
AcDbBlockTableRecord
  2
*Model_Space
340
22
  0
BLOCK_RECORD
  5
1B
330
1
100
AcDbSymbolTableRecord
100
AcDbBlockTableRecord
  2
*Paper_Space
340
1E
  0
BLOCK_RECORD
  5
23
330
1
100
AcDbSymbolTableRecord
100
AcDbBlockTableRecord
  2
*Paper_Space0
340
26
  0
ENDTAB
  0
ENDSEC
  0
SECTION
  2
BLOCKS
  0
BLOCK
  5
20
330
1F
100
AcDbEntity
  8
0
100
AcDbBlockBegin
  2
*Model_Space
 70
     0
 10
0.0
 20
0.0
 30
0.0
  3
*Model_Space
  1

  0
ENDBLK
  5
21
330
1F
100
AcDbEntity
  8
0
100
AcDbBlockEnd
  0
BLOCK
  5
1C
330
1B
100
AcDbEntity
 67
     1
  8
0
100
AcDbBlockBegin
  2
*Paper_Space
 70
     0
 10
0.0
 20
0.0
 30
0.0
  3
*Paper_Space
  1

  0
ENDBLK
  5
1D
330
1B
100
AcDbEntity
 67
     1
  8
0
100
AcDbBlockEnd
  0
BLOCK
  5
24
330
23
100
AcDbEntity
  8
0
100
AcDbBlockBegin
  2
*Paper_Space0
 70
     0
 10
0.0
 20
0.0
 30
0.0
  3
*Paper_Space0
  1

  0
ENDBLK
  5
25
330
23
100
AcDbEntity
  8
0
100
AcDbBlockEnd
  0
ENDSEC
  0
SECTION
  2
ENTITIES
  0
LINE
  5
48
330
1F
100
AcDbEntity
  8
D-4_寸法
  6
Continuous
 62
     2
370
     9
100
AcDbLine
 10
720.7001557221287
 20
-644.9649377771325
 30
0.0
 11
720.7001557221287
 21
-594.9642160776499
 31
0.0
  0
LINE
  5
49
330
1F
100
AcDbEntity
  8
D-4_寸法
  6
Continuous
 62
     2
370
     9
100
AcDbLine
 10
720.7001557221287
 20
-594.9642160776499
 30
0.0
 11
945.7001557221287
 21
-594.9642160776499
 31
0.0
  0
LINE
  5
4A
330
1F
100
AcDbEntity
  8
D-4_寸法
  6
Continuous
 62
     2
370
     9
100
AcDbLine
 10
945.7001557221287
 20
-594.9642160776499
 30
0.0
 11
945.7001557221287
 21
-644.9649377771325
 31
0.0
  0
LINE
  5
4B
330
1F
100
AcDbEntity
  8
D-4_寸法
  6
Continuous
 62
     2
370
     9
100
AcDbLine
 10
945.7001557221287
 20
-644.9649377771325
 30
0.0
 11
720.7001557221287
 21
-644.9649377771325
 31
0.0
  0
LINE
  5
4C
330
1F
100
AcDbEntity
  8
A-1_ピット
  6
Continuous
 62
     2
370
     9
100
AcDbLine
 10
-1140.25033486856
 20
-70.8673095703125
 30
0.0
 11
-1140.25033486856
 21
-58.66654679581927
 31
0.0
  0
LINE
  5
4D
330
1F
100
AcDbEntity
  8
A-1_ピット
  6
Continuous
 62
     2
370
     9
100
AcDbLine
 10
-940.2504173485008
 20
-90.86688067461978
 30
0.0
 11
-1120.250268884607
 21
-90.86688067461978
 31
0.0
  0
LINE
  5
4E
330
1F
100
AcDbEntity
  8
A-1_ピット
  6
Continuous
 62
     2
370
     9
100
AcDbLine
 10
-920.2502276446367
 20
-70.8673095703125
 30
0.0
 11
-920.2502276446367
 21
-58.66654679581927
 31
0.0
  0
LINE
  5
4F
330
1F
100
AcDbEntity
  8
A-1_ピット
  6
Continuous
 62
     2
370
     9
100
AcDbLine
 10
-938.250361262141
 20
-70.8673095703125
 30
0.0
 11
-938.250361262141
 21
-58.66654679581927
 31
0.0
  0
LINE
  5
50
330
1F
100
AcDbEntity
  8
A-1_ピット
  6
Continuous
 62
     2
370
     9
100
AcDbLine
 10
-1120.250268884607
 20
-72.86711821684946
 30
0.0
 11
-940.2500461887668
 21
-72.86711821684946
 31
0.0
  0
LINE
  5
51
330
1F
100
AcDbEntity
  8
A-1_ピット
  6
Continuous
 62
     2
370
     9
100
AcDbLine
 10
-1122.25057241079
 20
-70.8673095703125
 30
0.0
 11
-1122.25057241079
 21
-58.66654679581927
 31
0.0
  0
LINE
  5
52
330
1F
100
AcDbEntity
  8
A-1_ピット
  6
JWW_CENTER1
 62
     2
370
     9
100
AcDbLine
 10
-1131.250453639675
 20
-42.45231009818411
 30
0.0
 11
-1131.250453639675
 21
-73.64655365815025
 31
0.0
  0
LINE
  5
53
330
1F
100
AcDbEntity
  8
A-1_ピット
  6
JWW_CENTER1
 62
     2
370
     9
100
AcDbLine
 10
-1114.924374142209
 20
-58.66654679581927
 30
0.0
 11
-1147.738606220967
 21
-58.66654679581927
 31
0.0
  0
LINE
  5
54
330
1F
100
AcDbEntity
  8
A-1_ピット
  6
JWW_CENTER1
 62
     2
370
     9
100
AcDbLine
 10
-929.2499851536105
 20
-42.45231009818411
 30
0.0
 11
-929.2499851536105
 21
-73.64655365815025
 31
0.0
  0
LINE
  5
55
330
1F
100
AcDbEntity
  8
A-1_ピット
  6
JWW_CENTER1
 62
     2
370
     9
100
AcDbLine
 10
-912.9245242557009
 20
-58.66654679581927
 30
0.0
 11
-945.7383851747254
 21
-58.66654679581927
 31
0.0
  0
LINE
  5
56
330
1F
100
AcDbEntity
  8
A-1_ピット
  6
Continuous
 62
     2
370
     9
100
AcDbLine
 10
-112.2503332189609
 20
-70.8673095703125
 30
0.0
 11
-112.2503332189609
 21
-58.66654679581927
 31
0.0
  0
LINE
  5
57
330
1F
100
AcDbEntity
  8
A-1_ピット
  6
Continuous
 62
     2
370
     9
100
AcDbLine
 10
87.75057406038854
 20
-90.86688067461978
 30
0.0
 11
-92.24989607527448
 21
-90.86688067461978
 31
0.0
  0
LINE
  5
58
330
1F
100
AcDbEntity
  8
A-1_ピット
  6
Continuous
 62
     2
370
     9
100
AcDbLine
 10
107.7498977248734
 20
-70.8673095703125
 30
0.0
 11
107.7498977248734
 21
-58.66654679581927
 31
0.0
  0
LINE
  5
59
330
1F
100
AcDbEntity
  8
A-1_ピット
  6
Continuous
 62
     2
370
     9
100
AcDbLine
 10
89.75038270692579
 20
-70.8673095703125
 30
0.0
 11
89.75038270692579
 21
-58.66654679581927
 31
0.0
  0
LINE
  5
5A
330
1F
100
AcDbEntity
  8
A-1_ピット
  6
Continuous
 62
     2
370
     9
100
AcDbLine
 10
-92.25051467483098
 20
-72.86711821684946
 30
0.0
 11
87.75057406038854
 21
-72.86711821684946
 31
0.0
  0
LINE
  5
5B
330
1F
100
AcDbEntity
  8
A-1_ピット
  6
Continuous
 62
     2
370
     9
100
AcDbLine
 10
-94.25007588154557
 20
-70.8673095703125
 30
0.0
 11
-94.25007588154557
 21
-58.66654679581927
 31
0.0
  0
LINE
  5
5C
330
1F
100
AcDbEntity
  8
A-1_ピット
  6
JWW_CENTER1
 62
     2
370
     9
100
AcDbLine
 10
-103.2499571104307
 20
-42.45231009818411
 30
0.0
 11
-103.2499571104307
 21
-73.64655365815025
 31
0.0
  0
LINE
  5
5D
330
1F
100
AcDbEntity
  8
A-1_ピット
  6
JWW_CENTER1
 62
     2
370
     9
100
AcDbLine
 10
-86.92424877269843
 20
-58.66654679581927
 30
0.0
 11
-119.7386045713682
 21
-58.66654679581927
 31
0.0
  0
LINE
  5
5E
330
1F
100
AcDbEntity
  8
A-1_ピット
  6
JWW_CENTER1
 62
     2
370
     9
100
AcDbLine
 10
98.74927417652032
 20
-42.45231009818411
 30
0.0
 11
98.74927417652032
 21
-73.64655365815025
 31
0.0
  0
LINE
  5
5F
330
1F
100
AcDbEntity
  8
A-1_ピット
  6
JWW_CENTER1
 62
     2
370
     9
100
AcDbLine
 10
115.0763434332771
 20
-58.66654679581927
 30
0.0
 11
82.26136903505079
 21
-58.66654679581927
 31
0.0
  0
LINE
  5
60
330
1F
100
AcDbEntity
  8
A-1_ピット
  6
Continuous
 62
     2
370
     9
100
AcDbLine
 10
-1140.25033486856
 20
811.5345228040542
 30
0.0
 11
-1140.25033486856
 21
799.3347497888516
 31
0.0
  0
LINE
  5
61
330
1F
100
AcDbEntity
  8
A-1_ピット
  6
Continuous
 62
     2
370
     9
100
AcDbLine
 10
-940.2504173485008
 20
831.5340939083617
 30
0.0
 11
-1120.250268884607
 21
831.5340939083617
 31
0.0
  0
LINE
  5
62
330
1F
100
AcDbEntity
  8
A-1_ピット
  6
Continuous
 62
     2
370
     9
100
AcDbLine
 10
-920.2502276446367
 20
811.5345228040542
 30
0.0
 11
-920.2502276446367
 21
799.3347497888516
 31
0.0
  0
LINE
  5
63
330
1F
100
AcDbEntity
  8
A-1_ピット
  6
Continuous
 62
     2
370
     9
100
AcDbLine
 10
-938.250361262141
 20
811.5345228040542
 30
0.0
 11
-938.250361262141
 21
799.3347497888516
 31
0.0
  0
LINE
  5
64
330
1F
100
AcDbEntity
  8
A-1_ピット
  6
Continuous
 62
     2
370
     9
100
AcDbLine
 10
-1120.250268884607
 20
813.5343314505915
 30
0.0
 11
-940.2500461887668
 21
813.5343314505915
 31
0.0
  0
LINE
  5
65
330
1F
100
AcDbEntity
  8
A-1_ピット
  6
Continuous
 62
     2
370
     9
100
AcDbLine
 10
-1122.25057241079
 20
811.5345228040542
 30
0.0
 11
-1122.25057241079
 21
799.3347497888516
 31
0.0
  0
LINE
  5
66
330
1F
100
AcDbEntity
  8
A-1_ピット
  6
JWW_CENTER1
 62
     2
370
     9
100
AcDbLine
 10
-1131.250453639675
 20
783.1195233319258
 30
0.0
 11
-1131.250453639675
 21
814.3147566511825
 31
0.0
  0
LINE
  5
67
330
1F
100
AcDbEntity
  8
A-1_ピット
  6
JWW_CENTER1
 62
     2
370
     9
100
AcDbLine
 10
-1114.924374142209
 20
799.3347497888516
 30
0.0
 11
-1147.738606220967
 21
799.3347497888516
 31
0.0
  0
LINE
  5
68
330
1F
100
AcDbEntity
  8
A-1_ピット
  6
JWW_CENTER1
 62
     2
370
     9
100
AcDbLine
 10
-929.2499851536105
 20
783.1195233319258
 30
0.0
 11
-929.2499851536105
 21
814.3147566511825
 31
0.0
  0
LINE
  5
69
330
1F
100
AcDbEntity
  8
A-1_ピット
  6
JWW_CENTER1
 62
     2
370
     9
100
AcDbLine
 10
-912.9245242557009
 20
799.3347497888516
 30
0.0
 11
-945.7383851747254
 21
799.3347497888516
 31
0.0
  0
LINE
  5
6A
330
1F
100
AcDbEntity
  8
A-1_ピット
  6
Continuous
 62
     2
370
     9
100
AcDbLine
 10
-112.2503332189609
 20
811.5345228040542
 30
0.0
 11
-112.2503332189609
 21
799.3347497888516
 31
0.0
  0
LINE
  5
6B
330
1F
100
AcDbEntity
  8
A-1_ピット
  6
Continuous
 62
     2
370
     9
100
AcDbLine
 10
87.75057406038854
 20
831.5340939083617
 30
0.0
 11
-92.24989607527448
 21
831.5340939083617
 31
0.0
  0
LINE
  5
6C
330
1F
100
AcDbEntity
  8
A-1_ピット
  6
Continuous
 62
     2
370
     9
100
AcDbLine
 10
107.7498977248734
 20
811.5345228040542
 30
0.0
 11
107.7498977248734
 21
799.3347497888516
 31
0.0
  0
LINE
  5
6D
330
1F
100
AcDbEntity
  8
A-1_ピット
  6
Continuous
 62
     2
370
     9
100
AcDbLine
 10
89.75038270692579
 20
811.5345228040542
 30
0.0
 11
89.75038270692579
 21
799.3347497888516
 31
0.0
  0
LINE
  5
6E
330
1F
100
AcDbEntity
  8
A-1_ピット
  6
Continuous
 62
     2
370
     9
100
AcDbLine
 10
-92.25051467483098
 20
813.5343314505915
 30
0.0
 11
87.75057406038854
 21
813.5343314505915
 31
0.0
  0
LINE
  5
6F
330
1F
100
AcDbEntity
  8
A-1_ピット
  6
Continuous
 62
     2
370
     9
100
AcDbLine
 10
-94.25007588154557
 20
811.5345228040542
 30
0.0
 11
-94.25007588154557
 21
799.3347497888516
 31
0.0
  0
LINE
  5
70
330
1F
100
AcDbEntity
  8
A-1_ピット
  6
JWW_CENTER1
 62
     2
370
     9
100
AcDbLine
 10
-103.2499571104307
 20
783.1195233319258
 30
0.0
 11
-103.2499571104307
 21
814.3147566511825
 31
0.0
  0
LINE
  5
71
330
1F
100
AcDbEntity
  8
A-1_ピット
  6
JWW_CENTER1
 62
     2
370
     9
100
AcDbLine
 10
-86.92424877269843
 20
799.3347497888516
 30
0.0
 11
-119.7386045713682
 21
799.3347497888516
 31
0.0
  0
LINE
  5
72
330
1F
100
AcDbEntity
  8
A-1_ピット
  6
JWW_CENTER1
 62
     2
370
     9
100
AcDbLine
 10
98.74927417652032
 20
783.1195233319258
 30
0.0
 11
98.74927417652032
 21
814.3147566511825
 31
0.0
  0
LINE
  5
73
330
1F
100
AcDbEntity
  8
A-1_ピット
  6
JWW_CENTER1
 62
     2
370
     9
100
AcDbLine
 10
115.0763434332771
 20
799.3347497888516
 30
0.0
 11
82.26136903505079
 21
799.3347497888516
 31
0.0
  0
LINE
  5
74
330
1F
100
AcDbEntity
  8
A-2_蓋
  6
Continuous
 62
     3
370
     9
100
AcDbLine
 10
478.7500329919766
 20
-29.66560982369089
 30
0.0
 11
-1511.250593855574
 21
-29.66560982369089
 31
0.0
  0
LINE
  5
75
330
1F
100
AcDbEntity
  8
A-2_蓋
  6
Continuous
 62
     3
370
     9
100
AcDbLine
 10
478.7500329919766
 20
-20.66609975453957
 30
0.0
 11
-1511.250593855574
 21
-20.66609975453957
 31
0.0
  0
LINE
  5
76
330
1F
100
AcDbEntity
  8
A-2_蓋
  6
Continuous
 62
     3
370
     9
100
AcDbLine
 10
-1511.250593855574
 20
681.3341625316724
 30
0.0
 11
478.7500329919766
 21
681.3341625316724
 31
0.0
  0
LINE
  5
77
330
1F
100
AcDbEntity
  8
A-2_蓋
  6
Continuous
 62
     3
370
     9
100
AcDbLine
 10
-1511.250593855574
 20
659.3347827808279
 30
0.0
 11
478.7500329919766
 21
659.3347827808279
 31
0.0
  0
LINE
  5
78
330
1F
100
AcDbEntity
  8
A-2_蓋
  6
Continuous
 62
     3
370
     9
100
AcDbLine
 10
-1511.250593855574
 20
761.3344264674834
 30
0.0
 11
478.7500329919766
 21
761.3344264674834
 31
0.0
  0
LINE
  5
79
330
1F
100
AcDbEntity
  8
A-2_蓋
  6
Continuous
 62
     3
370
     9
100
AcDbLine
 10
-1511.250593855574
 20
770.3343076963682
 30
0.0
 11
478.7500329919766
 21
770.3343076963682
 31
0.0
  0
LINE
  5
7A
330
1F
100
AcDbEntity
  8
A-2_蓋
  6
Continuous
 62
     3
370
     9
100
AcDbLine
 10
-1511.250593855574
 20
-29.66560982369089
 30
0.0
 11
-1511.250593855574
 21
770.3343076963682
 31
0.0
  0
LINE
  5
7B
330
1F
100
AcDbEntity
  8
A-2_蓋
  6
Continuous
 62
     3
370
     9
100
AcDbLine
 10
478.7500329919766
 20
770.3343076963682
 30
0.0
 11
478.7500329919766
 21
-29.66560982369089
 31
0.0
  0
LINE
  5
7C
330
1F
100
AcDbEntity
  8
A-2_蓋
  6
Continuous
 62
     3
370
     9
100
AcDbLine
 10
-1497.24970637141
 20
481.3330078125
 30
0.0
 11
-1497.24970637141
 21
659.3347827808279
 31
0.0
  0
LINE
  5
7D
330
1F
100
AcDbEntity
  8
A-2_蓋
  6
Continuous
 62
     3
370
     9
100
AcDbLine
 10
-1497.24970637141
 20
681.3341625316724
 30
0.0
 11
-1497.24970637141
 21
761.3344264674834
 31
0.0
  0
LINE
  5
7E
330
1F
100
AcDbEntity
  8
A-2_蓋
  6
Continuous
 62
     3
370
     9
100
AcDbLine
 10
464.7506301467484
 20
761.3344264674834
 30
0.0
 11
464.7506301467484
 21
681.3341625316724
 31
0.0
  0
LINE
  5
7F
330
1F
100
AcDbEntity
  8
A-2_蓋
  6
Continuous
 62
     3
370
     9
100
AcDbLine
 10
464.7506301467484
 20
659.3347827808279
 30
0.0
 11
464.7506301467484
 21
481.3330078125
 31
0.0
  0
LINE
  5
80
330
1F
100
AcDbEntity
  8
A-2_蓋
  6
Continuous
 62
     3
370
     9
100
AcDbLine
 10
394.150110193201
 20
761.3344264674834
 30
0.0
 11
394.150110193201
 21
681.3341625316724
 31
0.0
  0
LINE
  5
81
330
1F
100
AcDbEntity
  8
A-2_蓋
  6
Continuous
 62
     3
370
     9
100
AcDbLine
 10
408.1502553578972
 20
761.3344264674834
 30
0.0
 11
408.1502553578972
 21
681.3341625316724
 31
0.0
  0
LINE
  5
82
330
1F
100
AcDbEntity
  8
A-2_蓋
  6
Continuous
 62
     3
370
     9
100
AcDbLine
 10
394.150110193201
 20
659.3347827808279
 30
0.0
 11
394.150110193201
 21
481.3330078125
 31
0.0
  0
LINE
  5
83
330
1F
100
AcDbEntity
  8
A-2_蓋
  6
Continuous
 62
     3
370
     9
100
AcDbLine
 10
408.1502553578972
 20
659.3347827808279
 30
0.0
 11
408.1502553578972
 21
481.3330078125
 31
0.0
  0
LINE
  5
84
330
1F
100
AcDbEntity
  8
A-2_蓋
  6
Continuous
 62
     3
370
     9
100
AcDbLine
 10
323.5495902396539
 20
761.3344264674834
 30
0.0
 11
323.5495902396539
 21
681.3341625316724
 31
0.0
  0
LINE
  5
85
330
1F
100
AcDbEntity
  8
A-2_蓋
  6
Continuous
 62
     3
370
     9
100
AcDbLine
 10
337.5497354043497
 20
761.3344264674834
 30
0.0
 11
337.5497354043497
 21
681.3341625316724
 31
0.0
  0
LINE
  5
86
330
1F
100
AcDbEntity
  8
A-2_蓋
  6
Continuous
 62
     3
370
     9
100
AcDbLine
 10
323.5495902396539
 20
659.3347827808279
 30
0.0
 11
323.5495902396539
 21
481.3330078125
 31
0.0
  0
LINE
  5
87
330
1F
100
AcDbEntity
  8
A-2_蓋
  6
Continuous
 62
     3
370
     9
100
AcDbLine
 10
337.5497354043497
 20
659.3347827808279
 30
0.0
 11
337.5497354043497
 21
481.3330078125
 31
0.0
  0
LINE
  5
88
330
1F
100
AcDbEntity
  8
A-2_蓋
  6
Continuous
 62
     3
370
     9
100
AcDbLine
 10
252.9500600453972
 20
761.3344264674834
 30
0.0
 11
252.9500600453972
 21
681.3341625316724
 31
0.0
  0
LINE
  5
89
330
1F
100
AcDbEntity
  8
A-2_蓋
  6
Continuous
 62
     3
370
     9
100
AcDbLine
 10
266.950205210093
 20
761.3344264674834
 30
0.0
 11
266.950205210093
 21
681.3341625316724
 31
0.0
  0
LINE
  5
8A
330
1F
100
AcDbEntity
  8
A-2_蓋
  6
Continuous
 62
     3
370
     9
100
AcDbLine
 10
252.9500600453972
 20
659.3347827808279
 30
0.0
 11
252.9500600453972
 21
481.3330078125
 31
0.0
  0
LINE
  5
8B
330
1F
100
AcDbEntity
  8
A-2_蓋
  6
Continuous
 62
     3
370
     9
100
AcDbLine
 10
266.950205210093
 20
659.3347827808279
 30
0.0
 11
266.950205210093
 21
481.3330078125
 31
0.0
  0
LINE
  5
8C
330
1F
100
AcDbEntity
  8
A-2_蓋
  6
Continuous
 62
     3
370
     9
100
AcDbLine
 10
182.3497875316724
 20
761.3344264674834
 30
0.0
 11
182.3497875316724
 21
681.3341625316724
 31
0.0
  0
LINE
  5
8D
330
1F
100
AcDbEntity
  8
A-2_蓋
  6
Continuous
 62
     3
370
     9
100
AcDbLine
 10
196.3496852565459
 20
761.3344264674834
 30
0.0
 11
196.3496852565459
 21
681.3341625316724
 31
0.0
  0
LINE
  5
8E
330
1F
100
AcDbEntity
  8
A-2_蓋
  6
Continuous
 62
     3
370
     9
100
AcDbLine
 10
182.3497875316724
 20
659.3347827808279
 30
0.0
 11
182.3497875316724
 21
481.3330078125
 31
0.0
  0
LINE
  5
8F
330
1F
100
AcDbEntity
  8
A-2_蓋
  6
Continuous
 62
     3
370
     9
100
AcDbLine
 10
196.3496852565459
 20
659.3347827808279
 30
0.0
 11
196.3496852565459
 21
481.3330078125
 31
0.0
  0
LINE
  5
90
330
1F
100
AcDbEntity
  8
A-2_蓋
  6
Continuous
 62
     3
370
     9
100
AcDbLine
 10
111.7495150179477
 20
761.3344264674834
 30
0.0
 11
111.7495150179477
 21
681.3341625316724
 31
0.0
  0
LINE
  5
91
330
1F
100
AcDbEntity
  8
A-2_蓋
  6
Continuous
 62
     3
370
     9
100
AcDbLine
 10
125.7494127428211
 20
761.3344264674834
 30
0.0
 11
125.7494127428211
 21
681.3341625316724
 31
0.0
  0
LINE
  5
92
330
1F
100
AcDbEntity
  8
A-2_蓋
  6
Continuous
 62
     3
370
     9
100
AcDbLine
 10
111.7495150179477
 20
659.3347827808279
 30
0.0
 11
111.7495150179477
 21
481.3330078125
 31
0.0
  0
LINE
  5
93
330
1F
100
AcDbEntity
  8
A-2_蓋
  6
Continuous
 62
     3
370
     9
100
AcDbLine
 10
125.7494127428211
 20
659.3347827808279
 30
0.0
 11
125.7494127428211
 21
481.3330078125
 31
0.0
  0
LINE
  5
94
330
1F
100
AcDbEntity
  8
A-2_蓋
  6
Continuous
 62
     3
370
     9
100
AcDbLine
 10
41.15023226351354
 20
761.3344264674834
 30
0.0
 11
41.15023226351354
 21
681.3341625316724
 31
0.0
  0
LINE
  5
95
330
1F
100
AcDbEntity
  8
A-2_蓋
  6
Continuous
 62
     3
370
     9
100
AcDbLine
 10
55.14988254856434
 20
761.3344264674834
 30
0.0
 11
55.14988254856434
 21
681.3341625316724
 31
0.0
  0
LINE
  5
96
330
1F
100
AcDbEntity
  8
A-2_蓋
  6
Continuous
 62
     3
370
     9
100
AcDbLine
 10
41.15023226351354
 20
659.3347827808279
 30
0.0
 11
41.15023226351354
 21
481.3330078125
 31
0.0
  0
LINE
  5
97
330
1F
100
AcDbEntity
  8
A-2_蓋
  6
Continuous
 62
     3
370
     9
100
AcDbLine
 10
55.14988254856434
 20
659.3347827808279
 30
0.0
 11
55.14988254856434
 21
481.3330078125
 31
0.0
  0
LINE
  5
98
330
1F
100
AcDbEntity
  8
A-2_蓋
  6
Continuous
 62
     3
370
     9
100
AcDbLine
 10
-29.45028769003358
 20
761.3344264674834
 30
0.0
 11
-29.45028769003358
 21
681.3341625316724
 31
0.0
  0
LINE
  5
99
330
1F
100
AcDbEntity
  8
A-2_蓋
  6
Continuous
 62
     3
370
     9
100
AcDbLine
 10
-15.45014252533775
 20
761.3344264674834
 30
0.0
 11
-15.45014252533775
 21
681.3341625316724
 31
0.0
  0
LINE
  5
9A
330
1F
100
AcDbEntity
  8
A-2_蓋
  6
Continuous
 62
     3
370
     9
100
AcDbLine
 10
-29.45028769003358
 20
659.3347827808279
 30
0.0
 11
-29.45028769003358
 21
481.3330078125
 31
0.0
  0
LINE
  5
9B
330
1F
100
AcDbEntity
  8
A-2_蓋
  6
Continuous
 62
     3
370
     9
100
AcDbLine
 10
-15.45014252533775
 20
659.3347827808279
 30
0.0
 11
-15.45014252533775
 21
481.3330078125
 31
0.0
  0
LINE
  5
9C
330
1F
100
AcDbEntity
  8
A-2_蓋
  6
Continuous
 62
     3
370
     9
100
AcDbLine
 10
-100.0505602037583
 20
761.3344264674834
 30
0.0
 11
-100.0505602037583
 21
681.3341625316724
 31
0.0
  0
LINE
  5
9D
330
1F
100
AcDbEntity
  8
A-2_蓋
  6
Continuous
 62
     3
370
     9
100
AcDbLine
 10
-86.0504150390625
 20
761.3344264674834
 30
0.0
 11
-86.0504150390625
 21
681.3341625316724
 31
0.0
  0
LINE
  5
9E
330
1F
100
AcDbEntity
  8
A-2_蓋
  6
Continuous
 62
     3
370
     9
100
AcDbLine
 10
-100.0505602037583
 20
659.3347827808279
 30
0.0
 11
-100.0505602037583
 21
481.3330078125
 31
0.0
  0
LINE
  5
9F
330
1F
100
AcDbEntity
  8
A-2_蓋
  6
Continuous
 62
     3
370
     9
100
AcDbLine
 10
-86.0504150390625
 20
659.3347827808279
 30
0.0
 11
-86.0504150390625
 21
481.3330078125
 31
0.0
  0
LINE
  5
A0
330
1F
100
AcDbEntity
  8
A-2_蓋
  6
Continuous
 62
     3
370
     9
100
AcDbLine
 10
-170.6498429581924
 20
761.3344264674834
 30
0.0
 11
-170.6498429581924
 21
681.3341625316724
 31
0.0
  0
LINE
  5
A1
330
1F
100
AcDbEntity
  8
A-2_蓋
  6
Continuous
 62
     3
370
     9
100
AcDbLine
 10
-156.6496977934966
 20
761.3344264674834
 30
0.0
 11
-156.6496977934966
 21
681.3341625316724
 31
0.0
  0
LINE
  5
A2
330
1F
100
AcDbEntity
  8
A-2_蓋
  6
Continuous
 62
     3
370
     9
100
AcDbLine
 10
-170.6498429581924
 20
659.3347827808279
 30
0.0
 11
-170.6498429581924
 21
481.3330078125
 31
0.0
  0
LINE
  5
A3
330
1F
100
AcDbEntity
  8
A-2_蓋
  6
Continuous
 62
     3
370
     9
100
AcDbLine
 10
-156.6496977934966
 20
659.3347827808279
 30
0.0
 11
-156.6496977934966
 21
481.3330078125
 31
0.0
  0
LINE
  5
A4
330
1F
100
AcDbEntity
  8
A-2_蓋
  6
Continuous
 62
     3
370
     9
100
AcDbLine
 10
-241.2501154719172
 20
761.3344264674834
 30
0.0
 11
-241.2501154719172
 21
681.3341625316724
 31
0.0
  0
LINE
  5
A5
330
1F
100
AcDbEntity
  8
A-2_蓋
  6
Continuous
 62
     3
370
     9
100
AcDbLine
 10
-227.2502177470437
 20
761.3344264674834
 30
0.0
 11
-227.2502177470437
 21
681.3341625316724
 31
0.0
  0
LINE
  5
A6
330
1F
100
AcDbEntity
  8
A-2_蓋
  6
Continuous
 62
     3
370
     9
100
AcDbLine
 10
-241.2501154719172
 20
659.3347827808279
 30
0.0
 11
-241.2501154719172
 21
481.3330078125
 31
0.0
  0
LINE
  5
A7
330
1F
100
AcDbEntity
  8
A-2_蓋
  6
Continuous
 62
     3
370
     9
100
AcDbLine
 10
-227.2502177470437
 20
659.3347827808279
 30
0.0
 11
-227.2502177470437
 21
481.3330078125
 31
0.0
  0
LINE
  5
A8
330
1F
100
AcDbEntity
  8
A-2_蓋
  6
Continuous
 62
     3
370
     9
100
AcDbLine
 10
-311.8505117055531
 20
761.3344264674834
 30
0.0
 11
-311.8505117055531
 21
681.3341625316724
 31
0.0
  0
LINE
  5
A9
330
1F
100
AcDbEntity
  8
A-2_蓋
  6
Continuous
 62
     3
370
     9
100
AcDbLine
 10
-297.8503665408573
 20
761.3344264674834
 30
0.0
 11
-297.8503665408573
 21
681.3341625316724
 31
0.0
  0
LINE
  5
AA
330
1F
100
AcDbEntity
  8
A-2_蓋
  6
Continuous
 62
     3
370
     9
100
AcDbLine
 10
-311.8505117055531
 20
659.3347827808279
 30
0.0
 11
-311.8505117055531
 21
481.3330078125
 31
0.0
  0
LINE
  5
AB
330
1F
100
AcDbEntity
  8
A-2_蓋
  6
Continuous
 62
     3
370
     9
100
AcDbLine
 10
-297.8503665408573
 20
659.3347827808279
 30
0.0
 11
-297.8503665408573
 21
481.3330078125
 31
0.0
  0
LINE
  5
AC
330
1F
100
AcDbEntity
  8
A-2_蓋
  6
Continuous
 62
     3
370
     9
100
AcDbLine
 10
-382.4497944599872
 20
761.3344264674834
 30
0.0
 11
-382.4497944599872
 21
681.3341625316724
 31
0.0
  0
LINE
  5
AD
330
1F
100
AcDbEntity
  8
A-2_蓋
  6
Continuous
 62
     3
370
     9
100
AcDbLine
 10
-368.4498967351138
 20
761.3344264674834
 30
0.0
 11
-368.4498967351138
 21
681.3341625316724
 31
0.0
  0
LINE
  5
AE
330
1F
100
AcDbEntity
  8
A-2_蓋
  6
Continuous
 62
     3
370
     9
100
AcDbLine
 10
-382.4497944599872
 20
659.3347827808279
 30
0.0
 11
-382.4497944599872
 21
481.3330078125
 31
0.0
  0
LINE
  5
AF
330
1F
100
AcDbEntity
  8
A-2_蓋
  6
Continuous
 62
     3
370
     9
100
AcDbLine
 10
-368.4498967351138
 20
659.3347827808279
 30
0.0
 11
-368.4498967351138
 21
481.3330078125
 31
0.0
  0
LINE
  5
B0
330
1F
100
AcDbEntity
  8
A-2_蓋
  6
Continuous
 62
     3
370
     9
100
AcDbLine
 10
-453.050066973712
 20
761.3344264674834
 30
0.0
 11
-453.050066973712
 21
681.3341625316724
 31
0.0
  0
LINE
  5
B1
330
1F
100
AcDbEntity
  8
A-2_蓋
  6
Continuous
 62
     3
370
     9
100
AcDbLine
 10
-439.0501692488385
 20
761.3344264674834
 30
0.0
 11
-439.0501692488385
 21
681.3341625316724
 31
0.0
  0
LINE
  5
B2
330
1F
100
AcDbEntity
  8
A-2_蓋
  6
Continuous
 62
     3
370
     9
100
AcDbLine
 10
-453.050066973712
 20
659.3347827808279
 30
0.0
 11
-453.050066973712
 21
481.3330078125
 31
0.0
  0
LINE
  5
B3
330
1F
100
AcDbEntity
  8
A-2_蓋
  6
Continuous
 62
     3
370
     9
100
AcDbLine
 10
-439.0501692488385
 20
659.3347827808279
 30
0.0
 11
-439.0501692488385
 21
481.3330078125
 31
0.0
  0
LINE
  5
B4
330
1F
100
AcDbEntity
  8
A-2_蓋
  6
Continuous
 62
     3
370
     9
100
AcDbLine
 10
-523.649349728146
 20
761.3344264674834
 30
0.0
 11
-523.649349728146
 21
681.3341625316724
 31
0.0
  0
LINE
  5
B5
330
1F
100
AcDbEntity
  8
A-2_蓋
  6
Continuous
 62
     3
370
     9
100
AcDbLine
 10
-509.6495757231841
 20
761.3344264674834
 30
0.0
 11
-509.6495757231841
 21
681.3341625316724
 31
0.0
  0
LINE
  5
B6
330
1F
100
AcDbEntity
  8
A-2_蓋
  6
Continuous
 62
     3
370
     9
100
AcDbLine
 10
-523.649349728146
 20
659.3347827808279
 30
0.0
 11
-523.649349728146
 21
481.3330078125
 31
0.0
  0
LINE
  5
B7
330
1F
100
AcDbEntity
  8
A-2_蓋
  6
Continuous
 62
     3
370
     9
100
AcDbLine
 10
-509.6495757231841
 20
659.3347827808279
 30
0.0
 11
-509.6495757231841
 21
481.3330078125
 31
0.0
  0
LINE
  5
B8
330
1F
100
AcDbEntity
  8
A-2_蓋
  6
Continuous
 62
     3
370
     9
100
AcDbLine
 10
-594.2498696816932
 20
761.3344264674834
 30
0.0
 11
-594.2498696816932
 21
681.3341625316724
 31
0.0
  0
LINE
  5
B9
330
1F
100
AcDbEntity
  8
A-2_蓋
  6
Continuous
 62
     3
370
     9
100
AcDbLine
 10
-580.2497245169974
 20
761.3344264674834
 30
0.0
 11
-580.2497245169974
 21
681.3341625316724
 31
0.0
  0
LINE
  5
BA
330
1F
100
AcDbEntity
  8
A-2_蓋
  6
Continuous
 62
     3
370
     9
100
AcDbLine
 10
-594.2498696816932
 20
659.3347827808279
 30
0.0
 11
-594.2498696816932
 21
481.3330078125
 31
0.0
  0
LINE
  5
BB
330
1F
100
AcDbEntity
  8
A-2_蓋
  6
Continuous
 62
     3
370
     9
100
AcDbLine
 10
-580.2497245169974
 20
659.3347827808279
 30
0.0
 11
-580.2497245169974
 21
481.3330078125
 31
0.0
  0
LINE
  5
BC
330
1F
100
AcDbEntity
  8
A-2_蓋
  6
Continuous
 62
     3
370
     9
100
AcDbLine
 10
-664.8501421954179
 20
761.3344264674834
 30
0.0
 11
-664.8501421954179
 21
681.3341625316724
 31
0.0
  0
LINE
  5
BD
330
1F
100
AcDbEntity
  8
A-2_蓋
  6
Continuous
 62
     3
370
     9
100
AcDbLine
 10
-650.8502444705448
 20
761.3344264674834
 30
0.0
 11
-650.8502444705448
 21
681.3341625316724
 31
0.0
  0
LINE
  5
BE
330
1F
100
AcDbEntity
  8
A-2_蓋
  6
Continuous
 62
     3
370
     9
100
AcDbLine
 10
-664.8501421954179
 20
659.3347827808279
 30
0.0
 11
-664.8501421954179
 21
481.3330078125
 31
0.0
  0
LINE
  5
BF
330
1F
100
AcDbEntity
  8
A-2_蓋
  6
Continuous
 62
     3
370
     9
100
AcDbLine
 10
-650.8502444705448
 20
659.3347827808279
 30
0.0
 11
-650.8502444705448
 21
481.3330078125
 31
0.0
  0
LINE
  5
C0
330
1F
100
AcDbEntity
  8
A-2_蓋
  6
Continuous
 62
     3
370
     9
100
AcDbLine
 10
-735.4494249498521
 20
761.3344264674834
 30
0.0
 11
-735.4494249498521
 21
681.3341625316724
 31
0.0
  0
LINE
  5
C1
330
1F
100
AcDbEntity
  8
A-2_蓋
  6
Continuous
 62
     3
370
     9
100
AcDbLine
 10
-721.4496509448901
 20
761.3344264674834
 30
0.0
 11
-721.4496509448901
 21
681.3341625316724
 31
0.0
  0
LINE
  5
C2
330
1F
100
AcDbEntity
  8
A-2_蓋
  6
Continuous
 62
     3
370
     9
100
AcDbLine
 10
-735.4494249498521
 20
659.3347827808279
 30
0.0
 11
-735.4494249498521
 21
481.3330078125
 31
0.0
  0
LINE
  5
C3
330
1F
100
AcDbEntity
  8
A-2_蓋
  6
Continuous
 62
     3
370
     9
100
AcDbLine
 10
-721.4496509448901
 20
659.3347827808279
 30
0.0
 11
-721.4496509448901
 21
481.3330078125
 31
0.0
  0
LINE
  5
C4
330
1F
100
AcDbEntity
  8
A-2_蓋
  6
Continuous
 62
     3
370
     9
100
AcDbLine
 10
-806.0499449033995
 20
761.3344264674834
 30
0.0
 11
-806.0499449033995
 21
681.3341625316724
 31
0.0
  0
LINE
  5
C5
330
1F
100
AcDbEntity
  8
A-2_蓋
  6
Continuous
 62
     3
370
     9
100
AcDbLine
 10
-792.0497997387033
 20
761.3344264674834
 30
0.0
 11
-792.0497997387033
 21
681.3341625316724
 31
0.0
  0
LINE
  5
C6
330
1F
100
AcDbEntity
  8
A-2_蓋
  6
Continuous
 62
     3
370
     9
100
AcDbLine
 10
-806.0499449033995
 20
659.3347827808279
 30
0.0
 11
-806.0499449033995
 21
481.3330078125
 31
0.0
  0
LINE
  5
C7
330
1F
100
AcDbEntity
  8
A-2_蓋
  6
Continuous
 62
     3
370
     9
100
AcDbLine
 10
-792.0497997387033
 20
659.3347827808279
 30
0.0
 11
-792.0497997387033
 21
481.3330078125
 31
0.0
  0
LINE
  5
C8
330
1F
100
AcDbEntity
  8
A-2_蓋
  6
Continuous
 62
     3
370
     9
100
AcDbLine
 10
-876.6493513777449
 20
761.3344264674834
 30
0.0
 11
-876.6493513777449
 21
681.3341625316724
 31
0.0
  0
LINE
  5
C9
330
1F
100
AcDbEntity
  8
A-2_蓋
  6
Continuous
 62
     3
370
     9
100
AcDbLine
 10
-862.649206213049
 20
761.3344264674834
 30
0.0
 11
-862.649206213049
 21
681.3341625316724
 31
0.0
  0
LINE
  5
CA
330
1F
100
AcDbEntity
  8
A-2_蓋
  6
Continuous
 62
     3
370
     9
100
AcDbLine
 10
-876.6493513777449
 20
659.3347827808279
 30
0.0
 11
-876.6493513777449
 21
481.3330078125
 31
0.0
  0
LINE
  5
CB
330
1F
100
AcDbEntity
  8
A-2_蓋
  6
Continuous
 62
     3
370
     9
100
AcDbLine
 10
-862.649206213049
 20
659.3347827808279
 30
0.0
 11
-862.649206213049
 21
481.3330078125
 31
0.0
  0
LINE
  5
CC
330
1F
100
AcDbEntity
  8
A-2_蓋
  6
Continuous
 62
     3
370
     9
100
AcDbLine
 10
-947.2495001715582
 20
761.3344264674834
 30
0.0
 11
-947.2495001715582
 21
681.3341625316724
 31
0.0
  0
LINE
  5
CD
330
1F
100
AcDbEntity
  8
A-2_蓋
  6
Continuous
 62
     3
370
     9
100
AcDbLine
 10
-933.2497261665962
 20
761.3344264674834
 30
0.0
 11
-933.2497261665962
 21
681.3341625316724
 31
0.0
  0
LINE
  5
CE
330
1F
100
AcDbEntity
  8
A-2_蓋
  6
Continuous
 62
     3
370
     9
100
AcDbLine
 10
-947.2495001715582
 20
659.3347827808279
 30
0.0
 11
-947.2495001715582
 21
481.3330078125
 31
0.0
  0
LINE
  5
CF
330
1F
100
AcDbEntity
  8
A-2_蓋
  6
Continuous
 62
     3
370
     9
100
AcDbLine
 10
-933.2497261665962
 20
659.3347827808279
 30
0.0
 11
-933.2497261665962
 21
481.3330078125
 31
0.0
  0
LINE
  5
D0
330
1F
100
AcDbEntity
  8
A-2_蓋
  6
Continuous
 62
     3
370
     9
100
AcDbLine
 10
-1017.849896405194
 20
761.3344264674834
 30
0.0
 11
-1017.849896405194
 21
681.3341625316724
 31
0.0
  0
LINE
  5
D1
330
1F
100
AcDbEntity
  8
A-2_蓋
  6
Continuous
 62
     3
370
     9
100
AcDbLine
 10
-1003.849998680321
 20
761.3344264674834
 30
0.0
 11
-1003.849998680321
 21
681.3341625316724
 31
0.0
  0
LINE
  5
D2
330
1F
100
AcDbEntity
  8
A-2_蓋
  6
Continuous
 62
     3
370
     9
100
AcDbLine
 10
-1017.849896405194
 20
659.3347827808279
 30
0.0
 11
-1017.849896405194
 21
481.3330078125
 31
0.0
  0
LINE
  5
D3
330
1F
100
AcDbEntity
  8
A-2_蓋
  6
Continuous
 62
     3
370
     9
100
AcDbLine
 10
-1003.849998680321
 20
659.3347827808279
 30
0.0
 11
-1003.849998680321
 21
481.3330078125
 31
0.0
  0
LINE
  5
D4
330
1F
100
AcDbEntity
  8
A-2_蓋
  6
Continuous
 62
     3
370
     9
100
AcDbLine
 10
-1088.44930287954
 20
761.3344264674834
 30
0.0
 11
-1088.44930287954
 21
681.3341625316724
 31
0.0
  0
LINE
  5
D5
330
1F
100
AcDbEntity
  8
A-2_蓋
  6
Continuous
 62
     3
370
     9
100
AcDbLine
 10
-1074.449281434755
 20
761.3344264674834
 30
0.0
 11
-1074.449281434755
 21
681.3341625316724
 31
0.0
  0
LINE
  5
D6
330
1F
100
AcDbEntity
  8
A-2_蓋
  6
Continuous
 62
     3
370
     9
100
AcDbLine
 10
-1088.44930287954
 20
659.3347827808279
 30
0.0
 11
-1088.44930287954
 21
481.3330078125
 31
0.0
  0
LINE
  5
D7
330
1F
100
AcDbEntity
  8
A-2_蓋
  6
Continuous
 62
     3
370
     9
100
AcDbLine
 10
-1074.449281434755
 20
659.3347827808279
 30
0.0
 11
-1074.449281434755
 21
481.3330078125
 31
0.0
  0
LINE
  5
D8
330
1F
100
AcDbEntity
  8
A-2_蓋
  6
Continuous
 62
     3
370
     9
100
AcDbLine
 10
-1159.049699113176
 20
761.3344264674834
 30
0.0
 11
-1159.049699113176
 21
681.3341625316724
 31
0.0
  0
LINE
  5
D9
330
1F
100
AcDbEntity
  8
A-2_蓋
  6
Continuous
 62
     3
370
     9
100
AcDbLine
 10
-1145.049677668391
 20
761.3344264674834
 30
0.0
 11
-1145.049677668391
 21
681.3341625316724
 31
0.0
  0
LINE
  5
DA
330
1F
100
AcDbEntity
  8
A-2_蓋
  6
Continuous
 62
     3
370
     9
100
AcDbLine
 10
-1159.049699113176
 20
659.3347827808279
 30
0.0
 11
-1159.049699113176
 21
481.3330078125
 31
0.0
  0
LINE
  5
DB
330
1F
100
AcDbEntity
  8
A-2_蓋
  6
Continuous
 62
     3
370
     9
100
AcDbLine
 10
-1145.049677668391
 20
659.3347827808279
 30
0.0
 11
-1145.049677668391
 21
481.3330078125
 31
0.0
  0
LINE
  5
DC
330
1F
100
AcDbEntity
  8
A-2_蓋
  6
Continuous
 62
     3
370
     9
100
AcDbLine
 10
-1229.6499716269
 20
761.3344264674834
 30
0.0
 11
-1229.6499716269
 21
681.3341625316724
 31
0.0
  0
LINE
  5
DD
330
1F
100
AcDbEntity
  8
A-2_蓋
  6
Continuous
 62
     3
370
     9
100
AcDbLine
 10
-1215.650073902027
 20
761.3344264674834
 30
0.0
 11
-1215.650073902027
 21
681.3341625316724
 31
0.0
  0
LINE
  5
DE
330
1F
100
AcDbEntity
  8
A-2_蓋
  6
Continuous
 62
     3
370
     9
100
AcDbLine
 10
-1229.6499716269
 20
659.3347827808279
 30
0.0
 11
-1229.6499716269
 21
481.3330078125
 31
0.0
  0
LINE
  5
DF
330
1F
100
AcDbEntity
  8
A-2_蓋
  6
Continuous
 62
     3
370
     9
100
AcDbLine
 10
-1215.650073902027
 20
659.3347827808279
 30
0.0
 11
-1215.650073902027
 21
481.3330078125
 31
0.0
  0
LINE
  5
E0
330
1F
100
AcDbEntity
  8
A-2_蓋
  6
Continuous
 62
     3
370
     9
100
AcDbLine
 10
-1300.249254381334
 20
761.3344264674834
 30
0.0
 11
-1300.249254381334
 21
681.3341625316724
 31
0.0
  0
LINE
  5
E1
330
1F
100
AcDbEntity
  8
A-2_蓋
  6
Continuous
 62
     3
370
     9
100
AcDbLine
 10
-1286.249356656461
 20
761.3344264674834
 30
0.0
 11
-1286.249356656461
 21
681.3341625316724
 31
0.0
  0
LINE
  5
E2
330
1F
100
AcDbEntity
  8
A-2_蓋
  6
Continuous
 62
     3
370
     9
100
AcDbLine
 10
-1300.249254381334
 20
659.3347827808279
 30
0.0
 11
-1300.249254381334
 21
481.3330078125
 31
0.0
  0
LINE
  5
E3
330
1F
100
AcDbEntity
  8
A-2_蓋
  6
Continuous
 62
     3
370
     9
100
AcDbLine
 10
-1286.249356656461
 20
659.3347827808279
 30
0.0
 11
-1286.249356656461
 21
481.3330078125
 31
0.0
  0
LINE
  5
E4
330
1F
100
AcDbEntity
  8
A-2_蓋
  6
Continuous
 62
     3
370
     9
100
AcDbLine
 10
-1370.84965061497
 20
761.3344264674834
 30
0.0
 11
-1370.84965061497
 21
681.3341625316724
 31
0.0
  0
LINE
  5
E5
330
1F
100
AcDbEntity
  8
A-2_蓋
  6
Continuous
 62
     3
370
     9
100
AcDbLine
 10
-1356.849629170186
 20
761.3344264674834
 30
0.0
 11
-1356.849629170186
 21
681.3341625316724
 31
0.0
  0
LINE
  5
E6
330
1F
100
AcDbEntity
  8
A-2_蓋
  6
Continuous
 62
     3
370
     9
100
AcDbLine
 10
-1370.84965061497
 20
659.3347827808279
 30
0.0
 11
-1370.84965061497
 21
481.3330078125
 31
0.0
  0
LINE
  5
E7
330
1F
100
AcDbEntity
  8
A-2_蓋
  6
Continuous
 62
     3
370
     9
100
AcDbLine
 10
-1356.849629170186
 20
659.3347827808279
 30
0.0
 11
-1356.849629170186
 21
481.3330078125
 31
0.0
  0
LINE
  5
E8
330
1F
100
AcDbEntity
  8
A-2_蓋
  6
Continuous
 62
     3
370
     9
100
AcDbLine
 10
-1441.450046848606
 20
761.3344264674834
 30
0.0
 11
-1441.450046848606
 21
681.3341625316724
 31
0.0
  0
LINE
  5
E9
330
1F
100
AcDbEntity
  8
A-2_蓋
  6
Continuous
 62
     3
370
     9
100
AcDbLine
 10
-1427.44990168391
 20
761.3344264674834
 30
0.0
 11
-1427.44990168391
 21
681.3341625316724
 31
0.0
  0
LINE
  5
EA
330
1F
100
AcDbEntity
  8
A-2_蓋
  6
Continuous
 62
     3
370
     9
100
AcDbLine
 10
-1441.450046848606
 20
659.3347827808279
 30
0.0
 11
-1441.450046848606
 21
481.3330078125
 31
0.0
  0
LINE
  5
EB
330
1F
100
AcDbEntity
  8
A-2_蓋
  6
Continuous
 62
     3
370
     9
100
AcDbLine
 10
-1427.44990168391
 20
659.3347827808279
 30
0.0
 11
-1427.44990168391
 21
481.3330078125
 31
0.0
  0
LINE
  5
EC
330
1F
100
AcDbEntity
  8
A-2_蓋
  6
Continuous
 62
     3
370
     9
100
AcDbLine
 10
-1497.24970637141
 20
659.3347827808279
 30
0.0
 11
-1427.44990168391
 21
681.3341625316724
 31
0.0
  0
LINE
  5
ED
330
1F
100
AcDbEntity
  8
A-2_蓋
  6
Continuous
 62
     3
370
     9
100
AcDbLine
 10
-1426.649928737331
 20
659.3347827808279
 30
0.0
 11
-1356.850247769742
 21
681.3341625316724
 31
0.0
  0
LINE
  5
EE
330
1F
100
AcDbEntity
  8
A-2_蓋
  6
Continuous
 62
     3
370
     9
100
AcDbLine
 10
-1356.049532503695
 20
659.3347827808279
 30
0.0
 11
-1286.250098975929
 21
681.3341625316724
 31
0.0
  0
LINE
  5
EF
330
1F
100
AcDbEntity
  8
A-2_蓋
  6
Continuous
 62
     3
370
     9
100
AcDbLine
 10
-1285.449631149704
 20
659.3347827808279
 30
0.0
 11
-1215.650073902027
 21
681.3341625316724
 31
0.0
  0
LINE
  5
F0
330
1F
100
AcDbEntity
  8
A-2_蓋
  6
Continuous
 62
     3
370
     9
100
AcDbLine
 10
-1214.849853515625
 20
659.3347827808279
 30
0.0
 11
-1145.050048828125
 21
681.3341625316724
 31
0.0
  0
LINE
  5
F1
330
1F
100
AcDbEntity
  8
A-2_蓋
  6
Continuous
 62
     3
370
     9
100
AcDbLine
 10
-1144.249828441723
 20
659.3347827808279
 30
0.0
 11
-1074.450023754223
 21
681.3341625316724
 31
0.0
  0
LINE
  5
F2
330
1F
100
AcDbEntity
  8
A-2_蓋
  6
Continuous
 62
     3
370
     9
100
AcDbLine
 10
-1073.64967964791
 20
659.3347827808279
 30
0.0
 11
-1003.849998680321
 21
681.3341625316724
 31
0.0
  0
LINE
  5
F3
330
1F
100
AcDbEntity
  8
A-2_蓋
  6
Continuous
 62
     3
370
     9
100
AcDbLine
 10
-1003.049778293919
 20
659.3347827808279
 30
0.0
 11
-933.2499736064188
 21
681.3341625316724
 31
0.0
  0
LINE
  5
F4
330
1F
100
AcDbEntity
  8
A-2_蓋
  6
Continuous
 62
     3
370
     9
100
AcDbLine
 10
-932.4497532200168
 20
659.3347827808279
 30
0.0
 11
-862.6500722524281
 21
681.3341625316724
 31
0.0
  0
LINE
  5
F5
330
1F
100
AcDbEntity
  8
A-2_蓋
  6
Continuous
 62
     3
370
     9
100
AcDbLine
 10
-861.8494807062922
 20
659.3347827808279
 30
0.0
 11
-792.0497997387033
 21
681.3341625316724
 31
0.0
  0
LINE
  5
F6
330
1F
100
AcDbEntity
  8
A-2_蓋
  6
Continuous
 62
     3
370
     9
100
AcDbLine
 10
-791.2495793523016
 20
659.3347827808279
 30
0.0
 11
-721.4501458245354
 21
681.3341625316724
 31
0.0
  0
LINE
  5
F7
330
1F
100
AcDbEntity
  8
A-2_蓋
  6
Continuous
 62
     3
370
     9
100
AcDbLine
 10
-720.6499254381333
 20
659.3347827808279
 30
0.0
 11
-650.8502444705448
 21
681.3341625316724
 31
0.0
  0
LINE
  5
F8
330
1F
100
AcDbEntity
  8
A-2_蓋
  6
Continuous
 62
     3
370
     9
100
AcDbLine
 10
-650.04977664432
 20
659.3347827808279
 30
0.0
 11
-580.2500956767312
 21
681.3341625316724
 31
0.0
  0
LINE
  5
F9
330
1F
100
AcDbEntity
  8
A-2_蓋
  6
Continuous
 62
     3
370
     9
100
AcDbLine
 10
-579.4498752903294
 20
659.3347827808279
 30
0.0
 11
-509.6500706028294
 21
681.3341625316724
 31
0.0
  0
LINE
  5
FA
330
1F
100
AcDbEntity
  8
A-2_蓋
  6
Continuous
 62
     3
370
     9
100
AcDbLine
 10
-508.8498502164273
 20
659.3347827808279
 30
0.0
 11
-439.0501692488385
 21
681.3341625316724
 31
0.0
  0
LINE
  5
FB
330
1F
100
AcDbEntity
  8
A-2_蓋
  6
Continuous
 62
     3
370
     9
100
AcDbLine
 10
-438.2499488624364
 20
659.3347827808279
 30
0.0
 11
-368.4502678948479
 21
681.3341625316724
 31
0.0
  0
LINE
  5
FC
330
1F
100
AcDbEntity
  8
A-2_蓋
  6
Continuous
 62
     3
370
     9
100
AcDbLine
 10
-367.6500475084458
 20
659.3347827808279
 30
0.0
 11
-297.8503665408573
 21
681.3341625316724
 31
0.0
  0
LINE
  5
FD
330
1F
100
AcDbEntity
  8
A-2_蓋
  6
Continuous
 62
     3
370
     9
100
AcDbLine
 10
-297.0497749947211
 20
659.3347827808279
 30
0.0
 11
-227.2502177470437
 21
681.3341625316724
 31
0.0
  0
LINE
  5
FE
330
1F
100
AcDbEntity
  8
A-2_蓋
  6
Continuous
 62
     3
370
     9
100
AcDbLine
 10
-226.4499973606416
 20
659.3347827808279
 30
0.0
 11
-156.6503163930531
 21
681.3341625316724
 31
0.0
  0
LINE
  5
FF
330
1F
100
AcDbEntity
  8
A-2_蓋
  6
Continuous
 62
     3
370
     9
100
AcDbLine
 10
-155.850096006651
 20
659.3347827808279
 30
0.0
 11
-86.0504150390625
 21
681.3341625316724
 31
0.0
  0
LINE
  5
100
330
1F
100
AcDbEntity
  8
A-2_蓋
  6
Continuous
 62
     3
370
     9
100
AcDbLine
 10
-85.25019465266041
 20
659.3347827808279
 30
0.0
 11
-15.45063740498307
 21
681.3341625316724
 31
0.0
  0
LINE
  5
101
330
1F
100
AcDbEntity
  8
A-2_蓋
  6
Continuous
 62
     3
370
     9
100
AcDbLine
 10
-14.64992213893566
 20
659.3347827808279
 30
0.0
 11
55.14988254856434
 21
681.3341625316724
 31
0.0
  0
LINE
  5
102
330
1F
100
AcDbEntity
  8
A-2_蓋
  6
Continuous
 62
     3
370
     9
100
AcDbLine
 10
55.94960805532111
 20
659.3347827808279
 30
0.0
 11
125.7494127428211
 21
681.3341625316724
 31
0.0
  0
LINE
  5
103
330
1F
100
AcDbEntity
  8
A-2_蓋
  6
Continuous
 62
     3
370
     9
100
AcDbLine
 10
126.5496331292232
 20
659.3347827808279
 30
0.0
 11
196.3494378167232
 21
681.3341625316724
 31
0.0
  0
LINE
  5
104
330
1F
100
AcDbEntity
  8
A-2_蓋
  6
Continuous
 62
     3
370
     9
100
AcDbLine
 10
197.1501530827703
 20
659.3347827808279
 30
0.0
 11
266.9497103304477
 21
681.3341625316724
 31
0.0
  0
LINE
  5
105
330
1F
100
AcDbEntity
  8
A-2_蓋
  6
Continuous
 62
     3
370
     9
100
AcDbLine
 10
267.7501781566724
 20
659.3347827808279
 30
0.0
 11
337.5497354043497
 21
681.3341625316724
 31
0.0
  0
LINE
  5
106
330
1F
100
AcDbEntity
  8
A-2_蓋
  6
Continuous
 62
     3
370
     9
100
AcDbLine
 10
338.3494609111065
 20
659.3347827808279
 30
0.0
 11
408.1495130384292
 21
681.3341625316724
 31
0.0
  0
LINE
  5
107
330
1F
100
AcDbEntity
  8
A-2_蓋
  6
Continuous
 62
     3
370
     9
100
AcDbLine
 10
408.9494859850086
 20
659.3347827808279
 30
0.0
 11
478.7495381123313
 21
681.3341625316724
 31
0.0
  0
LINE
  5
108
330
1F
100
AcDbEntity
  8
A-2_蓋
  6
Continuous
 62
     3
370
     9
100
AcDbLine
 10
-1511.250593855574
 20
677.1732144742401
 30
0.0
 11
-1498.049926757812
 21
681.3341625316724
 31
0.0
  0
LINE
  5
109
330
1F
100
AcDbEntity
  8
A-2_蓋
  6
Continuous
 62
     3
370
     9
100
AcDbLine
 10
-1511.250593855574
 20
481.3339975717906
 30
0.0
 11
478.7500329919766
 21
481.3339975717906
 31
0.0
  0
LINE
  5
10A
330
1F
100
AcDbEntity
  8
A-2_蓋
  6
Continuous
 62
     3
370
     9
100
AcDbLine
 10
-1511.250593855574
 20
459.3347415408573
 30
0.0
 11
478.7500329919766
 21
459.3347415408573
 31
0.0
  0
LINE
  5
10B
330
1F
100
AcDbEntity
  8
A-2_蓋
  6
Continuous
 62
     3
370
     9
100
AcDbLine
 10
-1497.24970637141
 20
459.3347415408573
 30
0.0
 11
-1427.44990168391
 21
481.3339975717906
 31
0.0
  0
LINE
  5
10C
330
1F
100
AcDbEntity
  8
A-2_蓋
  6
Continuous
 62
     3
370
     9
100
AcDbLine
 10
-1426.649928737331
 20
459.3347415408573
 30
0.0
 11
-1356.850247769742
 21
481.3339975717906
 31
0.0
  0
LINE
  5
10D
330
1F
100
AcDbEntity
  8
A-2_蓋
  6
Continuous
 62
     3
370
     9
100
AcDbLine
 10
-1356.049532503695
 20
459.3347415408573
 30
0.0
 11
-1286.250098975929
 21
481.3339975717906
 31
0.0
  0
LINE
  5
10E
330
1F
100
AcDbEntity
  8
A-2_蓋
  6
Continuous
 62
     3
370
     9
100
AcDbLine
 10
-1285.449631149704
 20
459.3347415408573
 30
0.0
 11
-1215.650073902027
 21
481.3339975717906
 31
0.0
  0
LINE
  5
10F
330
1F
100
AcDbEntity
  8
A-2_蓋
  6
Continuous
 62
     3
370
     9
100
AcDbLine
 10
-1214.849853515625
 20
459.3347415408573
 30
0.0
 11
-1145.050048828125
 21
481.3339975717906
 31
0.0
  0
LINE
  5
110
330
1F
100
AcDbEntity
  8
A-2_蓋
  6
Continuous
 62
     3
370
     9
100
AcDbLine
 10
-1144.249828441723
 20
459.3347415408573
 30
0.0
 11
-1074.450023754223
 21
481.3339975717906
 31
0.0
  0
LINE
  5
111
330
1F
100
AcDbEntity
  8
A-2_蓋
  6
Continuous
 62
     3
370
     9
100
AcDbLine
 10
-1073.64967964791
 20
459.3347415408573
 30
0.0
 11
-1003.849998680321
 21
481.3339975717906
 31
0.0
  0
LINE
  5
112
330
1F
100
AcDbEntity
  8
A-2_蓋
  6
Continuous
 62
     3
370
     9
100
AcDbLine
 10
-1003.049778293919
 20
459.3347415408573
 30
0.0
 11
-933.2499736064188
 21
481.3339975717906
 31
0.0
  0
LINE
  5
113
330
1F
100
AcDbEntity
  8
A-2_蓋
  6
Continuous
 62
     3
370
     9
100
AcDbLine
 10
-932.4497532200168
 20
459.3347415408573
 30
0.0
 11
-862.6500722524281
 21
481.3339975717906
 31
0.0
  0
LINE
  5
114
330
1F
100
AcDbEntity
  8
A-2_蓋
  6
Continuous
 62
     3
370
     9
100
AcDbLine
 10
-861.8494807062922
 20
459.3347415408573
 30
0.0
 11
-792.0497997387033
 21
481.3339975717906
 31
0.0
  0
LINE
  5
115
330
1F
100
AcDbEntity
  8
A-2_蓋
  6
Continuous
 62
     3
370
     9
100
AcDbLine
 10
-791.2495793523016
 20
459.3347415408573
 30
0.0
 11
-721.4501458245354
 21
481.3339975717906
 31
0.0
  0
LINE
  5
116
330
1F
100
AcDbEntity
  8
A-2_蓋
  6
Continuous
 62
     3
370
     9
100
AcDbLine
 10
-720.6499254381333
 20
459.3347415408573
 30
0.0
 11
-650.8502444705448
 21
481.3339975717906
 31
0.0
  0
LINE
  5
117
330
1F
100
AcDbEntity
  8
A-2_蓋
  6
Continuous
 62
     3
370
     9
100
AcDbLine
 10
-650.04977664432
 20
459.3347415408573
 30
0.0
 11
-580.2500956767312
 21
481.3339975717906
 31
0.0
  0
LINE
  5
118
330
1F
100
AcDbEntity
  8
A-2_蓋
  6
Continuous
 62
     3
370
     9
100
AcDbLine
 10
-579.4498752903294
 20
459.3347415408573
 30
0.0
 11
-509.6500706028294
 21
481.3339975717906
 31
0.0
  0
LINE
  5
119
330
1F
100
AcDbEntity
  8
A-2_蓋
  6
Continuous
 62
     3
370
     9
100
AcDbLine
 10
-508.8498502164273
 20
459.3347415408573
 30
0.0
 11
-439.0501692488385
 21
481.3339975717906
 31
0.0
  0
LINE
  5
11A
330
1F
100
AcDbEntity
  8
A-2_蓋
  6
Continuous
 62
     3
370
     9
100
AcDbLine
 10
-438.2499488624364
 20
459.3347415408573
 30
0.0
 11
-368.4502678948479
 21
481.3339975717906
 31
0.0
  0
LINE
  5
11B
330
1F
100
AcDbEntity
  8
A-2_蓋
  6
Continuous
 62
     3
370
     9
100
AcDbLine
 10
-367.6500475084458
 20
459.3347415408573
 30
0.0
 11
-297.8503665408573
 21
481.3339975717906
 31
0.0
  0
LINE
  5
11C
330
1F
100
AcDbEntity
  8
A-2_蓋
  6
Continuous
 62
     3
370
     9
100
AcDbLine
 10
-297.0497749947211
 20
459.3347415408573
 30
0.0
 11
-227.2502177470437
 21
481.3339975717906
 31
0.0
  0
LINE
  5
11D
330
1F
100
AcDbEntity
  8
A-2_蓋
  6
Continuous
 62
     3
370
     9
100
AcDbLine
 10
-226.4499973606416
 20
459.3347415408573
 30
0.0
 11
-156.6503163930531
 21
481.3339975717906
 31
0.0
  0
LINE
  5
11E
330
1F
100
AcDbEntity
  8
A-2_蓋
  6
Continuous
 62
     3
370
     9
100
AcDbLine
 10
-155.850096006651
 20
459.3347415408573
 30
0.0
 11
-86.0504150390625
 21
481.3339975717906
 31
0.0
  0
LINE
  5
11F
330
1F
100
AcDbEntity
  8
A-2_蓋
  6
Continuous
 62
     3
370
     9
100
AcDbLine
 10
-85.25019465266041
 20
459.3347415408573
 30
0.0
 11
-15.45063740498307
 21
481.3339975717906
 31
0.0
  0
LINE
  5
120
330
1F
100
AcDbEntity
  8
A-2_蓋
  6
Continuous
 62
     3
370
     9
100
AcDbLine
 10
-14.64992213893566
 20
459.3347415408573
 30
0.0
 11
55.14988254856434
 21
481.3339975717906
 31
0.0
  0
LINE
  5
121
330
1F
100
AcDbEntity
  8
A-2_蓋
  6
Continuous
 62
     3
370
     9
100
AcDbLine
 10
55.94960805532111
 20
459.3347415408573
 30
0.0
 11
125.7494127428211
 21
481.3339975717906
 31
0.0
  0
LINE
  5
122
330
1F
100
AcDbEntity
  8
A-2_蓋
  6
Continuous
 62
     3
370
     9
100
AcDbLine
 10
126.5496331292232
 20
459.3347415408573
 30
0.0
 11
196.3494378167232
 21
481.3339975717906
 31
0.0
  0
LINE
  5
123
330
1F
100
AcDbEntity
  8
A-2_蓋
  6
Continuous
 62
     3
370
     9
100
AcDbLine
 10
197.1501530827703
 20
459.3347415408573
 30
0.0
 11
266.9497103304477
 21
481.3339975717906
 31
0.0
  0
LINE
  5
124
330
1F
100
AcDbEntity
  8
A-2_蓋
  6
Continuous
 62
     3
370
     9
100
AcDbLine
 10
267.7501781566724
 20
459.3347415408573
 30
0.0
 11
337.5497354043497
 21
481.3339975717906
 31
0.0
  0
LINE
  5
125
330
1F
100
AcDbEntity
  8
A-2_蓋
  6
Continuous
 62
     3
370
     9
100
AcDbLine
 10
338.3494609111065
 20
459.3347415408573
 30
0.0
 11
408.1495130384292
 21
481.3339975717906
 31
0.0
  0
LINE
  5
126
330
1F
100
AcDbEntity
  8
A-2_蓋
  6
Continuous
 62
     3
370
     9
100
AcDbLine
 10
408.9494859850086
 20
459.3347415408573
 30
0.0
 11
478.7495381123313
 21
481.3339975717906
 31
0.0
  0
LINE
  5
127
330
1F
100
AcDbEntity
  8
A-2_蓋
  6
Continuous
 62
     3
370
     9
100
AcDbLine
 10
-1511.250593855574
 20
477.1735443940034
 30
0.0
 11
-1498.049926757812
 21
481.3339975717906
 31
0.0
  0
LINE
  5
128
330
1F
100
AcDbEntity
  8
A-2_蓋
  6
Continuous
 62
     3
370
     9
100
AcDbLine
 10
-1511.250593855574
 20
81.33391509184975
 30
0.0
 11
478.7500329919766
 21
81.33391509184975
 31
0.0
  0
LINE
  5
129
330
1F
100
AcDbEntity
  8
A-2_蓋
  6
Continuous
 62
     3
370
     9
100
AcDbLine
 10
-1511.250593855574
 20
59.33453534100522
 30
0.0
 11
478.7500329919766
 21
59.33453534100522
 31
0.0
  0
LINE
  5
12A
330
1F
100
AcDbEntity
  8
A-2_蓋
  6
Continuous
 62
     3
370
     9
100
AcDbLine
 10
-1497.24970637141
 20
59.33453534100522
 30
0.0
 11
-1427.44990168391
 21
81.33391509184975
 31
0.0
  0
LINE
  5
12B
330
1F
100
AcDbEntity
  8
A-2_蓋
  6
Continuous
 62
     3
370
     9
100
AcDbLine
 10
-1426.649928737331
 20
59.33453534100522
 30
0.0
 11
-1356.850247769742
 21
81.33391509184975
 31
0.0
  0
LINE
  5
12C
330
1F
100
AcDbEntity
  8
A-2_蓋
  6
Continuous
 62
     3
370
     9
100
AcDbLine
 10
-1356.049532503695
 20
59.33453534100522
 30
0.0
 11
-1286.250098975929
 21
81.33391509184975
 31
0.0
  0
LINE
  5
12D
330
1F
100
AcDbEntity
  8
A-2_蓋
  6
Continuous
 62
     3
370
     9
100
AcDbLine
 10
-1285.449631149704
 20
59.33453534100522
 30
0.0
 11
-1215.650073902027
 21
81.33391509184975
 31
0.0
  0
LINE
  5
12E
330
1F
100
AcDbEntity
  8
A-2_蓋
  6
Continuous
 62
     3
370
     9
100
AcDbLine
 10
-1214.849853515625
 20
59.33453534100522
 30
0.0
 11
-1145.050048828125
 21
81.33391509184975
 31
0.0
  0
LINE
  5
12F
330
1F
100
AcDbEntity
  8
A-2_蓋
  6
Continuous
 62
     3
370
     9
100
AcDbLine
 10
-1144.249828441723
 20
59.33453534100522
 30
0.0
 11
-1074.450023754223
 21
81.33391509184975
 31
0.0
  0
LINE
  5
130
330
1F
100
AcDbEntity
  8
A-2_蓋
  6
Continuous
 62
     3
370
     9
100
AcDbLine
 10
-1073.64967964791
 20
59.33453534100522
 30
0.0
 11
-1003.849998680321
 21
81.33391509184975
 31
0.0
  0
LINE
  5
131
330
1F
100
AcDbEntity
  8
A-2_蓋
  6
Continuous
 62
     3
370
     9
100
AcDbLine
 10
-1003.049778293919
 20
59.33453534100522
 30
0.0
 11
-933.2499736064188
 21
81.33391509184975
 31
0.0
  0
LINE
  5
132
330
1F
100
AcDbEntity
  8
A-2_蓋
  6
Continuous
 62
     3
370
     9
100
AcDbLine
 10
-932.4497532200168
 20
59.33453534100522
 30
0.0
 11
-862.6500722524281
 21
81.33391509184975
 31
0.0
  0
LINE
  5
133
330
1F
100
AcDbEntity
  8
A-2_蓋
  6
Continuous
 62
     3
370
     9
100
AcDbLine
 10
-861.8494807062922
 20
59.33453534100522
 30
0.0
 11
-792.0497997387033
 21
81.33391509184975
 31
0.0
  0
LINE
  5
134
330
1F
100
AcDbEntity
  8
A-2_蓋
  6
Continuous
 62
     3
370
     9
100
AcDbLine
 10
-791.2495793523016
 20
59.33453534100522
 30
0.0
 11
-721.4501458245354
 21
81.33391509184975
 31
0.0
  0
LINE
  5
135
330
1F
100
AcDbEntity
  8
A-2_蓋
  6
Continuous
 62
     3
370
     9
100
AcDbLine
 10
-720.6499254381333
 20
59.33453534100522
 30
0.0
 11
-650.8502444705448
 21
81.33391509184975
 31
0.0
  0
LINE
  5
136
330
1F
100
AcDbEntity
  8
A-2_蓋
  6
Continuous
 62
     3
370
     9
100
AcDbLine
 10
-650.04977664432
 20
59.33453534100522
 30
0.0
 11
-580.2500956767312
 21
81.33391509184975
 31
0.0
  0
LINE
  5
137
330
1F
100
AcDbEntity
  8
A-2_蓋
  6
Continuous
 62
     3
370
     9
100
AcDbLine
 10
-579.4498752903294
 20
59.33453534100522
 30
0.0
 11
-509.6500706028294
 21
81.33391509184975
 31
0.0
  0
LINE
  5
138
330
1F
100
AcDbEntity
  8
A-2_蓋
  6
Continuous
 62
     3
370
     9
100
AcDbLine
 10
-508.8498502164273
 20
59.33453534100522
 30
0.0
 11
-439.0501692488385
 21
81.33391509184975
 31
0.0
  0
LINE
  5
139
330
1F
100
AcDbEntity
  8
A-2_蓋
  6
Continuous
 62
     3
370
     9
100
AcDbLine
 10
-438.2499488624364
 20
59.33453534100522
 30
0.0
 11
-368.4502678948479
 21
81.33391509184975
 31
0.0
  0
LINE
  5
13A
330
1F
100
AcDbEntity
  8
A-2_蓋
  6
Continuous
 62
     3
370
     9
100
AcDbLine
 10
-367.6500475084458
 20
59.33453534100522
 30
0.0
 11
-297.8503665408573
 21
81.33391509184975
 31
0.0
  0
LINE
  5
13B
330
1F
100
AcDbEntity
  8
A-2_蓋
  6
Continuous
 62
     3
370
     9
100
AcDbLine
 10
-297.0497749947211
 20
59.33453534100522
 30
0.0
 11
-227.2502177470437
 21
81.33391509184975
 31
0.0
  0
LINE
  5
13C
330
1F
100
AcDbEntity
  8
A-2_蓋
  6
Continuous
 62
     3
370
     9
100
AcDbLine
 10
-226.4499973606416
 20
59.33453534100522
 30
0.0
 11
-156.6503163930531
 21
81.33391509184975
 31
0.0
  0
LINE
  5
13D
330
1F
100
AcDbEntity
  8
A-2_蓋
  6
Continuous
 62
     3
370
     9
100
AcDbLine
 10
-155.850096006651
 20
59.33453534100522
 30
0.0
 11
-86.0504150390625
 21
81.33391509184975
 31
0.0
  0
LINE
  5
13E
330
1F
100
AcDbEntity
  8
A-2_蓋
  6
Continuous
 62
     3
370
     9
100
AcDbLine
 10
-85.25019465266041
 20
59.33453534100522
 30
0.0
 11
-15.45063740498307
 21
81.33391509184975
 31
0.0
  0
LINE
  5
13F
330
1F
100
AcDbEntity
  8
A-2_蓋
  6
Continuous
 62
     3
370
     9
100
AcDbLine
 10
-14.64992213893566
 20
59.33453534100522
 30
0.0
 11
55.14988254856434
 21
81.33391509184975
 31
0.0
  0
LINE
  5
140
330
1F
100
AcDbEntity
  8
A-2_蓋
  6
Continuous
 62
     3
370
     9
100
AcDbLine
 10
55.94960805532111
 20
59.33453534100522
 30
0.0
 11
125.7494127428211
 21
81.33391509184975
 31
0.0
  0
LINE
  5
141
330
1F
100
AcDbEntity
  8
A-2_蓋
  6
Continuous
 62
     3
370
     9
100
AcDbLine
 10
126.5496331292232
 20
59.33453534100522
 30
0.0
 11
196.3494378167232
 21
81.33391509184975
 31
0.0
  0
LINE
  5
142
330
1F
100
AcDbEntity
  8
A-2_蓋
  6
Continuous
 62
     3
370
     9
100
AcDbLine
 10
197.1501530827703
 20
59.33453534100522
 30
0.0
 11
266.9497103304477
 21
81.33391509184975
 31
0.0
  0
LINE
  5
143
330
1F
100
AcDbEntity
  8
A-2_蓋
  6
Continuous
 62
     3
370
     9
100
AcDbLine
 10
267.7501781566724
 20
59.33453534100522
 30
0.0
 11
337.5497354043497
 21
81.33391509184975
 31
0.0
  0
LINE
  5
144
330
1F
100
AcDbEntity
  8
A-2_蓋
  6
Continuous
 62
     3
370
     9
100
AcDbLine
 10
338.3494609111065
 20
59.33453534100522
 30
0.0
 11
408.1495130384292
 21
81.33391509184975
 31
0.0
  0
LINE
  5
145
330
1F
100
AcDbEntity
  8
A-2_蓋
  6
Continuous
 62
     3
370
     9
100
AcDbLine
 10
408.9494859850086
 20
59.33453534100522
 30
0.0
 11
478.7495381123313
 21
81.33391509184975
 31
0.0
  0
LINE
  5
146
330
1F
100
AcDbEntity
  8
A-2_蓋
  6
Continuous
 62
     3
370
     9
100
AcDbLine
 10
-1511.250593855574
 20
77.1734619140625
 30
0.0
 11
-1498.049926757812
 21
81.33391509184975
 31
0.0
  0
LINE
  5
147
330
1F
100
AcDbEntity
  8
A-4_寸法
  6
Continuous
 62
     7
370
     9
100
AcDbLine
 10
1292.798099002323
 20
-49.66579952755495
 30
0.0
 11
1124.79808910473
 21
-49.66579952755495
 31
0.0
  0
LINE
  5
148
330
1F
100
AcDbEntity
  8
A-4_寸法
  6
Continuous
 62
     7
370
     9
100
AcDbLine
 10
1292.798099002323
 20
-37.66595788904141
 30
0.0
 11
1204.798105600718
 21
-37.66595788904141
 31
0.0
  0
LINE
  5
149
330
1F
100
AcDbEntity
  8
A-4_寸法
  6
Continuous
 62
     7
370
     9
100
AcDbLine
 10
1292.798099002323
 20
-29.66523866395676
 30
0.0
 11
1204.798105600718
 21
-29.66523866395676
 31
0.0
  0
LINE
  5
14A
330
1F
100
AcDbEntity
  8
A-4_寸法
  6
Continuous
 62
     7
370
     9
100
AcDbLine
 10
1292.798099002323
 20
770.3345551361908
 30
0.0
 11
1204.798105600718
 21
770.3345551361908
 31
0.0
  0
LINE
  5
14B
330
1F
100
AcDbEntity
  8
A-4_寸法
  6
Continuous
 62
     7
370
     9
100
AcDbLine
 10
1292.798099002323
 20
778.3345320418075
 30
0.0
 11
1204.798105600718
 21
778.3345320418075
 31
0.0
  0
LINE
  5
14C
330
1F
100
AcDbEntity
  8
A-4_寸法
  6
Continuous
 62
     7
370
     9
100
AcDbLine
 10
1292.798099002323
 20
790.334373680321
 30
0.0
 11
1124.79808910473
 21
790.334373680321
 31
0.0
  0
LINE
  5
14D
330
1F
100
AcDbEntity
  8
A-4_寸法
  6
Continuous
 62
     7
370
     9
100
AcDbLine
 10
1127.798049514358
 20
-49.66579952755495
 30
0.0
 11
1127.798049514358
 21
790.334373680321
 31
0.0
  0
LINE
  5
14E
330
1F
100
AcDbEntity
  8
A-4_寸法
  6
Continuous
 62
     7
370
     9
100
AcDbLine
 10
1636.474196975296
 20
-49.66579952755495
 30
0.0
 11
1636.474196975296
 21
790.334373680321
 31
0.0
  0
LINE
  5
14F
330
1F
100
AcDbEntity
  8
A-4_寸法
  6
Continuous
 62
     7
370
     9
100
AcDbLine
 10
1427.474150786529
 20
-49.66579952755495
 30
0.0
 11
1639.474157384924
 21
-49.66579952755495
 31
0.0
  0
LINE
  5
150
330
1F
100
AcDbEntity
  8
A-4_寸法
  6
Continuous
 62
     7
370
     9
100
AcDbLine
 10
1451.474328943201
 20
70.3338540566935
 30
0.0
 11
1639.474157384924
 21
70.3338540566935
 31
0.0
  0
LINE
  5
151
330
1F
100
AcDbEntity
  8
A-4_寸法
  6
Continuous
 62
     7
370
     9
100
AcDbLine
 10
1451.474328943201
 20
670.3347200960727
 30
0.0
 11
1639.474157384924
 21
670.3347200960727
 31
0.0
  0
LINE
  5
152
330
1F
100
AcDbEntity
  8
A-4_寸法
  6
Continuous
 62
     7
370
     9
100
AcDbLine
 10
1427.474150786529
 20
790.334373680321
 30
0.0
 11
1639.474157384924
 21
790.334373680321
 31
0.0
  0
LINE
  5
153
330
1F
100
AcDbEntity
  8
A-4_寸法
  6
Continuous
 62
     7
370
     9
100
AcDbLine
 10
1304.474784232475
 20
-190.8660971151815
 30
0.0
 11
1414.475394584038
 21
-190.8660971151815
 31
0.0
  0
LINE
  5
154
330
1F
100
AcDbEntity
  8
A-4_寸法
  6
Continuous
 62
     7
370
     9
100
AcDbLine
 10
1304.474784232475
 20
-64.66584901551926
 30
0.0
 11
1304.474784232475
 21
-273.8661977407094
 31
0.0
  0
LINE
  5
155
330
1F
100
AcDbEntity
  8
A-4_寸法
  6
Continuous
 62
     7
370
     9
100
AcDbLine
 10
1414.475394584038
 20
-44.66528815192135
 30
0.0
 11
1414.475394584038
 21
-193.8660575248099
 31
0.0
  0
LINE
  5
156
330
1F
100
AcDbEntity
  8
A-4_寸法
  6
Continuous
 62
     7
370
     9
100
AcDbLine
 10
1304.474784232475
 20
-270.8661136111697
 30
0.0
 11
1426.474741342906
 21
-270.8661136111697
 31
0.0
  0
LINE
  5
157
330
1F
100
AcDbEntity
  8
A-4_寸法
  6
Continuous
 62
     7
370
     9
100
AcDbLine
 10
1426.474741342906
 20
-40.66628945840364
 30
0.0
 11
1426.474741342906
 21
-273.8661977407094
 31
0.0
  0
LINE
  5
158
330
1F
100
AcDbEntity
  8
A-4_寸法
  6
Continuous
 62
     7
370
     9
100
AcDbLine
 10
1207.798066010346
 20
-107.0880456872888
 30
0.0
 11
1207.798066010346
 21
848.9924580342063
 31
0.0
  0
LINE
  5
159
330
1F
100
AcDbEntity
  8
A-4_寸法
  6
Continuous
 62
     7
370
     9
100
AcDbLine
 10
1531.974173880913
 20
839.2329365498313
 30
0.0
 11
1541.541187183277
 21
862.3299593538852
 31
0.0
  0
LINE
  5
15A
330
1F
100
AcDbEntity
  8
A-4_寸法
  6
Continuous
 62
     7
370
     9
100
AcDbLine
 10
1531.974173880913
 20
839.2329365498313
 30
0.0
 11
1547.193207611909
 21
859.0667229729731
 31
0.0
  0
LINE
  5
15B
330
1F
100
AcDbEntity
  8
A-4_寸法
  6
Continuous
 62
     7
370
     9
100
AcDbLine
 10
1304.474784232475
 20
790.334373680321
 30
0.0
 11
1289.255750501478
 21
810.168160103463
 31
0.0
  0
LINE
  5
15C
330
1F
100
AcDbEntity
  8
A-4_寸法
  6
Continuous
 62
     7
370
     9
100
AcDbLine
 10
1304.474784232475
 20
790.334373680321
 30
0.0
 11
1294.90777093011
 21
813.431396484375
 31
0.0
  0
LINE
  5
15D
330
1F
100
AcDbEntity
  8
A-4_寸法
  6
Continuous
 62
     7
370
     9
100
AcDbLine
 10
-650.8501207506333
 20
721.3342944995779
 30
0.0
 11
-647.5870080896325
 21
746.1203415329394
 31
0.0
  0
LINE
  5
15E
330
1F
100
AcDbEntity
  8
A-4_寸法
  6
Continuous
 62
     7
370
     9
100
AcDbLine
 10
-650.8501207506333
 20
721.3342944995779
 30
0.0
 11
-641.2829837283573
 21
744.4313173036318
 31
0.0
  0
LINE
  5
15F
330
1F
100
AcDbEntity
  8
A-4_寸法
  6
Continuous
 62
     7
370
     9
100
AcDbLine
 10
-763.7499835040117
 20
681.3341625316724
 30
0.0
 11
-754.1828464817356
 21
704.4311853357266
 31
0.0
  0
LINE
  5
160
330
1F
100
AcDbEntity
  8
A-4_寸法
  6
Continuous
 62
     7
370
     9
100
AcDbLine
 10
-835.1423108899916
 20
770.3343076963682
 30
0.0
 11
-831.8791982289906
 21
795.12035472973
 31
0.0
  0
LINE
  5
161
330
1F
100
AcDbEntity
  8
A-4_寸法
  6
Continuous
 62
     7
370
     9
100
AcDbLine
 10
-835.1423108899916
 20
770.3343076963682
 30
0.0
 11
-825.5751738677154
 21
793.4313305004224
 31
0.0
  0
LINE
  5
162
330
1F
100
AcDbEntity
  8
A-4_寸法
  6
Continuous
 62
     7
370
     9
100
AcDbLine
 10
-650.8501207506333
 20
721.3342944995779
 30
0.0
 11
-567.7322387695312
 21
1031.534258868244
 31
0.0
  0
LINE
  5
163
330
1F
100
AcDbEntity
  8
A-4_寸法
  6
Continuous
 62
     7
370
     9
100
AcDbLine
 10
-835.1423108899916
 20
770.3343076963682
 30
0.0
 11
-722.2822859480573
 21
1191.53429186022
 31
0.0
  0
LINE
  5
164
330
1F
100
AcDbEntity
  8
A-4_寸法
  6
Continuous
 62
     7
370
     9
100
AcDbLine
 10
-722.2822859480573
 20
1191.53429186022
 30
0.0
 11
-243.6688397381755
 21
1191.53429186022
 31
0.0
  0
LINE
  5
165
330
1F
100
AcDbEntity
  8
A-4_寸法
  6
Continuous
 62
     7
370
     9
100
AcDbLine
 10
-648.4781626108529
 20
1111.534275364232
 30
0.0
 11
-271.1222880595437
 21
1111.534275364232
 31
0.0
  0
LINE
  5
166
330
1F
100
AcDbEntity
  8
A-4_寸法
  6
Continuous
 62
     7
370
     9
100
AcDbLine
 10
-567.7322387695312
 20
1031.534258868244
 30
0.0
 11
-62.47707057643566
 21
1031.534258868244
 31
0.0
  0
LINE
  5
167
330
1F
100
AcDbEntity
  8
A-4_寸法
  6
Continuous
 62
     7
370
     9
100
AcDbLine
 10
1531.974173880913
 20
839.2329365498313
 30
0.0
 11
1624.736394108953
 21
993.9446856524495
 31
0.0
  0
LINE
  5
168
330
1F
100
AcDbEntity
  8
A-4_寸法
  6
Continuous
 62
     7
370
     9
100
AcDbLine
 10
1624.736394108953
 20
993.9446856524495
 30
0.0
 11
1878.128629117399
 21
993.9446856524495
 31
0.0
  0
LINE
  5
169
330
1F
100
AcDbEntity
  8
A-3_受枠
  6
Continuous
 62
     4
370
     9
100
AcDbLine
 10
-1303.149496542441
 20
727.3344627586573
 30
0.0
 11
-1353.949881888725
 21
727.3344627586573
 31
0.0
  0
LINE
  5
16A
330
1F
100
AcDbEntity
  8
A-3_受枠
  6
Continuous
 62
     4
370
     9
100
AcDbLine
 10
-1312.349556587838
 20
733.1342047614021
 30
0.0
 11
-1344.749574403505
 21
733.1342047614021
 31
0.0
  0
LINE
  5
16B
330
1F
100
AcDbEntity
  8
A-3_受枠
  6
Continuous
 62
     4
370
     9
100
AcDbLine
 10
-1351.549591889252
 20
733.1342047614021
 30
0.0
 11
-1353.949881888725
 21
733.1342047614021
 31
0.0
  0
LINE
  5
16C
330
1F
100
AcDbEntity
  8
A-3_受枠
  6
Continuous
 62
     4
370
     9
100
AcDbLine
 10
-1305.54953910209
 20
733.1342047614021
 30
0.0
 11
-1303.149496542441
 21
733.1342047614021
 31
0.0
  0
LINE
  5
16D
330
1F
100
AcDbEntity
  8
A-3_受枠
  6
Continuous
 62
     4
370
     9
100
AcDbLine
 10
-1350.549563846073
 20
734.1343565244932
 30
0.0
 11
-1350.549563846073
 21
761.3341790276606
 31
0.0
  0
LINE
  5
16E
330
1F
100
AcDbEntity
  8
A-3_受枠
  6
Continuous
 62
     4
370
     9
100
AcDbLine
 10
-1344.749574403505
 20
730.2342100401182
 30
0.0
 11
-1344.749574403505
 21
761.3341790276606
 31
0.0
  0
LINE
  5
16F
330
1F
100
AcDbEntity
  8
A-3_受枠
  6
Continuous
 62
     4
370
     9
100
AcDbLine
 10
-1312.349556587838
 20
730.2342100401182
 30
0.0
 11
-1312.349556587838
 21
761.3341790276606
 31
0.0
  0
LINE
  5
170
330
1F
100
AcDbEntity
  8
A-3_受枠
  6
Continuous
 62
     4
370
     9
100
AcDbLine
 10
-1306.549443425359
 20
734.1343565244932
 30
0.0
 11
-1306.549443425359
 21
761.3341790276606
 31
0.0
  0
LINE
  5
171
330
1F
100
AcDbEntity
  8
A-3_受枠
  6
Continuous
 62
     4
370
     9
100
AcDbLine
 10
-1345.749726166596
 20
749.3340899493245
 30
0.0
 11
-1349.549412082981
 21
749.3340899493245
 31
0.0
  0
LINE
  5
172
330
1F
100
AcDbEntity
  8
A-3_受枠
  6
Continuous
 62
     4
370
     9
100
AcDbLine
 10
-1311.349775984481
 20
749.3340899493245
 30
0.0
 11
-1307.549347748627
 21
749.3340899493245
 31
0.0
  0
LINE
  5
173
330
1F
100
AcDbEntity
  8
A-3_受枠
  6
Continuous
 62
     4
370
     9
100
AcDbLine
 10
-1350.549563846073
 20
770.3340602565459
 30
0.0
 11
-1350.549563846073
 21
775.4523529877533
 31
0.0
  0
LINE
  5
174
330
1F
100
AcDbEntity
  8
A-3_受枠
  6
Continuous
 62
     4
370
     9
100
AcDbLine
 10
-1344.749574403505
 20
770.3340602565459
 30
0.0
 11
-1344.749574403505
 21
775.4523529877533
 31
0.0
  0
LINE
  5
175
330
1F
100
AcDbEntity
  8
A-3_受枠
  6
Continuous
 62
     4
370
     9
100
AcDbLine
 10
-1312.349556587838
 20
770.3340602565459
 30
0.0
 11
-1312.349556587838
 21
775.4523529877533
 31
0.0
  0
LINE
  5
176
330
1F
100
AcDbEntity
  8
A-3_受枠
  6
Continuous
 62
     4
370
     9
100
AcDbLine
 10
-1306.549443425359
 20
770.3340602565459
 30
0.0
 11
-1306.549443425359
 21
775.4523529877533
 31
0.0
  0
LINE
  5
177
330
1F
100
AcDbEntity
  8
A-3_受枠
  6
Continuous
 62
     4
370
     9
100
AcDbLine
 10
320.25146484375
 20
727.3344627586573
 30
0.0
 11
269.4510794974664
 21
727.3344627586573
 31
0.0
  0
LINE
  5
178
330
1F
100
AcDbEntity
  8
A-3_受枠
  6
Continuous
 62
     4
370
     9
100
AcDbLine
 10
311.0511573585305
 20
733.1342047614021
 30
0.0
 11
278.6513869826859
 21
733.1342047614021
 31
0.0
  0
LINE
  5
179
330
1F
100
AcDbEntity
  8
A-3_受枠
  6
Continuous
 62
     4
370
     9
100
AcDbLine
 10
271.8509983372044
 20
733.1342047614021
 30
0.0
 11
269.4510794974664
 21
733.1342047614021
 31
0.0
  0
LINE
  5
17A
330
1F
100
AcDbEntity
  8
A-3_受枠
  6
Continuous
 62
     4
370
     9
100
AcDbLine
 10
317.8510511243667
 20
733.1342047614021
 30
0.0
 11
320.25146484375
 21
733.1342047614021
 31
0.0
  0
LINE
  5
17B
330
1F
100
AcDbEntity
  8
A-3_受枠
  6
Continuous
 62
     4
370
     9
100
AcDbLine
 10
272.8513975401185
 20
734.1343565244932
 30
0.0
 11
272.8513975401185
 21
761.3341790276606
 31
0.0
  0
LINE
  5
17C
330
1F
100
AcDbEntity
  8
A-3_受枠
  6
Continuous
 62
     4
370
     9
100
AcDbLine
 10
278.6513869826859
 20
730.2342100401182
 30
0.0
 11
278.6513869826859
 21
761.3341790276606
 31
0.0
  0
LINE
  5
17D
330
1F
100
AcDbEntity
  8
A-3_受枠
  6
Continuous
 62
     4
370
     9
100
AcDbLine
 10
311.0511573585305
 20
730.2342100401182
 30
0.0
 11
311.0511573585305
 21
761.3341790276606
 31
0.0
  0
LINE
  5
17E
330
1F
100
AcDbEntity
  8
A-3_受枠
  6
Continuous
 62
     4
370
     9
100
AcDbLine
 10
316.8511468010982
 20
734.1343565244932
 30
0.0
 11
316.8511468010982
 21
761.3341790276606
 31
0.0
  0
LINE
  5
17F
330
1F
100
AcDbEntity
  8
A-3_受枠
  6
Continuous
 62
     4
370
     9
100
AcDbLine
 10
277.6512352195948
 20
749.3340899493245
 30
0.0
 11
273.8508069837417
 21
749.3340899493245
 31
0.0
  0
LINE
  5
180
330
1F
100
AcDbEntity
  8
A-3_受枠
  6
Continuous
 62
     4
370
     9
100
AcDbLine
 10
312.0513091216216
 20
749.3340899493245
 30
0.0
 11
315.8509950380068
 21
749.3340899493245
 31
0.0
  0
LINE
  5
181
330
1F
100
AcDbEntity
  8
A-3_受枠
  6
Continuous
 62
     4
370
     9
100
AcDbLine
 10
272.8513975401185
 20
770.3340602565459
 30
0.0
 11
272.8513975401185
 21
775.4523529877533
 31
0.0
  0
LINE
  5
182
330
1F
100
AcDbEntity
  8
A-3_受枠
  6
Continuous
 62
     4
370
     9
100
AcDbLine
 10
278.6513869826859
 20
770.3340602565459
 30
0.0
 11
278.6513869826859
 21
775.4523529877533
 31
0.0
  0
LINE
  5
183
330
1F
100
AcDbEntity
  8
A-3_受枠
  6
Continuous
 62
     4
370
     9
100
AcDbLine
 10
311.0511573585305
 20
770.3340602565459
 30
0.0
 11
311.0511573585305
 21
775.4523529877533
 31
0.0
  0
LINE
  5
184
330
1F
100
AcDbEntity
  8
A-3_受枠
  6
Continuous
 62
     4
370
     9
100
AcDbLine
 10
316.8511468010982
 20
770.3340602565459
 30
0.0
 11
316.8511468010982
 21
775.4523529877533
 31
0.0
  0
LINE
  5
185
330
1F
100
AcDbEntity
  8
A-3_受枠
  6
Continuous
 62
     4
370
     9
100
AcDbLine
 10
-1303.149496542441
 20
13.33423511402032
 30
0.0
 11
-1353.949881888725
 21
13.33423511402032
 31
0.0
  0
LINE
  5
186
330
1F
100
AcDbEntity
  8
A-3_受枠
  6
Continuous
 62
     4
370
     9
100
AcDbLine
 10
-1312.349556587838
 20
7.534493111275538
 30
0.0
 11
-1344.749574403505
 21
7.534493111275538
 31
0.0
  0
LINE
  5
187
330
1F
100
AcDbEntity
  8
A-3_受枠
  6
Continuous
 62
     4
370
     9
100
AcDbLine
 10
-1351.549591889252
 20
7.534493111275538
 30
0.0
 11
-1353.949881888725
 21
7.534493111275538
 31
0.0
  0
LINE
  5
188
330
1F
100
AcDbEntity
  8
A-3_受枠
  6
Continuous
 62
     4
370
     9
100
AcDbLine
 10
-1305.54953910209
 20
7.534493111275538
 30
0.0
 11
-1303.149496542441
 21
7.534493111275538
 31
0.0
  0
LINE
  5
189
330
1F
100
AcDbEntity
  8
A-3_受枠
  6
Continuous
 62
     4
370
     9
100
AcDbLine
 10
-1350.549563846073
 20
6.534341348184114
 30
0.0
 11
-1350.549563846073
 21
-20.66548115498307
 31
0.0
  0
LINE
  5
18A
330
1F
100
AcDbEntity
  8
A-3_受枠
  6
Continuous
 62
     4
370
     9
100
AcDbLine
 10
-1344.749574403505
 20
10.43448783255911
 30
0.0
 11
-1344.749574403505
 21
-20.66548115498307
 31
0.0
  0
LINE
  5
18B
330
1F
100
AcDbEntity
  8
A-3_受枠
  6
Continuous
 62
     4
370
     9
100
AcDbLine
 10
-1312.349556587838
 20
10.43448783255911
 30
0.0
 11
-1312.349556587838
 21
-20.66548115498307
 31
0.0
  0
LINE
  5
18C
330
1F
100
AcDbEntity
  8
A-3_受枠
  6
Continuous
 62
     4
370
     9
100
AcDbLine
 10
-1306.549443425359
 20
6.534341348184114
 30
0.0
 11
-1306.549443425359
 21
-20.66548115498307
 31
0.0
  0
LINE
  5
18D
330
1F
100
AcDbEntity
  8
A-3_受枠
  6
Continuous
 62
     4
370
     9
100
AcDbLine
 10
-1345.749726166596
 20
-8.665392076646867
 30
0.0
 11
-1349.549412082981
 21
-8.665392076646867
 31
0.0
  0
LINE
  5
18E
330
1F
100
AcDbEntity
  8
A-3_受枠
  6
Continuous
 62
     4
370
     9
100
AcDbLine
 10
-1311.349775984481
 20
-8.665392076646867
 30
0.0
 11
-1307.549347748627
 21
-8.665392076646867
 31
0.0
  0
LINE
  5
18F
330
1F
100
AcDbEntity
  8
A-3_受枠
  6
Continuous
 62
     4
370
     9
100
AcDbLine
 10
-1350.549563846073
 20
-29.66536238386823
 30
0.0
 11
-1350.549563846073
 21
-34.78365511507604
 31
0.0
  0
LINE
  5
190
330
1F
100
AcDbEntity
  8
A-3_受枠
  6
Continuous
 62
     4
370
     9
100
AcDbLine
 10
-1344.749574403505
 20
-29.66536238386823
 30
0.0
 11
-1344.749574403505
 21
-34.78365511507604
 31
0.0
  0
LINE
  5
191
330
1F
100
AcDbEntity
  8
A-3_受枠
  6
Continuous
 62
     4
370
     9
100
AcDbLine
 10
-1312.349556587838
 20
-29.66536238386823
 30
0.0
 11
-1312.349556587838
 21
-34.78365511507604
 31
0.0
  0
LINE
  5
192
330
1F
100
AcDbEntity
  8
A-3_受枠
  6
Continuous
 62
     4
370
     9
100
AcDbLine
 10
-1306.549443425359
 20
-29.66536238386823
 30
0.0
 11
-1306.549443425359
 21
-34.78365511507604
 31
0.0
  0
LINE
  5
193
330
1F
100
AcDbEntity
  8
A-3_受枠
  6
Continuous
 62
     4
370
     9
100
AcDbLine
 10
320.25146484375
 20
13.33423511402032
 30
0.0
 11
269.4510794974664
 21
13.33423511402032
 31
0.0
  0
LINE
  5
194
330
1F
100
AcDbEntity
  8
A-3_受枠
  6
Continuous
 62
     4
370
     9
100
AcDbLine
 10
311.0511573585305
 20
7.534493111275538
 30
0.0
 11
278.6513869826859
 21
7.534493111275538
 31
0.0
  0
LINE
  5
195
330
1F
100
AcDbEntity
  8
A-3_受枠
  6
Continuous
 62
     4
370
     9
100
AcDbLine
 10
271.8509983372044
 20
7.534493111275538
 30
0.0
 11
269.4510794974664
 21
7.534493111275538
 31
0.0
  0
LINE
  5
196
330
1F
100
AcDbEntity
  8
A-3_受枠
  6
Continuous
 62
     4
370
     9
100
AcDbLine
 10
317.8510511243667
 20
7.534493111275538
 30
0.0
 11
320.25146484375
 21
7.534493111275538
 31
0.0
  0
LINE
  5
197
330
1F
100
AcDbEntity
  8
A-3_受枠
  6
Continuous
 62
     4
370
     9
100
AcDbLine
 10
272.8513975401185
 20
6.534341348184114
 30
0.0
 11
272.8513975401185
 21
-20.66548115498307
 31
0.0
  0
LINE
  5
198
330
1F
100
AcDbEntity
  8
A-3_受枠
  6
Continuous
 62
     4
370
     9
100
AcDbLine
 10
278.6513869826859
 20
10.43448783255911
 30
0.0
 11
278.6513869826859
 21
-20.66548115498307
 31
0.0
  0
LINE
  5
199
330
1F
100
AcDbEntity
  8
A-3_受枠
  6
Continuous
 62
     4
370
     9
100
AcDbLine
 10
311.0511573585305
 20
10.43448783255911
 30
0.0
 11
311.0511573585305
 21
-20.66548115498307
 31
0.0
  0
LINE
  5
19A
330
1F
100
AcDbEntity
  8
A-3_受枠
  6
Continuous
 62
     4
370
     9
100
AcDbLine
 10
316.8511468010982
 20
6.534341348184114
 30
0.0
 11
316.8511468010982
 21
-20.66548115498307
 31
0.0
  0
LINE
  5
19B
330
1F
100
AcDbEntity
  8
A-3_受枠
  6
Continuous
 62
     4
370
     9
100
AcDbLine
 10
277.6512352195948
 20
-8.665392076646867
 30
0.0
 11
273.8508069837417
 21
-8.665392076646867
 31
0.0
  0
LINE
  5
19C
330
1F
100
AcDbEntity
  8
A-3_受枠
  6
Continuous
 62
     4
370
     9
100
AcDbLine
 10
312.0513091216216
 20
-8.665392076646867
 30
0.0
 11
315.8509950380068
 21
-8.665392076646867
 31
0.0
  0
LINE
  5
19D
330
1F
100
AcDbEntity
  8
A-3_受枠
  6
Continuous
 62
     4
370
     9
100
AcDbLine
 10
272.8513975401185
 20
-29.66536238386823
 30
0.0
 11
272.8513975401185
 21
-34.78365511507604
 31
0.0
  0
LINE
  5
19E
330
1F
100
AcDbEntity
  8
A-3_受枠
  6
Continuous
 62
     4
370
     9
100
AcDbLine
 10
278.6513869826859
 20
-29.66536238386823
 30
0.0
 11
278.6513869826859
 21
-34.78365511507604
 31
0.0
  0
LINE
  5
19F
330
1F
100
AcDbEntity
  8
A-3_受枠
  6
Continuous
 62
     4
370
     9
100
AcDbLine
 10
311.0511573585305
 20
-29.66536238386823
 30
0.0
 11
311.0511573585305
 21
-34.78365511507604
 31
0.0
  0
LINE
  5
1A0
330
1F
100
AcDbEntity
  8
A-3_受枠
  6
Continuous
 62
     4
370
     9
100
AcDbLine
 10
316.8511468010982
 20
-29.66536238386823
 30
0.0
 11
316.8511468010982
 21
-34.78365511507604
 31
0.0
  0
LINE
  5
1A1
330
1F
100
AcDbEntity
  8
A-4_寸法
  6
Continuous
 62
     7
370
     9
100
AcDbLine
 10
294.8512721706084
 20
733.1342047614021
 30
0.0
 11
298.1145085515203
 21
757.9202517947635
 31
0.0
  0
LINE
  5
1A2
330
1F
100
AcDbEntity
  8
A-4_寸法
  6
Continuous
 62
     7
370
     9
100
AcDbLine
 10
294.8512721706084
 20
733.1342047614021
 30
0.0
 11
304.4182854729732
 21
756.2312275654563
 31
0.0
  0
LINE
  5
1A3
330
1F
100
AcDbEntity
  8
A-4_寸法
  6
Continuous
 62
     7
370
     9
100
AcDbLine
 10
294.8512721706084
 20
733.1342047614021
 30
0.0
 11
374.8072443781675
 21
1031.534258868244
 31
0.0
  0
LINE
  5
1A4
330
1F
100
AcDbEntity
  8
A-4_寸法
  6
Continuous
 62
     7
370
     9
100
AcDbLine
 10
374.8072443781675
 20
1031.534258868244
 30
0.0
 11
773.3382766311234
 21
1031.534258868244
 31
0.0
  0
LINE
  5
1A5
330
1F
100
AcDbEntity
  8
A-2_蓋
  6
JWW_CENTER1
 62
     3
370
     9
100
AcDbLine
 10
1268.96593248522
 20
370.333977776605
 30
0.0
 11
1467.59874498522
 21
370.333977776605
 31
0.0
  0
LINE
  5
1A6
330
1F
100
AcDbEntity
  8
A-1_ピット
  6
Continuous
 62
     2
370
     9
100
AcDbLine
 10
-1530.250631796347
 20
790.3341262404984
 30
0.0
 11
-1530.250631796347
 21
-49.66579952755495
 31
0.0
  0
LINE
  5
1A7
330
1F
100
AcDbEntity
  8
A-1_ピット
  6
Continuous
 62
     2
370
     9
100
AcDbLine
 10
-1530.250508076436
 20
790.3341262404984
 30
0.0
 11
497.7501946526604
 21
790.3341262404984
 31
0.0
  0
LINE
  5
1A8
330
1F
100
AcDbEntity
  8
A-1_ピット
  6
Continuous
 62
     2
370
     9
100
AcDbLine
 10
-1518.250666437923
 20
778.3340371621623
 30
0.0
 11
485.7501055743245
 21
778.3340371621623
 31
0.0
  0
LINE
  5
1A9
330
1F
100
AcDbEntity
  8
A-1_ピット
  6
Continuous
 62
     2
370
     9
100
AcDbLine
 10
-1530.250508076436
 20
-49.66579952755495
 30
0.0
 11
497.7501946526604
 21
-49.66579952755495
 31
0.0
  0
LINE
  5
1AA
330
1F
100
AcDbEntity
  8
A-1_ピット
  6
Continuous
 62
     2
370
     9
100
AcDbLine
 10
-1518.250666437923
 20
-37.66546300939609
 30
0.0
 11
485.7501055743245
 21
-37.66546300939609
 31
0.0
  0
LINE
  5
1AB
330
1F
100
AcDbEntity
  8
A-1_ピット
  6
Continuous
 62
     2
370
     9
100
AcDbLine
 10
497.7501946526604
 20
790.3341262404984
 30
0.0
 11
497.7501946526604
 21
-49.66579952755495
 31
0.0
  0
LINE
  5
1AC
330
1F
100
AcDbEntity
  8
A-1_ピット
  6
JWW_DASHED3
 62
     2
370
     9
100
AcDbLine
 10
485.7501055743245
 20
670.3347200960727
 30
0.0
 11
-1518.250666437923
 21
670.3347200960727
 31
0.0
  0
LINE
  5
1AD
330
1F
100
AcDbEntity
  8
A-1_ピット
  6
JWW_DASHED3
 62
     2
370
     9
100
AcDbLine
 10
-1518.250666437923
 20
70.33373033678231
 30
0.0
 11
485.7501055743245
 21
70.33373033678231
 31
0.0
  0
LINE
  5
1AE
330
1F
100
AcDbEntity
  8
A-4_寸法
  6
Continuous
 62
     7
370
     9
100
AcDbLine
 10
-1530.250508076436
 20
931.5341763883026
 30
0.0
 11
497.7501946526604
 21
931.5341763883026
 31
0.0
  0
LINE
  5
1AF
330
1F
100
AcDbEntity
  8
A-4_寸法
  6
Continuous
 62
     7
370
     9
100
AcDbLine
 10
-1530.250508076436
 20
805.334175728463
 30
0.0
 11
-1530.250508076436
 21
934.5341367979311
 31
0.0
  0
LINE
  5
1B0
330
1F
100
AcDbEntity
  8
A-4_寸法
  6
Continuous
 62
     7
370
     9
100
AcDbLine
 10
-1030.250466836465
 20
846.534143396326
 30
0.0
 11
-1030.250466836465
 21
934.5341367979311
 31
0.0
  0
LINE
  5
1B1
330
1F
100
AcDbEntity
  8
A-4_寸法
  6
Continuous
 62
     7
370
     9
100
AcDbLine
 10
-2.249722867398418
 20
846.534143396326
 30
0.0
 11
-2.249722867398418
 21
934.5341367979311
 31
0.0
  0
LINE
  5
1B2
330
1F
100
AcDbEntity
  8
A-4_寸法
  6
Continuous
 62
     7
370
     9
100
AcDbLine
 10
497.7501946526604
 20
805.334175728463
 30
0.0
 11
497.7501946526604
 21
934.5341367979311
 31
0.0
  0
LINE
  5
1B3
330
1F
100
AcDbEntity
  8
A-4_寸法
  6
Continuous
 62
     7
370
     9
100
AcDbLine
 10
497.7501946526604
 20
555.7515242293075
 30
0.0
 11
560.6063430373734
 21
790.3341262404984
 31
0.0
  0
LINE
  5
1B4
330
1F
100
AcDbEntity
  8
A-4_寸法
  6
Continuous
 62
     7
370
     9
100
AcDbLine
 10
497.7501946526604
 20
555.7515242293075
 30
0.0
 11
501.0134310335729
 21
580.537571262669
 31
0.0
  0
LINE
  5
1B5
330
1F
100
AcDbEntity
  8
A-4_寸法
  6
Continuous
 62
     7
370
     9
100
AcDbLine
 10
497.7501946526604
 20
555.7515242293075
 30
0.0
 11
507.3172079550255
 21
578.8485470333617
 31
0.0
  0
LINE
  5
1B6
330
1F
100
AcDbEntity
  8
A-4_寸法
  6
Continuous
 62
     7
370
     9
100
AcDbLine
 10
560.6063430373734
 20
790.3341262404984
 30
0.0
 11
851.1321196684969
 21
790.3341262404984
 31
0.0
  0
LINE
  5
1B7
330
1F
100
AcDbEntity
  8
A-4_寸法
  6
Continuous
 62
     7
370
     9
100
AcDbLine
 10
1304.474784232475
 20
790.334373680321
 30
0.0
 11
1165.217879011825
 21
1031.534258868244
 31
0.0
  0
LINE
  5
1B8
330
1F
100
AcDbEntity
  8
A-4_寸法
  6
Continuous
 62
     7
370
     9
100
AcDbLine
 10
874.3595432590797
 20
1031.534258868244
 30
0.0
 11
1165.217879011825
 21
1031.534258868244
 31
0.0
  0
LINE
  5
1B9
330
1F
100
AcDbEntity
  8
A-3_受枠
  6
Continuous
 62
     4
370
     9
100
AcDbLine
 10
1342.37340978674
 20
-31.90234210040103
 30
0.0
 11
1343.021949561867
 21
-37.66620532886407
 31
0.0
  0
LINE
  5
1BA
330
1F
100
AcDbEntity
  8
A-3_受枠
  6
Continuous
 62
     4
370
     9
100
AcDbLine
 10
1362.436078045819
 20
-35.48131169499584
 30
0.0
 11
1343.021949561867
 21
-37.66620532886407
 31
0.0
  0
LINE
  5
1BB
330
1F
100
AcDbEntity
  8
A-3_受枠
  6
Continuous
 62
     4
370
     9
100
AcDbLine
 10
1362.248023780617
 20
-29.66598098342473
 30
0.0
 11
1342.37340978674
 21
-31.90234210040103
 31
0.0
  0
LINE
  5
1BC
330
1F
100
AcDbEntity
  8
A-3_受枠
  6
Continuous
 62
     4
370
     9
100
AcDbLine
 10
1403.426959063556
 20
-31.61654910525755
 30
0.0
 11
1362.248023780617
 21
-29.66598098342473
 31
0.0
  0
LINE
  5
1BD
330
1F
100
AcDbEntity
  8
A-3_受枠
  6
Continuous
 62
     4
370
     9
100
AcDbLine
 10
1403.152795740076
 20
-37.40985767261407
 30
0.0
 11
1362.436078045819
 21
-35.48131169499584
 31
0.0
  0
LINE
  5
1BE
330
1F
100
AcDbEntity
  8
A-3_受枠
  6
Continuous
 62
     4
370
     9
100
AcDbLine
 10
1410.27460871516
 20
-19.72285915065441
 30
0.0
 11
1410.27460871516
 21
-30.61763454127941
 31
0.0
  0
LINE
  5
1BF
330
1F
100
AcDbEntity
  8
A-3_受枠
  6
Continuous
 62
     4
370
     9
100
AcDbLine
 10
1349.074327623522
 20
7.534121951541408
 30
0.0
 11
1407.374366554054
 21
7.534121951541408
 31
0.0
  0
LINE
  5
1C0
330
1F
100
AcDbEntity
  8
A-3_受枠
  6
Continuous
 62
     4
370
     9
100
AcDbLine
 10
1349.074327623522
 20
13.33386395428647
 30
0.0
 11
1407.374366554054
 21
13.33386395428647
 31
0.0
  0
LINE
  5
1C1
330
1F
100
AcDbEntity
  8
A-3_受枠
  6
Continuous
 62
     4
370
     9
100
AcDbLine
 10
1342.274433857686
 20
-4.317503233213529
 30
0.0
 11
1342.274433857686
 21
6.533970188450269
 31
0.0
  0
LINE
  5
1C2
330
1F
100
AcDbEntity
  8
A-3_受枠
  6
Continuous
 62
     4
370
     9
100
AcDbLine
 10
1348.074423300254
 20
-4.317503233213529
 30
0.0
 11
1348.074423300254
 21
6.533970188450269
 31
0.0
  0
LINE
  5
1C3
330
1F
100
AcDbEntity
  8
A-3_受枠
  6
Continuous
 62
     4
370
     9
100
AcDbLine
 10
1348.655164563978
 20
-5.225359942461978
 30
0.0
 11
1369.365630278716
 21
-14.79534252269843
 31
0.0
  0
LINE
  5
1C4
330
1F
100
AcDbEntity
  8
A-3_受枠
  6
Continuous
 62
     4
370
     9
100
AcDbLine
 10
1403.099843618032
 20
-12.93311041754635
 30
0.0
 11
1369.365630278716
 21
-14.79534252269843
 31
0.0
  0
LINE
  5
1C5
330
1F
100
AcDbEntity
  8
A-3_受枠
  6
Continuous
 62
     4
370
     9
100
AcDbLine
 10
1346.222088788007
 20
-10.49013704866979
 30
0.0
 11
1368.243490683066
 21
-20.66609975453957
 31
0.0
  0
LINE
  5
1C6
330
1F
100
AcDbEntity
  8
A-3_受枠
  6
Continuous
 62
     4
370
     9
100
AcDbLine
 10
1403.419288429054
 20
-18.72419202649894
 30
0.0
 11
1368.243490683066
 21
-20.66609975453957
 31
0.0
  0
LINE
  5
1C7
330
1F
100
AcDbEntity
  8
A-3_受枠
  6
Continuous
 62
     4
370
     9
100
AcDbLine
 10
1404.474619272593
 20
-30.61763454127941
 30
0.0
 11
1404.474619272593
 21
-19.72285915065441
 31
0.0
  0
LINE
  5
1C8
330
1F
100
AcDbEntity
  8
A-2_蓋
  6
Continuous
 62
     3
370
     9
100
AcDbLine
 10
-1497.24970637141
 20
-20.66609975453957
 30
0.0
 11
-1497.24970637141
 21
59.33453534100522
 31
0.0
  0
LINE
  5
1C9
330
1F
100
AcDbEntity
  8
A-2_蓋
  6
Continuous
 62
     3
370
     9
100
AcDbLine
 10
-1370.84965061497
 20
59.33453534100522
 30
0.0
 11
-1370.84965061497
 21
-20.66609975453957
 31
0.0
  0
LINE
  5
1CA
330
1F
100
AcDbEntity
  8
A-2_蓋
  6
Continuous
 62
     3
370
     9
100
AcDbLine
 10
-1441.450046848606
 20
59.33453534100522
 30
0.0
 11
-1441.450046848606
 21
-20.66609975453957
 31
0.0
  0
LINE
  5
1CB
330
1F
100
AcDbEntity
  8
A-2_蓋
  6
Continuous
 62
     3
370
     9
100
AcDbLine
 10
-1427.44990168391
 20
59.33453534100522
 30
0.0
 11
-1427.44990168391
 21
-20.66609975453957
 31
0.0
  0
LINE
  5
1CC
330
1F
100
AcDbEntity
  8
A-2_蓋
  6
Continuous
 62
     3
370
     9
100
AcDbLine
 10
-1159.049699113176
 20
59.33453534100522
 30
0.0
 11
-1159.049699113176
 21
-20.66609975453957
 31
0.0
  0
LINE
  5
1CD
330
1F
100
AcDbEntity
  8
A-2_蓋
  6
Continuous
 62
     3
370
     9
100
AcDbLine
 10
-1229.6499716269
 20
59.33453534100522
 30
0.0
 11
-1229.6499716269
 21
-20.66609975453957
 31
0.0
  0
LINE
  5
1CE
330
1F
100
AcDbEntity
  8
A-2_蓋
  6
Continuous
 62
     3
370
     9
100
AcDbLine
 10
-1215.650073902027
 20
59.33453534100522
 30
0.0
 11
-1215.650073902027
 21
-20.66609975453957
 31
0.0
  0
LINE
  5
1CF
330
1F
100
AcDbEntity
  8
A-2_蓋
  6
Continuous
 62
     3
370
     9
100
AcDbLine
 10
-1300.249254381334
 20
59.33453534100522
 30
0.0
 11
-1300.249254381334
 21
-20.66609975453957
 31
0.0
  0
LINE
  5
1D0
330
1F
100
AcDbEntity
  8
A-2_蓋
  6
Continuous
 62
     3
370
     9
100
AcDbLine
 10
-1286.249356656461
 20
59.33453534100522
 30
0.0
 11
-1286.249356656461
 21
-20.66609975453957
 31
0.0
  0
LINE
  5
1D1
330
1F
100
AcDbEntity
  8
A-2_蓋
  6
Continuous
 62
     3
370
     9
100
AcDbLine
 10
-1356.849629170186
 20
59.33453534100522
 30
0.0
 11
-1356.849629170186
 21
-20.66609975453957
 31
0.0
  0
LINE
  5
1D2
330
1F
100
AcDbEntity
  8
A-2_蓋
  6
Continuous
 62
     3
370
     9
100
AcDbLine
 10
-947.2495001715582
 20
59.33453534100522
 30
0.0
 11
-947.2495001715582
 21
-20.66609975453957
 31
0.0
  0
LINE
  5
1D3
330
1F
100
AcDbEntity
  8
A-2_蓋
  6
Continuous
 62
     3
370
     9
100
AcDbLine
 10
-933.2497261665962
 20
59.33453534100522
 30
0.0
 11
-933.2497261665962
 21
-20.66609975453957
 31
0.0
  0
LINE
  5
1D4
330
1F
100
AcDbEntity
  8
A-2_蓋
  6
Continuous
 62
     3
370
     9
100
AcDbLine
 10
-1017.849896405194
 20
59.33453534100522
 30
0.0
 11
-1017.849896405194
 21
-20.66609975453957
 31
0.0
  0
LINE
  5
1D5
330
1F
100
AcDbEntity
  8
A-2_蓋
  6
Continuous
 62
     3
370
     9
100
AcDbLine
 10
-1003.849998680321
 20
59.33453534100522
 30
0.0
 11
-1003.849998680321
 21
-20.66609975453957
 31
0.0
  0
LINE
  5
1D6
330
1F
100
AcDbEntity
  8
A-2_蓋
  6
Continuous
 62
     3
370
     9
100
AcDbLine
 10
-1088.44930287954
 20
59.33453534100522
 30
0.0
 11
-1088.44930287954
 21
-20.66609975453957
 31
0.0
  0
LINE
  5
1D7
330
1F
100
AcDbEntity
  8
A-2_蓋
  6
Continuous
 62
     3
370
     9
100
AcDbLine
 10
-1074.449281434755
 20
59.33453534100522
 30
0.0
 11
-1074.449281434755
 21
-20.66609975453957
 31
0.0
  0
LINE
  5
1D8
330
1F
100
AcDbEntity
  8
A-2_蓋
  6
Continuous
 62
     3
370
     9
100
AcDbLine
 10
-1145.049677668391
 20
59.33453534100522
 30
0.0
 11
-1145.049677668391
 21
-20.66609975453957
 31
0.0
  0
LINE
  5
1D9
330
1F
100
AcDbEntity
  8
A-2_蓋
  6
Continuous
 62
     3
370
     9
100
AcDbLine
 10
-664.8501421954179
 20
59.33453534100522
 30
0.0
 11
-664.8501421954179
 21
-20.66609975453957
 31
0.0
  0
LINE
  5
1DA
330
1F
100
AcDbEntity
  8
A-2_蓋
  6
Continuous
 62
     3
370
     9
100
AcDbLine
 10
-650.8502444705448
 20
59.33453534100522
 30
0.0
 11
-650.8502444705448
 21
-20.66609975453957
 31
0.0
  0
LINE
  5
1DB
330
1F
100
AcDbEntity
  8
A-2_蓋
  6
Continuous
 62
     3
370
     9
100
AcDbLine
 10
-735.4494249498521
 20
59.33453534100522
 30
0.0
 11
-735.4494249498521
 21
-20.66609975453957
 31
0.0
  0
LINE
  5
1DC
330
1F
100
AcDbEntity
  8
A-2_蓋
  6
Continuous
 62
     3
370
     9
100
AcDbLine
 10
-721.4496509448901
 20
59.33453534100522
 30
0.0
 11
-721.4496509448901
 21
-20.66609975453957
 31
0.0
  0
LINE
  5
1DD
330
1F
100
AcDbEntity
  8
A-2_蓋
  6
Continuous
 62
     3
370
     9
100
AcDbLine
 10
-806.0499449033995
 20
59.33453534100522
 30
0.0
 11
-806.0499449033995
 21
-20.66609975453957
 31
0.0
  0
LINE
  5
1DE
330
1F
100
AcDbEntity
  8
A-2_蓋
  6
Continuous
 62
     3
370
     9
100
AcDbLine
 10
-792.0497997387033
 20
59.33453534100522
 30
0.0
 11
-792.0497997387033
 21
-20.66609975453957
 31
0.0
  0
LINE
  5
1DF
330
1F
100
AcDbEntity
  8
A-2_蓋
  6
Continuous
 62
     3
370
     9
100
AcDbLine
 10
-876.6493513777449
 20
59.33453534100522
 30
0.0
 11
-876.6493513777449
 21
-20.66609975453957
 31
0.0
  0
LINE
  5
1E0
330
1F
100
AcDbEntity
  8
A-2_蓋
  6
Continuous
 62
     3
370
     9
100
AcDbLine
 10
-862.649206213049
 20
59.33453534100522
 30
0.0
 11
-862.649206213049
 21
-20.66609975453957
 31
0.0
  0
LINE
  5
1E1
330
1F
100
AcDbEntity
  8
A-2_蓋
  6
Continuous
 62
     3
370
     9
100
AcDbLine
 10
-382.4497944599872
 20
59.33453534100522
 30
0.0
 11
-382.4497944599872
 21
-20.66609975453957
 31
0.0
  0
LINE
  5
1E2
330
1F
100
AcDbEntity
  8
A-2_蓋
  6
Continuous
 62
     3
370
     9
100
AcDbLine
 10
-368.4498967351138
 20
59.33453534100522
 30
0.0
 11
-368.4498967351138
 21
-20.66609975453957
 31
0.0
  0
LINE
  5
1E3
330
1F
100
AcDbEntity
  8
A-2_蓋
  6
Continuous
 62
     3
370
     9
100
AcDbLine
 10
-453.050066973712
 20
59.33453534100522
 30
0.0
 11
-453.050066973712
 21
-20.66609975453957
 31
0.0
  0
LINE
  5
1E4
330
1F
100
AcDbEntity
  8
A-2_蓋
  6
Continuous
 62
     3
370
     9
100
AcDbLine
 10
-439.0501692488385
 20
59.33453534100522
 30
0.0
 11
-439.0501692488385
 21
-20.66609975453957
 31
0.0
  0
LINE
  5
1E5
330
1F
100
AcDbEntity
  8
A-2_蓋
  6
Continuous
 62
     3
370
     9
100
AcDbLine
 10
-523.649349728146
 20
59.33453534100522
 30
0.0
 11
-523.649349728146
 21
-20.66609975453957
 31
0.0
  0
LINE
  5
1E6
330
1F
100
AcDbEntity
  8
A-2_蓋
  6
Continuous
 62
     3
370
     9
100
AcDbLine
 10
-509.6495757231841
 20
59.33453534100522
 30
0.0
 11
-509.6495757231841
 21
-20.66609975453957
 31
0.0
  0
LINE
  5
1E7
330
1F
100
AcDbEntity
  8
A-2_蓋
  6
Continuous
 62
     3
370
     9
100
AcDbLine
 10
-594.2498696816932
 20
59.33453534100522
 30
0.0
 11
-594.2498696816932
 21
-20.66609975453957
 31
0.0
  0
LINE
  5
1E8
330
1F
100
AcDbEntity
  8
A-2_蓋
  6
Continuous
 62
     3
370
     9
100
AcDbLine
 10
-580.2497245169974
 20
59.33453534100522
 30
0.0
 11
-580.2497245169974
 21
-20.66609975453957
 31
0.0
  0
LINE
  5
1E9
330
1F
100
AcDbEntity
  8
A-2_蓋
  6
Continuous
 62
     3
370
     9
100
AcDbLine
 10
-100.0505602037583
 20
59.33453534100522
 30
0.0
 11
-100.0505602037583
 21
-20.66609975453957
 31
0.0
  0
LINE
  5
1EA
330
1F
100
AcDbEntity
  8
A-2_蓋
  6
Continuous
 62
     3
370
     9
100
AcDbLine
 10
-86.0504150390625
 20
59.33453534100522
 30
0.0
 11
-86.0504150390625
 21
-20.66609975453957
 31
0.0
  0
LINE
  5
1EB
330
1F
100
AcDbEntity
  8
A-2_蓋
  6
Continuous
 62
     3
370
     9
100
AcDbLine
 10
-170.6498429581924
 20
59.33453534100522
 30
0.0
 11
-170.6498429581924
 21
-20.66609975453957
 31
0.0
  0
LINE
  5
1EC
330
1F
100
AcDbEntity
  8
A-2_蓋
  6
Continuous
 62
     3
370
     9
100
AcDbLine
 10
-156.6496977934966
 20
59.33453534100522
 30
0.0
 11
-156.6496977934966
 21
-20.66609975453957
 31
0.0
  0
LINE
  5
1ED
330
1F
100
AcDbEntity
  8
A-2_蓋
  6
Continuous
 62
     3
370
     9
100
AcDbLine
 10
-241.2501154719172
 20
59.33453534100522
 30
0.0
 11
-241.2501154719172
 21
-20.66609975453957
 31
0.0
  0
LINE
  5
1EE
330
1F
100
AcDbEntity
  8
A-2_蓋
  6
Continuous
 62
     3
370
     9
100
AcDbLine
 10
-227.2502177470437
 20
59.33453534100522
 30
0.0
 11
-227.2502177470437
 21
-20.66609975453957
 31
0.0
  0
LINE
  5
1EF
330
1F
100
AcDbEntity
  8
A-2_蓋
  6
Continuous
 62
     3
370
     9
100
AcDbLine
 10
-311.8505117055531
 20
59.33453534100522
 30
0.0
 11
-311.8505117055531
 21
-20.66609975453957
 31
0.0
  0
LINE
  5
1F0
330
1F
100
AcDbEntity
  8
A-2_蓋
  6
Continuous
 62
     3
370
     9
100
AcDbLine
 10
-297.8503665408573
 20
59.33453534100522
 30
0.0
 11
-297.8503665408573
 21
-20.66609975453957
 31
0.0
  0
LINE
  5
1F1
330
1F
100
AcDbEntity
  8
A-2_蓋
  6
Continuous
 62
     3
370
     9
100
AcDbLine
 10
111.7495150179477
 20
59.33453534100522
 30
0.0
 11
111.7495150179477
 21
-20.66609975453957
 31
0.0
  0
LINE
  5
1F2
330
1F
100
AcDbEntity
  8
A-2_蓋
  6
Continuous
 62
     3
370
     9
100
AcDbLine
 10
41.15023226351354
 20
59.33453534100522
 30
0.0
 11
41.15023226351354
 21
-20.66609975453957
 31
0.0
  0
LINE
  5
1F3
330
1F
100
AcDbEntity
  8
A-2_蓋
  6
Continuous
 62
     3
370
     9
100
AcDbLine
 10
55.14988254856434
 20
59.33453534100522
 30
0.0
 11
55.14988254856434
 21
-20.66609975453957
 31
0.0
  0
LINE
  5
1F4
330
1F
100
AcDbEntity
  8
A-2_蓋
  6
Continuous
 62
     3
370
     9
100
AcDbLine
 10
-29.45028769003358
 20
59.33453534100522
 30
0.0
 11
-29.45028769003358
 21
-20.66609975453957
 31
0.0
  0
LINE
  5
1F5
330
1F
100
AcDbEntity
  8
A-2_蓋
  6
Continuous
 62
     3
370
     9
100
AcDbLine
 10
-15.45014252533775
 20
59.33453534100522
 30
0.0
 11
-15.45014252533775
 21
-20.66609975453957
 31
0.0
  0
LINE
  5
1F6
330
1F
100
AcDbEntity
  8
A-2_蓋
  6
Continuous
 62
     3
370
     9
100
AcDbLine
 10
182.3497875316724
 20
59.33453534100522
 30
0.0
 11
182.3497875316724
 21
-20.66609975453957
 31
0.0
  0
LINE
  5
1F7
330
1F
100
AcDbEntity
  8
A-2_蓋
  6
Continuous
 62
     3
370
     9
100
AcDbLine
 10
196.3496852565459
 20
59.33453534100522
 30
0.0
 11
196.3496852565459
 21
-20.66609975453957
 31
0.0
  0
LINE
  5
1F8
330
1F
100
AcDbEntity
  8
A-2_蓋
  6
Continuous
 62
     3
370
     9
100
AcDbLine
 10
125.7494127428211
 20
59.33453534100522
 30
0.0
 11
125.7494127428211
 21
-20.66609975453957
 31
0.0
  0
LINE
  5
1F9
330
1F
100
AcDbEntity
  8
A-2_蓋
  6
Continuous
 62
     3
370
     9
100
AcDbLine
 10
323.5495902396539
 20
59.33453534100522
 30
0.0
 11
323.5495902396539
 21
-20.66609975453957
 31
0.0
  0
LINE
  5
1FA
330
1F
100
AcDbEntity
  8
A-2_蓋
  6
Continuous
 62
     3
370
     9
100
AcDbLine
 10
252.9500600453972
 20
59.33453534100522
 30
0.0
 11
252.9500600453972
 21
-20.66609975453957
 31
0.0
  0
LINE
  5
1FB
330
1F
100
AcDbEntity
  8
A-2_蓋
  6
Continuous
 62
     3
370
     9
100
AcDbLine
 10
266.950205210093
 20
59.33453534100522
 30
0.0
 11
266.950205210093
 21
-20.66609975453957
 31
0.0
  0
LINE
  5
1FC
330
1F
100
AcDbEntity
  8
A-2_蓋
  6
Continuous
 62
     3
370
     9
100
AcDbLine
 10
337.5497354043497
 20
59.33453534100522
 30
0.0
 11
337.5497354043497
 21
-20.66609975453957
 31
0.0
  0
LINE
  5
1FD
330
1F
100
AcDbEntity
  8
A-2_蓋
  6
Continuous
 62
     3
370
     9
100
AcDbLine
 10
464.7506301467484
 20
59.33453534100522
 30
0.0
 11
464.7506301467484
 21
-20.66609975453957
 31
0.0
  0
LINE
  5
1FE
330
1F
100
AcDbEntity
  8
A-2_蓋
  6
Continuous
 62
     3
370
     9
100
AcDbLine
 10
408.1502553578972
 20
59.33453534100522
 30
0.0
 11
408.1502553578972
 21
-20.66609975453957
 31
0.0
  0
LINE
  5
1FF
330
1F
100
AcDbEntity
  8
A-2_蓋
  6
Continuous
 62
     3
370
     9
100
AcDbLine
 10
394.150110193201
 20
59.33453534100522
 30
0.0
 11
394.150110193201
 21
-20.66609975453957
 31
0.0
  0
LINE
  5
200
330
1F
100
AcDbEntity
  8
A-4_寸法
  6
Continuous
 62
     7
370
     9
100
AcDbLine
 10
-375.4498455975505
 20
839.0216229413008
 30
0.0
 11
-304.8504391232052
 21
839.0216229413008
 31
0.0
  0
LINE
  5
201
330
1F
100
AcDbEntity
  8
A-4_寸法
  6
Continuous
 62
     7
370
     9
100
AcDbLine
 10
-375.4498455975505
 20
839.0216229413008
 30
0.0
 11
-375.4498455975505
 21
717.3923306851776
 31
0.0
  0
LINE
  5
202
330
1F
100
AcDbEntity
  8
A-4_寸法
  6
Continuous
 62
     7
370
     9
100
AcDbLine
 10
-304.8504391232052
 20
839.0216229413008
 30
0.0
 11
-304.8504391232052
 21
717.3923306851776
 31
0.0
  0
LINE
  5
203
330
1F
100
AcDbEntity
  8
A-4_寸法
  6
Continuous
 62
     7
370
     9
100
AcDbLine
 10
-1530.250631796347
 20
-303.9190013988598
 30
0.0
 11
497.7501946526604
 21
-303.9190013988598
 31
0.0
  0
LINE
  5
204
330
1F
100
AcDbEntity
  8
A-4_寸法
  6
Continuous
 62
     7
370
     9
100
AcDbLine
 10
-1530.250631796347
 20
-64.66584901551926
 30
0.0
 11
-1530.250631796347
 21
-306.9189618084881
 31
0.0
  0
LINE
  5
205
330
1F
100
AcDbEntity
  8
A-4_寸法
  6
Continuous
 62
     7
370
     9
100
AcDbLine
 10
497.7501946526604
 20
-64.66584901551926
 30
0.0
 11
497.7501946526604
 21
-306.9189618084881
 31
0.0
  0
LINE
  5
206
330
1F
100
AcDbEntity
  8
A-4_寸法
  6
Continuous
 62
     7
370
     9
100
AcDbLine
 10
-1530.250631796347
 20
-198.5135959934544
 30
0.0
 11
-1518.250666437923
 21
-198.5135959934544
 31
0.0
  0
LINE
  5
207
330
1F
100
AcDbEntity
  8
A-4_寸法
  6
Continuous
 62
     7
370
     9
100
AcDbLine
 10
-1530.250631796347
 20
-213.5136454814189
 30
0.0
 11
-1530.250631796347
 21
-201.5135564030828
 31
0.0
  0
LINE
  5
208
330
1F
100
AcDbEntity
  8
A-4_寸法
  6
Continuous
 62
     7
370
     9
100
AcDbLine
 10
-1518.250666437923
 20
-52.66551249736068
 30
0.0
 11
-1518.250666437923
 21
-201.5135564030828
 31
0.0
  0
LINE
  5
209
330
1F
100
AcDbEntity
  8
A-4_寸法
  6
Continuous
 62
     7
370
     9
100
AcDbLine
 10
-1518.250666437923
 20
-198.5135959934544
 30
0.0
 11
-1511.250593855574
 21
-198.5135959934544
 31
0.0
  0
LINE
  5
20A
330
1F
100
AcDbEntity
  8
A-4_寸法
  6
Continuous
 62
     7
370
     9
100
AcDbLine
 10
-1511.250593855574
 20
-44.66565931165519
 30
0.0
 11
-1511.250593855574
 21
-201.5135564030828
 31
0.0
  0
LINE
  5
20B
330
1F
100
AcDbEntity
  8
A-4_寸法
  6
Continuous
 62
     7
370
     9
100
AcDbLine
 10
-1585.244750976562
 20
-198.5135959934544
 30
0.0
 11
560.993338919975
 21
-198.5135959934544
 31
0.0
  0
LINE
  5
20C
330
1F
100
AcDbEntity
  8
A-4_寸法
  6
Continuous
 62
     7
370
     9
100
AcDbLine
 10
478.7500329919766
 20
-44.66565931165519
 30
0.0
 11
478.7500329919766
 21
-201.5135564030828
 31
0.0
  0
LINE
  5
20D
330
1F
100
AcDbEntity
  8
A-4_寸法
  6
Continuous
 62
     7
370
     9
100
AcDbLine
 10
478.7500329919766
 20
-198.5135959934544
 30
0.0
 11
485.7501055743245
 21
-198.5135959934544
 31
0.0
  0
LINE
  5
20E
330
1F
100
AcDbEntity
  8
A-4_寸法
  6
Continuous
 62
     7
370
     9
100
AcDbLine
 10
485.7501055743245
 20
-52.66551249736068
 30
0.0
 11
485.7501055743245
 21
-201.5135564030828
 31
0.0
  0
LINE
  5
20F
330
1F
100
AcDbEntity
  8
A-4_寸法
  6
Continuous
 62
     7
370
     9
100
AcDbLine
 10
485.7501055743245
 20
-198.5135959934544
 30
0.0
 11
497.7501946526604
 21
-198.5135959934544
 31
0.0
  0
LINE
  5
210
330
1F
100
AcDbEntity
  8
A-4_寸法
  6
Continuous
 62
     7
370
     9
100
AcDbLine
 10
497.7501946526604
 20
-64.66584901551926
 30
0.0
 11
497.7501946526604
 21
-201.5135564030828
 31
0.0
  0
LINE
  5
211
330
1F
100
AcDbEntity
  8
A-4_寸法
  6
Continuous
 62
     7
370
     9
100
AcDbLine
 10
-763.7499835040117
 20
681.3341625316724
 30
0.0
 11
-760.4868708430109
 21
706.1202095650339
 31
0.0
  0
LINE
  5
212
330
1F
100
AcDbEntity
  8
A-2_蓋
  6
Continuous
 62
     3
370
     9
100
AcDbLine
 10
-1511.250593855574
 20
281.3340800517315
 30
0.0
 11
478.7500329919766
 21
281.3340800517315
 31
0.0
  0
LINE
  5
213
330
1F
100
AcDbEntity
  8
A-2_蓋
  6
Continuous
 62
     3
370
     9
100
AcDbLine
 10
-1511.250593855574
 20
259.334700300887
 30
0.0
 11
478.7500329919766
 21
259.334700300887
 31
0.0
  0
LINE
  5
214
330
1F
100
AcDbEntity
  8
A-2_蓋
  6
Continuous
 62
     3
370
     9
100
AcDbLine
 10
-1497.24970637141
 20
259.334700300887
 30
0.0
 11
-1427.44990168391
 21
281.3340800517315
 31
0.0
  0
LINE
  5
215
330
1F
100
AcDbEntity
  8
A-2_蓋
  6
Continuous
 62
     3
370
     9
100
AcDbLine
 10
-1426.649928737331
 20
259.334700300887
 30
0.0
 11
-1356.850247769742
 21
281.3340800517315
 31
0.0
  0
LINE
  5
216
330
1F
100
AcDbEntity
  8
A-2_蓋
  6
Continuous
 62
     3
370
     9
100
AcDbLine
 10
-1356.049532503695
 20
259.334700300887
 30
0.0
 11
-1286.250098975929
 21
281.3340800517315
 31
0.0
  0
LINE
  5
217
330
1F
100
AcDbEntity
  8
A-2_蓋
  6
Continuous
 62
     3
370
     9
100
AcDbLine
 10
-1285.449631149704
 20
259.334700300887
 30
0.0
 11
-1215.650073902027
 21
281.3340800517315
 31
0.0
  0
LINE
  5
218
330
1F
100
AcDbEntity
  8
A-2_蓋
  6
Continuous
 62
     3
370
     9
100
AcDbLine
 10
-1214.849853515625
 20
259.334700300887
 30
0.0
 11
-1145.050048828125
 21
281.3340800517315
 31
0.0
  0
LINE
  5
219
330
1F
100
AcDbEntity
  8
A-2_蓋
  6
Continuous
 62
     3
370
     9
100
AcDbLine
 10
-1144.249828441723
 20
259.334700300887
 30
0.0
 11
-1074.450023754223
 21
281.3340800517315
 31
0.0
  0
LINE
  5
21A
330
1F
100
AcDbEntity
  8
A-2_蓋
  6
Continuous
 62
     3
370
     9
100
AcDbLine
 10
-1073.64967964791
 20
259.334700300887
 30
0.0
 11
-1003.849998680321
 21
281.3340800517315
 31
0.0
  0
LINE
  5
21B
330
1F
100
AcDbEntity
  8
A-2_蓋
  6
Continuous
 62
     3
370
     9
100
AcDbLine
 10
-1003.049778293919
 20
259.334700300887
 30
0.0
 11
-933.2499736064188
 21
281.3340800517315
 31
0.0
  0
LINE
  5
21C
330
1F
100
AcDbEntity
  8
A-2_蓋
  6
Continuous
 62
     3
370
     9
100
AcDbLine
 10
-932.4497532200168
 20
259.334700300887
 30
0.0
 11
-862.6500722524281
 21
281.3340800517315
 31
0.0
  0
LINE
  5
21D
330
1F
100
AcDbEntity
  8
A-2_蓋
  6
Continuous
 62
     3
370
     9
100
AcDbLine
 10
-861.8494807062922
 20
259.334700300887
 30
0.0
 11
-792.0497997387033
 21
281.3340800517315
 31
0.0
  0
LINE
  5
21E
330
1F
100
AcDbEntity
  8
A-2_蓋
  6
Continuous
 62
     3
370
     9
100
AcDbLine
 10
-791.2495793523016
 20
259.334700300887
 30
0.0
 11
-721.4501458245354
 21
281.3340800517315
 31
0.0
  0
LINE
  5
21F
330
1F
100
AcDbEntity
  8
A-2_蓋
  6
Continuous
 62
     3
370
     9
100
AcDbLine
 10
-720.6499254381333
 20
259.334700300887
 30
0.0
 11
-650.8502444705448
 21
281.3340800517315
 31
0.0
  0
LINE
  5
220
330
1F
100
AcDbEntity
  8
A-2_蓋
  6
Continuous
 62
     3
370
     9
100
AcDbLine
 10
-650.04977664432
 20
259.334700300887
 30
0.0
 11
-580.2500956767312
 21
281.3340800517315
 31
0.0
  0
LINE
  5
221
330
1F
100
AcDbEntity
  8
A-2_蓋
  6
Continuous
 62
     3
370
     9
100
AcDbLine
 10
-579.4498752903294
 20
259.334700300887
 30
0.0
 11
-509.6500706028294
 21
281.3340800517315
 31
0.0
  0
LINE
  5
222
330
1F
100
AcDbEntity
  8
A-2_蓋
  6
Continuous
 62
     3
370
     9
100
AcDbLine
 10
-508.8498502164273
 20
259.334700300887
 30
0.0
 11
-439.0501692488385
 21
281.3340800517315
 31
0.0
  0
LINE
  5
223
330
1F
100
AcDbEntity
  8
A-2_蓋
  6
Continuous
 62
     3
370
     9
100
AcDbLine
 10
-438.2499488624364
 20
259.334700300887
 30
0.0
 11
-368.4502678948479
 21
281.3340800517315
 31
0.0
  0
LINE
  5
224
330
1F
100
AcDbEntity
  8
A-2_蓋
  6
Continuous
 62
     3
370
     9
100
AcDbLine
 10
-367.6500475084458
 20
259.334700300887
 30
0.0
 11
-297.8503665408573
 21
281.3340800517315
 31
0.0
  0
LINE
  5
225
330
1F
100
AcDbEntity
  8
A-2_蓋
  6
Continuous
 62
     3
370
     9
100
AcDbLine
 10
-297.0497749947211
 20
259.334700300887
 30
0.0
 11
-227.2502177470437
 21
281.3340800517315
 31
0.0
  0
LINE
  5
226
330
1F
100
AcDbEntity
  8
A-2_蓋
  6
Continuous
 62
     3
370
     9
100
AcDbLine
 10
-226.4499973606416
 20
259.334700300887
 30
0.0
 11
-156.6503163930531
 21
281.3340800517315
 31
0.0
  0
LINE
  5
227
330
1F
100
AcDbEntity
  8
A-2_蓋
  6
Continuous
 62
     3
370
     9
100
AcDbLine
 10
-155.850096006651
 20
259.334700300887
 30
0.0
 11
-86.0504150390625
 21
281.3340800517315
 31
0.0
  0
LINE
  5
228
330
1F
100
AcDbEntity
  8
A-2_蓋
  6
Continuous
 62
     3
370
     9
100
AcDbLine
 10
-85.25019465266041
 20
259.334700300887
 30
0.0
 11
-15.45063740498307
 21
281.3340800517315
 31
0.0
  0
LINE
  5
229
330
1F
100
AcDbEntity
  8
A-2_蓋
  6
Continuous
 62
     3
370
     9
100
AcDbLine
 10
-14.64992213893566
 20
259.334700300887
 30
0.0
 11
55.14988254856434
 21
281.3340800517315
 31
0.0
  0
LINE
  5
22A
330
1F
100
AcDbEntity
  8
A-2_蓋
  6
Continuous
 62
     3
370
     9
100
AcDbLine
 10
55.94960805532111
 20
259.334700300887
 30
0.0
 11
125.7494127428211
 21
281.3340800517315
 31
0.0
  0
LINE
  5
22B
330
1F
100
AcDbEntity
  8
A-2_蓋
  6
Continuous
 62
     3
370
     9
100
AcDbLine
 10
126.5496331292232
 20
259.334700300887
 30
0.0
 11
196.3494378167232
 21
281.3340800517315
 31
0.0
  0
LINE
  5
22C
330
1F
100
AcDbEntity
  8
A-2_蓋
  6
Continuous
 62
     3
370
     9
100
AcDbLine
 10
197.1501530827703
 20
259.334700300887
 30
0.0
 11
266.9497103304477
 21
281.3340800517315
 31
0.0
  0
LINE
  5
22D
330
1F
100
AcDbEntity
  8
A-2_蓋
  6
Continuous
 62
     3
370
     9
100
AcDbLine
 10
267.7501781566724
 20
259.334700300887
 30
0.0
 11
337.5497354043497
 21
281.3340800517315
 31
0.0
  0
LINE
  5
22E
330
1F
100
AcDbEntity
  8
A-2_蓋
  6
Continuous
 62
     3
370
     9
100
AcDbLine
 10
338.3494609111065
 20
259.334700300887
 30
0.0
 11
408.1495130384292
 21
281.3340800517315
 31
0.0
  0
LINE
  5
22F
330
1F
100
AcDbEntity
  8
A-2_蓋
  6
Continuous
 62
     3
370
     9
100
AcDbLine
 10
408.9494859850086
 20
259.334700300887
 30
0.0
 11
478.7495381123313
 21
281.3340800517315
 31
0.0
  0
LINE
  5
230
330
1F
100
AcDbEntity
  8
A-2_蓋
  6
Continuous
 62
     3
370
     9
100
AcDbLine
 10
-1511.250593855574
 20
277.1736268739443
 30
0.0
 11
-1498.049926757812
 21
281.3340800517315
 31
0.0
  0
LINE
  5
231
330
1F
100
AcDbEntity
  8
A-2_蓋
  6
Continuous
 62
     3
370
     9
100
AcDbLine
 10
-1497.24970637141
 20
81.33304905247059
 30
0.0
 11
-1497.24970637141
 21
259.334700300887
 31
0.0
  0
LINE
  5
232
330
1F
100
AcDbEntity
  8
A-2_蓋
  6
Continuous
 62
     3
370
     9
100
AcDbLine
 10
-1497.24970637141
 20
281.3340800517315
 30
0.0
 11
-1497.24970637141
 21
459.3347415408573
 31
0.0
  0
LINE
  5
233
330
1F
100
AcDbEntity
  8
A-2_蓋
  6
Continuous
 62
     3
370
     9
100
AcDbLine
 10
464.7506301467484
 20
459.3347415408573
 30
0.0
 11
464.7506301467484
 21
281.3340800517315
 31
0.0
  0
LINE
  5
234
330
1F
100
AcDbEntity
  8
A-2_蓋
  6
Continuous
 62
     3
370
     9
100
AcDbLine
 10
464.7506301467484
 20
259.334700300887
 30
0.0
 11
464.7506301467484
 21
81.33304905247059
 31
0.0
  0
LINE
  5
235
330
1F
100
AcDbEntity
  8
A-2_蓋
  6
Continuous
 62
     3
370
     9
100
AcDbLine
 10
394.150110193201
 20
459.3347415408573
 30
0.0
 11
394.150110193201
 21
281.3340800517315
 31
0.0
  0
LINE
  5
236
330
1F
100
AcDbEntity
  8
A-2_蓋
  6
Continuous
 62
     3
370
     9
100
AcDbLine
 10
394.150110193201
 20
259.334700300887
 30
0.0
 11
394.150110193201
 21
81.33304905247059
 31
0.0
  0
LINE
  5
237
330
1F
100
AcDbEntity
  8
A-2_蓋
  6
Continuous
 62
     3
370
     9
100
AcDbLine
 10
408.1502553578972
 20
459.3347415408573
 30
0.0
 11
408.1502553578972
 21
281.3340800517315
 31
0.0
  0
LINE
  5
238
330
1F
100
AcDbEntity
  8
A-2_蓋
  6
Continuous
 62
     3
370
     9
100
AcDbLine
 10
408.1502553578972
 20
259.334700300887
 30
0.0
 11
408.1502553578972
 21
81.33304905247059
 31
0.0
  0
LINE
  5
239
330
1F
100
AcDbEntity
  8
A-2_蓋
  6
Continuous
 62
     3
370
     9
100
AcDbLine
 10
323.5495902396539
 20
459.3347415408573
 30
0.0
 11
323.5495902396539
 21
281.3340800517315
 31
0.0
  0
LINE
  5
23A
330
1F
100
AcDbEntity
  8
A-2_蓋
  6
Continuous
 62
     3
370
     9
100
AcDbLine
 10
323.5495902396539
 20
259.334700300887
 30
0.0
 11
323.5495902396539
 21
81.33304905247059
 31
0.0
  0
LINE
  5
23B
330
1F
100
AcDbEntity
  8
A-2_蓋
  6
Continuous
 62
     3
370
     9
100
AcDbLine
 10
337.5497354043497
 20
459.3347415408573
 30
0.0
 11
337.5497354043497
 21
281.3340800517315
 31
0.0
  0
LINE
  5
23C
330
1F
100
AcDbEntity
  8
A-2_蓋
  6
Continuous
 62
     3
370
     9
100
AcDbLine
 10
337.5497354043497
 20
259.334700300887
 30
0.0
 11
337.5497354043497
 21
81.33304905247059
 31
0.0
  0
LINE
  5
23D
330
1F
100
AcDbEntity
  8
A-2_蓋
  6
Continuous
 62
     3
370
     9
100
AcDbLine
 10
252.9500600453972
 20
459.3347415408573
 30
0.0
 11
252.9500600453972
 21
281.3340800517315
 31
0.0
  0
LINE
  5
23E
330
1F
100
AcDbEntity
  8
A-2_蓋
  6
Continuous
 62
     3
370
     9
100
AcDbLine
 10
252.9500600453972
 20
259.334700300887
 30
0.0
 11
252.9500600453972
 21
81.33304905247059
 31
0.0
  0
LINE
  5
23F
330
1F
100
AcDbEntity
  8
A-2_蓋
  6
Continuous
 62
     3
370
     9
100
AcDbLine
 10
266.950205210093
 20
459.3347415408573
 30
0.0
 11
266.950205210093
 21
281.3340800517315
 31
0.0
  0
LINE
  5
240
330
1F
100
AcDbEntity
  8
A-2_蓋
  6
Continuous
 62
     3
370
     9
100
AcDbLine
 10
266.950205210093
 20
259.334700300887
 30
0.0
 11
266.950205210093
 21
81.33304905247059
 31
0.0
  0
LINE
  5
241
330
1F
100
AcDbEntity
  8
A-2_蓋
  6
Continuous
 62
     3
370
     9
100
AcDbLine
 10
182.3497875316724
 20
459.3347415408573
 30
0.0
 11
182.3497875316724
 21
281.3340800517315
 31
0.0
  0
LINE
  5
242
330
1F
100
AcDbEntity
  8
A-2_蓋
  6
Continuous
 62
     3
370
     9
100
AcDbLine
 10
182.3497875316724
 20
259.334700300887
 30
0.0
 11
182.3497875316724
 21
81.33304905247059
 31
0.0
  0
LINE
  5
243
330
1F
100
AcDbEntity
  8
A-2_蓋
  6
Continuous
 62
     3
370
     9
100
AcDbLine
 10
196.3496852565459
 20
459.3347415408573
 30
0.0
 11
196.3496852565459
 21
281.3340800517315
 31
0.0
  0
LINE
  5
244
330
1F
100
AcDbEntity
  8
A-2_蓋
  6
Continuous
 62
     3
370
     9
100
AcDbLine
 10
196.3496852565459
 20
259.334700300887
 30
0.0
 11
196.3496852565459
 21
81.33304905247059
 31
0.0
  0
LINE
  5
245
330
1F
100
AcDbEntity
  8
A-2_蓋
  6
Continuous
 62
     3
370
     9
100
AcDbLine
 10
111.7495150179477
 20
459.3347415408573
 30
0.0
 11
111.7495150179477
 21
281.3340800517315
 31
0.0
  0
LINE
  5
246
330
1F
100
AcDbEntity
  8
A-2_蓋
  6
Continuous
 62
     3
370
     9
100
AcDbLine
 10
111.7495150179477
 20
259.334700300887
 30
0.0
 11
111.7495150179477
 21
81.33304905247059
 31
0.0
  0
LINE
  5
247
330
1F
100
AcDbEntity
  8
A-2_蓋
  6
Continuous
 62
     3
370
     9
100
AcDbLine
 10
125.7494127428211
 20
459.3347415408573
 30
0.0
 11
125.7494127428211
 21
281.3340800517315
 31
0.0
  0
LINE
  5
248
330
1F
100
AcDbEntity
  8
A-2_蓋
  6
Continuous
 62
     3
370
     9
100
AcDbLine
 10
125.7494127428211
 20
259.334700300887
 30
0.0
 11
125.7494127428211
 21
81.33304905247059
 31
0.0
  0
LINE
  5
249
330
1F
100
AcDbEntity
  8
A-2_蓋
  6
Continuous
 62
     3
370
     9
100
AcDbLine
 10
41.15023226351354
 20
459.3347415408573
 30
0.0
 11
41.15023226351354
 21
281.3340800517315
 31
0.0
  0
LINE
  5
24A
330
1F
100
AcDbEntity
  8
A-2_蓋
  6
Continuous
 62
     3
370
     9
100
AcDbLine
 10
41.15023226351354
 20
259.334700300887
 30
0.0
 11
41.15023226351354
 21
81.33304905247059
 31
0.0
  0
LINE
  5
24B
330
1F
100
AcDbEntity
  8
A-2_蓋
  6
Continuous
 62
     3
370
     9
100
AcDbLine
 10
55.14988254856434
 20
459.3347415408573
 30
0.0
 11
55.14988254856434
 21
281.3340800517315
 31
0.0
  0
LINE
  5
24C
330
1F
100
AcDbEntity
  8
A-2_蓋
  6
Continuous
 62
     3
370
     9
100
AcDbLine
 10
55.14988254856434
 20
259.334700300887
 30
0.0
 11
55.14988254856434
 21
81.33304905247059
 31
0.0
  0
LINE
  5
24D
330
1F
100
AcDbEntity
  8
A-2_蓋
  6
Continuous
 62
     3
370
     9
100
AcDbLine
 10
-29.45028769003358
 20
459.3347415408573
 30
0.0
 11
-29.45028769003358
 21
281.3340800517315
 31
0.0
  0
LINE
  5
24E
330
1F
100
AcDbEntity
  8
A-2_蓋
  6
Continuous
 62
     3
370
     9
100
AcDbLine
 10
-29.45028769003358
 20
259.334700300887
 30
0.0
 11
-29.45028769003358
 21
81.33304905247059
 31
0.0
  0
LINE
  5
24F
330
1F
100
AcDbEntity
  8
A-2_蓋
  6
Continuous
 62
     3
370
     9
100
AcDbLine
 10
-15.45014252533775
 20
459.3347415408573
 30
0.0
 11
-15.45014252533775
 21
281.3340800517315
 31
0.0
  0
LINE
  5
250
330
1F
100
AcDbEntity
  8
A-2_蓋
  6
Continuous
 62
     3
370
     9
100
AcDbLine
 10
-15.45014252533775
 20
259.334700300887
 30
0.0
 11
-15.45014252533775
 21
81.33304905247059
 31
0.0
  0
LINE
  5
251
330
1F
100
AcDbEntity
  8
A-2_蓋
  6
Continuous
 62
     3
370
     9
100
AcDbLine
 10
-100.0505602037583
 20
459.3347415408573
 30
0.0
 11
-100.0505602037583
 21
281.3340800517315
 31
0.0
  0
LINE
  5
252
330
1F
100
AcDbEntity
  8
A-2_蓋
  6
Continuous
 62
     3
370
     9
100
AcDbLine
 10
-100.0505602037583
 20
259.334700300887
 30
0.0
 11
-100.0505602037583
 21
81.33304905247059
 31
0.0
  0
LINE
  5
253
330
1F
100
AcDbEntity
  8
A-2_蓋
  6
Continuous
 62
     3
370
     9
100
AcDbLine
 10
-86.0504150390625
 20
459.3347415408573
 30
0.0
 11
-86.0504150390625
 21
281.3340800517315
 31
0.0
  0
LINE
  5
254
330
1F
100
AcDbEntity
  8
A-2_蓋
  6
Continuous
 62
     3
370
     9
100
AcDbLine
 10
-86.0504150390625
 20
259.334700300887
 30
0.0
 11
-86.0504150390625
 21
81.33304905247059
 31
0.0
  0
LINE
  5
255
330
1F
100
AcDbEntity
  8
A-2_蓋
  6
Continuous
 62
     3
370
     9
100
AcDbLine
 10
-170.6498429581924
 20
459.3347415408573
 30
0.0
 11
-170.6498429581924
 21
281.3340800517315
 31
0.0
  0
LINE
  5
256
330
1F
100
AcDbEntity
  8
A-2_蓋
  6
Continuous
 62
     3
370
     9
100
AcDbLine
 10
-170.6498429581924
 20
259.334700300887
 30
0.0
 11
-170.6498429581924
 21
81.33304905247059
 31
0.0
  0
LINE
  5
257
330
1F
100
AcDbEntity
  8
A-2_蓋
  6
Continuous
 62
     3
370
     9
100
AcDbLine
 10
-156.6496977934966
 20
459.3347415408573
 30
0.0
 11
-156.6496977934966
 21
281.3340800517315
 31
0.0
  0
LINE
  5
258
330
1F
100
AcDbEntity
  8
A-2_蓋
  6
Continuous
 62
     3
370
     9
100
AcDbLine
 10
-156.6496977934966
 20
259.334700300887
 30
0.0
 11
-156.6496977934966
 21
81.33304905247059
 31
0.0
  0
LINE
  5
259
330
1F
100
AcDbEntity
  8
A-2_蓋
  6
Continuous
 62
     3
370
     9
100
AcDbLine
 10
-241.2501154719172
 20
459.3347415408573
 30
0.0
 11
-241.2501154719172
 21
281.3340800517315
 31
0.0
  0
LINE
  5
25A
330
1F
100
AcDbEntity
  8
A-2_蓋
  6
Continuous
 62
     3
370
     9
100
AcDbLine
 10
-241.2501154719172
 20
259.334700300887
 30
0.0
 11
-241.2501154719172
 21
81.33304905247059
 31
0.0
  0
LINE
  5
25B
330
1F
100
AcDbEntity
  8
A-2_蓋
  6
Continuous
 62
     3
370
     9
100
AcDbLine
 10
-227.2502177470437
 20
459.3347415408573
 30
0.0
 11
-227.2502177470437
 21
281.3340800517315
 31
0.0
  0
LINE
  5
25C
330
1F
100
AcDbEntity
  8
A-2_蓋
  6
Continuous
 62
     3
370
     9
100
AcDbLine
 10
-227.2502177470437
 20
259.334700300887
 30
0.0
 11
-227.2502177470437
 21
81.33304905247059
 31
0.0
  0
LINE
  5
25D
330
1F
100
AcDbEntity
  8
A-2_蓋
  6
Continuous
 62
     3
370
     9
100
AcDbLine
 10
-311.8505117055531
 20
459.3347415408573
 30
0.0
 11
-311.8505117055531
 21
281.3340800517315
 31
0.0
  0
LINE
  5
25E
330
1F
100
AcDbEntity
  8
A-2_蓋
  6
Continuous
 62
     3
370
     9
100
AcDbLine
 10
-311.8505117055531
 20
259.334700300887
 30
0.0
 11
-311.8505117055531
 21
81.33304905247059
 31
0.0
  0
LINE
  5
25F
330
1F
100
AcDbEntity
  8
A-2_蓋
  6
Continuous
 62
     3
370
     9
100
AcDbLine
 10
-297.8503665408573
 20
459.3347415408573
 30
0.0
 11
-297.8503665408573
 21
281.3340800517315
 31
0.0
  0
LINE
  5
260
330
1F
100
AcDbEntity
  8
A-2_蓋
  6
Continuous
 62
     3
370
     9
100
AcDbLine
 10
-297.8503665408573
 20
259.334700300887
 30
0.0
 11
-297.8503665408573
 21
81.33304905247059
 31
0.0
  0
LINE
  5
261
330
1F
100
AcDbEntity
  8
A-2_蓋
  6
Continuous
 62
     3
370
     9
100
AcDbLine
 10
-382.4497944599872
 20
459.3347415408573
 30
0.0
 11
-382.4497944599872
 21
281.3340800517315
 31
0.0
  0
LINE
  5
262
330
1F
100
AcDbEntity
  8
A-2_蓋
  6
Continuous
 62
     3
370
     9
100
AcDbLine
 10
-382.4497944599872
 20
259.334700300887
 30
0.0
 11
-382.4497944599872
 21
81.33304905247059
 31
0.0
  0
LINE
  5
263
330
1F
100
AcDbEntity
  8
A-2_蓋
  6
Continuous
 62
     3
370
     9
100
AcDbLine
 10
-368.4498967351138
 20
459.3347415408573
 30
0.0
 11
-368.4498967351138
 21
281.3340800517315
 31
0.0
  0
LINE
  5
264
330
1F
100
AcDbEntity
  8
A-2_蓋
  6
Continuous
 62
     3
370
     9
100
AcDbLine
 10
-368.4498967351138
 20
259.334700300887
 30
0.0
 11
-368.4498967351138
 21
81.33304905247059
 31
0.0
  0
LINE
  5
265
330
1F
100
AcDbEntity
  8
A-2_蓋
  6
Continuous
 62
     3
370
     9
100
AcDbLine
 10
-453.050066973712
 20
459.3347415408573
 30
0.0
 11
-453.050066973712
 21
281.3340800517315
 31
0.0
  0
LINE
  5
266
330
1F
100
AcDbEntity
  8
A-2_蓋
  6
Continuous
 62
     3
370
     9
100
AcDbLine
 10
-453.050066973712
 20
259.334700300887
 30
0.0
 11
-453.050066973712
 21
81.33304905247059
 31
0.0
  0
LINE
  5
267
330
1F
100
AcDbEntity
  8
A-2_蓋
  6
Continuous
 62
     3
370
     9
100
AcDbLine
 10
-439.0501692488385
 20
459.3347415408573
 30
0.0
 11
-439.0501692488385
 21
281.3340800517315
 31
0.0
  0
LINE
  5
268
330
1F
100
AcDbEntity
  8
A-2_蓋
  6
Continuous
 62
     3
370
     9
100
AcDbLine
 10
-439.0501692488385
 20
259.334700300887
 30
0.0
 11
-439.0501692488385
 21
81.33304905247059
 31
0.0
  0
LINE
  5
269
330
1F
100
AcDbEntity
  8
A-2_蓋
  6
Continuous
 62
     3
370
     9
100
AcDbLine
 10
-523.649349728146
 20
459.3347415408573
 30
0.0
 11
-523.649349728146
 21
281.3340800517315
 31
0.0
  0
LINE
  5
26A
330
1F
100
AcDbEntity
  8
A-2_蓋
  6
Continuous
 62
     3
370
     9
100
AcDbLine
 10
-523.649349728146
 20
259.334700300887
 30
0.0
 11
-523.649349728146
 21
81.33304905247059
 31
0.0
  0
LINE
  5
26B
330
1F
100
AcDbEntity
  8
A-2_蓋
  6
Continuous
 62
     3
370
     9
100
AcDbLine
 10
-509.6495757231841
 20
459.3347415408573
 30
0.0
 11
-509.6495757231841
 21
281.3340800517315
 31
0.0
  0
LINE
  5
26C
330
1F
100
AcDbEntity
  8
A-2_蓋
  6
Continuous
 62
     3
370
     9
100
AcDbLine
 10
-509.6495757231841
 20
259.334700300887
 30
0.0
 11
-509.6495757231841
 21
81.33304905247059
 31
0.0
  0
LINE
  5
26D
330
1F
100
AcDbEntity
  8
A-2_蓋
  6
Continuous
 62
     3
370
     9
100
AcDbLine
 10
-594.2498696816932
 20
459.3347415408573
 30
0.0
 11
-594.2498696816932
 21
281.3340800517315
 31
0.0
  0
LINE
  5
26E
330
1F
100
AcDbEntity
  8
A-2_蓋
  6
Continuous
 62
     3
370
     9
100
AcDbLine
 10
-594.2498696816932
 20
259.334700300887
 30
0.0
 11
-594.2498696816932
 21
81.33304905247059
 31
0.0
  0
LINE
  5
26F
330
1F
100
AcDbEntity
  8
A-2_蓋
  6
Continuous
 62
     3
370
     9
100
AcDbLine
 10
-580.2497245169974
 20
459.3347415408573
 30
0.0
 11
-580.2497245169974
 21
281.3340800517315
 31
0.0
  0
LINE
  5
270
330
1F
100
AcDbEntity
  8
A-2_蓋
  6
Continuous
 62
     3
370
     9
100
AcDbLine
 10
-580.2497245169974
 20
259.334700300887
 30
0.0
 11
-580.2497245169974
 21
81.33304905247059
 31
0.0
  0
LINE
  5
271
330
1F
100
AcDbEntity
  8
A-2_蓋
  6
Continuous
 62
     3
370
     9
100
AcDbLine
 10
-664.8501421954179
 20
459.3347415408573
 30
0.0
 11
-664.8501421954179
 21
281.3340800517315
 31
0.0
  0
LINE
  5
272
330
1F
100
AcDbEntity
  8
A-2_蓋
  6
Continuous
 62
     3
370
     9
100
AcDbLine
 10
-664.8501421954179
 20
259.334700300887
 30
0.0
 11
-664.8501421954179
 21
81.33304905247059
 31
0.0
  0
LINE
  5
273
330
1F
100
AcDbEntity
  8
A-2_蓋
  6
Continuous
 62
     3
370
     9
100
AcDbLine
 10
-650.8502444705448
 20
459.3347415408573
 30
0.0
 11
-650.8502444705448
 21
281.3340800517315
 31
0.0
  0
LINE
  5
274
330
1F
100
AcDbEntity
  8
A-2_蓋
  6
Continuous
 62
     3
370
     9
100
AcDbLine
 10
-650.8502444705448
 20
259.334700300887
 30
0.0
 11
-650.8502444705448
 21
81.33304905247059
 31
0.0
  0
LINE
  5
275
330
1F
100
AcDbEntity
  8
A-2_蓋
  6
Continuous
 62
     3
370
     9
100
AcDbLine
 10
-735.4494249498521
 20
459.3347415408573
 30
0.0
 11
-735.4494249498521
 21
281.3340800517315
 31
0.0
  0
LINE
  5
276
330
1F
100
AcDbEntity
  8
A-2_蓋
  6
Continuous
 62
     3
370
     9
100
AcDbLine
 10
-735.4494249498521
 20
259.334700300887
 30
0.0
 11
-735.4494249498521
 21
81.33304905247059
 31
0.0
  0
LINE
  5
277
330
1F
100
AcDbEntity
  8
A-2_蓋
  6
Continuous
 62
     3
370
     9
100
AcDbLine
 10
-721.4496509448901
 20
459.3347415408573
 30
0.0
 11
-721.4496509448901
 21
281.3340800517315
 31
0.0
  0
LINE
  5
278
330
1F
100
AcDbEntity
  8
A-2_蓋
  6
Continuous
 62
     3
370
     9
100
AcDbLine
 10
-721.4496509448901
 20
259.334700300887
 30
0.0
 11
-721.4496509448901
 21
81.33304905247059
 31
0.0
  0
LINE
  5
279
330
1F
100
AcDbEntity
  8
A-2_蓋
  6
Continuous
 62
     3
370
     9
100
AcDbLine
 10
-806.0499449033995
 20
459.3347415408573
 30
0.0
 11
-806.0499449033995
 21
281.3340800517315
 31
0.0
  0
LINE
  5
27A
330
1F
100
AcDbEntity
  8
A-2_蓋
  6
Continuous
 62
     3
370
     9
100
AcDbLine
 10
-806.0499449033995
 20
259.334700300887
 30
0.0
 11
-806.0499449033995
 21
81.33304905247059
 31
0.0
  0
LINE
  5
27B
330
1F
100
AcDbEntity
  8
A-2_蓋
  6
Continuous
 62
     3
370
     9
100
AcDbLine
 10
-792.0497997387033
 20
459.3347415408573
 30
0.0
 11
-792.0497997387033
 21
281.3340800517315
 31
0.0
  0
LINE
  5
27C
330
1F
100
AcDbEntity
  8
A-2_蓋
  6
Continuous
 62
     3
370
     9
100
AcDbLine
 10
-792.0497997387033
 20
259.334700300887
 30
0.0
 11
-792.0497997387033
 21
81.33304905247059
 31
0.0
  0
LINE
  5
27D
330
1F
100
AcDbEntity
  8
A-2_蓋
  6
Continuous
 62
     3
370
     9
100
AcDbLine
 10
-876.6493513777449
 20
459.3347415408573
 30
0.0
 11
-876.6493513777449
 21
281.3340800517315
 31
0.0
  0
LINE
  5
27E
330
1F
100
AcDbEntity
  8
A-2_蓋
  6
Continuous
 62
     3
370
     9
100
AcDbLine
 10
-876.6493513777449
 20
259.334700300887
 30
0.0
 11
-876.6493513777449
 21
81.33304905247059
 31
0.0
  0
LINE
  5
27F
330
1F
100
AcDbEntity
  8
A-2_蓋
  6
Continuous
 62
     3
370
     9
100
AcDbLine
 10
-862.649206213049
 20
459.3347415408573
 30
0.0
 11
-862.649206213049
 21
281.3340800517315
 31
0.0
  0
LINE
  5
280
330
1F
100
AcDbEntity
  8
A-2_蓋
  6
Continuous
 62
     3
370
     9
100
AcDbLine
 10
-862.649206213049
 20
259.334700300887
 30
0.0
 11
-862.649206213049
 21
81.33304905247059
 31
0.0
  0
LINE
  5
281
330
1F
100
AcDbEntity
  8
A-2_蓋
  6
Continuous
 62
     3
370
     9
100
AcDbLine
 10
-947.2495001715582
 20
459.3347415408573
 30
0.0
 11
-947.2495001715582
 21
281.3340800517315
 31
0.0
  0
LINE
  5
282
330
1F
100
AcDbEntity
  8
A-2_蓋
  6
Continuous
 62
     3
370
     9
100
AcDbLine
 10
-947.2495001715582
 20
259.334700300887
 30
0.0
 11
-947.2495001715582
 21
81.33304905247059
 31
0.0
  0
LINE
  5
283
330
1F
100
AcDbEntity
  8
A-2_蓋
  6
Continuous
 62
     3
370
     9
100
AcDbLine
 10
-933.2497261665962
 20
459.3347415408573
 30
0.0
 11
-933.2497261665962
 21
281.3340800517315
 31
0.0
  0
LINE
  5
284
330
1F
100
AcDbEntity
  8
A-2_蓋
  6
Continuous
 62
     3
370
     9
100
AcDbLine
 10
-933.2497261665962
 20
259.334700300887
 30
0.0
 11
-933.2497261665962
 21
81.33304905247059
 31
0.0
  0
LINE
  5
285
330
1F
100
AcDbEntity
  8
A-2_蓋
  6
Continuous
 62
     3
370
     9
100
AcDbLine
 10
-1017.849896405194
 20
459.3347415408573
 30
0.0
 11
-1017.849896405194
 21
281.3340800517315
 31
0.0
  0
LINE
  5
286
330
1F
100
AcDbEntity
  8
A-2_蓋
  6
Continuous
 62
     3
370
     9
100
AcDbLine
 10
-1017.849896405194
 20
259.334700300887
 30
0.0
 11
-1017.849896405194
 21
81.33304905247059
 31
0.0
  0
LINE
  5
287
330
1F
100
AcDbEntity
  8
A-2_蓋
  6
Continuous
 62
     3
370
     9
100
AcDbLine
 10
-1003.849998680321
 20
459.3347415408573
 30
0.0
 11
-1003.849998680321
 21
281.3340800517315
 31
0.0
  0
LINE
  5
288
330
1F
100
AcDbEntity
  8
A-2_蓋
  6
Continuous
 62
     3
370
     9
100
AcDbLine
 10
-1003.849998680321
 20
259.334700300887
 30
0.0
 11
-1003.849998680321
 21
81.33304905247059
 31
0.0
  0
LINE
  5
289
330
1F
100
AcDbEntity
  8
A-2_蓋
  6
Continuous
 62
     3
370
     9
100
AcDbLine
 10
-1088.44930287954
 20
459.3347415408573
 30
0.0
 11
-1088.44930287954
 21
281.3340800517315
 31
0.0
  0
LINE
  5
28A
330
1F
100
AcDbEntity
  8
A-2_蓋
  6
Continuous
 62
     3
370
     9
100
AcDbLine
 10
-1088.44930287954
 20
259.334700300887
 30
0.0
 11
-1088.44930287954
 21
81.33304905247059
 31
0.0
  0
LINE
  5
28B
330
1F
100
AcDbEntity
  8
A-2_蓋
  6
Continuous
 62
     3
370
     9
100
AcDbLine
 10
-1074.449281434755
 20
459.3347415408573
 30
0.0
 11
-1074.449281434755
 21
281.3340800517315
 31
0.0
  0
LINE
  5
28C
330
1F
100
AcDbEntity
  8
A-2_蓋
  6
Continuous
 62
     3
370
     9
100
AcDbLine
 10
-1074.449281434755
 20
259.334700300887
 30
0.0
 11
-1074.449281434755
 21
81.33304905247059
 31
0.0
  0
LINE
  5
28D
330
1F
100
AcDbEntity
  8
A-2_蓋
  6
Continuous
 62
     3
370
     9
100
AcDbLine
 10
-1159.049699113176
 20
459.3347415408573
 30
0.0
 11
-1159.049699113176
 21
281.3340800517315
 31
0.0
  0
LINE
  5
28E
330
1F
100
AcDbEntity
  8
A-2_蓋
  6
Continuous
 62
     3
370
     9
100
AcDbLine
 10
-1159.049699113176
 20
259.334700300887
 30
0.0
 11
-1159.049699113176
 21
81.33304905247059
 31
0.0
  0
LINE
  5
28F
330
1F
100
AcDbEntity
  8
A-2_蓋
  6
Continuous
 62
     3
370
     9
100
AcDbLine
 10
-1145.049677668391
 20
459.3347415408573
 30
0.0
 11
-1145.049677668391
 21
281.3340800517315
 31
0.0
  0
LINE
  5
290
330
1F
100
AcDbEntity
  8
A-2_蓋
  6
Continuous
 62
     3
370
     9
100
AcDbLine
 10
-1145.049677668391
 20
259.334700300887
 30
0.0
 11
-1145.049677668391
 21
81.33304905247059
 31
0.0
  0
LINE
  5
291
330
1F
100
AcDbEntity
  8
A-2_蓋
  6
Continuous
 62
     3
370
     9
100
AcDbLine
 10
-1229.6499716269
 20
459.3347415408573
 30
0.0
 11
-1229.6499716269
 21
281.3340800517315
 31
0.0
  0
LINE
  5
292
330
1F
100
AcDbEntity
  8
A-2_蓋
  6
Continuous
 62
     3
370
     9
100
AcDbLine
 10
-1229.6499716269
 20
259.334700300887
 30
0.0
 11
-1229.6499716269
 21
81.33304905247059
 31
0.0
  0
LINE
  5
293
330
1F
100
AcDbEntity
  8
A-2_蓋
  6
Continuous
 62
     3
370
     9
100
AcDbLine
 10
-1215.650073902027
 20
459.3347415408573
 30
0.0
 11
-1215.650073902027
 21
281.3340800517315
 31
0.0
  0
LINE
  5
294
330
1F
100
AcDbEntity
  8
A-2_蓋
  6
Continuous
 62
     3
370
     9
100
AcDbLine
 10
-1215.650073902027
 20
259.334700300887
 30
0.0
 11
-1215.650073902027
 21
81.33304905247059
 31
0.0
  0
LINE
  5
295
330
1F
100
AcDbEntity
  8
A-2_蓋
  6
Continuous
 62
     3
370
     9
100
AcDbLine
 10
-1300.249254381334
 20
459.3347415408573
 30
0.0
 11
-1300.249254381334
 21
281.3340800517315
 31
0.0
  0
LINE
  5
296
330
1F
100
AcDbEntity
  8
A-2_蓋
  6
Continuous
 62
     3
370
     9
100
AcDbLine
 10
-1300.249254381334
 20
259.334700300887
 30
0.0
 11
-1300.249254381334
 21
81.33304905247059
 31
0.0
  0
LINE
  5
297
330
1F
100
AcDbEntity
  8
A-2_蓋
  6
Continuous
 62
     3
370
     9
100
AcDbLine
 10
-1286.249356656461
 20
459.3347415408573
 30
0.0
 11
-1286.249356656461
 21
281.3340800517315
 31
0.0
  0
LINE
  5
298
330
1F
100
AcDbEntity
  8
A-2_蓋
  6
Continuous
 62
     3
370
     9
100
AcDbLine
 10
-1286.249356656461
 20
259.334700300887
 30
0.0
 11
-1286.249356656461
 21
81.33304905247059
 31
0.0
  0
LINE
  5
299
330
1F
100
AcDbEntity
  8
A-2_蓋
  6
Continuous
 62
     3
370
     9
100
AcDbLine
 10
-1370.84965061497
 20
459.3347415408573
 30
0.0
 11
-1370.84965061497
 21
281.3340800517315
 31
0.0
  0
LINE
  5
29A
330
1F
100
AcDbEntity
  8
A-2_蓋
  6
Continuous
 62
     3
370
     9
100
AcDbLine
 10
-1370.84965061497
 20
259.334700300887
 30
0.0
 11
-1370.84965061497
 21
81.33304905247059
 31
0.0
  0
LINE
  5
29B
330
1F
100
AcDbEntity
  8
A-2_蓋
  6
Continuous
 62
     3
370
     9
100
AcDbLine
 10
-1356.849629170186
 20
459.3347415408573
 30
0.0
 11
-1356.849629170186
 21
281.3340800517315
 31
0.0
  0
LINE
  5
29C
330
1F
100
AcDbEntity
  8
A-2_蓋
  6
Continuous
 62
     3
370
     9
100
AcDbLine
 10
-1356.849629170186
 20
259.334700300887
 30
0.0
 11
-1356.849629170186
 21
81.33304905247059
 31
0.0
  0
LINE
  5
29D
330
1F
100
AcDbEntity
  8
A-2_蓋
  6
Continuous
 62
     3
370
     9
100
AcDbLine
 10
-1441.450046848606
 20
459.3347415408573
 30
0.0
 11
-1441.450046848606
 21
281.3340800517315
 31
0.0
  0
LINE
  5
29E
330
1F
100
AcDbEntity
  8
A-2_蓋
  6
Continuous
 62
     3
370
     9
100
AcDbLine
 10
-1441.450046848606
 20
259.334700300887
 30
0.0
 11
-1441.450046848606
 21
81.33304905247059
 31
0.0
  0
LINE
  5
29F
330
1F
100
AcDbEntity
  8
A-2_蓋
  6
Continuous
 62
     3
370
     9
100
AcDbLine
 10
-1427.44990168391
 20
459.3347415408573
 30
0.0
 11
-1427.44990168391
 21
281.3340800517315
 31
0.0
  0
LINE
  5
2A0
330
1F
100
AcDbEntity
  8
A-2_蓋
  6
Continuous
 62
     3
370
     9
100
AcDbLine
 10
-1427.44990168391
 20
259.334700300887
 30
0.0
 11
-1427.44990168391
 21
81.33304905247059
 31
0.0
  0
LINE
  5
2A1
330
1F
100
AcDbEntity
  8
A-1_ピット
  6
Continuous
 62
     2
370
     9
100
AcDbLine
 10
1304.474784232475
 20
783.3345485377959
 30
0.0
 11
1304.474784232475
 21
790.334373680321
 31
0.0
  0
LINE
  5
2A2
330
1F
100
AcDbEntity
  8
A-1_ピット
  6
Continuous
 62
     2
370
     9
100
AcDbLine
 10
1419.474668760558
 20
670.3347200960727
 30
0.0
 11
1426.474741342906
 21
670.3347200960727
 31
0.0
  0
LINE
  5
2A3
330
1F
100
AcDbEntity
  8
A-1_ピット
  6
Continuous
 62
     2
370
     9
100
AcDbLine
 10
1414.474899704392
 20
770.3345551361908
 30
0.0
 11
1414.474899704392
 21
675.3344891522383
 31
0.0
  0
LINE
  5
2A4
330
1F
100
AcDbEntity
  8
A-1_ピット
  6
Continuous
 62
     2
370
     9
100
AcDbLine
 10
1406.474675358953
 20
778.3345320418075
 30
0.0
 11
1309.474800728463
 21
778.3345320418075
 31
0.0
  0
LINE
  5
2A5
330
1F
100
AcDbEntity
  8
A-1_ピット
  6
Continuous
 62
     2
370
     9
100
AcDbLine
 10
1426.474741342906
 20
790.334373680321
 30
0.0
 11
1304.474784232475
 21
790.334373680321
 31
0.0
  0
LINE
  5
2A6
330
1F
100
AcDbEntity
  8
A-1_ピット
  6
Continuous
 62
     2
370
     9
100
AcDbLine
 10
1426.474741342906
 20
790.334373680321
 30
0.0
 11
1426.474741342906
 21
670.3347200960727
 31
0.0
  0
LINE
  5
2A7
330
1F
100
AcDbEntity
  8
A-1_ピット
  6
Continuous
 62
     2
370
     9
100
AcDbLine
 10
1376.474823822846
 20
790.334373680321
 30
0.0
 11
1376.474823822846
 21
808.3346310177367
 31
0.0
  0
LINE
  5
2A8
330
1F
100
AcDbEntity
  8
A-1_ピット
  6
Continuous
 62
     2
370
     9
100
AcDbLine
 10
1404.104944177576
 20
790.334373680321
 30
0.0
 11
1376.474823822846
 21
790.334373680321
 31
0.0
  0
LINE
  5
2A9
330
1F
100
AcDbEntity
  8
A-1_ピット
  6
Continuous
 62
     2
370
     9
100
AcDbLine
 10
1404.105191617399
 20
808.3346310177367
 30
0.0
 11
1376.474823822846
 21
808.3346310177367
 31
0.0
  0
LINE
  5
2AA
330
1F
100
AcDbEntity
  8
A-1_ピット
  6
Continuous
 62
     2
370
     9
100
AcDbLine
 10
1413.422538138725
 20
791.561180320946
 30
0.0
 11
1529.804126636402
 21
822.7455262880068
 31
0.0
  0
LINE
  5
2AB
330
1F
100
AcDbEntity
  8
A-1_ピット
  6
Continuous
 62
     2
370
     9
100
AcDbLine
 10
1408.763988597973
 20
808.9477868982266
 30
0.0
 11
1525.145329655828
 21
840.1321328652873
 31
0.0
  0
LINE
  5
2AC
330
1F
100
AcDbEntity
  8
A-1_ピット
  6
JWW_CENTER2
 62
     2
370
     9
100
AcDbLine
 10
1404.104944177576
 20
799.334502349029
 30
0.0
 11
1368.865059517525
 21
799.334502349029
 31
0.0
  0
LINE
  5
2AD
330
1F
100
AcDbEntity
  8
A-1_ピット
  6
JWW_CENTER2
 62
     2
370
     9
100
AcDbLine
 10
1411.093139648438
 20
800.2544836095863
 30
0.0
 11
1541.426375105575
 21
835.1771504170188
 31
0.0
  0
LINE
  5
2AE
330
1F
100
AcDbEntity
  8
A-2_蓋
  6
Continuous
 62
     3
370
     9
100
AcDbLine
 10
1404.474619272593
 20
770.3345551361908
 30
0.0
 11
1404.474619272593
 21
761.3346739073057
 31
0.0
  0
LINE
  5
2AF
330
1F
100
AcDbEntity
  8
A-2_蓋
  6
Continuous
 62
     3
370
     9
100
AcDbLine
 10
1327.102166253167
 20
670.33447265625
 30
0.0
 11
1315.788475242821
 21
659.0205342060813
 31
0.0
  0
LINE
  5
2B0
330
1F
100
AcDbEntity
  8
A-2_蓋
  6
Continuous
 62
     3
370
     9
100
AcDbLine
 10
1315.788475242821
 20
659.0205342060813
 30
0.0
 11
1304.474784232475
 21
670.33447265625
 31
0.0
  0
LINE
  5
2B1
330
1F
100
AcDbEntity
  8
A-2_蓋
  6
Continuous
 62
     3
370
     9
100
AcDbLine
 10
1304.474784232475
 20
670.33447265625
 30
0.0
 11
1315.788475242821
 21
681.6479162267738
 31
0.0
  0
LINE
  5
2B2
330
1F
100
AcDbEntity
  8
A-2_蓋
  6
Continuous
 62
     3
370
     9
100
AcDbLine
 10
1315.788475242821
 20
681.6479162267738
 30
0.0
 11
1327.102166253167
 21
670.33447265625
 31
0.0
  0
LINE
  5
2B3
330
1F
100
AcDbEntity
  8
A-2_蓋
  6
Continuous
 62
     3
370
     9
100
AcDbLine
 10
1304.474784232475
 20
770.3345551361908
 30
0.0
 11
1404.474619272593
 21
770.3345551361908
 31
0.0
  0
LINE
  5
2B4
330
1F
100
AcDbEntity
  8
A-A
  6
Continuous
 62
     3
370
     9
100
AcDbLine
 10
1301.474576383024
 20
757.0482738597974
 30
0.0
 11
1301.474576383024
 21
751.0481056007179
 31
0.0
  0
LINE
  5
2B5
330
1F
100
AcDbEntity
  8
A-A
  6
Continuous
 62
     3
370
     9
100
AcDbLine
 10
1301.474576383024
 20
757.0482738597974
 30
0.0
 11
1304.474784232475
 21
759.0480825063346
 31
0.0
  0
LINE
  5
2B6
330
1F
100
AcDbEntity
  8
A-A
  6
Continuous
 62
     3
370
     9
100
AcDbLine
 10
1301.474576383024
 20
724.8222062394427
 30
0.0
 11
1304.474784232475
 21
722.8221501530828
 31
0.0
  0
LINE
  5
2B7
330
1F
100
AcDbEntity
  8
A-A
  6
Continuous
 62
     3
370
     9
100
AcDbLine
 10
1301.474576383024
 20
736.8220478779563
 30
0.0
 11
1301.474576383024
 21
724.8222062394427
 31
0.0
  0
LINE
  5
2B8
330
1F
100
AcDbEntity
  8
A-A
  6
Continuous
 62
     3
370
     9
100
AcDbLine
 10
1301.474576383024
 20
736.8220478779563
 30
0.0
 11
1304.474784232475
 21
738.8221039643158
 31
0.0
  0
LINE
  5
2B9
330
1F
100
AcDbEntity
  8
A-A
  6
Continuous
 62
     3
370
     9
100
AcDbLine
 10
1304.474784232475
 20
749.0482969541807
 30
0.0
 11
1304.474784232475
 21
738.8221039643158
 31
0.0
  0
LINE
  5
2BA
330
1F
100
AcDbEntity
  8
A-A
  6
Continuous
 62
     3
370
     9
100
AcDbLine
 10
1301.474576383024
 20
751.0481056007179
 30
0.0
 11
1304.474784232475
 21
749.0482969541807
 31
0.0
  0
LINE
  5
2BB
330
1F
100
AcDbEntity
  8
A-A
  6
Continuous
 62
     3
370
     9
100
AcDbLine
 10
1301.474576383024
 20
710.5963959565033
 30
0.0
 11
1301.474576383024
 21
704.5962276974242
 31
0.0
  0
LINE
  5
2BC
330
1F
100
AcDbEntity
  8
A-A
  6
Continuous
 62
     3
370
     9
100
AcDbLine
 10
1301.474576383024
 20
710.5963959565033
 30
0.0
 11
1304.474784232475
 21
712.5962046030406
 31
0.0
  0
LINE
  5
2BD
330
1F
100
AcDbEntity
  8
A-A
  6
Continuous
 62
     3
370
     9
100
AcDbLine
 10
1301.474576383024
 20
678.370080896326
 30
0.0
 11
1304.474784232475
 21
676.3702722497891
 31
0.0
  0
LINE
  5
2BE
330
1F
100
AcDbEntity
  8
A-A
  6
Continuous
 62
     3
370
     9
100
AcDbLine
 10
1301.474576383024
 20
690.3701699746623
 30
0.0
 11
1301.474576383024
 21
678.370080896326
 31
0.0
  0
LINE
  5
2BF
330
1F
100
AcDbEntity
  8
A-A
  6
Continuous
 62
     3
370
     9
100
AcDbLine
 10
1301.474576383024
 20
690.3701699746623
 30
0.0
 11
1304.474784232475
 21
692.3702260610221
 31
0.0
  0
LINE
  5
2C0
330
1F
100
AcDbEntity
  8
A-A
  6
Continuous
 62
     3
370
     9
100
AcDbLine
 10
1304.474784232475
 20
702.5961716110644
 30
0.0
 11
1304.474784232475
 21
692.3702260610221
 31
0.0
  0
LINE
  5
2C1
330
1F
100
AcDbEntity
  8
A-A
  6
Continuous
 62
     3
370
     9
100
AcDbLine
 10
1301.474576383024
 20
704.5962276974242
 30
0.0
 11
1304.474784232475
 21
702.5961716110644
 31
0.0
  0
LINE
  5
2C2
330
1F
100
AcDbEntity
  8
A-A
  6
Continuous
 62
     3
370
     9
100
AcDbLine
 10
1304.474784232475
 20
712.5962046030406
 30
0.0
 11
1304.474784232475
 21
722.8221501530828
 31
0.0
  0
LINE
  5
2C3
330
1F
100
AcDbEntity
  8
A-A
  6
Continuous
 62
     3
370
     9
100
AcDbLine
 10
1301.474576383024
 20
664.144270613387
 30
0.0
 11
1301.474576383024
 21
658.1441023543075
 31
0.0
  0
LINE
  5
2C4
330
1F
100
AcDbEntity
  8
A-A
  6
Continuous
 62
     3
370
     9
100
AcDbLine
 10
1301.474576383024
 20
664.144270613387
 30
0.0
 11
1304.474784232475
 21
666.1443266997467
 31
0.0
  0
LINE
  5
2C5
330
1F
100
AcDbEntity
  8
A-A
  6
Continuous
 62
     3
370
     9
100
AcDbLine
 10
1301.474576383024
 20
631.9182029930323
 30
0.0
 11
1304.474784232475
 21
629.918394346495
 31
0.0
  0
LINE
  5
2C6
330
1F
100
AcDbEntity
  8
A-A
  6
Continuous
 62
     3
370
     9
100
AcDbLine
 10
1301.474576383024
 20
643.9180446315459
 30
0.0
 11
1301.474576383024
 21
631.9182029930323
 31
0.0
  0
LINE
  5
2C7
330
1F
100
AcDbEntity
  8
A-A
  6
Continuous
 62
     3
370
     9
100
AcDbLine
 10
1301.474576383024
 20
643.9180446315459
 30
0.0
 11
1304.474784232475
 21
645.9181007179054
 31
0.0
  0
LINE
  5
2C8
330
1F
100
AcDbEntity
  8
A-A
  6
Continuous
 62
     3
370
     9
100
AcDbLine
 10
1304.474784232475
 20
656.1442937077703
 30
0.0
 11
1304.474784232475
 21
645.9181007179054
 31
0.0
  0
LINE
  5
2C9
330
1F
100
AcDbEntity
  8
A-A
  6
Continuous
 62
     3
370
     9
100
AcDbLine
 10
1301.474576383024
 20
658.1441023543075
 30
0.0
 11
1304.474784232475
 21
656.1442937077703
 31
0.0
  0
LINE
  5
2CA
330
1F
100
AcDbEntity
  8
A-A
  6
Continuous
 62
     3
370
     9
100
AcDbLine
 10
1304.474784232475
 20
666.1443266997467
 30
0.0
 11
1304.474784232475
 21
676.3702722497891
 31
0.0
  0
LINE
  5
2CB
330
1F
100
AcDbEntity
  8
A-A
  6
Continuous
 62
     3
370
     9
100
AcDbLine
 10
1301.474576383024
 20
617.6921452702703
 30
0.0
 11
1301.474576383024
 21
611.6922244510135
 31
0.0
  0
LINE
  5
2CC
330
1F
100
AcDbEntity
  8
A-A
  6
Continuous
 62
     3
370
     9
100
AcDbLine
 10
1301.474576383024
 20
617.6921452702703
 30
0.0
 11
1304.474784232475
 21
619.6922013566302
 31
0.0
  0
LINE
  5
2CD
330
1F
100
AcDbEntity
  8
A-A
  6
Continuous
 62
     3
370
     9
100
AcDbLine
 10
1301.474576383024
 20
611.6922244510135
 30
0.0
 11
1304.474784232475
 21
609.692168364654
 31
0.0
  0
LINE
  5
2CE
330
1F
100
AcDbEntity
  8
A-A
  6
Continuous
 62
     3
370
     9
100
AcDbLine
 10
1304.474784232475
 20
619.6922013566302
 30
0.0
 11
1304.474784232475
 21
629.918394346495
 31
0.0
  0
LINE
  5
2CF
330
1F
100
AcDbEntity
  8
A-A
  6
Continuous
 62
     3
370
     9
100
AcDbLine
 10
1304.474784232475
 20
770.3345551361908
 30
0.0
 11
1304.474784232475
 21
759.0480825063346
 31
0.0
  0
LINE
  5
2D0
330
1F
100
AcDbEntity
  8
A-A
  6
Continuous
 62
     3
370
     9
100
AcDbLine
 10
1301.474576383024
 20
585.4663250897383
 30
0.0
 11
1304.474784232475
 21
583.4660215635557
 31
0.0
  0
LINE
  5
2D1
330
1F
100
AcDbEntity
  8
A-A
  6
Continuous
 62
     3
370
     9
100
AcDbLine
 10
1301.474576383024
 20
597.4659192884292
 30
0.0
 11
1301.474576383024
 21
585.4663250897383
 31
0.0
  0
LINE
  5
2D2
330
1F
100
AcDbEntity
  8
A-A
  6
Continuous
 62
     3
370
     9
100
AcDbLine
 10
1301.474576383024
 20
597.4659192884292
 30
0.0
 11
1304.474784232475
 21
599.4659753747891
 31
0.0
  0
LINE
  5
2D3
330
1F
100
AcDbEntity
  8
A-A
  6
Continuous
 62
     3
370
     9
100
AcDbLine
 10
1304.474784232475
 20
609.692168364654
 30
0.0
 11
1304.474784232475
 21
599.4659753747891
 31
0.0
  0
LINE
  5
2D4
330
1F
100
AcDbEntity
  8
A-A
  6
Continuous
 62
     3
370
     9
100
AcDbLine
 10
1301.474576383024
 20
571.240019927154
 30
0.0
 11
1301.474576383024
 21
565.2400991078971
 31
0.0
  0
LINE
  5
2D5
330
1F
100
AcDbEntity
  8
A-A
  6
Continuous
 62
     3
370
     9
100
AcDbLine
 10
1301.474576383024
 20
571.240019927154
 30
0.0
 11
1304.474784232475
 21
573.2403234533363
 31
0.0
  0
LINE
  5
2D6
330
1F
100
AcDbEntity
  8
A-A
  6
Continuous
 62
     3
370
     9
100
AcDbLine
 10
1301.474576383024
 20
565.2400991078971
 30
0.0
 11
1304.474784232475
 21
563.2400430215373
 31
0.0
  0
LINE
  5
2D7
330
1F
100
AcDbEntity
  8
A-A
  6
Continuous
 62
     3
370
     9
100
AcDbLine
 10
1304.474784232475
 20
573.2403234533363
 30
0.0
 11
1304.474784232475
 21
583.4660215635557
 31
0.0
  0
LINE
  5
2D8
330
1F
100
AcDbEntity
  8
A-A
  6
Continuous
 62
     3
370
     9
100
AcDbLine
 10
1301.474576383024
 20
551.0137939453125
 30
0.0
 11
1301.474576383024
 21
539.0139523067992
 31
0.0
  0
LINE
  5
2D9
330
1F
100
AcDbEntity
  8
A-A
  6
Continuous
 62
     3
370
     9
100
AcDbLine
 10
1301.474576383024
 20
551.0137939453125
 30
0.0
 11
1304.474784232475
 21
553.014097471495
 31
0.0
  0
LINE
  5
2DA
330
1F
100
AcDbEntity
  8
A-A
  6
Continuous
 62
     3
370
     9
100
AcDbLine
 10
1304.474784232475
 20
563.2400430215373
 30
0.0
 11
1304.474784232475
 21
553.014097471495
 31
0.0
  0
LINE
  5
2DB
330
1F
100
AcDbEntity
  8
A-2_蓋
  6
Continuous
 62
     3
370
     9
100
AcDbLine
 10
1414.474899704392
 20
761.3346739073057
 30
0.0
 11
1414.474899704392
 21
541.2673867715373
 31
0.0
  0
LINE
  5
2DC
330
1F
100
AcDbEntity
  8
A-3_受枠
  6
Continuous
 62
     4
370
     9
100
AcDbLine
 10
1342.37340978674
 20
772.5706688133448
 30
0.0
 11
1343.021949561867
 21
778.3345320418075
 31
0.0
  0
LINE
  5
2DD
330
1F
100
AcDbEntity
  8
A-3_受枠
  6
Continuous
 62
     4
370
     9
100
AcDbLine
 10
1362.436078045819
 20
776.1496384079394
 30
0.0
 11
1343.021949561867
 21
778.3345320418075
 31
0.0
  0
LINE
  5
2DE
330
1F
100
AcDbEntity
  8
A-3_受枠
  6
Continuous
 62
     4
370
     9
100
AcDbLine
 10
1362.248023780617
 20
770.3343076963682
 30
0.0
 11
1342.37340978674
 21
772.5706688133448
 31
0.0
  0
LINE
  5
2DF
330
1F
100
AcDbEntity
  8
A-3_受枠
  6
Continuous
 62
     4
370
     9
100
AcDbLine
 10
1403.426959063556
 20
772.284875818201
 30
0.0
 11
1362.248023780617
 21
770.3343076963682
 31
0.0
  0
LINE
  5
2E0
330
1F
100
AcDbEntity
  8
A-3_受枠
  6
Continuous
 62
     4
370
     9
100
AcDbLine
 10
1403.152795740076
 20
778.0781843855575
 30
0.0
 11
1362.436078045819
 21
776.1496384079394
 31
0.0
  0
LINE
  5
2E1
330
1F
100
AcDbEntity
  8
A-3_受枠
  6
Continuous
 62
     4
370
     9
100
AcDbLine
 10
1410.27460871516
 20
760.3911858635981
 30
0.0
 11
1410.27460871516
 21
771.2859612542231
 31
0.0
  0
LINE
  5
2E2
330
1F
100
AcDbEntity
  8
A-3_受枠
  6
Continuous
 62
     4
370
     9
100
AcDbLine
 10
1349.074327623522
 20
733.1342047614021
 30
0.0
 11
1407.374366554054
 21
733.1342047614021
 31
0.0
  0
LINE
  5
2E3
330
1F
100
AcDbEntity
  8
A-3_受枠
  6
Continuous
 62
     4
370
     9
100
AcDbLine
 10
1349.074327623522
 20
727.3344627586573
 30
0.0
 11
1407.374366554054
 21
727.3344627586573
 31
0.0
  0
LINE
  5
2E4
330
1F
100
AcDbEntity
  8
A-3_受枠
  6
Continuous
 62
     4
370
     9
100
AcDbLine
 10
1342.274433857686
 20
744.9858299461573
 30
0.0
 11
1342.274433857686
 21
734.1343565244932
 31
0.0
  0
LINE
  5
2E5
330
1F
100
AcDbEntity
  8
A-3_受枠
  6
Continuous
 62
     4
370
     9
100
AcDbLine
 10
1348.074423300254
 20
744.9858299461573
 30
0.0
 11
1348.074423300254
 21
734.1343565244932
 31
0.0
  0
LINE
  5
2E6
330
1F
100
AcDbEntity
  8
A-3_受枠
  6
Continuous
 62
     4
370
     9
100
AcDbLine
 10
1348.655164563978
 20
745.8936866554054
 30
0.0
 11
1369.365630278716
 21
755.4636692356419
 31
0.0
  0
LINE
  5
2E7
330
1F
100
AcDbEntity
  8
A-3_受枠
  6
Continuous
 62
     4
370
     9
100
AcDbLine
 10
1403.099843618032
 20
753.6014371304901
 30
0.0
 11
1369.365630278716
 21
755.4636692356419
 31
0.0
  0
LINE
  5
2E8
330
1F
100
AcDbEntity
  8
A-3_受枠
  6
Continuous
 62
     4
370
     9
100
AcDbLine
 10
1346.222088788007
 20
751.1584637616133
 30
0.0
 11
1368.243490683066
 21
761.3344264674834
 31
0.0
  0
LINE
  5
2E9
330
1F
100
AcDbEntity
  8
A-3_受枠
  6
Continuous
 62
     4
370
     9
100
AcDbLine
 10
1403.419288429054
 20
759.3925187394427
 30
0.0
 11
1368.243490683066
 21
761.3344264674834
 31
0.0
  0
LINE
  5
2EA
330
1F
100
AcDbEntity
  8
A-3_受枠
  6
Continuous
 62
     4
370
     9
100
AcDbLine
 10
1404.474619272593
 20
771.2859612542231
 30
0.0
 11
1404.474619272593
 21
760.3911858635981
 31
0.0
  0
LINE
  5
2EB
330
1F
100
AcDbEntity
  8
A-2_蓋
  6
Continuous
 62
     3
370
     9
100
AcDbLine
 10
1394.47483372044
 20
761.3346739073057
 30
0.0
 11
1394.47483372044
 21
759.8864086254224
 31
0.0
  0
LINE
  5
2EC
330
1F
100
AcDbEntity
  8
A-2_蓋
  6
Continuous
 62
     3
370
     9
100
AcDbLine
 10
1397.474794130068
 20
761.3346739073057
 30
0.0
 11
1397.474794130068
 21
759.7206239442568
 31
0.0
  0
LINE
  5
2ED
330
1F
100
AcDbEntity
  8
A-2_蓋
  6
Continuous
 62
     3
370
     9
100
AcDbLine
 10
1304.474784232475
 20
761.3346739073057
 30
0.0
 11
1404.474619272593
 21
761.3346739073057
 31
0.0
  0
LINE
  5
2EE
330
1F
100
AcDbEntity
  8
A-2_蓋
  6
Continuous
 62
     3
370
     9
100
AcDbLine
 10
1410.27460871516
 20
761.3346739073057
 30
0.0
 11
1414.474899704392
 21
761.3346739073057
 31
0.0
  0
LINE
  5
2EF
330
1F
100
AcDbEntity
  8
A-2_蓋
  6
Continuous
 62
     3
370
     9
100
AcDbLine
 10
1394.47483372044
 20
754.0775113492401
 30
0.0
 11
1394.47483372044
 21
733.1342047614021
 31
0.0
  0
LINE
  5
2F0
330
1F
100
AcDbEntity
  8
A-2_蓋
  6
Continuous
 62
     3
370
     9
100
AcDbLine
 10
1394.47483372044
 20
727.3344627586573
 30
0.0
 11
1394.47483372044
 21
541.2673867715373
 31
0.0
  0
LINE
  5
2F1
330
1F
100
AcDbEntity
  8
A-2_蓋
  6
Continuous
 62
     3
370
     9
100
AcDbLine
 10
1397.474794130068
 20
754.0775113492401
 30
0.0
 11
1397.474794130068
 21
733.1342047614021
 31
0.0
  0
LINE
  5
2F2
330
1F
100
AcDbEntity
  8
A-2_蓋
  6
Continuous
 62
     3
370
     9
100
AcDbLine
 10
1397.474794130068
 20
727.3344627586573
 30
0.0
 11
1397.474794130068
 21
541.2673867715373
 31
0.0
  0
LINE
  5
2F3
330
1F
100
AcDbEntity
  8
A-1_ピット
  6
Continuous
 62
     2
370
     9
100
AcDbLine
 10
1304.474784232475
 20
-42.66597438502941
 30
0.0
 11
1304.474784232475
 21
-49.66579952755495
 31
0.0
  0
LINE
  5
2F4
330
1F
100
AcDbEntity
  8
A-1_ピット
  6
Continuous
 62
     2
370
     9
100
AcDbLine
 10
1419.474668760558
 20
70.3338540566935
 30
0.0
 11
1426.474741342906
 21
70.3338540566935
 31
0.0
  0
LINE
  5
2F5
330
1F
100
AcDbEntity
  8
A-1_ピット
  6
Continuous
 62
     2
370
     9
100
AcDbLine
 10
1414.474899704392
 20
-29.66598098342473
 30
0.0
 11
1414.474899704392
 21
65.33408500052786
 31
0.0
  0
LINE
  5
2F6
330
1F
100
AcDbEntity
  8
A-1_ピット
  6
Continuous
 62
     2
370
     9
100
AcDbLine
 10
1406.474675358953
 20
-37.66595788904141
 30
0.0
 11
1309.474800728463
 21
-37.66595788904141
 31
0.0
  0
LINE
  5
2F7
330
1F
100
AcDbEntity
  8
A-1_ピット
  6
Continuous
 62
     2
370
     9
100
AcDbLine
 10
1426.474741342906
 20
-49.66579952755495
 30
0.0
 11
1304.474784232475
 21
-49.66579952755495
 31
0.0
  0
LINE
  5
2F8
330
1F
100
AcDbEntity
  8
A-1_ピット
  6
Continuous
 62
     2
370
     9
100
AcDbLine
 10
1426.474741342906
 20
-49.66579952755495
 30
0.0
 11
1426.474741342906
 21
70.3338540566935
 31
0.0
  0
LINE
  5
2F9
330
1F
100
AcDbEntity
  8
A-1_ピット
  6
Continuous
 62
     2
370
     9
100
AcDbLine
 10
1376.474823822846
 20
-49.66579952755495
 30
0.0
 11
1376.474823822846
 21
-67.6660568649703
 31
0.0
  0
LINE
  5
2FA
330
1F
100
AcDbEntity
  8
A-1_ピット
  6
Continuous
 62
     2
370
     9
100
AcDbLine
 10
1404.104944177576
 20
-49.66579952755495
 30
0.0
 11
1376.474823822846
 21
-49.66579952755495
 31
0.0
  0
LINE
  5
2FB
330
1F
100
AcDbEntity
  8
A-1_ピット
  6
Continuous
 62
     2
370
     9
100
AcDbLine
 10
1404.105191617399
 20
-67.6660568649703
 30
0.0
 11
1376.474823822846
 21
-67.6660568649703
 31
0.0
  0
LINE
  5
2FC
330
1F
100
AcDbEntity
  8
A-1_ピット
  6
Continuous
 62
     2
370
     9
100
AcDbLine
 10
1413.422538138725
 20
-50.89260616817995
 30
0.0
 11
1529.804126636402
 21
-82.07695213524062
 31
0.0
  0
LINE
  5
2FD
330
1F
100
AcDbEntity
  8
A-1_ピット
  6
Continuous
 62
     2
370
     9
100
AcDbLine
 10
1408.763988597973
 20
-68.27921274546014
 30
0.0
 11
1525.145329655828
 21
-99.46355871252109
 31
0.0
  0
LINE
  5
2FE
330
1F
100
AcDbEntity
  8
A-1_ピット
  6
JWW_CENTER2
 62
     2
370
     9
100
AcDbLine
 10
1404.104944177576
 20
-58.66592819626248
 30
0.0
 11
1368.865059517525
 21
-58.66592819626248
 31
0.0
  0
LINE
  5
2FF
330
1F
100
AcDbEntity
  8
A-1_ピット
  6
JWW_CENTER2
 62
     2
370
     9
100
AcDbLine
 10
1411.093139648438
 20
-59.58590945682005
 30
0.0
 11
1541.426375105575
 21
-94.50857626425233
 31
0.0
  0
LINE
  5
300
330
1F
100
AcDbEntity
  8
A-2_蓋
  6
Continuous
 62
     3
370
     9
100
AcDbLine
 10
1404.474619272593
 20
-29.66598098342473
 30
0.0
 11
1404.474619272593
 21
-20.66609975453957
 31
0.0
  0
LINE
  5
301
330
1F
100
AcDbEntity
  8
A-2_蓋
  6
Continuous
 62
     3
370
     9
100
AcDbLine
 10
1414.474899704392
 20
-20.66609975453957
 30
0.0
 11
1414.474899704392
 21
541.2673867715373
 31
0.0
  0
LINE
  5
302
330
1F
100
AcDbEntity
  8
A-3_受枠
  6
Continuous
 62
     4
370
     9
100
AcDbLine
 10
1342.37340978674
 20
-31.90209466057837
 30
0.0
 11
1343.021949561867
 21
-37.66595788904141
 31
0.0
  0
LINE
  5
303
330
1F
100
AcDbEntity
  8
A-3_受枠
  6
Continuous
 62
     4
370
     9
100
AcDbLine
 10
1362.436078045819
 20
-35.48106425517318
 30
0.0
 11
1343.021949561867
 21
-37.66595788904141
 31
0.0
  0
LINE
  5
304
330
1F
100
AcDbEntity
  8
A-3_受枠
  6
Continuous
 62
     4
370
     9
100
AcDbLine
 10
1362.248023780617
 20
-29.66573354360207
 30
0.0
 11
1342.37340978674
 21
-31.90209466057837
 31
0.0
  0
LINE
  5
305
330
1F
100
AcDbEntity
  8
A-3_受枠
  6
Continuous
 62
     4
370
     9
100
AcDbLine
 10
1403.426959063556
 20
-31.61630166543489
 30
0.0
 11
1362.248023780617
 21
-29.66573354360207
 31
0.0
  0
LINE
  5
306
330
1F
100
AcDbEntity
  8
A-3_受枠
  6
Continuous
 62
     4
370
     9
100
AcDbLine
 10
1403.152795740076
 20
-37.40961023279141
 30
0.0
 11
1362.436078045819
 21
-35.48106425517318
 31
0.0
  0
LINE
  5
307
330
1F
100
AcDbEntity
  8
A-3_受枠
  6
Continuous
 62
     4
370
     9
100
AcDbLine
 10
1410.27460871516
 20
-19.72261171083176
 30
0.0
 11
1410.27460871516
 21
-30.61738710145676
 31
0.0
  0
LINE
  5
308
330
1F
100
AcDbEntity
  8
A-3_受枠
  6
Continuous
 62
     4
370
     9
100
AcDbLine
 10
1349.074327623522
 20
7.534369391364066
 30
0.0
 11
1407.374366554054
 21
7.534369391364066
 31
0.0
  0
LINE
  5
309
330
1F
100
AcDbEntity
  8
A-3_受枠
  6
Continuous
 62
     4
370
     9
100
AcDbLine
 10
1349.074327623522
 20
13.33411139410913
 30
0.0
 11
1407.374366554054
 21
13.33411139410913
 31
0.0
  0
LINE
  5
30A
330
1F
100
AcDbEntity
  8
A-3_受枠
  6
Continuous
 62
     4
370
     9
100
AcDbLine
 10
1342.274433857686
 20
-4.317255793390871
 30
0.0
 11
1342.274433857686
 21
6.534217628272927
 31
0.0
  0
LINE
  5
30B
330
1F
100
AcDbEntity
  8
A-3_受枠
  6
Continuous
 62
     4
370
     9
100
AcDbLine
 10
1348.074423300254
 20
-4.317255793390871
 30
0.0
 11
1348.074423300254
 21
6.534217628272927
 31
0.0
  0
LINE
  5
30C
330
1F
100
AcDbEntity
  8
A-3_受枠
  6
Continuous
 62
     4
370
     9
100
AcDbLine
 10
1348.655164563978
 20
-5.22511250263932
 30
0.0
 11
1369.365630278716
 21
-14.79509508287578
 31
0.0
  0
LINE
  5
30D
330
1F
100
AcDbEntity
  8
A-3_受枠
  6
Continuous
 62
     4
370
     9
100
AcDbLine
 10
1403.099843618032
 20
-12.93286297772369
 30
0.0
 11
1369.365630278716
 21
-14.79509508287578
 31
0.0
  0
LINE
  5
30E
330
1F
100
AcDbEntity
  8
A-3_受枠
  6
Continuous
 62
     4
370
     9
100
AcDbLine
 10
1346.222088788007
 20
-10.48988960884714
 30
0.0
 11
1368.243490683066
 21
-20.66585231471691
 31
0.0
  0
LINE
  5
30F
330
1F
100
AcDbEntity
  8
A-3_受枠
  6
Continuous
 62
     4
370
     9
100
AcDbLine
 10
1403.419288429054
 20
-18.72394458667657
 30
0.0
 11
1368.243490683066
 21
-20.66585231471691
 31
0.0
  0
LINE
  5
310
330
1F
100
AcDbEntity
  8
A-3_受枠
  6
Continuous
 62
     4
370
     9
100
AcDbLine
 10
1404.474619272593
 20
-30.61738710145676
 30
0.0
 11
1404.474619272593
 21
-19.72261171083176
 31
0.0
  0
LINE
  5
311
330
1F
100
AcDbEntity
  8
A-2_蓋
  6
Continuous
 62
     3
370
     9
100
AcDbLine
 10
1394.47483372044
 20
-20.66609975453957
 30
0.0
 11
1394.47483372044
 21
-19.21783447265625
 31
0.0
  0
LINE
  5
312
330
1F
100
AcDbEntity
  8
A-2_蓋
  6
Continuous
 62
     3
370
     9
100
AcDbLine
 10
1397.474794130068
 20
-20.66609975453957
 30
0.0
 11
1397.474794130068
 21
-19.05204979149062
 31
0.0
  0
LINE
  5
313
330
1F
100
AcDbEntity
  8
A-2_蓋
  6
Continuous
 62
     3
370
     9
100
AcDbLine
 10
1304.474784232475
 20
-20.66609975453957
 30
0.0
 11
1404.474619272593
 21
-20.66609975453957
 31
0.0
  0
LINE
  5
314
330
1F
100
AcDbEntity
  8
A-2_蓋
  6
Continuous
 62
     3
370
     9
100
AcDbLine
 10
1410.27460871516
 20
-20.66609975453957
 30
0.0
 11
1414.474899704392
 21
-20.66609975453957
 31
0.0
  0
LINE
  5
315
330
1F
100
AcDbEntity
  8
A-2_蓋
  6
Continuous
 62
     3
370
     9
100
AcDbLine
 10
1321.474642366977
 20
761.3346739073057
 30
0.0
 11
1321.474642366977
 21
675.9617491026182
 31
0.0
  0
LINE
  5
316
330
1F
100
AcDbEntity
  8
A-2_蓋
  6
Continuous
 62
     3
370
     9
100
AcDbLine
 10
1321.474642366977
 20
664.7067013302367
 30
0.0
 11
1321.474642366977
 21
541.2673867715373
 31
0.0
  0
LINE
  5
317
330
1F
100
AcDbEntity
  8
A-2_蓋
  6
Continuous
 62
     3
370
     9
100
AcDbLine
 10
1324.474850216428
 20
761.3346739073057
 30
0.0
 11
1324.474850216428
 21
672.9617886929901
 31
0.0
  0
LINE
  5
318
330
1F
100
AcDbEntity
  8
A-2_蓋
  6
Continuous
 62
     3
370
     9
100
AcDbLine
 10
1324.474850216428
 20
667.7071566195102
 30
0.0
 11
1324.474850216428
 21
541.2673867715373
 31
0.0
  0
LINE
  5
319
330
1F
100
AcDbEntity
  8
A-A
  6
Continuous
 62
     3
370
     9
100
AcDbLine
 10
1301.474576383024
 20
539.0139523067992
 30
0.0
 11
1304.474784232475
 21
537.0136487806167
 31
0.0
  0
LINE
  5
31A
330
1F
100
AcDbEntity
  8
A-A
  6
Continuous
 62
     3
370
     9
100
AcDbLine
 10
1301.474576383024
 20
524.7876471442146
 30
0.0
 11
1301.474576383024
 21
518.7877263249578
 31
0.0
  0
LINE
  5
31B
330
1F
100
AcDbEntity
  8
A-A
  6
Continuous
 62
     3
370
     9
100
AcDbLine
 10
1301.474576383024
 20
524.7876471442146
 30
0.0
 11
1304.474784232475
 21
526.7879506703971
 31
0.0
  0
LINE
  5
31C
330
1F
100
AcDbEntity
  8
A-A
  6
Continuous
 62
     3
370
     9
100
AcDbLine
 10
1301.474576383024
 20
518.7877263249578
 30
0.0
 11
1304.474784232475
 21
516.7876702385981
 31
0.0
  0
LINE
  5
31D
330
1F
100
AcDbEntity
  8
A-A
  6
Continuous
 62
     3
370
     9
100
AcDbLine
 10
1304.474784232475
 20
526.7879506703971
 30
0.0
 11
1304.474784232475
 21
537.0136487806167
 31
0.0
  0
LINE
  5
31E
330
1F
100
AcDbEntity
  8
A-A
  6
Continuous
 62
     3
370
     9
100
AcDbLine
 10
1301.474576383024
 20
504.5614211623734
 30
0.0
 11
1301.474576383024
 21
492.5615795238599
 31
0.0
  0
LINE
  5
31F
330
1F
100
AcDbEntity
  8
A-A
  6
Continuous
 62
     3
370
     9
100
AcDbLine
 10
1301.474576383024
 20
504.5614211623734
 30
0.0
 11
1304.474784232475
 21
506.5617246885557
 31
0.0
  0
LINE
  5
320
330
1F
100
AcDbEntity
  8
A-A
  6
Continuous
 62
     3
370
     9
100
AcDbLine
 10
1304.474784232475
 20
516.7876702385981
 30
0.0
 11
1304.474784232475
 21
506.5617246885557
 31
0.0
  0
LINE
  5
321
330
1F
100
AcDbEntity
  8
A-A
  6
Continuous
 62
     3
370
     9
100
AcDbLine
 10
1301.474576383024
 20
492.5615795238599
 30
0.0
 11
1304.474784232475
 21
490.5612759976773
 31
0.0
  0
LINE
  5
322
330
1F
100
AcDbEntity
  8
A-A
  6
Continuous
 62
     3
370
     9
100
AcDbLine
 10
1301.474576383024
 20
478.3352743612755
 30
0.0
 11
1301.474576383024
 21
472.3353535420188
 31
0.0
  0
LINE
  5
323
330
1F
100
AcDbEntity
  8
A-A
  6
Continuous
 62
     3
370
     9
100
AcDbLine
 10
1301.474576383024
 20
478.3352743612755
 30
0.0
 11
1304.474784232475
 21
480.3355778874578
 31
0.0
  0
LINE
  5
324
330
1F
100
AcDbEntity
  8
A-A
  6
Continuous
 62
     3
370
     9
100
AcDbLine
 10
1301.474576383024
 20
472.3353535420188
 30
0.0
 11
1304.474784232475
 21
470.3352974556589
 31
0.0
  0
LINE
  5
325
330
1F
100
AcDbEntity
  8
A-A
  6
Continuous
 62
     3
370
     9
100
AcDbLine
 10
1304.474784232475
 20
480.3355778874578
 30
0.0
 11
1304.474784232475
 21
490.5612759976773
 31
0.0
  0
LINE
  5
326
330
1F
100
AcDbEntity
  8
A-A
  6
Continuous
 62
     3
370
     9
100
AcDbLine
 10
1301.474576383024
 20
458.1090483794341
 30
0.0
 11
1301.474576383024
 21
446.1092067409209
 31
0.0
  0
LINE
  5
327
330
1F
100
AcDbEntity
  8
A-A
  6
Continuous
 62
     3
370
     9
100
AcDbLine
 10
1301.474576383024
 20
458.1090483794341
 30
0.0
 11
1304.474784232475
 21
460.1093519056167
 31
0.0
  0
LINE
  5
328
330
1F
100
AcDbEntity
  8
A-A
  6
Continuous
 62
     3
370
     9
100
AcDbLine
 10
1304.474784232475
 20
470.3352974556589
 30
0.0
 11
1304.474784232475
 21
460.1093519056167
 31
0.0
  0
LINE
  5
329
330
1F
100
AcDbEntity
  8
A-A
  6
Continuous
 62
     3
370
     9
100
AcDbLine
 10
1301.474576383024
 20
446.1092067409209
 30
0.0
 11
1304.474784232475
 21
444.1089032147383
 31
0.0
  0
LINE
  5
32A
330
1F
100
AcDbEntity
  8
A-A
  6
Continuous
 62
     3
370
     9
100
AcDbLine
 10
1301.474576383024
 20
431.8829015783362
 30
0.0
 11
1301.474576383024
 21
425.8829807590794
 31
0.0
  0
LINE
  5
32B
330
1F
100
AcDbEntity
  8
A-A
  6
Continuous
 62
     3
370
     9
100
AcDbLine
 10
1301.474576383024
 20
431.8829015783362
 30
0.0
 11
1304.474784232475
 21
433.8832051045188
 31
0.0
  0
LINE
  5
32C
330
1F
100
AcDbEntity
  8
A-A
  6
Continuous
 62
     3
370
     9
100
AcDbLine
 10
1301.474576383024
 20
425.8829807590794
 30
0.0
 11
1304.474784232475
 21
423.8829246727198
 31
0.0
  0
LINE
  5
32D
330
1F
100
AcDbEntity
  8
A-A
  6
Continuous
 62
     3
370
     9
100
AcDbLine
 10
1304.474784232475
 20
433.8832051045188
 30
0.0
 11
1304.474784232475
 21
444.1089032147383
 31
0.0
  0
LINE
  5
32E
330
1F
100
AcDbEntity
  8
A-A
  6
Continuous
 62
     3
370
     9
100
AcDbLine
 10
1301.474576383024
 20
411.6566755964951
 30
0.0
 11
1301.474576383024
 21
399.6568339579815
 31
0.0
  0
LINE
  5
32F
330
1F
100
AcDbEntity
  8
A-A
  6
Continuous
 62
     3
370
     9
100
AcDbLine
 10
1301.474576383024
 20
411.6566755964951
 30
0.0
 11
1304.474784232475
 21
413.6569791226773
 31
0.0
  0
LINE
  5
330
330
1F
100
AcDbEntity
  8
A-A
  6
Continuous
 62
     3
370
     9
100
AcDbLine
 10
1304.474784232475
 20
423.8829246727198
 30
0.0
 11
1304.474784232475
 21
413.6569791226773
 31
0.0
  0
LINE
  5
331
330
1F
100
AcDbEntity
  8
A-A
  6
Continuous
 62
     3
370
     9
100
AcDbLine
 10
1301.474576383024
 20
399.6568339579815
 30
0.0
 11
1304.474784232475
 21
397.656530431799
 31
0.0
  0
LINE
  5
332
330
1F
100
AcDbEntity
  8
A-A
  6
Continuous
 62
     3
370
     9
100
AcDbLine
 10
1301.474576383024
 20
385.4305287953972
 30
0.0
 11
1301.474576383024
 21
379.4306079761404
 31
0.0
  0
LINE
  5
333
330
1F
100
AcDbEntity
  8
A-A
  6
Continuous
 62
     3
370
     9
100
AcDbLine
 10
1301.474576383024
 20
385.4305287953972
 30
0.0
 11
1304.474784232475
 21
387.4308323215794
 31
0.0
  0
LINE
  5
334
330
1F
100
AcDbEntity
  8
A-A
  6
Continuous
 62
     3
370
     9
100
AcDbLine
 10
1301.474576383024
 20
379.4306079761404
 30
0.0
 11
1304.474784232475
 21
377.4305518897805
 31
0.0
  0
LINE
  5
335
330
1F
100
AcDbEntity
  8
A-A
  6
Continuous
 62
     3
370
     9
100
AcDbLine
 10
1304.474784232475
 20
387.4308323215794
 30
0.0
 11
1304.474784232475
 21
397.656530431799
 31
0.0
  0
LINE
  5
336
330
1F
100
AcDbEntity
  8
A-A
  6
Continuous
 62
     3
370
     9
100
AcDbLine
 10
1301.474576383024
 20
365.2043028135557
 30
0.0
 11
1301.474576383024
 21
353.2044611750425
 31
0.0
  0
LINE
  5
337
330
1F
100
AcDbEntity
  8
A-A
  6
Continuous
 62
     3
370
     9
100
AcDbLine
 10
1301.474576383024
 20
365.2043028135557
 30
0.0
 11
1304.474784232475
 21
367.2046063397383
 31
0.0
  0
LINE
  5
338
330
1F
100
AcDbEntity
  8
A-A
  6
Continuous
 62
     3
370
     9
100
AcDbLine
 10
1304.474784232475
 20
377.4305518897805
 30
0.0
 11
1304.474784232475
 21
367.2046063397383
 31
0.0
  0
LINE
  5
339
330
1F
100
AcDbEntity
  8
A-A
  6
Continuous
 62
     3
370
     9
100
AcDbLine
 10
1301.474576383024
 20
353.2044611750425
 30
0.0
 11
1304.474784232475
 21
351.2041576488599
 31
0.0
  0
LINE
  5
33A
330
1F
100
AcDbEntity
  8
A-A
  6
Continuous
 62
     3
370
     9
100
AcDbLine
 10
1301.474576383024
 20
338.9781560124578
 30
0.0
 11
1301.474576383024
 21
332.978235193201
 31
0.0
  0
LINE
  5
33B
330
1F
100
AcDbEntity
  8
A-A
  6
Continuous
 62
     3
370
     9
100
AcDbLine
 10
1301.474576383024
 20
338.9781560124578
 30
0.0
 11
1304.474784232475
 21
340.9784595386404
 31
0.0
  0
LINE
  5
33C
330
1F
100
AcDbEntity
  8
A-A
  6
Continuous
 62
     3
370
     9
100
AcDbLine
 10
1301.474576383024
 20
332.978235193201
 30
0.0
 11
1304.474784232475
 21
330.9781791068414
 31
0.0
  0
LINE
  5
33D
330
1F
100
AcDbEntity
  8
A-A
  6
Continuous
 62
     3
370
     9
100
AcDbLine
 10
1304.474784232475
 20
340.9784595386404
 30
0.0
 11
1304.474784232475
 21
351.2041576488599
 31
0.0
  0
LINE
  5
33E
330
1F
100
AcDbEntity
  8
A-A
  6
Continuous
 62
     3
370
     9
100
AcDbLine
 10
1301.474576383024
 20
318.7519300306167
 30
0.0
 11
1301.474576383024
 21
306.7520883921031
 31
0.0
  0
LINE
  5
33F
330
1F
100
AcDbEntity
  8
A-A
  6
Continuous
 62
     3
370
     9
100
AcDbLine
 10
1301.474576383024
 20
318.7519300306167
 30
0.0
 11
1304.474784232475
 21
320.752233556799
 31
0.0
  0
LINE
  5
340
330
1F
100
AcDbEntity
  8
A-A
  6
Continuous
 62
     3
370
     9
100
AcDbLine
 10
1304.474784232475
 20
330.9781791068414
 30
0.0
 11
1304.474784232475
 21
320.752233556799
 31
0.0
  0
LINE
  5
341
330
1F
100
AcDbEntity
  8
A-A
  6
Continuous
 62
     3
370
     9
100
AcDbLine
 10
1301.474576383024
 20
306.7520883921031
 30
0.0
 11
1304.474784232475
 21
304.7517848659206
 31
0.0
  0
LINE
  5
342
330
1F
100
AcDbEntity
  8
A-A
  6
Continuous
 62
     3
370
     9
100
AcDbLine
 10
1301.474576383024
 20
292.5257832295188
 30
0.0
 11
1301.474576383024
 21
286.525862410262
 31
0.0
  0
LINE
  5
343
330
1F
100
AcDbEntity
  8
A-A
  6
Continuous
 62
     3
370
     9
100
AcDbLine
 10
1301.474576383024
 20
292.5257832295188
 30
0.0
 11
1304.474784232475
 21
294.526086755701
 31
0.0
  0
LINE
  5
344
330
1F
100
AcDbEntity
  8
A-A
  6
Continuous
 62
     3
370
     9
100
AcDbLine
 10
1301.474576383024
 20
286.525862410262
 30
0.0
 11
1304.474784232475
 21
284.5258063239021
 31
0.0
  0
LINE
  5
345
330
1F
100
AcDbEntity
  8
A-A
  6
Continuous
 62
     3
370
     9
100
AcDbLine
 10
1304.474784232475
 20
294.526086755701
 30
0.0
 11
1304.474784232475
 21
304.7517848659206
 31
0.0
  0
LINE
  5
346
330
1F
100
AcDbEntity
  8
A-A
  6
Continuous
 62
     3
370
     9
100
AcDbLine
 10
1301.474576383024
 20
272.2995572476773
 30
0.0
 11
1301.474576383024
 21
260.2997156091641
 31
0.0
  0
LINE
  5
347
330
1F
100
AcDbEntity
  8
A-A
  6
Continuous
 62
     3
370
     9
100
AcDbLine
 10
1301.474576383024
 20
272.2995572476773
 30
0.0
 11
1304.474784232475
 21
274.2998607738599
 31
0.0
  0
LINE
  5
348
330
1F
100
AcDbEntity
  8
A-A
  6
Continuous
 62
     3
370
     9
100
AcDbLine
 10
1304.474784232475
 20
284.5258063239021
 30
0.0
 11
1304.474784232475
 21
274.2998607738599
 31
0.0
  0
LINE
  5
349
330
1F
100
AcDbEntity
  8
A-A
  6
Continuous
 62
     3
370
     9
100
AcDbLine
 10
1301.474576383024
 20
260.2997156091641
 30
0.0
 11
1304.474784232475
 21
258.2994120829815
 31
0.0
  0
LINE
  5
34A
330
1F
100
AcDbEntity
  8
A-A
  6
Continuous
 62
     3
370
     9
100
AcDbLine
 10
1301.474576383024
 20
246.0734104465794
 30
0.0
 11
1301.474576383024
 21
240.0734896273227
 31
0.0
  0
LINE
  5
34B
330
1F
100
AcDbEntity
  8
A-A
  6
Continuous
 62
     3
370
     9
100
AcDbLine
 10
1301.474576383024
 20
246.0734104465794
 30
0.0
 11
1304.474784232475
 21
248.073713972762
 31
0.0
  0
LINE
  5
34C
330
1F
100
AcDbEntity
  8
A-A
  6
Continuous
 62
     3
370
     9
100
AcDbLine
 10
1301.474576383024
 20
240.0734896273227
 30
0.0
 11
1304.474784232475
 21
238.073433540963
 31
0.0
  0
LINE
  5
34D
330
1F
100
AcDbEntity
  8
A-A
  6
Continuous
 62
     3
370
     9
100
AcDbLine
 10
1304.474784232475
 20
248.073713972762
 30
0.0
 11
1304.474784232475
 21
258.2994120829815
 31
0.0
  0
LINE
  5
34E
330
1F
100
AcDbEntity
  8
A-A
  6
Continuous
 62
     3
370
     9
100
AcDbLine
 10
1301.474576383024
 20
225.8471844647383
 30
0.0
 11
1301.474576383024
 21
213.8473428262247
 31
0.0
  0
LINE
  5
34F
330
1F
100
AcDbEntity
  8
A-A
  6
Continuous
 62
     3
370
     9
100
AcDbLine
 10
1301.474576383024
 20
225.8471844647383
 30
0.0
 11
1304.474784232475
 21
227.8474879909206
 31
0.0
  0
LINE
  5
350
330
1F
100
AcDbEntity
  8
A-A
  6
Continuous
 62
     3
370
     9
100
AcDbLine
 10
1304.474784232475
 20
238.073433540963
 30
0.0
 11
1304.474784232475
 21
227.8474879909206
 31
0.0
  0
LINE
  5
351
330
1F
100
AcDbEntity
  8
A-A
  6
Continuous
 62
     3
370
     9
100
AcDbLine
 10
1301.474576383024
 20
213.8473428262247
 30
0.0
 11
1304.474784232475
 21
211.8470393000422
 31
0.0
  0
LINE
  5
352
330
1F
100
AcDbEntity
  8
A-A
  6
Continuous
 62
     3
370
     9
100
AcDbLine
 10
1301.474576383024
 20
199.6210376636404
 30
0.0
 11
1301.474576383024
 21
193.6211168443836
 31
0.0
  0
LINE
  5
353
330
1F
100
AcDbEntity
  8
A-A
  6
Continuous
 62
     3
370
     9
100
AcDbLine
 10
1301.474576383024
 20
199.6210376636404
 30
0.0
 11
1304.474784232475
 21
201.6213411898227
 31
0.0
  0
LINE
  5
354
330
1F
100
AcDbEntity
  8
A-A
  6
Continuous
 62
     3
370
     9
100
AcDbLine
 10
1301.474576383024
 20
193.6211168443836
 30
0.0
 11
1304.474784232475
 21
191.6210607580237
 31
0.0
  0
LINE
  5
355
330
1F
100
AcDbEntity
  8
A-A
  6
Continuous
 62
     3
370
     9
100
AcDbLine
 10
1304.474784232475
 20
201.6213411898227
 30
0.0
 11
1304.474784232475
 21
211.8470393000422
 31
0.0
  0
LINE
  5
356
330
1F
100
AcDbEntity
  8
A-A
  6
Continuous
 62
     3
370
     9
100
AcDbLine
 10
1301.474576383024
 20
179.394811681799
 30
0.0
 11
1301.474576383024
 21
167.3949700432857
 31
0.0
  0
LINE
  5
357
330
1F
100
AcDbEntity
  8
A-A
  6
Continuous
 62
     3
370
     9
100
AcDbLine
 10
1301.474576383024
 20
179.394811681799
 30
0.0
 11
1304.474784232475
 21
181.3951152079815
 31
0.0
  0
LINE
  5
358
330
1F
100
AcDbEntity
  8
A-A
  6
Continuous
 62
     3
370
     9
100
AcDbLine
 10
1304.474784232475
 20
191.6210607580237
 30
0.0
 11
1304.474784232475
 21
181.3951152079815
 31
0.0
  0
LINE
  5
359
330
1F
100
AcDbEntity
  8
A-A
  6
Continuous
 62
     3
370
     9
100
AcDbLine
 10
1301.474576383024
 20
167.3949700432857
 30
0.0
 11
1304.474784232475
 21
165.3946665171031
 31
0.0
  0
LINE
  5
35A
330
1F
100
AcDbEntity
  8
A-A
  6
Continuous
 62
     3
370
     9
100
AcDbLine
 10
1301.474576383024
 20
153.168664880701
 30
0.0
 11
1301.474576383024
 21
147.1687440614443
 31
0.0
  0
LINE
  5
35B
330
1F
100
AcDbEntity
  8
A-A
  6
Continuous
 62
     3
370
     9
100
AcDbLine
 10
1301.474576383024
 20
153.168664880701
 30
0.0
 11
1304.474784232475
 21
155.1689684068836
 31
0.0
  0
LINE
  5
35C
330
1F
100
AcDbEntity
  8
A-A
  6
Continuous
 62
     3
370
     9
100
AcDbLine
 10
1301.474576383024
 20
147.1687440614443
 30
0.0
 11
1304.474784232475
 21
145.1686879750847
 31
0.0
  0
LINE
  5
35D
330
1F
100
AcDbEntity
  8
A-A
  6
Continuous
 62
     3
370
     9
100
AcDbLine
 10
1304.474784232475
 20
155.1689684068836
 30
0.0
 11
1304.474784232475
 21
165.3946665171031
 31
0.0
  0
LINE
  5
35E
330
1F
100
AcDbEntity
  8
A-A
  6
Continuous
 62
     3
370
     9
100
AcDbLine
 10
1301.474576383024
 20
132.9424388988599
 30
0.0
 11
1301.474576383024
 21
120.9425972603464
 31
0.0
  0
LINE
  5
35F
330
1F
100
AcDbEntity
  8
A-A
  6
Continuous
 62
     3
370
     9
100
AcDbLine
 10
1301.474576383024
 20
132.9424388988599
 30
0.0
 11
1304.474784232475
 21
134.9427424250422
 31
0.0
  0
LINE
  5
360
330
1F
100
AcDbEntity
  8
A-A
  6
Continuous
 62
     3
370
     9
100
AcDbLine
 10
1304.474784232475
 20
145.1686879750847
 30
0.0
 11
1304.474784232475
 21
134.9427424250422
 31
0.0
  0
LINE
  5
361
330
1F
100
AcDbEntity
  8
A-A
  6
Continuous
 62
     3
370
     9
100
AcDbLine
 10
1301.474576383024
 20
120.9425972603464
 30
0.0
 11
1304.474784232475
 21
118.9422937341641
 31
0.0
  0
LINE
  5
362
330
1F
100
AcDbEntity
  8
A-A
  6
Continuous
 62
     3
370
     9
100
AcDbLine
 10
1301.474576383024
 20
106.716292097762
 30
0.0
 11
1301.474576383024
 21
100.7163712785052
 31
0.0
  0
LINE
  5
363
330
1F
100
AcDbEntity
  8
A-A
  6
Continuous
 62
     3
370
     9
100
AcDbLine
 10
1301.474576383024
 20
106.716292097762
 30
0.0
 11
1304.474784232475
 21
108.7165956239443
 31
0.0
  0
LINE
  5
364
330
1F
100
AcDbEntity
  8
A-A
  6
Continuous
 62
     3
370
     9
100
AcDbLine
 10
1301.474576383024
 20
100.7163712785052
 30
0.0
 11
1304.474784232475
 21
98.71631519214532
 31
0.0
  0
LINE
  5
365
330
1F
100
AcDbEntity
  8
A-A
  6
Continuous
 62
     3
370
     9
100
AcDbLine
 10
1304.474784232475
 20
108.7165956239443
 30
0.0
 11
1304.474784232475
 21
118.9422937341641
 31
0.0
  0
LINE
  5
366
330
1F
100
AcDbEntity
  8
A-A
  6
Continuous
 62
     3
370
     9
100
AcDbLine
 10
1301.474576383024
 20
86.49006611592057
 30
0.0
 11
1301.474576383024
 21
74.49022447740731
 31
0.0
  0
LINE
  5
367
330
1F
100
AcDbEntity
  8
A-A
  6
Continuous
 62
     3
370
     9
100
AcDbLine
 10
1301.474576383024
 20
86.49006611592057
 30
0.0
 11
1304.474784232475
 21
88.49036964210313
 31
0.0
  0
LINE
  5
368
330
1F
100
AcDbEntity
  8
A-A
  6
Continuous
 62
     3
370
     9
100
AcDbLine
 10
1304.474784232475
 20
98.71631519214532
 30
0.0
 11
1304.474784232475
 21
88.49036964210313
 31
0.0
  0
LINE
  5
369
330
1F
100
AcDbEntity
  8
A-A
  6
Continuous
 62
     3
370
     9
100
AcDbLine
 10
1301.474576383024
 20
74.49022447740731
 30
0.0
 11
1304.474784232475
 21
72.48992095122475
 31
0.0
  0
LINE
  5
36A
330
1F
100
AcDbEntity
  8
A-A
  6
Continuous
 62
     3
370
     9
100
AcDbLine
 10
1301.474576383024
 20
60.26391931482266
 30
0.0
 11
1301.474576383024
 21
54.26399849556589
 31
0.0
  0
LINE
  5
36B
330
1F
100
AcDbEntity
  8
A-A
  6
Continuous
 62
     3
370
     9
100
AcDbLine
 10
1301.474576383024
 20
60.26391931482266
 30
0.0
 11
1304.474784232475
 21
62.26422284100522
 31
0.0
  0
LINE
  5
36C
330
1F
100
AcDbEntity
  8
A-A
  6
Continuous
 62
     3
370
     9
100
AcDbLine
 10
1301.474576383024
 20
54.26399849556589
 30
0.0
 11
1304.474784232475
 21
52.26394240920627
 31
0.0
  0
LINE
  5
36D
330
1F
100
AcDbEntity
  8
A-A
  6
Continuous
 62
     3
370
     9
100
AcDbLine
 10
1304.474784232475
 20
62.26422284100522
 30
0.0
 11
1304.474784232475
 21
72.48992095122475
 31
0.0
  0
LINE
  5
36E
330
1F
100
AcDbEntity
  8
A-A
  6
Continuous
 62
     3
370
     9
100
AcDbLine
 10
1301.474576383024
 20
40.03769333298152
 30
0.0
 11
1301.474576383024
 21
28.03785169446797
 31
0.0
  0
LINE
  5
36F
330
1F
100
AcDbEntity
  8
A-A
  6
Continuous
 62
     3
370
     9
100
AcDbLine
 10
1301.474576383024
 20
40.03769333298152
 30
0.0
 11
1304.474784232475
 21
42.0379968591638
 31
0.0
  0
LINE
  5
370
330
1F
100
AcDbEntity
  8
A-A
  6
Continuous
 62
     3
370
     9
100
AcDbLine
 10
1304.474784232475
 20
52.26394240920627
 30
0.0
 11
1304.474784232475
 21
42.0379968591638
 31
0.0
  0
LINE
  5
371
330
1F
100
AcDbEntity
  8
A-A
  6
Continuous
 62
     3
370
     9
100
AcDbLine
 10
1301.474576383024
 20
28.03785169446797
 30
0.0
 11
1304.474784232475
 21
26.0375481682857
 31
0.0
  0
LINE
  5
372
330
1F
100
AcDbEntity
  8
A-A
  6
Continuous
 62
     3
370
     9
100
AcDbLine
 10
1301.474576383024
 20
13.81154653188361
 30
0.0
 11
1301.474576383024
 21
7.811625712626835
 31
0.0
  0
LINE
  5
373
330
1F
100
AcDbEntity
  8
A-A
  6
Continuous
 62
     3
370
     9
100
AcDbLine
 10
1301.474576383024
 20
13.81154653188361
 30
0.0
 11
1304.474784232475
 21
15.81185005806589
 31
0.0
  0
LINE
  5
374
330
1F
100
AcDbEntity
  8
A-A
  6
Continuous
 62
     3
370
     9
100
AcDbLine
 10
1301.474576383024
 20
7.811625712626835
 30
0.0
 11
1304.474784232475
 21
5.81156962626693
 31
0.0
  0
LINE
  5
375
330
1F
100
AcDbEntity
  8
A-A
  6
Continuous
 62
     3
370
     9
100
AcDbLine
 10
1304.474784232475
 20
15.81185005806589
 30
0.0
 11
1304.474784232475
 21
26.0375481682857
 31
0.0
  0
LINE
  5
376
330
1F
100
AcDbEntity
  8
A-A
  6
Continuous
 62
     3
370
     9
100
AcDbLine
 10
1301.474576383024
 20
-6.414679449957816
 30
0.0
 11
1301.474576383024
 21
-18.41452108847108
 31
0.0
  0
LINE
  5
377
330
1F
100
AcDbEntity
  8
A-A
  6
Continuous
 62
     3
370
     9
100
AcDbLine
 10
1301.474576383024
 20
-6.414679449957816
 30
0.0
 11
1304.474784232475
 21
-4.414375923775253
 31
0.0
  0
LINE
  5
378
330
1F
100
AcDbEntity
  8
A-A
  6
Continuous
 62
     3
370
     9
100
AcDbLine
 10
1304.474784232475
 20
5.81156962626693
 30
0.0
 11
1304.474784232475
 21
-4.414375923775253
 31
0.0
  0
LINE
  5
379
330
1F
100
AcDbEntity
  8
A-A
  6
Continuous
 62
     3
370
     9
100
AcDbLine
 10
1301.474576383024
 20
-18.41452108847108
 30
0.0
 11
1304.474784232475
 21
-20.41482461465364
 31
0.0
  0
LINE
  5
37A
330
1F
100
AcDbEntity
  8
D-2_蓋
  6
Continuous
 62
     3
370
     9
100
AcDbLine
 10
-374.0404283678208
 20
-610.9454881822741
 30
0.0
 11
-379.7566594304266
 21
-610.9454881822741
 31
0.0
  0
LINE
  5
37B
330
1F
100
AcDbEntity
  8
D-2_蓋
  6
Continuous
 62
     3
370
     9
100
AcDbLine
 10
-374.0404283678208
 20
-885.9457768620672
 30
0.0
 11
-770.5547023463894
 21
-885.9457768620672
 31
0.0
  0
LINE
  5
37C
330
1F
100
AcDbEntity
  8
D-2_蓋
  6
Continuous
 62
     3
370
     9
100
AcDbLine
 10
-248.262188885663
 20
-610.9454881822741
 30
0.0
 11
-213.2623208535682
 21
-610.9454881822741
 31
0.0
  0
LINE
  5
37D
330
1F
100
AcDbEntity
  8
D-2_蓋
  6
Continuous
 62
     3
370
     9
100
AcDbLine
 10
-213.2623208535682
 20
-885.9457768620672
 30
0.0
 11
-248.262188885663
 21
-885.9457768620672
 31
0.0
  0
LINE
  5
37E
330
1F
100
AcDbEntity
  8
D-2_蓋
  6
Continuous
 62
     3
370
     9
100
AcDbLine
 10
-248.262188885663
 20
-603.4455252982474
 30
0.0
 11
-213.2623208535682
 21
-603.4455252982474
 31
0.0
  0
LINE
  5
37F
330
1F
100
AcDbEntity
  8
D-2_蓋
  6
Continuous
 62
     3
370
     9
100
AcDbLine
 10
-248.262188885663
 20
-603.4455252982474
 30
0.0
 11
-248.262188885663
 21
-653.4455665382178
 31
0.0
  0
LINE
  5
380
330
1F
100
AcDbEntity
  8
D-2_蓋
  6
Continuous
 62
     3
370
     9
100
AcDbLine
 10
-213.2623208535682
 20
-603.4455252982474
 30
0.0
 11
-213.2623208535682
 21
-653.4455665382178
 31
0.0
  0
LINE
  5
381
330
1F
100
AcDbEntity
  8
D-4_寸法
  6
Continuous
 62
     7
370
     9
100
AcDbLine
 10
-90.8161060230151
 20
-885.9457768620672
 30
0.0
 11
-90.8161060230151
 21
-610.9454881822741
 31
0.0
  0
LINE
  5
382
330
1F
100
AcDbEntity
  8
D-4_寸法
  6
Continuous
 62
     7
370
     9
100
AcDbLine
 10
-194.4879480310388
 20
-885.9457768620672
 30
0.0
 11
-87.81602189347552
 21
-885.9457768620672
 31
0.0
  0
LINE
  5
383
330
1F
100
AcDbEntity
  8
D-4_寸法
  6
Continuous
 62
     7
370
     9
100
AcDbLine
 10
-194.4879480310388
 20
-610.9454881822741
 30
0.0
 11
-87.81602189347552
 21
-610.9454881822741
 31
0.0
  0
LINE
  5
384
330
1F
100
AcDbEntity
  8
D-4_寸法
  6
Continuous
 62
     7
370
     9
100
AcDbLine
 10
-90.8161060230151
 20
-885.9457768620672
 30
0.0
 11
-94.07934240392734
 21
-861.15966796875
 31
0.0
  0
LINE
  5
385
330
1F
100
AcDbEntity
  8
D-4_寸法
  6
Continuous
 62
     7
370
     9
100
AcDbLine
 10
-90.8161060230151
 20
-885.9457768620672
 30
0.0
 11
-87.55286964210285
 21
-861.15966796875
 31
0.0
  0
LINE
  5
386
330
1F
100
AcDbEntity
  8
D-4_寸法
  6
Continuous
 62
     7
370
     9
100
AcDbLine
 10
-90.8161060230151
 20
-610.9454881822741
 30
0.0
 11
-94.07934240392734
 21
-635.7315970755911
 31
0.0
  0
LINE
  5
387
330
1F
100
AcDbEntity
  8
D-4_寸法
  6
Continuous
 62
     7
370
     9
100
AcDbLine
 10
-90.8161060230151
 20
-610.9454881822741
 30
0.0
 11
-87.55286964210285
 21
-635.7315970755911
 31
0.0
  0
LINE
  5
388
330
1F
100
AcDbEntity
  8
D-4_寸法
  6
Continuous
 62
     7
370
     9
100
AcDbLine
 10
-213.2623208535682
 20
-591.8615062816723
 30
0.0
 11
-213.2623208535682
 21
-555.691495328336
 31
0.0
  0
LINE
  5
389
330
1F
100
AcDbEntity
  8
D-4_寸法
  6
Continuous
 62
     7
370
     9
100
AcDbLine
 10
-248.262188885663
 20
-591.8615062816723
 30
0.0
 11
-248.262188885663
 21
-555.691495328336
 31
0.0
  0
LINE
  5
38A
330
1F
100
AcDbEntity
  8
D-4_寸法
  6
Continuous
 62
     7
370
     9
100
AcDbLine
 10
-213.2623208535682
 20
-558.6915794578758
 30
0.0
 11
-188.4759026604729
 21
-555.4282193570523
 31
0.0
  0
LINE
  5
38B
330
1F
100
AcDbEntity
  8
D-4_寸法
  6
Continuous
 62
     7
370
     9
100
AcDbLine
 10
-213.2623208535682
 20
-558.6915794578758
 30
0.0
 11
-188.4759026604729
 21
-561.954815838788
 31
0.0
  0
LINE
  5
38C
330
1F
100
AcDbEntity
  8
D-4_寸法
  6
Continuous
 62
     7
370
     9
100
AcDbLine
 10
-248.262188885663
 20
-558.6915794578758
 30
0.0
 11
-273.0486070787583
 21
-555.4282193570523
 31
0.0
  0
LINE
  5
38D
330
1F
100
AcDbEntity
  8
D-4_寸法
  6
Continuous
 62
     7
370
     9
100
AcDbLine
 10
-248.262188885663
 20
-558.6915794578758
 30
0.0
 11
-273.0486070787583
 21
-561.954815838788
 31
0.0
  0
LINE
  5
38E
330
1F
100
AcDbEntity
  8
D-4_寸法
  6
Continuous
 62
     7
370
     9
100
AcDbLine
 10
-185.3897094726562
 20
-558.6915794578758
 30
0.0
 11
-275.9455088022591
 21
-558.6915794578758
 31
0.0
  0
LINE
  5
38F
330
1F
100
AcDbEntity
  8
D-4_寸法
  6
Continuous
 62
     7
370
     9
100
AcDbLine
 10
-220.7620981577278
 20
-761.7508429449957
 30
0.0
 11
-195.9764222841005
 21
-758.4874209842166
 31
0.0
  0
LINE
  5
390
330
1F
100
AcDbEntity
  8
D-4_寸法
  6
Continuous
 62
     7
370
     9
100
AcDbLine
 10
-220.7620981577278
 20
-761.7508429449957
 30
0.0
 11
-195.9764222841005
 21
-765.0139556059967
 31
0.0
  0
LINE
  5
391
330
1F
100
AcDbEntity
  8
D-4_寸法
  6
Continuous
 62
     7
370
     9
100
AcDbLine
 10
-240.7624115815034
 20
-761.7508429449957
 30
0.0
 11
-265.5487060546875
 21
-758.4874209842166
 31
0.0
  0
LINE
  5
392
330
1F
100
AcDbEntity
  8
D-4_寸法
  6
Continuous
 62
     7
370
     9
100
AcDbLine
 10
-240.7624115815034
 20
-761.7508429449957
 30
0.0
 11
-265.5487060546875
 21
-765.0139556059967
 31
0.0
  0
LINE
  5
393
330
1F
100
AcDbEntity
  8
D-2_蓋
  6
Continuous
 62
     3
370
     9
100
AcDbLine
 10
-384.7564284865919
 20
-603.4453397183804
 30
0.0
 11
-399.7567254143792
 21
-603.4453397183804
 31
0.0
  0
LINE
  5
394
330
1F
100
AcDbEntity
  8
D-2_蓋
  6
Continuous
 62
     3
370
     9
100
AcDbLine
 10
-384.7564284865919
 20
-603.4453397183804
 30
0.0
 11
-379.7566594304266
 21
-610.9454881822741
 31
0.0
  0
LINE
  5
395
330
1F
100
AcDbEntity
  8
D-2_蓋
  6
Continuous
 62
     3
370
     9
100
AcDbLine
 10
-465.3215975374789
 20
-603.4453397183804
 30
0.0
 11
-470.3213665936443
 21
-610.9454881822741
 31
0.0
  0
LINE
  5
396
330
1F
100
AcDbEntity
  8
D-2_蓋
  6
Continuous
 62
     3
370
     9
100
AcDbLine
 10
-435.3214985615497
 20
-603.4453397183804
 30
0.0
 11
-465.3215975374789
 21
-603.4453397183804
 31
0.0
  0
LINE
  5
397
330
1F
100
AcDbEntity
  8
D-2_蓋
  6
Continuous
 62
     3
370
     9
100
AcDbLine
 10
-435.3214985615497
 20
-603.4453397183804
 30
0.0
 11
-430.3217295053841
 21
-610.9454881822741
 31
0.0
  0
LINE
  5
398
330
1F
100
AcDbEntity
  8
D-2_蓋
  6
Continuous
 62
     3
370
     9
100
AcDbLine
 10
-404.7564944705448
 20
-610.9454881822741
 30
0.0
 11
-430.3217295053841
 21
-610.9454881822741
 31
0.0
  0
LINE
  5
399
330
1F
100
AcDbEntity
  8
D-2_蓋
  6
Continuous
 62
     3
370
     9
100
AcDbLine
 10
-399.7567254143792
 20
-603.4453397183804
 30
0.0
 11
-404.7564944705448
 21
-610.9454881822741
 31
0.0
  0
LINE
  5
39A
330
1F
100
AcDbEntity
  8
D-2_蓋
  6
Continuous
 62
     3
370
     9
100
AcDbLine
 10
-500.8863706846495
 20
-603.4453397183804
 30
0.0
 11
-515.8866676124364
 21
-603.4453397183804
 31
0.0
  0
LINE
  5
39B
330
1F
100
AcDbEntity
  8
D-2_蓋
  6
Continuous
 62
     3
370
     9
100
AcDbLine
 10
-500.8863706846495
 20
-603.4453397183804
 30
0.0
 11
-495.8866016284838
 21
-610.9454881822741
 31
0.0
  0
LINE
  5
39C
330
1F
100
AcDbEntity
  8
D-2_蓋
  6
Continuous
 62
     3
370
     9
100
AcDbLine
 10
-581.4515397355362
 20
-603.4453397183804
 30
0.0
 11
-586.4513087917019
 21
-610.9454881822741
 31
0.0
  0
LINE
  5
39D
330
1F
100
AcDbEntity
  8
D-2_蓋
  6
Continuous
 62
     3
370
     9
100
AcDbLine
 10
-551.4514407596073
 20
-603.4453397183804
 30
0.0
 11
-581.4515397355362
 21
-603.4453397183804
 31
0.0
  0
LINE
  5
39E
330
1F
100
AcDbEntity
  8
D-2_蓋
  6
Continuous
 62
     3
370
     9
100
AcDbLine
 10
-551.4514407596073
 20
-603.4453397183804
 30
0.0
 11
-546.4516717034417
 21
-610.9454881822741
 31
0.0
  0
LINE
  5
39F
330
1F
100
AcDbEntity
  8
D-2_蓋
  6
Continuous
 62
     3
370
     9
100
AcDbLine
 10
-520.8864366686021
 20
-610.9454881822741
 30
0.0
 11
-546.4516717034417
 21
-610.9454881822741
 31
0.0
  0
LINE
  5
3A0
330
1F
100
AcDbEntity
  8
D-2_蓋
  6
Continuous
 62
     3
370
     9
100
AcDbLine
 10
-515.8866676124364
 20
-603.4453397183804
 30
0.0
 11
-520.8864366686021
 21
-610.9454881822741
 31
0.0
  0
LINE
  5
3A1
330
1F
100
AcDbEntity
  8
D-2_蓋
  6
Continuous
 62
     3
370
     9
100
AcDbLine
 10
-495.8866016284838
 20
-610.9454881822741
 30
0.0
 11
-470.3213665936443
 21
-610.9454881822741
 31
0.0
  0
LINE
  5
3A2
330
1F
100
AcDbEntity
  8
D-2_蓋
  6
Continuous
 62
     3
370
     9
100
AcDbLine
 10
-617.0163128827068
 20
-603.4453397183804
 30
0.0
 11
-632.016609810494
 21
-603.4453397183804
 31
0.0
  0
LINE
  5
3A3
330
1F
100
AcDbEntity
  8
D-2_蓋
  6
Continuous
 62
     3
370
     9
100
AcDbLine
 10
-617.0163128827068
 20
-603.4453397183804
 30
0.0
 11
-612.0165438265415
 21
-610.9454881822741
 31
0.0
  0
LINE
  5
3A4
330
1F
100
AcDbEntity
  8
D-2_蓋
  6
Continuous
 62
     3
370
     9
100
AcDbLine
 10
-697.581605653505
 20
-603.4453397183804
 30
0.0
 11
-702.5813747096706
 21
-610.9454881822741
 31
0.0
  0
LINE
  5
3A5
330
1F
100
AcDbEntity
  8
D-2_蓋
  6
Continuous
 62
     3
370
     9
100
AcDbLine
 10
-667.5813829576646
 20
-603.4453397183804
 30
0.0
 11
-697.581605653505
 21
-603.4453397183804
 31
0.0
  0
LINE
  5
3A6
330
1F
100
AcDbEntity
  8
D-2_蓋
  6
Continuous
 62
     3
370
     9
100
AcDbLine
 10
-667.5813829576646
 20
-603.4453397183804
 30
0.0
 11
-662.5816139014989
 21
-610.9454881822741
 31
0.0
  0
LINE
  5
3A7
330
1F
100
AcDbEntity
  8
D-2_蓋
  6
Continuous
 62
     3
370
     9
100
AcDbLine
 10
-637.0163788666596
 20
-610.9454881822741
 30
0.0
 11
-662.5816139014989
 21
-610.9454881822741
 31
0.0
  0
LINE
  5
3A8
330
1F
100
AcDbEntity
  8
D-2_蓋
  6
Continuous
 62
     3
370
     9
100
AcDbLine
 10
-632.016609810494
 20
-603.4453397183804
 30
0.0
 11
-637.0163788666596
 21
-610.9454881822741
 31
0.0
  0
LINE
  5
3A9
330
1F
100
AcDbEntity
  8
D-2_蓋
  6
Continuous
 62
     3
370
     9
100
AcDbLine
 10
-612.0165438265415
 20
-610.9454881822741
 30
0.0
 11
-586.4513087917019
 21
-610.9454881822741
 31
0.0
  0
LINE
  5
3AA
330
1F
100
AcDbEntity
  8
D-2_蓋
  6
Continuous
 62
     3
370
     9
100
AcDbLine
 10
-733.1462550807644
 20
-603.4453397183804
 30
0.0
 11
-748.1466757284627
 21
-603.4453397183804
 31
0.0
  0
LINE
  5
3AB
330
1F
100
AcDbEntity
  8
D-2_蓋
  6
Continuous
 62
     3
370
     9
100
AcDbLine
 10
-733.1462550807644
 20
-603.4453397183804
 30
0.0
 11
-728.1464860245987
 21
-610.9454881822741
 31
0.0
  0
LINE
  5
3AC
330
1F
100
AcDbEntity
  8
D-2_蓋
  6
Continuous
 62
     3
370
     9
100
AcDbLine
 10
-748.1466757284627
 20
-603.4453397183804
 30
0.0
 11
-753.1464447846283
 21
-610.9454881822741
 31
0.0
  0
LINE
  5
3AD
330
1F
100
AcDbEntity
  8
D-2_蓋
  6
Continuous
 62
     3
370
     9
100
AcDbLine
 10
-728.1464860245987
 20
-610.9454881822741
 30
0.0
 11
-702.5813747096706
 21
-610.9454881822741
 31
0.0
  0
LINE
  5
3AE
330
1F
100
AcDbEntity
  8
D-2_蓋
  6
Continuous
 62
     3
370
     9
100
AcDbLine
 10
-753.1464447846283
 20
-610.9454881822741
 30
0.0
 11
-770.5547023463894
 21
-610.9454881822741
 31
0.0
  0
LINE
  5
3AF
330
1F
100
AcDbEntity
  8
D-2_蓋
  6
Continuous
 62
     3
370
     9
100
AcDbLine
 10
-240.7624115815034
 20
-660.9454675622887
 30
0.0
 11
-248.262188885663
 21
-653.4455665382178
 31
0.0
  0
LINE
  5
3B0
330
1F
100
AcDbEntity
  8
D-2_蓋
  6
Continuous
 62
     3
370
     9
100
AcDbLine
 10
-220.7620981577278
 20
-660.9454675622887
 30
0.0
 11
-213.2623208535682
 21
-653.4455665382178
 31
0.0
  0
LINE
  5
3B1
330
1F
100
AcDbEntity
  8
D-2_蓋
  6
Continuous
 62
     3
370
     9
100
AcDbLine
 10
-248.262188885663
 20
-885.9457768620672
 30
0.0
 11
-248.262188885663
 21
-843.4459459459459
 31
0.0
  0
LINE
  5
3B2
330
1F
100
AcDbEntity
  8
D-2_蓋
  6
Continuous
 62
     3
370
     9
100
AcDbLine
 10
-248.262188885663
 20
-843.4459459459459
 30
0.0
 11
-240.7624115815034
 21
-835.946044921875
 31
0.0
  0
LINE
  5
3B3
330
1F
100
AcDbEntity
  8
D-2_蓋
  6
Continuous
 62
     3
370
     9
100
AcDbLine
 10
-240.7624115815034
 20
-660.9454675622887
 30
0.0
 11
-240.7624115815034
 21
-835.946044921875
 31
0.0
  0
LINE
  5
3B4
330
1F
100
AcDbEntity
  8
D-2_蓋
  6
Continuous
 62
     3
370
     9
100
AcDbLine
 10
-220.7620981577278
 20
-660.9454675622887
 30
0.0
 11
-220.7620981577278
 21
-835.946044921875
 31
0.0
  0
LINE
  5
3B5
330
1F
100
AcDbEntity
  8
D-2_蓋
  6
Continuous
 62
     3
370
     9
100
AcDbLine
 10
-220.7620981577278
 20
-835.946044921875
 30
0.0
 11
-213.2623208535682
 21
-843.4459459459459
 31
0.0
  0
LINE
  5
3B6
330
1F
100
AcDbEntity
  8
D-2_蓋
  6
Continuous
 62
     3
370
     9
100
AcDbLine
 10
-213.2623208535682
 20
-843.4459459459459
 30
0.0
 11
-213.2623208535682
 21
-885.9457768620672
 31
0.0
  0
LINE
  5
3B7
330
1F
100
AcDbEntity
  8
D-2_蓋
  6
Continuous
 62
     3
370
     9
100
AcDbLine
 10
-374.0404283678208
 20
-843.4459459459459
 30
0.0
 11
-770.5547023463894
 21
-843.4459459459459
 31
0.0
  0
LINE
  5
3B8
330
1F
100
AcDbEntity
  8
D-2_蓋
  6
Continuous
 62
     3
370
     9
100
AcDbLine
 10
-374.0404283678208
 20
-835.946044921875
 30
0.0
 11
-770.5547023463894
 21
-835.946044921875
 31
0.0
  0
LINE
  5
3B9
330
1F
100
AcDbEntity
  8
D-2_蓋
  6
Continuous
 62
     3
370
     9
100
AcDbLine
 10
-374.0404283678208
 20
-653.4453190983952
 30
0.0
 11
-770.5547023463894
 21
-653.4453190983952
 31
0.0
  0
LINE
  5
3BA
330
1F
100
AcDbEntity
  8
D-2_蓋
  6
Continuous
 62
     3
370
     9
100
AcDbLine
 10
-374.0404283678208
 20
-660.9452201224661
 30
0.0
 11
-770.5547023463894
 21
-660.9452201224661
 31
0.0
  0
LINE
  5
3BB
330
1F
100
AcDbEntity
  8
D-4_寸法
  6
Continuous
 62
     7
370
     9
100
AcDbLine
 10
-997.2972972972973
 20
-960.9458387220228
 30
0.0
 11
-997.2972972972973
 21
-1030.945945945946
 31
0.0
  0
LINE
  5
3BC
330
1F
100
AcDbEntity
  8
D-4_寸法
  6
Continuous
 62
     7
370
     9
100
AcDbLine
 10
-147.2972148173562
 20
-960.9458387220228
 30
0.0
 11
-997.2972972972973
 21
-960.9458387220228
 31
0.0
  0
LINE
  5
3BD
330
1F
100
AcDbEntity
  8
D-4_寸法
  6
Continuous
 62
     7
370
     9
100
AcDbLine
 10
-147.2972148173562
 20
-960.9458387220228
 30
0.0
 11
-147.2972148173562
 21
-1030.945945945946
 31
0.0
  0
LINE
  5
3BE
330
1F
100
AcDbEntity
  8
D-4_寸法
  6
Continuous
 62
     7
370
     9
100
AcDbLine
 10
-147.2972148173562
 20
-1030.945945945946
 30
0.0
 11
-997.2972972972973
 21
-1030.945945945946
 31
0.0
  0
LINE
  5
3BF
330
1F
100
AcDbEntity
  8
D-2_蓋
  6
Continuous
 62
     3
370
     9
100
AcDbLine
 10
-879.3680964289484
 20
-680.5782091295397
 30
0.0
 11
-871.8413481841217
 21
-688.1043387748099
 31
0.0
  0
LINE
  5
3C0
330
1F
100
AcDbEntity
  8
D-2_蓋
  6
Continuous
 62
     3
370
     9
100
AcDbLine
 10
-896.8418018237963
 20
-684.3175197292019
 30
0.0
 11
-875.7825696790541
 21
-705.3768755938556
 31
0.0
  0
LINE
  5
3C1
330
1F
100
AcDbEntity
  8
D-2_蓋
  6
Continuous
 62
     3
370
     9
100
AcDbLine
 10
-896.8418018237963
 20
-623.0314388790646
 30
0.0
 11
-871.8413481841217
 21
-648.0313357791384
 31
0.0
  0
LINE
  5
3C2
330
1F
100
AcDbEntity
  8
D-2_蓋
  6
Continuous
 62
     3
370
     9
100
AcDbLine
 10
-883.3474236565667
 20
-625.9192471890835
 30
0.0
 11
-871.8413481841217
 21
-637.4248277818834
 31
0.0
  0
LINE
  5
3C3
330
1F
100
AcDbEntity
  8
D-2_蓋
  6
Continuous
 62
     3
370
     9
100
AcDbLine
 10
-871.8413481841217
 20
-608.6968169341217
 30
0.0
 11
-871.8413481841217
 21
-900.1714015651394
 31
0.0
  0
LINE
  5
3C4
330
1F
100
AcDbEntity
  8
D-4_寸法
  6
Continuous
 62
     7
370
     9
100
AcDbLine
 10
-913.7783153637035
 20
-828.1552783862965
 30
0.0
 11
-967.473251755173
 21
-828.1552783862965
 31
0.0
  0
LINE
  5
3C5
330
1F
100
AcDbEntity
  8
D-4_寸法
  6
Continuous
 62
     7
370
     9
100
AcDbLine
 10
-913.7783153637035
 20
-853.2686264450484
 30
0.0
 11
-967.473251755173
 21
-853.2686264450484
 31
0.0
  0
LINE
  5
3C6
330
1F
100
AcDbEntity
  8
D-4_寸法
  6
Continuous
 62
     7
370
     9
100
AcDbLine
 10
-964.4735387853673
 20
-828.1552783862965
 30
0.0
 11
-967.7366514463682
 21
-803.3692313529349
 31
0.0
  0
LINE
  5
3C7
330
1F
100
AcDbEntity
  8
D-4_寸法
  6
Continuous
 62
     7
370
     9
100
AcDbLine
 10
-964.4735387853673
 20
-828.1552783862965
 30
0.0
 11
-961.2100549646325
 21
-803.3692313529349
 31
0.0
  0
LINE
  5
3C8
330
1F
100
AcDbEntity
  8
D-4_寸法
  6
Continuous
 62
     7
370
     9
100
AcDbLine
 10
-964.4735387853673
 20
-853.2686264450484
 30
0.0
 11
-967.7366514463682
 21
-878.05467347841
 31
0.0
  0
LINE
  5
3C9
330
1F
100
AcDbEntity
  8
D-4_寸法
  6
Continuous
 62
     7
370
     9
100
AcDbLine
 10
-964.4735387853673
 20
-853.2686264450484
 30
0.0
 11
-961.2100549646325
 21
-878.05467347841
 31
0.0
  0
LINE
  5
3CA
330
1F
100
AcDbEntity
  8
D-4_寸法
  6
Continuous
 62
     7
370
     9
100
AcDbLine
 10
-964.4735387853673
 20
-796.6558796650654
 30
0.0
 11
-964.4735387853673
 21
-892.5288514833193
 31
0.0
  0
LINE
  5
3CB
330
1F
100
AcDbEntity
  8
D-4_寸法
  6
Continuous
 62
     7
370
     9
100
AcDbLine
 10
-860.3863690350506
 20
-702.081966915646
 30
0.0
 11
-828.3706252639358
 21
-695.2309149664801
 31
0.0
  0
LINE
  5
3CC
330
1F
100
AcDbEntity
  8
D-4_寸法
  6
Continuous
 62
     7
370
     9
100
AcDbLine
 10
-865.6177417652026
 20
-677.6355928988071
 30
0.0
 11
-833.602121713999
 21
-670.7842316498627
 31
0.0
  0
LINE
  5
3CD
330
1F
100
AcDbEntity
  8
D-4_寸法
  6
Continuous
 62
     7
370
     9
100
AcDbLine
 10
-831.3043955210093
 20
-695.8589172363281
 30
0.0
 11
-822.9264542863175
 21
-719.4132706925676
 31
0.0
  0
LINE
  5
3CE
330
1F
100
AcDbEntity
  8
D-4_寸法
  6
Continuous
 62
     7
370
     9
100
AcDbLine
 10
-831.3043955210093
 20
-695.8589172363281
 30
0.0
 11
-829.3084221917229
 21
-720.7787673537796
 31
0.0
  0
LINE
  5
3CF
330
1F
100
AcDbEntity
  8
D-4_寸法
  6
Continuous
 62
     7
370
     9
100
AcDbLine
 10
-836.5357682511612
 20
-671.411986479888
 30
0.0
 11
-838.531494140625
 21
-646.491888922614
 31
0.0
  0
LINE
  5
3D0
330
1F
100
AcDbEntity
  8
D-4_寸法
  6
Continuous
 62
     7
370
     9
100
AcDbLine
 10
-836.5357682511612
 20
-671.411986479888
 30
0.0
 11
-844.912967166385
 21
-647.8576330236485
 31
0.0
  0
LINE
  5
3D1
330
1F
100
AcDbEntity
  8
D-4_寸法
  6
Continuous
 62
     7
370
     9
100
AcDbLine
 10
-825.0301876583615
 20
-725.1775050807644
 30
0.0
 11
-843.3863871806376
 21
-639.3992738466005
 31
0.0
  0
LINE
  5
3D2
330
1F
100
AcDbEntity
  8
D-2_蓋
  6
Continuous
 62
     3
370
     9
100
AcDbLine
 10
-906.8418348157728
 20
-608.6968169341217
 30
0.0
 11
-906.8418348157728
 21
-900.1714015651394
 31
0.0
  0
LINE
  5
3D3
330
1F
100
AcDbEntity
  8
D-2_蓋
  6
Continuous
 62
     3
370
     9
100
AcDbLine
 10
-906.8418348157728
 20
-646.4577422270904
 30
0.0
 11
-871.8413481841217
 21
-653.9472507786105
 31
0.0
  0
LINE
  5
3D4
330
1F
100
AcDbEntity
  8
D-2_蓋
  6
Continuous
 62
     3
370
     9
100
AcDbLine
 10
-906.8418348157728
 20
-649.0141048946896
 30
0.0
 11
-871.8413481841217
 21
-656.5037990260769
 31
0.0
  0
LINE
  5
3D5
330
1F
100
AcDbEntity
  8
D-2_蓋
  6
Continuous
 62
     3
370
     9
100
AcDbLine
 10
-871.8413481841217
 20
-625.824910756704
 30
0.0
 11
-906.8418348157728
 21
-618.335154765361
 31
0.0
  0
LINE
  5
3D6
330
1F
100
AcDbEntity
  8
D-2_蓋
  6
Continuous
 62
     3
370
     9
100
AcDbLine
 10
-871.8413481841217
 20
-628.3812734243031
 30
0.0
 11
-906.8418348157728
 21
-620.8915174329603
 31
0.0
  0
LINE
  5
3D7
330
1F
100
AcDbEntity
  8
D-2_蓋
  6
Continuous
 62
     3
370
     9
100
AcDbLine
 10
-888.1047016865498
 20
-682.4480500092377
 30
0.0
 11
-871.8413481841217
 21
-698.710846772065
 31
0.0
  0
LINE
  5
3D8
330
1F
100
AcDbEntity
  8
D-2_蓋
  6
Continuous
 62
     3
370
     9
100
AcDbLine
 10
-906.8418348157728
 20
-686.4573793153505
 30
0.0
 11
-871.8413481841217
 21
-678.9676233240075
 31
0.0
  0
LINE
  5
3D9
330
1F
100
AcDbEntity
  8
D-2_蓋
  6
Continuous
 62
     3
370
     9
100
AcDbLine
 10
-906.8418348157728
 20
-683.9007692079286
 30
0.0
 11
-871.8413481841217
 21
-676.4112606564083
 31
0.0
  0
LINE
  5
3DA
330
1F
100
AcDbEntity
  8
D-2_蓋
  6
Continuous
 62
     3
370
     9
100
AcDbLine
 10
-906.8418348157728
 20
-712.0233566696579
 30
0.0
 11
-871.8413481841217
 21
-704.533600678315
 31
0.0
  0
LINE
  5
3DB
330
1F
100
AcDbEntity
  8
D-2_蓋
  6
Continuous
 62
     3
370
     9
100
AcDbLine
 10
-906.8418348157728
 20
-714.5802142169025
 30
0.0
 11
-871.8413481841217
 21
-707.0904582255595
 31
0.0
  0
LINE
  5
3DC
330
1F
100
AcDbEntity
  8
D-2_蓋
  6
Continuous
 62
     3
370
     9
100
AcDbLine
 10
-906.8418348157728
 20
-623.6381613241658
 30
0.0
 11
-877.809596706081
 21
-652.6703994338577
 31
0.0
  0
LINE
  5
3DD
330
1F
100
AcDbEntity
  8
D-2_蓋
  6
Continuous
 62
     3
370
     9
100
AcDbLine
 10
-906.8418348157728
 20
-634.2446693214209
 30
0.0
 11
-891.3038511533995
 21
-649.782343684016
 31
0.0
  0
LINE
  5
3DE
330
1F
100
AcDbEntity
  8
D-2_蓋
  6
Continuous
 62
     3
370
     9
100
AcDbLine
 10
-906.8418348157728
 20
-644.8513628985429
 30
0.0
 11
-904.7982293206292
 21
-646.894720953864
 31
0.0
  0
LINE
  5
3DF
330
1F
100
AcDbEntity
  8
D-2_蓋
  6
Continuous
 62
     3
370
     9
100
AcDbLine
 10
-905.5787782411317
 20
-686.1871131690772
 30
0.0
 11
-884.5191749366553
 21
-707.2465308936866
 31
0.0
  0
LINE
  5
3E0
330
1F
100
AcDbEntity
  8
D-2_蓋
  6
Continuous
 62
     3
370
     9
100
AcDbLine
 10
-906.8418348157728
 20
-695.5311831912478
 30
0.0
 11
-893.256275073902
 21
-709.1161861935177
 31
0.0
  0
LINE
  5
3E1
330
1F
100
AcDbEntity
  8
D-2_蓋
  6
Continuous
 62
     3
370
     9
100
AcDbLine
 10
-906.8418348157728
 20
-706.1376293285473
 30
0.0
 11
-901.9933752111485
 21
-710.9858414933489
 31
0.0
  0
LINE
  5
3E2
330
1F
100
AcDbEntity
  8
D-4_寸法
  6
Continuous
 62
     7
370
     9
100
AcDbLine
 10
-913.7783153637035
 20
-646.4577422270904
 30
0.0
 11
-967.473251755173
 21
-646.4577422270904
 31
0.0
  0
LINE
  5
3E3
330
1F
100
AcDbEntity
  8
D-4_寸法
  6
Continuous
 62
     7
370
     9
100
AcDbLine
 10
-913.7783153637035
 20
-686.4573793153505
 30
0.0
 11
-967.473251755173
 21
-686.4573793153505
 31
0.0
  0
LINE
  5
3E4
330
1F
100
AcDbEntity
  8
D-4_寸法
  6
Continuous
 62
     7
370
     9
100
AcDbLine
 10
-964.4735387853673
 20
-646.4577422270904
 30
0.0
 11
-967.7361565667229
 21
-621.6713858939505
 31
0.0
  0
LINE
  5
3E5
330
1F
100
AcDbEntity
  8
D-4_寸法
  6
Continuous
 62
     7
370
     9
100
AcDbLine
 10
-964.4735387853673
 20
-646.4577422270904
 30
0.0
 11
-961.2100549646325
 21
-621.6713858939505
 31
0.0
  0
LINE
  5
3E6
330
1F
100
AcDbEntity
  8
D-4_寸法
  6
Continuous
 62
     7
370
     9
100
AcDbLine
 10
-964.4735387853673
 20
-686.4573793153505
 30
0.0
 11
-967.7361565667229
 21
-711.243426348712
 31
0.0
  0
LINE
  5
3E7
330
1F
100
AcDbEntity
  8
D-4_寸法
  6
Continuous
 62
     7
370
     9
100
AcDbLine
 10
-964.4735387853673
 20
-686.4573793153505
 30
0.0
 11
-961.2100549646325
 21
-711.243426348712
 31
0.0
  0
LINE
  5
3E8
330
1F
100
AcDbEntity
  8
D-4_寸法
  6
Continuous
 62
     7
370
     9
100
AcDbLine
 10
-964.4735387853673
 20
-615.7632033889358
 30
0.0
 11
-964.4735387853673
 21
-714.9112268396325
 31
0.0
  0
LINE
  5
3E9
330
1F
100
AcDbEntity
  8
D-2_蓋
  6
Continuous
 62
     3
370
     9
100
AcDbLine
 10
-906.8418348157728
 20
-802.589301031989
 30
0.0
 11
-871.8413481841217
 21
-795.099545040646
 31
0.0
  0
LINE
  5
3EA
330
1F
100
AcDbEntity
  8
D-2_蓋
  6
Continuous
 62
     3
370
     9
100
AcDbLine
 10
-906.8418348157728
 20
-800.0327527845228
 30
0.0
 11
-871.8413481841217
 21
-792.5429967931798
 31
0.0
  0
LINE
  5
3EB
330
1F
100
AcDbEntity
  8
D-2_蓋
  6
Continuous
 62
     3
370
     9
100
AcDbLine
 10
-871.8413481841217
 20
-823.2221325023754
 30
0.0
 11
-906.8418348157728
 21
-830.7118884937183
 31
0.0
  0
LINE
  5
3EC
330
1F
100
AcDbEntity
  8
D-2_蓋
  6
Continuous
 62
     3
370
     9
100
AcDbLine
 10
-871.8413481841217
 20
-820.6655223949535
 30
0.0
 11
-906.8418348157728
 21
-828.1552783862965
 31
0.0
  0
LINE
  5
3ED
330
1F
100
AcDbEntity
  8
D-2_蓋
  6
Continuous
 62
     3
370
     9
100
AcDbLine
 10
-906.8418348157728
 20
-762.5894165039062
 30
0.0
 11
-871.8413481841217
 21
-770.079172495249
 31
0.0
  0
LINE
  5
3EE
330
1F
100
AcDbEntity
  8
D-2_蓋
  6
Continuous
 62
     3
370
     9
100
AcDbLine
 10
-906.8418348157728
 20
-765.1460266113281
 30
0.0
 11
-871.8413481841217
 21
-772.6357826026709
 31
0.0
  0
LINE
  5
3EF
330
1F
100
AcDbEntity
  8
D-2_蓋
  6
Continuous
 62
     3
370
     9
100
AcDbLine
 10
-906.8418348157728
 20
-737.0234391495989
 30
0.0
 11
-871.8413481841217
 21
-744.5131951409417
 31
0.0
  0
LINE
  5
3F0
330
1F
100
AcDbEntity
  8
D-2_蓋
  6
Continuous
 62
     3
370
     9
100
AcDbLine
 10
-906.8418348157728
 20
-734.466829042177
 30
0.0
 11
-871.8413481841217
 21
-741.9563375936971
 31
0.0
  0
LINE
  5
3F1
330
1F
100
AcDbEntity
  8
D-2_蓋
  6
Continuous
 62
     3
370
     9
100
AcDbLine
 10
-906.8418348157728
 20
-878.8345419394002
 30
0.0
 11
-871.8413481841217
 21
-886.3242979307432
 31
0.0
  0
LINE
  5
3F2
330
1F
100
AcDbEntity
  8
D-2_蓋
  6
Continuous
 62
     3
370
     9
100
AcDbLine
 10
-906.8418348157728
 20
-881.3909664669552
 30
0.0
 11
-871.8413481841217
 21
-888.8806605983425
 31
0.0
  0
LINE
  5
3F3
330
1F
100
AcDbEntity
  8
D-2_蓋
  6
Continuous
 62
     3
370
     9
100
AcDbLine
 10
-906.8418348157728
 20
-853.2686264450484
 30
0.0
 11
-871.8413481841217
 21
-860.7583205764358
 31
0.0
  0
LINE
  5
3F4
330
1F
100
AcDbEntity
  8
D-2_蓋
  6
Continuous
 62
     3
370
     9
100
AcDbLine
 10
-906.8418348157728
 20
-850.7117688978041
 30
0.0
 11
-871.8413481841217
 21
-858.2015248891469
 31
0.0
  0
LINE
  5
3F5
330
1F
100
AcDbEntity
  8
D-2_蓋
  6
Continuous
 62
     3
370
     9
100
AcDbLine
 10
-896.8418018237963
 20
-855.4083004513302
 30
0.0
 11
-871.8413481841217
 21
-880.4081354914484
 31
0.0
  0
LINE
  5
3F6
330
1F
100
AcDbEntity
  8
D-2_蓋
  6
Continuous
 62
     3
370
     9
100
AcDbLine
 10
-883.3474236565667
 20
-858.296170621305
 30
0.0
 11
-871.8413481841217
 21
-869.801689354149
 31
0.0
  0
LINE
  5
3F7
330
1F
100
AcDbEntity
  8
D-2_蓋
  6
Continuous
 62
     3
370
     9
100
AcDbLine
 10
-906.8418348157728
 20
-856.0150228964314
 30
0.0
 11
-877.809596706081
 21
-885.0472610061233
 31
0.0
  0
LINE
  5
3F8
330
1F
100
AcDbEntity
  8
D-2_蓋
  6
Continuous
 62
     3
370
     9
100
AcDbLine
 10
-906.8418348157728
 20
-866.621469033731
 30
0.0
 11
-891.3038511533995
 21
-882.1593908361488
 31
0.0
  0
LINE
  5
3F9
330
1F
100
AcDbEntity
  8
D-2_蓋
  6
Continuous
 62
     3
370
     9
100
AcDbLine
 10
-906.8418348157728
 20
-877.2284719106312
 30
0.0
 11
-904.7982293206292
 21
-879.2718299659523
 31
0.0
  0
LINE
  5
3FA
330
1F
100
AcDbEntity
  8
D-2_蓋
  6
Continuous
 62
     3
370
     9
100
AcDbLine
 10
-896.8418018237963
 20
-739.1634224556587
 30
0.0
 11
-871.8413481841217
 21
-764.163257495777
 31
0.0
  0
LINE
  5
3FB
330
1F
100
AcDbEntity
  8
D-2_蓋
  6
Continuous
 62
     3
370
     9
100
AcDbLine
 10
-883.3474236565667
 20
-742.0512307656777
 30
0.0
 11
-871.8413481841217
 21
-753.5567494985219
 31
0.0
  0
LINE
  5
3FC
330
1F
100
AcDbEntity
  8
D-2_蓋
  6
Continuous
 62
     3
370
     9
100
AcDbLine
 10
-906.8418348157728
 20
-739.7701449007602
 30
0.0
 11
-877.809596706081
 21
-768.8023211504963
 31
0.0
  0
LINE
  5
3FD
330
1F
100
AcDbEntity
  8
D-2_蓋
  6
Continuous
 62
     3
370
     9
100
AcDbLine
 10
-906.8418348157728
 20
-750.3765910380595
 30
0.0
 11
-891.3038511533995
 21
-765.9142654006546
 31
0.0
  0
LINE
  5
3FE
330
1F
100
AcDbEntity
  8
D-2_蓋
  6
Continuous
 62
     3
370
     9
100
AcDbLine
 10
-906.8418348157728
 20
-760.9833464751373
 30
0.0
 11
-904.7982293206292
 21
-763.0266426705025
 31
0.0
  0
LINE
  5
3FF
330
1F
100
AcDbEntity
  8
D-2_蓋
  6
Continuous
 62
     3
370
     9
100
AcDbLine
 10
-879.3680964289484
 20
-796.7101308461781
 30
0.0
 11
-871.8413481841217
 21
-804.2360130516258
 31
0.0
  0
LINE
  5
400
330
1F
100
AcDbEntity
  8
D-2_蓋
  6
Continuous
 62
     3
370
     9
100
AcDbLine
 10
-896.8418018237963
 20
-800.4494414458404
 30
0.0
 11
-875.7825696790541
 21
-821.508797310494
 31
0.0
  0
LINE
  5
401
330
1F
100
AcDbEntity
  8
D-2_蓋
  6
Continuous
 62
     3
370
     9
100
AcDbLine
 10
-888.1047016865498
 20
-798.5797861460093
 30
0.0
 11
-871.8413481841217
 21
-814.8427684887035
 31
0.0
  0
LINE
  5
402
330
1F
100
AcDbEntity
  8
D-2_蓋
  6
Continuous
 62
     3
370
     9
100
AcDbLine
 10
-905.5787782411317
 20
-802.3190967456713
 30
0.0
 11
-884.5191749366553
 21
-823.3784526103251
 31
0.0
  0
LINE
  5
403
330
1F
100
AcDbEntity
  8
D-2_蓋
  6
Continuous
 62
     3
370
     9
100
AcDbLine
 10
-906.8418348157728
 20
-811.6628574680636
 30
0.0
 11
-893.256275073902
 21
-825.2481079101562
 31
0.0
  0
LINE
  5
404
330
1F
100
AcDbEntity
  8
D-2_蓋
  6
Continuous
 62
     3
370
     9
100
AcDbLine
 10
-906.8418348157728
 20
-822.2696129051415
 30
0.0
 11
-901.9933752111485
 21
-827.1177632099873
 31
0.0
  0
LINE
  5
405
330
1F
100
AcDbEntity
  8
D-4_寸法
  6
Continuous
 62
     7
370
     9
100
AcDbLine
 10
-871.8413481841217
 20
-595.5577623521959
 30
0.0
 11
-871.8413481841217
 21
-563.210078059016
 31
0.0
  0
LINE
  5
406
330
1F
100
AcDbEntity
  8
D-4_寸法
  6
Continuous
 62
     7
370
     9
100
AcDbLine
 10
-906.8418348157728
 20
-595.5577623521959
 30
0.0
 11
-906.8418348157728
 21
-563.210078059016
 31
0.0
  0
LINE
  5
407
330
1F
100
AcDbEntity
  8
D-4_寸法
  6
Continuous
 62
     7
370
     9
100
AcDbLine
 10
-871.8413481841217
 20
-566.2101003286
 30
0.0
 11
-847.05530115076
 21
-562.9469258076435
 31
0.0
  0
LINE
  5
408
330
1F
100
AcDbEntity
  8
D-4_寸法
  6
Continuous
 62
     7
370
     9
100
AcDbLine
 10
-871.8413481841217
 20
-566.2101003286
 30
0.0
 11
-847.05530115076
 21
-569.4732748495564
 31
0.0
  0
LINE
  5
409
330
1F
100
AcDbEntity
  8
D-4_寸法
  6
Continuous
 62
     7
370
     9
100
AcDbLine
 10
-906.8418348157728
 20
-566.2101003286
 30
0.0
 11
-931.6278818491343
 21
-562.9469258076435
 31
0.0
  0
LINE
  5
40A
330
1F
100
AcDbEntity
  8
D-4_寸法
  6
Continuous
 62
     7
370
     9
100
AcDbLine
 10
-906.8418348157728
 20
-566.2101003286
 30
0.0
 11
-931.6278818491343
 21
-569.4732748495564
 31
0.0
  0
LINE
  5
40B
330
1F
100
AcDbEntity
  8
D-4_寸法
  6
Continuous
 62
     7
370
     9
100
AcDbLine
 10
-840.8991220835093
 20
-566.2101003286
 30
0.0
 11
-932.327517947635
 21
-566.2101003286
 31
0.0
  0
LINE
  5
40C
330
1F
100
AcDbEntity
  8
D-4_寸法
  6
Continuous
 62
     7
370
     9
100
AcDbLine
 10
-877.0252124683276
 20
-667.6132284628377
 30
0.0
 11
-864.0707479940877
 21
-646.2312729294235
 31
0.0
  0
LINE
  5
40D
330
1F
100
AcDbEntity
  8
D-4_寸法
  6
Continuous
 62
     7
370
     9
100
AcDbLine
 10
-877.0252124683276
 20
-667.6132284628377
 30
0.0
 11
-858.9780652845228
 21
-650.3129783836571
 31
0.0
  0
LINE
  5
40E
330
1F
100
AcDbEntity
  8
D-2_蓋
  6
Continuous
 62
     3
370
     9
100
AcDbLine
 10
-906.8418348157728
 20
-826.5492083575275
 30
0.0
 11
-905.5186503642313
 21
-827.8720835092905
 31
0.0
  0
LINE
  5
40F
330
1F
100
AcDbEntity
  8
D-4_寸法
  6
Continuous
 62
     7
370
     9
100
AcDbLine
 10
-171.9565726615286
 20
-761.7508429449957
 30
0.0
 11
-270.4754803631755
 21
-761.7508429449957
 31
0.0
  0
LINE
  5
410
330
1F
100
AcDbEntity
  8
D-4_寸法
  6
Continuous
 62
     7
370
     9
100
AcDbLine
 10
-795.7549636428419
 20
-566.2101003286
 30
0.0
 11
-877.0252124683276
 21
-667.6132284628377
 31
0.0
  0
LINE
  5
411
330
1F
100
AcDbEntity
  8
D-4_寸法
  6
Continuous
 62
     7
370
     9
100
AcDbLine
 10
-795.7549636428419
 20
-566.2101003286
 30
0.0
 11
-541.9069444811021
 21
-566.2101003286
 31
0.0
  0
LINE
  5
412
330
1F
100
AcDbEntity
  8
A-2_蓋
  6
Continuous
 62
     3
370
     9
100
AcDbLine
 10
1327.102166253167
 20
470.3343076963682
 30
0.0
 11
1315.788475242821
 21
459.0206166860222
 31
0.0
  0
LINE
  5
413
330
1F
100
AcDbEntity
  8
A-2_蓋
  6
Continuous
 62
     3
370
     9
100
AcDbLine
 10
1315.788475242821
 20
459.0206166860222
 30
0.0
 11
1304.474784232475
 21
470.3343076963682
 31
0.0
  0
LINE
  5
414
330
1F
100
AcDbEntity
  8
A-2_蓋
  6
Continuous
 62
     3
370
     9
100
AcDbLine
 10
1304.474784232475
 20
470.3343076963682
 30
0.0
 11
1315.788475242821
 21
481.6477512668919
 31
0.0
  0
LINE
  5
415
330
1F
100
AcDbEntity
  8
A-2_蓋
  6
Continuous
 62
     3
370
     9
100
AcDbLine
 10
1315.788475242821
 20
481.6477512668919
 30
0.0
 11
1327.102166253167
 21
470.3343076963682
 31
0.0
  0
LINE
  5
416
330
1F
100
AcDbEntity
  8
A-2_蓋
  6
Continuous
 62
     3
370
     9
100
AcDbLine
 10
1327.102166253167
 20
270.3343901763091
 30
0.0
 11
1315.788475242821
 21
259.020699165963
 31
0.0
  0
LINE
  5
417
330
1F
100
AcDbEntity
  8
A-2_蓋
  6
Continuous
 62
     3
370
     9
100
AcDbLine
 10
1315.788475242821
 20
259.020699165963
 30
0.0
 11
1304.474784232475
 21
270.3343901763091
 31
0.0
  0
LINE
  5
418
330
1F
100
AcDbEntity
  8
A-2_蓋
  6
Continuous
 62
     3
370
     9
100
AcDbLine
 10
1304.474784232475
 20
270.3343901763091
 30
0.0
 11
1315.788475242821
 21
281.6478337468328
 31
0.0
  0
LINE
  5
419
330
1F
100
AcDbEntity
  8
A-2_蓋
  6
Continuous
 62
     3
370
     9
100
AcDbLine
 10
1315.788475242821
 20
281.6478337468328
 30
0.0
 11
1327.102166253167
 21
270.3343901763091
 31
0.0
  0
LINE
  5
41A
330
1F
100
AcDbEntity
  8
A-2_蓋
  6
Continuous
 62
     3
370
     9
100
AcDbLine
 10
1327.102166253167
 20
70.33434893633881
 30
0.0
 11
1315.788475242821
 21
59.02065792599245
 31
0.0
  0
LINE
  5
41B
330
1F
100
AcDbEntity
  8
A-2_蓋
  6
Continuous
 62
     3
370
     9
100
AcDbLine
 10
1315.788475242821
 20
59.02065792599245
 30
0.0
 11
1304.474784232475
 21
70.33434893633881
 31
0.0
  0
LINE
  5
41C
330
1F
100
AcDbEntity
  8
A-2_蓋
  6
Continuous
 62
     3
370
     9
100
AcDbLine
 10
1304.474784232475
 20
70.33434893633881
 30
0.0
 11
1315.788475242821
 21
81.64779250686252
 31
0.0
  0
LINE
  5
41D
330
1F
100
AcDbEntity
  8
A-2_蓋
  6
Continuous
 62
     3
370
     9
100
AcDbLine
 10
1315.788475242821
 20
81.64779250686252
 30
0.0
 11
1327.102166253167
 21
70.33434893633881
 31
0.0
  0
LINE
  5
41E
330
1F
100
AcDbEntity
  8
A-2_蓋
  6
Continuous
 62
     3
370
     9
100
AcDbLine
 10
1321.474642366977
 20
475.9617078626479
 30
0.0
 11
1321.474642366977
 21
541.2673867715373
 31
0.0
  0
LINE
  5
41F
330
1F
100
AcDbEntity
  8
A-2_蓋
  6
Continuous
 62
     3
370
     9
100
AcDbLine
 10
1324.474850216428
 20
472.9616237331084
 30
0.0
 11
1324.474850216428
 21
541.2673867715373
 31
0.0
  0
LINE
  5
420
330
1F
100
AcDbEntity
  8
A-2_蓋
  6
Continuous
 62
     3
370
     9
100
AcDbLine
 10
1321.474642366977
 20
275.9617903425888
 30
0.0
 11
1321.474642366977
 21
464.7067838101773
 31
0.0
  0
LINE
  5
421
330
1F
100
AcDbEntity
  8
A-2_蓋
  6
Continuous
 62
     3
370
     9
100
AcDbLine
 10
1324.474850216428
 20
272.961706213049
 30
0.0
 11
1324.474850216428
 21
467.7068679397172
 31
0.0
  0
LINE
  5
422
330
1F
100
AcDbEntity
  8
A-2_蓋
  6
Continuous
 62
     3
370
     9
100
AcDbLine
 10
1321.474642366977
 20
-20.66609975453957
 30
0.0
 11
1321.474642366977
 21
64.70682505014793
 31
0.0
  0
LINE
  5
423
330
1F
100
AcDbEntity
  8
A-2_蓋
  6
Continuous
 62
     3
370
     9
100
AcDbLine
 10
1321.474642366977
 20
75.96174910261823
 30
0.0
 11
1321.474642366977
 21
264.7068662901182
 31
0.0
  0
LINE
  5
424
330
1F
100
AcDbEntity
  8
A-2_蓋
  6
Continuous
 62
     3
370
     9
100
AcDbLine
 10
1324.474850216428
 20
-20.66609975453957
 30
0.0
 11
1324.474850216428
 21
67.70703289959897
 31
0.0
  0
LINE
  5
425
330
1F
100
AcDbEntity
  8
A-2_蓋
  6
Continuous
 62
     3
370
     9
100
AcDbLine
 10
1324.474850216428
 20
72.96166497307865
 30
0.0
 11
1324.474850216428
 21
267.7070741395693
 31
0.0
  0
LINE
  5
426
330
1F
100
AcDbEntity
  8
A-A
  6
Continuous
 62
     3
370
     9
100
AcDbLine
 10
1304.474784232475
 20
-29.66598098342473
 30
0.0
 11
1304.474784232475
 21
-20.41482461465364
 31
0.0
  0
LINE
  5
427
330
1F
100
AcDbEntity
  8
A-2_蓋
  6
Continuous
 62
     3
370
     9
100
AcDbLine
 10
1304.474784232475
 20
-29.66598098342473
 30
0.0
 11
1404.474619272593
 21
-29.66598098342473
 31
0.0
  0
LINE
  5
428
330
1F
100
AcDbEntity
  8
A-2_蓋
  6
Continuous
 62
     3
370
     9
100
AcDbLine
 10
1394.47483372044
 20
-13.40893719647369
 30
0.0
 11
1394.47483372044
 21
7.534121951541408
 31
0.0
  0
LINE
  5
429
330
1F
100
AcDbEntity
  8
A-2_蓋
  6
Continuous
 62
     3
370
     9
100
AcDbLine
 10
1394.47483372044
 20
13.33386395428647
 30
0.0
 11
1394.47483372044
 21
541.2673867715373
 31
0.0
  0
LINE
  5
42A
330
1F
100
AcDbEntity
  8
A-2_蓋
  6
Continuous
 62
     3
370
     9
100
AcDbLine
 10
1397.474794130068
 20
-13.40893719647369
 30
0.0
 11
1397.474794130068
 21
7.534121951541408
 31
0.0
  0
LINE
  5
42B
330
1F
100
AcDbEntity
  8
A-2_蓋
  6
Continuous
 62
     3
370
     9
100
AcDbLine
 10
1397.474794130068
 20
13.33411139410913
 30
0.0
 11
1397.474794130068
 21
541.2673867715373
 31
0.0
  0
LINE
  5
42C
330
1F
100
AcDbEntity
  8
A-4_寸法
  6
Continuous
 62
     7
370
     9
100
AcDbLine
 10
-763.7499835040117
 20
681.3341625316724
 30
0.0
 11
-648.4781626108529
 21
1111.534275364232
 31
0.0
  0
LINE
  5
42D
330
1F
100
AcDbEntity
  8
A-1_ピット
  6
Continuous
 62
     2
370
     9
100
AcDbLine
 10
-1518.250666437923
 20
790.3341262404984
 30
0.0
 11
-1518.250666437923
 21
-49.66579952755495
 31
0.0
  0
LINE
  5
42E
330
1F
100
AcDbEntity
  8
A-1_ピット
  6
Continuous
 62
     2
370
     9
100
AcDbLine
 10
485.7501055743245
 20
790.3341262404984
 30
0.0
 11
485.7501055743245
 21
-49.66579952755495
 31
0.0
  0
CIRCLE
  5
42F
330
1F
100
AcDbEntity
  8
A-1_ピット
  6
Continuous
 62
     2
370
     9
100
AcDbCircle
 10
-1131.250453639675
 20
-58.66654679581927
 30
0.0
 40
9.000002049111032
  0
CIRCLE
  5
430
330
1F
100
AcDbEntity
  8
A-1_ピット
  6
Continuous
 62
     2
370
     9
100
AcDbCircle
 10
-929.2503563133446
 20
-58.66654679581927
 30
0.0
 40
9.000002049111032
  0
ARC
  5
431
330
1F
100
AcDbEntity
  8
A-1_ピット
  6
Continuous
 62
     2
370
     9
100
AcDbCircle
 10
-1120.250268884607
 20
-70.8673095703125
 30
0.0
 40
20.00000025774982
100
AcDbArc
 50
180.0
 51
270.0
  0
ARC
  5
432
330
1F
100
AcDbEntity
  8
A-1_ピット
  6
Continuous
 62
     2
370
     9
100
AcDbCircle
 10
-940.2504173485008
 20
-70.8673095703125
 30
0.0
 40
20.00000025774982
100
AcDbArc
 50
270.0
 51
0.0
  0
ARC
  5
433
330
1F
100
AcDbEntity
  8
A-1_ピット
  6
Continuous
 62
     2
370
     9
100
AcDbCircle
 10
-940.2500461887668
 20
-70.8673095703125
 30
0.0
 40
2.000000146595208
100
AcDbArc
 50
270.0
 51
0.0
  0
ARC
  5
434
330
1F
100
AcDbEntity
  8
A-1_ピット
  6
Continuous
 62
     2
370
     9
100
AcDbCircle
 10
-1120.250268884607
 20
-70.8673095703125
 30
0.0
 40
2.000000146595208
100
AcDbArc
 50
180.0
 51
270.0
  0
CIRCLE
  5
435
330
1F
100
AcDbEntity
  8
A-1_ピット
  6
Continuous
 62
     2
370
     9
100
AcDbCircle
 10
-103.2499571104307
 20
-58.66654679581927
 30
0.0
 40
9.000002049111032
  0
CIRCLE
  5
436
330
1F
100
AcDbEntity
  8
A-1_ピット
  6
Continuous
 62
     2
370
     9
100
AcDbCircle
 10
98.74927417652032
 20
-58.66654679581927
 30
0.0
 40
9.000002049111032
  0
ARC
  5
437
330
1F
100
AcDbEntity
  8
A-1_ピット
  6
Continuous
 62
     2
370
     9
100
AcDbCircle
 10
-92.24989607527448
 20
-70.8673095703125
 30
0.0
 40
20.00000025774982
100
AcDbArc
 50
180.0
 51
270.0
  0
ARC
  5
438
330
1F
100
AcDbEntity
  8
A-1_ピット
  6
Continuous
 62
     2
370
     9
100
AcDbCircle
 10
87.75057406038854
 20
-70.8673095703125
 30
0.0
 40
20.00000025774982
100
AcDbArc
 50
270.0
 51
0.0
  0
ARC
  5
439
330
1F
100
AcDbEntity
  8
A-1_ピット
  6
Continuous
 62
     2
370
     9
100
AcDbCircle
 10
87.75057406038854
 20
-70.8673095703125
 30
0.0
 40
2.000000146595208
100
AcDbArc
 50
270.0
 51
0.0
  0
ARC
  5
43A
330
1F
100
AcDbEntity
  8
A-1_ピット
  6
Continuous
 62
     2
370
     9
100
AcDbCircle
 10
-92.25051467483098
 20
-70.8673095703125
 30
0.0
 40
2.000000146595208
100
AcDbArc
 50
180.0
 51
270.0
  0
CIRCLE
  5
43B
330
1F
100
AcDbEntity
  8
A-1_ピット
  6
Continuous
 62
     2
370
     9
100
AcDbCircle
 10
-1131.250453639675
 20
799.3347497888516
 30
0.0
 40
9.000002049111032
  0
CIRCLE
  5
43C
330
1F
100
AcDbEntity
  8
A-1_ピット
  6
Continuous
 62
     2
370
     9
100
AcDbCircle
 10
-929.2503563133446
 20
799.3347497888516
 30
0.0
 40
9.000002049111032
  0
ARC
  5
43D
330
1F
100
AcDbEntity
  8
A-1_ピット
  6
Continuous
 62
     2
370
     9
100
AcDbCircle
 10
-1120.250268884607
 20
811.5345228040542
 30
0.0
 40
20.00000025774982
100
AcDbArc
 50
90.0
 51
180.0
  0
ARC
  5
43E
330
1F
100
AcDbEntity
  8
A-1_ピット
  6
Continuous
 62
     2
370
     9
100
AcDbCircle
 10
-940.2504173485008
 20
811.5345228040542
 30
0.0
 40
20.00000025774982
100
AcDbArc
 50
0.0
 51
90.0
  0
ARC
  5
43F
330
1F
100
AcDbEntity
  8
A-1_ピット
  6
Continuous
 62
     2
370
     9
100
AcDbCircle
 10
-940.2500461887668
 20
811.5345228040542
 30
0.0
 40
2.000000146595208
100
AcDbArc
 50
0.0
 51
90.0
  0
ARC
  5
440
330
1F
100
AcDbEntity
  8
A-1_ピット
  6
Continuous
 62
     2
370
     9
100
AcDbCircle
 10
-1120.250268884607
 20
811.5345228040542
 30
0.0
 40
2.000000146595208
100
AcDbArc
 50
90.0
 51
180.0
  0
CIRCLE
  5
441
330
1F
100
AcDbEntity
  8
A-1_ピット
  6
Continuous
 62
     2
370
     9
100
AcDbCircle
 10
-103.2499571104307
 20
799.3347497888516
 30
0.0
 40
9.000002049111032
  0
CIRCLE
  5
442
330
1F
100
AcDbEntity
  8
A-1_ピット
  6
Continuous
 62
     2
370
     9
100
AcDbCircle
 10
98.74927417652032
 20
799.3347497888516
 30
0.0
 40
9.000002049111032
  0
ARC
  5
443
330
1F
100
AcDbEntity
  8
A-1_ピット
  6
Continuous
 62
     2
370
     9
100
AcDbCircle
 10
-92.24989607527448
 20
811.5345228040542
 30
0.0
 40
20.00000025774982
100
AcDbArc
 50
90.0
 51
180.0
  0
ARC
  5
444
330
1F
100
AcDbEntity
  8
A-1_ピット
  6
Continuous
 62
     2
370
     9
100
AcDbCircle
 10
87.75057406038854
 20
811.5345228040542
 30
0.0
 40
20.00000025774982
100
AcDbArc
 50
0.0
 51
90.0
  0
ARC
  5
445
330
1F
100
AcDbEntity
  8
A-1_ピット
  6
Continuous
 62
     2
370
     9
100
AcDbCircle
 10
87.75057406038854
 20
811.5345228040542
 30
0.0
 40
2.000000146595208
100
AcDbArc
 50
0.0
 51
90.0
  0
ARC
  5
446
330
1F
100
AcDbEntity
  8
A-1_ピット
  6
Continuous
 62
     2
370
     9
100
AcDbCircle
 10
-92.25051467483098
 20
811.5345228040542
 30
0.0
 40
2.000000146595208
100
AcDbArc
 50
90.0
 51
180.0
  0
ARC
  5
447
330
1F
100
AcDbEntity
  8
A-3_受枠
  6
Continuous
 62
     4
370
     9
100
AcDbCircle
 10
-1303.149496542441
 20
730.2342100401182
 30
0.0
 40
2.899994479643332
100
AcDbArc
 50
270.0
 51
90.0
  0
ARC
  5
448
330
1F
100
AcDbEntity
  8
A-3_受枠
  6
Continuous
 62
     4
370
     9
100
AcDbCircle
 10
-1353.949881888725
 20
730.2342100401182
 30
0.0
 40
2.899994479643332
100
AcDbArc
 50
90.0
 51
270.0
  0
ARC
  5
449
330
1F
100
AcDbEntity
  8
A-3_受枠
  6
Continuous
 62
     4
370
     9
100
AcDbCircle
 10
-1347.649445404877
 20
730.2342100401182
 30
0.0
 40
2.900000762295079
100
AcDbArc
 50
270.0
 51
0.0
  0
ARC
  5
44A
330
1F
100
AcDbEntity
  8
A-3_受枠
  6
Continuous
 62
     4
370
     9
100
AcDbCircle
 10
-1309.449561866554
 20
730.2342100401182
 30
0.0
 40
2.900000762295079
100
AcDbArc
 50
180.0
 51
270.0
  0
ARC
  5
44B
330
1F
100
AcDbEntity
  8
A-3_受枠
  6
Continuous
 62
     4
370
     9
100
AcDbCircle
 10
-1351.549591889252
 20
734.1343565244932
 30
0.0
 40
0.9999999524773778
100
AcDbArc
 50
270.0
 51
0.0
  0
ARC
  5
44C
330
1F
100
AcDbEntity
  8
A-3_受枠
  6
Continuous
 62
     4
370
     9
100
AcDbCircle
 10
-1305.54953910209
 20
734.1343565244932
 30
0.0
 40
0.9999999524773778
100
AcDbArc
 50
180.0
 51
270.0
  0
ARC
  5
44D
330
1F
100
AcDbEntity
  8
A-3_受枠
  6
JWW_HOJO
 62
     4
370
     9
100
AcDbCircle
 10
-1347.649445404877
 20
758.4339368665542
 30
0.0
 40
2.899988196991586
100
AcDbArc
 50
0.0
 51
180.0
  0
ARC
  5
44E
330
1F
100
AcDbEntity
  8
A-3_受枠
  6
JWW_HOJO
 62
     4
370
     9
100
AcDbCircle
 10
-1309.449561866554
 20
758.4339368665542
 30
0.0
 40
2.899988196991586
100
AcDbArc
 50
0.0
 51
180.0
  0
ELLIPSE
  5
44F
330
1F
100
AcDbEntity
  8
A-3_受枠
  6
Continuous
 62
     4
370
     9
100
AcDbEllipse
 10
-1347.649445404877
 20
775.4523529877533
 30
0.0
 11
2.899994479643332
 21
0.0
 31
0.0
210
0.0
220
0.0
230
1.0
 40
0.9937
 41
0.0
 42
6.283185307179586
  0
ELLIPSE
  5
450
330
1F
100
AcDbEntity
  8
A-3_受枠
  6
Continuous
 62
     4
370
     9
100
AcDbEllipse
 10
-1309.449561866554
 20
775.4523529877533
 30
0.0
 11
-2.899994479643332
 21
3.551351665821042E-16
 31
0.0
210
0.0
220
0.0
230
1.0
 40
0.9937
 41
0.0
 42
6.283185307179586
  0
ARC
  5
451
330
1F
100
AcDbEntity
  8
A-3_受枠
  6
JWW_HOJO
 62
     4
370
     9
100
AcDbCircle
 10
-1347.649445404877
 20
773.2338075380068
 30
0.0
 40
2.899988196991586
100
AcDbArc
 50
180.0
 51
0.0
  0
ARC
  5
452
330
1F
100
AcDbEntity
  8
A-3_受枠
  6
JWW_HOJO
 62
     4
370
     9
100
AcDbCircle
 10
-1309.449561866554
 20
773.2338075380068
 30
0.0
 40
2.899988196991586
100
AcDbArc
 50
180.0
 51
0.0
  0
ARC
  5
453
330
1F
100
AcDbEntity
  8
A-3_受枠
  6
Continuous
 62
     4
370
     9
100
AcDbCircle
 10
320.25146484375
 20
730.2342100401182
 30
0.0
 40
2.899994479643332
100
AcDbArc
 50
270.0
 51
90.0
  0
ARC
  5
454
330
1F
100
AcDbEntity
  8
A-3_受枠
  6
Continuous
 62
     4
370
     9
100
AcDbCircle
 10
269.4510794974664
 20
730.2342100401182
 30
0.0
 40
2.899994479643332
100
AcDbArc
 50
90.0
 51
270.0
  0
ARC
  5
455
330
1F
100
AcDbEntity
  8
A-3_受枠
  6
Continuous
 62
     4
370
     9
100
AcDbCircle
 10
275.7511448215794
 20
730.2342100401182
 30
0.0
 40
2.900000762295079
100
AcDbArc
 50
270.0
 51
0.0
  0
ARC
  5
456
330
1F
100
AcDbEntity
  8
A-3_受枠
  6
Continuous
 62
     4
370
     9
100
AcDbCircle
 10
313.9509046399917
 20
730.2342100401182
 30
0.0
 40
2.900000762295079
100
AcDbArc
 50
180.0
 51
270.0
  0
ARC
  5
457
330
1F
100
AcDbEntity
  8
A-3_受枠
  6
Continuous
 62
     4
370
     9
100
AcDbCircle
 10
271.8509983372044
 20
734.1343565244932
 30
0.0
 40
0.9999999524773778
100
AcDbArc
 50
270.0
 51
0.0
  0
ARC
  5
458
330
1F
100
AcDbEntity
  8
A-3_受枠
  6
Continuous
 62
     4
370
     9
100
AcDbCircle
 10
317.8510511243667
 20
734.1343565244932
 30
0.0
 40
0.9999999524773778
100
AcDbArc
 50
180.0
 51
270.0
  0
ARC
  5
459
330
1F
100
AcDbEntity
  8
A-3_受枠
  6
JWW_HOJO
 62
     4
370
     9
100
AcDbCircle
 10
275.7511448215794
 20
758.4339368665542
 30
0.0
 40
2.899988196991586
100
AcDbArc
 50
0.0
 51
180.0
  0
ARC
  5
45A
330
1F
100
AcDbEntity
  8
A-3_受枠
  6
JWW_HOJO
 62
     4
370
     9
100
AcDbCircle
 10
313.9509046399917
 20
758.4339368665542
 30
0.0
 40
2.899988196991586
100
AcDbArc
 50
0.0
 51
180.0
  0
ELLIPSE
  5
45B
330
1F
100
AcDbEntity
  8
A-3_受枠
  6
Continuous
 62
     4
370
     9
100
AcDbEllipse
 10
275.7511448215794
 20
775.4523529877533
 30
0.0
 11
2.899994479643332
 21
0.0
 31
0.0
210
0.0
220
0.0
230
1.0
 40
0.9937
 41
0.0
 42
6.283185307179586
  0
ELLIPSE
  5
45C
330
1F
100
AcDbEntity
  8
A-3_受枠
  6
Continuous
 62
     4
370
     9
100
AcDbEllipse
 10
313.9509046399917
 20
775.4523529877533
 30
0.0
 11
-2.899994479643332
 21
3.551351665821042E-16
 31
0.0
210
0.0
220
0.0
230
1.0
 40
0.9937
 41
0.0
 42
6.283185307179586
  0
ARC
  5
45D
330
1F
100
AcDbEntity
  8
A-3_受枠
  6
JWW_HOJO
 62
     4
370
     9
100
AcDbCircle
 10
275.7511448215794
 20
773.2338075380068
 30
0.0
 40
2.899988196991586
100
AcDbArc
 50
180.0
 51
0.0
  0
ARC
  5
45E
330
1F
100
AcDbEntity
  8
A-3_受枠
  6
JWW_HOJO
 62
     4
370
     9
100
AcDbCircle
 10
313.9509046399917
 20
773.2338075380068
 30
0.0
 40
2.899988196991586
100
AcDbArc
 50
180.0
 51
0.0
  0
ARC
  5
45F
330
1F
100
AcDbEntity
  8
A-3_受枠
  6
Continuous
 62
     4
370
     9
100
AcDbCircle
 10
-1303.149496542441
 20
10.43448783255911
 30
0.0
 40
2.899994479643332
100
AcDbArc
 50
270.0
 51
90.0
  0
ARC
  5
460
330
1F
100
AcDbEntity
  8
A-3_受枠
  6
Continuous
 62
     4
370
     9
100
AcDbCircle
 10
-1353.949881888725
 20
10.43448783255911
 30
0.0
 40
2.899994479643332
100
AcDbArc
 50
90.0
 51
270.0
  0
ARC
  5
461
330
1F
100
AcDbEntity
  8
A-3_受枠
  6
Continuous
 62
     4
370
     9
100
AcDbCircle
 10
-1347.649445404877
 20
10.43448783255911
 30
0.0
 40
2.900000762295079
100
AcDbArc
 50
0.0
 51
90.0
  0
ARC
  5
462
330
1F
100
AcDbEntity
  8
A-3_受枠
  6
Continuous
 62
     4
370
     9
100
AcDbCircle
 10
-1309.449561866554
 20
10.43448783255911
 30
0.0
 40
2.900000762295079
100
AcDbArc
 50
90.0
 51
180.0
  0
ARC
  5
463
330
1F
100
AcDbEntity
  8
A-3_受枠
  6
Continuous
 62
     4
370
     9
100
AcDbCircle
 10
-1351.549591889252
 20
6.534341348184114
 30
0.0
 40
0.9999999524773778
100
AcDbArc
 50
0.0
 51
90.0
  0
ARC
  5
464
330
1F
100
AcDbEntity
  8
A-3_受枠
  6
Continuous
 62
     4
370
     9
100
AcDbCircle
 10
-1305.54953910209
 20
6.534341348184114
 30
0.0
 40
0.9999999524773778
100
AcDbArc
 50
90.0
 51
180.0
  0
ARC
  5
465
330
1F
100
AcDbEntity
  8
A-3_受枠
  6
JWW_HOJO
 62
     4
370
     9
100
AcDbCircle
 10
-1347.649445404877
 20
-17.76523899387655
 30
0.0
 40
2.899988196991586
100
AcDbArc
 50
180.0
 51
0.0
  0
ARC
  5
466
330
1F
100
AcDbEntity
  8
A-3_受枠
  6
JWW_HOJO
 62
     4
370
     9
100
AcDbCircle
 10
-1309.449561866554
 20
-17.76523899387655
 30
0.0
 40
2.899988196991586
100
AcDbArc
 50
180.0
 51
0.0
  0
ELLIPSE
  5
467
330
1F
100
AcDbEntity
  8
A-3_受枠
  6
Continuous
 62
     4
370
     9
100
AcDbEllipse
 10
-1347.649445404877
 20
-34.78365511507604
 30
0.0
 11
2.899994479643332
 21
0.0
 31
0.0
210
0.0
220
0.0
230
1.0
 40
0.9937
 41
0.0
 42
6.283185307179586
  0
ELLIPSE
  5
468
330
1F
100
AcDbEntity
  8
A-3_受枠
  6
Continuous
 62
     4
370
     9
100
AcDbEllipse
 10
-1309.449561866554
 20
-34.78365511507604
 30
0.0
 11
-2.899994479643332
 21
3.551351665821042E-16
 31
0.0
210
0.0
220
0.0
230
1.0
 40
0.9937
 41
0.0
 42
6.283185307179586
  0
ARC
  5
469
330
1F
100
AcDbEntity
  8
A-3_受枠
  6
JWW_HOJO
 62
     4
370
     9
100
AcDbCircle
 10
-1347.649445404877
 20
-32.56510966532943
 30
0.0
 40
2.899988196991586
100
AcDbArc
 50
0.0
 51
180.0
  0
ARC
  5
46A
330
1F
100
AcDbEntity
  8
A-3_受枠
  6
JWW_HOJO
 62
     4
370
     9
100
AcDbCircle
 10
-1309.449561866554
 20
-32.56510966532943
 30
0.0
 40
2.899988196991586
100
AcDbArc
 50
0.0
 51
180.0
  0
ARC
  5
46B
330
1F
100
AcDbEntity
  8
A-3_受枠
  6
Continuous
 62
     4
370
     9
100
AcDbCircle
 10
320.25146484375
 20
10.43448783255911
 30
0.0
 40
2.899994479643332
100
AcDbArc
 50
270.0
 51
90.0
  0
ARC
  5
46C
330
1F
100
AcDbEntity
  8
A-3_受枠
  6
Continuous
 62
     4
370
     9
100
AcDbCircle
 10
269.4510794974664
 20
10.43448783255911
 30
0.0
 40
2.899994479643332
100
AcDbArc
 50
90.0
 51
270.0
  0
ARC
  5
46D
330
1F
100
AcDbEntity
  8
A-3_受枠
  6
Continuous
 62
     4
370
     9
100
AcDbCircle
 10
275.7511448215794
 20
10.43448783255911
 30
0.0
 40
2.900000762295079
100
AcDbArc
 50
0.0
 51
90.0
  0
ARC
  5
46E
330
1F
100
AcDbEntity
  8
A-3_受枠
  6
Continuous
 62
     4
370
     9
100
AcDbCircle
 10
313.9509046399917
 20
10.43448783255911
 30
0.0
 40
2.900000762295079
100
AcDbArc
 50
90.0
 51
180.0
  0
ARC
  5
46F
330
1F
100
AcDbEntity
  8
A-3_受枠
  6
Continuous
 62
     4
370
     9
100
AcDbCircle
 10
271.8509983372044
 20
6.534341348184114
 30
0.0
 40
0.9999999524773778
100
AcDbArc
 50
0.0
 51
90.0
  0
ARC
  5
470
330
1F
100
AcDbEntity
  8
A-3_受枠
  6
Continuous
 62
     4
370
     9
100
AcDbCircle
 10
317.8510511243667
 20
6.534341348184114
 30
0.0
 40
0.9999999524773778
100
AcDbArc
 50
90.0
 51
180.0
  0
ARC
  5
471
330
1F
100
AcDbEntity
  8
A-3_受枠
  6
JWW_HOJO
 62
     4
370
     9
100
AcDbCircle
 10
275.7511448215794
 20
-17.76523899387655
 30
0.0
 40
2.899988196991586
100
AcDbArc
 50
180.0
 51
0.0
  0
ARC
  5
472
330
1F
100
AcDbEntity
  8
A-3_受枠
  6
JWW_HOJO
 62
     4
370
     9
100
AcDbCircle
 10
313.9509046399917
 20
-17.76523899387655
 30
0.0
 40
2.899988196991586
100
AcDbArc
 50
180.0
 51
0.0
  0
ELLIPSE
  5
473
330
1F
100
AcDbEntity
  8
A-3_受枠
  6
Continuous
 62
     4
370
     9
100
AcDbEllipse
 10
275.7511448215794
 20
-34.78365511507604
 30
0.0
 11
2.899994479643332
 21
0.0
 31
0.0
210
0.0
220
0.0
230
1.0
 40
0.9937
 41
0.0
 42
6.283185307179586
  0
ELLIPSE
  5
474
330
1F
100
AcDbEntity
  8
A-3_受枠
  6
Continuous
 62
     4
370
     9
100
AcDbEllipse
 10
313.9509046399917
 20
-34.78365511507604
 30
0.0
 11
-2.899994479643332
 21
3.551351665821042E-16
 31
0.0
210
0.0
220
0.0
230
1.0
 40
0.9937
 41
0.0
 42
6.283185307179586
  0
ARC
  5
475
330
1F
100
AcDbEntity
  8
A-3_受枠
  6
JWW_HOJO
 62
     4
370
     9
100
AcDbCircle
 10
275.7511448215794
 20
-32.56510966532943
 30
0.0
 40
2.899988196991586
100
AcDbArc
 50
0.0
 51
180.0
  0
ARC
  5
476
330
1F
100
AcDbEntity
  8
A-3_受枠
  6
JWW_HOJO
 62
     4
370
     9
100
AcDbCircle
 10
313.9509046399917
 20
-32.56510966532943
 30
0.0
 40
2.899988196991586
100
AcDbArc
 50
0.0
 51
180.0
  0
ARC
  5
477
330
1F
100
AcDbEntity
  8
A-3_受枠
  6
Continuous
 62
     4
370
     9
100
AcDbCircle
 10
1403.474467509502
 20
-30.61763454127941
 30
0.0
 40
0.9999999524773778
100
AcDbArc
 50
267.2883911132812
 51
0.0000000000000254
  0
ARC
  5
478
330
1F
100
AcDbEntity
  8
A-3_受枠
  6
Continuous
 62
     4
370
     9
100
AcDbCircle
 10
1403.474467509502
 20
-30.61763454127941
 30
0.0
 40
6.800000570915841
100
AcDbArc
 50
267.2882080078125
 51
0.0000000000000254
  0
ARC
  5
479
330
1F
100
AcDbEntity
  8
A-3_受枠
  6
Continuous
 62
     4
370
     9
100
AcDbCircle
 10
1403.474467509502
 20
-19.72285915065441
 30
0.0
 40
6.800000570915841
100
AcDbArc
 50
0.0
 51
93.15977478027344
  0
ARC
  5
47A
330
1F
100
AcDbEntity
  8
A-3_受枠
  6
Continuous
 62
     4
370
     9
100
AcDbCircle
 10
1403.474467509502
 20
-19.72285915065441
 30
0.0
 40
0.9999999524773778
100
AcDbArc
 50
0.0
 51
93.16032409667969
  0
ARC
  5
47B
330
1F
100
AcDbEntity
  8
A-3_受枠
  6
Continuous
 62
     4
370
     9
100
AcDbCircle
 10
1407.374366554054
 20
10.43386923300261
 30
0.0
 40
2.899994479643332
100
AcDbArc
 50
270.0
 51
90.0
  0
ARC
  5
47C
330
1F
100
AcDbEntity
  8
A-3_受枠
  6
Continuous
 62
     4
370
     9
100
AcDbCircle
 10
1349.074327623522
 20
6.533970188450269
 30
0.0
 40
0.9999999524773778
100
AcDbArc
 50
90.0
 51
180.0
  0
ARC
  5
47D
330
1F
100
AcDbEntity
  8
A-3_受枠
  6
Continuous
 62
     4
370
     9
100
AcDbCircle
 10
1349.074327623522
 20
6.533970188450269
 30
0.0
 40
6.800000570915841
100
AcDbArc
 50
90.0
 51
180.0
  0
ARC
  5
47E
330
1F
100
AcDbEntity
  8
A-3_受枠
  6
Continuous
 62
     4
370
     9
100
AcDbCircle
 10
1349.074327623522
 20
-4.317503233213529
 30
0.0
 40
6.800000570915841
100
AcDbArc
 50
180.0
 51
245.1987609863281
  0
ARC
  5
47F
330
1F
100
AcDbEntity
  8
A-3_受枠
  6
Continuous
 62
     4
370
     9
100
AcDbCircle
 10
1349.074327623522
 20
-4.317503233213529
 30
0.0
 40
0.9999999524773778
100
AcDbArc
 50
180.0
 51
245.1991119384766
  0
ARC
  5
480
330
1F
100
AcDbEntity
  8
A-1_ピット
  6
Continuous
 62
     2
370
     9
100
AcDbCircle
 10
1309.474800728463
 20
783.3345485377959
 30
0.0
 40
4.99999958115655
100
AcDbArc
 50
180.0
 51
270.0
  0
ARC
  5
481
330
1F
100
AcDbEntity
  8
A-1_ピット
  6
Continuous
 62
     2
370
     9
100
AcDbCircle
 10
1419.474668760558
 20
675.3344891522383
 30
0.0
 40
4.99999958115655
100
AcDbArc
 50
180.0
 51
270.0
  0
ARC
  5
482
330
1F
100
AcDbEntity
  8
A-1_ピット
  6
Continuous
 62
     2
370
     9
100
AcDbCircle
 10
1406.474675358953
 20
770.3345551361908
 30
0.0
 40
7.999999619819023
100
AcDbArc
 50
0.0
 51
90.0
  0
ARC
  5
483
330
1F
100
AcDbEntity
  8
A-1_ピット
  6
Continuous
 62
     2
370
     9
100
AcDbCircle
 10
1404.104944177576
 20
826.3348883551521
 30
0.0
 40
35.99999659770244
100
AcDbArc
 50
270.0
 51
285.0
  0
ARC
  5
484
330
1F
100
AcDbEntity
  8
A-1_ピット
  6
Continuous
 62
     2
370
     9
100
AcDbCircle
 10
1527.474975585938
 20
831.4388295766471
 30
0.0
 40
8.99999914942561
100
AcDbArc
 50
285.0001373291016
 51
104.9999084472656
  0
ARC
  5
485
330
1F
100
AcDbEntity
  8
A-1_ピット
  6
JWW_CENTER2
 62
     2
370
     9
100
AcDbCircle
 10
1404.104944177576
 20
826.3343934755068
 30
0.0
 40
27.00000131452406
100
AcDbArc
 50
270.0
 51
284.9999542236328
  0
ARC
  5
486
330
1F
100
AcDbEntity
  8
A-1_ピット
  6
Continuous
 62
     2
370
     9
100
AcDbCircle
 10
1404.105191617399
 20
826.3348883551521
 30
0.0
 40
17.99999829885122
100
AcDbArc
 50
270.0
 51
285.0000152587891
  0
ARC
  5
487
330
1F
100
AcDbEntity
  8
A-3_受枠
  6
Continuous
 62
     4
370
     9
100
AcDbCircle
 10
1403.474467509502
 20
771.2859612542231
 30
0.0
 40
0.9999999524773778
100
AcDbArc
 50
0.0
 51
92.71160888671875
  0
ARC
  5
488
330
1F
100
AcDbEntity
  8
A-3_受枠
  6
Continuous
 62
     4
370
     9
100
AcDbCircle
 10
1403.474467509502
 20
771.2859612542231
 30
0.0
 40
6.800000570915841
100
AcDbArc
 50
0.0
 51
92.71179199218751
  0
ARC
  5
489
330
1F
100
AcDbEntity
  8
A-3_受枠
  6
Continuous
 62
     4
370
     9
100
AcDbCircle
 10
1403.474467509502
 20
760.3911858635981
 30
0.0
 40
6.800000570915841
100
AcDbArc
 50
266.8402252197266
 51
0.0000000000000568
  0
ARC
  5
48A
330
1F
100
AcDbEntity
  8
A-3_受枠
  6
Continuous
 62
     4
370
     9
100
AcDbCircle
 10
1403.474467509502
 20
760.3911858635981
 30
0.0
 40
0.9999999524773778
100
AcDbArc
 50
266.8396759033203
 51
0.0
  0
ARC
  5
48B
330
1F
100
AcDbEntity
  8
A-3_受枠
  6
Continuous
 62
     4
370
     9
100
AcDbCircle
 10
1407.374366554054
 20
730.2344574799408
 30
0.0
 40
2.899994479643332
100
AcDbArc
 50
270.0
 51
90.0
  0
ARC
  5
48C
330
1F
100
AcDbEntity
  8
A-3_受枠
  6
Continuous
 62
     4
370
     9
100
AcDbCircle
 10
1349.074327623522
 20
734.1343565244932
 30
0.0
 40
0.9999999524773778
100
AcDbArc
 50
180.0
 51
270.0
  0
ARC
  5
48D
330
1F
100
AcDbEntity
  8
A-3_受枠
  6
Continuous
 62
     4
370
     9
100
AcDbCircle
 10
1349.074327623522
 20
734.1343565244932
 30
0.0
 40
6.800000570915841
100
AcDbArc
 50
180.0
 51
270.0
  0
ARC
  5
48E
330
1F
100
AcDbEntity
  8
A-3_受枠
  6
Continuous
 62
     4
370
     9
100
AcDbCircle
 10
1349.074327623522
 20
744.9858299461573
 30
0.0
 40
6.800000570915841
100
AcDbArc
 50
114.8012390136719
 51
180.0
  0
ARC
  5
48F
330
1F
100
AcDbEntity
  8
A-3_受枠
  6
Continuous
 62
     4
370
     9
100
AcDbCircle
 10
1349.074327623522
 20
744.9858299461573
 30
0.0
 40
0.9999999524773778
100
AcDbArc
 50
114.8008880615234
 51
180.0
  0
ARC
  5
490
330
1F
100
AcDbEntity
  8
A-1_ピット
  6
Continuous
 62
     2
370
     9
100
AcDbCircle
 10
1309.474800728463
 20
-42.66597438502941
 30
0.0
 40
4.99999958115655
100
AcDbArc
 50
90.0
 51
180.0
  0
ARC
  5
491
330
1F
100
AcDbEntity
  8
A-1_ピット
  6
Continuous
 62
     2
370
     9
100
AcDbCircle
 10
1419.474668760558
 20
65.33408500052786
 30
0.0
 40
4.99999958115655
100
AcDbArc
 50
90.0
 51
180.0
  0
ARC
  5
492
330
1F
100
AcDbEntity
  8
A-1_ピット
  6
Continuous
 62
     2
370
     9
100
AcDbCircle
 10
1406.474675358953
 20
-29.66598098342473
 30
0.0
 40
7.999999619819023
100
AcDbArc
 50
270.0
 51
0.0
  0
ARC
  5
493
330
1F
100
AcDbEntity
  8
A-1_ピット
  6
Continuous
 62
     2
370
     9
100
AcDbCircle
 10
1404.104944177576
 20
-85.66631420238593
 30
0.0
 40
35.99999659770244
100
AcDbArc
 50
74.99999999999999
 51
89.99999999999999
  0
ARC
  5
494
330
1F
100
AcDbEntity
  8
A-1_ピット
  6
Continuous
 62
     2
370
     9
100
AcDbCircle
 10
1527.474975585938
 20
-90.77025542388071
 30
0.0
 40
8.99999914942561
100
AcDbArc
 50
255.0000915527343
 51
74.9998626708984
  0
ARC
  5
495
330
1F
100
AcDbEntity
  8
A-1_ピット
  6
JWW_CENTER2
 62
     2
370
     9
100
AcDbCircle
 10
1404.104944177576
 20
-85.66581932274062
 30
0.0
 40
27.00000131452406
100
AcDbArc
 50
75.00004577636717
 51
90.0
  0
ARC
  5
496
330
1F
100
AcDbEntity
  8
A-1_ピット
  6
Continuous
 62
     2
370
     9
100
AcDbCircle
 10
1404.105191617399
 20
-85.66631420238593
 30
0.0
 40
17.99999829885122
100
AcDbArc
 50
74.99998474121095
 51
90.0
  0
ARC
  5
497
330
1F
100
AcDbEntity
  8
A-3_受枠
  6
Continuous
 62
     4
370
     9
100
AcDbCircle
 10
1403.474467509502
 20
-30.61738710145676
 30
0.0
 40
0.9999999524773778
100
AcDbArc
 50
267.2883911132812
 51
0.0000000000000254
  0
ARC
  5
498
330
1F
100
AcDbEntity
  8
A-3_受枠
  6
Continuous
 62
     4
370
     9
100
AcDbCircle
 10
1403.474467509502
 20
-30.61738710145676
 30
0.0
 40
6.800000570915841
100
AcDbArc
 50
267.2882080078125
 51
0.0000000000000254
  0
ARC
  5
499
330
1F
100
AcDbEntity
  8
A-3_受枠
  6
Continuous
 62
     4
370
     9
100
AcDbCircle
 10
1403.474467509502
 20
-19.72261171083176
 30
0.0
 40
6.800000570915841
100
AcDbArc
 50
0.0
 51
93.15977478027344
  0
ARC
  5
49A
330
1F
100
AcDbEntity
  8
A-3_受枠
  6
Continuous
 62
     4
370
     9
100
AcDbCircle
 10
1403.474467509502
 20
-19.72261171083176
 30
0.0
 40
0.9999999524773778
100
AcDbArc
 50
0.0
 51
93.16032409667969
  0
ARC
  5
49B
330
1F
100
AcDbEntity
  8
A-3_受枠
  6
Continuous
 62
     4
370
     9
100
AcDbCircle
 10
1407.374366554054
 20
10.43411667282527
 30
0.0
 40
2.899994479643332
100
AcDbArc
 50
270.0
 51
90.0
  0
ARC
  5
49C
330
1F
100
AcDbEntity
  8
A-3_受枠
  6
Continuous
 62
     4
370
     9
100
AcDbCircle
 10
1349.074327623522
 20
6.534217628272927
 30
0.0
 40
0.9999999524773778
100
AcDbArc
 50
90.0
 51
180.0
  0
ARC
  5
49D
330
1F
100
AcDbEntity
  8
A-3_受枠
  6
Continuous
 62
     4
370
     9
100
AcDbCircle
 10
1349.074327623522
 20
6.534217628272927
 30
0.0
 40
6.800000570915841
100
AcDbArc
 50
90.0
 51
180.0
  0
ARC
  5
49E
330
1F
100
AcDbEntity
  8
A-3_受枠
  6
Continuous
 62
     4
370
     9
100
AcDbCircle
 10
1349.074327623522
 20
-4.317255793390871
 30
0.0
 40
6.800000570915841
100
AcDbArc
 50
180.0
 51
245.1987609863281
  0
ARC
  5
49F
330
1F
100
AcDbEntity
  8
A-3_受枠
  6
Continuous
 62
     4
370
     9
100
AcDbCircle
 10
1349.074327623522
 20
-4.317255793390871
 30
0.0
 40
0.9999999524773778
100
AcDbArc
 50
180.0
 51
245.1991119384766
  0
TEXT
  5
4A0
330
1F
100
AcDbEntity
  8
D-4_寸法
  6
Continuous
 62
     2
370
     9
100
AcDbText
 10
882.5020125105575
 20
-1037.24479366818
 30
0.0
 40
30.48
  1
材質：ＳＳ４００
 41
1.109375
  7
ＭＳ ゴシック
100
AcDbText
  0
TEXT
  5
4A1
330
1F
100
AcDbEntity
  8
D-4_寸法
  6
Continuous
 62
     2
370
     9
100
AcDbText
 10
882.5020372545398
 20
-1092.244727684227
 30
0.0
 40
30.48
  1
処理：樹脂系塗料塗装
 41
1.1125
  7
ＭＳ ゴシック
100
AcDbText
  0
TEXT
  5
4A2
330
1F
100
AcDbEntity
  8
D-4_寸法
  6
Continuous
 62
     2
370
     9
100
AcDbText
 10
768.2004031619513
 20
-634.3246738413218
 30
0.0
 40
30.48
  1
仕　様
 41
1.083333333333333
  7
ＭＳ ゴシック
100
AcDbText
  0
TEXT
  5
4A3
330
1F
100
AcDbEntity
  8
D-4_寸法
  6
Continuous
 62
     2
370
     9
100
AcDbText
 10
882.5020372545398
 20
-862.2442163085938
 30
0.0
 40
30.48
  1
処理：溶融亜鉛めっき
 41
1.1125
  7
ＭＳ ゴシック
100
AcDbText
  0
TEXT
  5
4A4
330
1F
100
AcDbEntity
  8
D-4_寸法
  6
Continuous
 62
     2
370
     9
100
AcDbText
 10
882.5021114864867
 20
-917.2452638038429
 30
0.0
 40
30.48
  1
定尺：９９５
 41
1.104166666666667
  7
ＭＳ ゴシック
100
AcDbText
  0
TEXT
  5
4A5
330
1F
100
AcDbEntity
  8
D-4_寸法
  6
Continuous
 62
     2
370
     9
100
AcDbText
 10
822.7896613043708
 20
-697.245280299831
 30
0.0
 40
30.48
  1
ノンスリップタイプ
 41
1.111111111111111
  7
ＭＳ ゴシック
100
AcDbText
  0
TEXT
  5
4A6
330
1F
100
AcDbEntity
  8
D-4_寸法
  6
Continuous
 62
     2
370
     9
100
AcDbText
 10
882.5020125105575
 20
-807.2431688133446
 30
0.0
 40
30.48
  1
材質：ＳＳ４００
 41
1.109375
  7
ＭＳ ゴシック
100
AcDbText
  0
TEXT
  5
4A7
330
1F
100
AcDbEntity
  8
A-4_寸法
  6
Continuous
 62
     7
370
     9
100
AcDbText
 10
1634.480351628484
 20
1010.631796083193
 30
0.0
 40
22.86
  1
アンカー：φ９
 41
1.142857142857143
  7
ＭＳ ゴシック
100
AcDbText
  0
TEXT
  5
4A8
330
1F
100
AcDbEntity
  8
A-4_寸法
  6
Continuous
 62
     2
370
     9
100
AcDbText
 10
1192.158033455484
 20
-90.29668471786881
 30
0.0
 40
30.48
  1
6
 50
90.00000250447816
 41
0.9999999999999998
  7
ＭＳ ゴシック
100
AcDbText
  0
TEXT
  5
4A9
330
1F
100
AcDbEntity
  8
A-4_寸法
  6
Continuous
 62
     2
370
     9
100
AcDbText
 10
1192.158033455484
 20
-22.87415812633574
 30
0.0
 40
30.48
  1
4
 50
90.00000250447816
 41
0.9999999999999997
  7
ＭＳ ゴシック
100
AcDbText
  0
TEXT
  5
4AA
330
1F
100
AcDbEntity
  8
A-4_寸法
  6
Continuous
 62
     2
370
     9
100
AcDbText
 10
1192.158033455484
 20
739.423662918586
 30
0.0
 40
30.48
  1
4
 50
90.00000250447816
 41
1.000000000000001
  7
ＭＳ ゴシック
100
AcDbText
  0
TEXT
  5
4AB
330
1F
100
AcDbEntity
  8
A-4_寸法
  6
Continuous
 62
     2
370
     9
100
AcDbText
 10
1192.158033455484
 20
812.5332226736537
 30
0.0
 40
30.48
  1
6
 50
90.00000250447816
 41
1.000000000000001
  7
ＭＳ ゴシック
100
AcDbText
  0
TEXT
  5
4AC
330
1F
100
AcDbEntity
  8
A-4_寸法
  6
Continuous
 62
     2
370
     9
100
AcDbText
 10
1620.834164912186
 20
-10.9159729819628
 30
0.0
 40
30.48
  1
60
 50
90.00000250447816
 41
1.0625
  7
ＭＳ ゴシック
100
AcDbText
  0
TEXT
  5
4AD
330
1F
100
AcDbEntity
  8
A-4_寸法
  6
Continuous
 62
     2
370
     9
100
AcDbText
 10
1620.834164912186
 20
709.0845466416646
 30
0.0
 40
30.48
  1
60
 50
90.00000250447816
 41
1.062500000000001
  7
ＭＳ ゴシック
100
AcDbText
  0
TEXT
  5
4AE
330
1F
100
AcDbEntity
  8
A-4_寸法
  6
Continuous
 62
     7
370
     9
100
AcDbText
 10
-644.4871013551965
 20
1125.764555796016
 30
0.0
 40
22.86
  1
クロスバー □８ ＠100
 50
0.0000388418058018
 41
1.158730158730159
  7
ＭＳ ゴシック
100
AcDbText
  0
TEXT
  5
4AF
330
1F
100
AcDbEntity
  8
A-4_寸法
  6
Continuous
 62
     7
370
     9
100
AcDbText
 10
386.778638685072
 20
1045.763549540752
 30
0.0
 40
22.86
  1
ＵＳクリップ：ＵＳ－２
 41
1.151515151515152
  7
ＭＳ ゴシック
100
AcDbText
  0
TEXT
  5
4B0
330
1F
100
AcDbEntity
  8
A-4_寸法
  6
Continuous
 62
     7
370
     9
100
AcDbText
 10
878.618436246305
 20
996.221148252745
 30
0.0
 40
22.86
  1
（二方受四方枠）
 41
1.145833333333333
  7
ＭＳ ゴシック
100
AcDbText
  0
TEXT
  5
4B1
330
1F
100
AcDbEntity
  8
A-4_寸法
  6
Continuous
 62
     2
370
     9
100
AcDbText
 10
-383.9001423603779
 20
850.6615437605575
 30
0.0
 40
30.48
  1
35.3
 41
1.09375
  7
ＭＳ ゴシック
100
AcDbText
  0
TEXT
  5
4B2
330
1F
100
AcDbEntity
  8
A-4_寸法
  6
Continuous
 62
     2
370
     9
100
AcDbText
 10
-560.0002185718432
 20
-292.2789568596917
 30
0.0
 40
30.48
  1
1014
 41
1.09375
  7
ＭＳ ゴシック
100
AcDbText
  0
TEXT
  5
4B3
330
1F
100
AcDbEntity
  8
A-4_寸法
  6
Continuous
 62
     2
370
     9
100
AcDbText
 10
-1572.346824439796
 20
-186.8735514542862
 30
0.0
 40
30.48
  1
6
 41
0.9999999999999998
  7
ＭＳ ゴシック
100
AcDbText
  0
TEXT
  5
4B4
330
1F
100
AcDbEntity
  8
A-4_寸法
  6
Continuous
 62
     2
370
     9
100
AcDbText
 10
-1496.571954263223
 20
-186.8735514542862
 30
0.0
 40
30.48
  1
3.5
 41
1.083333333333333
  7
ＭＳ ゴシック
100
AcDbText
  0
TEXT
  5
4B5
330
1F
100
AcDbEntity
  8
A-4_寸法
  6
Continuous
 62
     2
370
     9
100
AcDbText
 10
-548.7502804317988
 20
-186.8735514542862
 30
0.0
 40
30.48
  1
995
 41
1.083333333333333
  7
ＭＳ ゴシック
100
AcDbText
  0
TEXT
  5
4B6
330
1F
100
AcDbEntity
  8
A-4_寸法
  6
Continuous
 62
     2
370
     9
100
AcDbText
 10
392.2571790540542
 20
-186.8735514542862
 30
0.0
 40
30.48
  1
3.5
 41
1.083333333333333
  7
ＭＳ ゴシック
100
AcDbText
  0
TEXT
  5
4B7
330
1F
100
AcDbEntity
  8
A-4_寸法
  6
Continuous
 62
     2
370
     9
100
AcDbText
 10
519.576399519637
 20
-186.8735514542862
 30
0.0
 40
30.48
  1
6
 41
0.9999999999999998
  7
ＭＳ ゴシック
100
AcDbText
  0
TEXT
  5
4B8
330
1F
100
AcDbEntity
  8
A-4_寸法
  6
Continuous
 62
     2
370
     9
100
AcDbText
 10
1338.225089408256
 20
-179.2260525760136
 30
0.0
 40
30.48
  1
55
 41
1.0625
  7
ＭＳ ゴシック
100
AcDbText
  0
TEXT
  5
4B9
330
1F
100
AcDbEntity
  8
A-4_寸法
  6
Continuous
 62
     2
370
     9
100
AcDbText
 10
1344.22476278769
 20
-259.2260690720016
 30
0.0
 40
30.48
  1
61
 41
1.0625
  7
ＭＳ ゴシック
100
AcDbText
  0
TEXT
  5
4BA
330
1F
100
AcDbEntity
  8
A-4_寸法
  6
Continuous
 62
     7
370
     9
100
AcDbText
 10
896.6647833746833
 20
1045.657150417019
 30
0.0
 40
22.86
  1
受枠：Ｌ－５５
 41
1.142857142857143
  7
ＭＳ ゴシック
100
AcDbText
  0
TEXT
  5
4BB
330
1F
100
AcDbEntity
  8
D-4_寸法
  6
Continuous
 62
     2
370
     9
100
AcDbText
 10
822.7910964553422
 20
-982.2447359322214
 30
0.0
 40
30.48
  1
スチール製受枠　Ｌ－５５（二方受四方枠）
 41
1.11875
  7
ＭＳ ゴシック
100
AcDbText
  0
TEXT
  5
4BC
330
1F
100
AcDbEntity
  8
A-4_寸法
  6
Continuous
 62
     7
370
     9
100
AcDbText
 10
-560.2969130978364
 20
1045.764291860217
 30
0.0
 40
22.86
  1
メインバー ＤⅠ－５５ ＠35.3
 50
359.9999127553377
 41
1.160714285714286
  7
ＭＳ ゴシック
100
AcDbText
  0
TEXT
  5
4BD
330
1F
100
AcDbEntity
  8
D-4_寸法
  6
Continuous
 62
     7
370
     9
100
AcDbText
 10
-954.7972574255035
 20
-1086.715958317932
 30
0.0
 40
22.86
  1
※デルタパターンの配列は一定ではありません。
 50
0.0000185323619753
 41
1.159090909090909
  7
ＭＳ ゴシック
100
AcDbText
  0
TEXT
  5
4BE
330
1F
100
AcDbEntity
  8
D-4_寸法
  6
Continuous
 62
     2
370
     9
100
AcDbText
 10
-974.7976272170606
 20
-1010.305865528004
 30
0.0
 40
30.48
  1
ＤⅠ－５５　バー形状詳細　Ｓ＝１：２
 41
1.118055555555555
  7
ＭＳ ゴシック
100
AcDbText
  0
TEXT
  5
4BF
330
1F
100
AcDbEntity
  8
D-4_寸法
  6
Continuous
 62
     7
370
     9
100
AcDbText
 10
-791.7094215186866
 20
-552.050154666385
 30
0.0
 40
22.86
  1
デルタパターン
 41
1.142857142857143
  7
ＭＳ ゴシック
100
AcDbText
  0
TEXT
  5
4C0
330
1F
100
AcDbEntity
  8
D-4_寸法
  6
Continuous
 62
     2
370
     9
100
AcDbText
 10
-980.1135713402298
 20
-676.4575919477305
 30
0.0
 40
30.48
  1
8
 50
90.00000250447816
 41
1.000000000000001
  7
ＭＳ ゴシック
100
AcDbText
  0
TEXT
  5
4C1
330
1F
100
AcDbEntity
  8
D-4_寸法
  6
Continuous
 62
     2
370
     9
100
AcDbText
 10
-980.1135713402298
 20
-850.7120145221604
 30
0.0
 40
30.48
  1
5
 50
90.00000250447816
 41
1.000000000000001
  7
ＭＳ ゴシック
100
AcDbText
  0
TEXT
  5
4C2
330
1F
100
AcDbEntity
  8
D-4_寸法
  6
Continuous
 62
     2
370
     9
100
AcDbText
 10
-899.3414677800358
 20
-550.5700673366238
 30
0.0
 40
30.48
  1
7
 41
0.9999999999999998
  7
ＭＳ ゴシック
100
AcDbText
  0
TEXT
  5
4C3
330
1F
100
AcDbEntity
  8
D-4_寸法
  6
Continuous
 62
     2
370
     9
100
AcDbText
 10
-820.7186029765363
 20
-670.5838108670721
 30
0.0
 40
30.48
  1
5
 50
282.0789753068251
 41
0.999999999999997
  7
ＭＳ ゴシック
100
AcDbText
  0
TEXT
  5
4C4
330
1F
100
AcDbEntity
  8
D-4_寸法
  6
Continuous
 62
     2
370
     9
100
AcDbText
 10
-240.7624404494827
 20
-543.0515464658995
 30
0.0
 40
30.48
  1
7
 41
0.9999999999999998
  7
ＭＳ ゴシック
100
AcDbText
  0
TEXT
  5
4C5
330
1F
100
AcDbEntity
  8
D-4_寸法
  6
Continuous
 62
     2
370
     9
100
AcDbText
 10
-193.7584005819782
 20
-746.1108099530194
 30
0.0
 40
30.48
  1
4
 41
0.9999999999999998
  7
ＭＳ ゴシック
100
AcDbText
  0
TEXT
  5
4C6
330
1F
100
AcDbEntity
  8
D-4_寸法
  6
Continuous
 62
     2
370
     9
100
AcDbText
 10
-106.4561380861243
 20
-769.6956327687029
 30
0.0
 40
30.48
  1
55
 50
90.00000250447816
 41
1.062500000000001
  7
ＭＳ ゴシック
100
AcDbText
  0
TEXT
  5
4C7
330
1F
100
AcDbEntity
  8
A-4_寸法
  6
Continuous
 62
     2
370
     9
100
AcDbText
 10
1196.15814661171
 20
337.8345961296291
 30
0.0
 40
30.48
  1
400
 50
90.00000250447816
 41
1.083333333333333
  7
ＭＳ ゴシック
100
AcDbText
  0
TEXT
  5
4C8
330
1F
100
AcDbEntity
  8
A-4_寸法
  6
Continuous
 62
     2
370
     9
100
AcDbText
 10
1116.158130115722
 20
337.8342249698953
 30
0.0
 40
30.48
  1
420
 50
90.00000250447816
 41
1.083333333333333
  7
ＭＳ ゴシック
100
AcDbText
  0
TEXT
  5
4C9
330
1F
100
AcDbEntity
  8
A-4_寸法
  6
Continuous
 62
     2
370
     9
100
AcDbText
 10
1624.834277576659
 20
337.8342249698953
 30
0.0
 40
30.48
  1
300
 50
90.00000250447816
 41
1.083333333333333
  7
ＭＳ ゴシック
100
AcDbText
  0
TEXT
  5
4CA
330
1F
100
AcDbEntity
  8
D-4_寸法
  6
Continuous
 62
     2
370
     9
100
AcDbText
 10
822.7896118164065
 20
-752.2463277950802
 30
0.0
 40
30.48
  1
圧接式グレーチング　ＨＸＢＣ　１４０５５
 41
1.11875
  7
ＭＳ ゴシック
100
AcDbText
  0
TEXT
  5
4CB
330
1F
100
AcDbEntity
  8
A-4_寸法
  6
Continuous
 62
     7
370
     9
100
AcDbText
 10
564.3619434253592
 20
803.635517578125
 30
0.0
 40
22.86
  1
プレート：ｔ＝６
 41
1.145833333333333
  7
ＭＳ ゴシック
100
AcDbText
  0
TEXT
  5
4CC
330
1F
100
AcDbEntity
  8
A-4_寸法
  6
Continuous
 62
     2
370
     9
100
AcDbText
 10
-1312.680063095762
 20
944.8689584272101
 30
0.0
 40
30.48
  1
250
 50
359.656254081433
 41
1.083333333333333
  7
ＭＳ ゴシック
100
AcDbText
  0
TEXT
  5
4CD
330
1F
100
AcDbEntity
  8
A-4_寸法
  6
Continuous
 62
     2
370
     9
100
AcDbText
 10
-548.7501567118876
 20
943.1740972075594
 30
0.0
 40
30.48
  1
514
 41
1.083333333333333
  7
ＭＳ ゴシック
100
AcDbText
  0
TEXT
  5
4CE
330
1F
100
AcDbEntity
  8
A-4_寸法
  6
Continuous
 62
     2
370
     9
100
AcDbText
 10
215.2501121727197
 20
943.1740972075594
 30
0.0
 40
30.48
  1
250
 41
1.083333333333333
  7
ＭＳ ゴシック
100
AcDbText
  0
LWPOLYLINE
  5
4CF
330
1F
100
AcDbEntity
  8
A-4_寸法
  6
Continuous
 62
     7
370
     9
100
AcDbPolyline
 90
        4
 70
     1
 43
1.0
 10
1208.298066010346
 20
-49.66579952755495
 42
0.4142135623731
 10
1207.798066010346
 20
-49.16579952755495
 42
0.4142135623731
 10
1207.298066010346
 20
-49.66579952755495
 42
0.4142135623731
 10
1207.798066010346
 20
-50.16579952755495
 42
0.4142135623731
  0
LWPOLYLINE
  5
4D0
330
1F
100
AcDbEntity
  8
A-4_寸法
  6
Continuous
 62
     7
370
     9
100
AcDbPolyline
 90
        4
 70
     1
 43
1.0
 10
1208.298066010346
 20
-37.66595788904141
 42
0.4142135623731
 10
1207.798066010346
 20
-37.16595788904141
 42
0.4142135623731
 10
1207.298066010346
 20
-37.66595788904141
 42
0.4142135623731
 10
1207.798066010346
 20
-38.16595788904141
 42
0.4142135623731
  0
LWPOLYLINE
  5
4D1
330
1F
100
AcDbEntity
  8
A-4_寸法
  6
Continuous
 62
     7
370
     9
100
AcDbPolyline
 90
        4
 70
     1
 43
1.0
 10
1208.298066010346
 20
-29.66523866395676
 42
0.4142135623731
 10
1207.798066010346
 20
-29.16523866395676
 42
0.4142135623731
 10
1207.298066010346
 20
-29.66523866395676
 42
0.4142135623731
 10
1207.798066010346
 20
-30.16523866395676
 42
0.4142135623731
  0
LWPOLYLINE
  5
4D2
330
1F
100
AcDbEntity
  8
A-4_寸法
  6
Continuous
 62
     7
370
     9
100
AcDbPolyline
 90
        4
 70
     1
 43
1.0
 10
1208.298066010346
 20
770.3345551361908
 42
0.4142135623731
 10
1207.798066010346
 20
770.8345551361908
 42
0.4142135623731
 10
1207.298066010346
 20
770.3345551361908
 42
0.4142135623731
 10
1207.798066010346
 20
769.8345551361909
 42
0.4142135623731
  0
LWPOLYLINE
  5
4D3
330
1F
100
AcDbEntity
  8
A-4_寸法
  6
Continuous
 62
     7
370
     9
100
AcDbPolyline
 90
        4
 70
     1
 43
1.0
 10
1208.298066010346
 20
778.3345320418075
 42
0.4142135623731
 10
1207.798066010346
 20
778.8345320418075
 42
0.4142135623731
 10
1207.298066010346
 20
778.3345320418075
 42
0.4142135623731
 10
1207.798066010346
 20
777.8345320418076
 42
0.4142135623731
  0
LWPOLYLINE
  5
4D4
330
1F
100
AcDbEntity
  8
A-4_寸法
  6
Continuous
 62
     7
370
     9
100
AcDbPolyline
 90
        4
 70
     1
 43
1.0
 10
1208.298066010346
 20
790.334373680321
 42
0.4142135623731
 10
1207.798066010346
 20
790.834373680321
 42
0.4142135623731
 10
1207.298066010346
 20
790.334373680321
 42
0.4142135623731
 10
1207.798066010346
 20
789.8343736803212
 42
0.4142135623731
  0
LWPOLYLINE
  5
4D5
330
1F
100
AcDbEntity
  8
A-4_寸法
  6
Continuous
 62
     7
370
     9
100
AcDbPolyline
 90
        4
 70
     1
 43
1.0
 10
1128.298049514358
 20
-49.66579952755495
 42
0.4142135623731
 10
1127.798049514358
 20
-49.16579952755495
 42
0.4142135623731
 10
1127.298049514358
 20
-49.66579952755495
 42
0.4142135623731
 10
1127.798049514358
 20
-50.16579952755495
 42
0.4142135623731
  0
LWPOLYLINE
  5
4D6
330
1F
100
AcDbEntity
  8
A-4_寸法
  6
Continuous
 62
     7
370
     9
100
AcDbPolyline
 90
        4
 70
     1
 43
1.0
 10
1128.298049514358
 20
790.334373680321
 42
0.4142135623731
 10
1127.798049514358
 20
790.834373680321
 42
0.4142135623731
 10
1127.298049514358
 20
790.334373680321
 42
0.4142135623731
 10
1127.798049514358
 20
789.8343736803212
 42
0.4142135623731
  0
LWPOLYLINE
  5
4D7
330
1F
100
AcDbEntity
  8
A-4_寸法
  6
Continuous
 62
     7
370
     9
100
AcDbPolyline
 90
        4
 70
     1
 43
1.0
 10
1636.974196975296
 20
-49.66579952755495
 42
0.4142135623731
 10
1636.474196975296
 20
-49.16579952755495
 42
0.4142135623731
 10
1635.974196975296
 20
-49.66579952755495
 42
0.4142135623731
 10
1636.474196975296
 20
-50.16579952755495
 42
0.4142135623731
  0
LWPOLYLINE
  5
4D8
330
1F
100
AcDbEntity
  8
A-4_寸法
  6
Continuous
 62
     7
370
     9
100
AcDbPolyline
 90
        4
 70
     1
 43
1.0
 10
1636.974196975296
 20
70.3338540566935
 42
0.4142135623731
 10
1636.474196975296
 20
70.8338540566935
 42
0.4142135623731
 10
1635.974196975296
 20
70.3338540566935
 42
0.4142135623731
 10
1636.474196975296
 20
69.8338540566935
 42
0.4142135623731
  0
LWPOLYLINE
  5
4D9
330
1F
100
AcDbEntity
  8
A-4_寸法
  6
Continuous
 62
     7
370
     9
100
AcDbPolyline
 90
        4
 70
     1
 43
1.0
 10
1636.974196975296
 20
670.3347200960727
 42
0.4142135623731
 10
1636.474196975296
 20
670.8347200960726
 42
0.4142135623731
 10
1635.974196975296
 20
670.3347200960727
 42
0.4142135623731
 10
1636.474196975296
 20
669.8347200960727
 42
0.4142135623731
  0
LWPOLYLINE
  5
4DA
330
1F
100
AcDbEntity
  8
A-4_寸法
  6
Continuous
 62
     7
370
     9
100
AcDbPolyline
 90
        4
 70
     1
 43
1.0
 10
1636.974196975296
 20
790.334373680321
 42
0.4142135623731
 10
1636.474196975296
 20
790.834373680321
 42
0.4142135623731
 10
1635.974196975296
 20
790.334373680321
 42
0.4142135623731
 10
1636.474196975296
 20
789.8343736803212
 42
0.4142135623731
  0
LWPOLYLINE
  5
4DB
330
1F
100
AcDbEntity
  8
A-4_寸法
  6
Continuous
 62
     7
370
     9
100
AcDbPolyline
 90
        4
 70
     1
 43
1.0
 10
1304.974784232475
 20
-190.8660971151815
 42
0.4142135623731
 10
1304.474784232475
 20
-190.3660971151815
 42
0.4142135623731
 10
1303.974784232475
 20
-190.8660971151815
 42
0.4142135623731
 10
1304.474784232475
 20
-191.3660971151815
 42
0.4142135623731
  0
LWPOLYLINE
  5
4DC
330
1F
100
AcDbEntity
  8
A-4_寸法
  6
Continuous
 62
     7
370
     9
100
AcDbPolyline
 90
        4
 70
     1
 43
1.0
 10
1414.975394584038
 20
-190.8660971151815
 42
0.4142135623731
 10
1414.475394584038
 20
-190.3660971151815
 42
0.4142135623731
 10
1413.975394584038
 20
-190.8660971151815
 42
0.4142135623731
 10
1414.475394584038
 20
-191.3660971151815
 42
0.4142135623731
  0
LWPOLYLINE
  5
4DD
330
1F
100
AcDbEntity
  8
A-4_寸法
  6
Continuous
 62
     7
370
     9
100
AcDbPolyline
 90
        4
 70
     1
 43
1.0
 10
1304.974784232475
 20
-270.8661136111697
 42
0.4142135623731
 10
1304.474784232475
 20
-270.3661136111696
 42
0.4142135623731
 10
1303.974784232475
 20
-270.8661136111697
 42
0.4142135623731
 10
1304.474784232475
 20
-271.3661136111697
 42
0.4142135623731
  0
LWPOLYLINE
  5
4DE
330
1F
100
AcDbEntity
  8
A-4_寸法
  6
Continuous
 62
     7
370
     9
100
AcDbPolyline
 90
        4
 70
     1
 43
1.0
 10
1426.974741342906
 20
-270.8661136111697
 42
0.4142135623731
 10
1426.474741342906
 20
-270.3661136111696
 42
0.4142135623731
 10
1425.974741342906
 20
-270.8661136111697
 42
0.4142135623731
 10
1426.474741342906
 20
-271.3661136111697
 42
0.4142135623731
  0
LWPOLYLINE
  5
4DF
330
1F
100
AcDbEntity
  8
A-4_寸法
  6
Continuous
 62
     7
370
     9
100
AcDbPolyline
 90
        4
 70
     1
 43
1.0
 10
-1529.750508076436
 20
931.5341763883026
 42
0.4142135623731
 10
-1530.250508076436
 20
932.0341763883026
 42
0.4142135623731
 10
-1530.750508076436
 20
931.5341763883026
 42
0.4142135623731
 10
-1530.250508076436
 20
931.0341763883026
 42
0.4142135623731
  0
LWPOLYLINE
  5
4E0
330
1F
100
AcDbEntity
  8
A-4_寸法
  6
Continuous
 62
     7
370
     9
100
AcDbPolyline
 90
        4
 70
     1
 43
1.0
 10
-1029.750466836465
 20
931.5341763883026
 42
0.4142135623731
 10
-1030.250466836465
 20
932.0341763883026
 42
0.4142135623731
 10
-1030.750466836465
 20
931.5341763883026
 42
0.4142135623731
 10
-1030.250466836465
 20
931.0341763883026
 42
0.4142135623731
  0
LWPOLYLINE
  5
4E1
330
1F
100
AcDbEntity
  8
A-4_寸法
  6
Continuous
 62
     7
370
     9
100
AcDbPolyline
 90
        4
 70
     1
 43
1.0
 10
-1.749722867398418
 20
931.5341763883026
 42
0.4142135623731
 10
-2.249722867398418
 20
932.0341763883026
 42
0.4142135623731
 10
-2.749722867398418
 20
931.5341763883026
 42
0.4142135623731
 10
-2.249722867398418
 20
931.0341763883026
 42
0.4142135623731
  0
LWPOLYLINE
  5
4E2
330
1F
100
AcDbEntity
  8
A-4_寸法
  6
Continuous
 62
     7
370
     9
100
AcDbPolyline
 90
        4
 70
     1
 43
1.0
 10
498.2501946526604
 20
931.5341763883026
 42
0.4142135623731
 10
497.7501946526604
 20
932.0341763883026
 42
0.4142135623731
 10
497.2501946526604
 20
931.5341763883026
 42
0.4142135623731
 10
497.7501946526604
 20
931.0341763883026
 42
0.4142135623731
  0
LWPOLYLINE
  5
4E3
330
1F
100
AcDbEntity
  8
A-4_寸法
  6
Continuous
 62
     7
370
     9
100
AcDbPolyline
 90
        4
 70
     1
 43
1.0
 10
-374.9498455975505
 20
839.0216229413008
 42
0.4142135623731
 10
-375.4498455975505
 20
839.5216229413007
 42
0.4142135623731
 10
-375.9498455975505
 20
839.0216229413008
 42
0.4142135623731
 10
-375.4498455975505
 20
838.5216229413008
 42
0.4142135623731
  0
LWPOLYLINE
  5
4E4
330
1F
100
AcDbEntity
  8
A-4_寸法
  6
Continuous
 62
     7
370
     9
100
AcDbPolyline
 90
        4
 70
     1
 43
1.0
 10
-304.3504391232052
 20
839.0216229413008
 42
0.4142135623731
 10
-304.8504391232052
 20
839.5216229413007
 42
0.4142135623731
 10
-305.3504391232052
 20
839.0216229413008
 42
0.4142135623731
 10
-304.8504391232052
 20
838.5216229413008
 42
0.4142135623731
  0
LWPOLYLINE
  5
4E5
330
1F
100
AcDbEntity
  8
A-4_寸法
  6
Continuous
 62
     7
370
     9
100
AcDbPolyline
 90
        4
 70
     1
 43
1.0
 10
-1529.750631796347
 20
-303.9190013988598
 42
0.4142135623731
 10
-1530.250631796347
 20
-303.4190013988597
 42
0.4142135623731
 10
-1530.750631796347
 20
-303.9190013988598
 42
0.4142135623731
 10
-1530.250631796347
 20
-304.4190013988598
 42
0.4142135623731
  0
LWPOLYLINE
  5
4E6
330
1F
100
AcDbEntity
  8
A-4_寸法
  6
Continuous
 62
     7
370
     9
100
AcDbPolyline
 90
        4
 70
     1
 43
1.0
 10
498.2501946526604
 20
-303.9190013988598
 42
0.4142135623731
 10
497.7501946526604
 20
-303.4190013988597
 42
0.4142135623731
 10
497.2501946526604
 20
-303.9190013988598
 42
0.4142135623731
 10
497.7501946526604
 20
-304.4190013988598
 42
0.4142135623731
  0
LWPOLYLINE
  5
4E7
330
1F
100
AcDbEntity
  8
A-4_寸法
  6
Continuous
 62
     7
370
     9
100
AcDbPolyline
 90
        4
 70
     1
 43
1.0
 10
-1529.750631796347
 20
-198.5135959934544
 42
0.4142135623731
 10
-1530.250631796347
 20
-198.0135959934544
 42
0.4142135623731
 10
-1530.750631796347
 20
-198.5135959934544
 42
0.4142135623731
 10
-1530.250631796347
 20
-199.0135959934544
 42
0.4142135623731
  0
LWPOLYLINE
  5
4E8
330
1F
100
AcDbEntity
  8
A-4_寸法
  6
Continuous
 62
     7
370
     9
100
AcDbPolyline
 90
        4
 70
     1
 43
1.0
 10
-1517.750666437922
 20
-198.5135959934544
 42
0.4142135623731
 10
-1518.250666437923
 20
-198.0135959934544
 42
0.4142135623731
 10
-1518.750666437923
 20
-198.5135959934544
 42
0.4142135623731
 10
-1518.250666437923
 20
-199.0135959934544
 42
0.4142135623731
  0
LWPOLYLINE
  5
4E9
330
1F
100
AcDbEntity
  8
A-4_寸法
  6
Continuous
 62
     7
370
     9
100
AcDbPolyline
 90
        4
 70
     1
 43
1.0
 10
-1510.750593855574
 20
-198.5135959934544
 42
0.4142135623731
 10
-1511.250593855574
 20
-198.0135959934544
 42
0.4142135623731
 10
-1511.750593855574
 20
-198.5135959934544
 42
0.4142135623731
 10
-1511.250593855574
 20
-199.0135959934544
 42
0.4142135623731
  0
LWPOLYLINE
  5
4EA
330
1F
100
AcDbEntity
  8
A-4_寸法
  6
Continuous
 62
     7
370
     9
100
AcDbPolyline
 90
        4
 70
     1
 43
1.0
 10
479.2500329919766
 20
-198.5135959934544
 42
0.4142135623731
 10
478.7500329919766
 20
-198.0135959934544
 42
0.4142135623731
 10
478.2500329919766
 20
-198.5135959934544
 42
0.4142135623731
 10
478.7500329919766
 20
-199.0135959934544
 42
0.4142135623731
  0
LWPOLYLINE
  5
4EB
330
1F
100
AcDbEntity
  8
A-4_寸法
  6
Continuous
 62
     7
370
     9
100
AcDbPolyline
 90
        4
 70
     1
 43
1.0
 10
486.2501055743245
 20
-198.5135959934544
 42
0.4142135623731
 10
485.7501055743245
 20
-198.0135959934544
 42
0.4142135623731
 10
485.2501055743245
 20
-198.5135959934544
 42
0.4142135623731
 10
485.7501055743245
 20
-199.0135959934544
 42
0.4142135623731
  0
LWPOLYLINE
  5
4EC
330
1F
100
AcDbEntity
  8
A-4_寸法
  6
Continuous
 62
     7
370
     9
100
AcDbPolyline
 90
        4
 70
     1
 43
1.0
 10
498.2501946526604
 20
-198.5135959934544
 42
0.4142135623731
 10
497.7501946526604
 20
-198.0135959934544
 42
0.4142135623731
 10
497.2501946526604
 20
-198.5135959934544
 42
0.4142135623731
 10
497.7501946526604
 20
-199.0135959934544
 42
0.4142135623731
  0
TEXT
  5
4ED
330
1F
100
AcDbEntity
  8
F-5
  6
Continuous
 62
     2
370
     9
100
AcDbText
 10
-904.6689560348923
 20
-1362.093442976668
 30
0.0
 40
30.48
  1
騒音防止型　ノンスリップタイプ　横断溝用　スチール製グレーチング　　ＨＸＢＣ　１４０５５
 41
0.7238636363636363
  7
ＭＳ ゴシック
100
AcDbText
  0
TEXT
  5
4EE
330
1F
100
AcDbEntity
  8
A-4_寸法
  6
Continuous
 62
     7
370
     9
100
AcDbText
 10
-710.3749826792124
 20
1205.764324852196
 30
0.0
 40
22.86
  1
エンドプレート ＦＢ4.5×50
 41
1.16025641025641
  7
ＭＳ ゴシック
100
AcDbText
  0
ENDSEC
  0
SECTION
  2
OBJECTS
  0
DICTIONARY
  5
C
330
0
100
AcDbDictionary
281
     1
  3
ACAD_GROUP
350
D
  3
ACAD_LAYOUT
350
1A
  3
ACAD_MLEADERSTYLE
350
4F0
  3
ACAD_MLINESTYLE
350
17
  3
ACAD_PLOTSETTINGS
350
19
  3
ACAD_PLOTSTYLENAME
350
E
  3
ACAD_TABLESTYLE
350
4EF
  3
ACAD_VISUALSTYLE
350
2A
  0
DICTIONARY
  5
D
102
{ACAD_REACTORS
330
C
102
}
330
C
100
AcDbDictionary
281
     1
  0
DICTIONARY
  5
1A
102
{ACAD_REACTORS
330
C
102
}
330
C
100
AcDbDictionary
281
     1
  3
Layout1
350
1E
  3
Layout2
350
26
  3
Model
350
22
  0
DICTIONARY
  5
4F0
102
{ACAD_REACTORS
330
C
102
}
330
C
100
AcDbDictionary
281
     1
  0
DICTIONARY
  5
17
102
{ACAD_REACTORS
330
C
102
}
330
C
100
AcDbDictionary
281
     1
  3
Standard
350
18
  0
DICTIONARY
  5
19
102
{ACAD_REACTORS
330
C
102
}
330
C
100
AcDbDictionary
281
     1
  0
ACDBDICTIONARYWDFLT
  5
E
102
{ACAD_REACTORS
330
C
102
}
330
C
100
AcDbDictionary
281
     1
  3
Normal
350
F
100
AcDbDictionaryWithDefault
340
F
  0
DICTIONARY
  5
4EF
102
{ACAD_REACTORS
330
C
102
}
330
C
100
AcDbDictionary
281
     1
  0
DICTIONARY
  5
2A
102
{ACAD_REACTORS
330
C
102
}
330
C
100
AcDbDictionary
281
     1
  3
2dWireframe
350
2F
  3
3D Hidden
350
31
  3
3dWireframe
350
30
  3
Basic
350
32
  3
Brighten
350
36
  3
ColorChange
350
3A
  3
Conceptual
350
34
  3
Dim
350
35
  3
Facepattern
350
39
  3
Flat
350
2B
  3
FlatWithEdges
350
2C
  3
Gouraud
350
2D
  3
GouraudWithEdges
350
2E
  3
Linepattern
350
38
  3
Realistic
350
33
  3
Thicken
350
37
  0
LAYOUT
  5
1E
102
{ACAD_REACTORS
330
1A
102
}
330
1A
100
AcDbPlotSettings
  1

  2
none_device
  4

  6

 40
0.0
 41
0.0
 42
0.0
 43
0.0
 44
0.0
 45
0.0
 46
0.0
 47
0.0
 48
0.0
 49
0.0
140
0.0
141
0.0
142
1.0
143
1.0
 70
   688
 72
     0
 73
     0
 74
     5
  7

 75
    16
 76
     0
 77
     5
 78
   300
147
1.0
148
0.0
149
0.0
100
AcDbLayout
  1
Layout1
 70
     1
 71
     1
 10
0.0
 20
0.0
 11
420.0
 21
297.0
 12
0.0
 22
0.0
 32
0.0
 14
1.000000000000000E+20
 24
1.000000000000000E+20
 34
1.000000000000000E+20
 15
-1.000000000000000E+20
 25
-1.000000000000000E+20
 35
-1.000000000000000E+20
146
0.0
 13
0.0
 23
0.0
 33
0.0
 16
1.0
 26
0.0
 36
0.0
 17
0.0
 27
1.0
 37
0.0
 76
     0
330
1B
  0
LAYOUT
  5
26
102
{ACAD_REACTORS
330
1A
102
}
330
1A
100
AcDbPlotSettings
  1

  2
none_device
  4

  6

 40
0.0
 41
0.0
 42
0.0
 43
0.0
 44
0.0
 45
0.0
 46
0.0
 47
0.0
 48
0.0
 49
0.0
140
0.0
141
0.0
142
1.0
143
1.0
 70
   688
 72
     0
 73
     0
 74
     5
  7

 75
    16
 76
     0
 77
     5
 78
   300
147
1.0
148
0.0
149
0.0
100
AcDbLayout
  1
Layout2
 70
     1
 71
     2
 10
0.0
 20
0.0
 11
0.0
 21
0.0
 12
0.0
 22
0.0
 32
0.0
 14
0.0
 24
0.0
 34
0.0
 15
0.0
 25
0.0
 35
0.0
146
0.0
 13
0.0
 23
0.0
 33
0.0
 16
1.0
 26
0.0
 36
0.0
 17
0.0
 27
1.0
 37
0.0
 76
     0
330
23
  0
LAYOUT
  5
22
102
{ACAD_REACTORS
330
1A
102
}
330
1A
100
AcDbPlotSettings
  1

  2
none_device
  4

  6

 40
0.0
 41
0.0
 42
0.0
 43
0.0
 44
0.0
 45
0.0
 46
0.0
 47
0.0
 48
0.0
 49
0.0
140
0.0
141
0.0
142
1.0
143
1.0
 70
  1712
 72
     0
 73
     0
 74
     0
  7

 75
     0
 76
     0
 77
     5
 78
   300
147
1.0
148
0.0
149
0.0
100
AcDbLayout
  1
Model
 70
     1
 71
     0
 10
-2100.0
 20
-1485.0
 11
2100.0
 21
1485.0
 12
0.0
 22
0.0
 32
0.0
 14
-2100.0
 24
-1485.0
 34
0.0
 15
2100.0
 25
1485.0
 35
0.0
146
0.0
 13
0.0
 23
0.0
 33
0.0
 16
1.0
 26
0.0
 36
0.0
 17
0.0
 27
1.0
 37
0.0
 76
     0
330
1F
331
29
  0
MLINESTYLE
  5
18
102
{ACAD_REACTORS
330
17
102
}
330
17
100
AcDbMlineStyle
  2
Standard
 70
     0
  3

 62
   256
 51
90.0
 52
90.0
 71
     2
 49
0.5
 62
   256
  6
BYLAYER
 49
-0.5
 62
   256
  6
BYLAYER
  0
ACDBPLACEHOLDER
  5
F
102
{ACAD_REACTORS
330
E
102
}
330
E
  0
VISUALSTYLE
  5
2F
102
{ACAD_REACTORS
330
2A
102
}
330
2A
100
AcDbVisualStyle
  2
2dWireframe
 70
     4
 71
     0
 72
     2
 73
     0
 90
        0
 40
-0.6
 41
-30.0
 62
     5
 63
     7
421
 16777215
 74
     1
 91
        4
 64
     7
 65
   257
 75
     1
175
     1
 42
1.0
 92
        0
 66
   257
 43
1.0
 76
     1
 77
     6
 78
     2
 67
     7
 79
     5
170
     0
171
     0
290
     0
174
     0
 93
        1
 44
0.0
173
     0
291
     0
 45
0.0
1001
ACAD
1000
AcDbSavedByObjectVersion
1070
     0
  0
VISUALSTYLE
  5
31
102
{ACAD_REACTORS
330
2A
102
}
330
2A
100
AcDbVisualStyle
  2
3D Hidden
 70
     6
 71
     1
 72
     2
 73
     2
 90
        0
 40
-0.6
 41
-30.0
 62
     5
 63
     7
421
 16777215
 74
     2
 91
        2
 64
     7
 65
   257
 75
     2
175
     1
 42
40.0
 92
        0
 66
   257
 43
1.0
 76
     1
 77
     6
 78
     2
 67
     7
 79
     3
170
     0
171
     0
290
     0
174
     0
 93
        1
 44
0.0
173
     0
291
     0
 45
0.0
1001
ACAD
1000
AcDbSavedByObjectVersion
1070
     0
  0
VISUALSTYLE
  5
30
102
{ACAD_REACTORS
330
2A
102
}
330
2A
100
AcDbVisualStyle
  2
3dWireframe
 70
     5
 71
     0
 72
     2
 73
     0
 90
        0
 40
-0.6
 41
-30.0
 62
     5
 63
     7
421
 16777215
 74
     1
 91
        4
 64
     7
 65
   257
 75
     1
175
     1
 42
1.0
 92
        0
 66
   257
 43
1.0
 76
     1
 77
     6
 78
     2
 67
     7
 79
     5
170
     0
171
     0
290
     0
174
     0
 93
        1
 44
0.0
173
     0
291
     0
 45
0.0
1001
ACAD
1000
AcDbSavedByObjectVersion
1070
     0
  0
VISUALSTYLE
  5
32
102
{ACAD_REACTORS
330
2A
102
}
330
2A
100
AcDbVisualStyle
  2
Basic
 70
     7
 71
     1
 72
     0
 73
     1
 90
        0
 40
-0.6
 41
-30.0
 62
     5
 63
     7
421
 16777215
 74
     0
 91
        4
 64
     7
 65
   257
 75
     1
175
     1
 42
1.0
 92
        8
 66
     7
 43
1.0
 76
     1
 77
     6
 78
     2
 67
     7
 79
     5
170
     0
171
     0
290
     0
174
     0
 93
        1
 44
0.0
173
     0
291
     1
 45
0.0
1001
ACAD
1000
AcDbSavedByObjectVersion
1070
     0
  0
VISUALSTYLE
  5
36
102
{ACAD_REACTORS
330
2A
102
}
330
2A
100
AcDbVisualStyle
  2
Brighten
 70
    12
 71
     2
 72
     2
 73
     0
 90
        0
 40
-0.6
 41
-30.0
 62
     5
 63
     7
421
 16777215
 74
     1
 91
        4
 64
     7
 65
   257
 75
     1
175
     1
 42
1.0
 92
        8
 66
     7
 43
1.0
 76
     1
 77
     6
 78
     2
 67
     7
 79
     5
170
     0
171
     0
290
     0
174
     0
 93
        1
 44
50.0
173
     0
291
     1
 45
0.0
1001
ACAD
1000
AcDbSavedByObjectVersion
1070
     0
  0
VISUALSTYLE
  5
3A
102
{ACAD_REACTORS
330
2A
102
}
330
2A
100
AcDbVisualStyle
  2
ColorChange
 70
    16
 71
     2
 72
     2
 73
     3
 90
        0
 40
-0.6
 41
-30.0
 62
     5
 63
     8
421
  8421504
 74
     1
 91
        4
 64
     7
 65
   257
 75
     1
175
     1
 42
1.0
 92
        8
 66
     8
424
  8421504
 43
1.0
 76
     1
 77
     6
 78
     2
 67
     7
 79
     5
170
     0
171
     0
290
     0
174
     0
 93
        1
 44
0.0
173
     0
291
     1
 45
0.0
1001
ACAD
1000
AcDbSavedByObjectVersion
1070
     0
  0
VISUALSTYLE
  5
34
102
{ACAD_REACTORS
330
2A
102
}
330
2A
100
AcDbVisualStyle
  2
Conceptual
 70
     9
 71
     3
 72
     2
 73
     0
 90
        0
 40
-0.6
 41
-30.0
 62
     5
 63
     7
421
 16777215
 74
     2
 91
        2
 64
     7
 65
   257
 75
     1
175
     1
 42
40.0
 92
        8
 66
     7
 43
1.0
 76
     1
 77
     6
 78
     2
 67
     7
 79
     3
170
     0
171
     0
290
     0
174
     0
 93
        1
 44
0.0
173
     0
291
     0
 45
0.0
1001
ACAD
1000
AcDbSavedByObjectVersion
1070
     0
  0
VISUALSTYLE
  5
35
102
{ACAD_REACTORS
330
2A
102
}
330
2A
100
AcDbVisualStyle
  2
Dim
 70
    11
 71
     2
 72
     2
 73
     0
 90
        0
 40
-0.6
 41
-30.0
 62
     5
 63
     7
421
 16777215
 74
     1
 91
        4
 64
     7
 65
   257
 75
     1
175
     1
 42
1.0
 92
        8
 66
     7
 43
1.0
 76
     1
 77
     6
 78
     2
 67
     7
 79
     5
170
     0
171
     0
290
     0
174
     0
 93
        1
 44
-50.0
173
     0
291
     1
 45
0.0
1001
ACAD
1000
AcDbSavedByObjectVersion
1070
     0
  0
VISUALSTYLE
  5
39
102
{ACAD_REACTORS
330
2A
102
}
330
2A
100
AcDbVisualStyle
  2
Facepattern
 70
    15
 71
     2
 72
     2
 73
     0
 90
        0
 40
-0.6
 41
-30.0
 62
     5
 63
     7
421
 16777215
 74
     1
 91
        4
 64
     7
 65
   257
 75
     1
175
     1
 42
1.0
 92
        8
 66
     7
 43
1.0
 76
     1
 77
     6
 78
     2
 67
     7
 79
     5
170
     0
171
     0
290
     0
174
     0
 93
        1
 44
0.0
173
     0
291
     1
 45
0.0
1001
ACAD
1000
AcDbSavedByObjectVersion
1070
     0
  0
VISUALSTYLE
  5
2B
102
{ACAD_REACTORS
330
2A
102
}
330
2A
100
AcDbVisualStyle
  2
Flat
 70
     0
 71
     2
 72
     1
 73
     1
 90
        2
 40
-0.6
 41
30.0
 62
     5
 63
     7
421
 16777215
 74
     0
 91
        4
 64
     7
 65
   257
 75
     1
175
     1
 42
1.0
 92
        8
 66
     7
 43
1.0
 76
     1
 77
     6
 78
     2
 67
     7
 79
     5
170
     0
171
     0
290
     0
174
     0
 93
       13
 44
0.0
173
     0
291
     1
 45
0.0
1001
ACAD
1000
AcDbSavedByObjectVersion
1070
     0
  0
VISUALSTYLE
  5
2C
102
{ACAD_REACTORS
330
2A
102
}
330
2A
100
AcDbVisualStyle
  2
FlatWithEdges
 70
     1
 71
     2
 72
     1
 73
     1
 90
        2
 40
-0.6
 41
30.0
 62
     5
 63
     7
421
 16777215
 74
     1
 91
        4
 64
     7
 65
   257
 75
     1
175
     1
 42
1.0
 92
        0
 66
   257
 43
1.0
 76
     1
 77
     6
 78
     2
 67
     7
 79
     5
170
     0
171
     0
290
     0
174
     0
 93
       13
 44
0.0
173
     0
291
     1
 45
0.0
1001
ACAD
1000
AcDbSavedByObjectVersion
1070
     0
  0
VISUALSTYLE
  5
2D
102
{ACAD_REACTORS
330
2A
102
}
330
2A
100
AcDbVisualStyle
  2
Gouraud
 70
     2
 71
     2
 72
     2
 73
     1
 90
        2
 40
-0.6
 41
30.0
 62
     5
 63
     7
421
 16777215
 74
     0
 91
        4
 64
     7
 65
   257
 75
     1
175
     1
 42
1.0
 92
        0
 66
     7
 43
1.0
 76
     1
 77
     6
 78
     2
 67
     7
 79
     5
170
     0
171
     0
290
     0
174
     0
 93
       13
 44
0.0
173
     0
291
     1
 45
0.0
1001
ACAD
1000
AcDbSavedByObjectVersion
1070
     0
  0
VISUALSTYLE
  5
2E
102
{ACAD_REACTORS
330
2A
102
}
330
2A
100
AcDbVisualStyle
  2
GouraudWithEdges
 70
     3
 71
     2
 72
     2
 73
     1
 90
        2
 40
-0.6
 41
30.0
 62
     5
 63
     7
421
 16777215
 74
     1
 91
        4
 64
     7
 65
   257
 75
     1
175
     1
 42
1.0
 92
        0
 66
   257
 43
1.0
 76
     1
 77
     6
 78
     2
 67
     7
 79
     5
170
     0
171
     0
290
     0
174
     0
 93
       13
 44
0.0
173
     0
291
     1
 45
0.0
1001
ACAD
1000
AcDbSavedByObjectVersion
1070
     0
  0
VISUALSTYLE
  5
38
102
{ACAD_REACTORS
330
2A
102
}
330
2A
100
AcDbVisualStyle
  2
Linepattern
 70
    14
 71
     2
 72
     2
 73
     0
 90
        0
 40
-0.6
 41
-30.0
 62
     5
 63
     7
421
 16777215
 74
     1
 91
        4
 64
     7
 65
   257
 75
     7
175
     7
 42
1.0
 92
        8
 66
     7
 43
1.0
 76
     1
 77
     6
 78
     2
 67
     7
 79
     5
170
     0
171
     0
290
     0
174
     0
 93
        1
 44
0.0
173
     0
291
     1
 45
0.0
1001
ACAD
1000
AcDbSavedByObjectVersion
1070
     0
  0
VISUALSTYLE
  5
33
102
{ACAD_REACTORS
330
2A
102
}
330
2A
100
AcDbVisualStyle
  2
Realistic
 70
     8
 71
     2
 72
     2
 73
     0
 90
        0
 40
-0.6
 41
-30.0
 62
     5
 63
     7
421
 16777215
 74
     1
 91
        0
 64
     7
 65
   257
 75
     1
175
     1
 42
1.0
 92
        8
 66
     8
424
  7895160
 43
1.0
 76
     1
 77
     6
 78
     2
 67
     7
 79
     5
170
     0
171
     0
290
     0
174
     0
 93
       13
 44
0.0
173
     0
291
     0
 45
0.0
1001
ACAD
1000
AcDbSavedByObjectVersion
1070
     0
  0
VISUALSTYLE
  5
37
102
{ACAD_REACTORS
330
2A
102
}
330
2A
100
AcDbVisualStyle
  2
Thicken
 70
    13
 71
     2
 72
     2
 73
     0
 90
        0
 40
-0.6
 41
-30.0
 62
     5
 63
     7
421
 16777215
 74
     1
 91
        4
 64
     7
 65
   257
 75
     1
175
     1
 42
1.0
 92
       12
 66
     7
 43
1.0
 76
     1
 77
     6
 78
     2
 67
     7
 79
     5
170
     0
171
     0
290
     0
174
     0
 93
        1
 44
0.0
173
     0
291
     1
 45
0.0
1001
ACAD
1000
AcDbSavedByObjectVersion
1070
     0
  0
ENDSEC
  0
EOF
