  0
SECTION
  2
HEADER
  9
$ACADVER
  1
AC1018
  9
$ACADMAINTVER
 70
     0
  9
$DWGCODEPAGE
  3
ANSI_932
  9
$INSBASE
 10
0.0
 20
0.0
 30
0.0
  9
$EXTMIN
 10
-2100.0
 20
-1485.0
 30
0.0
  9
$EXTMAX
 10
2100.0
 20
1485.0
 30
0.0
  9
$LIMMIN
 10
-2100.0
 20
-1485.0
  9
$LIMMAX
 10
2100.0
 20
1485.0
  9
$ORTHOMODE
 70
     0
  9
$REGENMODE
 70
     1
  9
$FILLMODE
 70
     1
  9
$QTEXTMODE
 70
     0
  9
$MIRRTEXT
 70
     1
  9
$LTSCALE
 40
10.0
  9
$ATTMODE
 70
     1
  9
$TEXTSIZE
 40
2.5
  9
$TRACEWID
 40
1.0
  9
$TEXTSTYLE
  7
Standard
  9
$CLAYER
  8
0
  9
$CELTYPE
  6
ByLayer
  9
$CECOLOR
 62
   256
  9
$CELTSCALE
 40
1.0
  9
$DISPSILH
 70
     0
  9
$DIMSCALE
 40
1.0
  9
$DIMASZ
 40
2.5
  9
$DIMEXO
 40
0.625
  9
$DIMDLI
 40
3.75
  9
$DIMRND
 40
0.0
  9
$DIMDLE
 40
0.0
  9
$DIMEXE
 40
1.25
  9
$DIMTP
 40
0.0
  9
$DIMTM
 40
0.0
  9
$DIMTXT
 40
2.5
  9
$DIMCEN
 40
2.5
  9
$DIMTSZ
 40
0.0
  9
$DIMTOL
 70
     0
  9
$DIMLIM
 70
     0
  9
$DIMTIH
 70
     0
  9
$DIMTOH
 70
     0
  9
$DIMSE1
 70
     0
  9
$DIMSE2
 70
     0
  9
$DIMTAD
 70
     1
  9
$DIMZIN
 70
     8
  9
$DIMBLK
  1

  9
$DIMASO
 70
     1
  9
$DIMSHO
 70
     1
  9
$DIMPOST
  1

  9
$DIMAPOST
  1

  9
$DIMALT
 70
     0
  9
$DIMALTD
 70
     3
  9
$DIMALTF
 40
0.03937007874016
  9
$DIMLFAC
 40
1.0
  9
$DIMTOFL
 70
     1
  9
$DIMTVP
 40
0.0
  9
$DIMTIX
 70
     0
  9
$DIMSOXD
 70
     0
  9
$DIMSAH
 70
     0
  9
$DIMBLK1
  1

  9
$DIMBLK2
  1

  9
$DIMSTYLE
  2
ISO-25
  9
$DIMCLRD
 70
     0
  9
$DIMCLRE
 70
     0
  9
$DIMCLRT
 70
     0
  9
$DIMTFAC
 40
1.0
  9
$DIMGAP
 40
0.625
  9
$DIMJUST
 70
     0
  9
$DIMSD1
 70
     0
  9
$DIMSD2
 70
     0
  9
$DIMTOLJ
 70
     0
  9
$DIMTZIN
 70
     8
  9
$DIMALTZ
 70
     0
  9
$DIMALTTZ
 70
     0
  9
$DIMUPT
 70
     0
  9
$DIMDEC
 70
     2
  9
$DIMTDEC
 70
     2
  9
$DIMALTU
 70
     2
  9
$DIMALTTD
 70
     3
  9
$DIMTXSTY
  7
Standard
  9
$DIMAUNIT
 70
     0
  9
$DIMADEC
 70
     0
  9
$DIMALTRND
 40
0.0
  9
$DIMAZIN
 70
     0
  9
$DIMDSEP
 70
    44
  9
$DIMATFIT
 70
     3
  9
$DIMFRAC
 70
     0
  9
$DIMLDRBLK
  1

  9
$DIMLUNIT
 70
     2
  9
$DIMLWD
 70
    -2
  9
$DIMLWE
 70
    -2
  9
$DIMTMOVE
 70
     0
  9
$LUNITS
 70
     2
  9
$LUPREC
 70
     4
  9
$SKETCHINC
 40
1.0
  9
$FILLETRAD
 40
10.0
  9
$AUNITS
 70
     0
  9
$AUPREC
 70
     0
  9
$MENU
  1
.
  9
$ELEVATION
 40
0.0
  9
$PELEVATION
 40
0.0
  9
$THICKNESS
 40
0.0
  9
$LIMCHECK
 70
     0
  9
$CHAMFERA
 40
10.0
  9
$CHAMFERB
 40
10.0
  9
$CHAMFERC
 40
20.0
  9
$CHAMFERD
 40
0.0
  9
$SKPOLY
 70
     0
  9
$TDCREATE
 40
2458268.579707593
  9
$TDUCREATE
 40
2458268.204707593
  9
$TDUPDATE
 40
2458268.579707604
  9
$TDUUPDATE
 40
2458268.204707604
  9
$TDINDWG
 40
0.0000000116
  9
$TDUSRTIMER
 40
0.0000000116
  9
$USRTIMER
 70
     1
  9
$ANGBASE
 50
0.0
  9
$ANGDIR
 70
     0
  9
$PDMODE
 70
     0
  9
$PDSIZE
 40
0.0
  9
$PLINEWID
 40
0.0
  9
$SPLFRAME
 70
     0
  9
$SPLINETYPE
 70
     6
  9
$SPLINESEGS
 70
     8
  9
$HANDSEED
  5
504
  9
$SURFTAB1
 70
     6
  9
$SURFTAB2
 70
     6
  9
$SURFTYPE
 70
     6
  9
$SURFU
 70
     6
  9
$SURFV
 70
     6
  9
$UCSBASE
  2

  9
$UCSNAME
  2

  9
$UCSORG
 10
0.0
 20
0.0
 30
0.0
  9
$UCSXDIR
 10
1.0
 20
0.0
 30
0.0
  9
$UCSYDIR
 10
0.0
 20
1.0
 30
0.0
  9
$UCSORTHOREF
  2

  9
$UCSORTHOVIEW
 70
     0
  9
$UCSORGTOP
 10
0.0
 20
0.0
 30
0.0
  9
$UCSORGBOTTOM
 10
0.0
 20
0.0
 30
0.0
  9
$UCSORGLEFT
 10
0.0
 20
0.0
 30
0.0
  9
$UCSORGRIGHT
 10
0.0
 20
0.0
 30
0.0
  9
$UCSORGFRONT
 10
0.0
 20
0.0
 30
0.0
  9
$UCSORGBACK
 10
0.0
 20
0.0
 30
0.0
  9
$PUCSBASE
  2

  9
$PUCSNAME
  2

  9
$PUCSORG
 10
0.0
 20
0.0
 30
0.0
  9
$PUCSXDIR
 10
1.0
 20
0.0
 30
0.0
  9
$PUCSYDIR
 10
0.0
 20
1.0
 30
0.0
  9
$PUCSORTHOREF
  2

  9
$PUCSORTHOVIEW
 70
     0
  9
$PUCSORGTOP
 10
0.0
 20
0.0
 30
0.0
  9
$PUCSORGBOTTOM
 10
0.0
 20
0.0
 30
0.0
  9
$PUCSORGLEFT
 10
0.0
 20
0.0
 30
0.0
  9
$PUCSORGRIGHT
 10
0.0
 20
0.0
 30
0.0
  9
$PUCSORGFRONT
 10
0.0
 20
0.0
 30
0.0
  9
$PUCSORGBACK
 10
0.0
 20
0.0
 30
0.0
  9
$USERI1
 70
     0
  9
$USERI2
 70
     0
  9
$USERI3
 70
     0
  9
$USERI4
 70
     0
  9
$USERI5
 70
     0
  9
$USERR1
 40
0.0
  9
$USERR2
 40
0.0
  9
$USERR3
 40
0.0
  9
$USERR4
 40
0.0
  9
$USERR5
 40
0.0
  9
$WORLDVIEW
 70
     1
  9
$SHADEDGE
 70
     3
  9
$SHADEDIF
 70
    70
  9
$TILEMODE
 70
     1
  9
$MAXACTVP
 70
    64
  9
$PINSBASE
 10
0.0
 20
0.0
 30
0.0
  9
$PLIMCHECK
 70
     0
  9
$PEXTMIN
 10
1.000000000000000E+20
 20
1.000000000000000E+20
 30
1.000000000000000E+20
  9
$PEXTMAX
 10
-1.000000000000000E+20
 20
-1.000000000000000E+20
 30
-1.000000000000000E+20
  9
$PLIMMIN
 10
0.0
 20
0.0
  9
$PLIMMAX
 10
420.0
 20
297.0
  9
$UNITMODE
 70
     0
  9
$VISRETAIN
 70
     1
  9
$PLINEGEN
 70
     0
  9
$PSLTSCALE
 70
     1
  9
$TREEDEPTH
 70
  3020
  9
$CMLSTYLE
  2
Standard
  9
$CMLJUST
 70
     0
  9
$CMLSCALE
 40
20.0
  9
$PROXYGRAPHICS
 70
     1
  9
$MEASUREMENT
 70
     1
  9
$CELWEIGHT
370
    -1
  9
$ENDCAPS
280
     0
  9
$JOINSTYLE
280
     0
  9
$LWDISPLAY
290
     0
  9
$INSUNITS
 70
     4
  9
$HYPERLINKBASE
  1

  9
$STYLESHEET
  1

  9
$XEDIT
290
     1
  9
$CEPSNTYPE
380
     0
  9
$PSTYLEMODE
290
     1
  9
$FINGERPRINTGUID
  2
{D8C22CBC-36B3-409C-8044-F717EABB4EF2}
  9
$VERSIONGUID
  2
{FAEB1C32-E019-11D5-929B-00C0DF256EC4}
  9
$EXTNAMES
290
     1
  9
$PSVPSCALE
 40
0.0
  9
$OLESTARTUP
290
     0
  9
$SORTENTS
280
   127
  9
$INDEXCTL
280
     0
  9
$HIDETEXT
280
     1
  9
$XCLIPFRAME
290
     0
  9
$HALOGAP
280
     0
  9
$OBSCOLOR
 70
   257
  9
$OBSLTYPE
280
     0
  9
$INTERSECTIONDISPLAY
280
     0
  9
$INTERSECTIONCOLOR
 70
   257
  9
$DIMASSOC
280
     2
  9
$PROJECTNAME
  1

  0
ENDSEC
  0
SECTION
  2
CLASSES
  0
CLASS
  1
ACDBDICTIONARYWDFLT
  2
AcDbDictionaryWithDefault
  3
ObjectDBX Classes
 90
        0
 91
        4
280
     0
281
     0
  0
CLASS
  1
VISUALSTYLE
  2
AcDbVisualStyle
  3
ObjectDBX Classes
 90
     4095
 91
        4
280
     0
281
     0
  0
ENDSEC
  0
SECTION
  2
TABLES
  0
TABLE
  2
VPORT
  5
8
330
0
100
AcDbSymbolTable
 70
     1
  0
VPORT
  5
29
330
8
100
AcDbSymbolTableRecord
100
AcDbViewportTableRecord
  2
*Active
 70
     0
 10
0.0
 20
0.0
 11
1.0
 21
1.0
 12
0.0
 22
0.0
 13
0.0
 23
0.0
 14
10.0
 24
10.0
 15
10.0
 25
10.0
 16
0.0
 26
0.0
 36
1.0
 17
0.0
 27
0.0
 37
0.0
 40
3267.0
 41
1.414141414141414
 42
50.0
 43
0.0
 44
0.0
 50
0.0
 51
0.0
 71
     0
 72
 10000
 73
     1
 74
     3
 75
     0
 76
     0
 77
     0
 78
     0
281
     0
 65
     1
110
0.0
120
0.0
130
0.0
111
1.0
121
0.0
131
0.0
112
0.0
122
1.0
132
0.0
 79
     0
146
0.0
  0
ENDTAB
  0
TABLE
  2
LTYPE
  5
5
330
0
100
AcDbSymbolTable
 70
     3
  0
LTYPE
  5
14
330
5
100
AcDbSymbolTableRecord
100
AcDbLinetypeTableRecord
  2
ByBlock
 70
     0
  3

 72
    65
 73
     0
 40
0.0
  0
LTYPE
  5
15
330
5
100
AcDbSymbolTableRecord
100
AcDbLinetypeTableRecord
  2
ByLayer
 70
     0
  3

 72
    65
 73
     0
 40
0.0
  0
LTYPE
  5
16
330
5
100
AcDbSymbolTableRecord
100
AcDbLinetypeTableRecord
  2
Continuous
 70
     0
  3
Solid line
 72
    65
 73
     0
 40
0.0
  0
LTYPE
  5
3C
330
5
100
AcDbSymbolTableRecord
100
AcDbLinetypeTableRecord
  2
JWW_CENTER1
 70
     0
  3
-----  --  ----------  --  -----
 72
    65
 73
     4
 40
6.773333333333333
 49
4.233333333333333
 74
     0
 49
-0.8466666666666667
 74
     0
 49
0.8466666666666667
 74
     0
 49
-0.8466666666666667
 74
     0
  0
LTYPE
  5
3D
330
5
100
AcDbSymbolTableRecord
100
AcDbLinetypeTableRecord
  2
JWW_DASHED3
 70
     0
  3
---  ------  ------  ------  ---
 72
    65
 73
     2
 40
3.386666666666667
 49
2.54
 74
     0
 49
-0.8466666666666667
 74
     0
  0
ENDTAB
  0
TABLE
  2
LAYER
  5
2
330
0
100
AcDbSymbolTable
 70
     9
  0
LAYER
  5
10
330
2
100
AcDbSymbolTableRecord
100
AcDbLayerTableRecord
  2
0
 70
     0
 62
     7
  6
Continuous
370
    -3
390
F
  0
LAYER
  5
3E
330
2
100
AcDbSymbolTableRecord
100
AcDbLayerTableRecord
  2
A-1_ピット
 70
     0
 62
     7
  6
Continuous
370
    -3
390
F
  0
LAYER
  5
3F
330
2
100
AcDbSymbolTableRecord
100
AcDbLayerTableRecord
  2
A-2_蓋
 70
     0
 62
     7
  6
Continuous
370
    -3
390
F
  0
LAYER
  5
40
330
2
100
AcDbSymbolTableRecord
100
AcDbLayerTableRecord
  2
A-0_通り芯
 70
     0
 62
     7
  6
Continuous
370
    -3
390
F
  0
LAYER
  5
41
330
2
100
AcDbSymbolTableRecord
100
AcDbLayerTableRecord
  2
A-4_寸法
 70
     0
 62
     7
  6
Continuous
370
    -3
390
F
  0
LAYER
  5
42
330
2
100
AcDbSymbolTableRecord
100
AcDbLayerTableRecord
  2
A-A
 70
     0
 62
     7
  6
Continuous
370
    -3
390
F
  0
LAYER
  5
43
330
2
100
AcDbSymbolTableRecord
100
AcDbLayerTableRecord
  2
D-4_寸法
 70
     0
 62
     7
  6
Continuous
370
    -3
390
F
  0
LAYER
  5
44
330
2
100
AcDbSymbolTableRecord
100
AcDbLayerTableRecord
  2
D-2_蓋
 70
     0
 62
     7
  6
Continuous
370
    -3
390
F
  0
LAYER
  5
45
330
2
100
AcDbSymbolTableRecord
100
AcDbLayerTableRecord
  2
F-5
 70
     0
 62
     7
  6
Continuous
370
    -3
390
F
  0
ENDTAB
  0
TABLE
  2
STYLE
  5
3
330
0
100
AcDbSymbolTable
 70
     2
  0
STYLE
  5
11
330
3
100
AcDbSymbolTableRecord
100
AcDbTextStyleTableRecord
  2
Standard
 70
     0
 40
0.0
 41
1.0
 50
0.0
 71
     0
 42
2.5
  3
txt
  4

1001
ACAD
1000

1071
        0
  0
STYLE
  5
3B
330
3
100
AcDbSymbolTableRecord
100
AcDbTextStyleTableRecord
  2
ＭＳ ゴシック
 70
     0
 40
1.0
 41
1.0
 50
0.0
 71
     0
 42
10.0
  3

  4

1001
ACAD
1000
MS Gothic
1071
    32817
  0
ENDTAB
  0
TABLE
  2
VIEW
  5
6
330
0
100
AcDbSymbolTable
 70
     0
  0
ENDTAB
  0
TABLE
  2
UCS
  5
7
330
0
100
AcDbSymbolTable
 70
     0
  0
ENDTAB
  0
TABLE
  2
APPID
  5
9
330
0
100
AcDbSymbolTable
 70
     1
  0
APPID
  5
12
330
9
100
AcDbSymbolTableRecord
100
AcDbRegAppTableRecord
  2
ACAD
 70
     0
  0
ENDTAB
  0
TABLE
  2
DIMSTYLE
  5
A
330
0
100
AcDbSymbolTable
 70
     1
100
AcDbDimStyleTable
  0
DIMSTYLE
105
27
330
A
100
AcDbSymbolTableRecord
100
AcDbDimStyleTableRecord
  2
ISO-25
 70
     0
 41
2.5
 42
0.625
 43
3.75
 44
1.25
 73
     0
 74
     0
 77
     1
 78
     8
140
2.5
141
2.5
143
0.03937007874016
147
0.625
171
     3
172
     1
271
     2
272
     2
274
     3
278
    44
283
     0
284
     8
340
11
  0
ENDTAB
  0
TABLE
  2
BLOCK_RECORD
  5
1
330
0
100
AcDbSymbolTable
 70
     1
  0
BLOCK_RECORD
  5
1F
330
1
100
AcDbSymbolTableRecord
100
AcDbBlockTableRecord
  2
*Model_Space
340
22
  0
BLOCK_RECORD
  5
1B
330
1
100
AcDbSymbolTableRecord
100
AcDbBlockTableRecord
  2
*Paper_Space
340
1E
  0
BLOCK_RECORD
  5
23
330
1
100
AcDbSymbolTableRecord
100
AcDbBlockTableRecord
  2
*Paper_Space0
340
26
  0
ENDTAB
  0
ENDSEC
  0
SECTION
  2
BLOCKS
  0
BLOCK
  5
20
330
1F
100
AcDbEntity
  8
0
100
AcDbBlockBegin
  2
*Model_Space
 70
     0
 10
0.0
 20
0.0
 30
0.0
  3
*Model_Space
  1

  0
ENDBLK
  5
21
330
1F
100
AcDbEntity
  8
0
100
AcDbBlockEnd
  0
BLOCK
  5
1C
330
1B
100
AcDbEntity
 67
     1
  8
0
100
AcDbBlockBegin
  2
*Paper_Space
 70
     0
 10
0.0
 20
0.0
 30
0.0
  3
*Paper_Space
  1

  0
ENDBLK
  5
1D
330
1B
100
AcDbEntity
 67
     1
  8
0
100
AcDbBlockEnd
  0
BLOCK
  5
24
330
23
100
AcDbEntity
  8
0
100
AcDbBlockBegin
  2
*Paper_Space0
 70
     0
 10
0.0
 20
0.0
 30
0.0
  3
*Paper_Space0
  1

  0
ENDBLK
  5
25
330
23
100
AcDbEntity
  8
0
100
AcDbBlockEnd
  0
ENDSEC
  0
SECTION
  2
ENTITIES
  0
LINE
  5
46
330
1F
100
AcDbEntity
  8
A-1_ピット
  6
Continuous
 62
     2
370
     9
100
AcDbLine
 10
-1223.512350546347
 20
-137.4015271985851
 30
0.0
 11
-1223.512350546347
 21
-125.2015067435599
 31
0.0
  0
LINE
  5
47
330
1F
100
AcDbEntity
  8
A-1_ピット
  6
Continuous
 62
     2
370
     9
100
AcDbLine
 10
-1023.512309306377
 20
-157.4006034232474
 30
0.0
 11
-1203.512284562394
 21
-157.4006034232474
 31
0.0
  0
LINE
  5
48
330
1F
100
AcDbEntity
  8
A-1_ピット
  6
Continuous
 62
     2
370
     9
100
AcDbLine
 10
-1003.512243322424
 20
-137.4015271985851
 30
0.0
 11
-1003.512243322424
 21
-125.2015067435599
 31
0.0
  0
LINE
  5
49
330
1F
100
AcDbEntity
  8
A-1_ピット
  6
Continuous
 62
     2
370
     9
100
AcDbLine
 10
-1021.512871819573
 20
-137.4015271985851
 30
0.0
 11
-1021.512871819573
 21
-125.2015067435599
 31
0.0
  0
LINE
  5
4A
330
1F
100
AcDbEntity
  8
A-1_ピット
  6
Continuous
 62
     2
370
     9
100
AcDbLine
 10
-1203.512284562394
 20
-139.401583284945
 30
0.0
 11
-1023.512309306377
 21
-139.401583284945
 31
0.0
  0
LINE
  5
4B
330
1F
100
AcDbEntity
  8
A-1_ピット
  6
Continuous
 62
     2
370
     9
100
AcDbLine
 10
-1205.513082968222
 20
-137.4015271985851
 30
0.0
 11
-1205.513082968222
 21
-125.2015067435599
 31
0.0
  0
LINE
  5
4C
330
1F
100
AcDbEntity
  8
A-1_ピット
  6
JWW_CENTER1
 62
     2
370
     9
100
AcDbLine
 10
-1214.512716757285
 20
-108.9875174857474
 30
0.0
 11
-1214.512716757285
 21
-140.1802764067779
 31
0.0
  0
LINE
  5
4D
330
1F
100
AcDbEntity
  8
A-1_ピット
  6
JWW_CENTER1
 62
     2
370
     9
100
AcDbLine
 10
-1198.186018660262
 20
-125.2015067435599
 30
0.0
 11
-1231.000869338577
 21
-125.2015067435599
 31
0.0
  0
LINE
  5
4E
330
1F
100
AcDbEntity
  8
A-1_ピット
  6
JWW_CENTER1
 62
     2
370
     9
100
AcDbLine
 10
-1012.512000831398
 20
-108.9875174857474
 30
0.0
 11
-1012.512000831398
 21
-140.1802764067779
 31
0.0
  0
LINE
  5
4F
330
1F
100
AcDbEntity
  8
A-1_ピット
  6
JWW_CENTER1
 62
     2
370
     9
100
AcDbLine
 10
-996.1864162135769
 20
-125.2015067435599
 30
0.0
 11
-1029.000400852513
 21
-125.2015067435599
 31
0.0
  0
LINE
  5
50
330
1F
100
AcDbEntity
  8
A-1_ピット
  6
Continuous
 62
     2
370
     9
100
AcDbLine
 10
-195.5127200564823
 20
-137.4015271985851
 30
0.0
 11
-195.5127200564823
 21
-125.2015067435599
 31
0.0
  0
LINE
  5
51
330
1F
100
AcDbEntity
  8
A-1_ピット
  6
Continuous
 62
     2
370
     9
100
AcDbLine
 10
4.488558382601582
 20
-157.4006034232474
 30
0.0
 11
-175.5116643132388
 21
-157.4006034232474
 31
0.0
  0
LINE
  5
52
330
1F
100
AcDbEntity
  8
A-1_ピット
  6
Continuous
 62
     2
370
     9
100
AcDbLine
 10
24.48763460726354
 20
-137.4015271985851
 30
0.0
 11
24.48763460726354
 21
-125.2015067435599
 31
0.0
  0
LINE
  5
53
330
1F
100
AcDbEntity
  8
A-1_ピット
  6
Continuous
 62
     2
370
     9
100
AcDbLine
 10
6.488367029138544
 20
-137.4015271985851
 30
0.0
 11
6.488367029138544
 21
-125.2015067435599
 31
0.0
  0
LINE
  5
54
330
1F
100
AcDbEntity
  8
A-1_ピット
  6
Continuous
 62
     2
370
     9
100
AcDbLine
 10
-175.5129015123521
 20
-139.401583284945
 30
0.0
 11
4.488558382601582
 21
-139.401583284945
 31
0.0
  0
LINE
  5
55
330
1F
100
AcDbEntity
  8
A-1_ピット
  6
Continuous
 62
     2
370
     9
100
AcDbLine
 10
-177.5127101588893
 20
-137.4015271985851
 30
0.0
 11
-177.5127101588893
 21
-125.2015067435599
 31
0.0
  0
LINE
  5
56
330
1F
100
AcDbEntity
  8
A-1_ピット
  6
JWW_CENTER1
 62
     2
370
     9
100
AcDbLine
 10
-186.5118490683065
 20
-108.9875174857474
 30
0.0
 11
-186.5118490683065
 21
-140.1802764067779
 31
0.0
  0
LINE
  5
57
330
1F
100
AcDbEntity
  8
A-1_ピット
  6
JWW_CENTER1
 62
     2
370
     9
100
AcDbLine
 10
-170.1865118903081
 20
-125.2015067435599
 30
0.0
 11
-203.000496529244
 21
-125.2015067435599
 31
0.0
  0
LINE
  5
58
330
1F
100
AcDbEntity
  8
A-1_ピット
  6
JWW_CENTER1
 62
     2
370
     9
100
AcDbLine
 10
15.4882482580237
 20
-108.9875174857474
 30
0.0
 11
15.4882482580237
 21
-140.1802764067779
 31
0.0
  0
LINE
  5
59
330
1F
100
AcDbEntity
  8
A-1_ピット
  6
JWW_CENTER1
 62
     2
370
     9
100
AcDbLine
 10
31.81309055637684
 20
-125.2015067435599
 30
0.0
 11
-1.001141522381772
 21
-125.2015067435599
 31
0.0
  0
LINE
  5
5A
330
1F
100
AcDbEntity
  8
A-1_ピット
  6
Continuous
 62
     2
370
     9
100
AcDbLine
 10
-1223.512350546347
 20
845.000263935811
 30
0.0
 11
-1223.512350546347
 21
832.7997486011404
 31
0.0
  0
LINE
  5
5B
330
1F
100
AcDbEntity
  8
A-1_ピット
  6
Continuous
 62
     2
370
     9
100
AcDbLine
 10
-1023.512309306377
 20
864.9998350401186
 30
0.0
 11
-1203.512284562394
 21
864.9998350401186
 31
0.0
  0
LINE
  5
5C
330
1F
100
AcDbEntity
  8
A-1_ピット
  6
Continuous
 62
     2
370
     9
100
AcDbLine
 10
-1003.512243322424
 20
845.000263935811
 30
0.0
 11
-1003.512243322424
 21
832.7997486011404
 31
0.0
  0
LINE
  5
5D
330
1F
100
AcDbEntity
  8
A-1_ピット
  6
Continuous
 62
     2
370
     9
100
AcDbLine
 10
-1021.512871819573
 20
845.000263935811
 30
0.0
 11
-1021.512871819573
 21
832.7997486011404
 31
0.0
  0
LINE
  5
5E
330
1F
100
AcDbEntity
  8
A-1_ピット
  6
Continuous
 62
     2
370
     9
100
AcDbLine
 10
-1203.512284562394
 20
847.0000725823481
 30
0.0
 11
-1023.512309306377
 21
847.0000725823481
 31
0.0
  0
LINE
  5
5F
330
1F
100
AcDbEntity
  8
A-1_ピット
  6
Continuous
 62
     2
370
     9
100
AcDbLine
 10
-1205.513082968222
 20
845.000263935811
 30
0.0
 11
-1205.513082968222
 21
832.7997486011404
 31
0.0
  0
LINE
  5
60
330
1F
100
AcDbEntity
  8
A-1_ピット
  6
JWW_CENTER1
 62
     2
370
     9
100
AcDbLine
 10
-1214.512716757285
 20
816.5850170238599
 30
0.0
 11
-1214.512716757285
 21
847.780745222762
 31
0.0
  0
LINE
  5
61
330
1F
100
AcDbEntity
  8
A-1_ピット
  6
JWW_CENTER1
 62
     2
370
     9
100
AcDbLine
 10
-1198.186018660262
 20
832.7997486011404
 30
0.0
 11
-1231.000869338577
 21
832.7997486011404
 31
0.0
  0
LINE
  5
62
330
1F
100
AcDbEntity
  8
A-1_ピット
  6
JWW_CENTER1
 62
     2
370
     9
100
AcDbLine
 10
-1012.512000831398
 20
816.5850170238599
 30
0.0
 11
-1012.512000831398
 21
847.780745222762
 31
0.0
  0
LINE
  5
63
330
1F
100
AcDbEntity
  8
A-1_ピット
  6
JWW_CENTER1
 62
     2
370
     9
100
AcDbLine
 10
-996.1864162135769
 20
832.7997486011404
 30
0.0
 11
-1029.000400852513
 21
832.7997486011404
 31
0.0
  0
LINE
  5
64
330
1F
100
AcDbEntity
  8
A-1_ピット
  6
Continuous
 62
     2
370
     9
100
AcDbLine
 10
-195.5127200564823
 20
845.000263935811
 30
0.0
 11
-195.5127200564823
 21
832.7997486011404
 31
0.0
  0
LINE
  5
65
330
1F
100
AcDbEntity
  8
A-1_ピット
  6
Continuous
 62
     2
370
     9
100
AcDbLine
 10
4.488558382601582
 20
864.9998350401186
 30
0.0
 11
-175.5116643132388
 21
864.9998350401186
 31
0.0
  0
LINE
  5
66
330
1F
100
AcDbEntity
  8
A-1_ピット
  6
Continuous
 62
     2
370
     9
100
AcDbLine
 10
24.48763460726354
 20
845.000263935811
 30
0.0
 11
24.48763460726354
 21
832.7997486011404
 31
0.0
  0
LINE
  5
67
330
1F
100
AcDbEntity
  8
A-1_ピット
  6
Continuous
 62
     2
370
     9
100
AcDbLine
 10
6.488367029138544
 20
845.000263935811
 30
0.0
 11
6.488367029138544
 21
832.7997486011404
 31
0.0
  0
LINE
  5
68
330
1F
100
AcDbEntity
  8
A-1_ピット
  6
Continuous
 62
     2
370
     9
100
AcDbLine
 10
-175.5129015123521
 20
847.0000725823481
 30
0.0
 11
4.488558382601582
 21
847.0000725823481
 31
0.0
  0
LINE
  5
69
330
1F
100
AcDbEntity
  8
A-1_ピット
  6
Continuous
 62
     2
370
     9
100
AcDbLine
 10
-177.5127101588893
 20
845.000263935811
 30
0.0
 11
-177.5127101588893
 21
832.7997486011404
 31
0.0
  0
LINE
  5
6A
330
1F
100
AcDbEntity
  8
A-1_ピット
  6
JWW_CENTER1
 62
     2
370
     9
100
AcDbLine
 10
-186.5118490683065
 20
816.5850170238599
 30
0.0
 11
-186.5118490683065
 21
847.780745222762
 31
0.0
  0
LINE
  5
6B
330
1F
100
AcDbEntity
  8
A-1_ピット
  6
JWW_CENTER1
 62
     2
370
     9
100
AcDbLine
 10
-170.1865118903081
 20
832.7997486011404
 30
0.0
 11
-203.000496529244
 21
832.7997486011404
 31
0.0
  0
LINE
  5
6C
330
1F
100
AcDbEntity
  8
A-1_ピット
  6
JWW_CENTER1
 62
     2
370
     9
100
AcDbLine
 10
15.4882482580237
 20
816.5850170238599
 30
0.0
 11
15.4882482580237
 21
847.780745222762
 31
0.0
  0
LINE
  5
6D
330
1F
100
AcDbEntity
  8
A-1_ピット
  6
JWW_CENTER1
 62
     2
370
     9
100
AcDbLine
 10
31.81309055637684
 20
832.7997486011404
 30
0.0
 11
-1.001141522381772
 21
832.7997486011404
 31
0.0
  0
LINE
  5
6E
330
1F
100
AcDbEntity
  8
A-1_ピット
  6
Continuous
 62
     2
370
     9
100
AcDbLine
 10
402.4890796558279
 20
811.8002731735644
 30
0.0
 11
-1601.513424435177
 21
811.8002731735644
 31
0.0
  0
LINE
  5
6F
330
1F
100
AcDbEntity
  8
A-1_ピット
  6
Continuous
 62
     2
370
     9
100
AcDbLine
 10
402.4890796558279
 20
-104.1995569177575
 30
0.0
 11
-1601.513424435177
 21
-104.1995569177575
 31
0.0
  0
LINE
  5
70
330
1F
100
AcDbEntity
  8
A-1_ピット
  6
JWW_DASHED3
 62
     2
370
     9
100
AcDbLine
 10
402.4890796558279
 20
703.8007086676521
 30
0.0
 11
-1601.513424435177
 21
703.8007086676521
 31
0.0
  0
LINE
  5
71
330
1F
100
AcDbEntity
  8
A-1_ピット
  6
JWW_DASHED3
 62
     2
370
     9
100
AcDbLine
 10
402.4890796558279
 20
3.798770389041408
 30
0.0
 11
-1601.513424435177
 21
3.798770389041408
 31
0.0
  0
LINE
  5
72
330
1F
100
AcDbEntity
  8
A-1_ピット
  6
Continuous
 62
     2
370
     9
100
AcDbLine
 10
-1601.513424435177
 20
-116.1996459960938
 30
0.0
 11
-1601.513424435177
 21
823.8001148120779
 31
0.0
  0
LINE
  5
73
330
1F
100
AcDbEntity
  8
A-1_ピット
  6
Continuous
 62
     2
370
     9
100
AcDbLine
 10
-1613.513513513514
 20
-116.1996459960938
 30
0.0
 11
-1613.513513513514
 21
823.8001148120779
 31
0.0
  0
LINE
  5
74
330
1F
100
AcDbEntity
  8
A-1_ピット
  6
Continuous
 62
     2
370
     9
100
AcDbLine
 10
414.4889212943414
 20
823.8001148120779
 30
0.0
 11
-1613.513513513514
 21
823.8001148120779
 31
0.0
  0
LINE
  5
75
330
1F
100
AcDbEntity
  8
A-1_ピット
  6
Continuous
 62
     2
370
     9
100
AcDbLine
 10
414.4889212943414
 20
-116.1996459960938
 30
0.0
 11
-1613.513513513514
 21
-116.1996459960938
 31
0.0
  0
LINE
  5
76
330
1F
100
AcDbEntity
  8
A-1_ピット
  6
Continuous
 62
     2
370
     9
100
AcDbLine
 10
414.4889212943414
 20
-116.1996459960938
 30
0.0
 11
414.4889212943414
 21
823.8001148120779
 31
0.0
  0
LINE
  5
77
330
1F
100
AcDbEntity
  8
A-1_ピット
  6
Continuous
 62
     2
370
     9
100
AcDbLine
 10
402.4890796558279
 20
-116.1996459960938
 30
0.0
 11
402.4890796558279
 21
823.8001148120779
 31
0.0
  0
LINE
  5
78
330
1F
100
AcDbEntity
  8
A-2_蓋
  6
Continuous
 62
     3
370
     9
100
AcDbLine
 10
395.4872749947214
 20
-96.20044605152032
 30
0.0
 11
-1594.513351852829
 21
-96.20044605152032
 31
0.0
  0
LINE
  5
79
330
1F
100
AcDbEntity
  8
A-2_蓋
  6
Continuous
 62
     3
370
     9
100
AcDbLine
 10
395.4872749947214
 20
-87.20081226245782
 30
0.0
 11
-1594.513351852829
 21
-87.20081226245782
 31
0.0
  0
LINE
  5
7A
330
1F
100
AcDbEntity
  8
A-2_蓋
  6
Continuous
 62
     3
370
     9
100
AcDbLine
 10
-1594.513351852829
 20
662.2790692303633
 30
0.0
 11
395.4872749947214
 21
662.2790692303633
 31
0.0
  0
LINE
  5
7B
330
1F
100
AcDbEntity
  8
A-2_蓋
  6
Continuous
 62
     3
370
     9
100
AcDbLine
 10
-1594.513351852829
 20
645.320286106419
 30
0.0
 11
395.4872749947214
 21
645.320286106419
 31
0.0
  0
LINE
  5
7C
330
1F
100
AcDbEntity
  8
A-2_蓋
  6
Continuous
 62
     3
370
     9
100
AcDbLine
 10
395.4872749947214
 20
662.2790692303633
 30
0.0
 11
335.4870770428633
 21
645.320286106419
 31
0.0
  0
LINE
  5
7D
330
1F
100
AcDbEntity
  8
A-2_蓋
  6
Continuous
 62
     3
370
     9
100
AcDbLine
 10
335.4870770428633
 20
662.2790692303633
 30
0.0
 11
275.4868790910052
 21
645.320286106419
 31
0.0
  0
LINE
  5
7E
330
1F
100
AcDbEntity
  8
A-2_蓋
  6
Continuous
 62
     3
370
     9
100
AcDbLine
 10
275.4878688502959
 20
662.2790692303633
 30
0.0
 11
215.4876708984375
 21
645.320286106419
 31
0.0
  0
LINE
  5
7F
330
1F
100
AcDbEntity
  8
A-2_蓋
  6
Continuous
 62
     3
370
     9
100
AcDbLine
 10
215.4876708984375
 20
662.2790692303633
 30
0.0
 11
155.4874729465794
 21
645.320286106419
 31
0.0
  0
LINE
  5
80
330
1F
100
AcDbEntity
  8
A-2_蓋
  6
Continuous
 62
     3
370
     9
100
AcDbLine
 10
155.4874729465794
 20
662.2790692303633
 30
0.0
 11
95.4870275548987
 21
645.320286106419
 31
0.0
  0
LINE
  5
81
330
1F
100
AcDbEntity
  8
A-2_蓋
  6
Continuous
 62
     3
370
     9
100
AcDbLine
 10
95.4870275548987
 20
662.2790692303633
 30
0.0
 11
35.48658216321797
 21
645.320286106419
 31
0.0
  0
LINE
  5
82
330
1F
100
AcDbEntity
  8
A-2_蓋
  6
Continuous
 62
     3
370
     9
100
AcDbLine
 10
35.48757192250861
 20
662.2790692303633
 30
0.0
 11
-24.51262602934946
 21
645.320286106419
 31
0.0
  0
LINE
  5
83
330
1F
100
AcDbEntity
  8
A-2_蓋
  6
Continuous
 62
     3
370
     9
100
AcDbLine
 10
-24.51262602934946
 20
662.2790692303633
 30
0.0
 11
-84.51282398120753
 21
645.320286106419
 31
0.0
  0
LINE
  5
84
330
1F
100
AcDbEntity
  8
A-2_蓋
  6
Continuous
 62
     3
370
     9
100
AcDbLine
 10
-84.51282398120753
 20
662.2790692303633
 30
0.0
 11
-144.5130219330659
 21
645.320286106419
 31
0.0
  0
LINE
  5
85
330
1F
100
AcDbEntity
  8
A-2_蓋
  6
Continuous
 62
     3
370
     9
100
AcDbLine
 10
-144.5120321737753
 20
662.2790692303633
 30
0.0
 11
-204.5134673247466
 21
645.320286106419
 31
0.0
  0
LINE
  5
86
330
1F
100
AcDbEntity
  8
A-2_蓋
  6
Continuous
 62
     3
370
     9
100
AcDbLine
 10
-204.512477565456
 20
662.2790692303633
 30
0.0
 11
-264.5126755173141
 21
645.320286106419
 31
0.0
  0
LINE
  5
87
330
1F
100
AcDbEntity
  8
A-2_蓋
  6
Continuous
 62
     3
370
     9
100
AcDbLine
 10
-264.5126755173141
 20
662.2790692303633
 30
0.0
 11
-324.5128734691721
 21
645.320286106419
 31
0.0
  0
LINE
  5
88
330
1F
100
AcDbEntity
  8
A-2_蓋
  6
Continuous
 62
     3
370
     9
100
AcDbLine
 10
-324.5128734691721
 20
662.2790692303633
 30
0.0
 11
-384.5131951409417
 21
645.320286106419
 31
0.0
  0
LINE
  5
89
330
1F
100
AcDbEntity
  8
A-2_蓋
  6
Continuous
 62
     3
370
     9
100
AcDbLine
 10
-384.5131951409417
 20
662.2790692303633
 30
0.0
 11
-444.5125270534206
 21
645.320286106419
 31
0.0
  0
LINE
  5
8A
330
1F
100
AcDbEntity
  8
A-2_蓋
  6
Continuous
 62
     3
370
     9
100
AcDbLine
 10
-444.5125270534206
 20
662.2790692303633
 30
0.0
 11
-504.5128487251898
 21
645.320286106419
 31
0.0
  0
LINE
  5
8B
330
1F
100
AcDbEntity
  8
A-2_蓋
  6
Continuous
 62
     3
370
     9
100
AcDbLine
 10
-504.5128487251898
 20
662.2790692303633
 30
0.0
 11
-564.5130466770481
 21
645.320286106419
 31
0.0
  0
LINE
  5
8C
330
1F
100
AcDbEntity
  8
A-2_蓋
  6
Continuous
 62
     3
370
     9
100
AcDbLine
 10
-564.5130466770481
 20
662.2790692303633
 30
0.0
 11
-624.5133683488175
 21
645.320286106419
 31
0.0
  0
LINE
  5
8D
330
1F
100
AcDbEntity
  8
A-2_蓋
  6
Continuous
 62
     3
370
     9
100
AcDbLine
 10
-624.5123785895269
 20
662.2790692303633
 30
0.0
 11
-684.5135663006755
 21
645.320286106419
 31
0.0
  0
LINE
  5
8E
330
1F
100
AcDbEntity
  8
A-2_蓋
  6
Continuous
 62
     3
370
     9
100
AcDbLine
 10
-684.5125765413852
 20
662.2790692303633
 30
0.0
 11
-744.5128982131544
 21
645.320286106419
 31
0.0
  0
LINE
  5
8F
330
1F
100
AcDbEntity
  8
A-2_蓋
  6
Continuous
 62
     3
370
     9
100
AcDbLine
 10
-744.5128982131544
 20
662.2790692303633
 30
0.0
 11
-804.513219884924
 21
645.320286106419
 31
0.0
  0
LINE
  5
90
330
1F
100
AcDbEntity
  8
A-2_蓋
  6
Continuous
 62
     3
370
     9
100
AcDbLine
 10
-804.513219884924
 20
662.2790692303633
 30
0.0
 11
-864.5134178367821
 21
645.320286106419
 31
0.0
  0
LINE
  5
91
330
1F
100
AcDbEntity
  8
A-2_蓋
  6
Continuous
 62
     3
370
     9
100
AcDbLine
 10
-864.5134178367821
 20
662.2790692303633
 30
0.0
 11
-924.5126260293496
 21
645.320286106419
 31
0.0
  0
LINE
  5
92
330
1F
100
AcDbEntity
  8
A-2_蓋
  6
Continuous
 62
     3
370
     9
100
AcDbLine
 10
-924.5126260293496
 20
662.2790692303633
 30
0.0
 11
-984.5130714210303
 21
645.320286106419
 31
0.0
  0
LINE
  5
93
330
1F
100
AcDbEntity
  8
A-2_蓋
  6
Continuous
 62
     3
370
     9
100
AcDbLine
 10
-984.5130714210303
 20
662.2790692303633
 30
0.0
 11
-1044.513269372888
 21
645.320286106419
 31
0.0
  0
LINE
  5
94
330
1F
100
AcDbEntity
  8
A-2_蓋
  6
Continuous
 62
     3
370
     9
100
AcDbLine
 10
-1044.513269372888
 20
662.2790692303633
 30
0.0
 11
-1104.513591044658
 21
645.320286106419
 31
0.0
  0
LINE
  5
95
330
1F
100
AcDbEntity
  8
A-2_蓋
  6
Continuous
 62
     3
370
     9
100
AcDbLine
 10
-1104.512601285367
 20
662.2790692303633
 30
0.0
 11
-1164.513912716427
 21
645.320286106419
 31
0.0
  0
LINE
  5
96
330
1F
100
AcDbEntity
  8
A-2_蓋
  6
Continuous
 62
     3
370
     9
100
AcDbLine
 10
-1164.512922957137
 20
662.2790692303633
 30
0.0
 11
-1224.513120908995
 21
645.320286106419
 31
0.0
  0
LINE
  5
97
330
1F
100
AcDbEntity
  8
A-2_蓋
  6
Continuous
 62
     3
370
     9
100
AcDbLine
 10
-1224.513120908995
 20
662.2790692303633
 30
0.0
 11
-1284.512329101562
 21
645.320286106419
 31
0.0
  0
LINE
  5
98
330
1F
100
AcDbEntity
  8
A-2_蓋
  6
Continuous
 62
     3
370
     9
100
AcDbLine
 10
-1284.512329101562
 20
662.2790692303633
 30
0.0
 11
-1344.513764252534
 21
645.320286106419
 31
0.0
  0
LINE
  5
99
330
1F
100
AcDbEntity
  8
A-2_蓋
  6
Continuous
 62
     3
370
     9
100
AcDbLine
 10
-1344.513764252534
 20
662.2790692303633
 30
0.0
 11
-1404.512972445101
 21
645.320286106419
 31
0.0
  0
LINE
  5
9A
330
1F
100
AcDbEntity
  8
A-2_蓋
  6
Continuous
 62
     3
370
     9
100
AcDbLine
 10
-1404.512972445101
 20
662.2790692303633
 30
0.0
 11
-1464.512180637669
 21
645.320286106419
 31
0.0
  0
LINE
  5
9B
330
1F
100
AcDbEntity
  8
A-2_蓋
  6
Continuous
 62
     3
370
     9
100
AcDbLine
 10
-1464.512180637669
 20
662.2790692303633
 30
0.0
 11
-1524.51361578864
 21
645.320286106419
 31
0.0
  0
LINE
  5
9C
330
1F
100
AcDbEntity
  8
A-2_蓋
  6
Continuous
 62
     3
370
     9
100
AcDbLine
 10
-1524.51361578864
 20
662.2790692303633
 30
0.0
 11
-1584.512823981208
 21
645.320286106419
 31
0.0
  0
LINE
  5
9D
330
1F
100
AcDbEntity
  8
A-2_蓋
  6
Continuous
 62
     3
370
     9
100
AcDbLine
 10
-1584.512823981208
 20
662.2790692303633
 30
0.0
 11
-1594.513351852829
 21
660.2795080236488
 31
0.0
  0
LINE
  5
9E
330
1F
100
AcDbEntity
  8
A-2_蓋
  6
Continuous
 62
     3
370
     9
100
AcDbLine
 10
-1594.513351852829
 20
794.8004150390625
 30
0.0
 11
395.4872749947214
 21
794.8004150390625
 31
0.0
  0
LINE
  5
9F
330
1F
100
AcDbEntity
  8
A-2_蓋
  6
Continuous
 62
     3
370
     9
100
AcDbLine
 10
-1594.513351852829
 20
803.800048828125
 30
0.0
 11
395.4872749947214
 21
803.800048828125
 31
0.0
  0
LINE
  5
A0
330
1F
100
AcDbEntity
  8
A-2_蓋
  6
Continuous
 62
     3
370
     9
100
AcDbLine
 10
-1534.512164141681
 20
794.8004150390625
 30
0.0
 11
-1534.512164141681
 21
662.2790692303633
 31
0.0
  0
LINE
  5
A1
330
1F
100
AcDbEntity
  8
A-2_蓋
  6
Continuous
 62
     3
370
     9
100
AcDbLine
 10
-1524.51361578864
 20
794.8004150390625
 30
0.0
 11
-1524.51361578864
 21
662.2790692303633
 31
0.0
  0
LINE
  5
A2
330
1F
100
AcDbEntity
  8
A-2_蓋
  6
Continuous
 62
     3
370
     9
100
AcDbLine
 10
-874.5129559491131
 20
794.8004150390625
 30
0.0
 11
-874.5129559491131
 21
662.2790692303633
 31
0.0
  0
LINE
  5
A3
330
1F
100
AcDbEntity
  8
A-2_蓋
  6
Continuous
 62
     3
370
     9
100
AcDbLine
 10
-864.5134178367821
 20
794.8004150390625
 30
0.0
 11
-864.5134178367821
 21
662.2790692303633
 31
0.0
  0
LINE
  5
A4
330
1F
100
AcDbEntity
  8
A-2_蓋
  6
Continuous
 62
     3
370
     9
100
AcDbLine
 10
-934.5132776208825
 20
794.8004150390625
 30
0.0
 11
-934.5132776208825
 21
662.2790692303633
 31
0.0
  0
LINE
  5
A5
330
1F
100
AcDbEntity
  8
A-2_蓋
  6
Continuous
 62
     3
370
     9
100
AcDbLine
 10
-924.5126260293496
 20
794.8004150390625
 30
0.0
 11
-924.5126260293496
 21
662.2790692303633
 31
0.0
  0
LINE
  5
A6
330
1F
100
AcDbEntity
  8
A-2_蓋
  6
Continuous
 62
     3
370
     9
100
AcDbLine
 10
-994.5126095333615
 20
794.8004150390625
 30
0.0
 11
-994.5126095333615
 21
662.2790692303633
 31
0.0
  0
LINE
  5
A7
330
1F
100
AcDbEntity
  8
A-2_蓋
  6
Continuous
 62
     3
370
     9
100
AcDbLine
 10
-984.5130714210303
 20
794.8004150390625
 30
0.0
 11
-984.5130714210303
 21
662.2790692303633
 31
0.0
  0
LINE
  5
A8
330
1F
100
AcDbEntity
  8
A-2_蓋
  6
Continuous
 62
     3
370
     9
100
AcDbLine
 10
-1054.51280748522
 20
794.8004150390625
 30
0.0
 11
-1054.51280748522
 21
662.2790692303633
 31
0.0
  0
LINE
  5
A9
330
1F
100
AcDbEntity
  8
A-2_蓋
  6
Continuous
 62
     3
370
     9
100
AcDbLine
 10
-1044.513269372888
 20
794.8004150390625
 30
0.0
 11
-1044.513269372888
 21
662.2790692303633
 31
0.0
  0
LINE
  5
AA
330
1F
100
AcDbEntity
  8
A-2_蓋
  6
Continuous
 62
     3
370
     9
100
AcDbLine
 10
-1114.513129156989
 20
794.8004150390625
 30
0.0
 11
-1114.513129156989
 21
662.2790692303633
 31
0.0
  0
LINE
  5
AB
330
1F
100
AcDbEntity
  8
A-2_蓋
  6
Continuous
 62
     3
370
     9
100
AcDbLine
 10
-1104.513591044658
 20
794.8004150390625
 30
0.0
 11
-1104.513591044658
 21
662.2790692303633
 31
0.0
  0
LINE
  5
AC
330
1F
100
AcDbEntity
  8
A-2_蓋
  6
Continuous
 62
     3
370
     9
100
AcDbLine
 10
-1174.512461069468
 20
794.8004150390625
 30
0.0
 11
-1174.512461069468
 21
662.2790692303633
 31
0.0
  0
LINE
  5
AD
330
1F
100
AcDbEntity
  8
A-2_蓋
  6
Continuous
 62
     3
370
     9
100
AcDbLine
 10
-1164.513912716427
 20
794.8004150390625
 30
0.0
 11
-1164.513912716427
 21
662.2790692303633
 31
0.0
  0
LINE
  5
AE
330
1F
100
AcDbEntity
  8
A-2_蓋
  6
Continuous
 62
     3
370
     9
100
AcDbLine
 10
-1234.511669262035
 20
794.8004150390625
 30
0.0
 11
-1234.511669262035
 21
662.2790692303633
 31
0.0
  0
LINE
  5
AF
330
1F
100
AcDbEntity
  8
A-2_蓋
  6
Continuous
 62
     3
370
     9
100
AcDbLine
 10
-1224.513120908995
 20
794.8004150390625
 30
0.0
 11
-1224.513120908995
 21
662.2790692303633
 31
0.0
  0
LINE
  5
B0
330
1F
100
AcDbEntity
  8
A-2_蓋
  6
Continuous
 62
     3
370
     9
100
AcDbLine
 10
-1294.512856973184
 20
794.8004150390625
 30
0.0
 11
-1294.512856973184
 21
662.2790692303633
 31
0.0
  0
LINE
  5
B1
330
1F
100
AcDbEntity
  8
A-2_蓋
  6
Continuous
 62
     3
370
     9
100
AcDbLine
 10
-1284.512329101562
 20
794.8004150390625
 30
0.0
 11
-1284.512329101562
 21
662.2790692303633
 31
0.0
  0
LINE
  5
B2
330
1F
100
AcDbEntity
  8
A-2_蓋
  6
Continuous
 62
     3
370
     9
100
AcDbLine
 10
-1354.512312605575
 20
794.8004150390625
 30
0.0
 11
-1354.512312605575
 21
662.2790692303633
 31
0.0
  0
LINE
  5
B3
330
1F
100
AcDbEntity
  8
A-2_蓋
  6
Continuous
 62
     3
370
     9
100
AcDbLine
 10
-1344.513764252534
 20
794.8004150390625
 30
0.0
 11
-1344.513764252534
 21
662.2790692303633
 31
0.0
  0
LINE
  5
B4
330
1F
100
AcDbEntity
  8
A-2_蓋
  6
Continuous
 62
     3
370
     9
100
AcDbLine
 10
-1414.513500316723
 20
794.8004150390625
 30
0.0
 11
-1414.513500316723
 21
662.2790692303633
 31
0.0
  0
LINE
  5
B5
330
1F
100
AcDbEntity
  8
A-2_蓋
  6
Continuous
 62
     3
370
     9
100
AcDbLine
 10
-1404.512972445101
 20
794.8004150390625
 30
0.0
 11
-1404.512972445101
 21
662.2790692303633
 31
0.0
  0
LINE
  5
B6
330
1F
100
AcDbEntity
  8
A-2_蓋
  6
Continuous
 62
     3
370
     9
100
AcDbLine
 10
-1474.512955949113
 20
794.8004150390625
 30
0.0
 11
-1474.512955949113
 21
662.2790692303633
 31
0.0
  0
LINE
  5
B7
330
1F
100
AcDbEntity
  8
A-2_蓋
  6
Continuous
 62
     3
370
     9
100
AcDbLine
 10
-1464.512180637669
 20
794.8004150390625
 30
0.0
 11
-1464.512180637669
 21
662.2790692303633
 31
0.0
  0
LINE
  5
B8
330
1F
100
AcDbEntity
  8
A-2_蓋
  6
Continuous
 62
     3
370
     9
100
AcDbLine
 10
-214.5118919578758
 20
794.8004150390625
 30
0.0
 11
-214.5118919578758
 21
662.2790692303633
 31
0.0
  0
LINE
  5
B9
330
1F
100
AcDbEntity
  8
A-2_蓋
  6
Continuous
 62
     3
370
     9
100
AcDbLine
 10
-204.5134673247466
 20
794.8004150390625
 30
0.0
 11
-204.5134673247466
 21
662.2790692303633
 31
0.0
  0
LINE
  5
BA
330
1F
100
AcDbEntity
  8
A-2_蓋
  6
Continuous
 62
     3
370
     9
100
AcDbLine
 10
-274.512213629645
 20
794.8004150390625
 30
0.0
 11
-274.512213629645
 21
662.2790692303633
 31
0.0
  0
LINE
  5
BB
330
1F
100
AcDbEntity
  8
A-2_蓋
  6
Continuous
 62
     3
370
     9
100
AcDbLine
 10
-264.5126755173141
 20
794.8004150390625
 30
0.0
 11
-264.5126755173141
 21
662.2790692303633
 31
0.0
  0
LINE
  5
BC
330
1F
100
AcDbEntity
  8
A-2_蓋
  6
Continuous
 62
     3
370
     9
100
AcDbLine
 10
-334.5124115815034
 20
794.8004150390625
 30
0.0
 11
-334.5124115815034
 21
662.2790692303633
 31
0.0
  0
LINE
  5
BD
330
1F
100
AcDbEntity
  8
A-2_蓋
  6
Continuous
 62
     3
370
     9
100
AcDbLine
 10
-324.5128734691721
 20
794.8004150390625
 30
0.0
 11
-324.5128734691721
 21
662.2790692303633
 31
0.0
  0
LINE
  5
BE
330
1F
100
AcDbEntity
  8
A-2_蓋
  6
Continuous
 62
     3
370
     9
100
AcDbLine
 10
-394.5128569731841
 20
794.8004150390625
 30
0.0
 11
-394.5128569731841
 21
662.2790692303633
 31
0.0
  0
LINE
  5
BF
330
1F
100
AcDbEntity
  8
A-2_蓋
  6
Continuous
 62
     3
370
     9
100
AcDbLine
 10
-384.5131951409417
 20
794.8004150390625
 30
0.0
 11
-384.5131951409417
 21
662.2790692303633
 31
0.0
  0
LINE
  5
C0
330
1F
100
AcDbEntity
  8
A-2_蓋
  6
Continuous
 62
     3
370
     9
100
AcDbLine
 10
-454.5130549250422
 20
794.8004150390625
 30
0.0
 11
-454.5130549250422
 21
662.2790692303633
 31
0.0
  0
LINE
  5
C1
330
1F
100
AcDbEntity
  8
A-2_蓋
  6
Continuous
 62
     3
370
     9
100
AcDbLine
 10
-444.5125270534206
 20
794.8004150390625
 30
0.0
 11
-444.5125270534206
 21
662.2790692303633
 31
0.0
  0
LINE
  5
C2
330
1F
100
AcDbEntity
  8
A-2_蓋
  6
Continuous
 62
     3
370
     9
100
AcDbLine
 10
-514.5122631176096
 20
794.8004150390625
 30
0.0
 11
-514.5122631176096
 21
662.2790692303633
 31
0.0
  0
LINE
  5
C3
330
1F
100
AcDbEntity
  8
A-2_蓋
  6
Continuous
 62
     3
370
     9
100
AcDbLine
 10
-504.5128487251898
 20
794.8004150390625
 30
0.0
 11
-504.5128487251898
 21
662.2790692303633
 31
0.0
  0
LINE
  5
C4
330
1F
100
AcDbEntity
  8
A-2_蓋
  6
Continuous
 62
     3
370
     9
100
AcDbLine
 10
-574.5125847893792
 20
794.8004150390625
 30
0.0
 11
-574.5125847893792
 21
662.2790692303633
 31
0.0
  0
LINE
  5
C5
330
1F
100
AcDbEntity
  8
A-2_蓋
  6
Continuous
 62
     3
370
     9
100
AcDbLine
 10
-564.5130466770481
 20
794.8004150390625
 30
0.0
 11
-564.5130466770481
 21
662.2790692303633
 31
0.0
  0
LINE
  5
C6
330
1F
100
AcDbEntity
  8
A-2_蓋
  6
Continuous
 62
     3
370
     9
100
AcDbLine
 10
-634.5129064611488
 20
794.8004150390625
 30
0.0
 11
-634.5129064611488
 21
662.2790692303633
 31
0.0
  0
LINE
  5
C7
330
1F
100
AcDbEntity
  8
A-2_蓋
  6
Continuous
 62
     3
370
     9
100
AcDbLine
 10
-624.5133683488175
 20
794.8004150390625
 30
0.0
 11
-624.5133683488175
 21
662.2790692303633
 31
0.0
  0
LINE
  5
C8
330
1F
100
AcDbEntity
  8
A-2_蓋
  6
Continuous
 62
     3
370
     9
100
AcDbLine
 10
-694.5121146537161
 20
794.8004150390625
 30
0.0
 11
-694.5121146537161
 21
662.2790692303633
 31
0.0
  0
LINE
  5
C9
330
1F
100
AcDbEntity
  8
A-2_蓋
  6
Continuous
 62
     3
370
     9
100
AcDbLine
 10
-684.5135663006755
 20
794.8004150390625
 30
0.0
 11
-684.5135663006755
 21
662.2790692303633
 31
0.0
  0
LINE
  5
CA
330
1F
100
AcDbEntity
  8
A-2_蓋
  6
Continuous
 62
     3
370
     9
100
AcDbLine
 10
-754.5125600453969
 20
794.8004150390625
 30
0.0
 11
-754.5125600453969
 21
662.2790692303633
 31
0.0
  0
LINE
  5
CB
330
1F
100
AcDbEntity
  8
A-2_蓋
  6
Continuous
 62
     3
370
     9
100
AcDbLine
 10
-744.5128982131544
 20
794.8004150390625
 30
0.0
 11
-744.5128982131544
 21
662.2790692303633
 31
0.0
  0
LINE
  5
CC
330
1F
100
AcDbEntity
  8
A-2_蓋
  6
Continuous
 62
     3
370
     9
100
AcDbLine
 10
-814.512757997255
 20
794.8004150390625
 30
0.0
 11
-814.512757997255
 21
662.2790692303633
 31
0.0
  0
LINE
  5
CD
330
1F
100
AcDbEntity
  8
A-2_蓋
  6
Continuous
 62
     3
370
     9
100
AcDbLine
 10
-804.513219884924
 20
794.8004150390625
 30
0.0
 11
-804.513219884924
 21
662.2790692303633
 31
0.0
  0
LINE
  5
CE
330
1F
100
AcDbEntity
  8
A-2_蓋
  6
Continuous
 62
     3
370
     9
100
AcDbLine
 10
325.4875389305323
 20
794.8004150390625
 30
0.0
 11
325.4875389305323
 21
662.2790692303633
 31
0.0
  0
LINE
  5
CF
330
1F
100
AcDbEntity
  8
A-2_蓋
  6
Continuous
 62
     3
370
     9
100
AcDbLine
 10
335.4870770428633
 20
794.8004150390625
 30
0.0
 11
335.4870770428633
 21
662.2790692303633
 31
0.0
  0
LINE
  5
D0
330
1F
100
AcDbEntity
  8
A-2_蓋
  6
Continuous
 62
     3
370
     9
100
AcDbLine
 10
265.4873409786742
 20
794.8004150390625
 30
0.0
 11
265.4873409786742
 21
662.2790692303633
 31
0.0
  0
LINE
  5
D1
330
1F
100
AcDbEntity
  8
A-2_蓋
  6
Continuous
 62
     3
370
     9
100
AcDbLine
 10
275.4868790910052
 20
794.8004150390625
 30
0.0
 11
275.4868790910052
 21
662.2790692303633
 31
0.0
  0
LINE
  5
D2
330
1F
100
AcDbEntity
  8
A-2_蓋
  6
Continuous
 62
     3
370
     9
100
AcDbLine
 10
205.4891225453972
 20
794.8004150390625
 30
0.0
 11
205.4891225453972
 21
662.2790692303633
 31
0.0
  0
LINE
  5
D3
330
1F
100
AcDbEntity
  8
A-2_蓋
  6
Continuous
 62
     3
370
     9
100
AcDbLine
 10
215.4876708984375
 20
794.8004150390625
 30
0.0
 11
215.4876708984375
 21
662.2790692303633
 31
0.0
  0
LINE
  5
D4
330
1F
100
AcDbEntity
  8
A-2_蓋
  6
Continuous
 62
     3
370
     9
100
AcDbLine
 10
145.4879348342484
 20
794.8004150390625
 30
0.0
 11
145.4879348342484
 21
662.2790692303633
 31
0.0
  0
LINE
  5
D5
330
1F
100
AcDbEntity
  8
A-2_蓋
  6
Continuous
 62
     3
370
     9
100
AcDbLine
 10
155.4874729465794
 20
794.8004150390625
 30
0.0
 11
155.4874729465794
 21
662.2790692303633
 31
0.0
  0
LINE
  5
D6
330
1F
100
AcDbEntity
  8
A-2_蓋
  6
Continuous
 62
     3
370
     9
100
AcDbLine
 10
85.48724200274506
 20
794.8004150390625
 30
0.0
 11
85.48724200274506
 21
662.2790692303633
 31
0.0
  0
LINE
  5
D7
330
1F
100
AcDbEntity
  8
A-2_蓋
  6
Continuous
 62
     3
370
     9
100
AcDbLine
 10
95.4870275548987
 20
794.8004150390625
 30
0.0
 11
95.4870275548987
 21
662.2790692303633
 31
0.0
  0
LINE
  5
D8
330
1F
100
AcDbEntity
  8
A-2_蓋
  6
Continuous
 62
     3
370
     9
100
AcDbLine
 10
25.48704405088699
 20
794.8004150390625
 30
0.0
 11
25.48704405088699
 21
662.2790692303633
 31
0.0
  0
LINE
  5
D9
330
1F
100
AcDbEntity
  8
A-2_蓋
  6
Continuous
 62
     3
370
     9
100
AcDbLine
 10
35.48658216321797
 20
794.8004150390625
 30
0.0
 11
35.48658216321797
 21
662.2790692303633
 31
0.0
  0
LINE
  5
DA
330
1F
100
AcDbEntity
  8
A-2_蓋
  6
Continuous
 62
     3
370
     9
100
AcDbLine
 10
-34.51216414168073
 20
794.8004150390625
 30
0.0
 11
-34.51216414168073
 21
662.2790692303633
 31
0.0
  0
LINE
  5
DB
330
1F
100
AcDbEntity
  8
A-2_蓋
  6
Continuous
 62
     3
370
     9
100
AcDbLine
 10
-24.51262602934946
 20
794.8004150390625
 30
0.0
 11
-24.51262602934946
 21
662.2790692303633
 31
0.0
  0
LINE
  5
DC
330
1F
100
AcDbEntity
  8
A-2_蓋
  6
Continuous
 62
     3
370
     9
100
AcDbLine
 10
-94.5123620935388
 20
794.8004150390625
 30
0.0
 11
-94.5123620935388
 21
662.2790692303633
 31
0.0
  0
LINE
  5
DD
330
1F
100
AcDbEntity
  8
A-2_蓋
  6
Continuous
 62
     3
370
     9
100
AcDbLine
 10
-84.51282398120753
 20
794.8004150390625
 30
0.0
 11
-84.51282398120753
 21
662.2790692303633
 31
0.0
  0
LINE
  5
DE
330
1F
100
AcDbEntity
  8
A-2_蓋
  6
Continuous
 62
     3
370
     9
100
AcDbLine
 10
-154.5126837653081
 20
794.8004150390625
 30
0.0
 11
-154.5126837653081
 21
662.2790692303633
 31
0.0
  0
LINE
  5
DF
330
1F
100
AcDbEntity
  8
A-2_蓋
  6
Continuous
 62
     3
370
     9
100
AcDbLine
 10
-144.5130219330659
 20
794.8004150390625
 30
0.0
 11
-144.5130219330659
 21
662.2790692303633
 31
0.0
  0
LINE
  5
E0
330
1F
100
AcDbEntity
  8
A-2_蓋
  6
Continuous
 62
     3
370
     9
100
AcDbLine
 10
-1584.512823981208
 20
662.2790692303633
 30
0.0
 11
-1584.512823981208
 21
794.8004150390625
 31
0.0
  0
LINE
  5
E1
330
1F
100
AcDbEntity
  8
A-2_蓋
  6
Continuous
 62
     3
370
     9
100
AcDbLine
 10
385.4877368823904
 20
794.8004150390625
 30
0.0
 11
385.4877368823904
 21
662.2790692303633
 31
0.0
  0
LINE
  5
E2
330
1F
100
AcDbEntity
  8
A-2_蓋
  6
Continuous
 62
     3
370
     9
100
AcDbLine
 10
-1164.513912716427
 20
645.320286106419
 30
0.0
 11
-1164.513912716427
 21
462.2801414695948
 31
0.0
  0
LINE
  5
E3
330
1F
100
AcDbEntity
  8
A-2_蓋
  6
Continuous
 62
     3
370
     9
100
AcDbLine
 10
-1174.512461069468
 20
645.320286106419
 30
0.0
 11
-1174.512461069468
 21
462.2801414695948
 31
0.0
  0
LINE
  5
E4
330
1F
100
AcDbEntity
  8
A-2_蓋
  6
Continuous
 62
     3
370
     9
100
AcDbLine
 10
-1224.513120908995
 20
645.320286106419
 30
0.0
 11
-1224.513120908995
 21
462.2801414695948
 31
0.0
  0
LINE
  5
E5
330
1F
100
AcDbEntity
  8
A-2_蓋
  6
Continuous
 62
     3
370
     9
100
AcDbLine
 10
-1234.511669262035
 20
645.320286106419
 30
0.0
 11
-1234.511669262035
 21
462.2801414695948
 31
0.0
  0
LINE
  5
E6
330
1F
100
AcDbEntity
  8
A-2_蓋
  6
Continuous
 62
     3
370
     9
100
AcDbLine
 10
-1284.512329101562
 20
645.320286106419
 30
0.0
 11
-1284.512329101562
 21
462.2801414695948
 31
0.0
  0
LINE
  5
E7
330
1F
100
AcDbEntity
  8
A-2_蓋
  6
Continuous
 62
     3
370
     9
100
AcDbLine
 10
-1294.512856973184
 20
645.320286106419
 30
0.0
 11
-1294.512856973184
 21
462.2801414695948
 31
0.0
  0
LINE
  5
E8
330
1F
100
AcDbEntity
  8
A-2_蓋
  6
Continuous
 62
     3
370
     9
100
AcDbLine
 10
-1344.513764252534
 20
645.320286106419
 30
0.0
 11
-1344.513764252534
 21
462.2801414695948
 31
0.0
  0
LINE
  5
E9
330
1F
100
AcDbEntity
  8
A-2_蓋
  6
Continuous
 62
     3
370
     9
100
AcDbLine
 10
-1354.512312605575
 20
645.320286106419
 30
0.0
 11
-1354.512312605575
 21
462.2801414695948
 31
0.0
  0
LINE
  5
EA
330
1F
100
AcDbEntity
  8
A-2_蓋
  6
Continuous
 62
     3
370
     9
100
AcDbLine
 10
-1404.512972445101
 20
645.320286106419
 30
0.0
 11
-1404.512972445101
 21
462.2801414695948
 31
0.0
  0
LINE
  5
EB
330
1F
100
AcDbEntity
  8
A-2_蓋
  6
Continuous
 62
     3
370
     9
100
AcDbLine
 10
-1414.513500316723
 20
645.320286106419
 30
0.0
 11
-1414.513500316723
 21
462.2801414695948
 31
0.0
  0
LINE
  5
EC
330
1F
100
AcDbEntity
  8
A-2_蓋
  6
Continuous
 62
     3
370
     9
100
AcDbLine
 10
-1464.512180637669
 20
645.320286106419
 30
0.0
 11
-1464.512180637669
 21
462.2801414695948
 31
0.0
  0
LINE
  5
ED
330
1F
100
AcDbEntity
  8
A-2_蓋
  6
Continuous
 62
     3
370
     9
100
AcDbLine
 10
-1474.512955949113
 20
645.320286106419
 30
0.0
 11
-1474.512955949113
 21
462.2801414695948
 31
0.0
  0
LINE
  5
EE
330
1F
100
AcDbEntity
  8
A-2_蓋
  6
Continuous
 62
     3
370
     9
100
AcDbLine
 10
-1524.51361578864
 20
645.320286106419
 30
0.0
 11
-1524.51361578864
 21
462.2801414695948
 31
0.0
  0
LINE
  5
EF
330
1F
100
AcDbEntity
  8
A-2_蓋
  6
Continuous
 62
     3
370
     9
100
AcDbLine
 10
-1534.512164141681
 20
645.320286106419
 30
0.0
 11
-1534.512164141681
 21
462.2801414695948
 31
0.0
  0
LINE
  5
F0
330
1F
100
AcDbEntity
  8
A-2_蓋
  6
Continuous
 62
     3
370
     9
100
AcDbLine
 10
-1594.513351852829
 20
-96.20044605152032
 30
0.0
 11
-1594.513351852829
 21
803.800048828125
 31
0.0
  0
LINE
  5
F1
330
1F
100
AcDbEntity
  8
A-2_蓋
  6
Continuous
 62
     3
370
     9
100
AcDbLine
 10
-1584.512823981208
 20
462.2801414695948
 30
0.0
 11
-1584.512823981208
 21
645.320286106419
 31
0.0
  0
LINE
  5
F2
330
1F
100
AcDbEntity
  8
A-2_蓋
  6
Continuous
 62
     3
370
     9
100
AcDbLine
 10
-804.513219884924
 20
645.320286106419
 30
0.0
 11
-804.513219884924
 21
462.2801414695948
 31
0.0
  0
LINE
  5
F3
330
1F
100
AcDbEntity
  8
A-2_蓋
  6
Continuous
 62
     3
370
     9
100
AcDbLine
 10
-814.512757997255
 20
645.320286106419
 30
0.0
 11
-814.512757997255
 21
462.2801414695948
 31
0.0
  0
LINE
  5
F4
330
1F
100
AcDbEntity
  8
A-2_蓋
  6
Continuous
 62
     3
370
     9
100
AcDbLine
 10
-864.5134178367821
 20
645.320286106419
 30
0.0
 11
-864.5134178367821
 21
462.2801414695948
 31
0.0
  0
LINE
  5
F5
330
1F
100
AcDbEntity
  8
A-2_蓋
  6
Continuous
 62
     3
370
     9
100
AcDbLine
 10
-874.5129559491131
 20
645.320286106419
 30
0.0
 11
-874.5129559491131
 21
462.2801414695948
 31
0.0
  0
LINE
  5
F6
330
1F
100
AcDbEntity
  8
A-2_蓋
  6
Continuous
 62
     3
370
     9
100
AcDbLine
 10
-924.5126260293496
 20
645.320286106419
 30
0.0
 11
-924.5126260293496
 21
462.2801414695948
 31
0.0
  0
LINE
  5
F7
330
1F
100
AcDbEntity
  8
A-2_蓋
  6
Continuous
 62
     3
370
     9
100
AcDbLine
 10
-934.5132776208825
 20
645.320286106419
 30
0.0
 11
-934.5132776208825
 21
462.2801414695948
 31
0.0
  0
LINE
  5
F8
330
1F
100
AcDbEntity
  8
A-2_蓋
  6
Continuous
 62
     3
370
     9
100
AcDbLine
 10
-984.5130714210303
 20
645.320286106419
 30
0.0
 11
-984.5130714210303
 21
462.2801414695948
 31
0.0
  0
LINE
  5
F9
330
1F
100
AcDbEntity
  8
A-2_蓋
  6
Continuous
 62
     3
370
     9
100
AcDbLine
 10
-994.5126095333615
 20
645.320286106419
 30
0.0
 11
-994.5126095333615
 21
462.2801414695948
 31
0.0
  0
LINE
  5
FA
330
1F
100
AcDbEntity
  8
A-2_蓋
  6
Continuous
 62
     3
370
     9
100
AcDbLine
 10
-1044.513269372888
 20
645.320286106419
 30
0.0
 11
-1044.513269372888
 21
462.2801414695948
 31
0.0
  0
LINE
  5
FB
330
1F
100
AcDbEntity
  8
A-2_蓋
  6
Continuous
 62
     3
370
     9
100
AcDbLine
 10
-1054.51280748522
 20
645.320286106419
 30
0.0
 11
-1054.51280748522
 21
462.2801414695948
 31
0.0
  0
LINE
  5
FC
330
1F
100
AcDbEntity
  8
A-2_蓋
  6
Continuous
 62
     3
370
     9
100
AcDbLine
 10
-1104.513591044658
 20
645.320286106419
 30
0.0
 11
-1104.513591044658
 21
462.2801414695948
 31
0.0
  0
LINE
  5
FD
330
1F
100
AcDbEntity
  8
A-2_蓋
  6
Continuous
 62
     3
370
     9
100
AcDbLine
 10
-1114.513129156989
 20
645.320286106419
 30
0.0
 11
-1114.513129156989
 21
462.2801414695948
 31
0.0
  0
LINE
  5
FE
330
1F
100
AcDbEntity
  8
A-2_蓋
  6
Continuous
 62
     3
370
     9
100
AcDbLine
 10
-504.5128487251898
 20
645.320286106419
 30
0.0
 11
-504.5128487251898
 21
462.2801414695948
 31
0.0
  0
LINE
  5
FF
330
1F
100
AcDbEntity
  8
A-2_蓋
  6
Continuous
 62
     3
370
     9
100
AcDbLine
 10
-514.5122631176096
 20
645.320286106419
 30
0.0
 11
-514.5122631176096
 21
462.2801414695948
 31
0.0
  0
LINE
  5
100
330
1F
100
AcDbEntity
  8
A-2_蓋
  6
Continuous
 62
     3
370
     9
100
AcDbLine
 10
-564.5130466770481
 20
645.320286106419
 30
0.0
 11
-564.5130466770481
 21
462.2801414695948
 31
0.0
  0
LINE
  5
101
330
1F
100
AcDbEntity
  8
A-2_蓋
  6
Continuous
 62
     3
370
     9
100
AcDbLine
 10
-574.5125847893792
 20
645.320286106419
 30
0.0
 11
-574.5125847893792
 21
462.2801414695948
 31
0.0
  0
LINE
  5
102
330
1F
100
AcDbEntity
  8
A-2_蓋
  6
Continuous
 62
     3
370
     9
100
AcDbLine
 10
-624.5133683488175
 20
645.320286106419
 30
0.0
 11
-624.5133683488175
 21
462.2801414695948
 31
0.0
  0
LINE
  5
103
330
1F
100
AcDbEntity
  8
A-2_蓋
  6
Continuous
 62
     3
370
     9
100
AcDbLine
 10
-634.5129064611488
 20
645.320286106419
 30
0.0
 11
-634.5129064611488
 21
462.2801414695948
 31
0.0
  0
LINE
  5
104
330
1F
100
AcDbEntity
  8
A-2_蓋
  6
Continuous
 62
     3
370
     9
100
AcDbLine
 10
-684.5135663006755
 20
645.320286106419
 30
0.0
 11
-684.5135663006755
 21
462.2801414695948
 31
0.0
  0
LINE
  5
105
330
1F
100
AcDbEntity
  8
A-2_蓋
  6
Continuous
 62
     3
370
     9
100
AcDbLine
 10
-694.5121146537161
 20
645.320286106419
 30
0.0
 11
-694.5121146537161
 21
462.2801414695948
 31
0.0
  0
LINE
  5
106
330
1F
100
AcDbEntity
  8
A-2_蓋
  6
Continuous
 62
     3
370
     9
100
AcDbLine
 10
-744.5128982131544
 20
645.320286106419
 30
0.0
 11
-744.5128982131544
 21
462.2801414695948
 31
0.0
  0
LINE
  5
107
330
1F
100
AcDbEntity
  8
A-2_蓋
  6
Continuous
 62
     3
370
     9
100
AcDbLine
 10
-754.5125600453969
 20
645.320286106419
 30
0.0
 11
-754.5125600453969
 21
462.2801414695948
 31
0.0
  0
LINE
  5
108
330
1F
100
AcDbEntity
  8
A-2_蓋
  6
Continuous
 62
     3
370
     9
100
AcDbLine
 10
-204.5134673247466
 20
645.320286106419
 30
0.0
 11
-204.5134673247466
 21
462.2801414695948
 31
0.0
  0
LINE
  5
109
330
1F
100
AcDbEntity
  8
A-2_蓋
  6
Continuous
 62
     3
370
     9
100
AcDbLine
 10
-214.5118919578758
 20
645.320286106419
 30
0.0
 11
-214.5118919578758
 21
462.2801414695948
 31
0.0
  0
LINE
  5
10A
330
1F
100
AcDbEntity
  8
A-2_蓋
  6
Continuous
 62
     3
370
     9
100
AcDbLine
 10
-264.5126755173141
 20
645.320286106419
 30
0.0
 11
-264.5126755173141
 21
462.2801414695948
 31
0.0
  0
LINE
  5
10B
330
1F
100
AcDbEntity
  8
A-2_蓋
  6
Continuous
 62
     3
370
     9
100
AcDbLine
 10
-274.512213629645
 20
645.320286106419
 30
0.0
 11
-274.512213629645
 21
462.2801414695948
 31
0.0
  0
LINE
  5
10C
330
1F
100
AcDbEntity
  8
A-2_蓋
  6
Continuous
 62
     3
370
     9
100
AcDbLine
 10
-324.5128734691721
 20
645.320286106419
 30
0.0
 11
-324.5128734691721
 21
462.2801414695948
 31
0.0
  0
LINE
  5
10D
330
1F
100
AcDbEntity
  8
A-2_蓋
  6
Continuous
 62
     3
370
     9
100
AcDbLine
 10
-334.5124115815034
 20
645.320286106419
 30
0.0
 11
-334.5124115815034
 21
462.2801414695948
 31
0.0
  0
LINE
  5
10E
330
1F
100
AcDbEntity
  8
A-2_蓋
  6
Continuous
 62
     3
370
     9
100
AcDbLine
 10
-384.5131951409417
 20
645.320286106419
 30
0.0
 11
-384.5131951409417
 21
462.2801414695948
 31
0.0
  0
LINE
  5
10F
330
1F
100
AcDbEntity
  8
A-2_蓋
  6
Continuous
 62
     3
370
     9
100
AcDbLine
 10
-394.5128569731841
 20
645.320286106419
 30
0.0
 11
-394.5128569731841
 21
462.2801414695948
 31
0.0
  0
LINE
  5
110
330
1F
100
AcDbEntity
  8
A-2_蓋
  6
Continuous
 62
     3
370
     9
100
AcDbLine
 10
-444.5125270534206
 20
645.320286106419
 30
0.0
 11
-444.5125270534206
 21
462.2801414695948
 31
0.0
  0
LINE
  5
111
330
1F
100
AcDbEntity
  8
A-2_蓋
  6
Continuous
 62
     3
370
     9
100
AcDbLine
 10
-454.5130549250422
 20
645.320286106419
 30
0.0
 11
-454.5130549250422
 21
462.2801414695948
 31
0.0
  0
LINE
  5
112
330
1F
100
AcDbEntity
  8
A-2_蓋
  6
Continuous
 62
     3
370
     9
100
AcDbLine
 10
95.4870275548987
 20
645.320286106419
 30
0.0
 11
95.4870275548987
 21
462.2801414695948
 31
0.0
  0
LINE
  5
113
330
1F
100
AcDbEntity
  8
A-2_蓋
  6
Continuous
 62
     3
370
     9
100
AcDbLine
 10
85.48724200274506
 20
645.320286106419
 30
0.0
 11
85.48724200274506
 21
462.2801414695948
 31
0.0
  0
LINE
  5
114
330
1F
100
AcDbEntity
  8
A-2_蓋
  6
Continuous
 62
     3
370
     9
100
AcDbLine
 10
35.48658216321797
 20
645.320286106419
 30
0.0
 11
35.48658216321797
 21
462.2801414695948
 31
0.0
  0
LINE
  5
115
330
1F
100
AcDbEntity
  8
A-2_蓋
  6
Continuous
 62
     3
370
     9
100
AcDbLine
 10
25.48704405088699
 20
645.320286106419
 30
0.0
 11
25.48704405088699
 21
462.2801414695948
 31
0.0
  0
LINE
  5
116
330
1F
100
AcDbEntity
  8
A-2_蓋
  6
Continuous
 62
     3
370
     9
100
AcDbLine
 10
-24.51262602934946
 20
645.320286106419
 30
0.0
 11
-24.51262602934946
 21
462.2801414695948
 31
0.0
  0
LINE
  5
117
330
1F
100
AcDbEntity
  8
A-2_蓋
  6
Continuous
 62
     3
370
     9
100
AcDbLine
 10
-34.51216414168073
 20
645.320286106419
 30
0.0
 11
-34.51216414168073
 21
462.2801414695948
 31
0.0
  0
LINE
  5
118
330
1F
100
AcDbEntity
  8
A-2_蓋
  6
Continuous
 62
     3
370
     9
100
AcDbLine
 10
-84.51282398120753
 20
645.320286106419
 30
0.0
 11
-84.51282398120753
 21
462.2801414695948
 31
0.0
  0
LINE
  5
119
330
1F
100
AcDbEntity
  8
A-2_蓋
  6
Continuous
 62
     3
370
     9
100
AcDbLine
 10
-94.5123620935388
 20
645.320286106419
 30
0.0
 11
-94.5123620935388
 21
462.2801414695948
 31
0.0
  0
LINE
  5
11A
330
1F
100
AcDbEntity
  8
A-2_蓋
  6
Continuous
 62
     3
370
     9
100
AcDbLine
 10
-144.5130219330659
 20
645.320286106419
 30
0.0
 11
-144.5130219330659
 21
462.2801414695948
 31
0.0
  0
LINE
  5
11B
330
1F
100
AcDbEntity
  8
A-2_蓋
  6
Continuous
 62
     3
370
     9
100
AcDbLine
 10
-154.5126837653081
 20
645.320286106419
 30
0.0
 11
-154.5126837653081
 21
462.2801414695948
 31
0.0
  0
LINE
  5
11C
330
1F
100
AcDbEntity
  8
A-2_蓋
  6
Continuous
 62
     3
370
     9
100
AcDbLine
 10
335.4870770428633
 20
645.320286106419
 30
0.0
 11
335.4870770428633
 21
462.2801414695948
 31
0.0
  0
LINE
  5
11D
330
1F
100
AcDbEntity
  8
A-2_蓋
  6
Continuous
 62
     3
370
     9
100
AcDbLine
 10
325.4875389305323
 20
645.320286106419
 30
0.0
 11
325.4875389305323
 21
462.2801414695948
 31
0.0
  0
LINE
  5
11E
330
1F
100
AcDbEntity
  8
A-2_蓋
  6
Continuous
 62
     3
370
     9
100
AcDbLine
 10
275.4868790910052
 20
645.320286106419
 30
0.0
 11
275.4868790910052
 21
462.2801414695948
 31
0.0
  0
LINE
  5
11F
330
1F
100
AcDbEntity
  8
A-2_蓋
  6
Continuous
 62
     3
370
     9
100
AcDbLine
 10
265.4873409786742
 20
645.320286106419
 30
0.0
 11
265.4873409786742
 21
462.2801414695948
 31
0.0
  0
LINE
  5
120
330
1F
100
AcDbEntity
  8
A-2_蓋
  6
Continuous
 62
     3
370
     9
100
AcDbLine
 10
215.4876708984375
 20
645.320286106419
 30
0.0
 11
215.4876708984375
 21
462.2801414695948
 31
0.0
  0
LINE
  5
121
330
1F
100
AcDbEntity
  8
A-2_蓋
  6
Continuous
 62
     3
370
     9
100
AcDbLine
 10
205.4891225453972
 20
645.320286106419
 30
0.0
 11
205.4891225453972
 21
462.2801414695948
 31
0.0
  0
LINE
  5
122
330
1F
100
AcDbEntity
  8
A-2_蓋
  6
Continuous
 62
     3
370
     9
100
AcDbLine
 10
155.4874729465794
 20
645.320286106419
 30
0.0
 11
155.4874729465794
 21
462.2801414695948
 31
0.0
  0
LINE
  5
123
330
1F
100
AcDbEntity
  8
A-2_蓋
  6
Continuous
 62
     3
370
     9
100
AcDbLine
 10
145.4879348342484
 20
645.320286106419
 30
0.0
 11
145.4879348342484
 21
462.2801414695948
 31
0.0
  0
LINE
  5
124
330
1F
100
AcDbEntity
  8
A-2_蓋
  6
Continuous
 62
     3
370
     9
100
AcDbLine
 10
395.4872749947214
 20
803.800048828125
 30
0.0
 11
395.4872749947214
 21
-96.20044605152032
 31
0.0
  0
LINE
  5
125
330
1F
100
AcDbEntity
  8
A-2_蓋
  6
Continuous
 62
     3
370
     9
100
AcDbLine
 10
385.4877368823904
 20
645.320286106419
 30
0.0
 11
385.4877368823904
 21
462.2801414695948
 31
0.0
  0
LINE
  5
126
330
1F
100
AcDbEntity
  8
A-2_蓋
  6
Continuous
 62
     3
370
     9
100
AcDbLine
 10
-1594.513351852829
 20
445.3199974266261
 30
0.0
 11
395.4872749947214
 21
445.3199974266261
 31
0.0
  0
LINE
  5
127
330
1F
100
AcDbEntity
  8
A-2_蓋
  6
Continuous
 62
     3
370
     9
100
AcDbLine
 10
-1594.513351852829
 20
462.281007508974
 30
0.0
 11
395.4872749947214
 21
462.281007508974
 31
0.0
  0
LINE
  5
128
330
1F
100
AcDbEntity
  8
A-2_蓋
  6
Continuous
 62
     3
370
     9
100
AcDbLine
 10
395.4872749947214
 20
462.281007508974
 30
0.0
 11
335.4870770428633
 21
445.3199974266261
 31
0.0
  0
LINE
  5
129
330
1F
100
AcDbEntity
  8
A-2_蓋
  6
Continuous
 62
     3
370
     9
100
AcDbLine
 10
335.4870770428633
 20
462.281007508974
 30
0.0
 11
275.4868790910052
 21
445.3199974266261
 31
0.0
  0
LINE
  5
12A
330
1F
100
AcDbEntity
  8
A-2_蓋
  6
Continuous
 62
     3
370
     9
100
AcDbLine
 10
275.4878688502959
 20
462.281007508974
 30
0.0
 11
215.4876708984375
 21
445.3199974266261
 31
0.0
  0
LINE
  5
12B
330
1F
100
AcDbEntity
  8
A-2_蓋
  6
Continuous
 62
     3
370
     9
100
AcDbLine
 10
215.4876708984375
 20
462.281007508974
 30
0.0
 11
155.4874729465794
 21
445.3199974266261
 31
0.0
  0
LINE
  5
12C
330
1F
100
AcDbEntity
  8
A-2_蓋
  6
Continuous
 62
     3
370
     9
100
AcDbLine
 10
155.4874729465794
 20
462.281007508974
 30
0.0
 11
95.4870275548987
 21
445.3199974266261
 31
0.0
  0
LINE
  5
12D
330
1F
100
AcDbEntity
  8
A-2_蓋
  6
Continuous
 62
     3
370
     9
100
AcDbLine
 10
95.4870275548987
 20
462.281007508974
 30
0.0
 11
35.48658216321797
 21
445.3199974266261
 31
0.0
  0
LINE
  5
12E
330
1F
100
AcDbEntity
  8
A-2_蓋
  6
Continuous
 62
     3
370
     9
100
AcDbLine
 10
35.48757192250861
 20
462.281007508974
 30
0.0
 11
-24.51262602934946
 21
445.3199974266261
 31
0.0
  0
LINE
  5
12F
330
1F
100
AcDbEntity
  8
A-2_蓋
  6
Continuous
 62
     3
370
     9
100
AcDbLine
 10
-24.51262602934946
 20
462.281007508974
 30
0.0
 11
-84.51282398120753
 21
445.3199974266261
 31
0.0
  0
LINE
  5
130
330
1F
100
AcDbEntity
  8
A-2_蓋
  6
Continuous
 62
     3
370
     9
100
AcDbLine
 10
-84.51282398120753
 20
462.281007508974
 30
0.0
 11
-144.5130219330659
 21
445.3199974266261
 31
0.0
  0
LINE
  5
131
330
1F
100
AcDbEntity
  8
A-2_蓋
  6
Continuous
 62
     3
370
     9
100
AcDbLine
 10
-144.5120321737753
 20
462.281007508974
 30
0.0
 11
-204.5134673247466
 21
445.3199974266261
 31
0.0
  0
LINE
  5
132
330
1F
100
AcDbEntity
  8
A-2_蓋
  6
Continuous
 62
     3
370
     9
100
AcDbLine
 10
-204.512477565456
 20
462.281007508974
 30
0.0
 11
-264.5126755173141
 21
445.3199974266261
 31
0.0
  0
LINE
  5
133
330
1F
100
AcDbEntity
  8
A-2_蓋
  6
Continuous
 62
     3
370
     9
100
AcDbLine
 10
-264.5126755173141
 20
462.281007508974
 30
0.0
 11
-324.5128734691721
 21
445.3199974266261
 31
0.0
  0
LINE
  5
134
330
1F
100
AcDbEntity
  8
A-2_蓋
  6
Continuous
 62
     3
370
     9
100
AcDbLine
 10
-324.5128734691721
 20
462.281007508974
 30
0.0
 11
-384.5131951409417
 21
445.3199974266261
 31
0.0
  0
LINE
  5
135
330
1F
100
AcDbEntity
  8
A-2_蓋
  6
Continuous
 62
     3
370
     9
100
AcDbLine
 10
-384.5131951409417
 20
462.281007508974
 30
0.0
 11
-444.5125270534206
 21
445.3199974266261
 31
0.0
  0
LINE
  5
136
330
1F
100
AcDbEntity
  8
A-2_蓋
  6
Continuous
 62
     3
370
     9
100
AcDbLine
 10
-444.5125270534206
 20
462.281007508974
 30
0.0
 11
-504.5128487251898
 21
445.3199974266261
 31
0.0
  0
LINE
  5
137
330
1F
100
AcDbEntity
  8
A-2_蓋
  6
Continuous
 62
     3
370
     9
100
AcDbLine
 10
-504.5128487251898
 20
462.281007508974
 30
0.0
 11
-564.5130466770481
 21
445.3199974266261
 31
0.0
  0
LINE
  5
138
330
1F
100
AcDbEntity
  8
A-2_蓋
  6
Continuous
 62
     3
370
     9
100
AcDbLine
 10
-564.5130466770481
 20
462.281007508974
 30
0.0
 11
-624.5133683488175
 21
445.3199974266261
 31
0.0
  0
LINE
  5
139
330
1F
100
AcDbEntity
  8
A-2_蓋
  6
Continuous
 62
     3
370
     9
100
AcDbLine
 10
-624.5123785895269
 20
462.281007508974
 30
0.0
 11
-684.5135663006755
 21
445.3199974266261
 31
0.0
  0
LINE
  5
13A
330
1F
100
AcDbEntity
  8
A-2_蓋
  6
Continuous
 62
     3
370
     9
100
AcDbLine
 10
-684.5125765413852
 20
462.281007508974
 30
0.0
 11
-744.5128982131544
 21
445.3199974266261
 31
0.0
  0
LINE
  5
13B
330
1F
100
AcDbEntity
  8
A-2_蓋
  6
Continuous
 62
     3
370
     9
100
AcDbLine
 10
-744.5128982131544
 20
462.281007508974
 30
0.0
 11
-804.513219884924
 21
445.3199974266261
 31
0.0
  0
LINE
  5
13C
330
1F
100
AcDbEntity
  8
A-2_蓋
  6
Continuous
 62
     3
370
     9
100
AcDbLine
 10
-804.513219884924
 20
462.281007508974
 30
0.0
 11
-864.5134178367821
 21
445.3199974266261
 31
0.0
  0
LINE
  5
13D
330
1F
100
AcDbEntity
  8
A-2_蓋
  6
Continuous
 62
     3
370
     9
100
AcDbLine
 10
-864.5134178367821
 20
462.281007508974
 30
0.0
 11
-924.5126260293496
 21
445.3199974266261
 31
0.0
  0
LINE
  5
13E
330
1F
100
AcDbEntity
  8
A-2_蓋
  6
Continuous
 62
     3
370
     9
100
AcDbLine
 10
-924.5126260293496
 20
462.281007508974
 30
0.0
 11
-984.5130714210303
 21
445.3199974266261
 31
0.0
  0
LINE
  5
13F
330
1F
100
AcDbEntity
  8
A-2_蓋
  6
Continuous
 62
     3
370
     9
100
AcDbLine
 10
-984.5130714210303
 20
462.281007508974
 30
0.0
 11
-1044.513269372888
 21
445.3199974266261
 31
0.0
  0
LINE
  5
140
330
1F
100
AcDbEntity
  8
A-2_蓋
  6
Continuous
 62
     3
370
     9
100
AcDbLine
 10
-1044.513269372888
 20
462.281007508974
 30
0.0
 11
-1104.513591044658
 21
445.3199974266261
 31
0.0
  0
LINE
  5
141
330
1F
100
AcDbEntity
  8
A-2_蓋
  6
Continuous
 62
     3
370
     9
100
AcDbLine
 10
-1104.512601285367
 20
462.281007508974
 30
0.0
 11
-1164.513912716427
 21
445.3199974266261
 31
0.0
  0
LINE
  5
142
330
1F
100
AcDbEntity
  8
A-2_蓋
  6
Continuous
 62
     3
370
     9
100
AcDbLine
 10
-1164.512922957137
 20
462.281007508974
 30
0.0
 11
-1224.513120908995
 21
445.3199974266261
 31
0.0
  0
LINE
  5
143
330
1F
100
AcDbEntity
  8
A-2_蓋
  6
Continuous
 62
     3
370
     9
100
AcDbLine
 10
-1224.513120908995
 20
462.281007508974
 30
0.0
 11
-1284.512329101562
 21
445.3199974266261
 31
0.0
  0
LINE
  5
144
330
1F
100
AcDbEntity
  8
A-2_蓋
  6
Continuous
 62
     3
370
     9
100
AcDbLine
 10
-1284.512329101562
 20
462.281007508974
 30
0.0
 11
-1344.513764252534
 21
445.3199974266261
 31
0.0
  0
LINE
  5
145
330
1F
100
AcDbEntity
  8
A-2_蓋
  6
Continuous
 62
     3
370
     9
100
AcDbLine
 10
-1344.513764252534
 20
462.281007508974
 30
0.0
 11
-1404.512972445101
 21
445.3199974266261
 31
0.0
  0
LINE
  5
146
330
1F
100
AcDbEntity
  8
A-2_蓋
  6
Continuous
 62
     3
370
     9
100
AcDbLine
 10
-1404.512972445101
 20
462.281007508974
 30
0.0
 11
-1464.512180637669
 21
445.3199974266261
 31
0.0
  0
LINE
  5
147
330
1F
100
AcDbEntity
  8
A-2_蓋
  6
Continuous
 62
     3
370
     9
100
AcDbLine
 10
-1464.512180637669
 20
462.281007508974
 30
0.0
 11
-1524.51361578864
 21
445.3199974266261
 31
0.0
  0
LINE
  5
148
330
1F
100
AcDbEntity
  8
A-2_蓋
  6
Continuous
 62
     3
370
     9
100
AcDbLine
 10
-1524.51361578864
 20
462.281007508974
 30
0.0
 11
-1584.512823981208
 21
445.3199974266261
 31
0.0
  0
LINE
  5
149
330
1F
100
AcDbEntity
  8
A-2_蓋
  6
Continuous
 62
     3
370
     9
100
AcDbLine
 10
-1054.51280748522
 20
45.32003866659636
 30
0.0
 11
-1054.51280748522
 21
-87.20081226245782
 31
0.0
  0
LINE
  5
14A
330
1F
100
AcDbEntity
  8
A-2_蓋
  6
Continuous
 62
     3
370
     9
100
AcDbLine
 10
-1584.512823981208
 20
-87.20081226245782
 30
0.0
 11
-1584.512823981208
 21
45.32003866659636
 31
0.0
  0
LINE
  5
14B
330
1F
100
AcDbEntity
  8
A-2_蓋
  6
Continuous
 62
     3
370
     9
100
AcDbLine
 10
-1534.512164141681
 20
45.32003866659636
 30
0.0
 11
-1534.512164141681
 21
-87.20081226245782
 31
0.0
  0
LINE
  5
14C
330
1F
100
AcDbEntity
  8
A-2_蓋
  6
Continuous
 62
     3
370
     9
100
AcDbLine
 10
-1524.51361578864
 20
45.32003866659636
 30
0.0
 11
-1524.51361578864
 21
-87.20081226245782
 31
0.0
  0
LINE
  5
14D
330
1F
100
AcDbEntity
  8
A-2_蓋
  6
Continuous
 62
     3
370
     9
100
AcDbLine
 10
-1474.512955949113
 20
45.32003866659636
 30
0.0
 11
-1474.512955949113
 21
-87.20081226245782
 31
0.0
  0
LINE
  5
14E
330
1F
100
AcDbEntity
  8
A-2_蓋
  6
Continuous
 62
     3
370
     9
100
AcDbLine
 10
-1464.512180637669
 20
45.32003866659636
 30
0.0
 11
-1464.512180637669
 21
-87.20081226245782
 31
0.0
  0
LINE
  5
14F
330
1F
100
AcDbEntity
  8
A-2_蓋
  6
Continuous
 62
     3
370
     9
100
AcDbLine
 10
-1414.513500316723
 20
45.32003866659636
 30
0.0
 11
-1414.513500316723
 21
-87.20081226245782
 31
0.0
  0
LINE
  5
150
330
1F
100
AcDbEntity
  8
A-2_蓋
  6
Continuous
 62
     3
370
     9
100
AcDbLine
 10
-1404.512972445101
 20
45.32003866659636
 30
0.0
 11
-1404.512972445101
 21
-87.20081226245782
 31
0.0
  0
LINE
  5
151
330
1F
100
AcDbEntity
  8
A-2_蓋
  6
Continuous
 62
     3
370
     9
100
AcDbLine
 10
-1354.512312605575
 20
45.32003866659636
 30
0.0
 11
-1354.512312605575
 21
-87.20081226245782
 31
0.0
  0
LINE
  5
152
330
1F
100
AcDbEntity
  8
A-2_蓋
  6
Continuous
 62
     3
370
     9
100
AcDbLine
 10
-1344.513764252534
 20
45.32003866659636
 30
0.0
 11
-1344.513764252534
 21
-87.20081226245782
 31
0.0
  0
LINE
  5
153
330
1F
100
AcDbEntity
  8
A-2_蓋
  6
Continuous
 62
     3
370
     9
100
AcDbLine
 10
-1294.512856973184
 20
45.32003866659636
 30
0.0
 11
-1294.512856973184
 21
-87.20081226245782
 31
0.0
  0
LINE
  5
154
330
1F
100
AcDbEntity
  8
A-2_蓋
  6
Continuous
 62
     3
370
     9
100
AcDbLine
 10
-1284.512329101562
 20
45.32003866659636
 30
0.0
 11
-1284.512329101562
 21
-87.20081226245782
 31
0.0
  0
LINE
  5
155
330
1F
100
AcDbEntity
  8
A-2_蓋
  6
Continuous
 62
     3
370
     9
100
AcDbLine
 10
-1104.513591044658
 20
45.32003866659636
 30
0.0
 11
-1104.513591044658
 21
-87.20081226245782
 31
0.0
  0
LINE
  5
156
330
1F
100
AcDbEntity
  8
A-2_蓋
  6
Continuous
 62
     3
370
     9
100
AcDbLine
 10
-1114.513129156989
 20
45.32003866659636
 30
0.0
 11
-1114.513129156989
 21
-87.20081226245782
 31
0.0
  0
LINE
  5
157
330
1F
100
AcDbEntity
  8
A-2_蓋
  6
Continuous
 62
     3
370
     9
100
AcDbLine
 10
-1164.513912716427
 20
45.32003866659636
 30
0.0
 11
-1164.513912716427
 21
-87.20081226245782
 31
0.0
  0
LINE
  5
158
330
1F
100
AcDbEntity
  8
A-2_蓋
  6
Continuous
 62
     3
370
     9
100
AcDbLine
 10
-1174.512461069468
 20
45.32003866659636
 30
0.0
 11
-1174.512461069468
 21
-87.20081226245782
 31
0.0
  0
LINE
  5
159
330
1F
100
AcDbEntity
  8
A-2_蓋
  6
Continuous
 62
     3
370
     9
100
AcDbLine
 10
-1224.513120908995
 20
45.32003866659636
 30
0.0
 11
-1224.513120908995
 21
-87.20081226245782
 31
0.0
  0
LINE
  5
15A
330
1F
100
AcDbEntity
  8
A-2_蓋
  6
Continuous
 62
     3
370
     9
100
AcDbLine
 10
-1234.511669262035
 20
45.32003866659636
 30
0.0
 11
-1234.511669262035
 21
-87.20081226245782
 31
0.0
  0
LINE
  5
15B
330
1F
100
AcDbEntity
  8
A-2_蓋
  6
Continuous
 62
     3
370
     9
100
AcDbLine
 10
-864.5134178367821
 20
45.32003866659636
 30
0.0
 11
-864.5134178367821
 21
-87.20081226245782
 31
0.0
  0
LINE
  5
15C
330
1F
100
AcDbEntity
  8
A-2_蓋
  6
Continuous
 62
     3
370
     9
100
AcDbLine
 10
-874.5129559491131
 20
45.32003866659636
 30
0.0
 11
-874.5129559491131
 21
-87.20081226245782
 31
0.0
  0
LINE
  5
15D
330
1F
100
AcDbEntity
  8
A-2_蓋
  6
Continuous
 62
     3
370
     9
100
AcDbLine
 10
-924.5126260293496
 20
45.32003866659636
 30
0.0
 11
-924.5126260293496
 21
-87.20081226245782
 31
0.0
  0
LINE
  5
15E
330
1F
100
AcDbEntity
  8
A-2_蓋
  6
Continuous
 62
     3
370
     9
100
AcDbLine
 10
-934.5132776208825
 20
45.32003866659636
 30
0.0
 11
-934.5132776208825
 21
-87.20081226245782
 31
0.0
  0
LINE
  5
15F
330
1F
100
AcDbEntity
  8
A-2_蓋
  6
Continuous
 62
     3
370
     9
100
AcDbLine
 10
-984.5130714210303
 20
45.32003866659636
 30
0.0
 11
-984.5130714210303
 21
-87.20081226245782
 31
0.0
  0
LINE
  5
160
330
1F
100
AcDbEntity
  8
A-2_蓋
  6
Continuous
 62
     3
370
     9
100
AcDbLine
 10
-994.5126095333615
 20
45.32003866659636
 30
0.0
 11
-994.5126095333615
 21
-87.20081226245782
 31
0.0
  0
LINE
  5
161
330
1F
100
AcDbEntity
  8
A-2_蓋
  6
Continuous
 62
     3
370
     9
100
AcDbLine
 10
-684.5135663006755
 20
45.32003866659636
 30
0.0
 11
-684.5135663006755
 21
-87.20081226245782
 31
0.0
  0
LINE
  5
162
330
1F
100
AcDbEntity
  8
A-2_蓋
  6
Continuous
 62
     3
370
     9
100
AcDbLine
 10
-694.5121146537161
 20
45.32003866659636
 30
0.0
 11
-694.5121146537161
 21
-87.20081226245782
 31
0.0
  0
LINE
  5
163
330
1F
100
AcDbEntity
  8
A-2_蓋
  6
Continuous
 62
     3
370
     9
100
AcDbLine
 10
-624.5133683488175
 20
45.32003866659636
 30
0.0
 11
-624.5133683488175
 21
-87.20081226245782
 31
0.0
  0
LINE
  5
164
330
1F
100
AcDbEntity
  8
A-2_蓋
  6
Continuous
 62
     3
370
     9
100
AcDbLine
 10
-634.5129064611488
 20
45.32003866659636
 30
0.0
 11
-634.5129064611488
 21
-87.20081226245782
 31
0.0
  0
LINE
  5
165
330
1F
100
AcDbEntity
  8
A-2_蓋
  6
Continuous
 62
     3
370
     9
100
AcDbLine
 10
-804.513219884924
 20
45.32003866659636
 30
0.0
 11
-804.513219884924
 21
-87.20081226245782
 31
0.0
  0
LINE
  5
166
330
1F
100
AcDbEntity
  8
A-2_蓋
  6
Continuous
 62
     3
370
     9
100
AcDbLine
 10
-814.512757997255
 20
45.32003866659636
 30
0.0
 11
-814.512757997255
 21
-87.20081226245782
 31
0.0
  0
LINE
  5
167
330
1F
100
AcDbEntity
  8
A-2_蓋
  6
Continuous
 62
     3
370
     9
100
AcDbLine
 10
-744.5128982131544
 20
45.32003866659636
 30
0.0
 11
-744.5128982131544
 21
-87.20081226245782
 31
0.0
  0
LINE
  5
168
330
1F
100
AcDbEntity
  8
A-2_蓋
  6
Continuous
 62
     3
370
     9
100
AcDbLine
 10
-754.5125600453969
 20
45.32003866659636
 30
0.0
 11
-754.5125600453969
 21
-87.20081226245782
 31
0.0
  0
LINE
  5
169
330
1F
100
AcDbEntity
  8
A-2_蓋
  6
Continuous
 62
     3
370
     9
100
AcDbLine
 10
-1044.513269372888
 20
45.32003866659636
 30
0.0
 11
-1044.513269372888
 21
-87.20081226245782
 31
0.0
  0
LINE
  5
16A
330
1F
100
AcDbEntity
  8
A-2_蓋
  6
Continuous
 62
     3
370
     9
100
AcDbLine
 10
-444.5125270534206
 20
45.32003866659636
 30
0.0
 11
-444.5125270534206
 21
-87.20081226245782
 31
0.0
  0
LINE
  5
16B
330
1F
100
AcDbEntity
  8
A-2_蓋
  6
Continuous
 62
     3
370
     9
100
AcDbLine
 10
-454.5130549250422
 20
45.32003866659636
 30
0.0
 11
-454.5130549250422
 21
-87.20081226245782
 31
0.0
  0
LINE
  5
16C
330
1F
100
AcDbEntity
  8
A-2_蓋
  6
Continuous
 62
     3
370
     9
100
AcDbLine
 10
-504.5128487251898
 20
45.32003866659636
 30
0.0
 11
-504.5128487251898
 21
-87.20081226245782
 31
0.0
  0
LINE
  5
16D
330
1F
100
AcDbEntity
  8
A-2_蓋
  6
Continuous
 62
     3
370
     9
100
AcDbLine
 10
-514.5122631176096
 20
45.32003866659636
 30
0.0
 11
-514.5122631176096
 21
-87.20081226245782
 31
0.0
  0
LINE
  5
16E
330
1F
100
AcDbEntity
  8
A-2_蓋
  6
Continuous
 62
     3
370
     9
100
AcDbLine
 10
-564.5130466770481
 20
45.32003866659636
 30
0.0
 11
-564.5130466770481
 21
-87.20081226245782
 31
0.0
  0
LINE
  5
16F
330
1F
100
AcDbEntity
  8
A-2_蓋
  6
Continuous
 62
     3
370
     9
100
AcDbLine
 10
-574.5125847893792
 20
45.32003866659636
 30
0.0
 11
-574.5125847893792
 21
-87.20081226245782
 31
0.0
  0
LINE
  5
170
330
1F
100
AcDbEntity
  8
A-2_蓋
  6
Continuous
 62
     3
370
     9
100
AcDbLine
 10
-334.5124115815034
 20
45.32003866659636
 30
0.0
 11
-334.5124115815034
 21
-87.20081226245782
 31
0.0
  0
LINE
  5
171
330
1F
100
AcDbEntity
  8
A-2_蓋
  6
Continuous
 62
     3
370
     9
100
AcDbLine
 10
-384.5131951409417
 20
45.32003866659636
 30
0.0
 11
-384.5131951409417
 21
-87.20081226245782
 31
0.0
  0
LINE
  5
172
330
1F
100
AcDbEntity
  8
A-2_蓋
  6
Continuous
 62
     3
370
     9
100
AcDbLine
 10
-394.5128569731841
 20
45.32003866659636
 30
0.0
 11
-394.5128569731841
 21
-87.20081226245782
 31
0.0
  0
LINE
  5
173
330
1F
100
AcDbEntity
  8
A-2_蓋
  6
Continuous
 62
     3
370
     9
100
AcDbLine
 10
-324.5128734691721
 20
45.32003866659636
 30
0.0
 11
-324.5128734691721
 21
-87.20081226245782
 31
0.0
  0
LINE
  5
174
330
1F
100
AcDbEntity
  8
A-2_蓋
  6
Continuous
 62
     3
370
     9
100
AcDbLine
 10
-144.5130219330659
 20
45.32003866659636
 30
0.0
 11
-144.5130219330659
 21
-87.20081226245782
 31
0.0
  0
LINE
  5
175
330
1F
100
AcDbEntity
  8
A-2_蓋
  6
Continuous
 62
     3
370
     9
100
AcDbLine
 10
-154.5126837653081
 20
45.32003866659636
 30
0.0
 11
-154.5126837653081
 21
-87.20081226245782
 31
0.0
  0
LINE
  5
176
330
1F
100
AcDbEntity
  8
A-2_蓋
  6
Continuous
 62
     3
370
     9
100
AcDbLine
 10
-204.5134673247466
 20
45.32003866659636
 30
0.0
 11
-204.5134673247466
 21
-87.20081226245782
 31
0.0
  0
LINE
  5
177
330
1F
100
AcDbEntity
  8
A-2_蓋
  6
Continuous
 62
     3
370
     9
100
AcDbLine
 10
-214.5118919578758
 20
45.32003866659636
 30
0.0
 11
-214.5118919578758
 21
-87.20081226245782
 31
0.0
  0
LINE
  5
178
330
1F
100
AcDbEntity
  8
A-2_蓋
  6
Continuous
 62
     3
370
     9
100
AcDbLine
 10
95.4870275548987
 20
45.32003866659636
 30
0.0
 11
95.4870275548987
 21
-87.20081226245782
 31
0.0
  0
LINE
  5
179
330
1F
100
AcDbEntity
  8
A-2_蓋
  6
Continuous
 62
     3
370
     9
100
AcDbLine
 10
85.48724200274506
 20
45.32003866659636
 30
0.0
 11
85.48724200274506
 21
-87.20081226245782
 31
0.0
  0
LINE
  5
17A
330
1F
100
AcDbEntity
  8
A-2_蓋
  6
Continuous
 62
     3
370
     9
100
AcDbLine
 10
35.48658216321797
 20
45.32003866659636
 30
0.0
 11
35.48658216321797
 21
-87.20081226245782
 31
0.0
  0
LINE
  5
17B
330
1F
100
AcDbEntity
  8
A-2_蓋
  6
Continuous
 62
     3
370
     9
100
AcDbLine
 10
25.48704405088699
 20
45.32003866659636
 30
0.0
 11
25.48704405088699
 21
-87.20081226245782
 31
0.0
  0
LINE
  5
17C
330
1F
100
AcDbEntity
  8
A-2_蓋
  6
Continuous
 62
     3
370
     9
100
AcDbLine
 10
-24.51262602934946
 20
45.32003866659636
 30
0.0
 11
-24.51262602934946
 21
-87.20081226245782
 31
0.0
  0
LINE
  5
17D
330
1F
100
AcDbEntity
  8
A-2_蓋
  6
Continuous
 62
     3
370
     9
100
AcDbLine
 10
-34.51216414168073
 20
45.32003866659636
 30
0.0
 11
-34.51216414168073
 21
-87.20081226245782
 31
0.0
  0
LINE
  5
17E
330
1F
100
AcDbEntity
  8
A-2_蓋
  6
Continuous
 62
     3
370
     9
100
AcDbLine
 10
-84.51282398120753
 20
45.32003866659636
 30
0.0
 11
-84.51282398120753
 21
-87.20081226245782
 31
0.0
  0
LINE
  5
17F
330
1F
100
AcDbEntity
  8
A-2_蓋
  6
Continuous
 62
     3
370
     9
100
AcDbLine
 10
-94.5123620935388
 20
45.32003866659636
 30
0.0
 11
-94.5123620935388
 21
-87.20081226245782
 31
0.0
  0
LINE
  5
180
330
1F
100
AcDbEntity
  8
A-2_蓋
  6
Continuous
 62
     3
370
     9
100
AcDbLine
 10
155.4874729465794
 20
45.32003866659636
 30
0.0
 11
155.4874729465794
 21
-87.20081226245782
 31
0.0
  0
LINE
  5
181
330
1F
100
AcDbEntity
  8
A-2_蓋
  6
Continuous
 62
     3
370
     9
100
AcDbLine
 10
145.4879348342484
 20
45.32003866659636
 30
0.0
 11
145.4879348342484
 21
-87.20081226245782
 31
0.0
  0
LINE
  5
182
330
1F
100
AcDbEntity
  8
A-2_蓋
  6
Continuous
 62
     3
370
     9
100
AcDbLine
 10
-264.5126755173141
 20
45.32003866659636
 30
0.0
 11
-264.5126755173141
 21
-87.20081226245782
 31
0.0
  0
LINE
  5
183
330
1F
100
AcDbEntity
  8
A-2_蓋
  6
Continuous
 62
     3
370
     9
100
AcDbLine
 10
-274.512213629645
 20
45.32003866659636
 30
0.0
 11
-274.512213629645
 21
-87.20081226245782
 31
0.0
  0
LINE
  5
184
330
1F
100
AcDbEntity
  8
A-2_蓋
  6
Continuous
 62
     3
370
     9
100
AcDbLine
 10
335.4870770428633
 20
45.32003866659636
 30
0.0
 11
335.4870770428633
 21
-87.20081226245782
 31
0.0
  0
LINE
  5
185
330
1F
100
AcDbEntity
  8
A-2_蓋
  6
Continuous
 62
     3
370
     9
100
AcDbLine
 10
325.4875389305323
 20
45.32003866659636
 30
0.0
 11
325.4875389305323
 21
-87.20081226245782
 31
0.0
  0
LINE
  5
186
330
1F
100
AcDbEntity
  8
A-2_蓋
  6
Continuous
 62
     3
370
     9
100
AcDbLine
 10
275.4868790910052
 20
45.32003866659636
 30
0.0
 11
275.4868790910052
 21
-87.20081226245782
 31
0.0
  0
LINE
  5
187
330
1F
100
AcDbEntity
  8
A-2_蓋
  6
Continuous
 62
     3
370
     9
100
AcDbLine
 10
265.4873409786742
 20
45.32003866659636
 30
0.0
 11
265.4873409786742
 21
-87.20081226245782
 31
0.0
  0
LINE
  5
188
330
1F
100
AcDbEntity
  8
A-2_蓋
  6
Continuous
 62
     3
370
     9
100
AcDbLine
 10
215.4876708984375
 20
45.32003866659636
 30
0.0
 11
215.4876708984375
 21
-87.20081226245782
 31
0.0
  0
LINE
  5
189
330
1F
100
AcDbEntity
  8
A-2_蓋
  6
Continuous
 62
     3
370
     9
100
AcDbLine
 10
205.4891225453972
 20
45.32003866659636
 30
0.0
 11
205.4891225453972
 21
-87.20081226245782
 31
0.0
  0
LINE
  5
18A
330
1F
100
AcDbEntity
  8
A-2_蓋
  6
Continuous
 62
     3
370
     9
100
AcDbLine
 10
385.4877368823904
 20
45.32003866659636
 30
0.0
 11
385.4877368823904
 21
-87.20081226245782
 31
0.0
  0
LINE
  5
18B
330
1F
100
AcDbEntity
  8
A-2_蓋
  6
Continuous
 62
     3
370
     9
100
AcDbLine
 10
-1594.513351852829
 20
45.32003866659636
 30
0.0
 11
395.4872749947214
 21
45.32003866659636
 31
0.0
  0
LINE
  5
18C
330
1F
100
AcDbEntity
  8
A-2_蓋
  6
Continuous
 62
     3
370
     9
100
AcDbLine
 10
-1594.513351852829
 20
62.28080130912161
 30
0.0
 11
395.4872749947214
 21
62.28080130912161
 31
0.0
  0
LINE
  5
18D
330
1F
100
AcDbEntity
  8
A-2_蓋
  6
Continuous
 62
     3
370
     9
100
AcDbLine
 10
395.4872749947214
 20
62.28080130912161
 30
0.0
 11
335.4870770428633
 21
45.32003866659636
 31
0.0
  0
LINE
  5
18E
330
1F
100
AcDbEntity
  8
A-2_蓋
  6
Continuous
 62
     3
370
     9
100
AcDbLine
 10
335.4870770428633
 20
62.28080130912161
 30
0.0
 11
275.4868790910052
 21
45.32003866659636
 31
0.0
  0
LINE
  5
18F
330
1F
100
AcDbEntity
  8
A-2_蓋
  6
Continuous
 62
     3
370
     9
100
AcDbLine
 10
275.4878688502959
 20
62.28080130912161
 30
0.0
 11
215.4876708984375
 21
45.32003866659636
 31
0.0
  0
LINE
  5
190
330
1F
100
AcDbEntity
  8
A-2_蓋
  6
Continuous
 62
     3
370
     9
100
AcDbLine
 10
215.4876708984375
 20
62.28080130912161
 30
0.0
 11
155.4874729465794
 21
45.32003866659636
 31
0.0
  0
LINE
  5
191
330
1F
100
AcDbEntity
  8
A-2_蓋
  6
Continuous
 62
     3
370
     9
100
AcDbLine
 10
155.4874729465794
 20
62.28080130912161
 30
0.0
 11
95.4870275548987
 21
45.32003866659636
 31
0.0
  0
LINE
  5
192
330
1F
100
AcDbEntity
  8
A-2_蓋
  6
Continuous
 62
     3
370
     9
100
AcDbLine
 10
95.4870275548987
 20
62.28080130912161
 30
0.0
 11
35.48658216321797
 21
45.32003866659636
 31
0.0
  0
LINE
  5
193
330
1F
100
AcDbEntity
  8
A-2_蓋
  6
Continuous
 62
     3
370
     9
100
AcDbLine
 10
35.48757192250861
 20
62.28080130912161
 30
0.0
 11
-24.51262602934946
 21
45.32003866659636
 31
0.0
  0
LINE
  5
194
330
1F
100
AcDbEntity
  8
A-2_蓋
  6
Continuous
 62
     3
370
     9
100
AcDbLine
 10
-24.51262602934946
 20
62.28080130912161
 30
0.0
 11
-84.51282398120753
 21
45.32003866659636
 31
0.0
  0
LINE
  5
195
330
1F
100
AcDbEntity
  8
A-2_蓋
  6
Continuous
 62
     3
370
     9
100
AcDbLine
 10
-84.51282398120753
 20
62.28080130912161
 30
0.0
 11
-144.5130219330659
 21
45.32003866659636
 31
0.0
  0
LINE
  5
196
330
1F
100
AcDbEntity
  8
A-2_蓋
  6
Continuous
 62
     3
370
     9
100
AcDbLine
 10
-144.5120321737753
 20
62.28080130912161
 30
0.0
 11
-204.5134673247466
 21
45.32003866659636
 31
0.0
  0
LINE
  5
197
330
1F
100
AcDbEntity
  8
A-2_蓋
  6
Continuous
 62
     3
370
     9
100
AcDbLine
 10
-204.512477565456
 20
62.28080130912161
 30
0.0
 11
-264.5126755173141
 21
45.32003866659636
 31
0.0
  0
LINE
  5
198
330
1F
100
AcDbEntity
  8
A-2_蓋
  6
Continuous
 62
     3
370
     9
100
AcDbLine
 10
-264.5126755173141
 20
62.28080130912161
 30
0.0
 11
-324.5128734691721
 21
45.32003866659636
 31
0.0
  0
LINE
  5
199
330
1F
100
AcDbEntity
  8
A-2_蓋
  6
Continuous
 62
     3
370
     9
100
AcDbLine
 10
-324.5128734691721
 20
62.28080130912161
 30
0.0
 11
-384.5131951409417
 21
45.32003866659636
 31
0.0
  0
LINE
  5
19A
330
1F
100
AcDbEntity
  8
A-2_蓋
  6
Continuous
 62
     3
370
     9
100
AcDbLine
 10
-384.5131951409417
 20
62.28080130912161
 30
0.0
 11
-444.5125270534206
 21
45.32003866659636
 31
0.0
  0
LINE
  5
19B
330
1F
100
AcDbEntity
  8
A-2_蓋
  6
Continuous
 62
     3
370
     9
100
AcDbLine
 10
-444.5125270534206
 20
62.28080130912161
 30
0.0
 11
-504.5128487251898
 21
45.32003866659636
 31
0.0
  0
LINE
  5
19C
330
1F
100
AcDbEntity
  8
A-2_蓋
  6
Continuous
 62
     3
370
     9
100
AcDbLine
 10
-504.5128487251898
 20
62.28080130912161
 30
0.0
 11
-564.5130466770481
 21
45.32003866659636
 31
0.0
  0
LINE
  5
19D
330
1F
100
AcDbEntity
  8
A-2_蓋
  6
Continuous
 62
     3
370
     9
100
AcDbLine
 10
-564.5130466770481
 20
62.28080130912161
 30
0.0
 11
-624.5133683488175
 21
45.32003866659636
 31
0.0
  0
LINE
  5
19E
330
1F
100
AcDbEntity
  8
A-2_蓋
  6
Continuous
 62
     3
370
     9
100
AcDbLine
 10
-624.5123785895269
 20
62.28080130912161
 30
0.0
 11
-684.5135663006755
 21
45.32003866659636
 31
0.0
  0
LINE
  5
19F
330
1F
100
AcDbEntity
  8
A-2_蓋
  6
Continuous
 62
     3
370
     9
100
AcDbLine
 10
-684.5125765413852
 20
62.28080130912161
 30
0.0
 11
-744.5128982131544
 21
45.32003866659636
 31
0.0
  0
LINE
  5
1A0
330
1F
100
AcDbEntity
  8
A-2_蓋
  6
Continuous
 62
     3
370
     9
100
AcDbLine
 10
-744.5128982131544
 20
62.28080130912161
 30
0.0
 11
-804.513219884924
 21
45.32003866659636
 31
0.0
  0
LINE
  5
1A1
330
1F
100
AcDbEntity
  8
A-2_蓋
  6
Continuous
 62
     3
370
     9
100
AcDbLine
 10
-804.513219884924
 20
62.28080130912161
 30
0.0
 11
-864.5134178367821
 21
45.32003866659636
 31
0.0
  0
LINE
  5
1A2
330
1F
100
AcDbEntity
  8
A-2_蓋
  6
Continuous
 62
     3
370
     9
100
AcDbLine
 10
-864.5134178367821
 20
62.28080130912161
 30
0.0
 11
-924.5126260293496
 21
45.32003866659636
 31
0.0
  0
LINE
  5
1A3
330
1F
100
AcDbEntity
  8
A-2_蓋
  6
Continuous
 62
     3
370
     9
100
AcDbLine
 10
-924.5126260293496
 20
62.28080130912161
 30
0.0
 11
-984.5130714210303
 21
45.32003866659636
 31
0.0
  0
LINE
  5
1A4
330
1F
100
AcDbEntity
  8
A-2_蓋
  6
Continuous
 62
     3
370
     9
100
AcDbLine
 10
-984.5130714210303
 20
62.28080130912161
 30
0.0
 11
-1044.513269372888
 21
45.32003866659636
 31
0.0
  0
LINE
  5
1A5
330
1F
100
AcDbEntity
  8
A-2_蓋
  6
Continuous
 62
     3
370
     9
100
AcDbLine
 10
-1044.513269372888
 20
62.28080130912161
 30
0.0
 11
-1104.513591044658
 21
45.32003866659636
 31
0.0
  0
LINE
  5
1A6
330
1F
100
AcDbEntity
  8
A-2_蓋
  6
Continuous
 62
     3
370
     9
100
AcDbLine
 10
-1104.512601285367
 20
62.28080130912161
 30
0.0
 11
-1164.513912716427
 21
45.32003866659636
 31
0.0
  0
LINE
  5
1A7
330
1F
100
AcDbEntity
  8
A-2_蓋
  6
Continuous
 62
     3
370
     9
100
AcDbLine
 10
-1164.512922957137
 20
62.28080130912161
 30
0.0
 11
-1224.513120908995
 21
45.32003866659636
 31
0.0
  0
LINE
  5
1A8
330
1F
100
AcDbEntity
  8
A-2_蓋
  6
Continuous
 62
     3
370
     9
100
AcDbLine
 10
-1224.513120908995
 20
62.28080130912161
 30
0.0
 11
-1284.512329101562
 21
45.32003866659636
 31
0.0
  0
LINE
  5
1A9
330
1F
100
AcDbEntity
  8
A-2_蓋
  6
Continuous
 62
     3
370
     9
100
AcDbLine
 10
-1284.512329101562
 20
62.28080130912161
 30
0.0
 11
-1344.513764252534
 21
45.32003866659636
 31
0.0
  0
LINE
  5
1AA
330
1F
100
AcDbEntity
  8
A-2_蓋
  6
Continuous
 62
     3
370
     9
100
AcDbLine
 10
-1344.513764252534
 20
62.28080130912161
 30
0.0
 11
-1404.512972445101
 21
45.32003866659636
 31
0.0
  0
LINE
  5
1AB
330
1F
100
AcDbEntity
  8
A-2_蓋
  6
Continuous
 62
     3
370
     9
100
AcDbLine
 10
-1404.512972445101
 20
62.28080130912161
 30
0.0
 11
-1464.512180637669
 21
45.32003866659636
 31
0.0
  0
LINE
  5
1AC
330
1F
100
AcDbEntity
  8
A-2_蓋
  6
Continuous
 62
     3
370
     9
100
AcDbLine
 10
-1464.512180637669
 20
62.28080130912161
 30
0.0
 11
-1524.51361578864
 21
45.32003866659636
 31
0.0
  0
LINE
  5
1AD
330
1F
100
AcDbEntity
  8
A-2_蓋
  6
Continuous
 62
     3
370
     9
100
AcDbLine
 10
-1524.51361578864
 20
62.28080130912161
 30
0.0
 11
-1584.512823981208
 21
45.32003866659636
 31
0.0
  0
LINE
  5
1AE
330
1F
100
AcDbEntity
  8
A-2_蓋
  6
Continuous
 62
     3
370
     9
100
AcDbLine
 10
-1584.512823981208
 20
62.28080130912161
 30
0.0
 11
-1594.513351852829
 21
60.28025034311668
 31
0.0
  0
LINE
  5
1AF
330
1F
100
AcDbEntity
  8
A-0_通り芯
  6
Continuous
 62
     7
370
     9
100
AcDbLine
 10
253.6871832770271
 20
768.6734916068415
 30
0.0
 11
227.286838840794
 21
768.6734916068415
 31
0.0
  0
LINE
  5
1B0
330
1F
100
AcDbEntity
  8
A-0_通り芯
  6
Continuous
 62
     7
370
     9
100
AcDbLine
 10
262.5870988175677
 20
768.6734916068415
 30
0.0
 11
259.4871727195948
 21
768.6734916068415
 31
0.0
  0
LINE
  5
1B1
330
1F
100
AcDbEntity
  8
A-0_通り芯
  6
Continuous
 62
     7
370
     9
100
AcDbLine
 10
221.4870968380492
 20
768.6734916068415
 30
0.0
 11
218.387170740076
 21
768.6734916068415
 31
0.0
  0
LINE
  5
1B2
330
1F
100
AcDbEntity
  8
A-0_通り芯
  6
Continuous
 62
     7
370
     9
100
AcDbLine
 10
218.387170740076
 20
762.8735021642738
 30
0.0
 11
262.5870988175677
 21
762.8735021642738
 31
0.0
  0
LINE
  5
1B3
330
1F
100
AcDbEntity
  8
A-0_通り芯
  6
Continuous
 62
     7
370
     9
100
AcDbLine
 10
227.286838840794
 20
803.800048828125
 30
0.0
 11
227.286838840794
 21
808.7362258498734
 31
0.0
  0
LINE
  5
1B4
330
1F
100
AcDbEntity
  8
A-0_通り芯
  6
Continuous
 62
     7
370
     9
100
AcDbLine
 10
221.4870968380492
 20
808.7354835304054
 30
0.0
 11
221.4870968380492
 21
803.800048828125
 31
0.0
  0
LINE
  5
1B5
330
1F
100
AcDbEntity
  8
A-0_通り芯
  6
Continuous
 62
     7
370
     9
100
AcDbLine
 10
221.4870968380492
 20
794.8001675992401
 30
0.0
 11
221.4870968380492
 21
768.6734916068415
 31
0.0
  0
LINE
  5
1B6
330
1F
100
AcDbEntity
  8
A-0_通り芯
  6
Continuous
 62
     7
370
     9
100
AcDbLine
 10
253.6871832770271
 20
765.7737443253802
 30
0.0
 11
253.6871832770271
 21
794.8001675992401
 31
0.0
  0
LINE
  5
1B7
330
1F
100
AcDbEntity
  8
A-0_通り芯
  6
Continuous
 62
     7
370
     9
100
AcDbLine
 10
253.6871832770271
 20
803.800048828125
 30
0.0
 11
253.6871832770271
 21
808.7354835304054
 31
0.0
  0
LINE
  5
1B8
330
1F
100
AcDbEntity
  8
A-0_通り芯
  6
Continuous
 62
     7
370
     9
100
AcDbLine
 10
259.4871727195948
 20
808.7362258498734
 30
0.0
 11
259.4871727195948
 21
803.800048828125
 31
0.0
  0
LINE
  5
1B9
330
1F
100
AcDbEntity
  8
A-0_通り芯
  6
Continuous
 62
     7
370
     9
100
AcDbLine
 10
259.4871727195948
 20
794.8001675992401
 30
0.0
 11
259.4871727195948
 21
768.6734916068415
 31
0.0
  0
LINE
  5
1BA
330
1F
100
AcDbEntity
  8
A-0_通り芯
  6
Continuous
 62
     7
370
     9
100
AcDbLine
 10
259.4871727195948
 20
783.8737199113177
 30
0.0
 11
253.6871832770271
 21
783.8737199113177
 31
0.0
  0
LINE
  5
1BB
330
1F
100
AcDbEntity
  8
A-0_通り芯
  6
Continuous
 62
     7
370
     9
100
AcDbLine
 10
227.286838840794
 20
783.8737199113177
 30
0.0
 11
221.4870968380492
 21
783.8737199113177
 31
0.0
  0
LINE
  5
1BC
330
1F
100
AcDbEntity
  8
A-0_通り芯
  6
Continuous
 62
     7
370
     9
100
AcDbLine
 10
-1452.713260135135
 20
768.6734916068415
 30
0.0
 11
-1426.312668259079
 21
768.6734916068415
 31
0.0
  0
LINE
  5
1BD
330
1F
100
AcDbEntity
  8
A-0_通り芯
  6
Continuous
 62
     7
370
     9
100
AcDbLine
 10
-1461.612928235853
 20
768.6734916068415
 30
0.0
 11
-1458.51300213788
 21
768.6734916068415
 31
0.0
  0
LINE
  5
1BE
330
1F
100
AcDbEntity
  8
A-0_通り芯
  6
Continuous
 62
     7
370
     9
100
AcDbLine
 10
-1420.512926256334
 20
768.6734916068415
 30
0.0
 11
-1417.413247598184
 21
768.6734916068415
 31
0.0
  0
LINE
  5
1BF
330
1F
100
AcDbEntity
  8
A-0_通り芯
  6
Continuous
 62
     7
370
     9
100
AcDbLine
 10
-1417.413247598184
 20
762.8735021642738
 30
0.0
 11
-1461.612928235853
 21
762.8735021642738
 31
0.0
  0
LINE
  5
1C0
330
1F
100
AcDbEntity
  8
A-0_通り芯
  6
Continuous
 62
     7
370
     9
100
AcDbLine
 10
-1426.312668259079
 20
765.7737443253802
 30
0.0
 11
-1426.312668259079
 21
794.8001675992401
 31
0.0
  0
LINE
  5
1C1
330
1F
100
AcDbEntity
  8
A-0_通り芯
  6
Continuous
 62
     7
370
     9
100
AcDbLine
 10
-1426.312668259079
 20
803.800048828125
 30
0.0
 11
-1426.312668259079
 21
808.7362258498734
 31
0.0
  0
LINE
  5
1C2
330
1F
100
AcDbEntity
  8
A-0_通り芯
  6
Continuous
 62
     7
370
     9
100
AcDbLine
 10
-1420.512926256334
 20
808.7354835304054
 30
0.0
 11
-1420.512926256334
 21
803.800048828125
 31
0.0
  0
LINE
  5
1C3
330
1F
100
AcDbEntity
  8
A-0_通り芯
  6
Continuous
 62
     7
370
     9
100
AcDbLine
 10
-1420.512926256334
 20
794.8001675992401
 30
0.0
 11
-1420.512926256334
 21
768.6734916068415
 31
0.0
  0
LINE
  5
1C4
330
1F
100
AcDbEntity
  8
A-0_通り芯
  6
Continuous
 62
     7
370
     9
100
AcDbLine
 10
-1452.713260135135
 20
765.7737443253802
 30
0.0
 11
-1452.713260135135
 21
794.8001675992401
 31
0.0
  0
LINE
  5
1C5
330
1F
100
AcDbEntity
  8
A-0_通り芯
  6
Continuous
 62
     7
370
     9
100
AcDbLine
 10
-1458.51300213788
 20
794.8001675992401
 30
0.0
 11
-1458.51300213788
 21
768.6734916068415
 31
0.0
  0
LINE
  5
1C6
330
1F
100
AcDbEntity
  8
A-0_通り芯
  6
Continuous
 62
     7
370
     9
100
AcDbLine
 10
-1458.51300213788
 20
783.8737199113177
 30
0.0
 11
-1452.713260135135
 21
783.8737199113177
 31
0.0
  0
LINE
  5
1C7
330
1F
100
AcDbEntity
  8
A-0_通り芯
  6
Continuous
 62
     7
370
     9
100
AcDbLine
 10
-1426.312668259079
 20
783.8737199113177
 30
0.0
 11
-1420.512926256334
 21
783.8737199113177
 31
0.0
  0
LINE
  5
1C8
330
1F
100
AcDbEntity
  8
A-0_通り芯
  6
Continuous
 62
     7
370
     9
100
AcDbLine
 10
227.286838840794
 20
765.7737443253802
 30
0.0
 11
227.286838840794
 21
794.8001675992401
 31
0.0
  0
LINE
  5
1C9
330
1F
100
AcDbEntity
  8
A-0_通り芯
  6
Continuous
 62
     7
370
     9
100
AcDbLine
 10
-1452.713260135135
 20
803.800048828125
 30
0.0
 11
-1452.713260135135
 21
808.7357309702281
 31
0.0
  0
LINE
  5
1CA
330
1F
100
AcDbEntity
  8
A-0_通り芯
  6
Continuous
 62
     7
370
     9
100
AcDbLine
 10
-1458.51300213788
 20
808.7362258498734
 30
0.0
 11
-1458.51300213788
 21
803.800048828125
 31
0.0
  0
LINE
  5
1CB
330
1F
100
AcDbEntity
  8
A-0_通り芯
  6
Continuous
 62
     7
370
     9
100
AcDbLine
 10
253.6871832770271
 20
-61.07401255014764
 30
0.0
 11
227.286838840794
 21
-61.07401255014764
 31
0.0
  0
LINE
  5
1CC
330
1F
100
AcDbEntity
  8
A-0_通り芯
  6
Continuous
 62
     7
370
     9
100
AcDbLine
 10
262.5870988175677
 20
-61.07401255014764
 30
0.0
 11
259.4871727195948
 21
-61.07401255014764
 31
0.0
  0
LINE
  5
1CD
330
1F
100
AcDbEntity
  8
A-0_通り芯
  6
Continuous
 62
     7
370
     9
100
AcDbLine
 10
221.4870968380492
 20
-61.07401255014764
 30
0.0
 11
218.387170740076
 21
-61.07401255014764
 31
0.0
  0
LINE
  5
1CE
330
1F
100
AcDbEntity
  8
A-0_通り芯
  6
Continuous
 62
     7
370
     9
100
AcDbLine
 10
218.387170740076
 20
-55.27402310758021
 30
0.0
 11
262.5870988175677
 21
-55.27402310758021
 31
0.0
  0
LINE
  5
1CF
330
1F
100
AcDbEntity
  8
A-0_通り芯
  6
Continuous
 62
     7
370
     9
100
AcDbLine
 10
227.286838840794
 20
-96.2005697714315
 30
0.0
 11
227.286838840794
 21
-101.13674679318
 31
0.0
  0
LINE
  5
1D0
330
1F
100
AcDbEntity
  8
A-0_通り芯
  6
Continuous
 62
     7
370
     9
100
AcDbLine
 10
221.4870968380492
 20
-101.136004473712
 30
0.0
 11
221.4870968380492
 21
-96.2005697714315
 31
0.0
  0
LINE
  5
1D1
330
1F
100
AcDbEntity
  8
A-0_通り芯
  6
Continuous
 62
     7
370
     9
100
AcDbLine
 10
221.4870968380492
 20
-87.20068854254635
 30
0.0
 11
221.4870968380492
 21
-61.07401255014764
 31
0.0
  0
LINE
  5
1D2
330
1F
100
AcDbEntity
  8
A-0_通り芯
  6
Continuous
 62
     7
370
     9
100
AcDbLine
 10
253.6871832770271
 20
-58.17426526868644
 30
0.0
 11
253.6871832770271
 21
-87.20068854254635
 31
0.0
  0
LINE
  5
1D3
330
1F
100
AcDbEntity
  8
A-0_通り芯
  6
Continuous
 62
     7
370
     9
100
AcDbLine
 10
253.6871832770271
 20
-96.2005697714315
 30
0.0
 11
253.6871832770271
 21
-101.136004473712
 31
0.0
  0
LINE
  5
1D4
330
1F
100
AcDbEntity
  8
A-0_通り芯
  6
Continuous
 62
     7
370
     9
100
AcDbLine
 10
259.4871727195948
 20
-101.13674679318
 30
0.0
 11
259.4871727195948
 21
-96.2005697714315
 31
0.0
  0
LINE
  5
1D5
330
1F
100
AcDbEntity
  8
A-0_通り芯
  6
Continuous
 62
     7
370
     9
100
AcDbLine
 10
259.4871727195948
 20
-87.20068854254635
 30
0.0
 11
259.4871727195948
 21
-61.07401255014764
 31
0.0
  0
LINE
  5
1D6
330
1F
100
AcDbEntity
  8
A-0_通り芯
  6
Continuous
 62
     7
370
     9
100
AcDbLine
 10
259.4871727195948
 20
-76.27424085462394
 30
0.0
 11
253.6871832770271
 21
-76.27424085462394
 31
0.0
  0
LINE
  5
1D7
330
1F
100
AcDbEntity
  8
A-0_通り芯
  6
Continuous
 62
     7
370
     9
100
AcDbLine
 10
227.286838840794
 20
-76.27424085462394
 30
0.0
 11
221.4870968380492
 21
-76.27424085462394
 31
0.0
  0
LINE
  5
1D8
330
1F
100
AcDbEntity
  8
A-0_通り芯
  6
Continuous
 62
     7
370
     9
100
AcDbLine
 10
-1452.713260135135
 20
-61.07401255014764
 30
0.0
 11
-1426.312668259079
 21
-61.07401255014764
 31
0.0
  0
LINE
  5
1D9
330
1F
100
AcDbEntity
  8
A-0_通り芯
  6
Continuous
 62
     7
370
     9
100
AcDbLine
 10
-1461.612928235853
 20
-61.07401255014764
 30
0.0
 11
-1458.51300213788
 21
-61.07401255014764
 31
0.0
  0
LINE
  5
1DA
330
1F
100
AcDbEntity
  8
A-0_通り芯
  6
Continuous
 62
     7
370
     9
100
AcDbLine
 10
-1420.512926256334
 20
-61.07401255014764
 30
0.0
 11
-1417.413247598184
 21
-61.07401255014764
 31
0.0
  0
LINE
  5
1DB
330
1F
100
AcDbEntity
  8
A-0_通り芯
  6
Continuous
 62
     7
370
     9
100
AcDbLine
 10
-1417.413247598184
 20
-55.27402310758021
 30
0.0
 11
-1461.612928235853
 21
-55.27402310758021
 31
0.0
  0
LINE
  5
1DC
330
1F
100
AcDbEntity
  8
A-0_通り芯
  6
Continuous
 62
     7
370
     9
100
AcDbLine
 10
-1426.312668259079
 20
-58.17426526868644
 30
0.0
 11
-1426.312668259079
 21
-87.20068854254635
 31
0.0
  0
LINE
  5
1DD
330
1F
100
AcDbEntity
  8
A-0_通り芯
  6
Continuous
 62
     7
370
     9
100
AcDbLine
 10
-1426.312668259079
 20
-96.2005697714315
 30
0.0
 11
-1426.312668259079
 21
-101.13674679318
 31
0.0
  0
LINE
  5
1DE
330
1F
100
AcDbEntity
  8
A-0_通り芯
  6
Continuous
 62
     7
370
     9
100
AcDbLine
 10
-1420.512926256334
 20
-101.136004473712
 30
0.0
 11
-1420.512926256334
 21
-96.2005697714315
 31
0.0
  0
LINE
  5
1DF
330
1F
100
AcDbEntity
  8
A-0_通り芯
  6
Continuous
 62
     7
370
     9
100
AcDbLine
 10
-1420.512926256334
 20
-87.20068854254635
 30
0.0
 11
-1420.512926256334
 21
-61.07401255014764
 31
0.0
  0
LINE
  5
1E0
330
1F
100
AcDbEntity
  8
A-0_通り芯
  6
Continuous
 62
     7
370
     9
100
AcDbLine
 10
-1452.713260135135
 20
-58.17426526868644
 30
0.0
 11
-1452.713260135135
 21
-87.20068854254635
 31
0.0
  0
LINE
  5
1E1
330
1F
100
AcDbEntity
  8
A-0_通り芯
  6
Continuous
 62
     7
370
     9
100
AcDbLine
 10
-1458.51300213788
 20
-87.20068854254635
 30
0.0
 11
-1458.51300213788
 21
-61.07401255014764
 31
0.0
  0
LINE
  5
1E2
330
1F
100
AcDbEntity
  8
A-0_通り芯
  6
Continuous
 62
     7
370
     9
100
AcDbLine
 10
-1458.51300213788
 20
-76.27424085462394
 30
0.0
 11
-1452.713260135135
 21
-76.27424085462394
 31
0.0
  0
LINE
  5
1E3
330
1F
100
AcDbEntity
  8
A-0_通り芯
  6
Continuous
 62
     7
370
     9
100
AcDbLine
 10
-1426.312668259079
 20
-76.27424085462394
 30
0.0
 11
-1420.512926256334
 21
-76.27424085462394
 31
0.0
  0
LINE
  5
1E4
330
1F
100
AcDbEntity
  8
A-0_通り芯
  6
Continuous
 62
     7
370
     9
100
AcDbLine
 10
227.286838840794
 20
-58.17426526868644
 30
0.0
 11
227.286838840794
 21
-87.20068854254635
 31
0.0
  0
LINE
  5
1E5
330
1F
100
AcDbEntity
  8
A-0_通り芯
  6
Continuous
 62
     7
370
     9
100
AcDbLine
 10
-1452.713260135135
 20
-96.2005697714315
 30
0.0
 11
-1452.713260135135
 21
-101.1362519135346
 31
0.0
  0
LINE
  5
1E6
330
1F
100
AcDbEntity
  8
A-0_通り芯
  6
Continuous
 62
     7
370
     9
100
AcDbLine
 10
-1458.51300213788
 20
-101.13674679318
 30
0.0
 11
-1458.51300213788
 21
-96.2005697714315
 31
0.0
  0
LINE
  5
1E7
330
1F
100
AcDbEntity
  8
A-4_寸法
  6
Continuous
 62
     7
370
     9
100
AcDbLine
 10
-1613.513513513514
 20
964.9999175200594
 30
0.0
 11
414.4889212943414
 21
964.9999175200594
 31
0.0
  0
LINE
  5
1E8
330
1F
100
AcDbEntity
  8
A-4_寸法
  6
Continuous
 62
     7
370
     9
100
AcDbLine
 10
-1613.513513513514
 20
848.8001972920188
 30
0.0
 11
-1613.513513513514
 21
967.9998779296875
 31
0.0
  0
LINE
  5
1E9
330
1F
100
AcDbEntity
  8
A-4_寸法
  6
Continuous
 62
     7
370
     9
100
AcDbLine
 10
-1113.51223507443
 20
889.9999175200592
 30
0.0
 11
-1113.51223507443
 21
967.9998779296875
 31
0.0
  0
LINE
  5
1EA
330
1F
100
AcDbEntity
  8
A-4_寸法
  6
Continuous
 62
     7
370
     9
100
AcDbLine
 10
-85.511491105363
 20
889.9999175200592
 30
0.0
 11
-85.511491105363
 21
967.9998779296875
 31
0.0
  0
LINE
  5
1EB
330
1F
100
AcDbEntity
  8
A-4_寸法
  6
Continuous
 62
     7
370
     9
100
AcDbLine
 10
414.4889212943414
 20
848.8001972920188
 30
0.0
 11
414.4889212943414
 21
967.9998779296875
 31
0.0
  0
LINE
  5
1EC
330
1F
100
AcDbEntity
  8
A-4_寸法
  6
Continuous
 62
     7
370
     9
100
AcDbLine
 10
-1613.513513513514
 20
-141.199481036212
 30
0.0
 11
-1613.513513513514
 21
-340.4006628088048
 31
0.0
  0
LINE
  5
1ED
330
1F
100
AcDbEntity
  8
A-4_寸法
  6
Continuous
 62
     7
370
     9
100
AcDbLine
 10
-1601.513424435177
 20
-141.199481036212
 30
0.0
 11
-1601.513424435177
 21
-260.4006463128167
 31
0.0
  0
LINE
  5
1EE
330
1F
100
AcDbEntity
  8
A-4_寸法
  6
Continuous
 62
     7
370
     9
100
AcDbLine
 10
-1594.513351852829
 20
-121.2004048115497
 30
0.0
 11
-1594.513351852829
 21
-260.4006463128167
 31
0.0
  0
LINE
  5
1EF
330
1F
100
AcDbEntity
  8
A-4_寸法
  6
Continuous
 62
     7
370
     9
100
AcDbLine
 10
395.4872749947214
 20
-121.2004048115497
 30
0.0
 11
395.4872749947214
 21
-260.4006463128167
 31
0.0
  0
LINE
  5
1F0
330
1F
100
AcDbEntity
  8
A-4_寸法
  6
Continuous
 62
     7
370
     9
100
AcDbLine
 10
402.4890796558279
 20
-141.199481036212
 30
0.0
 11
402.4890796558279
 21
-260.4006463128167
 31
0.0
  0
LINE
  5
1F1
330
1F
100
AcDbEntity
  8
A-4_寸法
  6
Continuous
 62
     7
370
     9
100
AcDbLine
 10
414.4889212943414
 20
-141.199481036212
 30
0.0
 11
414.4889212943414
 21
-340.4006628088048
 31
0.0
  0
LINE
  5
1F2
330
1F
100
AcDbEntity
  8
A-4_寸法
  6
Continuous
 62
     7
370
     9
100
AcDbLine
 10
-1613.513513513514
 20
-337.4007023991765
 30
0.0
 11
414.4889212943414
 21
-337.4007023991765
 31
0.0
  0
LINE
  5
1F3
330
1F
100
AcDbEntity
  8
A-4_寸法
  6
Continuous
 62
     7
370
     9
100
AcDbLine
 10
-890.8448502824112
 20
803.800048828125
 30
0.0
 11
-887.5817376214104
 21
828.5860958614867
 31
0.0
  0
LINE
  5
1F4
330
1F
100
AcDbEntity
  8
A-4_寸法
  6
Continuous
 62
     7
370
     9
100
AcDbLine
 10
-890.8448502824112
 20
803.800048828125
 30
0.0
 11
-881.277713260135
 21
826.8970716321792
 31
0.0
  0
LINE
  5
1F5
330
1F
100
AcDbEntity
  8
A-4_寸法
  6
Continuous
 62
     7
370
     9
100
AcDbLine
 10
-1676.540395375845
 20
-257.4006859031883
 30
0.0
 11
481.7346521326016
 21
-257.4006859031883
 31
0.0
  0
LINE
  5
1F6
330
1F
100
AcDbEntity
  8
A-4_寸法
  6
Continuous
 62
     7
370
     9
100
AcDbLine
 10
-890.8448502824112
 20
803.800048828125
 30
0.0
 11
-777.9845779006544
 21
1225.000032991977
 31
0.0
  0
LINE
  5
1F7
330
1F
100
AcDbEntity
  8
A-4_寸法
  6
Continuous
 62
     7
370
     9
100
AcDbLine
 10
414.4889212943414
 20
614.4806238122891
 30
0.0
 11
424.0559345967063
 21
637.5776466163429
 31
0.0
  0
LINE
  5
1F8
330
1F
100
AcDbEntity
  8
A-4_寸法
  6
Continuous
 62
     7
370
     9
100
AcDbLine
 10
414.4889212943414
 20
614.4806238122891
 30
0.0
 11
429.707955025338
 21
634.3144102354307
 31
0.0
  0
LINE
  5
1F9
330
1F
100
AcDbEntity
  8
A-4_寸法
  6
Continuous
 62
     7
370
     9
100
AcDbLine
 10
414.4889212943414
 20
614.4806238122891
 30
0.0
 11
506.4722009607266
 21
773.8001972920188
 31
0.0
  0
LINE
  5
1FA
330
1F
100
AcDbEntity
  8
A-4_寸法
  6
Continuous
 62
     7
370
     9
100
AcDbLine
 10
506.4722009607266
 20
773.8001972920188
 30
0.0
 11
718.7040586729307
 21
773.8001972920188
 31
0.0
  0
LINE
  5
1FB
330
1F
100
AcDbEntity
  8
A-4_寸法
  6
Continuous
 62
     7
370
     9
100
AcDbLine
 10
240.4870110589107
 20
768.6734916068415
 30
0.0
 11
243.7504948796453
 21
793.4595386402029
 31
0.0
  0
LINE
  5
1FC
330
1F
100
AcDbEntity
  8
A-4_寸法
  6
Continuous
 62
     7
370
     9
100
AcDbLine
 10
240.4870110589107
 20
768.6734916068415
 30
0.0
 11
250.0540243612755
 21
791.7705144108953
 31
0.0
  0
LINE
  5
1FD
330
1F
100
AcDbEntity
  8
A-4_寸法
  6
Continuous
 62
     7
370
     9
100
AcDbLine
 10
240.4870110589107
 20
768.6734916068415
 30
0.0
 11
341.3231926995357
 21
1145.000016495989
 31
0.0
  0
LINE
  5
1FE
330
1F
100
AcDbEntity
  8
A-4_寸法
  6
Continuous
 62
     7
370
     9
100
AcDbLine
 10
341.3231926995357
 20
1145.000016495989
 30
0.0
 11
734.8448057432432
 21
1145.000016495989
 31
0.0
  0
LINE
  5
1FF
330
1F
100
AcDbEntity
  8
A-2_蓋
  6
Continuous
 62
     3
370
     9
100
AcDbLine
 10
-1584.512823981208
 20
462.281007508974
 30
0.0
 11
-1594.513351852829
 21
460.2804565429688
 31
0.0
  0
LINE
  5
200
330
1F
100
AcDbEntity
  8
A-4_寸法
  6
Continuous
 62
     7
370
     9
100
AcDbLine
 10
-777.9845779006544
 20
1225.000032991977
 30
0.0
 11
-305.0499993401604
 21
1225.000032991977
 31
0.0
  0
LINE
  5
201
330
1F
100
AcDbEntity
  8
A-4_寸法
  6
Continuous
 62
     7
370
     9
100
AcDbLine
 10
-744.5128982131544
 20
753.539824614654
 30
0.0
 11
-741.2497855521536
 21
778.3258716480154
 31
0.0
  0
LINE
  5
202
330
1F
100
AcDbEntity
  8
A-4_寸法
  6
Continuous
 62
     7
370
     9
100
AcDbLine
 10
-744.5128982131544
 20
753.539824614654
 30
0.0
 11
-734.9457611908783
 21
776.6368474187078
 31
0.0
  0
LINE
  5
203
330
1F
100
AcDbEntity
  8
A-4_寸法
  6
Continuous
 62
     7
370
     9
100
AcDbLine
 10
-744.5128982131544
 20
753.539824614654
 30
0.0
 11
-661.0573845940667
 21
1065.0
 31
0.0
  0
LINE
  5
204
330
1F
100
AcDbEntity
  8
A-4_寸法
  6
Continuous
 62
     7
370
     9
100
AcDbLine
 10
-661.0573845940667
 20
1065.0
 30
0.0
 11
-180.8866758604307
 21
1065.0
 31
0.0
  0
LINE
  5
205
330
1F
100
AcDbEntity
  8
A-4_寸法
  6
Continuous
 62
     7
370
     9
100
AcDbLine
 10
-723.5657563080658
 20
1145.000016495989
 30
0.0
 11
-346.050283071157
 21
1145.000016495989
 31
0.0
  0
LINE
  5
206
330
1F
100
AcDbEntity
  8
A-4_寸法
  6
Continuous
 62
     7
370
     9
100
AcDbLine
 10
-852.9105933936866
 20
662.2785743507179
 30
0.0
 11
-849.6474807326858
 21
687.0646213840794
 31
0.0
  0
LINE
  5
207
330
1F
100
AcDbEntity
  8
A-4_寸法
  6
Continuous
 62
     7
370
     9
100
AcDbLine
 10
-852.9105933936866
 20
662.2785743507179
 30
0.0
 11
-843.3434563714104
 21
685.3755971547721
 31
0.0
  0
LINE
  5
208
330
1F
100
AcDbEntity
  8
A-2_蓋
  6
Continuous
 62
     3
370
     9
100
AcDbLine
 10
1273.77170872044
 20
653.8002962679477
 30
0.0
 11
1265.286502322635
 21
645.3150898701438
 31
0.0
  0
LINE
  5
209
330
1F
100
AcDbEntity
  8
A-2_蓋
  6
Continuous
 62
     3
370
     9
100
AcDbLine
 10
1265.286502322635
 20
645.3150898701438
 30
0.0
 11
1256.801295924831
 21
653.8002962679477
 31
0.0
  0
LINE
  5
20A
330
1F
100
AcDbEntity
  8
A-2_蓋
  6
Continuous
 62
     3
370
     9
100
AcDbLine
 10
1256.801295924831
 20
653.8002962679477
 30
0.0
 11
1265.286502322635
 21
662.2855026657519
 31
0.0
  0
LINE
  5
20B
330
1F
100
AcDbEntity
  8
A-2_蓋
  6
Continuous
 62
     3
370
     9
100
AcDbLine
 10
1265.286502322635
 20
662.2855026657519
 30
0.0
 11
1273.77170872044
 21
653.8002962679477
 31
0.0
  0
LINE
  5
20C
330
1F
100
AcDbEntity
  8
A-2_蓋
  6
Continuous
 62
     3
370
     9
100
AcDbLine
 10
1256.801295924831
 20
803.800048828125
 30
0.0
 11
1306.800966005068
 21
803.800048828125
 31
0.0
  0
LINE
  5
20D
330
1F
100
AcDbEntity
  8
A-A
  6
Continuous
 62
     3
370
     9
100
AcDbLine
 10
1253.800840635558
 20
791.4909074113177
 30
0.0
 11
1256.801295924831
 21
792.5138236380915
 31
0.0
  0
LINE
  5
20E
330
1F
100
AcDbEntity
  8
A-A
  6
Continuous
 62
     3
370
     9
100
AcDbLine
 10
1253.800840635558
 20
791.4909074113177
 30
0.0
 11
1253.800840635558
 21
782.6761111697635
 31
0.0
  0
LINE
  5
20F
330
1F
100
AcDbEntity
  8
A-A
  6
Continuous
 62
     3
370
     9
100
AcDbLine
 10
1253.800840635558
 20
782.6761111697635
 30
0.0
 11
1256.801295924831
 21
781.6536898226352
 31
0.0
  0
LINE
  5
210
330
1F
100
AcDbEntity
  8
A-A
  6
Continuous
 62
     3
370
     9
100
AcDbLine
 10
1256.801295924831
 20
781.6536898226352
 30
0.0
 11
1256.801295924831
 21
771.427001953125
 31
0.0
  0
LINE
  5
211
330
1F
100
AcDbEntity
  8
A-A
  6
Continuous
 62
     3
370
     9
100
AcDbLine
 10
1253.800840635558
 20
770.4045806059967
 30
0.0
 11
1256.801295924831
 21
771.427001953125
 31
0.0
  0
LINE
  5
212
330
1F
100
AcDbEntity
  8
A-A
  6
Continuous
 62
     3
370
     9
100
AcDbLine
 10
1253.800840635558
 20
770.4045806059967
 30
0.0
 11
1253.800840635558
 21
757.3100651921453
 31
0.0
  0
LINE
  5
213
330
1F
100
AcDbEntity
  8
A-A
  6
Continuous
 62
     3
370
     9
100
AcDbLine
 10
1253.800840635558
 20
757.3100651921453
 30
0.0
 11
1256.801295924831
 21
756.2871489653717
 31
0.0
  0
LINE
  5
214
330
1F
100
AcDbEntity
  8
A-A
  6
Continuous
 62
     3
370
     9
100
AcDbLine
 10
1253.800840635558
 20
745.0382871885557
 30
0.0
 11
1253.800840635558
 21
736.2234909470019
 31
0.0
  0
LINE
  5
215
330
1F
100
AcDbEntity
  8
A-A
  6
Continuous
 62
     3
370
     9
100
AcDbLine
 10
1253.800840635558
 20
736.2234909470019
 30
0.0
 11
1256.801295924831
 21
735.2008221600508
 31
0.0
  0
LINE
  5
216
330
1F
100
AcDbEntity
  8
A-A
  6
Continuous
 62
     3
370
     9
100
AcDbLine
 10
1256.801295924831
 20
735.2008221600508
 30
0.0
 11
1256.801295924831
 21
724.974629170186
 31
0.0
  0
LINE
  5
217
330
1F
100
AcDbEntity
  8
A-A
  6
Continuous
 62
     3
370
     9
100
AcDbLine
 10
1253.800840635558
 20
723.9519603832349
 30
0.0
 11
1256.801295924831
 21
724.974629170186
 31
0.0
  0
LINE
  5
218
330
1F
100
AcDbEntity
  8
A-A
  6
Continuous
 62
     3
370
     9
100
AcDbLine
 10
1253.800840635558
 20
723.9519603832349
 30
0.0
 11
1253.800840635558
 21
710.857197529561
 31
0.0
  0
LINE
  5
219
330
1F
100
AcDbEntity
  8
A-A
  6
Continuous
 62
     3
370
     9
100
AcDbLine
 10
1253.800840635558
 20
710.857197529561
 30
0.0
 11
1256.801295924831
 21
709.8347761824325
 31
0.0
  0
LINE
  5
21A
330
1F
100
AcDbEntity
  8
A-A
  6
Continuous
 62
     3
370
     9
100
AcDbLine
 10
1253.800840635558
 20
745.0382871885557
 30
0.0
 11
1256.801295924831
 21
746.0609559755068
 31
0.0
  0
LINE
  5
21B
330
1F
100
AcDbEntity
  8
A-A
  6
Continuous
 62
     3
370
     9
100
AcDbLine
 10
1256.801295924831
 20
756.2871489653717
 30
0.0
 11
1256.801295924831
 21
746.0609559755068
 31
0.0
  0
LINE
  5
21C
330
1F
100
AcDbEntity
  8
A-A
  6
Continuous
 62
     3
370
     9
100
AcDbLine
 10
1253.800840635558
 20
698.585666965794
 30
0.0
 11
1253.800840635558
 21
689.7708707242401
 31
0.0
  0
LINE
  5
21D
330
1F
100
AcDbEntity
  8
A-A
  6
Continuous
 62
     3
370
     9
100
AcDbLine
 10
1253.800840635558
 20
689.7708707242401
 30
0.0
 11
1256.801295924831
 21
688.7484493771117
 31
0.0
  0
LINE
  5
21E
330
1F
100
AcDbEntity
  8
A-A
  6
Continuous
 62
     3
370
     9
100
AcDbLine
 10
1256.801295924831
 20
688.7484493771117
 30
0.0
 11
1256.801295924831
 21
678.5217615076016
 31
0.0
  0
LINE
  5
21F
330
1F
100
AcDbEntity
  8
A-A
  6
Continuous
 62
     3
370
     9
100
AcDbLine
 10
1253.800840635558
 20
677.4993401604731
 30
0.0
 11
1256.801295924831
 21
678.5217615076016
 31
0.0
  0
LINE
  5
220
330
1F
100
AcDbEntity
  8
A-A
  6
Continuous
 62
     3
370
     9
100
AcDbLine
 10
1253.800840635558
 20
677.4993401604731
 30
0.0
 11
1253.800840635558
 21
664.4043298669766
 31
0.0
  0
LINE
  5
221
330
1F
100
AcDbEntity
  8
A-A
  6
Continuous
 62
     3
370
     9
100
AcDbLine
 10
1253.800840635558
 20
664.4043298669766
 30
0.0
 11
1256.801295924831
 21
663.3819085198481
 31
0.0
  0
LINE
  5
222
330
1F
100
AcDbEntity
  8
A-A
  6
Continuous
 62
     3
370
     9
100
AcDbLine
 10
1253.800840635558
 20
698.585666965794
 30
0.0
 11
1256.801295924831
 21
699.6080883129224
 31
0.0
  0
LINE
  5
223
330
1F
100
AcDbEntity
  8
A-A
  6
Continuous
 62
     3
370
     9
100
AcDbLine
 10
1256.801295924831
 20
709.8347761824325
 30
0.0
 11
1256.801295924831
 21
699.6080883129224
 31
0.0
  0
LINE
  5
224
330
1F
100
AcDbEntity
  8
A-A
  6
Continuous
 62
     3
370
     9
100
AcDbLine
 10
1253.800840635558
 20
652.1327993032096
 30
0.0
 11
1253.800840635558
 21
643.3180030616554
 31
0.0
  0
LINE
  5
225
330
1F
100
AcDbEntity
  8
A-A
  6
Continuous
 62
     3
370
     9
100
AcDbLine
 10
1253.800840635558
 20
643.3180030616554
 30
0.0
 11
1256.801295924831
 21
642.2953342747044
 31
0.0
  0
LINE
  5
226
330
1F
100
AcDbEntity
  8
A-A
  6
Continuous
 62
     3
370
     9
100
AcDbLine
 10
1253.800840635558
 20
652.1327993032096
 30
0.0
 11
1256.801295924831
 21
653.155220650338
 31
0.0
  0
LINE
  5
227
330
1F
100
AcDbEntity
  8
A-A
  6
Continuous
 62
     3
370
     9
100
AcDbLine
 10
1256.801295924831
 20
663.3819085198481
 30
0.0
 11
1256.801295924831
 21
653.155220650338
 31
0.0
  0
LINE
  5
228
330
1F
100
AcDbEntity
  8
A-A
  6
Continuous
 62
     3
370
     9
100
AcDbLine
 10
1256.801295924831
 20
803.800048828125
 30
0.0
 11
1256.801295924831
 21
792.5138236380915
 31
0.0
  0
LINE
  5
229
330
1F
100
AcDbEntity
  8
A-A
  6
Continuous
 62
     3
370
     9
100
AcDbLine
 10
1256.801295924831
 20
642.2953342747044
 30
0.0
 11
1256.801295924831
 21
632.0688938450169
 31
0.0
  0
LINE
  5
22A
330
1F
100
AcDbEntity
  8
A-A
  6
Continuous
 62
     3
370
     9
100
AcDbLine
 10
1253.800840635558
 20
631.0459776182432
 30
0.0
 11
1256.801295924831
 21
632.0688938450169
 31
0.0
  0
LINE
  5
22B
330
1F
100
AcDbEntity
  8
A-A
  6
Continuous
 62
     3
370
     9
100
AcDbLine
 10
1253.800840635558
 20
631.0459776182432
 30
0.0
 11
1253.800840635558
 21
617.9517096442146
 31
0.0
  0
LINE
  5
22C
330
1F
100
AcDbEntity
  8
A-A
  6
Continuous
 62
     3
370
     9
100
AcDbLine
 10
1253.800840635558
 20
617.9517096442146
 30
0.0
 11
1256.801295924831
 21
616.9290408572635
 31
0.0
  0
LINE
  5
22D
330
1F
100
AcDbEntity
  8
A-A
  6
Continuous
 62
     3
370
     9
100
AcDbLine
 10
1253.800840635558
 20
605.679931640625
 30
0.0
 11
1253.800840635558
 21
596.865135399071
 31
0.0
  0
LINE
  5
22E
330
1F
100
AcDbEntity
  8
A-A
  6
Continuous
 62
     3
370
     9
100
AcDbLine
 10
1253.800840635558
 20
596.865135399071
 30
0.0
 11
1256.801295924831
 21
595.8427140519427
 31
0.0
  0
LINE
  5
22F
330
1F
100
AcDbEntity
  8
A-A
  6
Continuous
 62
     3
370
     9
100
AcDbLine
 10
1253.800840635558
 20
605.679931640625
 30
0.0
 11
1256.801295924831
 21
606.702600427576
 31
0.0
  0
LINE
  5
230
330
1F
100
AcDbEntity
  8
A-A
  6
Continuous
 62
     3
370
     9
100
AcDbLine
 10
1256.801295924831
 20
616.9290408572635
 30
0.0
 11
1256.801295924831
 21
606.702600427576
 31
0.0
  0
LINE
  5
231
330
1F
100
AcDbEntity
  8
A-A
  6
Continuous
 62
     3
370
     9
100
AcDbLine
 10
1256.801295924831
 20
595.8427140519427
 30
0.0
 11
1256.801295924831
 21
585.6162736222552
 31
0.0
  0
LINE
  5
232
330
1F
100
AcDbEntity
  8
A-A
  6
Continuous
 62
     3
370
     9
100
AcDbLine
 10
1253.800840635558
 20
584.5936048353042
 30
0.0
 11
1256.801295924831
 21
585.6162736222552
 31
0.0
  0
LINE
  5
233
330
1F
100
AcDbEntity
  8
A-A
  6
Continuous
 62
     3
370
     9
100
AcDbLine
 10
1253.800840635558
 20
584.5936048353042
 30
0.0
 11
1253.800840635558
 21
571.4988419816302
 31
0.0
  0
LINE
  5
234
330
1F
100
AcDbEntity
  8
A-A
  6
Continuous
 62
     3
370
     9
100
AcDbLine
 10
1253.800840635558
 20
571.4988419816302
 30
0.0
 11
1256.801295924831
 21
570.4761731946792
 31
0.0
  0
LINE
  5
235
330
1F
100
AcDbEntity
  8
A-A
  6
Continuous
 62
     3
370
     9
100
AcDbLine
 10
1253.800840635558
 20
559.2271876979521
 30
0.0
 11
1253.800840635558
 21
550.4123914563979
 31
0.0
  0
LINE
  5
236
330
1F
100
AcDbEntity
  8
A-A
  6
Continuous
 62
     3
370
     9
100
AcDbLine
 10
1253.800840635558
 20
550.4123914563979
 30
0.0
 11
1256.801295924831
 21
549.3898463893584
 31
0.0
  0
LINE
  5
237
330
1F
100
AcDbEntity
  8
A-A
  6
Continuous
 62
     3
370
     9
100
AcDbLine
 10
1253.800840635558
 20
559.2271876979521
 30
0.0
 11
1256.801295924831
 21
560.2498564849029
 31
0.0
  0
LINE
  5
238
330
1F
100
AcDbEntity
  8
A-A
  6
Continuous
 62
     3
370
     9
100
AcDbLine
 10
1256.801295924831
 20
570.4761731946792
 30
0.0
 11
1256.801295924831
 21
560.2498564849029
 31
0.0
  0
LINE
  5
239
330
1F
100
AcDbEntity
  8
A-A
  6
Continuous
 62
     3
370
     9
100
AcDbLine
 10
1256.801295924831
 20
549.3898463893584
 30
0.0
 11
1256.801295924831
 21
539.1635296795821
 31
0.0
  0
LINE
  5
23A
330
1F
100
AcDbEntity
  8
A-1_ピット
  6
Continuous
 62
     2
370
     9
100
AcDbLine
 10
1256.801295924831
 20
816.800537109375
 30
0.0
 11
1256.801295924831
 21
823.8003622519005
 31
0.0
  0
LINE
  5
23B
330
1F
100
AcDbEntity
  8
A-1_ピット
  6
Continuous
 62
     2
370
     9
100
AcDbLine
 10
1325.801375105575
 20
703.8007086676521
 30
0.0
 11
1332.800952808277
 21
703.8007086676521
 31
0.0
  0
LINE
  5
23C
330
1F
100
AcDbEntity
  8
A-1_ピット
  6
Continuous
 62
     2
370
     9
100
AcDbLine
 10
1312.80138170397
 20
811.8002731735644
 30
0.0
 11
1261.801559860642
 21
811.8002731735644
 31
0.0
  0
LINE
  5
23D
330
1F
100
AcDbEntity
  8
A-1_ピット
  6
Continuous
 62
     2
370
     9
100
AcDbLine
 10
1320.801111169764
 20
803.800048828125
 30
0.0
 11
1320.801111169764
 21
708.7999828441724
 31
0.0
  0
LINE
  5
23E
330
1F
100
AcDbEntity
  8
A-1_ピット
  6
Continuous
 62
     2
370
     9
100
AcDbLine
 10
1332.800952808277
 20
823.8003622519005
 30
0.0
 11
1332.800952808277
 21
703.8007086676521
 31
0.0
  0
LINE
  5
23F
330
1F
100
AcDbEntity
  8
A-1_ピット
  6
Continuous
 62
     2
370
     9
100
AcDbLine
 10
1332.800952808277
 20
823.8003622519005
 30
0.0
 11
1256.801295924831
 21
823.8003622519005
 31
0.0
  0
LINE
  5
240
330
1F
100
AcDbEntity
  8
A-1_ピット
  6
Continuous
 62
     2
370
     9
100
AcDbLine
 10
1292.800820840372
 20
823.8003622519005
 30
0.0
 11
1292.800820840372
 21
841.8001247096709
 31
0.0
  0
LINE
  5
241
330
1F
100
AcDbEntity
  8
A-1_ピット
  6
Continuous
 62
     2
370
     9
100
AcDbLine
 10
1320.431436074747
 20
841.8001247096709
 30
0.0
 11
1292.800820840372
 21
841.8001247096709
 31
0.0
  0
LINE
  5
242
330
1F
100
AcDbEntity
  8
A-1_ピット
  6
Continuous
 62
     2
370
     9
100
AcDbLine
 10
1329.74853515625
 20
825.0271688925255
 30
0.0
 11
1446.13037109375
 21
856.2115148595863
 31
0.0
  0
LINE
  5
243
330
1F
100
AcDbEntity
  8
A-1_ピット
  6
Continuous
 62
     2
370
     9
100
AcDbLine
 10
1325.089738175676
 20
842.4140229096283
 30
0.0
 11
1441.471574113176
 21
873.5981214368667
 31
0.0
  0
LINE
  5
244
330
1F
100
AcDbEntity
  8
A-1_ピット
  6
JWW_CENTER1
 62
     2
370
     9
100
AcDbLine
 10
1320.430941195102
 20
832.8004909206084
 30
0.0
 11
1285.191551414696
 21
832.8004909206084
 31
0.0
  0
LINE
  5
245
330
1F
100
AcDbEntity
  8
A-1_ピット
  6
JWW_CENTER1
 62
     2
370
     9
100
AcDbLine
 10
1327.419136665963
 20
833.7204721811656
 30
0.0
 11
1457.752124683277
 21
868.6428915487755
 31
0.0
  0
LINE
  5
246
330
1F
100
AcDbEntity
  8
A-2_蓋
  6
Continuous
 62
     3
370
     9
100
AcDbLine
 10
1320.801111169764
 20
794.8001675992401
 30
0.0
 11
1320.801111169764
 21
-87.19982250316718
 31
0.0
  0
LINE
  5
247
330
1F
100
AcDbEntity
  8
A-2_蓋
  6
Continuous
 62
     3
370
     9
100
AcDbLine
 10
1273.77170872044
 20
453.8002550279774
 30
0.0
 11
1265.286502322635
 21
445.3150486301732
 31
0.0
  0
LINE
  5
248
330
1F
100
AcDbEntity
  8
A-2_蓋
  6
Continuous
 62
     3
370
     9
100
AcDbLine
 10
1265.286502322635
 20
445.3150486301732
 30
0.0
 11
1256.801295924831
 21
453.8002550279774
 31
0.0
  0
LINE
  5
249
330
1F
100
AcDbEntity
  8
A-2_蓋
  6
Continuous
 62
     3
370
     9
100
AcDbLine
 10
1256.801295924831
 20
453.8002550279774
 30
0.0
 11
1265.286502322635
 21
462.2854614257812
 31
0.0
  0
LINE
  5
24A
330
1F
100
AcDbEntity
  8
A-2_蓋
  6
Continuous
 62
     3
370
     9
100
AcDbLine
 10
1265.286502322635
 20
462.2854614257812
 30
0.0
 11
1273.77170872044
 21
453.8002550279774
 31
0.0
  0
LINE
  5
24B
330
1F
100
AcDbEntity
  8
A-1_ピット
  6
Continuous
 62
     2
370
     9
100
AcDbLine
 10
1256.801295924831
 20
-109.2001920133023
 30
0.0
 11
1256.801295924831
 21
-116.2000171558276
 31
0.0
  0
LINE
  5
24C
330
1F
100
AcDbEntity
  8
A-1_ピット
  6
Continuous
 62
     2
370
     9
100
AcDbLine
 10
1325.801375105575
 20
3.79963642842057
 30
0.0
 11
1332.800952808277
 21
3.79963642842057
 31
0.0
  0
LINE
  5
24D
330
1F
100
AcDbEntity
  8
A-1_ピット
  6
Continuous
 62
     2
370
     9
100
AcDbLine
 10
1312.80138170397
 20
-104.1999280774914
 30
0.0
 11
1261.801559860642
 21
-104.1999280774914
 31
0.0
  0
LINE
  5
24E
330
1F
100
AcDbEntity
  8
A-1_ピット
  6
Continuous
 62
     2
370
     9
100
AcDbLine
 10
1320.801111169764
 20
-96.19970373205234
 30
0.0
 11
1320.801111169764
 21
-1.199637748099462
 31
0.0
  0
LINE
  5
24F
330
1F
100
AcDbEntity
  8
A-1_ピット
  6
Continuous
 62
     2
370
     9
100
AcDbLine
 10
1332.800952808277
 20
-116.2000171558276
 30
0.0
 11
1332.800952808277
 21
3.79963642842057
 31
0.0
  0
LINE
  5
250
330
1F
100
AcDbEntity
  8
A-1_ピット
  6
Continuous
 62
     2
370
     9
100
AcDbLine
 10
1332.800952808277
 20
-116.2000171558276
 30
0.0
 11
1256.801295924831
 21
-116.2000171558276
 31
0.0
  0
LINE
  5
251
330
1F
100
AcDbEntity
  8
A-1_ピット
  6
Continuous
 62
     2
370
     9
100
AcDbLine
 10
1292.800820840372
 20
-116.2000171558276
 30
0.0
 11
1292.800820840372
 21
-134.1997796135979
 31
0.0
  0
LINE
  5
252
330
1F
100
AcDbEntity
  8
A-1_ピット
  6
Continuous
 62
     2
370
     9
100
AcDbLine
 10
1320.431436074747
 20
-134.1997796135979
 30
0.0
 11
1292.800820840372
 21
-134.1997796135979
 31
0.0
  0
LINE
  5
253
330
1F
100
AcDbEntity
  8
A-1_ピット
  6
Continuous
 62
     2
370
     9
100
AcDbLine
 10
1329.74853515625
 20
-117.4268237964526
 30
0.0
 11
1446.13037109375
 21
-148.6111697635135
 31
0.0
  0
LINE
  5
254
330
1F
100
AcDbEntity
  8
A-1_ピット
  6
Continuous
 62
     2
370
     9
100
AcDbLine
 10
1325.089738175676
 20
-134.8136778135557
 30
0.0
 11
1441.471574113176
 21
-165.9977763407937
 31
0.0
  0
LINE
  5
255
330
1F
100
AcDbEntity
  8
A-1_ピット
  6
JWW_CENTER1
 62
     2
370
     9
100
AcDbLine
 10
1320.430941195102
 20
-125.2001458245354
 30
0.0
 11
1285.191551414696
 21
-125.2001458245354
 31
0.0
  0
LINE
  5
256
330
1F
100
AcDbEntity
  8
A-1_ピット
  6
JWW_CENTER1
 62
     2
370
     9
100
AcDbLine
 10
1327.419136665963
 20
-126.1201270850927
 30
0.0
 11
1457.752124683277
 21
-161.0426701726141
 31
0.0
  0
LINE
  5
257
330
1F
100
AcDbEntity
  8
A-A
  6
Continuous
 62
     3
370
     9
100
AcDbLine
 10
1253.800840635558
 20
538.140860892631
 30
0.0
 11
1256.801295924831
 21
539.1635296795821
 31
0.0
  0
LINE
  5
258
330
1F
100
AcDbEntity
  8
A-A
  6
Continuous
 62
     3
370
     9
100
AcDbLine
 10
1253.800840635558
 20
538.140860892631
 30
0.0
 11
1253.800840635558
 21
525.0460980389571
 31
0.0
  0
LINE
  5
259
330
1F
100
AcDbEntity
  8
A-A
  6
Continuous
 62
     3
370
     9
100
AcDbLine
 10
1253.800840635558
 20
525.0460980389571
 30
0.0
 11
1256.801295924831
 21
524.023429252006
 31
0.0
  0
LINE
  5
25A
330
1F
100
AcDbEntity
  8
A-A
  6
Continuous
 62
     3
370
     9
100
AcDbLine
 10
1253.800840635558
 20
512.774443755279
 30
0.0
 11
1253.800840635558
 21
503.9596475137247
 31
0.0
  0
LINE
  5
25B
330
1F
100
AcDbEntity
  8
A-A
  6
Continuous
 62
     3
370
     9
100
AcDbLine
 10
1253.800840635558
 20
503.9596475137247
 30
0.0
 11
1256.801295924831
 21
502.9371024466852
 31
0.0
  0
LINE
  5
25C
330
1F
100
AcDbEntity
  8
A-A
  6
Continuous
 62
     3
370
     9
100
AcDbLine
 10
1253.800840635558
 20
512.774443755279
 30
0.0
 11
1256.801295924831
 21
513.79711254223
 31
0.0
  0
LINE
  5
25D
330
1F
100
AcDbEntity
  8
A-A
  6
Continuous
 62
     3
370
     9
100
AcDbLine
 10
1256.801295924831
 20
524.023429252006
 30
0.0
 11
1256.801295924831
 21
513.79711254223
 31
0.0
  0
LINE
  5
25E
330
1F
100
AcDbEntity
  8
A-A
  6
Continuous
 62
     3
370
     9
100
AcDbLine
 10
1256.801295924831
 20
502.9371024466852
 30
0.0
 11
1256.801295924831
 21
492.7107857369089
 31
0.0
  0
LINE
  5
25F
330
1F
100
AcDbEntity
  8
A-A
  6
Continuous
 62
     3
370
     9
100
AcDbLine
 10
1253.800840635558
 20
491.6881169499578
 30
0.0
 11
1256.801295924831
 21
492.7107857369089
 31
0.0
  0
LINE
  5
260
330
1F
100
AcDbEntity
  8
A-A
  6
Continuous
 62
     3
370
     9
100
AcDbLine
 10
1253.800840635558
 20
491.6881169499578
 30
0.0
 11
1253.800840635558
 21
478.5933540962839
 31
0.0
  0
LINE
  5
261
330
1F
100
AcDbEntity
  8
A-A
  6
Continuous
 62
     3
370
     9
100
AcDbLine
 10
1253.800840635558
 20
478.5933540962839
 30
0.0
 11
1256.801295924831
 21
477.5706853093328
 31
0.0
  0
LINE
  5
262
330
1F
100
AcDbEntity
  8
A-A
  6
Continuous
 62
     3
370
     9
100
AcDbLine
 10
1253.800840635558
 20
466.3216998126057
 30
0.0
 11
1253.800840635558
 21
457.5069035710516
 31
0.0
  0
LINE
  5
263
330
1F
100
AcDbEntity
  8
A-A
  6
Continuous
 62
     3
370
     9
100
AcDbLine
 10
1253.800840635558
 20
457.5069035710516
 30
0.0
 11
1256.801295924831
 21
456.484358504012
 31
0.0
  0
LINE
  5
264
330
1F
100
AcDbEntity
  8
A-A
  6
Continuous
 62
     3
370
     9
100
AcDbLine
 10
1253.800840635558
 20
466.3216998126057
 30
0.0
 11
1256.801295924831
 21
467.3443685995568
 31
0.0
  0
LINE
  5
265
330
1F
100
AcDbEntity
  8
A-A
  6
Continuous
 62
     3
370
     9
100
AcDbLine
 10
1256.801295924831
 20
477.5706853093328
 30
0.0
 11
1256.801295924831
 21
467.3443685995568
 31
0.0
  0
LINE
  5
266
330
1F
100
AcDbEntity
  8
A-A
  6
Continuous
 62
     3
370
     9
100
AcDbLine
 10
1256.801295924831
 20
456.484358504012
 30
0.0
 11
1256.801295924831
 21
446.2580417942357
 31
0.0
  0
LINE
  5
267
330
1F
100
AcDbEntity
  8
A-A
  6
Continuous
 62
     3
370
     9
100
AcDbLine
 10
1253.800840635558
 20
445.2353730072846
 30
0.0
 11
1256.801295924831
 21
446.2580417942357
 31
0.0
  0
LINE
  5
268
330
1F
100
AcDbEntity
  8
A-A
  6
Continuous
 62
     3
370
     9
100
AcDbLine
 10
1253.800840635558
 20
445.2353730072846
 30
0.0
 11
1253.800840635558
 21
432.1406101536107
 31
0.0
  0
LINE
  5
269
330
1F
100
AcDbEntity
  8
A-A
  6
Continuous
 62
     3
370
     9
100
AcDbLine
 10
1253.800840635558
 20
432.1406101536107
 30
0.0
 11
1256.801295924831
 21
431.1179413666596
 31
0.0
  0
LINE
  5
26A
330
1F
100
AcDbEntity
  8
A-A
  6
Continuous
 62
     3
370
     9
100
AcDbLine
 10
1253.800840635558
 20
419.8689558699326
 30
0.0
 11
1253.800840635558
 21
411.0541596283784
 31
0.0
  0
LINE
  5
26B
330
1F
100
AcDbEntity
  8
A-A
  6
Continuous
 62
     3
370
     9
100
AcDbLine
 10
1253.800840635558
 20
411.0541596283784
 30
0.0
 11
1256.801295924831
 21
410.0316145613388
 31
0.0
  0
LINE
  5
26C
330
1F
100
AcDbEntity
  8
A-A
  6
Continuous
 62
     3
370
     9
100
AcDbLine
 10
1253.800840635558
 20
419.8689558699326
 30
0.0
 11
1256.801295924831
 21
420.8916246568836
 31
0.0
  0
LINE
  5
26D
330
1F
100
AcDbEntity
  8
A-A
  6
Continuous
 62
     3
370
     9
100
AcDbLine
 10
1256.801295924831
 20
431.1179413666596
 30
0.0
 11
1256.801295924831
 21
420.8916246568836
 31
0.0
  0
LINE
  5
26E
330
1F
100
AcDbEntity
  8
A-A
  6
Continuous
 62
     3
370
     9
100
AcDbLine
 10
1256.801295924831
 20
410.0316145613388
 30
0.0
 11
1256.801295924831
 21
399.8052978515625
 31
0.0
  0
LINE
  5
26F
330
1F
100
AcDbEntity
  8
A-A
  6
Continuous
 62
     3
370
     9
100
AcDbLine
 10
1253.800840635558
 20
398.7826290646115
 30
0.0
 11
1256.801295924831
 21
399.8052978515625
 31
0.0
  0
LINE
  5
270
330
1F
100
AcDbEntity
  8
A-A
  6
Continuous
 62
     3
370
     9
100
AcDbLine
 10
1253.800840635558
 20
398.7826290646115
 30
0.0
 11
1253.800840635558
 21
385.6878662109375
 31
0.0
  0
LINE
  5
271
330
1F
100
AcDbEntity
  8
A-A
  6
Continuous
 62
     3
370
     9
100
AcDbLine
 10
1253.800840635558
 20
385.6878662109375
 30
0.0
 11
1256.801295924831
 21
384.6651974239865
 31
0.0
  0
LINE
  5
272
330
1F
100
AcDbEntity
  8
A-A
  6
Continuous
 62
     3
370
     9
100
AcDbLine
 10
1253.800840635558
 20
373.4162119272594
 30
0.0
 11
1253.800840635558
 21
364.6014156857052
 31
0.0
  0
LINE
  5
273
330
1F
100
AcDbEntity
  8
A-A
  6
Continuous
 62
     3
370
     9
100
AcDbLine
 10
1253.800840635558
 20
364.6014156857052
 30
0.0
 11
1256.801295924831
 21
363.5788706186656
 31
0.0
  0
LINE
  5
274
330
1F
100
AcDbEntity
  8
A-A
  6
Continuous
 62
     3
370
     9
100
AcDbLine
 10
1253.800840635558
 20
373.4162119272594
 30
0.0
 11
1256.801295924831
 21
374.438756994299
 31
0.0
  0
LINE
  5
275
330
1F
100
AcDbEntity
  8
A-A
  6
Continuous
 62
     3
370
     9
100
AcDbLine
 10
1256.801295924831
 20
384.6651974239865
 30
0.0
 11
1256.801295924831
 21
374.438756994299
 31
0.0
  0
LINE
  5
276
330
1F
100
AcDbEntity
  8
A-A
  6
Continuous
 62
     3
370
     9
100
AcDbLine
 10
1256.801295924831
 20
363.5788706186656
 30
0.0
 11
1256.801295924831
 21
353.3525539088893
 31
0.0
  0
LINE
  5
277
330
1F
100
AcDbEntity
  8
A-A
  6
Continuous
 62
     3
370
     9
100
AcDbLine
 10
1253.800840635558
 20
352.3298851219386
 30
0.0
 11
1256.801295924831
 21
353.3525539088893
 31
0.0
  0
LINE
  5
278
330
1F
100
AcDbEntity
  8
A-A
  6
Continuous
 62
     3
370
     9
100
AcDbLine
 10
1253.800840635558
 20
352.3298851219386
 30
0.0
 11
1253.800840635558
 21
339.2351222682643
 31
0.0
  0
LINE
  5
279
330
1F
100
AcDbEntity
  8
A-A
  6
Continuous
 62
     3
370
     9
100
AcDbLine
 10
1253.800840635558
 20
339.2351222682643
 30
0.0
 11
1256.801295924831
 21
338.2124534813136
 31
0.0
  0
LINE
  5
27A
330
1F
100
AcDbEntity
  8
A-A
  6
Continuous
 62
     3
370
     9
100
AcDbLine
 10
1253.800840635558
 20
326.9634679845862
 30
0.0
 11
1253.800840635558
 21
318.1486717430323
 31
0.0
  0
LINE
  5
27B
330
1F
100
AcDbEntity
  8
A-A
  6
Continuous
 62
     3
370
     9
100
AcDbLine
 10
1253.800840635558
 20
318.1486717430323
 30
0.0
 11
1256.801295924831
 21
317.1261266759925
 31
0.0
  0
LINE
  5
27C
330
1F
100
AcDbEntity
  8
A-A
  6
Continuous
 62
     3
370
     9
100
AcDbLine
 10
1253.800840635558
 20
326.9634679845862
 30
0.0
 11
1256.801295924831
 21
327.9861367715372
 31
0.0
  0
LINE
  5
27D
330
1F
100
AcDbEntity
  8
A-A
  6
Continuous
 62
     3
370
     9
100
AcDbLine
 10
1256.801295924831
 20
338.2124534813136
 30
0.0
 11
1256.801295924831
 21
327.9861367715372
 31
0.0
  0
LINE
  5
27E
330
1F
100
AcDbEntity
  8
A-A
  6
Continuous
 62
     3
370
     9
100
AcDbLine
 10
1256.801295924831
 20
317.1261266759925
 30
0.0
 11
1256.801295924831
 21
306.8998099662164
 31
0.0
  0
LINE
  5
27F
330
1F
100
AcDbEntity
  8
A-A
  6
Continuous
 62
     3
370
     9
100
AcDbLine
 10
1253.800840635558
 20
305.8771411792654
 30
0.0
 11
1256.801295924831
 21
306.8998099662164
 31
0.0
  0
LINE
  5
280
330
1F
100
AcDbEntity
  8
A-A
  6
Continuous
 62
     3
370
     9
100
AcDbLine
 10
1253.800840635558
 20
305.8771411792654
 30
0.0
 11
1253.800840635558
 21
292.7823783255914
 31
0.0
  0
LINE
  5
281
330
1F
100
AcDbEntity
  8
A-A
  6
Continuous
 62
     3
370
     9
100
AcDbLine
 10
1253.800840635558
 20
292.7823783255914
 30
0.0
 11
1256.801295924831
 21
291.7597095386404
 31
0.0
  0
LINE
  5
282
330
1F
100
AcDbEntity
  8
A-A
  6
Continuous
 62
     3
370
     9
100
AcDbLine
 10
1253.800840635558
 20
280.5106003220018
 30
0.0
 11
1253.800840635558
 21
271.6959278003591
 31
0.0
  0
LINE
  5
283
330
1F
100
AcDbEntity
  8
A-A
  6
Continuous
 62
     3
370
     9
100
AcDbLine
 10
1253.800840635558
 20
271.6959278003591
 30
0.0
 11
1256.801295924831
 21
270.6733827333193
 31
0.0
  0
LINE
  5
284
330
1F
100
AcDbEntity
  8
A-A
  6
Continuous
 62
     3
370
     9
100
AcDbLine
 10
1253.800840635558
 20
280.5106003220018
 30
0.0
 11
1256.801295924831
 21
281.5333928288641
 31
0.0
  0
LINE
  5
285
330
1F
100
AcDbEntity
  8
A-A
  6
Continuous
 62
     3
370
     9
100
AcDbLine
 10
1256.801295924831
 20
291.7597095386404
 30
0.0
 11
1256.801295924831
 21
281.5333928288641
 31
0.0
  0
LINE
  5
286
330
1F
100
AcDbEntity
  8
A-A
  6
Continuous
 62
     3
370
     9
100
AcDbLine
 10
1256.801295924831
 20
270.6733827333193
 30
0.0
 11
1256.801295924831
 21
260.4469423036318
 31
0.0
  0
LINE
  5
287
330
1F
100
AcDbEntity
  8
A-A
  6
Continuous
 62
     3
370
     9
100
AcDbLine
 10
1253.800840635558
 20
259.4243972365922
 30
0.0
 11
1256.801295924831
 21
260.4469423036318
 31
0.0
  0
LINE
  5
288
330
1F
100
AcDbEntity
  8
A-A
  6
Continuous
 62
     3
370
     9
100
AcDbLine
 10
1253.800840635558
 20
259.4243972365922
 30
0.0
 11
1253.800840635558
 21
246.3295106630068
 31
0.0
  0
LINE
  5
289
330
1F
100
AcDbEntity
  8
A-A
  6
Continuous
 62
     3
370
     9
100
AcDbLine
 10
1253.800840635558
 20
246.3295106630068
 30
0.0
 11
1256.801295924831
 21
245.3069655959672
 31
0.0
  0
LINE
  5
28A
330
1F
100
AcDbEntity
  8
A-A
  6
Continuous
 62
     3
370
     9
100
AcDbLine
 10
1256.801295924831
 20
245.3069655959672
 30
0.0
 11
1256.801295924831
 21
235.0806488861909
 31
0.0
  0
LINE
  5
28B
330
1F
100
AcDbEntity
  8
A-4_寸法
  6
Continuous
 62
     7
370
     9
100
AcDbLine
 10
1231.800966005068
 20
-116.2000171558276
 30
0.0
 11
1073.800741659629
 21
-116.2000171558276
 31
0.0
  0
LINE
  5
28C
330
1F
100
AcDbEntity
  8
A-4_寸法
  6
Continuous
 62
     7
370
     9
100
AcDbLine
 10
1236.801229940879
 20
-104.2001755173141
 30
0.0
 11
1153.80100559544
 21
-104.2001755173141
 31
0.0
  0
LINE
  5
28D
330
1F
100
AcDbEntity
  8
A-4_寸法
  6
Continuous
 62
     7
370
     9
100
AcDbLine
 10
1231.800966005068
 20
-96.19970373205234
 30
0.0
 11
1153.80100559544
 21
-96.19970373205234
 31
0.0
  0
LINE
  5
28E
330
1F
100
AcDbEntity
  8
A-4_寸法
  6
Continuous
 62
     7
370
     9
100
AcDbLine
 10
1231.800966005068
 20
803.800048828125
 30
0.0
 11
1153.80100559544
 21
803.800048828125
 31
0.0
  0
LINE
  5
28F
330
1F
100
AcDbEntity
  8
A-4_寸法
  6
Continuous
 62
     7
370
     9
100
AcDbLine
 10
1236.801229940879
 20
811.800520613387
 30
0.0
 11
1153.80100559544
 21
811.800520613387
 31
0.0
  0
LINE
  5
290
330
1F
100
AcDbEntity
  8
A-4_寸法
  6
Continuous
 62
     7
370
     9
100
AcDbLine
 10
1231.800966005068
 20
823.8003622519005
 30
0.0
 11
1073.800741659629
 21
823.8003622519005
 31
0.0
  0
LINE
  5
291
330
1F
100
AcDbEntity
  8
A-4_寸法
  6
Continuous
 62
     7
370
     9
100
AcDbLine
 10
1076.800702069257
 20
-116.2000171558276
 30
0.0
 11
1076.800702069257
 21
823.8003622519005
 31
0.0
  0
LINE
  5
292
330
1F
100
AcDbEntity
  8
A-4_寸法
  6
Continuous
 62
     7
370
     9
100
AcDbLine
 10
1552.801183752111
 20
-116.2000171558276
 30
0.0
 11
1552.801183752111
 21
823.8003622519005
 31
0.0
  0
LINE
  5
293
330
1F
100
AcDbEntity
  8
A-4_寸法
  6
Continuous
 62
     7
370
     9
100
AcDbLine
 10
1357.801530167864
 20
-116.2000171558276
 30
0.0
 11
1555.80114416174
 21
-116.2000171558276
 31
0.0
  0
LINE
  5
294
330
1F
100
AcDbEntity
  8
A-4_寸法
  6
Continuous
 62
     7
370
     9
100
AcDbLine
 10
1357.801530167864
 20
3.79963642842057
 30
0.0
 11
1555.80114416174
 21
3.79963642842057
 31
0.0
  0
LINE
  5
295
330
1F
100
AcDbEntity
  8
A-4_寸法
  6
Continuous
 62
     7
370
     9
100
AcDbLine
 10
1357.801530167864
 20
703.8007086676521
 30
0.0
 11
1555.80114416174
 21
703.8007086676521
 31
0.0
  0
LINE
  5
296
330
1F
100
AcDbEntity
  8
A-4_寸法
  6
Continuous
 62
     7
370
     9
100
AcDbLine
 10
1357.801530167864
 20
823.8003622519005
 30
0.0
 11
1555.80114416174
 21
823.8003622519005
 31
0.0
  0
LINE
  5
297
330
1F
100
AcDbEntity
  8
A-4_寸法
  6
Continuous
 62
     7
370
     9
100
AcDbLine
 10
1256.801295924831
 20
-241.6439654376055
 30
0.0
 11
1320.801111169764
 21
-241.6439654376055
 31
0.0
  0
LINE
  5
298
330
1F
100
AcDbEntity
  8
A-4_寸法
  6
Continuous
 62
     7
370
     9
100
AcDbLine
 10
1256.801295924831
 20
-125.4430080104518
 30
0.0
 11
1256.801295924831
 21
-324.643942343222
 31
0.0
  0
LINE
  5
299
330
1F
100
AcDbEntity
  8
A-4_寸法
  6
Continuous
 62
     7
370
     9
100
AcDbLine
 10
1320.801111169764
 20
-105.4426945866766
 30
0.0
 11
1320.801111169764
 21
-244.6439258472338
 31
0.0
  0
LINE
  5
29A
330
1F
100
AcDbEntity
  8
A-4_寸法
  6
Continuous
 62
     7
370
     9
100
AcDbLine
 10
1256.801295924831
 20
-321.6439819335938
 30
0.0
 11
1332.800952808277
 21
-321.6439819335938
 31
0.0
  0
LINE
  5
29B
330
1F
100
AcDbEntity
  8
A-4_寸法
  6
Continuous
 62
     7
370
     9
100
AcDbLine
 10
1332.800952808277
 20
-125.4430080104518
 30
0.0
 11
1332.800952808277
 21
-324.643942343222
 31
0.0
  0
LINE
  5
29C
330
1F
100
AcDbEntity
  8
A-4_寸法
  6
Continuous
 62
     7
370
     9
100
AcDbLine
 10
1156.800966005068
 20
-183.8156705289273
 30
0.0
 11
1156.800966005068
 21
885.3943201013516
 31
0.0
  0
LINE
  5
29D
330
1F
100
AcDbEntity
  8
A-4_寸法
  6
Continuous
 62
     7
370
     9
100
AcDbLine
 10
1256.801295924831
 20
823.8003622519005
 30
0.0
 11
1241.58176731419
 21
843.6341486750425
 31
0.0
  0
LINE
  5
29E
330
1F
100
AcDbEntity
  8
A-4_寸法
  6
Continuous
 62
     7
370
     9
100
AcDbLine
 10
1256.801295924831
 20
823.8003622519005
 30
0.0
 11
1247.234282622466
 21
846.8973850559544
 31
0.0
  0
LINE
  5
29F
330
1F
100
AcDbEntity
  8
A-4_寸法
  6
Continuous
 62
     7
370
     9
100
AcDbLine
 10
1448.300913217906
 20
872.6989251214106
 30
0.0
 11
1457.868173960093
 21
895.7959479254646
 31
0.0
  0
LINE
  5
2A0
330
1F
100
AcDbEntity
  8
A-4_寸法
  6
Continuous
 62
     7
370
     9
100
AcDbLine
 10
1448.300913217906
 20
872.6989251214106
 30
0.0
 11
1463.520441828548
 21
892.5327115445526
 31
0.0
  0
LINE
  5
2A1
330
1F
100
AcDbEntity
  8
A-4_寸法
  6
Continuous
 62
     7
370
     9
100
AcDbLine
 10
1448.300913217906
 20
872.6989251214106
 30
0.0
 11
1501.591038059544
 21
964.9999175200594
 31
0.0
  0
LINE
  5
2A2
330
1F
100
AcDbEntity
  8
A-4_寸法
  6
Continuous
 62
     7
370
     9
100
AcDbLine
 10
1501.591038059544
 20
964.9999175200594
 30
0.0
 11
1758.172772381757
 21
964.9999175200594
 31
0.0
  0
LINE
  5
2A3
330
1F
100
AcDbEntity
  8
A-4_寸法
  6
Continuous
 62
     7
370
     9
100
AcDbLine
 10
1175.279771959459
 20
964.9999175200594
 30
0.0
 11
878.8780418602198
 21
964.9999175200594
 31
0.0
  0
LINE
  5
2A4
330
1F
100
AcDbEntity
  8
A-4_寸法
  6
Continuous
 62
     7
370
     9
100
AcDbLine
 10
1256.801295924831
 20
823.8003622519005
 30
0.0
 11
1175.279771959459
 21
964.9999175200594
 31
0.0
  0
LINE
  5
2A5
330
1F
100
AcDbEntity
  8
A-2_蓋
  6
Continuous
 62
     3
370
     9
100
AcDbLine
 10
1273.77170872044
 20
53.80017254803647
 30
0.0
 11
1265.286502322635
 21
62.28537894584036
 31
0.0
  0
LINE
  5
2A6
330
1F
100
AcDbEntity
  8
A-2_蓋
  6
Continuous
 62
     3
370
     9
100
AcDbLine
 10
1265.286502322635
 20
62.28537894584036
 30
0.0
 11
1256.801295924831
 21
53.80017254803647
 31
0.0
  0
LINE
  5
2A7
330
1F
100
AcDbEntity
  8
A-2_蓋
  6
Continuous
 62
     3
370
     9
100
AcDbLine
 10
1256.801295924831
 20
53.80017254803647
 30
0.0
 11
1265.286502322635
 21
45.31496615023229
 31
0.0
  0
LINE
  5
2A8
330
1F
100
AcDbEntity
  8
A-2_蓋
  6
Continuous
 62
     3
370
     9
100
AcDbLine
 10
1265.286502322635
 20
45.31496615023229
 30
0.0
 11
1273.77170872044
 21
53.80017254803647
 31
0.0
  0
LINE
  5
2A9
330
1F
100
AcDbEntity
  8
A-2_蓋
  6
JWW_CENTER1
 62
     3
370
     9
100
AcDbLine
 10
1361.613340635558
 20
353.8002962679477
 30
0.0
 11
1217.885445259713
 21
353.8002962679477
 31
0.0
  0
LINE
  5
2AA
330
1F
100
AcDbEntity
  8
A-0_通り芯
  6
Continuous
 62
     7
370
     9
100
AcDbLine
 10
1313.010220914274
 20
794.8353040540542
 30
0.0
 11
1313.010220914274
 21
802.3700940931167
 31
0.0
  0
LINE
  5
2AB
330
1F
100
AcDbEntity
  8
A-0_通り芯
  6
Continuous
 62
     7
370
     9
100
AcDbLine
 10
1268.809550517315
 20
779.0530972867401
 30
0.0
 11
1268.809550517315
 21
770.6733002533783
 31
0.0
  0
LINE
  5
2AC
330
1F
100
AcDbEntity
  8
A-0_通り芯
  6
Continuous
 62
     7
370
     9
100
AcDbLine
 10
1304.986242345861
 20
792.6241817989867
 30
0.0
 11
1285.009930584882
 21
794.8739046663852
 31
0.0
  0
LINE
  5
2AD
330
1F
100
AcDbEntity
  8
A-0_通り芯
  6
Continuous
 62
     7
370
     9
100
AcDbLine
 10
1307.210231471706
 20
794.6116184543919
 30
0.0
 11
1307.210231471706
 21
802.5880885768584
 31
0.0
  0
LINE
  5
2AE
330
1F
100
AcDbEntity
  8
A-0_通り芯
  6
Continuous
 62
     7
370
     9
100
AcDbLine
 10
1285.53747228674
 20
788.6527726456927
 30
0.0
 11
1269.915606524493
 21
780.8415923247467
 31
0.0
  0
LINE
  5
2AF
330
1F
100
AcDbEntity
  8
A-0_通り芯
  6
Continuous
 62
     7
370
     9
100
AcDbLine
 10
1286.656395164696
 20
788.8517142630915
 30
0.0
 11
1304.115006730364
 21
786.8855574324325
 31
0.0
  0
LINE
  5
2B0
330
1F
100
AcDbEntity
  8
A-0_通り芯
  6
Continuous
 62
     7
370
     9
100
AcDbLine
 10
1267.431805584882
 20
786.0848421663852
 30
0.0
 11
1285.009930584882
 21
794.8739046663852
 31
0.0
  0
LINE
  5
2B1
330
1F
100
AcDbEntity
  8
A-0_通り芯
  6
Continuous
 62
     7
370
     9
100
AcDbLine
 10
1263.009561074747
 20
778.9293773754224
 30
0.0
 11
1263.009561074747
 21
770.873726509713
 31
0.0
  0
LINE
  5
2B2
330
1F
100
AcDbEntity
  8
A-0_通り芯
  6
Continuous
 62
     7
370
     9
100
AcDbLine
 10
1271.010032860009
 20
762.8735021642738
 30
0.0
 11
1304.310236750423
 21
762.8735021642738
 31
0.0
  0
LINE
  5
2B3
330
1F
100
AcDbEntity
  8
A-0_通り芯
  6
Continuous
 62
     7
370
     9
100
AcDbLine
 10
1270.809854043497
 20
768.6734916068415
 30
0.0
 11
1304.310236750423
 21
768.6734916068415
 31
0.0
  0
LINE
  5
2B4
330
1F
100
AcDbEntity
  8
A-0_通り芯
  6
Continuous
 62
     7
370
     9
100
AcDbLine
 10
1279.381664379223
 20
809.6138949007602
 30
0.0
 11
1304.859553156673
 21
810.3782365128802
 31
0.0
  0
LINE
  5
2B5
330
1F
100
AcDbEntity
  8
A-0_通り芯
  6
Continuous
 62
     7
370
     9
100
AcDbLine
 10
1279.381664379223
 20
809.6138949007602
 30
0.0
 11
1265.604215054899
 21
811.800520613387
 31
0.0
  0
LINE
  5
2B6
330
1F
100
AcDbEntity
  8
A-0_通り芯
  6
Continuous
 62
     7
370
     9
100
AcDbLine
 10
1279.010009765625
 20
803.800048828125
 30
0.0
 11
1305.033750791808
 21
804.5804740287165
 31
0.0
  0
LINE
  5
2B7
330
1F
100
AcDbEntity
  8
A-0_通り芯
  6
Continuous
 62
     7
370
     9
100
AcDbLine
 10
1265.604215054899
 20
811.800520613387
 30
0.0
 11
1264.695121146538
 21
806.072041279561
 31
0.0
  0
LINE
  5
2B8
330
1F
100
AcDbEntity
  8
A-0_通り芯
  6
Continuous
 62
     7
370
     9
100
AcDbLine
 10
1279.010009765625
 20
803.800048828125
 30
0.0
 11
1264.695121146538
 21
806.072041279561
 31
0.0
  0
LINE
  5
2B9
330
1F
100
AcDbEntity
  8
A-0_通り芯
  6
Continuous
 62
     7
370
     9
100
AcDbLine
 10
1313.010220914274
 20
-87.23582499736068
 30
0.0
 11
1313.010220914274
 21
-94.77061503642318
 31
0.0
  0
LINE
  5
2BA
330
1F
100
AcDbEntity
  8
A-0_通り芯
  6
Continuous
 62
     7
370
     9
100
AcDbLine
 10
1268.809550517315
 20
-71.45361823004635
 30
0.0
 11
1268.809550517315
 21
-63.07382119668489
 31
0.0
  0
LINE
  5
2BB
330
1F
100
AcDbEntity
  8
A-0_通り芯
  6
Continuous
 62
     7
370
     9
100
AcDbLine
 10
1304.986242345861
 20
-85.02470274229296
 30
0.0
 11
1285.009930584882
 21
-87.27442560969166
 31
0.0
  0
LINE
  5
2BC
330
1F
100
AcDbEntity
  8
A-0_通り芯
  6
Continuous
 62
     7
370
     9
100
AcDbLine
 10
1307.210231471706
 20
-87.01213939769843
 30
0.0
 11
1307.210231471706
 21
-94.98860952016457
 31
0.0
  0
LINE
  5
2BD
330
1F
100
AcDbEntity
  8
A-0_通り芯
  6
Continuous
 62
     7
370
     9
100
AcDbLine
 10
1285.53747228674
 20
-81.05329358899894
 30
0.0
 11
1269.915606524493
 21
-73.24211326805312
 31
0.0
  0
LINE
  5
2BE
330
1F
100
AcDbEntity
  8
A-0_通り芯
  6
Continuous
 62
     7
370
     9
100
AcDbLine
 10
1286.656395164696
 20
-81.25223520639764
 30
0.0
 11
1304.115006730364
 21
-79.28607837573907
 31
0.0
  0
LINE
  5
2BF
330
1F
100
AcDbEntity
  8
A-0_通り芯
  6
Continuous
 62
     7
370
     9
100
AcDbLine
 10
1267.431805584882
 20
-78.48536310969166
 30
0.0
 11
1285.009930584882
 21
-87.27442560969166
 31
0.0
  0
LINE
  5
2C0
330
1F
100
AcDbEntity
  8
A-0_通り芯
  6
Continuous
 62
     7
370
     9
100
AcDbLine
 10
1263.009561074747
 20
-71.32989831872891
 30
0.0
 11
1263.009561074747
 21
-63.27424745301926
 31
0.0
  0
LINE
  5
2C1
330
1F
100
AcDbEntity
  8
A-0_通り芯
  6
Continuous
 62
     7
370
     9
100
AcDbLine
 10
1271.010032860009
 20
-55.27402310758021
 30
0.0
 11
1304.310236750423
 21
-55.27402310758021
 31
0.0
  0
LINE
  5
2C2
330
1F
100
AcDbEntity
  8
A-0_通り芯
  6
Continuous
 62
     7
370
     9
100
AcDbLine
 10
1270.809854043497
 20
-61.07401255014764
 30
0.0
 11
1304.310236750423
 21
-61.07401255014764
 31
0.0
  0
LINE
  5
2C3
330
1F
100
AcDbEntity
  8
A-0_通り芯
  6
Continuous
 62
     7
370
     9
100
AcDbLine
 10
1279.381664379223
 20
-102.0144158440667
 30
0.0
 11
1304.859553156673
 21
-102.7787574561864
 31
0.0
  0
LINE
  5
2C4
330
1F
100
AcDbEntity
  8
A-0_通り芯
  6
Continuous
 62
     7
370
     9
100
AcDbLine
 10
1279.381664379223
 20
-102.0144158440667
 30
0.0
 11
1265.604215054899
 21
-104.2010415566932
 31
0.0
  0
LINE
  5
2C5
330
1F
100
AcDbEntity
  8
A-0_通り芯
  6
Continuous
 62
     7
370
     9
100
AcDbLine
 10
1279.010009765625
 20
-96.2005697714315
 30
0.0
 11
1305.033750791808
 21
-96.98099497202264
 31
0.0
  0
LINE
  5
2C6
330
1F
100
AcDbEntity
  8
A-0_通り芯
  6
Continuous
 62
     7
370
     9
100
AcDbLine
 10
1265.604215054899
 20
-104.2010415566932
 30
0.0
 11
1264.695121146538
 21
-98.47256222286745
 31
0.0
  0
LINE
  5
2C7
330
1F
100
AcDbEntity
  8
A-0_通り芯
  6
Continuous
 62
     7
370
     9
100
AcDbLine
 10
1279.010009765625
 20
-96.2005697714315
 30
0.0
 11
1264.695121146538
 21
-98.47256222286745
 31
0.0
  0
LINE
  5
2C8
330
1F
100
AcDbEntity
  8
A-2_蓋
  6
Continuous
 62
     3
370
     9
100
AcDbLine
 10
1306.801460884713
 20
-87.19982250316718
 30
0.0
 11
1306.801460884713
 21
-96.19970373205234
 31
0.0
  0
LINE
  5
2C9
330
1F
100
AcDbEntity
  8
A-2_蓋
  6
Continuous
 62
     3
370
     9
100
AcDbLine
 10
1313.009726034629
 20
-87.19982250316718
 30
0.0
 11
1320.801111169764
 21
-87.19982250316718
 31
0.0
  0
LINE
  5
2CA
330
1F
100
AcDbEntity
  8
A-2_蓋
  6
Continuous
 62
     3
370
     9
100
AcDbLine
 10
1270.800946209882
 20
-87.19982250316718
 30
0.0
 11
1270.800946209882
 21
-80.16993342219166
 31
0.0
  0
LINE
  5
2CB
330
1F
100
AcDbEntity
  8
A-2_蓋
  6
Continuous
 62
     3
370
     9
100
AcDbLine
 10
1268.801137563345
 20
-87.19982250316718
 30
0.0
 11
1268.801137563345
 21
-79.17002909892318
 31
0.0
  0
LINE
  5
2CC
330
1F
100
AcDbEntity
  8
A-2_蓋
  6
Continuous
 62
     3
370
     9
100
AcDbLine
 10
1270.800946209882
 20
-73.68478311074739
 30
0.0
 11
1270.800946209882
 21
-61.07401255014764
 31
0.0
  0
LINE
  5
2CD
330
1F
100
AcDbEntity
  8
A-2_蓋
  6
Continuous
 62
     3
370
     9
100
AcDbLine
 10
1306.800966005068
 20
-59.65964652396536
 30
0.0
 11
1306.800966005068
 21
-79.43887246621614
 31
0.0
  0
LINE
  5
2CE
330
1F
100
AcDbEntity
  8
A-2_蓋
  6
Continuous
 62
     3
370
     9
100
AcDbLine
 10
1256.801295924831
 20
794.8001675992401
 30
0.0
 11
1307.210231471706
 21
794.8001675992401
 31
0.0
  0
LINE
  5
2CF
330
1F
100
AcDbEntity
  8
A-2_蓋
  6
Continuous
 62
     3
370
     9
100
AcDbLine
 10
1313.010220914274
 20
794.8001675992401
 30
0.0
 11
1320.801111169764
 21
794.8001675992401
 31
0.0
  0
LINE
  5
2D0
330
1F
100
AcDbEntity
  8
A-2_蓋
  6
Continuous
 62
     3
370
     9
100
AcDbLine
 10
1306.800966005068
 20
803.800048828125
 30
0.0
 11
1306.800966005068
 21
793.399658203125
 31
0.0
  0
LINE
  5
2D1
330
1F
100
AcDbEntity
  8
A-2_蓋
  6
Continuous
 62
     3
370
     9
100
AcDbLine
 10
1308.80126953125
 20
787.7906923036318
 30
0.0
 11
1308.80126953125
 21
-80.19121324693828
 31
0.0
  0
LINE
  5
2D2
330
1F
100
AcDbEntity
  8
A-2_蓋
  6
Continuous
 62
     3
370
     9
100
AcDbLine
 10
1268.801137563345
 20
794.8001675992401
 30
0.0
 11
1268.801137563345
 21
786.7695081556167
 31
0.0
  0
LINE
  5
2D3
330
1F
100
AcDbEntity
  8
A-2_蓋
  6
Continuous
 62
     3
370
     9
100
AcDbLine
 10
1270.800946209882
 20
794.8001675992401
 30
0.0
 11
1270.800946209882
 21
787.7694124788852
 31
0.0
  0
LINE
  5
2D4
330
1F
100
AcDbEntity
  8
A-2_蓋
  6
Continuous
 62
     3
370
     9
100
AcDbLine
 10
1270.800946209882
 20
781.2842621674408
 30
0.0
 11
1270.800946209882
 21
768.6734916068415
 31
0.0
  0
LINE
  5
2D5
330
1F
100
AcDbEntity
  8
A-2_蓋
  6
Continuous
 62
     3
370
     9
100
AcDbLine
 10
1306.800966005068
 20
787.038475242821
 30
0.0
 11
1306.800966005068
 21
767.2591255806589
 31
0.0
  0
LINE
  5
2D6
330
1F
100
AcDbEntity
  8
A-2_蓋
  6
Continuous
 62
     3
370
     9
100
AcDbLine
 10
1306.800966005068
 20
764.2883630701016
 30
0.0
 11
1306.800966005068
 21
-56.6888840134078
 31
0.0
  0
LINE
  5
2D7
330
1F
100
AcDbEntity
  8
D-4_寸法
  6
Continuous
 62
     2
370
     9
100
AcDbLine
 10
769.3488043707771
 20
-580.1000729122677
 30
0.0
 11
769.3488043707771
 21
-530.099351212785
 31
0.0
  0
LINE
  5
2D8
330
1F
100
AcDbEntity
  8
D-4_寸法
  6
Continuous
 62
     2
370
     9
100
AcDbLine
 10
769.3488043707771
 20
-530.099351212785
 30
0.0
 11
994.3488043707771
 21
-530.099351212785
 31
0.0
  0
LINE
  5
2D9
330
1F
100
AcDbEntity
  8
D-4_寸法
  6
Continuous
 62
     2
370
     9
100
AcDbLine
 10
994.3488043707771
 20
-530.099351212785
 30
0.0
 11
994.3488043707771
 21
-580.1000729122677
 31
0.0
  0
LINE
  5
2DA
330
1F
100
AcDbEntity
  8
D-4_寸法
  6
Continuous
 62
     2
370
     9
100
AcDbLine
 10
994.3488043707771
 20
-580.1000729122677
 30
0.0
 11
769.3488043707771
 21
-580.1000729122677
 31
0.0
  0
LINE
  5
2DB
330
1F
100
AcDbEntity
  8
D-2_蓋
  6
Continuous
 62
     3
370
     9
100
AcDbLine
 10
-801.4066129117398
 20
-699.7148338524071
 30
0.0
 11
-776.406530431799
 21
-694.3654323268581
 31
0.0
  0
LINE
  5
2DC
330
1F
100
AcDbEntity
  8
D-2_蓋
  6
Continuous
 62
     3
370
     9
100
AcDbLine
 10
-801.4066129117398
 20
-702.2716295396959
 30
0.0
 11
-776.406530431799
 21
-696.9214856946791
 31
0.0
  0
LINE
  5
2DD
330
1F
100
AcDbEntity
  8
D-2_蓋
  6
Continuous
 62
     3
370
     9
100
AcDbLine
 10
-801.4066129117398
 20
-727.8378543338259
 30
0.0
 11
-776.406530431799
 21
-722.4877104888092
 31
0.0
  0
LINE
  5
2DE
330
1F
100
AcDbEntity
  8
D-2_蓋
  6
Continuous
 62
     3
370
     9
100
AcDbLine
 10
-801.4066129117398
 20
-730.3944025812922
 30
0.0
 11
-776.406530431799
 21
-725.0442587362752
 31
0.0
  0
LINE
  5
2DF
330
1F
100
AcDbEntity
  8
D-2_蓋
  6
Continuous
 62
     3
370
     9
100
AcDbLine
 10
-776.406530431799
 20
-757.7807947107262
 30
0.0
 11
-801.4066129117398
 21
-752.4313931851773
 31
0.0
  0
LINE
  5
2E0
330
1F
100
AcDbEntity
  8
D-2_蓋
  6
Continuous
 62
     3
370
     9
100
AcDbLine
 10
-776.406530431799
 20
-760.3375903980151
 30
0.0
 11
-801.4066129117398
 21
-754.9874465529983
 31
0.0
  0
LINE
  5
2E1
330
1F
100
AcDbEntity
  8
D-2_蓋
  6
Continuous
 62
     3
370
     9
100
AcDbLine
 10
-286.8785136454812
 20
-704.2697061074746
 30
0.0
 11
-284.3218416781039
 21
-711.7701020111908
 31
0.0
  0
LINE
  5
2E2
330
1F
100
AcDbEntity
  8
D-2_蓋
  6
Continuous
 62
     3
370
     9
100
AcDbLine
 10
-278.605486895587
 20
-711.7701020111908
 30
0.0
 11
-284.3218416781039
 21
-711.7701020111908
 31
0.0
  0
LINE
  5
2E3
330
1F
100
AcDbEntity
  8
D-2_蓋
  6
Continuous
 62
     3
370
     9
100
AcDbLine
 10
-286.8785136454812
 20
-704.2697061074746
 30
0.0
 11
-308.9153805294552
 21
-704.2697061074746
 31
0.0
  0
LINE
  5
2E4
330
1F
100
AcDbEntity
  8
D-2_蓋
  6
Continuous
 62
     3
370
     9
100
AcDbLine
 10
-308.9153805294552
 20
-704.2697061074746
 30
0.0
 11
-311.4715576171875
 21
-711.7701020111908
 31
0.0
  0
LINE
  5
2E5
330
1F
100
AcDbEntity
  8
D-2_蓋
  6
Continuous
 62
     3
370
     9
100
AcDbLine
 10
-311.4715576171875
 20
-711.7701020111908
 30
0.0
 11
-337.0377824113174
 21
-711.7701020111908
 31
0.0
  0
LINE
  5
2E6
330
1F
100
AcDbEntity
  8
D-2_蓋
  6
Continuous
 62
     3
370
     9
100
AcDbLine
 10
-339.5943306587836
 20
-704.2697061074746
 30
0.0
 11
-337.0377824113174
 21
-711.7701020111908
 31
0.0
  0
LINE
  5
2E7
330
1F
100
AcDbEntity
  8
D-2_蓋
  6
Continuous
 62
     3
370
     9
100
AcDbLine
 10
-339.5943306587836
 20
-704.2697061074746
 30
0.0
 11
-372.3309903531461
 21
-704.2697061074746
 31
0.0
  0
LINE
  5
2E8
330
1F
100
AcDbEntity
  8
D-2_蓋
  6
Continuous
 62
     3
370
     9
100
AcDbLine
 10
-372.3309903531461
 20
-704.2697061074746
 30
0.0
 11
-374.8876623205234
 21
-711.7701020111908
 31
0.0
  0
LINE
  5
2E9
330
1F
100
AcDbEntity
  8
D-2_蓋
  6
Continuous
 62
     3
370
     9
100
AcDbLine
 10
-801.4066129117398
 20
-815.8467555690456
 30
0.0
 11
-776.406530431799
 21
-810.4973540434967
 31
0.0
  0
LINE
  5
2EA
330
1F
100
AcDbEntity
  8
D-2_蓋
  6
Continuous
 62
     3
370
     9
100
AcDbLine
 10
-801.4066129117398
 20
-783.1102195945946
 30
0.0
 11
-776.406530431799
 21
-788.4598685599661
 31
0.0
  0
LINE
  5
2EB
330
1F
100
AcDbEntity
  8
D-2_蓋
  6
Continuous
 62
     3
370
     9
100
AcDbLine
 10
-801.4066129117398
 20
-780.5536713471283
 30
0.0
 11
-776.406530431799
 21
-785.9035677523227
 31
0.0
  0
LINE
  5
2EC
330
1F
100
AcDbEntity
  8
D-2_蓋
  6
Continuous
 62
     3
370
     9
100
AcDbLine
 10
-801.4066129117398
 20
-818.4035512563344
 30
0.0
 11
-776.406530431799
 21
-813.0534074113176
 31
0.0
  0
LINE
  5
2ED
330
1F
100
AcDbEntity
  8
D-2_蓋
  6
Continuous
 62
     3
370
     9
100
AcDbLine
 10
-801.4066129117398
 20
-843.9697760504645
 30
0.0
 11
-776.406530431799
 21
-838.6196322054477
 31
0.0
  0
LINE
  5
2EE
330
1F
100
AcDbEntity
  8
D-2_蓋
  6
Continuous
 62
     3
370
     9
100
AcDbLine
 10
-801.4066129117398
 20
-846.5263242979307
 30
0.0
 11
-776.406530431799
 21
-841.1761804529137
 31
0.0
  0
LINE
  5
2EF
330
1F
100
AcDbEntity
  8
D-2_蓋
  6
Continuous
 62
     3
370
     9
100
AcDbLine
 10
-776.406530431799
 20
-873.9127164273648
 30
0.0
 11
-801.4066129117398
 21
-868.5633149018158
 31
0.0
  0
LINE
  5
2F0
330
1F
100
AcDbEntity
  8
D-2_蓋
  6
Continuous
 62
     3
370
     9
100
AcDbLine
 10
-776.406530431799
 20
-876.4695121146536
 30
0.0
 11
-801.4066129117398
 21
-871.1193682696367
 31
0.0
  0
LINE
  5
2F1
330
1F
100
AcDbEntity
  8
D-2_蓋
  6
Continuous
 62
     3
370
     9
100
AcDbLine
 10
-403.0101879222971
 20
-704.2697061074746
 30
0.0
 11
-425.0473022460938
 21
-704.2697061074746
 31
0.0
  0
LINE
  5
2F2
330
1F
100
AcDbEntity
  8
D-2_蓋
  6
Continuous
 62
     3
370
     9
100
AcDbLine
 10
-425.0473022460938
 20
-704.2697061074746
 30
0.0
 11
-427.6039742134711
 21
-711.7701020111908
 31
0.0
  0
LINE
  5
2F3
330
1F
100
AcDbEntity
  8
D-2_蓋
  6
Continuous
 62
     3
370
     9
100
AcDbLine
 10
-427.6039742134711
 20
-711.7701020111908
 30
0.0
 11
-453.1695804080448
 21
-711.7701020111908
 31
0.0
  0
LINE
  5
2F4
330
1F
100
AcDbEntity
  8
D-2_蓋
  6
Continuous
 62
     3
370
     9
100
AcDbLine
 10
-455.7262523754221
 20
-704.2697061074746
 30
0.0
 11
-453.1695804080448
 21
-711.7701020111908
 31
0.0
  0
LINE
  5
2F5
330
1F
100
AcDbEntity
  8
D-2_蓋
  6
Continuous
 62
     3
370
     9
100
AcDbLine
 10
-455.7262523754221
 20
-704.2697061074746
 30
0.0
 11
-488.4629120697846
 21
-704.2697061074746
 31
0.0
  0
LINE
  5
2F6
330
1F
100
AcDbEntity
  8
D-2_蓋
  6
Continuous
 62
     3
370
     9
100
AcDbLine
 10
-488.4629120697846
 20
-704.2697061074746
 30
0.0
 11
-491.019584037162
 21
-711.7701020111908
 31
0.0
  0
LINE
  5
2F7
330
1F
100
AcDbEntity
  8
D-2_蓋
  6
Continuous
 62
     3
370
     9
100
AcDbLine
 10
-403.0101879222971
 20
-704.2697061074746
 30
0.0
 11
-400.4537633947422
 21
-711.7701020111908
 31
0.0
  0
LINE
  5
2F8
330
1F
100
AcDbEntity
  8
D-2_蓋
  6
Continuous
 62
     3
370
     9
100
AcDbLine
 10
-374.8876623205234
 20
-711.7701020111908
 30
0.0
 11
-400.4537633947422
 21
-711.7701020111908
 31
0.0
  0
LINE
  5
2F9
330
1F
100
AcDbEntity
  8
D-2_蓋
  6
Continuous
 62
     3
370
     9
100
AcDbLine
 10
-519.1422333588471
 20
-704.2697061074746
 30
0.0
 11
-541.1791002428208
 21
-704.2697061074746
 31
0.0
  0
LINE
  5
2FA
330
1F
100
AcDbEntity
  8
D-2_蓋
  6
Continuous
 62
     3
370
     9
100
AcDbLine
 10
-541.1791002428208
 20
-704.2697061074746
 30
0.0
 11
-543.7358959301096
 21
-711.7701020111908
 31
0.0
  0
LINE
  5
2FB
330
1F
100
AcDbEntity
  8
D-2_蓋
  6
Continuous
 62
     3
370
     9
100
AcDbLine
 10
-543.7358959301096
 20
-711.7701020111908
 30
0.0
 11
-569.3016258445946
 21
-711.7701020111908
 31
0.0
  0
LINE
  5
2FC
330
1F
100
AcDbEntity
  8
D-2_蓋
  6
Continuous
 62
     3
370
     9
100
AcDbLine
 10
-571.8581740920606
 20
-704.2697061074746
 30
0.0
 11
-569.3016258445946
 21
-711.7701020111908
 31
0.0
  0
LINE
  5
2FD
330
1F
100
AcDbEntity
  8
D-2_蓋
  6
Continuous
 62
     3
370
     9
100
AcDbLine
 10
-571.8581740920606
 20
-704.2697061074746
 30
0.0
 11
-604.5948337864231
 21
-704.2697061074746
 31
0.0
  0
LINE
  5
2FE
330
1F
100
AcDbEntity
  8
D-2_蓋
  6
Continuous
 62
     3
370
     9
100
AcDbLine
 10
-604.5948337864231
 20
-704.2697061074746
 30
0.0
 11
-607.1515057538005
 21
-711.7701020111908
 31
0.0
  0
LINE
  5
2FF
330
1F
100
AcDbEntity
  8
D-2_蓋
  6
Continuous
 62
     3
370
     9
100
AcDbLine
 10
-519.1422333588471
 20
-704.2697061074746
 30
0.0
 11
-516.5856851113807
 21
-711.7701020111908
 31
0.0
  0
LINE
  5
300
330
1F
100
AcDbEntity
  8
D-2_蓋
  6
Continuous
 62
     3
370
     9
100
AcDbLine
 10
-491.019584037162
 20
-711.7701020111908
 30
0.0
 11
-516.5856851113807
 21
-711.7701020111908
 31
0.0
  0
LINE
  5
301
330
1F
100
AcDbEntity
  8
D-2_蓋
  6
Continuous
 62
     3
370
     9
100
AcDbLine
 10
-635.2742787953969
 20
-704.2697061074746
 30
0.0
 11
-657.3112693992821
 21
-704.2697061074746
 31
0.0
  0
LINE
  5
302
330
1F
100
AcDbEntity
  8
D-2_蓋
  6
Continuous
 62
     3
370
     9
100
AcDbLine
 10
-657.3112693992821
 20
-704.2697061074746
 30
0.0
 11
-659.8673227671029
 21
-711.7701020111908
 31
0.0
  0
LINE
  5
303
330
1F
100
AcDbEntity
  8
D-2_蓋
  6
Continuous
 62
     3
370
     9
100
AcDbLine
 10
-635.2742787953969
 20
-704.2697061074746
 30
0.0
 11
-632.7176068280193
 21
-711.7701020111908
 31
0.0
  0
LINE
  5
304
330
1F
100
AcDbEntity
  8
D-2_蓋
  6
Continuous
 62
     3
370
     9
100
AcDbLine
 10
-607.1515057538005
 20
-711.7701020111908
 30
0.0
 11
-632.7176068280193
 21
-711.7701020111908
 31
0.0
  0
LINE
  5
305
330
1F
100
AcDbEntity
  8
D-2_蓋
  6
Continuous
 62
     3
370
     9
100
AcDbLine
 10
-659.8673227671029
 20
-711.7701020111908
 30
0.0
 11
-675.1198845940667
 21
-711.7701020111908
 31
0.0
  0
LINE
  5
306
330
1F
100
AcDbEntity
  8
D-2_蓋
  6
Continuous
 62
     3
370
     9
100
AcDbLine
 10
-278.605486895587
 20
-871.7698875633446
 30
0.0
 11
-675.1198845940667
 21
-871.7698875633446
 31
0.0
  0
LINE
  5
307
330
1F
100
AcDbEntity
  8
D-2_蓋
  6
Continuous
 62
     3
370
     9
100
AcDbLine
 10
-278.605486895587
 20
-841.7697885874155
 30
0.0
 11
-675.1198845940667
 21
-841.7697885874155
 31
0.0
  0
LINE
  5
308
330
1F
100
AcDbEntity
  8
D-2_蓋
  6
Continuous
 62
     3
370
     9
100
AcDbLine
 10
-278.605486895587
 20
-836.77001953125
 30
0.0
 11
-675.1198845940667
 21
-836.77001953125
 31
0.0
  0
LINE
  5
309
330
1F
100
AcDbEntity
  8
D-2_蓋
  6
Continuous
 62
     3
370
     9
100
AcDbLine
 10
-278.605486895587
 20
-741.7697061074746
 30
0.0
 11
-675.1198845940667
 21
-741.7697061074746
 31
0.0
  0
LINE
  5
30A
330
1F
100
AcDbEntity
  8
D-2_蓋
  6
Continuous
 62
     3
370
     9
100
AcDbLine
 10
-278.605486895587
 20
-746.7699700432854
 30
0.0
 11
-675.1198845940667
 21
-746.7699700432854
 31
0.0
  0
LINE
  5
30B
330
1F
100
AcDbEntity
  8
D-2_蓋
  6
Continuous
 62
     3
370
     9
100
AcDbLine
 10
-142.8274618612753
 20
-711.7701020111908
 30
0.0
 11
-117.8273793813344
 21
-711.7701020111908
 31
0.0
  0
LINE
  5
30C
330
1F
100
AcDbEntity
  8
D-2_蓋
  6
Continuous
 62
     3
370
     9
100
AcDbLine
 10
-117.8273793813344
 20
-871.7698875633446
 30
0.0
 11
-142.8274618612753
 21
-871.7698875633446
 31
0.0
  0
LINE
  5
30D
330
1F
100
AcDbEntity
  8
D-2_蓋
  6
Continuous
 62
     3
370
     9
100
AcDbLine
 10
-117.8273793813344
 20
-841.2699601456926
 30
0.0
 11
-117.8273793813344
 21
-871.7698875633446
 31
0.0
  0
LINE
  5
30E
330
1F
100
AcDbEntity
  8
D-2_蓋
  6
Continuous
 62
     3
370
     9
100
AcDbLine
 10
-122.8277670370565
 20
-836.2694487700592
 30
0.0
 11
-117.8273793813344
 21
-841.2699601456926
 31
0.0
  0
LINE
  5
30F
330
1F
100
AcDbEntity
  8
D-2_蓋
  6
Continuous
 62
     3
370
     9
100
AcDbLine
 10
-142.8274618612753
 20
-871.7698875633446
 30
0.0
 11
-142.8274618612753
 21
-841.2699601456926
 31
0.0
  0
LINE
  5
310
330
1F
100
AcDbEntity
  8
D-2_蓋
  6
Continuous
 62
     3
370
     9
100
AcDbLine
 10
-142.8274618612753
 20
-841.2699601456926
 30
0.0
 11
-137.8276928051096
 21
-836.2694487700592
 31
0.0
  0
LINE
  5
311
330
1F
100
AcDbEntity
  8
D-2_蓋
  6
Continuous
 62
     3
370
     9
100
AcDbLine
 10
-142.8274618612753
 20
-742.2702768686655
 30
0.0
 11
-142.8274618612753
 21
-704.2702009871199
 31
0.0
  0
LINE
  5
312
330
1F
100
AcDbEntity
  8
D-2_蓋
  6
Continuous
 62
     3
370
     9
100
AcDbLine
 10
-142.8274618612753
 20
-742.2702768686655
 30
0.0
 11
-137.8276928051096
 21
-747.270045924831
 31
0.0
  0
LINE
  5
313
330
1F
100
AcDbEntity
  8
D-2_蓋
  6
Continuous
 62
     3
370
     9
100
AcDbLine
 10
-137.8276928051096
 20
-836.2694487700592
 30
0.0
 11
-137.8276928051096
 21
-747.270045924831
 31
0.0
  0
LINE
  5
314
330
1F
100
AcDbEntity
  8
D-2_蓋
  6
Continuous
 62
     3
370
     9
100
AcDbLine
 10
-122.8277670370565
 20
-747.270045924831
 30
0.0
 11
-122.8277670370565
 21
-836.2694487700592
 31
0.0
  0
LINE
  5
315
330
1F
100
AcDbEntity
  8
D-2_蓋
  6
Continuous
 62
     3
370
     9
100
AcDbLine
 10
-122.8277670370565
 20
-747.270045924831
 30
0.0
 11
-117.8273793813344
 21
-742.2702768686655
 31
0.0
  0
LINE
  5
316
330
1F
100
AcDbEntity
  8
D-2_蓋
  6
Continuous
 62
     3
370
     9
100
AcDbLine
 10
-117.8273793813344
 20
-704.2702009871199
 30
0.0
 11
-117.8273793813344
 21
-742.2702768686655
 31
0.0
  0
LINE
  5
317
330
1F
100
AcDbEntity
  8
D-2_蓋
  6
Continuous
 62
     3
370
     9
100
AcDbLine
 10
-142.8274618612753
 20
-704.2702009871199
 30
0.0
 11
-117.8273793813344
 21
-704.2702009871199
 31
0.0
  0
LINE
  5
318
330
1F
100
AcDbEntity
  8
D-4_寸法
  6
Continuous
 62
     7
370
     9
100
AcDbLine
 10
4.618711729307563
 20
-871.7698875633446
 30
0.0
 11
4.618711729307563
 21
-711.7701020111908
 31
0.0
  0
LINE
  5
319
330
1F
100
AcDbEntity
  8
D-4_寸法
  6
Continuous
 62
     7
370
     9
100
AcDbLine
 10
-99.05325399862733
 20
-871.7698875633446
 30
0.0
 11
7.618672138935949
 21
-871.7698875633446
 31
0.0
  0
LINE
  5
31A
330
1F
100
AcDbEntity
  8
D-4_寸法
  6
Continuous
 62
     7
370
     9
100
AcDbLine
 10
-99.05325399862733
 20
-711.7701020111908
 30
0.0
 11
7.618672138935949
 21
-711.7701020111908
 31
0.0
  0
LINE
  5
31B
330
1F
100
AcDbEntity
  8
D-4_寸法
  6
Continuous
 62
     7
370
     9
100
AcDbLine
 10
4.618711729307563
 20
-871.7698875633446
 30
0.0
 11
1.355475348395316
 21
-846.9840879698057
 31
0.0
  0
LINE
  5
31C
330
1F
100
AcDbEntity
  8
D-4_寸法
  6
Continuous
 62
     7
370
     9
100
AcDbLine
 10
4.618711729307563
 20
-871.7698875633446
 30
0.0
 11
7.88194811021981
 21
-846.9840879698057
 31
0.0
  0
LINE
  5
31D
330
1F
100
AcDbEntity
  8
D-4_寸法
  6
Continuous
 62
     7
370
     9
100
AcDbLine
 10
4.618711729307563
 20
-711.7701020111908
 30
0.0
 11
1.355475348395316
 21
-736.5559016047297
 31
0.0
  0
LINE
  5
31E
330
1F
100
AcDbEntity
  8
D-4_寸法
  6
Continuous
 62
     7
370
     9
100
AcDbLine
 10
4.618711729307563
 20
-711.7701020111908
 30
0.0
 11
7.88194811021981
 21
-736.5559016047297
 31
0.0
  0
LINE
  5
31F
330
1F
100
AcDbEntity
  8
D-2_蓋
  6
Continuous
 62
     3
370
     9
100
AcDbLine
 10
-801.4066129117398
 20
-899.2421413112331
 30
0.0
 11
-776.406530431799
 21
-904.5917902766047
 31
0.0
  0
LINE
  5
320
330
1F
100
AcDbEntity
  8
D-2_蓋
  6
Continuous
 62
     3
370
     9
100
AcDbLine
 10
-801.4066129117398
 20
-896.6855930637669
 30
0.0
 11
-776.406530431799
 21
-902.0354894689613
 31
0.0
  0
LINE
  5
321
330
1F
100
AcDbEntity
  8
D-2_蓋
  6
Continuous
 62
     3
370
     9
100
AcDbLine
 10
-792.6695127744932
 20
-700.4022216796875
 30
0.0
 11
-776.406530431799
 21
-716.6649565825592
 31
0.0
  0
LINE
  5
322
330
1F
100
AcDbEntity
  8
D-2_蓋
  6
Continuous
 62
     3
370
     9
100
AcDbLine
 10
-783.9326600770693
 20
-698.532071500211
 30
0.0
 11
-776.406530431799
 21
-706.0584485853041
 31
0.0
  0
LINE
  5
323
330
1F
100
AcDbEntity
  8
D-2_蓋
  6
Continuous
 62
     3
370
     9
100
AcDbLine
 10
-801.4066129117398
 20
-702.2716295396959
 30
0.0
 11
-780.3472570470863
 21
-723.3309854043496
 31
0.0
  0
LINE
  5
324
330
1F
100
AcDbEntity
  8
D-2_蓋
  6
Continuous
 62
     3
370
     9
100
AcDbLine
 10
-801.4066129117398
 20
-712.8786324165962
 30
0.0
 11
-789.0841097445102
 21
-725.2003932643581
 31
0.0
  0
LINE
  5
325
330
1F
100
AcDbEntity
  8
D-2_蓋
  6
Continuous
 62
     3
370
     9
100
AcDbLine
 10
-801.4066129117398
 20
-723.4848929740286
 30
0.0
 11
-797.8212098817568
 21
-727.0702960040119
 31
0.0
  0
LINE
  5
326
330
1F
100
AcDbEntity
  8
D-2_蓋
  6
Continuous
 62
     3
370
     9
100
AcDbLine
 10
-801.4066129117398
 20
-776.2009574271536
 30
0.0
 11
-795.8687859612542
 21
-781.738660657728
 31
0.0
  0
LINE
  5
327
330
1F
100
AcDbEntity
  8
D-2_蓋
  6
Continuous
 62
     3
370
     9
100
AcDbLine
 10
-801.4066129117398
 20
-765.5944494298985
 30
0.0
 11
-782.3745315139356
 21
-784.6262833878801
 31
0.0
  0
LINE
  5
328
330
1F
100
AcDbEntity
  8
D-2_蓋
  6
Continuous
 62
     3
370
     9
100
AcDbLine
 10
-801.4066129117398
 20
-754.9874465529983
 30
0.0
 11
-776.406530431799
 21
-779.9872815931166
 31
0.0
  0
LINE
  5
329
330
1F
100
AcDbEntity
  8
D-2_蓋
  6
Continuous
 62
     3
370
     9
100
AcDbLine
 10
-787.9123584644213
 20
-757.8755641627956
 30
0.0
 11
-776.406530431799
 21
-769.3807735958615
 31
0.0
  0
LINE
  5
32A
330
1F
100
AcDbEntity
  8
D-2_蓋
  6
Continuous
 62
     3
370
     9
100
AcDbLine
 10
-792.6695127744932
 20
-816.534143396326
 30
0.0
 11
-776.406530431799
 21
-832.7968782991977
 31
0.0
  0
LINE
  5
32B
330
1F
100
AcDbEntity
  8
D-2_蓋
  6
Continuous
 62
     3
370
     9
100
AcDbLine
 10
-783.9326600770693
 20
-814.6642406566723
 30
0.0
 11
-776.406530431799
 21
-822.1898754222973
 31
0.0
  0
LINE
  5
32C
330
1F
100
AcDbEntity
  8
D-2_蓋
  6
Continuous
 62
     3
370
     9
100
AcDbLine
 10
-801.4066129117398
 20
-818.4035512563344
 30
0.0
 11
-780.3472570470863
 21
-839.4629071209881
 31
0.0
  0
LINE
  5
32D
330
1F
100
AcDbEntity
  8
D-2_蓋
  6
Continuous
 62
     3
370
     9
100
AcDbLine
 10
-801.4066129117398
 20
-829.0105541332348
 30
0.0
 11
-789.0841097445102
 21
-841.3323149809967
 31
0.0
  0
LINE
  5
32E
330
1F
100
AcDbEntity
  8
D-2_蓋
  6
Continuous
 62
     3
370
     9
100
AcDbLine
 10
-801.4066129117398
 20
-839.6170621304898
 30
0.0
 11
-797.8212098817568
 21
-843.2022177206502
 31
0.0
  0
LINE
  5
32F
330
1F
100
AcDbEntity
  8
D-2_蓋
  6
Continuous
 62
     3
370
     9
100
AcDbLine
 10
-801.4066129117398
 20
-892.3328791437922
 30
0.0
 11
-795.8687859612542
 21
-897.8705823743666
 31
0.0
  0
LINE
  5
330
330
1F
100
AcDbEntity
  8
D-2_蓋
  6
Continuous
 62
     3
370
     9
100
AcDbLine
 10
-801.4066129117398
 20
-881.7263711465371
 30
0.0
 11
-782.3745315139356
 21
-900.7582051045185
 31
0.0
  0
LINE
  5
331
330
1F
100
AcDbEntity
  8
D-2_蓋
  6
Continuous
 62
     3
370
     9
100
AcDbLine
 10
-801.4066129117398
 20
-871.1193682696367
 30
0.0
 11
-776.406530431799
 21
-896.119203309755
 31
0.0
  0
LINE
  5
332
330
1F
100
AcDbEntity
  8
D-2_蓋
  6
Continuous
 62
     3
370
     9
100
AcDbLine
 10
-787.9123584644213
 20
-874.0074858794342
 30
0.0
 11
-776.406530431799
 21
-885.5126953125
 31
0.0
  0
LINE
  5
333
330
1F
100
AcDbEntity
  8
D-2_蓋
  6
Continuous
 62
     3
370
     9
100
AcDbLine
 10
-776.406530431799
 20
-641.6488729940877
 30
0.0
 11
-801.4066129117398
 21
-636.2994714685387
 31
0.0
  0
LINE
  5
334
330
1F
100
AcDbEntity
  8
D-2_蓋
  6
Continuous
 62
     3
370
     9
100
AcDbLine
 10
-776.406530431799
 20
-644.2056686813767
 30
0.0
 11
-801.4066129117398
 21
-638.8560197160051
 31
0.0
  0
LINE
  5
335
330
1F
100
AcDbEntity
  8
D-2_蓋
  6
Continuous
 62
     3
370
     9
100
AcDbLine
 10
-801.4066129117398
 20
-666.978297877956
 30
0.0
 11
-776.406530431799
 21
-672.3279468433276
 31
0.0
  0
LINE
  5
336
330
1F
100
AcDbEntity
  8
D-2_蓋
  6
Continuous
 62
     3
370
     9
100
AcDbLine
 10
-801.4066129117398
 20
-664.4217496304898
 30
0.0
 11
-776.406530431799
 21
-669.7716460356842
 31
0.0
  0
LINE
  5
337
330
1F
100
AcDbEntity
  8
D-2_蓋
  6
Continuous
 62
     3
370
     9
100
AcDbLine
 10
-801.4066129117398
 20
-660.0690357105151
 30
0.0
 11
-795.8687859612542
 21
-665.6067389410895
 31
0.0
  0
LINE
  5
338
330
1F
100
AcDbEntity
  8
D-2_蓋
  6
Continuous
 62
     3
370
     9
100
AcDbLine
 10
-801.4066129117398
 20
-649.4625277132602
 30
0.0
 11
-782.3745315139356
 21
-668.4943616712416
 31
0.0
  0
LINE
  5
339
330
1F
100
AcDbEntity
  8
D-2_蓋
  6
Continuous
 62
     3
370
     9
100
AcDbLine
 10
-801.4066129117398
 20
-638.8560197160051
 30
0.0
 11
-776.406530431799
 21
-663.855359876478
 31
0.0
  0
LINE
  5
33A
330
1F
100
AcDbEntity
  8
D-2_蓋
  6
Continuous
 62
     3
370
     9
100
AcDbLine
 10
-787.9123584644213
 20
-641.7436424461571
 30
0.0
 11
-776.406530431799
 21
-653.2488518792229
 31
0.0
  0
LINE
  5
33B
330
1F
100
AcDbEntity
  8
D-2_蓋
  6
Continuous
 62
     3
370
     9
100
AcDbLine
 10
-776.406530431799
 20
-624.5210884712837
 30
0.0
 11
-776.406530431799
 21
-915.9960442620354
 31
0.0
  0
LINE
  5
33C
330
1F
100
AcDbEntity
  8
D-2_蓋
  6
Continuous
 62
     3
370
     9
100
AcDbLine
 10
-801.4066129117398
 20
-624.5210884712837
 30
0.0
 11
-801.4066129117398
 21
-915.9960442620354
 31
0.0
  0
LINE
  5
33D
330
1F
100
AcDbEntity
  8
D-4_寸法
  6
Continuous
 62
     7
370
     9
100
AcDbLine
 10
-818.3432501715583
 20
-843.9697760504645
 30
0.0
 11
-872.0380628431166
 21
-843.9697760504645
 31
0.0
  0
LINE
  5
33E
330
1F
100
AcDbEntity
  8
D-4_寸法
  6
Continuous
 62
     7
370
     9
100
AcDbLine
 10
-818.3432501715583
 20
-871.1193682696367
 30
0.0
 11
-872.0380628431166
 21
-871.1193682696367
 31
0.0
  0
LINE
  5
33F
330
1F
100
AcDbEntity
  8
D-4_寸法
  6
Continuous
 62
     7
370
     9
100
AcDbLine
 10
-869.0381024334881
 20
-843.9697760504645
 30
0.0
 11
-872.3013388144002
 21
-819.1832341374577
 31
0.0
  0
LINE
  5
340
330
1F
100
AcDbEntity
  8
D-4_寸法
  6
Continuous
 62
     7
370
     9
100
AcDbLine
 10
-869.0381024334881
 20
-843.9697760504645
 30
0.0
 11
-865.7747423326646
 21
-819.1832341374577
 31
0.0
  0
LINE
  5
341
330
1F
100
AcDbEntity
  8
D-4_寸法
  6
Continuous
 62
     7
370
     9
100
AcDbLine
 10
-869.0381024334881
 20
-871.1193682696367
 30
0.0
 11
-872.3013388144002
 21
-895.9056627428208
 31
0.0
  0
LINE
  5
342
330
1F
100
AcDbEntity
  8
D-4_寸法
  6
Continuous
 62
     7
370
     9
100
AcDbLine
 10
-869.0381024334881
 20
-871.1193682696367
 30
0.0
 11
-865.7747423326646
 21
-895.9056627428208
 31
0.0
  0
LINE
  5
343
330
1F
100
AcDbEntity
  8
D-4_寸法
  6
Continuous
 62
     7
370
     9
100
AcDbLine
 10
-818.3432501715583
 20
-664.4217496304898
 30
0.0
 11
-872.0380628431166
 21
-664.4217496304898
 31
0.0
  0
LINE
  5
344
330
1F
100
AcDbEntity
  8
D-4_寸法
  6
Continuous
 62
     7
370
     9
100
AcDbLine
 10
-818.3432501715583
 20
-702.2716295396959
 30
0.0
 11
-872.0380628431166
 21
-702.2716295396959
 31
0.0
  0
LINE
  5
345
330
1F
100
AcDbEntity
  8
D-4_寸法
  6
Continuous
 62
     7
370
     9
100
AcDbLine
 10
-869.0381024334881
 20
-664.4217496304898
 30
0.0
 11
-872.3013388144002
 21
-639.6359500369509
 31
0.0
  0
LINE
  5
346
330
1F
100
AcDbEntity
  8
D-4_寸法
  6
Continuous
 62
     7
370
     9
100
AcDbLine
 10
-869.0381024334881
 20
-664.4217496304898
 30
0.0
 11
-865.7747423326646
 21
-639.6359500369509
 31
0.0
  0
LINE
  5
347
330
1F
100
AcDbEntity
  8
D-4_寸法
  6
Continuous
 62
     7
370
     9
100
AcDbLine
 10
-869.0381024334881
 20
-702.2716295396959
 30
0.0
 11
-872.3013388144002
 21
-727.0574291332348
 31
0.0
  0
LINE
  5
348
330
1F
100
AcDbEntity
  8
D-4_寸法
  6
Continuous
 62
     7
370
     9
100
AcDbLine
 10
-869.0381024334881
 20
-702.2716295396959
 30
0.0
 11
-865.7747423326646
 21
-727.0574291332348
 31
0.0
  0
LINE
  5
349
330
1F
100
AcDbEntity
  8
D-4_寸法
  6
Continuous
 62
     7
370
     9
100
AcDbLine
 10
-869.0381024334881
 20
-812.4696968697212
 30
0.0
 11
-869.0381024334881
 21
-910.3799026076858
 31
0.0
  0
LINE
  5
34A
330
1F
100
AcDbEntity
  8
D-4_寸法
  6
Continuous
 62
     7
370
     9
100
AcDbLine
 10
-869.0381024334881
 20
-630.0122730152026
 30
0.0
 11
-869.0381024334881
 21
-736.2300233583193
 31
0.0
  0
LINE
  5
34B
330
1F
100
AcDbEntity
  8
D-4_寸法
  6
Continuous
 62
     7
370
     9
100
AcDbLine
 10
-764.5153148754221
 20
-719.9430393528293
 30
0.0
 11
-732.4995711043073
 21
-713.0921729835303
 31
0.0
  0
LINE
  5
34C
330
1F
100
AcDbEntity
  8
D-4_寸法
  6
Continuous
 62
     7
370
     9
100
AcDbLine
 10
-769.7466876055742
 20
-695.4964797561233
 30
0.0
 11
-737.7311912742821
 21
-688.6451185071791
 31
0.0
  0
LINE
  5
34D
330
1F
100
AcDbEntity
  8
D-4_寸法
  6
Continuous
 62
     7
370
     9
100
AcDbLine
 10
-735.4332176414696
 20
-713.7199278135557
 30
0.0
 11
-727.0556475665117
 21
-737.2739719700168
 31
0.0
  0
LINE
  5
34E
330
1F
100
AcDbEntity
  8
D-4_寸法
  6
Continuous
 62
     7
370
     9
100
AcDbLine
 10
-735.4332176414696
 20
-713.7199278135557
 30
0.0
 11
-733.4372443121833
 21
-738.6398397909627
 31
0.0
  0
LINE
  5
34F
330
1F
100
AcDbEntity
  8
D-4_寸法
  6
Continuous
 62
     7
370
     9
100
AcDbLine
 10
-740.6647140915328
 20
-689.2728733372043
 30
0.0
 11
-742.6604399809967
 21
-664.3527139199746
 31
0.0
  0
LINE
  5
350
330
1F
100
AcDbEntity
  8
D-4_寸法
  6
Continuous
 62
     7
370
     9
100
AcDbLine
 10
-740.6647140915328
 20
-689.2728733372043
 30
0.0
 11
-749.0422841664906
 21
-665.7183343010979
 31
0.0
  0
LINE
  5
351
330
1F
100
AcDbEntity
  8
D-4_寸法
  6
Continuous
 62
     7
370
     9
100
AcDbLine
 10
-729.1591334987331
 20
-743.0385775179477
 30
0.0
 11
-747.5152093010979
 21
-657.260098843961
 31
0.0
  0
LINE
  5
352
330
1F
100
AcDbEntity
  8
D-4_寸法
  6
Continuous
 62
     7
370
     9
100
AcDbLine
 10
-117.8273793813344
 20
-692.6860582506334
 30
0.0
 11
-117.8273793813344
 21
-656.5160472972973
 31
0.0
  0
LINE
  5
353
330
1F
100
AcDbEntity
  8
D-4_寸法
  6
Continuous
 62
     7
370
     9
100
AcDbLine
 10
-142.8274618612753
 20
-692.6860582506334
 30
0.0
 11
-142.8274618612753
 21
-656.5160472972973
 31
0.0
  0
LINE
  5
354
330
1F
100
AcDbEntity
  8
D-4_寸法
  6
Continuous
 62
     7
370
     9
100
AcDbLine
 10
-117.8273793813344
 20
-659.5160077069256
 30
0.0
 11
-93.04108490815025
 21
-656.253018765836
 31
0.0
  0
LINE
  5
355
330
1F
100
AcDbEntity
  8
D-4_寸法
  6
Continuous
 62
     7
370
     9
100
AcDbLine
 10
-117.8273793813344
 20
-659.5160077069256
 30
0.0
 11
-93.04108490815025
 21
-662.7792440878377
 31
0.0
  0
LINE
  5
356
330
1F
100
AcDbEntity
  8
D-4_寸法
  6
Continuous
 62
     7
370
     9
100
AcDbLine
 10
-142.8274618612753
 20
-659.5160077069256
 30
0.0
 11
-167.6137563344594
 21
-656.253018765836
 31
0.0
  0
LINE
  5
357
330
1F
100
AcDbEntity
  8
D-4_寸法
  6
Continuous
 62
     7
370
     9
100
AcDbLine
 10
-142.8274618612753
 20
-659.5160077069256
 30
0.0
 11
-167.6137563344594
 21
-662.7792440878377
 31
0.0
  0
LINE
  5
358
330
1F
100
AcDbEntity
  8
D-4_寸法
  6
Continuous
 62
     7
370
     9
100
AcDbLine
 10
-89.95489172033359
 20
-659.5160077069256
 30
0.0
 11
-170.5106580579601
 21
-659.5160077069256
 31
0.0
  0
LINE
  5
359
330
1F
100
AcDbEntity
  8
D-4_寸法
  6
Continuous
 62
     7
370
     9
100
AcDbLine
 10
-122.8277670370565
 20
-816.0593063766892
 30
0.0
 11
-98.04147256387239
 21
-812.7963174355996
 31
0.0
  0
LINE
  5
35A
330
1F
100
AcDbEntity
  8
D-4_寸法
  6
Continuous
 62
     7
370
     9
100
AcDbLine
 10
-122.8277670370565
 20
-816.0593063766892
 30
0.0
 11
-98.04147256387239
 21
-819.3225427576012
 31
0.0
  0
LINE
  5
35B
330
1F
100
AcDbEntity
  8
D-4_寸法
  6
Continuous
 62
     7
370
     9
100
AcDbLine
 10
-137.8276928051096
 20
-816.0593063766892
 30
0.0
 11
-162.6133686787372
 21
-812.7963174355996
 31
0.0
  0
LINE
  5
35C
330
1F
100
AcDbEntity
  8
D-4_寸法
  6
Continuous
 62
     7
370
     9
100
AcDbLine
 10
-137.8276928051096
 20
-816.0593063766892
 30
0.0
 11
-162.6133686787372
 21
-819.3225427576012
 31
0.0
  0
LINE
  5
35D
330
1F
100
AcDbEntity
  8
D-4_寸法
  6
Continuous
 62
     7
370
     9
100
AcDbLine
 10
-87.07023826805312
 20
-816.0593063766892
 30
0.0
 11
-167.540761586782
 21
-816.0593063766892
 31
0.0
  0
LINE
  5
35E
330
1F
100
AcDbEntity
  8
D-4_寸法
  6
Continuous
 62
     7
370
     9
100
AcDbLine
 10
-776.406530431799
 20
-620.5479472392313
 30
0.0
 11
-776.406530431799
 21
-584.5867754961992
 31
0.0
  0
LINE
  5
35F
330
1F
100
AcDbEntity
  8
D-4_寸法
  6
Continuous
 62
     7
370
     9
100
AcDbLine
 10
-801.4066129117398
 20
-620.5479472392313
 30
0.0
 11
-801.4066129117398
 21
-584.5867754961992
 31
0.0
  0
LINE
  5
360
330
1F
100
AcDbEntity
  8
D-4_寸法
  6
Continuous
 62
     7
370
     9
100
AcDbLine
 10
-776.406530431799
 20
-587.5869833456502
 30
0.0
 11
-751.6204833984375
 21
-584.3237469647381
 31
0.0
  0
LINE
  5
361
330
1F
100
AcDbEntity
  8
D-4_寸法
  6
Continuous
 62
     7
370
     9
100
AcDbLine
 10
-776.406530431799
 20
-587.5869833456502
 30
0.0
 11
-751.6204833984375
 21
-590.8499722867398
 31
0.0
  0
LINE
  5
362
330
1F
100
AcDbEntity
  8
D-4_寸法
  6
Continuous
 62
     7
370
     9
100
AcDbLine
 10
-801.4066129117398
 20
-587.5869833456502
 30
0.0
 11
-826.1927836650126
 21
-584.3237469647381
 31
0.0
  0
LINE
  5
363
330
1F
100
AcDbEntity
  8
D-4_寸法
  6
Continuous
 62
     7
370
     9
100
AcDbLine
 10
-801.4066129117398
 20
-587.5869833456502
 30
0.0
 11
-826.1927836650126
 21
-590.8499722867398
 31
0.0
  0
LINE
  5
364
330
1F
100
AcDbEntity
  8
D-4_寸法
  6
Continuous
 62
     7
370
     9
100
AcDbLine
 10
-739.4061114336992
 20
-587.5869833456502
 30
0.0
 11
-833.7950010557432
 21
-587.5869833456502
 31
0.0
  0
LINE
  5
365
330
1F
100
AcDbEntity
  8
D-4_寸法
  6
Continuous
 62
     7
370
     9
100
AcDbLine
 10
-51.86264450485623
 20
-971.7697226034627
 30
0.0
 11
-51.86264450485623
 21
-1041.769706107475
 31
0.0
  0
LINE
  5
366
330
1F
100
AcDbEntity
  8
D-4_寸法
  6
Continuous
 62
     7
370
     9
100
AcDbLine
 10
-51.86264450485623
 20
-971.7697226034627
 30
0.0
 11
-901.8627269847973
 21
-971.7697226034627
 31
0.0
  0
LINE
  5
367
330
1F
100
AcDbEntity
  8
D-4_寸法
  6
Continuous
 62
     7
370
     9
100
AcDbLine
 10
-901.8627269847973
 20
-971.7697226034627
 30
0.0
 11
-901.8627269847973
 21
-1041.769706107475
 31
0.0
  0
LINE
  5
368
330
1F
100
AcDbEntity
  8
D-4_寸法
  6
Continuous
 62
     7
370
     9
100
AcDbLine
 10
-51.86264450485623
 20
-1041.769706107475
 30
0.0
 11
-901.8627269847973
 21
-1041.769706107475
 31
0.0
  0
LINE
  5
369
330
1F
100
AcDbEntity
  8
D-4_寸法
  6
Continuous
 62
     7
370
     9
100
AcDbLine
 10
-722.1899908942146
 20
-603.9222181165541
 30
0.0
 11
-472.4964863545185
 21
-603.9222181165541
 31
0.0
  0
LINE
  5
36A
330
1F
100
AcDbEntity
  8
D-4_寸法
  6
Continuous
 62
     7
370
     9
100
AcDbLine
 10
-722.1899908942146
 20
-603.9222181165541
 30
0.0
 11
-782.1476291965794
 21
-686.3360100823479
 31
0.0
  0
LINE
  5
36B
330
1F
100
AcDbEntity
  8
D-4_寸法
  6
Continuous
 62
     7
370
     9
100
AcDbLine
 10
-782.1476291965794
 20
-686.3360100823479
 30
0.0
 11
-770.2046987172719
 21
-664.3727565456081
 31
0.0
  0
LINE
  5
36C
330
1F
100
AcDbEntity
  8
D-4_寸法
  6
Continuous
 62
     7
370
     9
100
AcDbLine
 10
-782.1476291965794
 20
-686.3360100823479
 30
0.0
 11
-764.9273021801096
 21
-668.2125277132602
 31
0.0
  0
LINE
  5
36D
330
1F
100
AcDbEntity
  8
A-2_蓋
  6
Continuous
 62
     3
370
     9
100
AcDbLine
 10
1270.800946209882
 20
-55.27699238545182
 30
0.0
 11
1270.800946209882
 21
50.82941003747891
 31
0.0
  0
LINE
  5
36E
330
1F
100
AcDbEntity
  8
A-2_蓋
  6
Continuous
 62
     3
370
     9
100
AcDbLine
 10
1268.801137563345
 20
-55.58517868454373
 30
0.0
 11
1268.801137563345
 21
48.82960139094195
 31
0.0
  0
LINE
  5
36F
330
1F
100
AcDbEntity
  8
A-2_蓋
  6
Continuous
 62
     3
370
     9
100
AcDbLine
 10
1268.801137563345
 20
648.8297251108531
 30
0.0
 11
1268.801137563345
 21
458.7709499049834
 31
0.0
  0
LINE
  5
370
330
1F
100
AcDbEntity
  8
A-2_蓋
  6
Continuous
 62
     3
370
     9
100
AcDbLine
 10
1270.800946209882
 20
650.8295337573904
 30
0.0
 11
1270.800946209882
 21
456.7708938186234
 31
0.0
  0
LINE
  5
371
330
1F
100
AcDbEntity
  8
A-2_蓋
  6
Continuous
 62
     3
370
     9
100
AcDbLine
 10
1268.801137563345
 20
763.184534021326
 30
0.0
 11
1268.801137563345
 21
658.7708674250425
 31
0.0
  0
LINE
  5
372
330
1F
100
AcDbEntity
  8
A-2_蓋
  6
Continuous
 62
     3
370
     9
100
AcDbLine
 10
1270.800946209882
 20
762.8764714421453
 30
0.0
 11
1270.800946209882
 21
656.7710587785052
 31
0.0
  0
LINE
  5
373
330
1F
100
AcDbEntity
  8
A-A
  6
Continuous
 62
     3
370
     9
100
AcDbLine
 10
1253.800840635558
 20
234.0578563793287
 30
0.0
 11
1253.800840635558
 21
225.2431838576859
 31
0.0
  0
LINE
  5
374
330
1F
100
AcDbEntity
  8
A-A
  6
Continuous
 62
     3
370
     9
100
AcDbLine
 10
1253.800840635558
 20
225.2431838576859
 30
0.0
 11
1256.801295924831
 21
224.2206387906461
 31
0.0
  0
LINE
  5
375
330
1F
100
AcDbEntity
  8
A-A
  6
Continuous
 62
     3
370
     9
100
AcDbLine
 10
1253.800840635558
 20
234.0578563793287
 30
0.0
 11
1256.801295924831
 21
235.0806488861909
 31
0.0
  0
LINE
  5
376
330
1F
100
AcDbEntity
  8
A-A
  6
Continuous
 62
     3
370
     9
100
AcDbLine
 10
1256.801295924831
 20
224.2206387906461
 30
0.0
 11
1256.801295924831
 21
213.9941983609586
 31
0.0
  0
LINE
  5
377
330
1F
100
AcDbEntity
  8
A-A
  6
Continuous
 62
     3
370
     9
100
AcDbLine
 10
1253.800840635558
 20
212.971653293919
 30
0.0
 11
1256.801295924831
 21
213.9941983609586
 31
0.0
  0
LINE
  5
378
330
1F
100
AcDbEntity
  8
A-A
  6
Continuous
 62
     3
370
     9
100
AcDbLine
 10
1253.800840635558
 20
212.971653293919
 30
0.0
 11
1253.800840635558
 21
199.8767667203336
 31
0.0
  0
LINE
  5
379
330
1F
100
AcDbEntity
  8
A-A
  6
Continuous
 62
     3
370
     9
100
AcDbLine
 10
1253.800840635558
 20
199.8767667203336
 30
0.0
 11
1256.801295924831
 21
198.854221653294
 31
0.0
  0
LINE
  5
37A
330
1F
100
AcDbEntity
  8
A-A
  6
Continuous
 62
     3
370
     9
100
AcDbLine
 10
1256.801295924831
 20
198.854221653294
 30
0.0
 11
1256.801295924831
 21
188.6279049435177
 31
0.0
  0
LINE
  5
37B
330
1F
100
AcDbEntity
  8
A-A
  6
Continuous
 62
     3
370
     9
100
AcDbLine
 10
1253.800840635558
 20
187.6051124366555
 30
0.0
 11
1253.800840635558
 21
178.7904399150128
 31
0.0
  0
LINE
  5
37C
330
1F
100
AcDbEntity
  8
A-A
  6
Continuous
 62
     3
370
     9
100
AcDbLine
 10
1253.800840635558
 20
178.7904399150128
 30
0.0
 11
1256.801295924831
 21
177.7678948479732
 31
0.0
  0
LINE
  5
37D
330
1F
100
AcDbEntity
  8
A-A
  6
Continuous
 62
     3
370
     9
100
AcDbLine
 10
1253.800840635558
 20
187.6051124366555
 30
0.0
 11
1256.801295924831
 21
188.6279049435177
 31
0.0
  0
LINE
  5
37E
330
1F
100
AcDbEntity
  8
A-A
  6
Continuous
 62
     3
370
     9
100
AcDbLine
 10
1256.801295924831
 20
177.7678948479732
 30
0.0
 11
1256.801295924831
 21
167.5414544182857
 31
0.0
  0
LINE
  5
37F
330
1F
100
AcDbEntity
  8
A-A
  6
Continuous
 62
     3
370
     9
100
AcDbLine
 10
1253.800840635558
 20
166.5189093512458
 30
0.0
 11
1256.801295924831
 21
167.5414544182857
 31
0.0
  0
LINE
  5
380
330
1F
100
AcDbEntity
  8
A-A
  6
Continuous
 62
     3
370
     9
100
AcDbLine
 10
1253.800840635558
 20
166.5189093512458
 30
0.0
 11
1253.800840635558
 21
153.4240227776607
 31
0.0
  0
LINE
  5
381
330
1F
100
AcDbEntity
  8
A-2_蓋
  6
Continuous
 62
     3
370
     9
100
AcDbLine
 10
1256.801295924831
 20
-87.19982250316718
 30
0.0
 11
1307.210231471706
 21
-87.19982250316718
 31
0.0
  0
LINE
  5
382
330
1F
100
AcDbEntity
  8
A-4_寸法
  6
Continuous
 62
     7
370
     9
100
AcDbLine
 10
-852.9105933936866
 20
662.2790692303633
 30
0.0
 11
-723.5657563080658
 21
1145.000016495989
 31
0.0
  0
LINE
  5
383
330
1F
100
AcDbEntity
  8
A-2_蓋
  6
Continuous
 62
     3
370
     9
100
AcDbLine
 10
-1594.513351852829
 20
245.3199561866555
 30
0.0
 11
395.4872749947214
 21
245.3199561866555
 31
0.0
  0
LINE
  5
384
330
1F
100
AcDbEntity
  8
A-2_蓋
  6
Continuous
 62
     3
370
     9
100
AcDbLine
 10
-1594.513351852829
 20
262.2809662690034
 30
0.0
 11
395.4872749947214
 21
262.2809662690034
 31
0.0
  0
LINE
  5
385
330
1F
100
AcDbEntity
  8
A-2_蓋
  6
Continuous
 62
     3
370
     9
100
AcDbLine
 10
395.4872749947214
 20
262.2809662690034
 30
0.0
 11
335.4870770428633
 21
245.3199561866555
 31
0.0
  0
LINE
  5
386
330
1F
100
AcDbEntity
  8
A-2_蓋
  6
Continuous
 62
     3
370
     9
100
AcDbLine
 10
335.4870770428633
 20
262.2809662690034
 30
0.0
 11
275.4868790910052
 21
245.3199561866555
 31
0.0
  0
LINE
  5
387
330
1F
100
AcDbEntity
  8
A-2_蓋
  6
Continuous
 62
     3
370
     9
100
AcDbLine
 10
275.4878688502959
 20
262.2809662690034
 30
0.0
 11
215.4876708984375
 21
245.3199561866555
 31
0.0
  0
LINE
  5
388
330
1F
100
AcDbEntity
  8
A-2_蓋
  6
Continuous
 62
     3
370
     9
100
AcDbLine
 10
215.4876708984375
 20
262.2809662690034
 30
0.0
 11
155.4874729465794
 21
245.3199561866555
 31
0.0
  0
LINE
  5
389
330
1F
100
AcDbEntity
  8
A-2_蓋
  6
Continuous
 62
     3
370
     9
100
AcDbLine
 10
155.4874729465794
 20
262.2809662690034
 30
0.0
 11
95.4870275548987
 21
245.3199561866555
 31
0.0
  0
LINE
  5
38A
330
1F
100
AcDbEntity
  8
A-2_蓋
  6
Continuous
 62
     3
370
     9
100
AcDbLine
 10
95.4870275548987
 20
262.2809662690034
 30
0.0
 11
35.48658216321797
 21
245.3199561866555
 31
0.0
  0
LINE
  5
38B
330
1F
100
AcDbEntity
  8
A-2_蓋
  6
Continuous
 62
     3
370
     9
100
AcDbLine
 10
35.48757192250861
 20
262.2809662690034
 30
0.0
 11
-24.51262602934946
 21
245.3199561866555
 31
0.0
  0
LINE
  5
38C
330
1F
100
AcDbEntity
  8
A-2_蓋
  6
Continuous
 62
     3
370
     9
100
AcDbLine
 10
-24.51262602934946
 20
262.2809662690034
 30
0.0
 11
-84.51282398120753
 21
245.3199561866555
 31
0.0
  0
LINE
  5
38D
330
1F
100
AcDbEntity
  8
A-2_蓋
  6
Continuous
 62
     3
370
     9
100
AcDbLine
 10
-84.51282398120753
 20
262.2809662690034
 30
0.0
 11
-144.5130219330659
 21
245.3199561866555
 31
0.0
  0
LINE
  5
38E
330
1F
100
AcDbEntity
  8
A-2_蓋
  6
Continuous
 62
     3
370
     9
100
AcDbLine
 10
-144.5120321737753
 20
262.2809662690034
 30
0.0
 11
-204.5134673247466
 21
245.3199561866555
 31
0.0
  0
LINE
  5
38F
330
1F
100
AcDbEntity
  8
A-2_蓋
  6
Continuous
 62
     3
370
     9
100
AcDbLine
 10
-204.512477565456
 20
262.2809662690034
 30
0.0
 11
-264.5126755173141
 21
245.3199561866555
 31
0.0
  0
LINE
  5
390
330
1F
100
AcDbEntity
  8
A-2_蓋
  6
Continuous
 62
     3
370
     9
100
AcDbLine
 10
-264.5126755173141
 20
262.2809662690034
 30
0.0
 11
-324.5128734691721
 21
245.3199561866555
 31
0.0
  0
LINE
  5
391
330
1F
100
AcDbEntity
  8
A-2_蓋
  6
Continuous
 62
     3
370
     9
100
AcDbLine
 10
-324.5128734691721
 20
262.2809662690034
 30
0.0
 11
-384.5131951409417
 21
245.3199561866555
 31
0.0
  0
LINE
  5
392
330
1F
100
AcDbEntity
  8
A-2_蓋
  6
Continuous
 62
     3
370
     9
100
AcDbLine
 10
-384.5131951409417
 20
262.2809662690034
 30
0.0
 11
-444.5125270534206
 21
245.3199561866555
 31
0.0
  0
LINE
  5
393
330
1F
100
AcDbEntity
  8
A-2_蓋
  6
Continuous
 62
     3
370
     9
100
AcDbLine
 10
-444.5125270534206
 20
262.2809662690034
 30
0.0
 11
-504.5128487251898
 21
245.3199561866555
 31
0.0
  0
LINE
  5
394
330
1F
100
AcDbEntity
  8
A-2_蓋
  6
Continuous
 62
     3
370
     9
100
AcDbLine
 10
-504.5128487251898
 20
262.2809662690034
 30
0.0
 11
-564.5130466770481
 21
245.3199561866555
 31
0.0
  0
LINE
  5
395
330
1F
100
AcDbEntity
  8
A-2_蓋
  6
Continuous
 62
     3
370
     9
100
AcDbLine
 10
-564.5130466770481
 20
262.2809662690034
 30
0.0
 11
-624.5133683488175
 21
245.3199561866555
 31
0.0
  0
LINE
  5
396
330
1F
100
AcDbEntity
  8
A-2_蓋
  6
Continuous
 62
     3
370
     9
100
AcDbLine
 10
-624.5123785895269
 20
262.2809662690034
 30
0.0
 11
-684.5135663006755
 21
245.3199561866555
 31
0.0
  0
LINE
  5
397
330
1F
100
AcDbEntity
  8
A-2_蓋
  6
Continuous
 62
     3
370
     9
100
AcDbLine
 10
-684.5125765413852
 20
262.2809662690034
 30
0.0
 11
-744.5128982131544
 21
245.3199561866555
 31
0.0
  0
LINE
  5
398
330
1F
100
AcDbEntity
  8
A-2_蓋
  6
Continuous
 62
     3
370
     9
100
AcDbLine
 10
-744.5128982131544
 20
262.2809662690034
 30
0.0
 11
-804.513219884924
 21
245.3199561866555
 31
0.0
  0
LINE
  5
399
330
1F
100
AcDbEntity
  8
A-2_蓋
  6
Continuous
 62
     3
370
     9
100
AcDbLine
 10
-804.513219884924
 20
262.2809662690034
 30
0.0
 11
-864.5134178367821
 21
245.3199561866555
 31
0.0
  0
LINE
  5
39A
330
1F
100
AcDbEntity
  8
A-2_蓋
  6
Continuous
 62
     3
370
     9
100
AcDbLine
 10
-864.5134178367821
 20
262.2809662690034
 30
0.0
 11
-924.5126260293496
 21
245.3199561866555
 31
0.0
  0
LINE
  5
39B
330
1F
100
AcDbEntity
  8
A-2_蓋
  6
Continuous
 62
     3
370
     9
100
AcDbLine
 10
-924.5126260293496
 20
262.2809662690034
 30
0.0
 11
-984.5130714210303
 21
245.3199561866555
 31
0.0
  0
LINE
  5
39C
330
1F
100
AcDbEntity
  8
A-2_蓋
  6
Continuous
 62
     3
370
     9
100
AcDbLine
 10
-984.5130714210303
 20
262.2809662690034
 30
0.0
 11
-1044.513269372888
 21
245.3199561866555
 31
0.0
  0
LINE
  5
39D
330
1F
100
AcDbEntity
  8
A-2_蓋
  6
Continuous
 62
     3
370
     9
100
AcDbLine
 10
-1044.513269372888
 20
262.2809662690034
 30
0.0
 11
-1104.513591044658
 21
245.3199561866555
 31
0.0
  0
LINE
  5
39E
330
1F
100
AcDbEntity
  8
A-2_蓋
  6
Continuous
 62
     3
370
     9
100
AcDbLine
 10
-1104.512601285367
 20
262.2809662690034
 30
0.0
 11
-1164.513912716427
 21
245.3199561866555
 31
0.0
  0
LINE
  5
39F
330
1F
100
AcDbEntity
  8
A-2_蓋
  6
Continuous
 62
     3
370
     9
100
AcDbLine
 10
-1164.512922957137
 20
262.2809662690034
 30
0.0
 11
-1224.513120908995
 21
245.3199561866555
 31
0.0
  0
LINE
  5
3A0
330
1F
100
AcDbEntity
  8
A-2_蓋
  6
Continuous
 62
     3
370
     9
100
AcDbLine
 10
-1224.513120908995
 20
262.2809662690034
 30
0.0
 11
-1284.512329101562
 21
245.3199561866555
 31
0.0
  0
LINE
  5
3A1
330
1F
100
AcDbEntity
  8
A-2_蓋
  6
Continuous
 62
     3
370
     9
100
AcDbLine
 10
-1284.512329101562
 20
262.2809662690034
 30
0.0
 11
-1344.513764252534
 21
245.3199561866555
 31
0.0
  0
LINE
  5
3A2
330
1F
100
AcDbEntity
  8
A-2_蓋
  6
Continuous
 62
     3
370
     9
100
AcDbLine
 10
-1344.513764252534
 20
262.2809662690034
 30
0.0
 11
-1404.512972445101
 21
245.3199561866555
 31
0.0
  0
LINE
  5
3A3
330
1F
100
AcDbEntity
  8
A-2_蓋
  6
Continuous
 62
     3
370
     9
100
AcDbLine
 10
-1404.512972445101
 20
262.2809662690034
 30
0.0
 11
-1464.512180637669
 21
245.3199561866555
 31
0.0
  0
LINE
  5
3A4
330
1F
100
AcDbEntity
  8
A-2_蓋
  6
Continuous
 62
     3
370
     9
100
AcDbLine
 10
-1464.512180637669
 20
262.2809662690034
 30
0.0
 11
-1524.51361578864
 21
245.3199561866555
 31
0.0
  0
LINE
  5
3A5
330
1F
100
AcDbEntity
  8
A-2_蓋
  6
Continuous
 62
     3
370
     9
100
AcDbLine
 10
-1524.51361578864
 20
262.2809662690034
 30
0.0
 11
-1584.512823981208
 21
245.3199561866555
 31
0.0
  0
LINE
  5
3A6
330
1F
100
AcDbEntity
  8
A-2_蓋
  6
Continuous
 62
     3
370
     9
100
AcDbLine
 10
-1584.512823981208
 20
262.2809662690034
 30
0.0
 11
-1594.513351852829
 21
260.2804153029984
 31
0.0
  0
LINE
  5
3A7
330
1F
100
AcDbEntity
  8
A-2_蓋
  6
Continuous
 62
     3
370
     9
100
AcDbLine
 10
1273.77170872044
 20
253.8002137880068
 30
0.0
 11
1265.286502322635
 21
245.3150073902029
 31
0.0
  0
LINE
  5
3A8
330
1F
100
AcDbEntity
  8
A-2_蓋
  6
Continuous
 62
     3
370
     9
100
AcDbLine
 10
1265.286502322635
 20
245.3150073902029
 30
0.0
 11
1256.801295924831
 21
253.8002137880068
 31
0.0
  0
LINE
  5
3A9
330
1F
100
AcDbEntity
  8
A-2_蓋
  6
Continuous
 62
     3
370
     9
100
AcDbLine
 10
1256.801295924831
 20
253.8002137880068
 30
0.0
 11
1265.286502322635
 21
262.2854201858109
 31
0.0
  0
LINE
  5
3AA
330
1F
100
AcDbEntity
  8
A-2_蓋
  6
Continuous
 62
     3
370
     9
100
AcDbLine
 10
1265.286502322635
 20
262.2854201858109
 30
0.0
 11
1273.77170872044
 21
253.8002137880068
 31
0.0
  0
LINE
  5
3AB
330
1F
100
AcDbEntity
  8
A-2_蓋
  6
Continuous
 62
     3
370
     9
100
AcDbLine
 10
1268.801137563345
 20
58.770743705131
 30
0.0
 11
1268.801137563345
 21
248.8296426309122
 31
0.0
  0
LINE
  5
3AC
330
1F
100
AcDbEntity
  8
A-2_蓋
  6
Continuous
 62
     3
370
     9
100
AcDbLine
 10
1268.801137563345
 20
258.7707849451016
 30
0.0
 11
1268.801137563345
 21
448.8295601509714
 31
0.0
  0
LINE
  5
3AD
330
1F
100
AcDbEntity
  8
A-2_蓋
  6
Continuous
 62
     3
370
     9
100
AcDbLine
 10
1270.800946209882
 20
56.77093505859375
 30
0.0
 11
1270.800946209882
 21
250.8294512774495
 31
0.0
  0
LINE
  5
3AE
330
1F
100
AcDbEntity
  8
A-2_蓋
  6
Continuous
 62
     3
370
     9
100
AcDbLine
 10
1270.800946209882
 20
256.7709762985643
 30
0.0
 11
1270.800946209882
 21
450.8296162373313
 31
0.0
  0
LINE
  5
3AF
330
1F
100
AcDbEntity
  8
A-A
  6
Continuous
 62
     3
370
     9
100
AcDbLine
 10
1253.800840635558
 20
153.4240227776607
 30
0.0
 11
1256.801295924831
 21
152.4014777106208
 31
0.0
  0
LINE
  5
3B0
330
1F
100
AcDbEntity
  8
A-A
  6
Continuous
 62
     3
370
     9
100
AcDbLine
 10
1256.801295924831
 20
152.4014777106208
 30
0.0
 11
1256.801295924831
 21
142.1751610008448
 31
0.0
  0
LINE
  5
3B1
330
1F
100
AcDbEntity
  8
A-A
  6
Continuous
 62
     3
370
     9
100
AcDbLine
 10
1253.800840635558
 20
141.1523684939823
 30
0.0
 11
1253.800840635558
 21
132.3376959723396
 31
0.0
  0
LINE
  5
3B2
330
1F
100
AcDbEntity
  8
A-A
  6
Continuous
 62
     3
370
     9
100
AcDbLine
 10
1253.800840635558
 20
132.3376959723396
 30
0.0
 11
1256.801295924831
 21
131.3151509053
 31
0.0
  0
LINE
  5
3B3
330
1F
100
AcDbEntity
  8
A-A
  6
Continuous
 62
     3
370
     9
100
AcDbLine
 10
1253.800840635558
 20
141.1523684939823
 30
0.0
 11
1256.801295924831
 21
142.1751610008448
 31
0.0
  0
LINE
  5
3B4
330
1F
100
AcDbEntity
  8
A-A
  6
Continuous
 62
     3
370
     9
100
AcDbLine
 10
1256.801295924831
 20
131.3151509053
 30
0.0
 11
1256.801295924831
 21
121.0887104756125
 31
0.0
  0
LINE
  5
3B5
330
1F
100
AcDbEntity
  8
A-A
  6
Continuous
 62
     3
370
     9
100
AcDbLine
 10
1253.800840635558
 20
120.0661654085727
 30
0.0
 11
1256.801295924831
 21
121.0887104756125
 31
0.0
  0
LINE
  5
3B6
330
1F
100
AcDbEntity
  8
A-A
  6
Continuous
 62
     3
370
     9
100
AcDbLine
 10
1253.800840635558
 20
120.0661654085727
 30
0.0
 11
1253.800840635558
 21
106.9712788349875
 31
0.0
  0
LINE
  5
3B7
330
1F
100
AcDbEntity
  8
A-A
  6
Continuous
 62
     3
370
     9
100
AcDbLine
 10
1253.800840635558
 20
106.9712788349875
 30
0.0
 11
1256.801295924831
 21
105.9487337679477
 31
0.0
  0
LINE
  5
3B8
330
1F
100
AcDbEntity
  8
A-A
  6
Continuous
 62
     3
370
     9
100
AcDbLine
 10
1256.801295924831
 20
105.9487337679477
 30
0.0
 11
1256.801295924831
 21
95.72241705817163
 31
0.0
  0
LINE
  5
3B9
330
1F
100
AcDbEntity
  8
A-A
  6
Continuous
 62
     3
370
     9
100
AcDbLine
 10
1253.800840635558
 20
94.69962455130911
 30
0.0
 11
1253.800840635558
 21
85.88495202966641
 31
0.0
  0
LINE
  5
3BA
330
1F
100
AcDbEntity
  8
A-A
  6
Continuous
 62
     3
370
     9
100
AcDbLine
 10
1253.800840635558
 20
85.88495202966641
 30
0.0
 11
1256.801295924831
 21
84.86240696262684
 31
0.0
  0
LINE
  5
3BB
330
1F
100
AcDbEntity
  8
A-A
  6
Continuous
 62
     3
370
     9
100
AcDbLine
 10
1253.800840635558
 20
94.69962455130911
 30
0.0
 11
1256.801295924831
 21
95.72241705817163
 31
0.0
  0
LINE
  5
3BC
330
1F
100
AcDbEntity
  8
A-A
  6
Continuous
 62
     3
370
     9
100
AcDbLine
 10
1256.801295924831
 20
84.86240696262684
 30
0.0
 11
1256.801295924831
 21
74.63596653293934
 31
0.0
  0
LINE
  5
3BD
330
1F
100
AcDbEntity
  8
A-A
  6
Continuous
 62
     3
370
     9
100
AcDbLine
 10
1253.800840635558
 20
73.61342146589948
 30
0.0
 11
1256.801295924831
 21
74.63596653293934
 31
0.0
  0
LINE
  5
3BE
330
1F
100
AcDbEntity
  8
A-A
  6
Continuous
 62
     3
370
     9
100
AcDbLine
 10
1253.800840635558
 20
73.61342146589948
 30
0.0
 11
1253.800840635558
 21
60.51853489231434
 31
0.0
  0
LINE
  5
3BF
330
1F
100
AcDbEntity
  8
A-A
  6
Continuous
 62
     3
370
     9
100
AcDbLine
 10
1253.800840635558
 20
60.51853489231434
 30
0.0
 11
1256.801295924831
 21
59.49598982527448
 31
0.0
  0
LINE
  5
3C0
330
1F
100
AcDbEntity
  8
A-A
  6
Continuous
 62
     3
370
     9
100
AcDbLine
 10
1256.801295924831
 20
59.49598982527448
 30
0.0
 11
1256.801295924831
 21
49.26967311549845
 31
0.0
  0
LINE
  5
3C1
330
1F
100
AcDbEntity
  8
A-A
  6
Continuous
 62
     3
370
     9
100
AcDbLine
 10
1253.800840635558
 20
48.24688060863593
 30
0.0
 11
1253.800840635558
 21
39.43220808699323
 31
0.0
  0
LINE
  5
3C2
330
1F
100
AcDbEntity
  8
A-A
  6
Continuous
 62
     3
370
     9
100
AcDbLine
 10
1253.800840635558
 20
39.43220808699323
 30
0.0
 11
1256.801295924831
 21
38.40966301995365
 31
0.0
  0
LINE
  5
3C3
330
1F
100
AcDbEntity
  8
A-A
  6
Continuous
 62
     3
370
     9
100
AcDbLine
 10
1253.800840635558
 20
48.24688060863593
 30
0.0
 11
1256.801295924831
 21
49.26967311549845
 31
0.0
  0
LINE
  5
3C4
330
1F
100
AcDbEntity
  8
A-A
  6
Continuous
 62
     3
370
     9
100
AcDbLine
 10
1256.801295924831
 20
38.40966301995365
 30
0.0
 11
1256.801295924831
 21
28.18322259026615
 31
0.0
  0
LINE
  5
3C5
330
1F
100
AcDbEntity
  8
A-A
  6
Continuous
 62
     3
370
     9
100
AcDbLine
 10
1253.800840635558
 20
27.1606775232263
 30
0.0
 11
1256.801295924831
 21
28.18322259026615
 31
0.0
  0
LINE
  5
3C6
330
1F
100
AcDbEntity
  8
A-A
  6
Continuous
 62
     3
370
     9
100
AcDbLine
 10
1253.800840635558
 20
27.1606775232263
 30
0.0
 11
1253.800840635558
 21
14.06579094964115
 31
0.0
  0
LINE
  5
3C7
330
1F
100
AcDbEntity
  8
A-A
  6
Continuous
 62
     3
370
     9
100
AcDbLine
 10
1253.800840635558
 20
14.06579094964115
 30
0.0
 11
1256.801295924831
 21
13.0432458826013
 31
0.0
  0
LINE
  5
3C8
330
1F
100
AcDbEntity
  8
A-A
  6
Continuous
 62
     3
370
     9
100
AcDbLine
 10
1256.801295924831
 20
13.0432458826013
 30
0.0
 11
1256.801295924831
 21
2.816929172825269
 31
0.0
  0
LINE
  5
3C9
330
1F
100
AcDbEntity
  8
A-A
  6
Continuous
 62
     3
370
     9
100
AcDbLine
 10
1253.800840635558
 20
1.794136665963038
 30
0.0
 11
1253.800840635558
 21
-7.020535855679952
 31
0.0
  0
LINE
  5
3CA
330
1F
100
AcDbEntity
  8
A-A
  6
Continuous
 62
     3
370
     9
100
AcDbLine
 10
1253.800840635558
 20
-7.020535855679952
 30
0.0
 11
1256.801295924831
 21
-8.043080922719525
 31
0.0
  0
LINE
  5
3CB
330
1F
100
AcDbEntity
  8
A-A
  6
Continuous
 62
     3
370
     9
100
AcDbLine
 10
1253.800840635558
 20
1.794136665963038
 30
0.0
 11
1256.801295924831
 21
2.816929172825269
 31
0.0
  0
LINE
  5
3CC
330
1F
100
AcDbEntity
  8
A-A
  6
Continuous
 62
     3
370
     9
100
AcDbLine
 10
1256.801295924831
 20
-8.043080922719525
 30
0.0
 11
1256.801295924831
 21
-18.26952135240703
 31
0.0
  0
LINE
  5
3CD
330
1F
100
AcDbEntity
  8
A-A
  6
Continuous
 62
     3
370
     9
100
AcDbLine
 10
1253.800840635558
 20
-19.2920664194466
 30
0.0
 11
1256.801295924831
 21
-18.26952135240703
 31
0.0
  0
LINE
  5
3CE
330
1F
100
AcDbEntity
  8
A-A
  6
Continuous
 62
     3
370
     9
100
AcDbLine
 10
1253.800840635558
 20
-19.2920664194466
 30
0.0
 11
1253.800840635558
 21
-32.38695299303203
 31
0.0
  0
LINE
  5
3CF
330
1F
100
AcDbEntity
  8
A-A
  6
Continuous
 62
     3
370
     9
100
AcDbLine
 10
1253.800840635558
 20
-32.38695299303203
 30
0.0
 11
1256.801295924831
 21
-33.4094980600716
 31
0.0
  0
LINE
  5
3D0
330
1F
100
AcDbEntity
  8
A-A
  6
Continuous
 62
     3
370
     9
100
AcDbLine
 10
1256.801295924831
 20
-33.4094980600716
 30
0.0
 11
1256.801295924831
 21
-43.63581476984791
 31
0.0
  0
LINE
  5
3D1
330
1F
100
AcDbEntity
  8
A-A
  6
Continuous
 62
     3
370
     9
100
AcDbLine
 10
1253.800840635558
 20
-44.65860727671014
 30
0.0
 11
1253.800840635558
 21
-53.47327979835285
 31
0.0
  0
LINE
  5
3D2
330
1F
100
AcDbEntity
  8
A-A
  6
Continuous
 62
     3
370
     9
100
AcDbLine
 10
1253.800840635558
 20
-53.47327979835285
 30
0.0
 11
1256.801295924831
 21
-54.49582486539271
 31
0.0
  0
LINE
  5
3D3
330
1F
100
AcDbEntity
  8
A-A
  6
Continuous
 62
     3
370
     9
100
AcDbLine
 10
1253.800840635558
 20
-44.65860727671014
 30
0.0
 11
1256.801295924831
 21
-43.63581476984791
 31
0.0
  0
LINE
  5
3D4
330
1F
100
AcDbEntity
  8
A-A
  6
Continuous
 62
     3
370
     9
100
AcDbLine
 10
1256.801295924831
 20
-54.49582486539271
 30
0.0
 11
1256.801295924831
 21
-64.7222652950802
 31
0.0
  0
LINE
  5
3D5
330
1F
100
AcDbEntity
  8
A-A
  6
Continuous
 62
     3
370
     9
100
AcDbLine
 10
1253.800840635558
 20
-65.74481036211978
 30
0.0
 11
1256.801295924831
 21
-64.7222652950802
 31
0.0
  0
LINE
  5
3D6
330
1F
100
AcDbEntity
  8
A-A
  6
Continuous
 62
     3
370
     9
100
AcDbLine
 10
1253.800840635558
 20
-65.74481036211978
 30
0.0
 11
1253.800840635558
 21
-78.8396969357052
 31
0.0
  0
LINE
  5
3D7
330
1F
100
AcDbEntity
  8
A-A
  6
Continuous
 62
     3
370
     9
100
AcDbLine
 10
1253.800840635558
 20
-78.8396969357052
 30
0.0
 11
1256.801295924831
 21
-79.86224200274478
 31
0.0
  0
LINE
  5
3D8
330
1F
100
AcDbEntity
  8
A-A
  6
Continuous
 62
     3
370
     9
100
AcDbLine
 10
1256.801295924831
 20
-79.86224200274478
 30
0.0
 11
1256.801295924831
 21
-96.19970373205234
 31
0.0
  0
LINE
  5
3D9
330
1F
100
AcDbEntity
  8
A-2_蓋
  6
Continuous
 62
     3
370
     9
100
AcDbLine
 10
1256.801295924831
 20
-96.19970373205234
 30
0.0
 11
1306.801460884713
 21
-96.19970373205234
 31
0.0
  0
LINE
  5
3DA
330
1F
100
AcDbEntity
  8
A-2_蓋
  6
Continuous
 62
     3
370
     9
100
AcDbLine
 10
-1054.51280748522
 20
445.3199974266261
 30
0.0
 11
-1054.51280748522
 21
262.2809662690034
 31
0.0
  0
LINE
  5
3DB
330
1F
100
AcDbEntity
  8
A-2_蓋
  6
Continuous
 62
     3
370
     9
100
AcDbLine
 10
-1054.51280748522
 20
245.3199561866555
 30
0.0
 11
-1054.51280748522
 21
62.28092502903309
 31
0.0
  0
LINE
  5
3DC
330
1F
100
AcDbEntity
  8
A-2_蓋
  6
Continuous
 62
     3
370
     9
100
AcDbLine
 10
-1584.512823981208
 20
62.28092502903309
 30
0.0
 11
-1584.512823981208
 21
245.3199561866555
 31
0.0
  0
LINE
  5
3DD
330
1F
100
AcDbEntity
  8
A-2_蓋
  6
Continuous
 62
     3
370
     9
100
AcDbLine
 10
-1584.512823981208
 20
262.2809662690034
 30
0.0
 11
-1584.512823981208
 21
445.3199974266261
 31
0.0
  0
LINE
  5
3DE
330
1F
100
AcDbEntity
  8
A-2_蓋
  6
Continuous
 62
     3
370
     9
100
AcDbLine
 10
-1534.512164141681
 20
445.3199974266261
 30
0.0
 11
-1534.512164141681
 21
262.2809662690034
 31
0.0
  0
LINE
  5
3DF
330
1F
100
AcDbEntity
  8
A-2_蓋
  6
Continuous
 62
     3
370
     9
100
AcDbLine
 10
-1534.512164141681
 20
245.3199561866555
 30
0.0
 11
-1534.512164141681
 21
62.28092502903309
 31
0.0
  0
LINE
  5
3E0
330
1F
100
AcDbEntity
  8
A-2_蓋
  6
Continuous
 62
     3
370
     9
100
AcDbLine
 10
-1524.51361578864
 20
445.3199974266261
 30
0.0
 11
-1524.51361578864
 21
262.2809662690034
 31
0.0
  0
LINE
  5
3E1
330
1F
100
AcDbEntity
  8
A-2_蓋
  6
Continuous
 62
     3
370
     9
100
AcDbLine
 10
-1524.51361578864
 20
245.3199561866555
 30
0.0
 11
-1524.51361578864
 21
62.28092502903309
 31
0.0
  0
LINE
  5
3E2
330
1F
100
AcDbEntity
  8
A-2_蓋
  6
Continuous
 62
     3
370
     9
100
AcDbLine
 10
-1474.512955949113
 20
445.3199974266261
 30
0.0
 11
-1474.512955949113
 21
262.2809662690034
 31
0.0
  0
LINE
  5
3E3
330
1F
100
AcDbEntity
  8
A-2_蓋
  6
Continuous
 62
     3
370
     9
100
AcDbLine
 10
-1474.512955949113
 20
245.3199561866555
 30
0.0
 11
-1474.512955949113
 21
62.28092502903309
 31
0.0
  0
LINE
  5
3E4
330
1F
100
AcDbEntity
  8
A-2_蓋
  6
Continuous
 62
     3
370
     9
100
AcDbLine
 10
-1464.512180637669
 20
445.3199974266261
 30
0.0
 11
-1464.512180637669
 21
262.2809662690034
 31
0.0
  0
LINE
  5
3E5
330
1F
100
AcDbEntity
  8
A-2_蓋
  6
Continuous
 62
     3
370
     9
100
AcDbLine
 10
-1464.512180637669
 20
245.3199561866555
 30
0.0
 11
-1464.512180637669
 21
62.28092502903309
 31
0.0
  0
LINE
  5
3E6
330
1F
100
AcDbEntity
  8
A-2_蓋
  6
Continuous
 62
     3
370
     9
100
AcDbLine
 10
-1414.513500316723
 20
445.3199974266261
 30
0.0
 11
-1414.513500316723
 21
262.2809662690034
 31
0.0
  0
LINE
  5
3E7
330
1F
100
AcDbEntity
  8
A-2_蓋
  6
Continuous
 62
     3
370
     9
100
AcDbLine
 10
-1414.513500316723
 20
245.3199561866555
 30
0.0
 11
-1414.513500316723
 21
62.28092502903309
 31
0.0
  0
LINE
  5
3E8
330
1F
100
AcDbEntity
  8
A-2_蓋
  6
Continuous
 62
     3
370
     9
100
AcDbLine
 10
-1404.512972445101
 20
445.3199974266261
 30
0.0
 11
-1404.512972445101
 21
262.2809662690034
 31
0.0
  0
LINE
  5
3E9
330
1F
100
AcDbEntity
  8
A-2_蓋
  6
Continuous
 62
     3
370
     9
100
AcDbLine
 10
-1404.512972445101
 20
245.3199561866555
 30
0.0
 11
-1404.512972445101
 21
62.28092502903309
 31
0.0
  0
LINE
  5
3EA
330
1F
100
AcDbEntity
  8
A-2_蓋
  6
Continuous
 62
     3
370
     9
100
AcDbLine
 10
-1354.512312605575
 20
445.3199974266261
 30
0.0
 11
-1354.512312605575
 21
262.2809662690034
 31
0.0
  0
LINE
  5
3EB
330
1F
100
AcDbEntity
  8
A-2_蓋
  6
Continuous
 62
     3
370
     9
100
AcDbLine
 10
-1354.512312605575
 20
245.3199561866555
 30
0.0
 11
-1354.512312605575
 21
62.28092502903309
 31
0.0
  0
LINE
  5
3EC
330
1F
100
AcDbEntity
  8
A-2_蓋
  6
Continuous
 62
     3
370
     9
100
AcDbLine
 10
-1344.513764252534
 20
445.3199974266261
 30
0.0
 11
-1344.513764252534
 21
262.2809662690034
 31
0.0
  0
LINE
  5
3ED
330
1F
100
AcDbEntity
  8
A-2_蓋
  6
Continuous
 62
     3
370
     9
100
AcDbLine
 10
-1344.513764252534
 20
245.3199561866555
 30
0.0
 11
-1344.513764252534
 21
62.28092502903309
 31
0.0
  0
LINE
  5
3EE
330
1F
100
AcDbEntity
  8
A-2_蓋
  6
Continuous
 62
     3
370
     9
100
AcDbLine
 10
-1294.512856973184
 20
445.3199974266261
 30
0.0
 11
-1294.512856973184
 21
262.2809662690034
 31
0.0
  0
LINE
  5
3EF
330
1F
100
AcDbEntity
  8
A-2_蓋
  6
Continuous
 62
     3
370
     9
100
AcDbLine
 10
-1294.512856973184
 20
245.3199561866555
 30
0.0
 11
-1294.512856973184
 21
62.28092502903309
 31
0.0
  0
LINE
  5
3F0
330
1F
100
AcDbEntity
  8
A-2_蓋
  6
Continuous
 62
     3
370
     9
100
AcDbLine
 10
-1284.512329101562
 20
445.3199974266261
 30
0.0
 11
-1284.512329101562
 21
262.2809662690034
 31
0.0
  0
LINE
  5
3F1
330
1F
100
AcDbEntity
  8
A-2_蓋
  6
Continuous
 62
     3
370
     9
100
AcDbLine
 10
-1284.512329101562
 20
245.3199561866555
 30
0.0
 11
-1284.512329101562
 21
62.28092502903309
 31
0.0
  0
LINE
  5
3F2
330
1F
100
AcDbEntity
  8
A-2_蓋
  6
Continuous
 62
     3
370
     9
100
AcDbLine
 10
-1104.513591044658
 20
445.3199974266261
 30
0.0
 11
-1104.513591044658
 21
262.2809662690034
 31
0.0
  0
LINE
  5
3F3
330
1F
100
AcDbEntity
  8
A-2_蓋
  6
Continuous
 62
     3
370
     9
100
AcDbLine
 10
-1104.513591044658
 20
245.3199561866555
 30
0.0
 11
-1104.513591044658
 21
62.28092502903309
 31
0.0
  0
LINE
  5
3F4
330
1F
100
AcDbEntity
  8
A-2_蓋
  6
Continuous
 62
     3
370
     9
100
AcDbLine
 10
-1114.513129156989
 20
445.3199974266261
 30
0.0
 11
-1114.513129156989
 21
262.2809662690034
 31
0.0
  0
LINE
  5
3F5
330
1F
100
AcDbEntity
  8
A-2_蓋
  6
Continuous
 62
     3
370
     9
100
AcDbLine
 10
-1114.513129156989
 20
245.3199561866555
 30
0.0
 11
-1114.513129156989
 21
62.28092502903309
 31
0.0
  0
LINE
  5
3F6
330
1F
100
AcDbEntity
  8
A-2_蓋
  6
Continuous
 62
     3
370
     9
100
AcDbLine
 10
-1164.513912716427
 20
445.3199974266261
 30
0.0
 11
-1164.513912716427
 21
262.2809662690034
 31
0.0
  0
LINE
  5
3F7
330
1F
100
AcDbEntity
  8
A-2_蓋
  6
Continuous
 62
     3
370
     9
100
AcDbLine
 10
-1164.513912716427
 20
245.3199561866555
 30
0.0
 11
-1164.513912716427
 21
62.28092502903309
 31
0.0
  0
LINE
  5
3F8
330
1F
100
AcDbEntity
  8
A-2_蓋
  6
Continuous
 62
     3
370
     9
100
AcDbLine
 10
-1174.512461069468
 20
445.3199974266261
 30
0.0
 11
-1174.512461069468
 21
262.2809662690034
 31
0.0
  0
LINE
  5
3F9
330
1F
100
AcDbEntity
  8
A-2_蓋
  6
Continuous
 62
     3
370
     9
100
AcDbLine
 10
-1174.512461069468
 20
245.3199561866555
 30
0.0
 11
-1174.512461069468
 21
62.28092502903309
 31
0.0
  0
LINE
  5
3FA
330
1F
100
AcDbEntity
  8
A-2_蓋
  6
Continuous
 62
     3
370
     9
100
AcDbLine
 10
-1224.513120908995
 20
445.3199974266261
 30
0.0
 11
-1224.513120908995
 21
262.2809662690034
 31
0.0
  0
LINE
  5
3FB
330
1F
100
AcDbEntity
  8
A-2_蓋
  6
Continuous
 62
     3
370
     9
100
AcDbLine
 10
-1224.513120908995
 20
245.3199561866555
 30
0.0
 11
-1224.513120908995
 21
62.28092502903309
 31
0.0
  0
LINE
  5
3FC
330
1F
100
AcDbEntity
  8
A-2_蓋
  6
Continuous
 62
     3
370
     9
100
AcDbLine
 10
-1234.511669262035
 20
445.3199974266261
 30
0.0
 11
-1234.511669262035
 21
262.2809662690034
 31
0.0
  0
LINE
  5
3FD
330
1F
100
AcDbEntity
  8
A-2_蓋
  6
Continuous
 62
     3
370
     9
100
AcDbLine
 10
-1234.511669262035
 20
245.3199561866555
 30
0.0
 11
-1234.511669262035
 21
62.28092502903309
 31
0.0
  0
LINE
  5
3FE
330
1F
100
AcDbEntity
  8
A-2_蓋
  6
Continuous
 62
     3
370
     9
100
AcDbLine
 10
-864.5134178367821
 20
445.3199974266261
 30
0.0
 11
-864.5134178367821
 21
262.2809662690034
 31
0.0
  0
LINE
  5
3FF
330
1F
100
AcDbEntity
  8
A-2_蓋
  6
Continuous
 62
     3
370
     9
100
AcDbLine
 10
-864.5134178367821
 20
245.3199561866555
 30
0.0
 11
-864.5134178367821
 21
62.28092502903309
 31
0.0
  0
LINE
  5
400
330
1F
100
AcDbEntity
  8
A-2_蓋
  6
Continuous
 62
     3
370
     9
100
AcDbLine
 10
-874.5129559491131
 20
445.3199974266261
 30
0.0
 11
-874.5129559491131
 21
262.2809662690034
 31
0.0
  0
LINE
  5
401
330
1F
100
AcDbEntity
  8
A-2_蓋
  6
Continuous
 62
     3
370
     9
100
AcDbLine
 10
-874.5129559491131
 20
245.3199561866555
 30
0.0
 11
-874.5129559491131
 21
62.28092502903309
 31
0.0
  0
LINE
  5
402
330
1F
100
AcDbEntity
  8
A-2_蓋
  6
Continuous
 62
     3
370
     9
100
AcDbLine
 10
-924.5126260293496
 20
445.3199974266261
 30
0.0
 11
-924.5126260293496
 21
262.2809662690034
 31
0.0
  0
LINE
  5
403
330
1F
100
AcDbEntity
  8
A-2_蓋
  6
Continuous
 62
     3
370
     9
100
AcDbLine
 10
-924.5126260293496
 20
245.3199561866555
 30
0.0
 11
-924.5126260293496
 21
62.28092502903309
 31
0.0
  0
LINE
  5
404
330
1F
100
AcDbEntity
  8
A-2_蓋
  6
Continuous
 62
     3
370
     9
100
AcDbLine
 10
-934.5132776208825
 20
445.3199974266261
 30
0.0
 11
-934.5132776208825
 21
262.2809662690034
 31
0.0
  0
LINE
  5
405
330
1F
100
AcDbEntity
  8
A-2_蓋
  6
Continuous
 62
     3
370
     9
100
AcDbLine
 10
-934.5132776208825
 20
245.3199561866555
 30
0.0
 11
-934.5132776208825
 21
62.28092502903309
 31
0.0
  0
LINE
  5
406
330
1F
100
AcDbEntity
  8
A-2_蓋
  6
Continuous
 62
     3
370
     9
100
AcDbLine
 10
-984.5130714210303
 20
445.3199974266261
 30
0.0
 11
-984.5130714210303
 21
262.2809662690034
 31
0.0
  0
LINE
  5
407
330
1F
100
AcDbEntity
  8
A-2_蓋
  6
Continuous
 62
     3
370
     9
100
AcDbLine
 10
-984.5130714210303
 20
245.3199561866555
 30
0.0
 11
-984.5130714210303
 21
62.28092502903309
 31
0.0
  0
LINE
  5
408
330
1F
100
AcDbEntity
  8
A-2_蓋
  6
Continuous
 62
     3
370
     9
100
AcDbLine
 10
-994.5126095333615
 20
445.3199974266261
 30
0.0
 11
-994.5126095333615
 21
262.2809662690034
 31
0.0
  0
LINE
  5
409
330
1F
100
AcDbEntity
  8
A-2_蓋
  6
Continuous
 62
     3
370
     9
100
AcDbLine
 10
-994.5126095333615
 20
245.3199561866555
 30
0.0
 11
-994.5126095333615
 21
62.28092502903309
 31
0.0
  0
LINE
  5
40A
330
1F
100
AcDbEntity
  8
A-2_蓋
  6
Continuous
 62
     3
370
     9
100
AcDbLine
 10
-684.5135663006755
 20
445.3199974266261
 30
0.0
 11
-684.5135663006755
 21
262.2809662690034
 31
0.0
  0
LINE
  5
40B
330
1F
100
AcDbEntity
  8
A-2_蓋
  6
Continuous
 62
     3
370
     9
100
AcDbLine
 10
-684.5135663006755
 20
245.3199561866555
 30
0.0
 11
-684.5135663006755
 21
62.28092502903309
 31
0.0
  0
LINE
  5
40C
330
1F
100
AcDbEntity
  8
A-2_蓋
  6
Continuous
 62
     3
370
     9
100
AcDbLine
 10
-694.5121146537161
 20
445.3199974266261
 30
0.0
 11
-694.5121146537161
 21
262.2809662690034
 31
0.0
  0
LINE
  5
40D
330
1F
100
AcDbEntity
  8
A-2_蓋
  6
Continuous
 62
     3
370
     9
100
AcDbLine
 10
-694.5121146537161
 20
245.3199561866555
 30
0.0
 11
-694.5121146537161
 21
62.28092502903309
 31
0.0
  0
LINE
  5
40E
330
1F
100
AcDbEntity
  8
A-2_蓋
  6
Continuous
 62
     3
370
     9
100
AcDbLine
 10
-624.5133683488175
 20
445.3199974266261
 30
0.0
 11
-624.5133683488175
 21
262.2809662690034
 31
0.0
  0
LINE
  5
40F
330
1F
100
AcDbEntity
  8
A-2_蓋
  6
Continuous
 62
     3
370
     9
100
AcDbLine
 10
-624.5133683488175
 20
245.3199561866555
 30
0.0
 11
-624.5133683488175
 21
62.28092502903309
 31
0.0
  0
LINE
  5
410
330
1F
100
AcDbEntity
  8
A-2_蓋
  6
Continuous
 62
     3
370
     9
100
AcDbLine
 10
-634.5129064611488
 20
445.3199974266261
 30
0.0
 11
-634.5129064611488
 21
262.2809662690034
 31
0.0
  0
LINE
  5
411
330
1F
100
AcDbEntity
  8
A-2_蓋
  6
Continuous
 62
     3
370
     9
100
AcDbLine
 10
-634.5129064611488
 20
245.3199561866555
 30
0.0
 11
-634.5129064611488
 21
62.28092502903309
 31
0.0
  0
LINE
  5
412
330
1F
100
AcDbEntity
  8
A-2_蓋
  6
Continuous
 62
     3
370
     9
100
AcDbLine
 10
-804.513219884924
 20
445.3199974266261
 30
0.0
 11
-804.513219884924
 21
262.2809662690034
 31
0.0
  0
LINE
  5
413
330
1F
100
AcDbEntity
  8
A-2_蓋
  6
Continuous
 62
     3
370
     9
100
AcDbLine
 10
-804.513219884924
 20
245.3199561866555
 30
0.0
 11
-804.513219884924
 21
62.28092502903309
 31
0.0
  0
LINE
  5
414
330
1F
100
AcDbEntity
  8
A-2_蓋
  6
Continuous
 62
     3
370
     9
100
AcDbLine
 10
-814.512757997255
 20
445.3199974266261
 30
0.0
 11
-814.512757997255
 21
262.2809662690034
 31
0.0
  0
LINE
  5
415
330
1F
100
AcDbEntity
  8
A-2_蓋
  6
Continuous
 62
     3
370
     9
100
AcDbLine
 10
-814.512757997255
 20
245.3199561866555
 30
0.0
 11
-814.512757997255
 21
62.28092502903309
 31
0.0
  0
LINE
  5
416
330
1F
100
AcDbEntity
  8
A-2_蓋
  6
Continuous
 62
     3
370
     9
100
AcDbLine
 10
-744.5128982131544
 20
445.3199974266261
 30
0.0
 11
-744.5128982131544
 21
262.2809662690034
 31
0.0
  0
LINE
  5
417
330
1F
100
AcDbEntity
  8
A-2_蓋
  6
Continuous
 62
     3
370
     9
100
AcDbLine
 10
-744.5128982131544
 20
245.3199561866555
 30
0.0
 11
-744.5128982131544
 21
62.28092502903309
 31
0.0
  0
LINE
  5
418
330
1F
100
AcDbEntity
  8
A-2_蓋
  6
Continuous
 62
     3
370
     9
100
AcDbLine
 10
-754.5125600453969
 20
445.3199974266261
 30
0.0
 11
-754.5125600453969
 21
262.2809662690034
 31
0.0
  0
LINE
  5
419
330
1F
100
AcDbEntity
  8
A-2_蓋
  6
Continuous
 62
     3
370
     9
100
AcDbLine
 10
-754.5125600453969
 20
245.3199561866555
 30
0.0
 11
-754.5125600453969
 21
62.28092502903309
 31
0.0
  0
LINE
  5
41A
330
1F
100
AcDbEntity
  8
A-2_蓋
  6
Continuous
 62
     3
370
     9
100
AcDbLine
 10
-1044.513269372888
 20
445.3199974266261
 30
0.0
 11
-1044.513269372888
 21
262.2809662690034
 31
0.0
  0
LINE
  5
41B
330
1F
100
AcDbEntity
  8
A-2_蓋
  6
Continuous
 62
     3
370
     9
100
AcDbLine
 10
-1044.513269372888
 20
245.3199561866555
 30
0.0
 11
-1044.513269372888
 21
62.28092502903309
 31
0.0
  0
LINE
  5
41C
330
1F
100
AcDbEntity
  8
A-2_蓋
  6
Continuous
 62
     3
370
     9
100
AcDbLine
 10
-444.5125270534206
 20
445.3199974266261
 30
0.0
 11
-444.5125270534206
 21
262.2809662690034
 31
0.0
  0
LINE
  5
41D
330
1F
100
AcDbEntity
  8
A-2_蓋
  6
Continuous
 62
     3
370
     9
100
AcDbLine
 10
-444.5125270534206
 20
245.3199561866555
 30
0.0
 11
-444.5125270534206
 21
62.28092502903309
 31
0.0
  0
LINE
  5
41E
330
1F
100
AcDbEntity
  8
A-2_蓋
  6
Continuous
 62
     3
370
     9
100
AcDbLine
 10
-454.5130549250422
 20
445.3199974266261
 30
0.0
 11
-454.5130549250422
 21
262.2809662690034
 31
0.0
  0
LINE
  5
41F
330
1F
100
AcDbEntity
  8
A-2_蓋
  6
Continuous
 62
     3
370
     9
100
AcDbLine
 10
-454.5130549250422
 20
245.3199561866555
 30
0.0
 11
-454.5130549250422
 21
62.28092502903309
 31
0.0
  0
LINE
  5
420
330
1F
100
AcDbEntity
  8
A-2_蓋
  6
Continuous
 62
     3
370
     9
100
AcDbLine
 10
-504.5128487251898
 20
445.3199974266261
 30
0.0
 11
-504.5128487251898
 21
262.2809662690034
 31
0.0
  0
LINE
  5
421
330
1F
100
AcDbEntity
  8
A-2_蓋
  6
Continuous
 62
     3
370
     9
100
AcDbLine
 10
-504.5128487251898
 20
245.3199561866555
 30
0.0
 11
-504.5128487251898
 21
62.28092502903309
 31
0.0
  0
LINE
  5
422
330
1F
100
AcDbEntity
  8
A-2_蓋
  6
Continuous
 62
     3
370
     9
100
AcDbLine
 10
-514.5122631176096
 20
445.3199974266261
 30
0.0
 11
-514.5122631176096
 21
262.2809662690034
 31
0.0
  0
LINE
  5
423
330
1F
100
AcDbEntity
  8
A-2_蓋
  6
Continuous
 62
     3
370
     9
100
AcDbLine
 10
-514.5122631176096
 20
245.3199561866555
 30
0.0
 11
-514.5122631176096
 21
62.28092502903309
 31
0.0
  0
LINE
  5
424
330
1F
100
AcDbEntity
  8
A-2_蓋
  6
Continuous
 62
     3
370
     9
100
AcDbLine
 10
-564.5130466770481
 20
445.3199974266261
 30
0.0
 11
-564.5130466770481
 21
262.2809662690034
 31
0.0
  0
LINE
  5
425
330
1F
100
AcDbEntity
  8
A-2_蓋
  6
Continuous
 62
     3
370
     9
100
AcDbLine
 10
-564.5130466770481
 20
245.3199561866555
 30
0.0
 11
-564.5130466770481
 21
62.28092502903309
 31
0.0
  0
LINE
  5
426
330
1F
100
AcDbEntity
  8
A-2_蓋
  6
Continuous
 62
     3
370
     9
100
AcDbLine
 10
-574.5125847893792
 20
445.3199974266261
 30
0.0
 11
-574.5125847893792
 21
262.2809662690034
 31
0.0
  0
LINE
  5
427
330
1F
100
AcDbEntity
  8
A-2_蓋
  6
Continuous
 62
     3
370
     9
100
AcDbLine
 10
-574.5125847893792
 20
245.3199561866555
 30
0.0
 11
-574.5125847893792
 21
62.28092502903309
 31
0.0
  0
LINE
  5
428
330
1F
100
AcDbEntity
  8
A-2_蓋
  6
Continuous
 62
     3
370
     9
100
AcDbLine
 10
-334.5124115815034
 20
445.3199974266261
 30
0.0
 11
-334.5124115815034
 21
262.2809662690034
 31
0.0
  0
LINE
  5
429
330
1F
100
AcDbEntity
  8
A-2_蓋
  6
Continuous
 62
     3
370
     9
100
AcDbLine
 10
-334.5124115815034
 20
245.3199561866555
 30
0.0
 11
-334.5124115815034
 21
62.28092502903309
 31
0.0
  0
LINE
  5
42A
330
1F
100
AcDbEntity
  8
A-2_蓋
  6
Continuous
 62
     3
370
     9
100
AcDbLine
 10
-384.5131951409417
 20
445.3199974266261
 30
0.0
 11
-384.5131951409417
 21
262.2809662690034
 31
0.0
  0
LINE
  5
42B
330
1F
100
AcDbEntity
  8
A-2_蓋
  6
Continuous
 62
     3
370
     9
100
AcDbLine
 10
-384.5131951409417
 20
245.3199561866555
 30
0.0
 11
-384.5131951409417
 21
62.28092502903309
 31
0.0
  0
LINE
  5
42C
330
1F
100
AcDbEntity
  8
A-2_蓋
  6
Continuous
 62
     3
370
     9
100
AcDbLine
 10
-394.5128569731841
 20
445.3199974266261
 30
0.0
 11
-394.5128569731841
 21
262.2809662690034
 31
0.0
  0
LINE
  5
42D
330
1F
100
AcDbEntity
  8
A-2_蓋
  6
Continuous
 62
     3
370
     9
100
AcDbLine
 10
-394.5128569731841
 20
245.3199561866555
 30
0.0
 11
-394.5128569731841
 21
62.28092502903309
 31
0.0
  0
LINE
  5
42E
330
1F
100
AcDbEntity
  8
A-2_蓋
  6
Continuous
 62
     3
370
     9
100
AcDbLine
 10
-324.5128734691721
 20
445.3199974266261
 30
0.0
 11
-324.5128734691721
 21
262.2809662690034
 31
0.0
  0
LINE
  5
42F
330
1F
100
AcDbEntity
  8
A-2_蓋
  6
Continuous
 62
     3
370
     9
100
AcDbLine
 10
-324.5128734691721
 20
245.3199561866555
 30
0.0
 11
-324.5128734691721
 21
62.28092502903309
 31
0.0
  0
LINE
  5
430
330
1F
100
AcDbEntity
  8
A-2_蓋
  6
Continuous
 62
     3
370
     9
100
AcDbLine
 10
-144.5130219330659
 20
445.3199974266261
 30
0.0
 11
-144.5130219330659
 21
262.2809662690034
 31
0.0
  0
LINE
  5
431
330
1F
100
AcDbEntity
  8
A-2_蓋
  6
Continuous
 62
     3
370
     9
100
AcDbLine
 10
-144.5130219330659
 20
245.3199561866555
 30
0.0
 11
-144.5130219330659
 21
62.28092502903309
 31
0.0
  0
LINE
  5
432
330
1F
100
AcDbEntity
  8
A-2_蓋
  6
Continuous
 62
     3
370
     9
100
AcDbLine
 10
-154.5126837653081
 20
445.3199974266261
 30
0.0
 11
-154.5126837653081
 21
262.2809662690034
 31
0.0
  0
LINE
  5
433
330
1F
100
AcDbEntity
  8
A-2_蓋
  6
Continuous
 62
     3
370
     9
100
AcDbLine
 10
-154.5126837653081
 20
245.3199561866555
 30
0.0
 11
-154.5126837653081
 21
62.28092502903309
 31
0.0
  0
LINE
  5
434
330
1F
100
AcDbEntity
  8
A-2_蓋
  6
Continuous
 62
     3
370
     9
100
AcDbLine
 10
-204.5134673247466
 20
445.3199974266261
 30
0.0
 11
-204.5134673247466
 21
262.2809662690034
 31
0.0
  0
LINE
  5
435
330
1F
100
AcDbEntity
  8
A-2_蓋
  6
Continuous
 62
     3
370
     9
100
AcDbLine
 10
-204.5134673247466
 20
245.3199561866555
 30
0.0
 11
-204.5134673247466
 21
62.28092502903309
 31
0.0
  0
LINE
  5
436
330
1F
100
AcDbEntity
  8
A-2_蓋
  6
Continuous
 62
     3
370
     9
100
AcDbLine
 10
-214.5118919578758
 20
445.3199974266261
 30
0.0
 11
-214.5118919578758
 21
262.2809662690034
 31
0.0
  0
LINE
  5
437
330
1F
100
AcDbEntity
  8
A-2_蓋
  6
Continuous
 62
     3
370
     9
100
AcDbLine
 10
-214.5118919578758
 20
245.3199561866555
 30
0.0
 11
-214.5118919578758
 21
62.28092502903309
 31
0.0
  0
LINE
  5
438
330
1F
100
AcDbEntity
  8
A-2_蓋
  6
Continuous
 62
     3
370
     9
100
AcDbLine
 10
95.4870275548987
 20
445.3199974266261
 30
0.0
 11
95.4870275548987
 21
262.2809662690034
 31
0.0
  0
LINE
  5
439
330
1F
100
AcDbEntity
  8
A-2_蓋
  6
Continuous
 62
     3
370
     9
100
AcDbLine
 10
95.4870275548987
 20
245.3199561866555
 30
0.0
 11
95.4870275548987
 21
62.28092502903309
 31
0.0
  0
LINE
  5
43A
330
1F
100
AcDbEntity
  8
A-2_蓋
  6
Continuous
 62
     3
370
     9
100
AcDbLine
 10
85.48724200274506
 20
445.3199974266261
 30
0.0
 11
85.48724200274506
 21
262.2809662690034
 31
0.0
  0
LINE
  5
43B
330
1F
100
AcDbEntity
  8
A-2_蓋
  6
Continuous
 62
     3
370
     9
100
AcDbLine
 10
85.48724200274506
 20
245.3199561866555
 30
0.0
 11
85.48724200274506
 21
62.28092502903309
 31
0.0
  0
LINE
  5
43C
330
1F
100
AcDbEntity
  8
A-2_蓋
  6
Continuous
 62
     3
370
     9
100
AcDbLine
 10
35.48658216321797
 20
445.3199974266261
 30
0.0
 11
35.48658216321797
 21
262.2809662690034
 31
0.0
  0
LINE
  5
43D
330
1F
100
AcDbEntity
  8
A-2_蓋
  6
Continuous
 62
     3
370
     9
100
AcDbLine
 10
35.48658216321797
 20
245.3199561866555
 30
0.0
 11
35.48658216321797
 21
62.28092502903309
 31
0.0
  0
LINE
  5
43E
330
1F
100
AcDbEntity
  8
A-2_蓋
  6
Continuous
 62
     3
370
     9
100
AcDbLine
 10
25.48704405088699
 20
445.3199974266261
 30
0.0
 11
25.48704405088699
 21
262.2809662690034
 31
0.0
  0
LINE
  5
43F
330
1F
100
AcDbEntity
  8
A-2_蓋
  6
Continuous
 62
     3
370
     9
100
AcDbLine
 10
25.48704405088699
 20
245.3199561866555
 30
0.0
 11
25.48704405088699
 21
62.28092502903309
 31
0.0
  0
LINE
  5
440
330
1F
100
AcDbEntity
  8
A-2_蓋
  6
Continuous
 62
     3
370
     9
100
AcDbLine
 10
-24.51262602934946
 20
445.3199974266261
 30
0.0
 11
-24.51262602934946
 21
262.2809662690034
 31
0.0
  0
LINE
  5
441
330
1F
100
AcDbEntity
  8
A-2_蓋
  6
Continuous
 62
     3
370
     9
100
AcDbLine
 10
-24.51262602934946
 20
245.3199561866555
 30
0.0
 11
-24.51262602934946
 21
62.28092502903309
 31
0.0
  0
LINE
  5
442
330
1F
100
AcDbEntity
  8
A-2_蓋
  6
Continuous
 62
     3
370
     9
100
AcDbLine
 10
-34.51216414168073
 20
445.3199974266261
 30
0.0
 11
-34.51216414168073
 21
262.2809662690034
 31
0.0
  0
LINE
  5
443
330
1F
100
AcDbEntity
  8
A-2_蓋
  6
Continuous
 62
     3
370
     9
100
AcDbLine
 10
-34.51216414168073
 20
245.3199561866555
 30
0.0
 11
-34.51216414168073
 21
62.28092502903309
 31
0.0
  0
LINE
  5
444
330
1F
100
AcDbEntity
  8
A-2_蓋
  6
Continuous
 62
     3
370
     9
100
AcDbLine
 10
-84.51282398120753
 20
445.3199974266261
 30
0.0
 11
-84.51282398120753
 21
262.2809662690034
 31
0.0
  0
LINE
  5
445
330
1F
100
AcDbEntity
  8
A-2_蓋
  6
Continuous
 62
     3
370
     9
100
AcDbLine
 10
-84.51282398120753
 20
245.3199561866555
 30
0.0
 11
-84.51282398120753
 21
62.28092502903309
 31
0.0
  0
LINE
  5
446
330
1F
100
AcDbEntity
  8
A-2_蓋
  6
Continuous
 62
     3
370
     9
100
AcDbLine
 10
-94.5123620935388
 20
445.3199974266261
 30
0.0
 11
-94.5123620935388
 21
262.2809662690034
 31
0.0
  0
LINE
  5
447
330
1F
100
AcDbEntity
  8
A-2_蓋
  6
Continuous
 62
     3
370
     9
100
AcDbLine
 10
-94.5123620935388
 20
245.3199561866555
 30
0.0
 11
-94.5123620935388
 21
62.28092502903309
 31
0.0
  0
LINE
  5
448
330
1F
100
AcDbEntity
  8
A-2_蓋
  6
Continuous
 62
     3
370
     9
100
AcDbLine
 10
155.4874729465794
 20
445.3199974266261
 30
0.0
 11
155.4874729465794
 21
262.2809662690034
 31
0.0
  0
LINE
  5
449
330
1F
100
AcDbEntity
  8
A-2_蓋
  6
Continuous
 62
     3
370
     9
100
AcDbLine
 10
155.4874729465794
 20
245.3199561866555
 30
0.0
 11
155.4874729465794
 21
62.28092502903309
 31
0.0
  0
LINE
  5
44A
330
1F
100
AcDbEntity
  8
A-2_蓋
  6
Continuous
 62
     3
370
     9
100
AcDbLine
 10
145.4879348342484
 20
445.3199974266261
 30
0.0
 11
145.4879348342484
 21
262.2809662690034
 31
0.0
  0
LINE
  5
44B
330
1F
100
AcDbEntity
  8
A-2_蓋
  6
Continuous
 62
     3
370
     9
100
AcDbLine
 10
145.4879348342484
 20
245.3199561866555
 30
0.0
 11
145.4879348342484
 21
62.28092502903309
 31
0.0
  0
LINE
  5
44C
330
1F
100
AcDbEntity
  8
A-2_蓋
  6
Continuous
 62
     3
370
     9
100
AcDbLine
 10
-264.5126755173141
 20
445.3199974266261
 30
0.0
 11
-264.5126755173141
 21
262.2809662690034
 31
0.0
  0
LINE
  5
44D
330
1F
100
AcDbEntity
  8
A-2_蓋
  6
Continuous
 62
     3
370
     9
100
AcDbLine
 10
-264.5126755173141
 20
245.3199561866555
 30
0.0
 11
-264.5126755173141
 21
62.28092502903309
 31
0.0
  0
LINE
  5
44E
330
1F
100
AcDbEntity
  8
A-2_蓋
  6
Continuous
 62
     3
370
     9
100
AcDbLine
 10
-274.512213629645
 20
445.3199974266261
 30
0.0
 11
-274.512213629645
 21
262.2809662690034
 31
0.0
  0
LINE
  5
44F
330
1F
100
AcDbEntity
  8
A-2_蓋
  6
Continuous
 62
     3
370
     9
100
AcDbLine
 10
-274.512213629645
 20
245.3199561866555
 30
0.0
 11
-274.512213629645
 21
62.28092502903309
 31
0.0
  0
LINE
  5
450
330
1F
100
AcDbEntity
  8
A-2_蓋
  6
Continuous
 62
     3
370
     9
100
AcDbLine
 10
335.4870770428633
 20
445.3199974266261
 30
0.0
 11
335.4870770428633
 21
262.2809662690034
 31
0.0
  0
LINE
  5
451
330
1F
100
AcDbEntity
  8
A-2_蓋
  6
Continuous
 62
     3
370
     9
100
AcDbLine
 10
335.4870770428633
 20
245.3199561866555
 30
0.0
 11
335.4870770428633
 21
62.28092502903309
 31
0.0
  0
LINE
  5
452
330
1F
100
AcDbEntity
  8
A-2_蓋
  6
Continuous
 62
     3
370
     9
100
AcDbLine
 10
325.4875389305323
 20
445.3199974266261
 30
0.0
 11
325.4875389305323
 21
262.2809662690034
 31
0.0
  0
LINE
  5
453
330
1F
100
AcDbEntity
  8
A-2_蓋
  6
Continuous
 62
     3
370
     9
100
AcDbLine
 10
325.4875389305323
 20
245.3199561866555
 30
0.0
 11
325.4875389305323
 21
62.28092502903309
 31
0.0
  0
LINE
  5
454
330
1F
100
AcDbEntity
  8
A-2_蓋
  6
Continuous
 62
     3
370
     9
100
AcDbLine
 10
275.4868790910052
 20
445.3199974266261
 30
0.0
 11
275.4868790910052
 21
262.2809662690034
 31
0.0
  0
LINE
  5
455
330
1F
100
AcDbEntity
  8
A-2_蓋
  6
Continuous
 62
     3
370
     9
100
AcDbLine
 10
275.4868790910052
 20
245.3199561866555
 30
0.0
 11
275.4868790910052
 21
62.28092502903309
 31
0.0
  0
LINE
  5
456
330
1F
100
AcDbEntity
  8
A-2_蓋
  6
Continuous
 62
     3
370
     9
100
AcDbLine
 10
265.4873409786742
 20
445.3199974266261
 30
0.0
 11
265.4873409786742
 21
262.2809662690034
 31
0.0
  0
LINE
  5
457
330
1F
100
AcDbEntity
  8
A-2_蓋
  6
Continuous
 62
     3
370
     9
100
AcDbLine
 10
265.4873409786742
 20
245.3199561866555
 30
0.0
 11
265.4873409786742
 21
62.28092502903309
 31
0.0
  0
LINE
  5
458
330
1F
100
AcDbEntity
  8
A-2_蓋
  6
Continuous
 62
     3
370
     9
100
AcDbLine
 10
215.4876708984375
 20
445.3199974266261
 30
0.0
 11
215.4876708984375
 21
262.2809662690034
 31
0.0
  0
LINE
  5
459
330
1F
100
AcDbEntity
  8
A-2_蓋
  6
Continuous
 62
     3
370
     9
100
AcDbLine
 10
215.4876708984375
 20
245.3199561866555
 30
0.0
 11
215.4876708984375
 21
62.28092502903309
 31
0.0
  0
LINE
  5
45A
330
1F
100
AcDbEntity
  8
A-2_蓋
  6
Continuous
 62
     3
370
     9
100
AcDbLine
 10
205.4891225453972
 20
445.3199974266261
 30
0.0
 11
205.4891225453972
 21
262.2809662690034
 31
0.0
  0
LINE
  5
45B
330
1F
100
AcDbEntity
  8
A-2_蓋
  6
Continuous
 62
     3
370
     9
100
AcDbLine
 10
205.4891225453972
 20
245.3199561866555
 30
0.0
 11
205.4891225453972
 21
62.28092502903309
 31
0.0
  0
LINE
  5
45C
330
1F
100
AcDbEntity
  8
A-2_蓋
  6
Continuous
 62
     3
370
     9
100
AcDbLine
 10
385.4877368823904
 20
445.3199974266261
 30
0.0
 11
385.4877368823904
 21
262.2809662690034
 31
0.0
  0
LINE
  5
45D
330
1F
100
AcDbEntity
  8
A-2_蓋
  6
Continuous
 62
     3
370
     9
100
AcDbLine
 10
385.4877368823904
 20
245.3199561866555
 30
0.0
 11
385.4877368823904
 21
62.28092502903309
 31
0.0
  0
LINE
  5
45E
330
1F
100
AcDbEntity
  8
A-4_寸法
  6
Continuous
 62
     7
370
     9
100
AcDbLine
 10
-449.5127909892312
 20
890.6756756756758
 30
0.0
 11
-389.5130879170185
 21
890.6756756756758
 31
0.0
  0
LINE
  5
45F
330
1F
100
AcDbEntity
  8
A-4_寸法
  6
Continuous
 62
     7
370
     9
100
AcDbLine
 10
-449.5127909892312
 20
757.7925728462839
 30
0.0
 11
-449.5127909892312
 21
893.6756360853042
 31
0.0
  0
LINE
  5
460
330
1F
100
AcDbEntity
  8
A-4_寸法
  6
Continuous
 62
     7
370
     9
100
AcDbLine
 10
-389.5130879170185
 20
757.7925728462839
 30
0.0
 11
-389.5130879170185
 21
893.6756360853042
 31
0.0
  0
CIRCLE
  5
461
330
1F
100
AcDbEntity
  8
A-1_ピット
  6
Continuous
 62
     2
370
     9
100
AcDbCircle
 10
-1214.512716757285
 20
-125.2015067435599
 30
0.0
 40
9.000000115987417
  0
CIRCLE
  5
462
330
1F
100
AcDbEntity
  8
A-1_ピット
  6
Continuous
 62
     2
370
     9
100
AcDbCircle
 10
-1012.512000831398
 20
-125.2015067435599
 30
0.0
 40
9.000000115987417
  0
ARC
  5
463
330
1F
100
AcDbEntity
  8
A-1_ピット
  6
Continuous
 62
     2
370
     9
100
AcDbCircle
 10
-1203.512284562394
 20
-137.4015271985851
 30
0.0
 40
19.9999983246262
100
AcDbArc
 50
180.0
 51
270.0
  0
ARC
  5
464
330
1F
100
AcDbEntity
  8
A-1_ピット
  6
Continuous
 62
     2
370
     9
100
AcDbCircle
 10
-1023.512309306377
 20
-137.4015271985851
 30
0.0
 40
19.9999983246262
100
AcDbArc
 50
270.0
 51
0.0
  0
ARC
  5
465
330
1F
100
AcDbEntity
  8
A-1_ピット
  6
Continuous
 62
     2
370
     9
100
AcDbCircle
 10
-1023.512309306377
 20
-137.4015271985851
 30
0.0
 40
1.999999904954756
100
AcDbArc
 50
270.0
 51
0.0
  0
ARC
  5
466
330
1F
100
AcDbEntity
  8
A-1_ピット
  6
Continuous
 62
     2
370
     9
100
AcDbCircle
 10
-1203.512284562394
 20
-137.4015271985851
 30
0.0
 40
1.999999904954756
100
AcDbArc
 50
180.0
 51
270.0
  0
CIRCLE
  5
467
330
1F
100
AcDbEntity
  8
A-1_ピット
  6
Continuous
 62
     2
370
     9
100
AcDbCircle
 10
-186.5118490683065
 20
-125.2015067435599
 30
0.0
 40
9.000000115987417
  0
CIRCLE
  5
468
330
1F
100
AcDbEntity
  8
A-1_ピット
  6
Continuous
 62
     2
370
     9
100
AcDbCircle
 10
15.4882482580237
 20
-125.2015067435599
 30
0.0
 40
9.000000115987417
  0
ARC
  5
469
330
1F
100
AcDbEntity
  8
A-1_ピット
  6
Continuous
 62
     2
370
     9
100
AcDbCircle
 10
-175.5116643132388
 20
-137.4015271985851
 30
0.0
 40
19.9999983246262
100
AcDbArc
 50
180.0
 51
270.0
  0
ARC
  5
46A
330
1F
100
AcDbEntity
  8
A-1_ピット
  6
Continuous
 62
     2
370
     9
100
AcDbCircle
 10
4.488558382601582
 20
-137.4015271985851
 30
0.0
 40
19.9999983246262
100
AcDbArc
 50
270.0
 51
0.0
  0
ARC
  5
46B
330
1F
100
AcDbEntity
  8
A-1_ピット
  6
Continuous
 62
     2
370
     9
100
AcDbCircle
 10
4.488558382601582
 20
-137.4015271985851
 30
0.0
 40
1.999999904954756
100
AcDbArc
 50
270.0
 51
0.0
  0
ARC
  5
46C
330
1F
100
AcDbEntity
  8
A-1_ピット
  6
Continuous
 62
     2
370
     9
100
AcDbCircle
 10
-175.5129015123521
 20
-137.4015271985851
 30
0.0
 40
1.999999904954756
100
AcDbArc
 50
180.0
 51
270.0
  0
CIRCLE
  5
46D
330
1F
100
AcDbEntity
  8
A-1_ピット
  6
Continuous
 62
     2
370
     9
100
AcDbCircle
 10
-1214.512716757285
 20
832.7997486011404
 30
0.0
 40
9.000000115987417
  0
CIRCLE
  5
46E
330
1F
100
AcDbEntity
  8
A-1_ピット
  6
Continuous
 62
     2
370
     9
100
AcDbCircle
 10
-1012.512000831398
 20
832.7997486011404
 30
0.0
 40
9.000000115987417
  0
ARC
  5
46F
330
1F
100
AcDbEntity
  8
A-1_ピット
  6
Continuous
 62
     2
370
     9
100
AcDbCircle
 10
-1203.512284562394
 20
845.000263935811
 30
0.0
 40
19.9999983246262
100
AcDbArc
 50
90.0
 51
180.0
  0
ARC
  5
470
330
1F
100
AcDbEntity
  8
A-1_ピット
  6
Continuous
 62
     2
370
     9
100
AcDbCircle
 10
-1023.512309306377
 20
845.000263935811
 30
0.0
 40
19.9999983246262
100
AcDbArc
 50
0.0
 51
90.0
  0
ARC
  5
471
330
1F
100
AcDbEntity
  8
A-1_ピット
  6
Continuous
 62
     2
370
     9
100
AcDbCircle
 10
-1023.512309306377
 20
845.000263935811
 30
0.0
 40
1.999999904954756
100
AcDbArc
 50
0.0
 51
90.0
  0
ARC
  5
472
330
1F
100
AcDbEntity
  8
A-1_ピット
  6
Continuous
 62
     2
370
     9
100
AcDbCircle
 10
-1203.512284562394
 20
845.000263935811
 30
0.0
 40
1.999999904954756
100
AcDbArc
 50
90.0
 51
180.0
  0
CIRCLE
  5
473
330
1F
100
AcDbEntity
  8
A-1_ピット
  6
Continuous
 62
     2
370
     9
100
AcDbCircle
 10
-186.5118490683065
 20
832.7997486011404
 30
0.0
 40
9.000000115987417
  0
CIRCLE
  5
474
330
1F
100
AcDbEntity
  8
A-1_ピット
  6
Continuous
 62
     2
370
     9
100
AcDbCircle
 10
15.4882482580237
 20
832.7997486011404
 30
0.0
 40
9.000000115987417
  0
ARC
  5
475
330
1F
100
AcDbEntity
  8
A-1_ピット
  6
Continuous
 62
     2
370
     9
100
AcDbCircle
 10
-175.5116643132388
 20
845.000263935811
 30
0.0
 40
19.9999983246262
100
AcDbArc
 50
90.0
 51
180.0
  0
ARC
  5
476
330
1F
100
AcDbEntity
  8
A-1_ピット
  6
Continuous
 62
     2
370
     9
100
AcDbCircle
 10
4.488558382601582
 20
845.000263935811
 30
0.0
 40
19.9999983246262
100
AcDbArc
 50
0.0
 51
90.0
  0
ARC
  5
477
330
1F
100
AcDbEntity
  8
A-1_ピット
  6
Continuous
 62
     2
370
     9
100
AcDbCircle
 10
4.488558382601582
 20
845.000263935811
 30
0.0
 40
1.999999904954756
100
AcDbArc
 50
0.0
 51
90.0
  0
ARC
  5
478
330
1F
100
AcDbEntity
  8
A-1_ピット
  6
Continuous
 62
     2
370
     9
100
AcDbCircle
 10
-175.5129015123521
 20
845.000263935811
 30
0.0
 40
1.999999904954756
100
AcDbArc
 50
90.0
 51
180.0
  0
ARC
  5
479
330
1F
100
AcDbEntity
  8
A-0_通り芯
  6
Continuous
 62
     7
370
     9
100
AcDbCircle
 10
218.387170740076
 20
765.7737443253802
 30
0.0
 40
2.899945184991167
100
AcDbArc
 50
90.0
 51
270.0
  0
ARC
  5
47A
330
1F
100
AcDbEntity
  8
A-0_通り芯
  6
Continuous
 62
     7
370
     9
100
AcDbCircle
 10
262.5870988175677
 20
765.7734968855575
 30
0.0
 40
2.899945184991167
100
AcDbArc
 50
270.0
 51
90.0
  0
ARC
  5
47B
330
1F
100
AcDbEntity
  8
A-0_通り芯
  6
Continuous
 62
     7
370
     9
100
AcDbCircle
 10
224.3865966796875
 20
765.7737443253802
 30
0.0
 40
2.900000037373723
100
AcDbArc
 50
270.0
 51
0.0
  0
ARC
  5
47C
330
1F
100
AcDbEntity
  8
A-0_通り芯
  6
Continuous
 62
     7
370
     9
100
AcDbCircle
 10
256.5874254381336
 20
765.7737443253802
 30
0.0
 40
2.900000037373723
100
AcDbArc
 50
180.0
 51
270.0
  0
ELLIPSE
  5
47D
330
1F
100
AcDbEntity
  8
A-0_通り芯
  6
Continuous
 62
     7
370
     9
100
AcDbEllipse
 10
224.3873389991555
 20
808.7359784100508
 30
0.0
 11
-2.899799699381566
 21
-0.001705157723767968
 31
0.0
210
0.0
220
0.0
230
0.9999999999999998
 40
0.9185
 41
0.0
 42
6.283185307179586
  0
ELLIPSE
  5
47E
330
1F
100
AcDbEntity
  8
A-0_通り芯
  6
Continuous
 62
     7
370
     9
100
AcDbEllipse
 10
256.5869305584883
 20
808.7359784100508
 30
0.0
 11
-2.899948066593315
 21
-0.001705244967551434
 31
0.0
210
0.0
220
0.0
230
0.9999999999999998
 40
0.9185
 41
0.0
 42
6.283185307179586
  0
ARC
  5
47F
330
1F
100
AcDbEntity
  8
A-0_通り芯
  6
Continuous
 62
     7
370
     9
100
AcDbCircle
 10
-1417.413247598184
 20
765.7737443253802
 30
0.0
 40
2.899945184991167
100
AcDbArc
 50
270.0
 51
90.0
  0
ARC
  5
480
330
1F
100
AcDbEntity
  8
A-0_通り芯
  6
Continuous
 62
     7
370
     9
100
AcDbCircle
 10
-1461.612928235853
 20
765.7734968855575
 30
0.0
 40
2.899945184991167
100
AcDbArc
 50
90.0
 51
270.0
  0
ARC
  5
481
330
1F
100
AcDbEntity
  8
A-0_通り芯
  6
Continuous
 62
     7
370
     9
100
AcDbCircle
 10
-1423.412673537796
 20
765.7737443253802
 30
0.0
 40
2.900000037373723
100
AcDbArc
 50
180.0
 51
270.0
  0
ARC
  5
482
330
1F
100
AcDbEntity
  8
A-0_通り芯
  6
Continuous
 62
     7
370
     9
100
AcDbCircle
 10
-1455.613502296242
 20
765.7737443253802
 30
0.0
 40
2.900000037373723
100
AcDbArc
 50
270.0
 51
0.0
  0
ELLIPSE
  5
483
330
1F
100
AcDbEntity
  8
A-0_通り芯
  6
Continuous
 62
     7
370
     9
100
AcDbEllipse
 10
-1423.413168417441
 20
808.7359784100508
 30
0.0
 11
2.899799653416713
 21
-0.001781611797076271
 31
0.0
210
0.0
220
0.0
230
0.9999999999999999
 40
0.9185
 41
0.0
 42
6.283185307179586
  0
ELLIPSE
  5
484
330
1F
100
AcDbEntity
  8
A-0_通り芯
  6
Continuous
 62
     7
370
     9
100
AcDbEllipse
 10
-1455.613007416596
 20
808.7359784100508
 30
0.0
 11
2.89994802062611
 21
-0.001781702952604982
 31
0.0
210
0.0
220
0.0
230
0.9999999999999998
 40
0.9185000000000001
 41
0.0
 42
6.283185307179586
  0
ARC
  5
485
330
1F
100
AcDbEntity
  8
A-0_通り芯
  6
Continuous
 62
     7
370
     9
100
AcDbCircle
 10
218.387170740076
 20
-58.17426526868644
 30
0.0
 40
2.899945184991167
100
AcDbArc
 50
90.0
 51
270.0
  0
ARC
  5
486
330
1F
100
AcDbEntity
  8
A-0_通り芯
  6
Continuous
 62
     7
370
     9
100
AcDbCircle
 10
262.5870988175677
 20
-58.17401782886407
 30
0.0
 40
2.899945184991167
100
AcDbArc
 50
270.0
 51
90.0
  0
ARC
  5
487
330
1F
100
AcDbEntity
  8
A-0_通り芯
  6
Continuous
 62
     7
370
     9
100
AcDbCircle
 10
224.3865966796875
 20
-58.17426526868644
 30
0.0
 40
2.900000037373723
100
AcDbArc
 50
0.0
 51
90.0
  0
ARC
  5
488
330
1F
100
AcDbEntity
  8
A-0_通り芯
  6
Continuous
 62
     7
370
     9
100
AcDbCircle
 10
256.5874254381336
 20
-58.17426526868644
 30
0.0
 40
2.900000037373723
100
AcDbArc
 50
90.0
 51
180.0
  0
ELLIPSE
  5
489
330
1F
100
AcDbEntity
  8
A-0_通り芯
  6
Continuous
 62
     7
370
     9
100
AcDbEllipse
 10
224.3873389991555
 20
-101.1364993533573
 30
0.0
 11
-2.899799683361711
 21
0.001732186941742201
 31
0.0
210
0.0
220
0.0
230
1.0
 40
0.9185
 41
0.0
 42
6.283185307179586
  0
ELLIPSE
  5
48A
330
1F
100
AcDbEntity
  8
A-0_通り芯
  6
Continuous
 62
     7
370
     9
100
AcDbEllipse
 10
256.5869305584883
 20
-101.1364993533573
 30
0.0
 11
-2.899948050572641
 21
0.001732275568465912
 31
0.0
210
0.0
220
0.0
230
1.0
 40
0.9185000000000001
 41
0.0
 42
6.283185307179586
  0
ARC
  5
48B
330
1F
100
AcDbEntity
  8
A-0_通り芯
  6
Continuous
 62
     7
370
     9
100
AcDbCircle
 10
-1417.413247598184
 20
-58.17426526868644
 30
0.0
 40
2.899945184991167
100
AcDbArc
 50
270.0
 51
90.0
  0
ARC
  5
48C
330
1F
100
AcDbEntity
  8
A-0_通り芯
  6
Continuous
 62
     7
370
     9
100
AcDbCircle
 10
-1461.612928235853
 20
-58.17401782886407
 30
0.0
 40
2.899945184991167
100
AcDbArc
 50
90.0
 51
270.0
  0
ARC
  5
48D
330
1F
100
AcDbEntity
  8
A-0_通り芯
  6
Continuous
 62
     7
370
     9
100
AcDbCircle
 10
-1423.412673537796
 20
-58.17426526868644
 30
0.0
 40
2.900000037373723
100
AcDbArc
 50
90.0
 51
180.0
  0
ARC
  5
48E
330
1F
100
AcDbEntity
  8
A-0_通り芯
  6
Continuous
 62
     7
370
     9
100
AcDbCircle
 10
-1455.613502296242
 20
-58.17426526868644
 30
0.0
 40
2.900000037373723
100
AcDbArc
 50
0.0
 51
90.0
  0
ELLIPSE
  5
48F
330
1F
100
AcDbEntity
  8
A-0_通り芯
  6
Continuous
 62
     7
370
     9
100
AcDbEllipse
 10
-1423.413168417441
 20
-101.1364993533573
 30
0.0
 11
2.899799683361711
 21
0.001732186941742727
 31
0.0
210
0.0
220
0.0
230
1.0
 40
0.9185
 41
0.0
 42
6.283185307179586
  0
ELLIPSE
  5
490
330
1F
100
AcDbEntity
  8
A-0_通り芯
  6
Continuous
 62
     7
370
     9
100
AcDbEllipse
 10
-1455.613007416596
 20
-101.1364993533573
 30
0.0
 11
2.899948050572641
 21
0.001732275568466438
 31
0.0
210
0.0
220
0.0
230
1.0
 40
0.9185000000000001
 41
0.0
 42
6.283185307179586
  0
ARC
  5
491
330
1F
100
AcDbEntity
  8
A-1_ピット
  6
Continuous
 62
     2
370
     9
100
AcDbCircle
 10
1261.801559860642
 20
816.800537109375
 30
0.0
 40
5.000000064437454
100
AcDbArc
 50
180.0
 51
270.0
  0
ARC
  5
492
330
1F
100
AcDbEntity
  8
A-1_ピット
  6
Continuous
 62
     2
370
     9
100
AcDbCircle
 10
1325.801375105575
 20
708.7999828441724
 30
0.0
 40
5.000000064437454
100
AcDbArc
 50
180.0
 51
270.0
  0
ARC
  5
493
330
1F
100
AcDbEntity
  8
A-1_ピット
  6
Continuous
 62
     2
370
     9
100
AcDbCircle
 10
1312.80138170397
 20
803.800048828125
 30
0.0
 40
7.999999619819023
100
AcDbArc
 50
0.0
 51
90.0
  0
ARC
  5
494
330
1F
100
AcDbEntity
  8
A-1_ピット
  6
Continuous
 62
     2
370
     9
100
AcDbCircle
 10
1320.430941195102
 20
859.8001346072635
 30
0.0
 40
36.00000046394967
100
AcDbArc
 50
270.0
 51
285.0
  0
ARC
  5
495
330
1F
100
AcDbEntity
  8
A-1_ピット
  6
Continuous
 62
     2
370
     9
100
AcDbCircle
 10
1443.801467483108
 20
864.9048181482266
 30
0.0
 40
9.000000115987417
100
AcDbArc
 50
285.0001373291016
 51
104.9999084472656
  0
ARC
  5
496
330
1F
100
AcDbEntity
  8
A-1_ピット
  6
JWW_CENTER1
 62
     2
370
     9
100
AcDbCircle
 10
1320.430941195102
 20
859.8001346072635
 30
0.0
 40
27.00000518077129
100
AcDbArc
 50
270.0
 51
284.9999542236328
  0
ARC
  5
497
330
1F
100
AcDbEntity
  8
A-1_ピット
  6
Continuous
 62
     2
370
     9
100
AcDbCircle
 10
1320.431436074747
 20
859.8001346072635
 30
0.0
 40
18.00000023197483
100
AcDbArc
 50
270.0
 51
285.0000152587891
  0
ARC
  5
498
330
1F
100
AcDbEntity
  8
A-1_ピット
  6
Continuous
 62
     2
370
     9
100
AcDbCircle
 10
1261.801559860642
 20
-109.2001920133023
 30
0.0
 40
5.000000064437454
100
AcDbArc
 50
90.0
 51
180.0
  0
ARC
  5
499
330
1F
100
AcDbEntity
  8
A-1_ピット
  6
Continuous
 62
     2
370
     9
100
AcDbCircle
 10
1325.801375105575
 20
-1.199637748099462
 30
0.0
 40
5.000000064437454
100
AcDbArc
 50
90.0
 51
180.0
  0
ARC
  5
49A
330
1F
100
AcDbEntity
  8
A-1_ピット
  6
Continuous
 62
     2
370
     9
100
AcDbCircle
 10
1312.80138170397
 20
-96.19970373205234
 30
0.0
 40
7.999999619819023
100
AcDbArc
 50
270.0
 51
0.0
  0
ARC
  5
49B
330
1F
100
AcDbEntity
  8
A-1_ピット
  6
Continuous
 62
     2
370
     9
100
AcDbCircle
 10
1320.430941195102
 20
-152.1999132311021
 30
0.0
 40
36.00000046394967
100
AcDbArc
 50
75.0
 51
90.0
  0
ARC
  5
49C
330
1F
100
AcDbEntity
  8
A-1_ピット
  6
Continuous
 62
     2
370
     9
100
AcDbCircle
 10
1443.801467483108
 20
-157.3044730521536
 30
0.0
 40
9.000000115987417
100
AcDbArc
 50
255.0000915527343
 51
74.9998626708984
  0
ARC
  5
49D
330
1F
100
AcDbEntity
  8
A-1_ピット
  6
JWW_CENTER1
 62
     2
370
     9
100
AcDbCircle
 10
1320.430941195102
 20
-152.1999132311021
 30
0.0
 40
27.00000518077129
100
AcDbArc
 50
75.00004577636719
 51
90.0
  0
ARC
  5
49E
330
1F
100
AcDbEntity
  8
A-1_ピット
  6
Continuous
 62
     2
370
     9
100
AcDbCircle
 10
1320.431436074747
 20
-152.1999132311021
 30
0.0
 40
18.00000023197483
100
AcDbArc
 50
74.99998474121095
 51
90.0
  0
ARC
  5
49F
330
1F
100
AcDbEntity
  8
A-0_通り芯
  6
Continuous
 62
     7
370
     9
100
AcDbCircle
 10
1305.009996568834
 20
802.3700940931167
 30
0.0
 40
7.999999619819023
100
AcDbArc
 50
0.0003509521484415
 51
95.06610107421875
  0
ARC
  5
4A0
330
1F
100
AcDbEntity
  8
A-0_通り芯
  6
Continuous
 62
     7
370
     9
100
AcDbCircle
 10
1305.009996568834
 20
794.8353040540542
 30
0.0
 40
7.999999619819023
100
AcDbArc
 50
263.5749206542969
 51
0.0003509521484033
  0
ARC
  5
4A1
330
1F
100
AcDbEntity
  8
A-0_通り芯
  6
Continuous
 62
     7
370
     9
100
AcDbCircle
 10
1271.010032860009
 20
770.873726509713
 30
0.0
 40
7.999999619819023
100
AcDbArc
 50
180.0
 51
270.0003509521484
  0
ARC
  5
4A2
330
1F
100
AcDbEntity
  8
A-0_通り芯
  6
Continuous
 62
     7
370
     9
100
AcDbCircle
 10
1270.809854043497
 20
770.6737951330238
 30
0.0
 40
1.999999904954756
100
AcDbArc
 50
180.0014190673828
 51
270.0
  0
ARC
  5
4A3
330
1F
100
AcDbEntity
  8
A-0_通り芯
  6
Continuous
 62
     7
370
     9
100
AcDbCircle
 10
1270.809854043497
 20
779.0530972867401
 30
0.0
 40
1.999999904954756
100
AcDbArc
 50
116.5656890869141
 51
180.0
  0
ARC
  5
4A4
330
1F
100
AcDbEntity
  8
A-0_通り芯
  6
Continuous
 62
     7
370
     9
100
AcDbCircle
 10
1305.209927945524
 20
802.5880885768584
 30
0.0
 40
1.999999904954756
100
AcDbArc
 50
0.0
 51
95.06645202636719
  0
ARC
  5
4A5
330
1F
100
AcDbEntity
  8
A-0_通り芯
  6
Continuous
 62
     7
370
     9
100
AcDbCircle
 10
1305.209927945524
 20
794.6116184543919
 30
0.0
 40
1.999999904954756
100
AcDbArc
 50
263.5755767822266
 51
0.0000000000000382
  0
ARC
  5
4A6
330
1F
100
AcDbEntity
  8
A-0_通り芯
  6
Continuous
 62
     7
370
     9
100
AcDbCircle
 10
1286.432214685389
 20
786.8645250475086
 30
0.0
 40
1.999999904954756
100
AcDbArc
 50
83.57557678222656
 51
116.5656890869141
  0
ARC
  5
4A7
330
1F
100
AcDbEntity
  8
A-0_通り芯
  6
Continuous
 62
     7
370
     9
100
AcDbCircle
 10
1271.010032860009
 20
778.9293773754224
 30
0.0
 40
7.999999619819023
100
AcDbArc
 50
116.5648956298828
 51
180.0
  0
ARC
  5
4A8
330
1F
100
AcDbEntity
  8
A-0_通り芯
  6
Continuous
 62
     7
370
     9
100
AcDbCircle
 10
1304.310236750423
 20
765.7737443253802
 30
0.0
 40
2.900000037373723
100
AcDbArc
 50
270.0
 51
90.0
  0
ARC
  5
4A9
330
1F
100
AcDbEntity
  8
A-0_通り芯
  6
Continuous
 62
     7
370
     9
100
AcDbCircle
 10
1305.009996568834
 20
-94.77061503642318
 30
0.0
 40
7.999999619819023
100
AcDbArc
 50
264.9338989257812
 51
359.9996490478515
  0
ARC
  5
4AA
330
1F
100
AcDbEntity
  8
A-0_通り芯
  6
Continuous
 62
     7
370
     9
100
AcDbCircle
 10
1305.009996568834
 20
-87.23582499736068
 30
0.0
 40
7.999999619819023
100
AcDbArc
 50
359.9996490478516
 51
96.42507934570314
  0
ARC
  5
4AB
330
1F
100
AcDbEntity
  8
A-0_通り芯
  6
Continuous
 62
     7
370
     9
100
AcDbCircle
 10
1271.010032860009
 20
-63.27424745301926
 30
0.0
 40
7.999999619819023
100
AcDbArc
 50
89.99964904785158
 51
180.0
  0
ARC
  5
4AC
330
1F
100
AcDbEntity
  8
A-0_通り芯
  6
Continuous
 62
     7
370
     9
100
AcDbCircle
 10
1270.809854043497
 20
-63.07431607633021
 30
0.0
 40
1.999999904954756
100
AcDbArc
 50
90.0
 51
179.9985809326172
  0
ARC
  5
4AD
330
1F
100
AcDbEntity
  8
A-0_通り芯
  6
Continuous
 62
     7
370
     9
100
AcDbCircle
 10
1270.809854043497
 20
-71.45361823004635
 30
0.0
 40
1.999999904954756
100
AcDbArc
 50
180.0
 51
243.4343109130859
  0
ARC
  5
4AE
330
1F
100
AcDbEntity
  8
A-0_通り芯
  6
Continuous
 62
     7
370
     9
100
AcDbCircle
 10
1305.209927945524
 20
-94.98860952016457
 30
0.0
 40
1.999999904954756
100
AcDbArc
 50
264.9335479736328
 51
0.0
  0
ARC
  5
4AF
330
1F
100
AcDbEntity
  8
A-0_通り芯
  6
Continuous
 62
     7
370
     9
100
AcDbCircle
 10
1305.209927945524
 20
-87.01213939769843
 30
0.0
 40
1.999999904954756
100
AcDbArc
 50
0.0
 51
96.42442321777345
  0
ARC
  5
4B0
330
1F
100
AcDbEntity
  8
A-0_通り芯
  6
Continuous
 62
     7
370
     9
100
AcDbCircle
 10
1286.432214685389
 20
-79.26504599081483
 30
0.0
 40
1.999999904954756
100
AcDbArc
 50
243.4343109130859
 51
276.4244232177734
  0
ARC
  5
4B1
330
1F
100
AcDbEntity
  8
A-0_通り芯
  6
Continuous
 62
     7
370
     9
100
AcDbCircle
 10
1271.010032860009
 20
-71.32989831872891
 30
0.0
 40
7.999999619819023
100
AcDbArc
 50
180.0
 51
243.4351043701172
  0
ARC
  5
4B2
330
1F
100
AcDbEntity
  8
A-0_通り芯
  6
Continuous
 62
     7
370
     9
100
AcDbCircle
 10
1304.310236750423
 20
-58.17426526868644
 30
0.0
 40
2.900000037373723
100
AcDbArc
 50
270.0
 51
90.0
  0
TEXT
  5
4B3
330
1F
100
AcDbEntity
  8
A-4_寸法
  6
Continuous
 62
     2
370
     9
100
AcDbText
 10
-1665.722324268238
 20
-241.760652911212
 30
0.0
 40
30.48
  1
6
 41
0.9999999999999998
  7
ＭＳ ゴシック
100
AcDbText
  0
TEXT
  5
4B4
330
1F
100
AcDbEntity
  8
A-4_寸法
  6
Continuous
 62
     2
370
     9
100
AcDbText
 10
-1566.287629411027
 20
-241.760652911212
 30
0.0
 40
30.48
  1
3.5
 41
1.083333333333333
  7
ＭＳ ゴシック
100
AcDbText
  0
TEXT
  5
4B5
330
1F
100
AcDbEntity
  8
A-4_寸法
  6
Continuous
 62
     2
370
     9
100
AcDbText
 10
-632.0130384290541
 20
-241.760652911212
 30
0.0
 40
30.48
  1
995
 41
1.083333333333333
  7
ＭＳ ゴシック
100
AcDbText
  0
TEXT
  5
4B6
330
1F
100
AcDbEntity
  8
A-4_寸法
  6
Continuous
 62
     2
370
     9
100
AcDbText
 10
295.3995823215796
 20
-241.760652911212
 30
0.0
 40
30.48
  1
3.5
 41
1.083333333333333
  7
ＭＳ ゴシック
100
AcDbText
  0
TEXT
  5
4B7
330
1F
100
AcDbEntity
  8
A-4_寸法
  6
Continuous
 62
     2
370
     9
100
AcDbText
 10
452.0122136296454
 20
-241.760652911212
 30
0.0
 40
30.48
  1
6
 41
0.9999999999999998
  7
ＭＳ ゴシック
100
AcDbText
  0
TEXT
  5
4B8
330
1F
100
AcDbEntity
  8
A-4_寸法
  6
Continuous
 62
     2
370
     9
100
AcDbText
 10
-643.2623579695417
 20
-321.7606694072001
 30
0.0
 40
30.48
  1
1014
 41
1.09375
  7
ＭＳ ゴシック
100
AcDbText
  0
TEXT
  5
4B9
330
1F
100
AcDbEntity
  8
A-4_寸法
  6
Continuous
 62
     7
370
     9
100
AcDbText
 10
354.8447974952492
 20
1161.677476773649
 30
0.0
 40
22.86
  1
ＵＳクリップ：ＵＳ－３
 41
1.151515151515152
  7
ＭＳ ゴシック
100
AcDbText
  0
TEXT
  5
4BA
330
1F
100
AcDbEntity
  8
A-4_寸法
  6
Continuous
 62
     7
370
     9
100
AcDbText
 10
-717.004039867504
 20
1161.208578309755
 30
0.0
 40
22.86
  1
クロスバー □６ ＠100
 41
1.158730158730159
  7
ＭＳ ゴシック
100
AcDbText
  0
TEXT
  5
4BB
330
1F
100
AcDbEntity
  8
A-4_寸法
  6
Continuous
 62
     2
370
     9
100
AcDbText
 10
1141.160933450205
 20
-157.1629665881177
 30
0.0
 40
30.48
  1
6
 50
90.00000250447816
 41
0.9999999999999998
  7
ＭＳ ゴシック
100
AcDbText
  0
TEXT
  5
4BC
330
1F
100
AcDbEntity
  8
A-4_寸法
  6
Continuous
 62
     2
370
     9
100
AcDbText
 10
1141.160933450205
 20
-81.59298895667793
 30
0.0
 40
30.48
  1
4
 50
90.00000250447816
 41
0.9999999999999998
  7
ＭＳ ゴシック
100
AcDbText
  0
TEXT
  5
4BD
330
1F
100
AcDbEntity
  8
A-4_寸法
  6
Continuous
 62
     2
370
     9
100
AcDbText
 10
1141.160933450205
 20
770.3382994789746
 30
0.0
 40
30.48
  1
4
 50
90.00000250447816
 41
1.000000000000001
  7
ＭＳ ゴシック
100
AcDbText
  0
TEXT
  5
4BE
330
1F
100
AcDbEntity
  8
A-4_寸法
  6
Continuous
 62
     2
370
     9
100
AcDbText
 10
1141.160933450205
 20
847.5853005083242
 30
0.0
 40
30.48
  1
6
 50
90.00000250447816
 41
1.000000000000001
  7
ＭＳ ゴシック
100
AcDbText
  0
TEXT
  5
4BF
330
1F
100
AcDbEntity
  8
A-4_寸法
  6
Continuous
 62
     2
370
     9
100
AcDbText
 10
1537.161151689002
 20
-77.45019061023574
 30
0.0
 40
30.48
  1
60
 50
90.00000250447816
 41
1.0625
  7
ＭＳ ゴシック
100
AcDbText
  0
TEXT
  5
4C0
330
1F
100
AcDbEntity
  8
A-4_寸法
  6
Continuous
 62
     2
370
     9
100
AcDbText
 10
1537.161151689002
 20
742.550535213244
 30
0.0
 40
30.48
  1
60
 50
90.00000250447816
 41
1.062500000000001
  7
ＭＳ ゴシック
100
AcDbText
  0
TEXT
  5
4C1
330
1F
100
AcDbEntity
  8
A-4_寸法
  6
Continuous
 62
     2
370
     9
100
AcDbText
 10
1267.551079827386
 20
-226.0039324456292
 30
0.0
 40
30.48
  1
32
 41
1.0625
  7
ＭＳ ゴシック
100
AcDbText
  0
TEXT
  5
4C2
330
1F
100
AcDbEntity
  8
A-4_寸法
  6
Continuous
 62
     2
370
     9
100
AcDbText
 10
1273.551000646643
 20
-306.0039489416173
 30
0.0
 40
30.48
  1
38
 41
1.0625
  7
ＭＳ ゴシック
100
AcDbText
  0
TEXT
  5
4C3
330
1F
100
AcDbEntity
  8
A-4_寸法
  6
Continuous
 62
     7
370
     9
100
AcDbText
 10
1510.199741672825
 20
986.3794767472552
 30
0.0
 40
22.86
  1
アンカー：φ９
 41
1.142857142857143
  7
ＭＳ ゴシック
100
AcDbText
  0
TEXT
  5
4C4
330
1F
100
AcDbEntity
  8
A-4_寸法
  6
Continuous
 62
     7
370
     9
100
AcDbText
 10
907.5553522883234
 20
982.1111398067992
 30
0.0
 40
22.86
  1
受枠：Ｌ－３２
 41
1.142857142857143
  7
ＭＳ ゴシック
100
AcDbText
  0
TEXT
  5
4C5
330
1F
100
AcDbEntity
  8
A-4_寸法
  6
Continuous
 62
     7
370
     9
100
AcDbText
 10
513.7040916649071
 20
790.5162581820102
 30
0.0
 40
22.86
  1
ＦＢ３２×６
 41
1.138888888888889
  7
ＭＳ ゴシック
100
AcDbText
  0
TEXT
  5
4C6
330
1F
100
AcDbEntity
  8
A-4_寸法
  6
Continuous
 62
     7
370
     9
100
AcDbText
 10
888.9678542678422
 20
926.3617105679901
 30
0.0
 40
22.86
  1
（二方受四方枠）
 41
1.145833333333333
  7
ＭＳ ゴシック
100
AcDbText
  0
TEXT
  5
4C7
330
1F
100
AcDbEntity
  8
A-4_寸法
  6
Continuous
 62
     7
370
     9
100
AcDbText
 10
-650.886614000475
 20
1083.701270586993
 30
0.0
 40
22.86
  1
メインバー ＤⅠ－３２ ＠30
 41
1.16025641025641
  7
ＭＳ ゴシック
100
AcDbText
  0
TEXT
  5
4C8
330
1F
100
AcDbEntity
  8
D-4_寸法
  6
Continuous
 62
     2
370
     9
100
AcDbText
 10
931.1506611592063
 20
-972.3799288033151
 30
0.0
 40
30.48
  1
材質：ＳＳ４００
 41
1.109375
  7
ＭＳ ゴシック
100
AcDbText
  0
TEXT
  5
4C9
330
1F
100
AcDbEntity
  8
D-4_寸法
  6
Continuous
 62
     2
370
     9
100
AcDbText
 10
931.1506859031886
 20
-1027.379862819362
 30
0.0
 40
30.48
  1
処理：樹脂系塗料塗装
 41
1.1125
  7
ＭＳ ゴシック
100
AcDbText
  0
TEXT
  5
4CA
330
1F
100
AcDbEntity
  8
D-4_寸法
  6
Continuous
 62
     2
370
     9
100
AcDbText
 10
816.8490518105998
 20
-569.4598089764569
 30
0.0
 40
30.48
  1
仕　様
 41
1.083333333333333
  7
ＭＳ ゴシック
100
AcDbText
  0
TEXT
  5
4CB
330
1F
100
AcDbEntity
  8
D-4_寸法
  6
Continuous
 62
     2
370
     9
100
AcDbText
 10
931.1506859031886
 20
-797.379351443729
 30
0.0
 40
30.48
  1
処理：溶融亜鉛めっき
 41
1.1125
  7
ＭＳ ゴシック
100
AcDbText
  0
TEXT
  5
4CC
330
1F
100
AcDbEntity
  8
D-4_寸法
  6
Continuous
 62
     2
370
     9
100
AcDbText
 10
931.1507601351354
 20
-852.380398938978
 30
0.0
 40
30.48
  1
定尺：９９５
 41
1.104166666666667
  7
ＭＳ ゴシック
100
AcDbText
  0
TEXT
  5
4CD
330
1F
100
AcDbEntity
  8
D-4_寸法
  6
Continuous
 62
     2
370
     9
100
AcDbText
 10
871.4383099530196
 20
-632.3804154349662
 30
0.0
 40
30.48
  1
ノンスリップタイプ
 41
1.111111111111111
  7
ＭＳ ゴシック
100
AcDbText
  0
TEXT
  5
4CE
330
1F
100
AcDbEntity
  8
D-4_寸法
  6
Continuous
 62
     2
370
     9
100
AcDbText
 10
931.1506611592063
 20
-742.3783039484797
 30
0.0
 40
30.48
  1
材質：ＳＳ４００
 41
1.109375
  7
ＭＳ ゴシック
100
AcDbText
  0
TEXT
  5
4CF
330
1F
100
AcDbEntity
  8
D-4_寸法
  6
Continuous
 62
     2
370
     9
100
AcDbText
 10
871.4397451039908
 20
-917.3798710673564
 30
0.0
 40
30.48
  1
スチール製受枠　Ｌ－３２（二方受四方枠）
 41
1.11875
  7
ＭＳ ゴシック
100
AcDbText
  0
TEXT
  5
4D0
330
1F
100
AcDbEntity
  8
D-4_寸法
  6
Continuous
 62
     7
370
     9
100
AcDbText
 10
-859.3626857448269
 20
-1097.539904059333
 30
0.0
 40
22.86
  1
※デルタパターンの配列は一定ではありません。
 41
1.159090909090909
  7
ＭＳ ゴシック
100
AcDbText
  0
TEXT
  5
4D1
330
1F
100
AcDbEntity
  8
D-4_寸法
  6
Continuous
 62
     2
370
     9
100
AcDbText
 10
-884.6781340048442
 20
-715.8466589016474
 30
0.0
 40
30.48
  1
7.6
 50
90.00000250447816
 41
1.083333333333334
  7
ＭＳ ゴシック
100
AcDbText
  0
TEXT
  5
4D2
330
1F
100
AcDbEntity
  8
D-4_寸法
  6
Continuous
 62
     2
370
     9
100
AcDbText
 10
-884.6781340048442
 20
-890.0445414766052
 30
0.0
 40
30.48
  1
5.4
 50
90.00000250447816
 41
1.083333333333334
  7
ＭＳ ゴシック
100
AcDbText
  0
TEXT
  5
4D3
330
1F
100
AcDbEntity
  8
D-4_寸法
  6
Continuous
 62
     2
370
     9
100
AcDbText
 10
-798.9066335317251
 20
-571.9467029138513
 30
0.0
 40
30.48
  1
5
 41
0.9999999999999998
  7
ＭＳ ゴシック
100
AcDbText
  0
TEXT
  5
4D4
330
1F
100
AcDbEntity
  8
D-4_寸法
  6
Continuous
 62
     2
370
     9
100
AcDbText
 10
-724.847791490663
 20
-688.4450278322556
 30
0.0
 40
30.48
  1
5
 50
282.0786269671775
 41
0.9999999999999979
  7
ＭＳ ゴシック
100
AcDbText
  0
TEXT
  5
4D5
330
1F
100
AcDbEntity
  8
D-4_寸法
  6
Continuous
 62
     2
370
     9
100
AcDbText
 10
-140.3274824812605
 20
-643.8759747149492
 30
0.0
 40
30.48
  1
5
 41
0.9999999999999998
  7
ＭＳ ゴシック
100
AcDbText
  0
TEXT
  5
4D6
330
1F
100
AcDbEntity
  8
D-4_寸法
  6
Continuous
 62
     2
370
     9
100
AcDbText
 10
-92.50664375923762
 20
-800.4192733847127
 30
0.0
 40
30.48
  1
3
 41
0.9999999999999998
  7
ＭＳ ゴシック
100
AcDbText
  0
TEXT
  5
4D7
330
1F
100
AcDbEntity
  8
D-4_寸法
  6
Continuous
 62
     2
370
     9
100
AcDbText
 10
-11.02132033380169
 20
-813.0199950338
 30
0.0
 40
30.48
  1
32
 50
90.00000250447816
 41
1.062500000000001
  7
ＭＳ ゴシック
100
AcDbText
  0
TEXT
  5
4D8
330
1F
100
AcDbEntity
  8
D-4_寸法
  6
Continuous
 62
     7
370
     9
100
AcDbText
 10
-711.9751553922085
 20
-592.7510362119932
 30
0.0
 40
22.86
  1
デルタパターン
 41
1.142857142857143
  7
ＭＳ ゴシック
100
AcDbText
  0
TEXT
  5
4D9
330
1F
100
AcDbEntity
  8
D-4_寸法
  6
Continuous
 62
     2
370
     9
100
AcDbText
 10
-879.362809464738
 20
-1021.12965661951
 30
0.0
 40
30.48
  1
ＤⅠ－３２　バー形状詳細　Ｓ＝１：２
 41
1.118055555555555
  7
ＭＳ ゴシック
100
AcDbText
  0
TEXT
  5
4DA
330
1F
100
AcDbEntity
  8
A-4_寸法
  6
Continuous
 62
     2
370
     9
100
AcDbText
 10
1065.16078267062
 20
321.3001723015041
 30
0.0
 40
30.48
  1
470
 50
90.00000250447816
 41
1.083333333333333
  7
ＭＳ ゴシック
100
AcDbText
  0
TEXT
  5
4DB
330
1F
100
AcDbEntity
  8
A-4_寸法
  6
Continuous
 62
     2
370
     9
100
AcDbText
 10
1145.161046606431
 20
321.3001723015041
 30
0.0
 40
30.48
  1
450
 50
90.00000250447816
 41
1.083333333333333
  7
ＭＳ ゴシック
100
AcDbText
  0
TEXT
  5
4DC
330
1F
100
AcDbEntity
  8
A-4_寸法
  6
Continuous
 62
     2
370
     9
100
AcDbText
 10
1541.161264353475
 20
321.3001723015041
 30
0.0
 40
30.48
  1
350
 50
90.00000250447816
 41
1.083333333333333
  7
ＭＳ ゴシック
100
AcDbText
  0
TEXT
  5
4DD
330
1F
100
AcDbEntity
  8
D-4_寸法
  6
Continuous
 62
     2
370
     9
100
AcDbText
 10
871.438260465055
 20
-687.3814629302154
 30
0.0
 40
30.48
  1
圧接式グレーチング　ＨＸＢＣ　１４５３２
 41
1.11875
  7
ＭＳ ゴシック
100
AcDbText
  0
TEXT
  5
4DE
330
1F
100
AcDbEntity
  8
A-4_寸法
  6
Continuous
 62
     2
370
     9
100
AcDbText
 10
-1396.012843363994
 20
976.6398383393158
 30
0.0
 40
30.48
  1
250
 41
1.083333333333333
  7
ＭＳ ゴシック
100
AcDbText
  0
TEXT
  5
4DF
330
1F
100
AcDbEntity
  8
A-4_寸法
  6
Continuous
 62
     2
370
     9
100
AcDbText
 10
-632.0119249498522
 20
976.6398383393158
 30
0.0
 40
30.48
  1
514
 41
1.083333333333333
  7
ＭＳ ゴシック
100
AcDbText
  0
TEXT
  5
4E0
330
1F
100
AcDbEntity
  8
A-4_寸法
  6
Continuous
 62
     2
370
     9
100
AcDbText
 10
131.9885913745777
 20
976.6398383393158
 30
0.0
 40
30.48
  1
250
 41
1.083333333333333
  7
ＭＳ ゴシック
100
AcDbText
  0
TEXT
  5
4E1
330
1F
100
AcDbEntity
  8
A-4_寸法
  6
Continuous
 62
     2
370
     9
100
AcDbText
 10
-440.7629394531249
 20
902.3155964949325
 30
0.0
 40
30.48
  1
30
 41
1.0625
  7
ＭＳ ゴシック
100
AcDbText
  0
LWPOLYLINE
  5
4E2
330
1F
100
AcDbEntity
  8
A-4_寸法
  6
Continuous
 62
     7
370
     9
100
AcDbPolyline
 90
        4
 70
     1
 43
1.0
 10
-1613.013513513513
 20
964.9999175200594
 42
0.4142135623731
 10
-1613.513513513514
 20
965.4999175200594
 42
0.4142135623731
 10
-1614.013513513514
 20
964.9999175200594
 42
0.4142135623731
 10
-1613.513513513514
 20
964.4999175200594
 42
0.4142135623731
  0
LWPOLYLINE
  5
4E3
330
1F
100
AcDbEntity
  8
A-4_寸法
  6
Continuous
 62
     7
370
     9
100
AcDbPolyline
 90
        4
 70
     1
 43
1.0
 10
-1113.01223507443
 20
964.9999175200594
 42
0.4142135623731
 10
-1113.51223507443
 20
965.4999175200594
 42
0.4142135623731
 10
-1114.01223507443
 20
964.9999175200594
 42
0.4142135623731
 10
-1113.51223507443
 20
964.4999175200594
 42
0.4142135623731
  0
LWPOLYLINE
  5
4E4
330
1F
100
AcDbEntity
  8
A-4_寸法
  6
Continuous
 62
     7
370
     9
100
AcDbPolyline
 90
        4
 70
     1
 43
1.0
 10
-85.011491105363
 20
964.9999175200594
 42
0.4142135623731
 10
-85.511491105363
 20
965.4999175200594
 42
0.4142135623731
 10
-86.011491105363
 20
964.9999175200594
 42
0.4142135623731
 10
-85.511491105363
 20
964.4999175200594
 42
0.4142135623731
  0
LWPOLYLINE
  5
4E5
330
1F
100
AcDbEntity
  8
A-4_寸法
  6
Continuous
 62
     7
370
     9
100
AcDbPolyline
 90
        4
 70
     1
 43
1.0
 10
414.9889212943414
 20
964.9999175200594
 42
0.4142135623731
 10
414.4889212943414
 20
965.4999175200594
 42
0.4142135623731
 10
413.9889212943415
 20
964.9999175200594
 42
0.4142135623731
 10
414.4889212943414
 20
964.4999175200594
 42
0.4142135623731
  0
LWPOLYLINE
  5
4E6
330
1F
100
AcDbEntity
  8
A-4_寸法
  6
Continuous
 62
     7
370
     9
100
AcDbPolyline
 90
        4
 70
     1
 43
1.0
 10
-1613.013513513513
 20
-257.4006859031883
 42
0.4142135623731
 10
-1613.513513513514
 20
-256.9006859031883
 42
0.4142135623731
 10
-1614.013513513514
 20
-257.4006859031883
 42
0.4142135623731
 10
-1613.513513513514
 20
-257.9006859031883
 42
0.4142135623731
  0
LWPOLYLINE
  5
4E7
330
1F
100
AcDbEntity
  8
A-4_寸法
  6
Continuous
 62
     7
370
     9
100
AcDbPolyline
 90
        4
 70
     1
 43
1.0
 10
-1601.013424435177
 20
-257.4006859031883
 42
0.4142135623731
 10
-1601.513424435177
 20
-256.9006859031883
 42
0.4142135623731
 10
-1602.013424435178
 20
-257.4006859031883
 42
0.4142135623731
 10
-1601.513424435177
 20
-257.9006859031883
 42
0.4142135623731
  0
LWPOLYLINE
  5
4E8
330
1F
100
AcDbEntity
  8
A-4_寸法
  6
Continuous
 62
     7
370
     9
100
AcDbPolyline
 90
        4
 70
     1
 43
1.0
 10
-1594.013351852829
 20
-257.4006859031883
 42
0.4142135623731
 10
-1594.513351852829
 20
-256.9006859031883
 42
0.4142135623731
 10
-1595.01335185283
 20
-257.4006859031883
 42
0.4142135623731
 10
-1594.513351852829
 20
-257.9006859031883
 42
0.4142135623731
  0
LWPOLYLINE
  5
4E9
330
1F
100
AcDbEntity
  8
A-4_寸法
  6
Continuous
 62
     7
370
     9
100
AcDbPolyline
 90
        4
 70
     1
 43
1.0
 10
395.9872749947214
 20
-257.4006859031883
 42
0.4142135623731
 10
395.4872749947214
 20
-256.9006859031883
 42
0.4142135623731
 10
394.9872749947214
 20
-257.4006859031883
 42
0.4142135623731
 10
395.4872749947214
 20
-257.9006859031883
 42
0.4142135623731
  0
LWPOLYLINE
  5
4EA
330
1F
100
AcDbEntity
  8
A-4_寸法
  6
Continuous
 62
     7
370
     9
100
AcDbPolyline
 90
        4
 70
     1
 43
1.0
 10
402.9890796558278
 20
-257.4006859031883
 42
0.4142135623731
 10
402.4890796558279
 20
-256.9006859031883
 42
0.4142135623731
 10
401.9890796558279
 20
-257.4006859031883
 42
0.4142135623731
 10
402.4890796558279
 20
-257.9006859031883
 42
0.4142135623731
  0
LWPOLYLINE
  5
4EB
330
1F
100
AcDbEntity
  8
A-4_寸法
  6
Continuous
 62
     7
370
     9
100
AcDbPolyline
 90
        4
 70
     1
 43
1.0
 10
414.9889212943414
 20
-257.4006859031883
 42
0.4142135623731
 10
414.4889212943414
 20
-256.9006859031883
 42
0.4142135623731
 10
413.9889212943415
 20
-257.4006859031883
 42
0.4142135623731
 10
414.4889212943414
 20
-257.9006859031883
 42
0.4142135623731
  0
LWPOLYLINE
  5
4EC
330
1F
100
AcDbEntity
  8
A-4_寸法
  6
Continuous
 62
     7
370
     9
100
AcDbPolyline
 90
        4
 70
     1
 43
1.0
 10
-1613.013513513513
 20
-337.4007023991765
 42
0.4142135623731
 10
-1613.513513513514
 20
-336.9007023991765
 42
0.4142135623731
 10
-1614.013513513514
 20
-337.4007023991765
 42
0.4142135623731
 10
-1613.513513513514
 20
-337.9007023991764
 42
0.4142135623731
  0
LWPOLYLINE
  5
4ED
330
1F
100
AcDbEntity
  8
A-4_寸法
  6
Continuous
 62
     7
370
     9
100
AcDbPolyline
 90
        4
 70
     1
 43
1.0
 10
414.9889212943414
 20
-337.4007023991765
 42
0.4142135623731
 10
414.4889212943414
 20
-336.9007023991765
 42
0.4142135623731
 10
413.9889212943415
 20
-337.4007023991765
 42
0.4142135623731
 10
414.4889212943414
 20
-337.9007023991764
 42
0.4142135623731
  0
LWPOLYLINE
  5
4EE
330
1F
100
AcDbEntity
  8
A-4_寸法
  6
Continuous
 62
     7
370
     9
100
AcDbPolyline
 90
        4
 70
     1
 43
1.0
 10
1157.300966005068
 20
-116.2000171558276
 42
0.4142135623731
 10
1156.800966005068
 20
-115.7000171558276
 42
0.4142135623731
 10
1156.300966005068
 20
-116.2000171558276
 42
0.4142135623731
 10
1156.800966005068
 20
-116.7000171558276
 42
0.4142135623731
  0
LWPOLYLINE
  5
4EF
330
1F
100
AcDbEntity
  8
A-4_寸法
  6
Continuous
 62
     7
370
     9
100
AcDbPolyline
 90
        4
 70
     1
 43
1.0
 10
1157.300966005068
 20
-104.2001755173141
 42
0.4142135623731
 10
1156.800966005068
 20
-103.7001755173141
 42
0.4142135623731
 10
1156.300966005068
 20
-104.2001755173141
 42
0.4142135623731
 10
1156.800966005068
 20
-104.7001755173141
 42
0.4142135623731
  0
LWPOLYLINE
  5
4F0
330
1F
100
AcDbEntity
  8
A-4_寸法
  6
Continuous
 62
     7
370
     9
100
AcDbPolyline
 90
        4
 70
     1
 43
1.0
 10
1157.300966005068
 20
-96.19970373205234
 42
0.4142135623731
 10
1156.800966005068
 20
-95.69970373205234
 42
0.4142135623731
 10
1156.300966005068
 20
-96.19970373205234
 42
0.4142135623731
 10
1156.800966005068
 20
-96.69970373205234
 42
0.4142135623731
  0
LWPOLYLINE
  5
4F1
330
1F
100
AcDbEntity
  8
A-4_寸法
  6
Continuous
 62
     7
370
     9
100
AcDbPolyline
 90
        4
 70
     1
 43
1.0
 10
1157.300966005068
 20
803.800048828125
 42
0.4142135623731
 10
1156.800966005068
 20
804.300048828125
 42
0.4142135623731
 10
1156.300966005068
 20
803.800048828125
 42
0.4142135623731
 10
1156.800966005068
 20
803.300048828125
 42
0.4142135623731
  0
LWPOLYLINE
  5
4F2
330
1F
100
AcDbEntity
  8
A-4_寸法
  6
Continuous
 62
     7
370
     9
100
AcDbPolyline
 90
        4
 70
     1
 43
1.0
 10
1157.300966005068
 20
811.800520613387
 42
0.4142135623731
 10
1156.800966005068
 20
812.300520613387
 42
0.4142135623731
 10
1156.300966005068
 20
811.800520613387
 42
0.4142135623731
 10
1156.800966005068
 20
811.300520613387
 42
0.4142135623731
  0
LWPOLYLINE
  5
4F3
330
1F
100
AcDbEntity
  8
A-4_寸法
  6
Continuous
 62
     7
370
     9
100
AcDbPolyline
 90
        4
 70
     1
 43
1.0
 10
1157.300966005068
 20
823.8003622519005
 42
0.4142135623731
 10
1156.800966005068
 20
824.3003622519005
 42
0.4142135623731
 10
1156.300966005068
 20
823.8003622519005
 42
0.4142135623731
 10
1156.800966005068
 20
823.3003622519005
 42
0.4142135623731
  0
LWPOLYLINE
  5
4F4
330
1F
100
AcDbEntity
  8
A-4_寸法
  6
Continuous
 62
     7
370
     9
100
AcDbPolyline
 90
        4
 70
     1
 43
1.0
 10
1077.300702069257
 20
-116.2000171558276
 42
0.4142135623731
 10
1076.800702069257
 20
-115.7000171558276
 42
0.4142135623731
 10
1076.300702069257
 20
-116.2000171558276
 42
0.4142135623731
 10
1076.800702069257
 20
-116.7000171558276
 42
0.4142135623731
  0
LWPOLYLINE
  5
4F5
330
1F
100
AcDbEntity
  8
A-4_寸法
  6
Continuous
 62
     7
370
     9
100
AcDbPolyline
 90
        4
 70
     1
 43
1.0
 10
1077.300702069257
 20
823.8003622519005
 42
0.4142135623731
 10
1076.800702069257
 20
824.3003622519005
 42
0.4142135623731
 10
1076.300702069257
 20
823.8003622519005
 42
0.4142135623731
 10
1076.800702069257
 20
823.3003622519005
 42
0.4142135623731
  0
LWPOLYLINE
  5
4F6
330
1F
100
AcDbEntity
  8
A-4_寸法
  6
Continuous
 62
     7
370
     9
100
AcDbPolyline
 90
        4
 70
     1
 43
1.0
 10
1553.301183752112
 20
-116.2000171558276
 42
0.4142135623731
 10
1552.801183752111
 20
-115.7000171558276
 42
0.4142135623731
 10
1552.301183752111
 20
-116.2000171558276
 42
0.4142135623731
 10
1552.801183752111
 20
-116.7000171558276
 42
0.4142135623731
  0
LWPOLYLINE
  5
4F7
330
1F
100
AcDbEntity
  8
A-4_寸法
  6
Continuous
 62
     7
370
     9
100
AcDbPolyline
 90
        4
 70
     1
 43
1.0
 10
1553.301183752112
 20
3.79963642842057
 42
0.4142135623731
 10
1552.801183752111
 20
4.29963642842057
 42
0.4142135623731
 10
1552.301183752111
 20
3.79963642842057
 42
0.4142135623731
 10
1552.801183752111
 20
3.29963642842057
 42
0.4142135623731
  0
LWPOLYLINE
  5
4F8
330
1F
100
AcDbEntity
  8
A-4_寸法
  6
Continuous
 62
     7
370
     9
100
AcDbPolyline
 90
        4
 70
     1
 43
1.0
 10
1553.301183752112
 20
703.8007086676521
 42
0.4142135623731
 10
1552.801183752111
 20
704.3007086676521
 42
0.4142135623731
 10
1552.301183752111
 20
703.8007086676521
 42
0.4142135623731
 10
1552.801183752111
 20
703.3007086676521
 42
0.4142135623731
  0
LWPOLYLINE
  5
4F9
330
1F
100
AcDbEntity
  8
A-4_寸法
  6
Continuous
 62
     7
370
     9
100
AcDbPolyline
 90
        4
 70
     1
 43
1.0
 10
1553.301183752112
 20
823.8003622519005
 42
0.4142135623731
 10
1552.801183752111
 20
824.3003622519005
 42
0.4142135623731
 10
1552.301183752111
 20
823.8003622519005
 42
0.4142135623731
 10
1552.801183752111
 20
823.3003622519005
 42
0.4142135623731
  0
LWPOLYLINE
  5
4FA
330
1F
100
AcDbEntity
  8
A-4_寸法
  6
Continuous
 62
     7
370
     9
100
AcDbPolyline
 90
        4
 70
     1
 43
1.0
 10
1257.301295924831
 20
-241.6439654376055
 42
0.4142135623731
 10
1256.801295924831
 20
-241.1439654376055
 42
0.4142135623731
 10
1256.301295924831
 20
-241.6439654376055
 42
0.4142135623731
 10
1256.801295924831
 20
-242.1439654376055
 42
0.4142135623731
  0
LWPOLYLINE
  5
4FB
330
1F
100
AcDbEntity
  8
A-4_寸法
  6
Continuous
 62
     7
370
     9
100
AcDbPolyline
 90
        4
 70
     1
 43
1.0
 10
1321.301111169764
 20
-241.6439654376055
 42
0.4142135623731
 10
1320.801111169764
 20
-241.1439654376055
 42
0.4142135623731
 10
1320.301111169763
 20
-241.6439654376055
 42
0.4142135623731
 10
1320.801111169764
 20
-242.1439654376055
 42
0.4142135623731
  0
LWPOLYLINE
  5
4FC
330
1F
100
AcDbEntity
  8
A-4_寸法
  6
Continuous
 62
     7
370
     9
100
AcDbPolyline
 90
        4
 70
     1
 43
1.0
 10
1257.301295924831
 20
-321.6439819335938
 42
0.4142135623731
 10
1256.801295924831
 20
-321.1439819335938
 42
0.4142135623731
 10
1256.301295924831
 20
-321.6439819335938
 42
0.4142135623731
 10
1256.801295924831
 20
-322.1439819335938
 42
0.4142135623731
  0
LWPOLYLINE
  5
4FD
330
1F
100
AcDbEntity
  8
A-4_寸法
  6
Continuous
 62
     7
370
     9
100
AcDbPolyline
 90
        4
 70
     1
 43
1.0
 10
1333.300952808277
 20
-321.6439819335938
 42
0.4142135623731
 10
1332.800952808277
 20
-321.1439819335938
 42
0.4142135623731
 10
1332.300952808277
 20
-321.6439819335938
 42
0.4142135623731
 10
1332.800952808277
 20
-322.1439819335938
 42
0.4142135623731
  0
LWPOLYLINE
  5
4FE
330
1F
100
AcDbEntity
  8
A-4_寸法
  6
Continuous
 62
     7
370
     9
100
AcDbPolyline
 90
        4
 70
     1
 43
1.0
 10
-449.0127909892312
 20
890.6756756756758
 42
0.4142135623731
 10
-449.5127909892312
 20
891.1756756756757
 42
0.4142135623731
 10
-450.0127909892312
 20
890.6756756756758
 42
0.4142135623731
 10
-449.5127909892312
 20
890.1756756756758
 42
0.4142135623731
  0
LWPOLYLINE
  5
4FF
330
1F
100
AcDbEntity
  8
A-4_寸法
  6
Continuous
 62
     7
370
     9
100
AcDbPolyline
 90
        4
 70
     1
 43
1.0
 10
-389.0130879170185
 20
890.6756756756758
 42
0.4142135623731
 10
-389.5130879170185
 20
891.1756756756757
 42
0.4142135623731
 10
-390.0130879170184
 20
890.6756756756758
 42
0.4142135623731
 10
-389.5130879170185
 20
890.1756756756758
 42
0.4142135623731
  0
TEXT
  5
500
330
1F
100
AcDbEntity
  8
F-5
  6
Continuous
 62
     2
370
     9
100
AcDbText
 10
-904.6689560348923
 20
-1362.093442976668
 30
0.0
 40
30.48
  1
騒音防止型　ノンスリップタイプ　横断溝用　スチール製グレーチング　　ＨＸＢＣ　１４５３２
 41
0.7238636363636365
  7
ＭＳ ゴシック
100
AcDbText
  0
TEXT
  5
501
330
1F
100
AcDbEntity
  8
A-4_寸法
  6
Continuous
 62
     7
370
     9
100
AcDbText
 10
-775.0500941920923
 20
1242.656612647804
 30
0.0
 40
22.86
  1
エンドプレート  ＦＢ4.5×25
 41
1.160493827160494
  7
ＭＳ ゴシック
100
AcDbText
  0
ENDSEC
  0
SECTION
  2
OBJECTS
  0
DICTIONARY
  5
C
330
0
100
AcDbDictionary
281
     1
  3
ACAD_GROUP
350
D
  3
ACAD_LAYOUT
350
1A
  3
ACAD_MLEADERSTYLE
350
503
  3
ACAD_MLINESTYLE
350
17
  3
ACAD_PLOTSETTINGS
350
19
  3
ACAD_PLOTSTYLENAME
350
E
  3
ACAD_TABLESTYLE
350
502
  3
ACAD_VISUALSTYLE
350
2A
  0
DICTIONARY
  5
D
102
{ACAD_REACTORS
330
C
102
}
330
C
100
AcDbDictionary
281
     1
  0
DICTIONARY
  5
1A
102
{ACAD_REACTORS
330
C
102
}
330
C
100
AcDbDictionary
281
     1
  3
Layout1
350
1E
  3
Layout2
350
26
  3
Model
350
22
  0
DICTIONARY
  5
503
102
{ACAD_REACTORS
330
C
102
}
330
C
100
AcDbDictionary
281
     1
  0
DICTIONARY
  5
17
102
{ACAD_REACTORS
330
C
102
}
330
C
100
AcDbDictionary
281
     1
  3
Standard
350
18
  0
DICTIONARY
  5
19
102
{ACAD_REACTORS
330
C
102
}
330
C
100
AcDbDictionary
281
     1
  0
ACDBDICTIONARYWDFLT
  5
E
102
{ACAD_REACTORS
330
C
102
}
330
C
100
AcDbDictionary
281
     1
  3
Normal
350
F
100
AcDbDictionaryWithDefault
340
F
  0
DICTIONARY
  5
502
102
{ACAD_REACTORS
330
C
102
}
330
C
100
AcDbDictionary
281
     1
  0
DICTIONARY
  5
2A
102
{ACAD_REACTORS
330
C
102
}
330
C
100
AcDbDictionary
281
     1
  3
2dWireframe
350
2F
  3
3D Hidden
350
31
  3
3dWireframe
350
30
  3
Basic
350
32
  3
Brighten
350
36
  3
ColorChange
350
3A
  3
Conceptual
350
34
  3
Dim
350
35
  3
Facepattern
350
39
  3
Flat
350
2B
  3
FlatWithEdges
350
2C
  3
Gouraud
350
2D
  3
GouraudWithEdges
350
2E
  3
Linepattern
350
38
  3
Realistic
350
33
  3
Thicken
350
37
  0
LAYOUT
  5
1E
102
{ACAD_REACTORS
330
1A
102
}
330
1A
100
AcDbPlotSettings
  1

  2
none_device
  4

  6

 40
0.0
 41
0.0
 42
0.0
 43
0.0
 44
0.0
 45
0.0
 46
0.0
 47
0.0
 48
0.0
 49
0.0
140
0.0
141
0.0
142
1.0
143
1.0
 70
   688
 72
     0
 73
     0
 74
     5
  7

 75
    16
 76
     0
 77
     5
 78
   300
147
1.0
148
0.0
149
0.0
100
AcDbLayout
  1
Layout1
 70
     1
 71
     1
 10
0.0
 20
0.0
 11
420.0
 21
297.0
 12
0.0
 22
0.0
 32
0.0
 14
1.000000000000000E+20
 24
1.000000000000000E+20
 34
1.000000000000000E+20
 15
-1.000000000000000E+20
 25
-1.000000000000000E+20
 35
-1.000000000000000E+20
146
0.0
 13
0.0
 23
0.0
 33
0.0
 16
1.0
 26
0.0
 36
0.0
 17
0.0
 27
1.0
 37
0.0
 76
     0
330
1B
  0
LAYOUT
  5
26
102
{ACAD_REACTORS
330
1A
102
}
330
1A
100
AcDbPlotSettings
  1

  2
none_device
  4

  6

 40
0.0
 41
0.0
 42
0.0
 43
0.0
 44
0.0
 45
0.0
 46
0.0
 47
0.0
 48
0.0
 49
0.0
140
0.0
141
0.0
142
1.0
143
1.0
 70
   688
 72
     0
 73
     0
 74
     5
  7

 75
    16
 76
     0
 77
     5
 78
   300
147
1.0
148
0.0
149
0.0
100
AcDbLayout
  1
Layout2
 70
     1
 71
     2
 10
0.0
 20
0.0
 11
0.0
 21
0.0
 12
0.0
 22
0.0
 32
0.0
 14
0.0
 24
0.0
 34
0.0
 15
0.0
 25
0.0
 35
0.0
146
0.0
 13
0.0
 23
0.0
 33
0.0
 16
1.0
 26
0.0
 36
0.0
 17
0.0
 27
1.0
 37
0.0
 76
     0
330
23
  0
LAYOUT
  5
22
102
{ACAD_REACTORS
330
1A
102
}
330
1A
100
AcDbPlotSettings
  1

  2
none_device
  4

  6

 40
0.0
 41
0.0
 42
0.0
 43
0.0
 44
0.0
 45
0.0
 46
0.0
 47
0.0
 48
0.0
 49
0.0
140
0.0
141
0.0
142
1.0
143
1.0
 70
  1712
 72
     0
 73
     0
 74
     0
  7

 75
     0
 76
     0
 77
     5
 78
   300
147
1.0
148
0.0
149
0.0
100
AcDbLayout
  1
Model
 70
     1
 71
     0
 10
-2100.0
 20
-1485.0
 11
2100.0
 21
1485.0
 12
0.0
 22
0.0
 32
0.0
 14
-2100.0
 24
-1485.0
 34
0.0
 15
2100.0
 25
1485.0
 35
0.0
146
0.0
 13
0.0
 23
0.0
 33
0.0
 16
1.0
 26
0.0
 36
0.0
 17
0.0
 27
1.0
 37
0.0
 76
     0
330
1F
331
29
  0
MLINESTYLE
  5
18
102
{ACAD_REACTORS
330
17
102
}
330
17
100
AcDbMlineStyle
  2
Standard
 70
     0
  3

 62
   256
 51
90.0
 52
90.0
 71
     2
 49
0.5
 62
   256
  6
BYLAYER
 49
-0.5
 62
   256
  6
BYLAYER
  0
ACDBPLACEHOLDER
  5
F
102
{ACAD_REACTORS
330
E
102
}
330
E
  0
VISUALSTYLE
  5
2F
102
{ACAD_REACTORS
330
2A
102
}
330
2A
100
AcDbVisualStyle
  2
2dWireframe
 70
     4
 71
     0
 72
     2
 73
     0
 90
        0
 40
-0.6
 41
-30.0
 62
     5
 63
     7
421
 16777215
 74
     1
 91
        4
 64
     7
 65
   257
 75
     1
175
     1
 42
1.0
 92
        0
 66
   257
 43
1.0
 76
     1
 77
     6
 78
     2
 67
     7
 79
     5
170
     0
171
     0
290
     0
174
     0
 93
        1
 44
0.0
173
     0
291
     0
 45
0.0
1001
ACAD
1000
AcDbSavedByObjectVersion
1070
     0
  0
VISUALSTYLE
  5
31
102
{ACAD_REACTORS
330
2A
102
}
330
2A
100
AcDbVisualStyle
  2
3D Hidden
 70
     6
 71
     1
 72
     2
 73
     2
 90
        0
 40
-0.6
 41
-30.0
 62
     5
 63
     7
421
 16777215
 74
     2
 91
        2
 64
     7
 65
   257
 75
     2
175
     1
 42
40.0
 92
        0
 66
   257
 43
1.0
 76
     1
 77
     6
 78
     2
 67
     7
 79
     3
170
     0
171
     0
290
     0
174
     0
 93
        1
 44
0.0
173
     0
291
     0
 45
0.0
1001
ACAD
1000
AcDbSavedByObjectVersion
1070
     0
  0
VISUALSTYLE
  5
30
102
{ACAD_REACTORS
330
2A
102
}
330
2A
100
AcDbVisualStyle
  2
3dWireframe
 70
     5
 71
     0
 72
     2
 73
     0
 90
        0
 40
-0.6
 41
-30.0
 62
     5
 63
     7
421
 16777215
 74
     1
 91
        4
 64
     7
 65
   257
 75
     1
175
     1
 42
1.0
 92
        0
 66
   257
 43
1.0
 76
     1
 77
     6
 78
     2
 67
     7
 79
     5
170
     0
171
     0
290
     0
174
     0
 93
        1
 44
0.0
173
     0
291
     0
 45
0.0
1001
ACAD
1000
AcDbSavedByObjectVersion
1070
     0
  0
VISUALSTYLE
  5
32
102
{ACAD_REACTORS
330
2A
102
}
330
2A
100
AcDbVisualStyle
  2
Basic
 70
     7
 71
     1
 72
     0
 73
     1
 90
        0
 40
-0.6
 41
-30.0
 62
     5
 63
     7
421
 16777215
 74
     0
 91
        4
 64
     7
 65
   257
 75
     1
175
     1
 42
1.0
 92
        8
 66
     7
 43
1.0
 76
     1
 77
     6
 78
     2
 67
     7
 79
     5
170
     0
171
     0
290
     0
174
     0
 93
        1
 44
0.0
173
     0
291
     1
 45
0.0
1001
ACAD
1000
AcDbSavedByObjectVersion
1070
     0
  0
VISUALSTYLE
  5
36
102
{ACAD_REACTORS
330
2A
102
}
330
2A
100
AcDbVisualStyle
  2
Brighten
 70
    12
 71
     2
 72
     2
 73
     0
 90
        0
 40
-0.6
 41
-30.0
 62
     5
 63
     7
421
 16777215
 74
     1
 91
        4
 64
     7
 65
   257
 75
     1
175
     1
 42
1.0
 92
        8
 66
     7
 43
1.0
 76
     1
 77
     6
 78
     2
 67
     7
 79
     5
170
     0
171
     0
290
     0
174
     0
 93
        1
 44
50.0
173
     0
291
     1
 45
0.0
1001
ACAD
1000
AcDbSavedByObjectVersion
1070
     0
  0
VISUALSTYLE
  5
3A
102
{ACAD_REACTORS
330
2A
102
}
330
2A
100
AcDbVisualStyle
  2
ColorChange
 70
    16
 71
     2
 72
     2
 73
     3
 90
        0
 40
-0.6
 41
-30.0
 62
     5
 63
     8
421
  8421504
 74
     1
 91
        4
 64
     7
 65
   257
 75
     1
175
     1
 42
1.0
 92
        8
 66
     8
424
  8421504
 43
1.0
 76
     1
 77
     6
 78
     2
 67
     7
 79
     5
170
     0
171
     0
290
     0
174
     0
 93
        1
 44
0.0
173
     0
291
     1
 45
0.0
1001
ACAD
1000
AcDbSavedByObjectVersion
1070
     0
  0
VISUALSTYLE
  5
34
102
{ACAD_REACTORS
330
2A
102
}
330
2A
100
AcDbVisualStyle
  2
Conceptual
 70
     9
 71
     3
 72
     2
 73
     0
 90
        0
 40
-0.6
 41
-30.0
 62
     5
 63
     7
421
 16777215
 74
     2
 91
        2
 64
     7
 65
   257
 75
     1
175
     1
 42
40.0
 92
        8
 66
     7
 43
1.0
 76
     1
 77
     6
 78
     2
 67
     7
 79
     3
170
     0
171
     0
290
     0
174
     0
 93
        1
 44
0.0
173
     0
291
     0
 45
0.0
1001
ACAD
1000
AcDbSavedByObjectVersion
1070
     0
  0
VISUALSTYLE
  5
35
102
{ACAD_REACTORS
330
2A
102
}
330
2A
100
AcDbVisualStyle
  2
Dim
 70
    11
 71
     2
 72
     2
 73
     0
 90
        0
 40
-0.6
 41
-30.0
 62
     5
 63
     7
421
 16777215
 74
     1
 91
        4
 64
     7
 65
   257
 75
     1
175
     1
 42
1.0
 92
        8
 66
     7
 43
1.0
 76
     1
 77
     6
 78
     2
 67
     7
 79
     5
170
     0
171
     0
290
     0
174
     0
 93
        1
 44
-50.0
173
     0
291
     1
 45
0.0
1001
ACAD
1000
AcDbSavedByObjectVersion
1070
     0
  0
VISUALSTYLE
  5
39
102
{ACAD_REACTORS
330
2A
102
}
330
2A
100
AcDbVisualStyle
  2
Facepattern
 70
    15
 71
     2
 72
     2
 73
     0
 90
        0
 40
-0.6
 41
-30.0
 62
     5
 63
     7
421
 16777215
 74
     1
 91
        4
 64
     7
 65
   257
 75
     1
175
     1
 42
1.0
 92
        8
 66
     7
 43
1.0
 76
     1
 77
     6
 78
     2
 67
     7
 79
     5
170
     0
171
     0
290
     0
174
     0
 93
        1
 44
0.0
173
     0
291
     1
 45
0.0
1001
ACAD
1000
AcDbSavedByObjectVersion
1070
     0
  0
VISUALSTYLE
  5
2B
102
{ACAD_REACTORS
330
2A
102
}
330
2A
100
AcDbVisualStyle
  2
Flat
 70
     0
 71
     2
 72
     1
 73
     1
 90
        2
 40
-0.6
 41
30.0
 62
     5
 63
     7
421
 16777215
 74
     0
 91
        4
 64
     7
 65
   257
 75
     1
175
     1
 42
1.0
 92
        8
 66
     7
 43
1.0
 76
     1
 77
     6
 78
     2
 67
     7
 79
     5
170
     0
171
     0
290
     0
174
     0
 93
       13
 44
0.0
173
     0
291
     1
 45
0.0
1001
ACAD
1000
AcDbSavedByObjectVersion
1070
     0
  0
VISUALSTYLE
  5
2C
102
{ACAD_REACTORS
330
2A
102
}
330
2A
100
AcDbVisualStyle
  2
FlatWithEdges
 70
     1
 71
     2
 72
     1
 73
     1
 90
        2
 40
-0.6
 41
30.0
 62
     5
 63
     7
421
 16777215
 74
     1
 91
        4
 64
     7
 65
   257
 75
     1
175
     1
 42
1.0
 92
        0
 66
   257
 43
1.0
 76
     1
 77
     6
 78
     2
 67
     7
 79
     5
170
     0
171
     0
290
     0
174
     0
 93
       13
 44
0.0
173
     0
291
     1
 45
0.0
1001
ACAD
1000
AcDbSavedByObjectVersion
1070
     0
  0
VISUALSTYLE
  5
2D
102
{ACAD_REACTORS
330
2A
102
}
330
2A
100
AcDbVisualStyle
  2
Gouraud
 70
     2
 71
     2
 72
     2
 73
     1
 90
        2
 40
-0.6
 41
30.0
 62
     5
 63
     7
421
 16777215
 74
     0
 91
        4
 64
     7
 65
   257
 75
     1
175
     1
 42
1.0
 92
        0
 66
     7
 43
1.0
 76
     1
 77
     6
 78
     2
 67
     7
 79
     5
170
     0
171
     0
290
     0
174
     0
 93
       13
 44
0.0
173
     0
291
     1
 45
0.0
1001
ACAD
1000
AcDbSavedByObjectVersion
1070
     0
  0
VISUALSTYLE
  5
2E
102
{ACAD_REACTORS
330
2A
102
}
330
2A
100
AcDbVisualStyle
  2
GouraudWithEdges
 70
     3
 71
     2
 72
     2
 73
     1
 90
        2
 40
-0.6
 41
30.0
 62
     5
 63
     7
421
 16777215
 74
     1
 91
        4
 64
     7
 65
   257
 75
     1
175
     1
 42
1.0
 92
        0
 66
   257
 43
1.0
 76
     1
 77
     6
 78
     2
 67
     7
 79
     5
170
     0
171
     0
290
     0
174
     0
 93
       13
 44
0.0
173
     0
291
     1
 45
0.0
1001
ACAD
1000
AcDbSavedByObjectVersion
1070
     0
  0
VISUALSTYLE
  5
38
102
{ACAD_REACTORS
330
2A
102
}
330
2A
100
AcDbVisualStyle
  2
Linepattern
 70
    14
 71
     2
 72
     2
 73
     0
 90
        0
 40
-0.6
 41
-30.0
 62
     5
 63
     7
421
 16777215
 74
     1
 91
        4
 64
     7
 65
   257
 75
     7
175
     7
 42
1.0
 92
        8
 66
     7
 43
1.0
 76
     1
 77
     6
 78
     2
 67
     7
 79
     5
170
     0
171
     0
290
     0
174
     0
 93
        1
 44
0.0
173
     0
291
     1
 45
0.0
1001
ACAD
1000
AcDbSavedByObjectVersion
1070
     0
  0
VISUALSTYLE
  5
33
102
{ACAD_REACTORS
330
2A
102
}
330
2A
100
AcDbVisualStyle
  2
Realistic
 70
     8
 71
     2
 72
     2
 73
     0
 90
        0
 40
-0.6
 41
-30.0
 62
     5
 63
     7
421
 16777215
 74
     1
 91
        0
 64
     7
 65
   257
 75
     1
175
     1
 42
1.0
 92
        8
 66
     8
424
  7895160
 43
1.0
 76
     1
 77
     6
 78
     2
 67
     7
 79
     5
170
     0
171
     0
290
     0
174
     0
 93
       13
 44
0.0
173
     0
291
     0
 45
0.0
1001
ACAD
1000
AcDbSavedByObjectVersion
1070
     0
  0
VISUALSTYLE
  5
37
102
{ACAD_REACTORS
330
2A
102
}
330
2A
100
AcDbVisualStyle
  2
Thicken
 70
    13
 71
     2
 72
     2
 73
     0
 90
        0
 40
-0.6
 41
-30.0
 62
     5
 63
     7
421
 16777215
 74
     1
 91
        4
 64
     7
 65
   257
 75
     1
175
     1
 42
1.0
 92
       12
 66
     7
 43
1.0
 76
     1
 77
     6
 78
     2
 67
     7
 79
     5
170
     0
171
     0
290
     0
174
     0
 93
        1
 44
0.0
173
     0
291
     1
 45
0.0
1001
ACAD
1000
AcDbSavedByObjectVersion
1070
     0
  0
ENDSEC
  0
EOF
