  0
SECTION
  2
HEADER
  9
$ACADVER
  1
AC1018
  9
$ACADMAINTVER
 70
     0
  9
$DWGCODEPAGE
  3
ANSI_932
  9
$INSBASE
 10
0.0
 20
0.0
 30
0.0
  9
$EXTMIN
 10
-2100.0
 20
-1485.0
 30
0.0
  9
$EXTMAX
 10
2100.0
 20
1485.0
 30
0.0
  9
$LIMMIN
 10
-2100.0
 20
-1485.0
  9
$LIMMAX
 10
2100.0
 20
1485.0
  9
$ORTHOMODE
 70
     0
  9
$REGENMODE
 70
     1
  9
$FILLMODE
 70
     1
  9
$QTEXTMODE
 70
     0
  9
$MIRRTEXT
 70
     1
  9
$LTSCALE
 40
10.0
  9
$ATTMODE
 70
     1
  9
$TEXTSIZE
 40
2.5
  9
$TRACEWID
 40
1.0
  9
$TEXTSTYLE
  7
Standard
  9
$CLAYER
  8
0
  9
$CELTYPE
  6
ByLayer
  9
$CECOLOR
 62
   256
  9
$CELTSCALE
 40
1.0
  9
$DISPSILH
 70
     0
  9
$DIMSCALE
 40
1.0
  9
$DIMASZ
 40
2.5
  9
$DIMEXO
 40
0.625
  9
$DIMDLI
 40
3.75
  9
$DIMRND
 40
0.0
  9
$DIMDLE
 40
0.0
  9
$DIMEXE
 40
1.25
  9
$DIMTP
 40
0.0
  9
$DIMTM
 40
0.0
  9
$DIMTXT
 40
2.5
  9
$DIMCEN
 40
2.5
  9
$DIMTSZ
 40
0.0
  9
$DIMTOL
 70
     0
  9
$DIMLIM
 70
     0
  9
$DIMTIH
 70
     0
  9
$DIMTOH
 70
     0
  9
$DIMSE1
 70
     0
  9
$DIMSE2
 70
     0
  9
$DIMTAD
 70
     1
  9
$DIMZIN
 70
     8
  9
$DIMBLK
  1

  9
$DIMASO
 70
     1
  9
$DIMSHO
 70
     1
  9
$DIMPOST
  1

  9
$DIMAPOST
  1

  9
$DIMALT
 70
     0
  9
$DIMALTD
 70
     3
  9
$DIMALTF
 40
0.03937007874016
  9
$DIMLFAC
 40
1.0
  9
$DIMTOFL
 70
     1
  9
$DIMTVP
 40
0.0
  9
$DIMTIX
 70
     0
  9
$DIMSOXD
 70
     0
  9
$DIMSAH
 70
     0
  9
$DIMBLK1
  1

  9
$DIMBLK2
  1

  9
$DIMSTYLE
  2
ISO-25
  9
$DIMCLRD
 70
     0
  9
$DIMCLRE
 70
     0
  9
$DIMCLRT
 70
     0
  9
$DIMTFAC
 40
1.0
  9
$DIMGAP
 40
0.625
  9
$DIMJUST
 70
     0
  9
$DIMSD1
 70
     0
  9
$DIMSD2
 70
     0
  9
$DIMTOLJ
 70
     0
  9
$DIMTZIN
 70
     8
  9
$DIMALTZ
 70
     0
  9
$DIMALTTZ
 70
     0
  9
$DIMUPT
 70
     0
  9
$DIMDEC
 70
     2
  9
$DIMTDEC
 70
     2
  9
$DIMALTU
 70
     2
  9
$DIMALTTD
 70
     3
  9
$DIMTXSTY
  7
Standard
  9
$DIMAUNIT
 70
     0
  9
$DIMADEC
 70
     0
  9
$DIMALTRND
 40
0.0
  9
$DIMAZIN
 70
     0
  9
$DIMDSEP
 70
    44
  9
$DIMATFIT
 70
     3
  9
$DIMFRAC
 70
     0
  9
$DIMLDRBLK
  1

  9
$DIMLUNIT
 70
     2
  9
$DIMLWD
 70
    -2
  9
$DIMLWE
 70
    -2
  9
$DIMTMOVE
 70
     0
  9
$LUNITS
 70
     2
  9
$LUPREC
 70
     4
  9
$SKETCHINC
 40
1.0
  9
$FILLETRAD
 40
10.0
  9
$AUNITS
 70
     0
  9
$AUPREC
 70
     0
  9
$MENU
  1
.
  9
$ELEVATION
 40
0.0
  9
$PELEVATION
 40
0.0
  9
$THICKNESS
 40
0.0
  9
$LIMCHECK
 70
     0
  9
$CHAMFERA
 40
10.0
  9
$CHAMFERB
 40
10.0
  9
$CHAMFERC
 40
20.0
  9
$CHAMFERD
 40
0.0
  9
$SKPOLY
 70
     0
  9
$TDCREATE
 40
2458268.579720926
  9
$TDUCREATE
 40
2458268.204720926
  9
$TDUPDATE
 40
2458268.579720938
  9
$TDUUPDATE
 40
2458268.204720938
  9
$TDINDWG
 40
0.0000000116
  9
$TDUSRTIMER
 40
0.0000000116
  9
$USRTIMER
 70
     1
  9
$ANGBASE
 50
0.0
  9
$ANGDIR
 70
     0
  9
$PDMODE
 70
     0
  9
$PDSIZE
 40
0.0
  9
$PLINEWID
 40
0.0
  9
$SPLFRAME
 70
     0
  9
$SPLINETYPE
 70
     6
  9
$SPLINESEGS
 70
     8
  9
$HANDSEED
  5
515
  9
$SURFTAB1
 70
     6
  9
$SURFTAB2
 70
     6
  9
$SURFTYPE
 70
     6
  9
$SURFU
 70
     6
  9
$SURFV
 70
     6
  9
$UCSBASE
  2

  9
$UCSNAME
  2

  9
$UCSORG
 10
0.0
 20
0.0
 30
0.0
  9
$UCSXDIR
 10
1.0
 20
0.0
 30
0.0
  9
$UCSYDIR
 10
0.0
 20
1.0
 30
0.0
  9
$UCSORTHOREF
  2

  9
$UCSORTHOVIEW
 70
     0
  9
$UCSORGTOP
 10
0.0
 20
0.0
 30
0.0
  9
$UCSORGBOTTOM
 10
0.0
 20
0.0
 30
0.0
  9
$UCSORGLEFT
 10
0.0
 20
0.0
 30
0.0
  9
$UCSORGRIGHT
 10
0.0
 20
0.0
 30
0.0
  9
$UCSORGFRONT
 10
0.0
 20
0.0
 30
0.0
  9
$UCSORGBACK
 10
0.0
 20
0.0
 30
0.0
  9
$PUCSBASE
  2

  9
$PUCSNAME
  2

  9
$PUCSORG
 10
0.0
 20
0.0
 30
0.0
  9
$PUCSXDIR
 10
1.0
 20
0.0
 30
0.0
  9
$PUCSYDIR
 10
0.0
 20
1.0
 30
0.0
  9
$PUCSORTHOREF
  2

  9
$PUCSORTHOVIEW
 70
     0
  9
$PUCSORGTOP
 10
0.0
 20
0.0
 30
0.0
  9
$PUCSORGBOTTOM
 10
0.0
 20
0.0
 30
0.0
  9
$PUCSORGLEFT
 10
0.0
 20
0.0
 30
0.0
  9
$PUCSORGRIGHT
 10
0.0
 20
0.0
 30
0.0
  9
$PUCSORGFRONT
 10
0.0
 20
0.0
 30
0.0
  9
$PUCSORGBACK
 10
0.0
 20
0.0
 30
0.0
  9
$USERI1
 70
     0
  9
$USERI2
 70
     0
  9
$USERI3
 70
     0
  9
$USERI4
 70
     0
  9
$USERI5
 70
     0
  9
$USERR1
 40
0.0
  9
$USERR2
 40
0.0
  9
$USERR3
 40
0.0
  9
$USERR4
 40
0.0
  9
$USERR5
 40
0.0
  9
$WORLDVIEW
 70
     1
  9
$SHADEDGE
 70
     3
  9
$SHADEDIF
 70
    70
  9
$TILEMODE
 70
     1
  9
$MAXACTVP
 70
    64
  9
$PINSBASE
 10
0.0
 20
0.0
 30
0.0
  9
$PLIMCHECK
 70
     0
  9
$PEXTMIN
 10
1.000000000000000E+20
 20
1.000000000000000E+20
 30
1.000000000000000E+20
  9
$PEXTMAX
 10
-1.000000000000000E+20
 20
-1.000000000000000E+20
 30
-1.000000000000000E+20
  9
$PLIMMIN
 10
0.0
 20
0.0
  9
$PLIMMAX
 10
420.0
 20
297.0
  9
$UNITMODE
 70
     0
  9
$VISRETAIN
 70
     1
  9
$PLINEGEN
 70
     0
  9
$PSLTSCALE
 70
     1
  9
$TREEDEPTH
 70
  3020
  9
$CMLSTYLE
  2
Standard
  9
$CMLJUST
 70
     0
  9
$CMLSCALE
 40
20.0
  9
$PROXYGRAPHICS
 70
     1
  9
$MEASUREMENT
 70
     1
  9
$CELWEIGHT
370
    -1
  9
$ENDCAPS
280
     0
  9
$JOINSTYLE
280
     0
  9
$LWDISPLAY
290
     0
  9
$INSUNITS
 70
     4
  9
$HYPERLINKBASE
  1

  9
$STYLESHEET
  1

  9
$XEDIT
290
     1
  9
$CEPSNTYPE
380
     0
  9
$PSTYLEMODE
290
     1
  9
$FINGERPRINTGUID
  2
{CF8A86AB-050E-47A3-9B21-C4EE941AD4F1}
  9
$VERSIONGUID
  2
{FAEB1C32-E019-11D5-929B-00C0DF256EC4}
  9
$EXTNAMES
290
     1
  9
$PSVPSCALE
 40
0.0
  9
$OLESTARTUP
290
     0
  9
$SORTENTS
280
   127
  9
$INDEXCTL
280
     0
  9
$HIDETEXT
280
     1
  9
$XCLIPFRAME
290
     0
  9
$HALOGAP
280
     0
  9
$OBSCOLOR
 70
   257
  9
$OBSLTYPE
280
     0
  9
$INTERSECTIONDISPLAY
280
     0
  9
$INTERSECTIONCOLOR
 70
   257
  9
$DIMASSOC
280
     2
  9
$PROJECTNAME
  1

  0
ENDSEC
  0
SECTION
  2
CLASSES
  0
CLASS
  1
ACDBDICTIONARYWDFLT
  2
AcDbDictionaryWithDefault
  3
ObjectDBX Classes
 90
        0
 91
        4
280
     0
281
     0
  0
CLASS
  1
VISUALSTYLE
  2
AcDbVisualStyle
  3
ObjectDBX Classes
 90
     4095
 91
        4
280
     0
281
     0
  0
ENDSEC
  0
SECTION
  2
TABLES
  0
TABLE
  2
VPORT
  5
8
330
0
100
AcDbSymbolTable
 70
     1
  0
VPORT
  5
29
330
8
100
AcDbSymbolTableRecord
100
AcDbViewportTableRecord
  2
*Active
 70
     0
 10
0.0
 20
0.0
 11
1.0
 21
1.0
 12
0.0
 22
0.0
 13
0.0
 23
0.0
 14
10.0
 24
10.0
 15
10.0
 25
10.0
 16
0.0
 26
0.0
 36
1.0
 17
0.0
 27
0.0
 37
0.0
 40
3267.0
 41
1.414141414141414
 42
50.0
 43
0.0
 44
0.0
 50
0.0
 51
0.0
 71
     0
 72
 10000
 73
     1
 74
     3
 75
     0
 76
     0
 77
     0
 78
     0
281
     0
 65
     1
110
0.0
120
0.0
130
0.0
111
1.0
121
0.0
131
0.0
112
0.0
122
1.0
132
0.0
 79
     0
146
0.0
  0
ENDTAB
  0
TABLE
  2
LTYPE
  5
5
330
0
100
AcDbSymbolTable
 70
     5
  0
LTYPE
  5
14
330
5
100
AcDbSymbolTableRecord
100
AcDbLinetypeTableRecord
  2
ByBlock
 70
     0
  3

 72
    65
 73
     0
 40
0.0
  0
LTYPE
  5
15
330
5
100
AcDbSymbolTableRecord
100
AcDbLinetypeTableRecord
  2
ByLayer
 70
     0
  3

 72
    65
 73
     0
 40
0.0
  0
LTYPE
  5
16
330
5
100
AcDbSymbolTableRecord
100
AcDbLinetypeTableRecord
  2
Continuous
 70
     0
  3
Solid line
 72
    65
 73
     0
 40
0.0
  0
LTYPE
  5
3C
330
5
100
AcDbSymbolTableRecord
100
AcDbLinetypeTableRecord
  2
JWW_CENTER1
 70
     0
  3
-----  --  ----------  --  -----
 72
    65
 73
     4
 40
6.773333333333333
 49
4.233333333333333
 74
     0
 49
-0.8466666666666667
 74
     0
 49
0.8466666666666667
 74
     0
 49
-0.8466666666666667
 74
     0
  0
LTYPE
  5
3D
330
5
100
AcDbSymbolTableRecord
100
AcDbLinetypeTableRecord
  2
JWW_DASHED3
 70
     0
  3
---  ------  ------  ------  ---
 72
    65
 73
     2
 40
3.386666666666667
 49
2.54
 74
     0
 49
-0.8466666666666667
 74
     0
  0
LTYPE
  5
3E
330
5
100
AcDbSymbolTableRecord
100
AcDbLinetypeTableRecord
  2
JWW_CENTER2
 70
     0
  3
-------------  --  -------------
 72
    65
 73
     4
 40
13.54666666666667
 49
11.00666666666667
 74
     0
 49
-0.8466666666666667
 74
     0
 49
0.8466666666666667
 74
     0
 49
-0.8466666666666667
 74
     0
  0
LTYPE
  5
3F
330
5
100
AcDbSymbolTableRecord
100
AcDbLinetypeTableRecord
  2
JWW_HOJO
 70
     0
  3
  -   -   -   -   -   -   -   - 
 72
    65
 73
     2
 40
1.693333333333333
 49
-1.27
 74
     0
 49
0.4233333333333333
 74
     0
  0
ENDTAB
  0
TABLE
  2
LAYER
  5
2
330
0
100
AcDbSymbolTable
 70
     9
  0
LAYER
  5
10
330
2
100
AcDbSymbolTableRecord
100
AcDbLayerTableRecord
  2
0
 70
     0
 62
     7
  6
Continuous
370
    -3
390
F
  0
LAYER
  5
40
330
2
100
AcDbSymbolTableRecord
100
AcDbLayerTableRecord
  2
D-4_寸法
 70
     0
 62
     7
  6
Continuous
370
    -3
390
F
  0
LAYER
  5
41
330
2
100
AcDbSymbolTableRecord
100
AcDbLayerTableRecord
  2
A-1_ピット
 70
     0
 62
     7
  6
Continuous
370
    -3
390
F
  0
LAYER
  5
42
330
2
100
AcDbSymbolTableRecord
100
AcDbLayerTableRecord
  2
A-2_蓋
 70
     0
 62
     7
  6
Continuous
370
    -3
390
F
  0
LAYER
  5
43
330
2
100
AcDbSymbolTableRecord
100
AcDbLayerTableRecord
  2
A-4_寸法
 70
     0
 62
     7
  6
Continuous
370
    -3
390
F
  0
LAYER
  5
44
330
2
100
AcDbSymbolTableRecord
100
AcDbLayerTableRecord
  2
A-3_受枠
 70
     0
 62
     7
  6
Continuous
370
    -3
390
F
  0
LAYER
  5
45
330
2
100
AcDbSymbolTableRecord
100
AcDbLayerTableRecord
  2
A-A
 70
     0
 62
     7
  6
Continuous
370
    -3
390
F
  0
LAYER
  5
46
330
2
100
AcDbSymbolTableRecord
100
AcDbLayerTableRecord
  2
D-2_蓋
 70
     0
 62
     7
  6
Continuous
370
    -3
390
F
  0
LAYER
  5
47
330
2
100
AcDbSymbolTableRecord
100
AcDbLayerTableRecord
  2
F-5
 70
     0
 62
     7
  6
Continuous
370
    -3
390
F
  0
ENDTAB
  0
TABLE
  2
STYLE
  5
3
330
0
100
AcDbSymbolTable
 70
     2
  0
STYLE
  5
11
330
3
100
AcDbSymbolTableRecord
100
AcDbTextStyleTableRecord
  2
Standard
 70
     0
 40
0.0
 41
1.0
 50
0.0
 71
     0
 42
2.5
  3
txt
  4

1001
ACAD
1000

1071
        0
  0
STYLE
  5
3B
330
3
100
AcDbSymbolTableRecord
100
AcDbTextStyleTableRecord
  2
ＭＳ ゴシック
 70
     0
 40
1.0
 41
1.0
 50
0.0
 71
     0
 42
10.0
  3

  4

1001
ACAD
1000
MS Gothic
1071
    32817
  0
ENDTAB
  0
TABLE
  2
VIEW
  5
6
330
0
100
AcDbSymbolTable
 70
     0
  0
ENDTAB
  0
TABLE
  2
UCS
  5
7
330
0
100
AcDbSymbolTable
 70
     0
  0
ENDTAB
  0
TABLE
  2
APPID
  5
9
330
0
100
AcDbSymbolTable
 70
     1
  0
APPID
  5
12
330
9
100
AcDbSymbolTableRecord
100
AcDbRegAppTableRecord
  2
ACAD
 70
     0
  0
ENDTAB
  0
TABLE
  2
DIMSTYLE
  5
A
330
0
100
AcDbSymbolTable
 70
     1
100
AcDbDimStyleTable
  0
DIMSTYLE
105
27
330
A
100
AcDbSymbolTableRecord
100
AcDbDimStyleTableRecord
  2
ISO-25
 70
     0
 41
2.5
 42
0.625
 43
3.75
 44
1.25
 73
     0
 74
     0
 77
     1
 78
     8
140
2.5
141
2.5
143
0.03937007874016
147
0.625
171
     3
172
     1
271
     2
272
     2
274
     3
278
    44
283
     0
284
     8
340
11
  0
ENDTAB
  0
TABLE
  2
BLOCK_RECORD
  5
1
330
0
100
AcDbSymbolTable
 70
     1
  0
BLOCK_RECORD
  5
1F
330
1
100
AcDbSymbolTableRecord
100
AcDbBlockTableRecord
  2
*Model_Space
340
22
  0
BLOCK_RECORD
  5
1B
330
1
100
AcDbSymbolTableRecord
100
AcDbBlockTableRecord
  2
*Paper_Space
340
1E
  0
BLOCK_RECORD
  5
23
330
1
100
AcDbSymbolTableRecord
100
AcDbBlockTableRecord
  2
*Paper_Space0
340
26
  0
ENDTAB
  0
ENDSEC
  0
SECTION
  2
BLOCKS
  0
BLOCK
  5
20
330
1F
100
AcDbEntity
  8
0
100
AcDbBlockBegin
  2
*Model_Space
 70
     0
 10
0.0
 20
0.0
 30
0.0
  3
*Model_Space
  1

  0
ENDBLK
  5
21
330
1F
100
AcDbEntity
  8
0
100
AcDbBlockEnd
  0
BLOCK
  5
1C
330
1B
100
AcDbEntity
 67
     1
  8
0
100
AcDbBlockBegin
  2
*Paper_Space
 70
     0
 10
0.0
 20
0.0
 30
0.0
  3
*Paper_Space
  1

  0
ENDBLK
  5
1D
330
1B
100
AcDbEntity
 67
     1
  8
0
100
AcDbBlockEnd
  0
BLOCK
  5
24
330
23
100
AcDbEntity
  8
0
100
AcDbBlockBegin
  2
*Paper_Space0
 70
     0
 10
0.0
 20
0.0
 30
0.0
  3
*Paper_Space0
  1

  0
ENDBLK
  5
25
330
23
100
AcDbEntity
  8
0
100
AcDbBlockEnd
  0
ENDSEC
  0
SECTION
  2
ENTITIES
  0
LINE
  5
48
330
1F
100
AcDbEntity
  8
D-4_寸法
  6
Continuous
 62
     2
370
     9
100
AcDbLine
 10
720.7001557221287
 20
-644.9649377771325
 30
0.0
 11
720.7001557221287
 21
-594.9642160776499
 31
0.0
  0
LINE
  5
49
330
1F
100
AcDbEntity
  8
D-4_寸法
  6
Continuous
 62
     2
370
     9
100
AcDbLine
 10
720.7001557221287
 20
-594.9642160776499
 30
0.0
 11
945.7001557221287
 21
-594.9642160776499
 31
0.0
  0
LINE
  5
4A
330
1F
100
AcDbEntity
  8
D-4_寸法
  6
Continuous
 62
     2
370
     9
100
AcDbLine
 10
945.7001557221287
 20
-594.9642160776499
 30
0.0
 11
945.7001557221287
 21
-644.9649377771325
 31
0.0
  0
LINE
  5
4B
330
1F
100
AcDbEntity
  8
D-4_寸法
  6
Continuous
 62
     2
370
     9
100
AcDbLine
 10
945.7001557221287
 20
-644.9649377771325
 30
0.0
 11
720.7001557221287
 21
-644.9649377771325
 31
0.0
  0
LINE
  5
4C
330
1F
100
AcDbEntity
  8
A-1_ピット
  6
Continuous
 62
     2
370
     9
100
AcDbLine
 10
-1164.574659192884
 20
-57.35375481682837
 30
0.0
 11
-1164.574659192884
 21
-45.15299204233514
 31
0.0
  0
LINE
  5
4D
330
1F
100
AcDbEntity
  8
A-1_ピット
  6
Continuous
 62
     2
370
     9
100
AcDbLine
 10
-964.5747416728251
 20
-77.35332592113593
 30
0.0
 11
-1144.574593208931
 21
-77.35332592113593
 31
0.0
  0
LINE
  5
4E
330
1F
100
AcDbEntity
  8
A-1_ピット
  6
Continuous
 62
     2
370
     9
100
AcDbLine
 10
-944.574551968961
 20
-57.35375481682837
 30
0.0
 11
-944.574551968961
 21
-45.15299204233514
 31
0.0
  0
LINE
  5
4F
330
1F
100
AcDbEntity
  8
A-1_ピット
  6
Continuous
 62
     2
370
     9
100
AcDbLine
 10
-962.5746855864654
 20
-57.35375481682837
 30
0.0
 11
-962.5746855864654
 21
-45.15299204233514
 31
0.0
  0
LINE
  5
50
330
1F
100
AcDbEntity
  8
A-1_ピット
  6
Continuous
 62
     2
370
     9
100
AcDbLine
 10
-1144.574593208931
 20
-59.35356346336562
 30
0.0
 11
-964.5743705130911
 21
-59.35356346336562
 31
0.0
  0
LINE
  5
51
330
1F
100
AcDbEntity
  8
A-1_ピット
  6
Continuous
 62
     2
370
     9
100
AcDbLine
 10
-1146.574896735114
 20
-57.35375481682837
 30
0.0
 11
-1146.574896735114
 21
-45.15299204233514
 31
0.0
  0
LINE
  5
52
330
1F
100
AcDbEntity
  8
A-1_ピット
  6
JWW_CENTER1
 62
     2
370
     9
100
AcDbLine
 10
-1155.574777963999
 20
-28.93875534469998
 30
0.0
 11
-1155.574777963999
 21
-60.13299890466641
 31
0.0
  0
LINE
  5
53
330
1F
100
AcDbEntity
  8
A-1_ピット
  6
JWW_CENTER1
 62
     2
370
     9
100
AcDbLine
 10
-1139.248698466533
 20
-45.15299204233514
 30
0.0
 11
-1172.062930545291
 21
-45.15299204233514
 31
0.0
  0
LINE
  5
54
330
1F
100
AcDbEntity
  8
A-1_ピット
  6
JWW_CENTER1
 62
     2
370
     9
100
AcDbLine
 10
-953.5743094779349
 20
-28.93875534469998
 30
0.0
 11
-953.5743094779349
 21
-60.13299890466641
 31
0.0
  0
LINE
  5
55
330
1F
100
AcDbEntity
  8
A-1_ピット
  6
JWW_CENTER1
 62
     2
370
     9
100
AcDbLine
 10
-937.2488485800252
 20
-45.15299204233514
 30
0.0
 11
-970.0627094990498
 21
-45.15299204233514
 31
0.0
  0
LINE
  5
56
330
1F
100
AcDbEntity
  8
A-1_ピット
  6
Continuous
 62
     2
370
     9
100
AcDbLine
 10
-136.5746575432854
 20
-57.35375481682837
 30
0.0
 11
-136.5746575432854
 21
-45.15299204233514
 31
0.0
  0
LINE
  5
57
330
1F
100
AcDbEntity
  8
A-1_ピット
  6
Continuous
 62
     2
370
     9
100
AcDbLine
 10
63.42624973606434
 20
-77.35332592113593
 30
0.0
 11
-116.5742203995987
 21
-77.35332592113593
 31
0.0
  0
LINE
  5
58
330
1F
100
AcDbEntity
  8
A-1_ピット
  6
Continuous
 62
     2
370
     9
100
AcDbLine
 10
83.42557340054924
 20
-57.35375481682837
 30
0.0
 11
83.42557340054924
 21
-45.15299204233514
 31
0.0
  0
LINE
  5
59
330
1F
100
AcDbEntity
  8
A-1_ピット
  6
Continuous
 62
     2
370
     9
100
AcDbLine
 10
65.42605838260158
 20
-57.35375481682837
 30
0.0
 11
65.42605838260158
 21
-45.15299204233514
 31
0.0
  0
LINE
  5
5A
330
1F
100
AcDbEntity
  8
A-1_ピット
  6
Continuous
 62
     2
370
     9
100
AcDbLine
 10
-116.5748389991552
 20
-59.35356346336562
 30
0.0
 11
63.42624973606434
 21
-59.35356346336562
 31
0.0
  0
LINE
  5
5B
330
1F
100
AcDbEntity
  8
A-1_ピット
  6
Continuous
 62
     2
370
     9
100
AcDbLine
 10
-118.5744002058698
 20
-57.35375481682837
 30
0.0
 11
-118.5744002058698
 21
-45.15299204233514
 31
0.0
  0
LINE
  5
5C
330
1F
100
AcDbEntity
  8
A-1_ピット
  6
JWW_CENTER1
 62
     2
370
     9
100
AcDbLine
 10
-127.5742814347549
 20
-28.93875534469998
 30
0.0
 11
-127.5742814347549
 21
-60.13299890466641
 31
0.0
  0
LINE
  5
5D
330
1F
100
AcDbEntity
  8
A-1_ピット
  6
JWW_CENTER1
 62
     2
370
     9
100
AcDbLine
 10
-111.2485730970226
 20
-45.15299204233514
 30
0.0
 11
-144.0629288956924
 21
-45.15299204233514
 31
0.0
  0
LINE
  5
5E
330
1F
100
AcDbEntity
  8
A-1_ピット
  6
JWW_CENTER1
 62
     2
370
     9
100
AcDbLine
 10
74.42494985219611
 20
-28.93875534469998
 30
0.0
 11
74.42494985219611
 21
-60.13299890466641
 31
0.0
  0
LINE
  5
5F
330
1F
100
AcDbEntity
  8
A-1_ピット
  6
JWW_CENTER1
 62
     2
370
     9
100
AcDbLine
 10
90.75201910895288
 20
-45.15299204233514
 30
0.0
 11
57.93704471072658
 21
-45.15299204233514
 31
0.0
  0
LINE
  5
60
330
1F
100
AcDbEntity
  8
A-1_ピット
  6
Continuous
 62
     2
370
     9
100
AcDbLine
 10
-1164.574659192884
 20
925.0480363175677
 30
0.0
 11
-1164.574659192884
 21
912.8482633023651
 31
0.0
  0
LINE
  5
61
330
1F
100
AcDbEntity
  8
A-1_ピット
  6
Continuous
 62
     2
370
     9
100
AcDbLine
 10
-964.5747416728251
 20
945.047607421875
 30
0.0
 11
-1144.574593208931
 21
945.047607421875
 31
0.0
  0
LINE
  5
62
330
1F
100
AcDbEntity
  8
A-1_ピット
  6
Continuous
 62
     2
370
     9
100
AcDbLine
 10
-944.574551968961
 20
925.0480363175677
 30
0.0
 11
-944.574551968961
 21
912.8482633023651
 31
0.0
  0
LINE
  5
63
330
1F
100
AcDbEntity
  8
A-1_ピット
  6
Continuous
 62
     2
370
     9
100
AcDbLine
 10
-962.5746855864654
 20
925.0480363175677
 30
0.0
 11
-962.5746855864654
 21
912.8482633023651
 31
0.0
  0
LINE
  5
64
330
1F
100
AcDbEntity
  8
A-1_ピット
  6
Continuous
 62
     2
370
     9
100
AcDbLine
 10
-1144.574593208931
 20
927.047844964105
 30
0.0
 11
-964.5743705130911
 21
927.047844964105
 31
0.0
  0
LINE
  5
65
330
1F
100
AcDbEntity
  8
A-1_ピット
  6
Continuous
 62
     2
370
     9
100
AcDbLine
 10
-1146.574896735114
 20
925.0480363175677
 30
0.0
 11
-1146.574896735114
 21
912.8482633023651
 31
0.0
  0
LINE
  5
66
330
1F
100
AcDbEntity
  8
A-1_ピット
  6
JWW_CENTER1
 62
     2
370
     9
100
AcDbLine
 10
-1155.574777963999
 20
896.6330368454394
 30
0.0
 11
-1155.574777963999
 21
927.828270164696
 31
0.0
  0
LINE
  5
67
330
1F
100
AcDbEntity
  8
A-1_ピット
  6
JWW_CENTER1
 62
     2
370
     9
100
AcDbLine
 10
-1139.248698466533
 20
912.8482633023651
 30
0.0
 11
-1172.062930545291
 21
912.8482633023651
 31
0.0
  0
LINE
  5
68
330
1F
100
AcDbEntity
  8
A-1_ピット
  6
JWW_CENTER1
 62
     2
370
     9
100
AcDbLine
 10
-953.5743094779349
 20
896.6330368454394
 30
0.0
 11
-953.5743094779349
 21
927.828270164696
 31
0.0
  0
LINE
  5
69
330
1F
100
AcDbEntity
  8
A-1_ピット
  6
JWW_CENTER1
 62
     2
370
     9
100
AcDbLine
 10
-937.2488485800252
 20
912.8482633023651
 30
0.0
 11
-970.0627094990498
 21
912.8482633023651
 31
0.0
  0
LINE
  5
6A
330
1F
100
AcDbEntity
  8
A-1_ピット
  6
Continuous
 62
     2
370
     9
100
AcDbLine
 10
-136.5746575432854
 20
925.0480363175677
 30
0.0
 11
-136.5746575432854
 21
912.8482633023651
 31
0.0
  0
LINE
  5
6B
330
1F
100
AcDbEntity
  8
A-1_ピット
  6
Continuous
 62
     2
370
     9
100
AcDbLine
 10
63.42624973606434
 20
945.047607421875
 30
0.0
 11
-116.5742203995987
 21
945.047607421875
 31
0.0
  0
LINE
  5
6C
330
1F
100
AcDbEntity
  8
A-1_ピット
  6
Continuous
 62
     2
370
     9
100
AcDbLine
 10
83.42557340054924
 20
925.0480363175677
 30
0.0
 11
83.42557340054924
 21
912.8482633023651
 31
0.0
  0
LINE
  5
6D
330
1F
100
AcDbEntity
  8
A-1_ピット
  6
Continuous
 62
     2
370
     9
100
AcDbLine
 10
65.42605838260158
 20
925.0480363175677
 30
0.0
 11
65.42605838260158
 21
912.8482633023651
 31
0.0
  0
LINE
  5
6E
330
1F
100
AcDbEntity
  8
A-1_ピット
  6
Continuous
 62
     2
370
     9
100
AcDbLine
 10
-116.5748389991552
 20
927.047844964105
 30
0.0
 11
63.42624973606434
 21
927.047844964105
 31
0.0
  0
LINE
  5
6F
330
1F
100
AcDbEntity
  8
A-1_ピット
  6
Continuous
 62
     2
370
     9
100
AcDbLine
 10
-118.5744002058698
 20
925.0480363175677
 30
0.0
 11
-118.5744002058698
 21
912.8482633023651
 31
0.0
  0
LINE
  5
70
330
1F
100
AcDbEntity
  8
A-1_ピット
  6
JWW_CENTER1
 62
     2
370
     9
100
AcDbLine
 10
-127.5742814347549
 20
896.6330368454394
 30
0.0
 11
-127.5742814347549
 21
927.828270164696
 31
0.0
  0
LINE
  5
71
330
1F
100
AcDbEntity
  8
A-1_ピット
  6
JWW_CENTER1
 62
     2
370
     9
100
AcDbLine
 10
-111.2485730970226
 20
912.8482633023651
 30
0.0
 11
-144.0629288956924
 21
912.8482633023651
 31
0.0
  0
LINE
  5
72
330
1F
100
AcDbEntity
  8
A-1_ピット
  6
JWW_CENTER1
 62
     2
370
     9
100
AcDbLine
 10
74.42494985219611
 20
896.6330368454394
 30
0.0
 11
74.42494985219611
 21
927.828270164696
 31
0.0
  0
LINE
  5
73
330
1F
100
AcDbEntity
  8
A-1_ピット
  6
JWW_CENTER1
 62
     2
370
     9
100
AcDbLine
 10
90.75201910895288
 20
912.8482633023651
 30
0.0
 11
57.93704471072658
 21
912.8482633023651
 31
0.0
  0
LINE
  5
74
330
1F
100
AcDbEntity
  8
A-2_蓋
  6
Continuous
 62
     3
370
     9
100
AcDbLine
 10
454.4257086676521
 20
-16.15205507020676
 30
0.0
 11
-1535.574918179899
 21
-16.15205507020676
 31
0.0
  0
LINE
  5
75
330
1F
100
AcDbEntity
  8
A-2_蓋
  6
Continuous
 62
     3
370
     9
100
AcDbLine
 10
454.4257086676521
 20
-7.152545001055728
 30
0.0
 11
-1535.574918179899
 21
-7.152545001055728
 31
0.0
  0
LINE
  5
76
330
1F
100
AcDbEntity
  8
A-2_蓋
  6
Continuous
 62
     3
370
     9
100
AcDbLine
 10
-1535.574918179899
 20
744.8477585251269
 30
0.0
 11
454.4257086676521
 21
744.8477585251269
 31
0.0
  0
LINE
  5
77
330
1F
100
AcDbEntity
  8
A-2_蓋
  6
Continuous
 62
     3
370
     9
100
AcDbLine
 10
-1535.574918179899
 20
722.8483787742823
 30
0.0
 11
454.4257086676521
 21
722.8483787742823
 31
0.0
  0
LINE
  5
78
330
1F
100
AcDbEntity
  8
A-2_蓋
  6
Continuous
 62
     3
370
     9
100
AcDbLine
 10
-1535.574918179899
 20
874.8479399809967
 30
0.0
 11
454.4257086676521
 21
874.8479399809967
 31
0.0
  0
LINE
  5
79
330
1F
100
AcDbEntity
  8
A-2_蓋
  6
Continuous
 62
     3
370
     9
100
AcDbLine
 10
-1535.574918179899
 20
883.8478212098818
 30
0.0
 11
454.4257086676521
 21
883.8478212098818
 31
0.0
  0
LINE
  5
7A
330
1F
100
AcDbEntity
  8
A-2_蓋
  6
Continuous
 62
     3
370
     9
100
AcDbLine
 10
-1535.574918179899
 20
-16.15205507020676
 30
0.0
 11
-1535.574918179899
 21
883.8478212098818
 31
0.0
  0
LINE
  5
7B
330
1F
100
AcDbEntity
  8
A-2_蓋
  6
Continuous
 62
     3
370
     9
100
AcDbLine
 10
454.4257086676521
 20
883.8478212098818
 30
0.0
 11
454.4257086676521
 21
-16.15205507020676
 31
0.0
  0
LINE
  5
7C
330
1F
100
AcDbEntity
  8
A-2_蓋
  6
Continuous
 62
     3
370
     9
100
AcDbLine
 10
-1521.574030695735
 20
544.8466038059544
 30
0.0
 11
-1521.574030695735
 21
722.8483787742823
 31
0.0
  0
LINE
  5
7D
330
1F
100
AcDbEntity
  8
A-2_蓋
  6
Continuous
 62
     3
370
     9
100
AcDbLine
 10
-1521.574030695735
 20
744.8477585251269
 30
0.0
 11
-1521.574030695735
 21
874.8479399809967
 31
0.0
  0
LINE
  5
7E
330
1F
100
AcDbEntity
  8
A-2_蓋
  6
Continuous
 62
     3
370
     9
100
AcDbLine
 10
440.4263058224242
 20
874.8479399809967
 30
0.0
 11
440.4263058224242
 21
744.8477585251269
 31
0.0
  0
LINE
  5
7F
330
1F
100
AcDbEntity
  8
A-2_蓋
  6
Continuous
 62
     3
370
     9
100
AcDbLine
 10
440.4263058224242
 20
722.8483787742823
 30
0.0
 11
440.4263058224242
 21
544.8466038059544
 31
0.0
  0
LINE
  5
80
330
1F
100
AcDbEntity
  8
A-2_蓋
  6
Continuous
 62
     3
370
     9
100
AcDbLine
 10
369.8257858688768
 20
874.8479399809967
 30
0.0
 11
369.8257858688768
 21
744.8477585251269
 31
0.0
  0
LINE
  5
81
330
1F
100
AcDbEntity
  8
A-2_蓋
  6
Continuous
 62
     3
370
     9
100
AcDbLine
 10
383.8259310335727
 20
874.8479399809967
 30
0.0
 11
383.8259310335727
 21
744.8477585251269
 31
0.0
  0
LINE
  5
82
330
1F
100
AcDbEntity
  8
A-2_蓋
  6
Continuous
 62
     3
370
     9
100
AcDbLine
 10
369.8257858688768
 20
722.8483787742823
 30
0.0
 11
369.8257858688768
 21
544.8466038059544
 31
0.0
  0
LINE
  5
83
330
1F
100
AcDbEntity
  8
A-2_蓋
  6
Continuous
 62
     3
370
     9
100
AcDbLine
 10
383.8259310335727
 20
722.8483787742823
 30
0.0
 11
383.8259310335727
 21
544.8466038059544
 31
0.0
  0
LINE
  5
84
330
1F
100
AcDbEntity
  8
A-2_蓋
  6
Continuous
 62
     3
370
     9
100
AcDbLine
 10
299.2252659153294
 20
874.8479399809967
 30
0.0
 11
299.2252659153294
 21
744.8477585251269
 31
0.0
  0
LINE
  5
85
330
1F
100
AcDbEntity
  8
A-2_蓋
  6
Continuous
 62
     3
370
     9
100
AcDbLine
 10
313.2254110800255
 20
874.8479399809967
 30
0.0
 11
313.2254110800255
 21
744.8477585251269
 31
0.0
  0
LINE
  5
86
330
1F
100
AcDbEntity
  8
A-2_蓋
  6
Continuous
 62
     3
370
     9
100
AcDbLine
 10
299.2252659153294
 20
722.8483787742823
 30
0.0
 11
299.2252659153294
 21
544.8466038059544
 31
0.0
  0
LINE
  5
87
330
1F
100
AcDbEntity
  8
A-2_蓋
  6
Continuous
 62
     3
370
     9
100
AcDbLine
 10
313.2254110800255
 20
722.8483787742823
 30
0.0
 11
313.2254110800255
 21
544.8466038059544
 31
0.0
  0
LINE
  5
88
330
1F
100
AcDbEntity
  8
A-2_蓋
  6
Continuous
 62
     3
370
     9
100
AcDbLine
 10
228.6257357210727
 20
874.8479399809967
 30
0.0
 11
228.6257357210727
 21
744.8477585251269
 31
0.0
  0
LINE
  5
89
330
1F
100
AcDbEntity
  8
A-2_蓋
  6
Continuous
 62
     3
370
     9
100
AcDbLine
 10
242.6258808857688
 20
874.8479399809967
 30
0.0
 11
242.6258808857688
 21
744.8477585251269
 31
0.0
  0
LINE
  5
8A
330
1F
100
AcDbEntity
  8
A-2_蓋
  6
Continuous
 62
     3
370
     9
100
AcDbLine
 10
228.6257357210727
 20
722.8483787742823
 30
0.0
 11
228.6257357210727
 21
544.8466038059544
 31
0.0
  0
LINE
  5
8B
330
1F
100
AcDbEntity
  8
A-2_蓋
  6
Continuous
 62
     3
370
     9
100
AcDbLine
 10
242.6258808857688
 20
722.8483787742823
 30
0.0
 11
242.6258808857688
 21
544.8466038059544
 31
0.0
  0
LINE
  5
8C
330
1F
100
AcDbEntity
  8
A-2_蓋
  6
Continuous
 62
     3
370
     9
100
AcDbLine
 10
158.0254632073482
 20
874.8479399809967
 30
0.0
 11
158.0254632073482
 21
744.8477585251269
 31
0.0
  0
LINE
  5
8D
330
1F
100
AcDbEntity
  8
A-2_蓋
  6
Continuous
 62
     3
370
     9
100
AcDbLine
 10
172.0253609322214
 20
874.8479399809967
 30
0.0
 11
172.0253609322214
 21
744.8477585251269
 31
0.0
  0
LINE
  5
8E
330
1F
100
AcDbEntity
  8
A-2_蓋
  6
Continuous
 62
     3
370
     9
100
AcDbLine
 10
158.0254632073482
 20
722.8483787742823
 30
0.0
 11
158.0254632073482
 21
544.8466038059544
 31
0.0
  0
LINE
  5
8F
330
1F
100
AcDbEntity
  8
A-2_蓋
  6
Continuous
 62
     3
370
     9
100
AcDbLine
 10
172.0253609322214
 20
722.8483787742823
 30
0.0
 11
172.0253609322214
 21
544.8466038059544
 31
0.0
  0
LINE
  5
90
330
1F
100
AcDbEntity
  8
A-2_蓋
  6
Continuous
 62
     3
370
     9
100
AcDbLine
 10
87.42519069362345
 20
874.8479399809967
 30
0.0
 11
87.42519069362345
 21
744.8477585251269
 31
0.0
  0
LINE
  5
91
330
1F
100
AcDbEntity
  8
A-2_蓋
  6
Continuous
 62
     3
370
     9
100
AcDbLine
 10
101.4250884184966
 20
874.8479399809967
 30
0.0
 11
101.4250884184966
 21
744.8477585251269
 31
0.0
  0
LINE
  5
92
330
1F
100
AcDbEntity
  8
A-2_蓋
  6
Continuous
 62
     3
370
     9
100
AcDbLine
 10
87.42519069362345
 20
722.8483787742823
 30
0.0
 11
87.42519069362345
 21
544.8466038059544
 31
0.0
  0
LINE
  5
93
330
1F
100
AcDbEntity
  8
A-2_蓋
  6
Continuous
 62
     3
370
     9
100
AcDbLine
 10
101.4250884184966
 20
722.8483787742823
 30
0.0
 11
101.4250884184966
 21
544.8466038059544
 31
0.0
  0
LINE
  5
94
330
1F
100
AcDbEntity
  8
A-2_蓋
  6
Continuous
 62
     3
370
     9
100
AcDbLine
 10
16.82590793918934
 20
874.8479399809967
 30
0.0
 11
16.82590793918934
 21
744.8477585251269
 31
0.0
  0
LINE
  5
95
330
1F
100
AcDbEntity
  8
A-2_蓋
  6
Continuous
 62
     3
370
     9
100
AcDbLine
 10
30.82555822423984
 20
874.8479399809967
 30
0.0
 11
30.82555822423984
 21
744.8477585251269
 31
0.0
  0
LINE
  5
96
330
1F
100
AcDbEntity
  8
A-2_蓋
  6
Continuous
 62
     3
370
     9
100
AcDbLine
 10
16.82590793918934
 20
722.8483787742823
 30
0.0
 11
16.82590793918934
 21
544.8466038059544
 31
0.0
  0
LINE
  5
97
330
1F
100
AcDbEntity
  8
A-2_蓋
  6
Continuous
 62
     3
370
     9
100
AcDbLine
 10
30.82555822423984
 20
722.8483787742823
 30
0.0
 11
30.82555822423984
 21
544.8466038059544
 31
0.0
  0
LINE
  5
98
330
1F
100
AcDbEntity
  8
A-2_蓋
  6
Continuous
 62
     3
370
     9
100
AcDbLine
 10
-53.77461201435807
 20
874.8479399809967
 30
0.0
 11
-53.77461201435807
 21
744.8477585251269
 31
0.0
  0
LINE
  5
99
330
1F
100
AcDbEntity
  8
A-2_蓋
  6
Continuous
 62
     3
370
     9
100
AcDbLine
 10
-39.77446684966196
 20
874.8479399809967
 30
0.0
 11
-39.77446684966196
 21
744.8477585251269
 31
0.0
  0
LINE
  5
9A
330
1F
100
AcDbEntity
  8
A-2_蓋
  6
Continuous
 62
     3
370
     9
100
AcDbLine
 10
-53.77461201435807
 20
722.8483787742823
 30
0.0
 11
-53.77461201435807
 21
544.8466038059544
 31
0.0
  0
LINE
  5
9B
330
1F
100
AcDbEntity
  8
A-2_蓋
  6
Continuous
 62
     3
370
     9
100
AcDbLine
 10
-39.77446684966196
 20
722.8483787742823
 30
0.0
 11
-39.77446684966196
 21
544.8466038059544
 31
0.0
  0
LINE
  5
9C
330
1F
100
AcDbEntity
  8
A-2_蓋
  6
Continuous
 62
     3
370
     9
100
AcDbLine
 10
-124.3748845280825
 20
874.8479399809967
 30
0.0
 11
-124.3748845280825
 21
744.8477585251269
 31
0.0
  0
LINE
  5
9D
330
1F
100
AcDbEntity
  8
A-2_蓋
  6
Continuous
 62
     3
370
     9
100
AcDbLine
 10
-110.3747393633867
 20
874.8479399809967
 30
0.0
 11
-110.3747393633867
 21
744.8477585251269
 31
0.0
  0
LINE
  5
9E
330
1F
100
AcDbEntity
  8
A-2_蓋
  6
Continuous
 62
     3
370
     9
100
AcDbLine
 10
-124.3748845280825
 20
722.8483787742823
 30
0.0
 11
-124.3748845280825
 21
544.8466038059544
 31
0.0
  0
LINE
  5
9F
330
1F
100
AcDbEntity
  8
A-2_蓋
  6
Continuous
 62
     3
370
     9
100
AcDbLine
 10
-110.3747393633867
 20
722.8483787742823
 30
0.0
 11
-110.3747393633867
 21
544.8466038059544
 31
0.0
  0
LINE
  5
A0
330
1F
100
AcDbEntity
  8
A-2_蓋
  6
Continuous
 62
     3
370
     9
100
AcDbLine
 10
-194.9741672825166
 20
874.8479399809967
 30
0.0
 11
-194.9741672825166
 21
744.8477585251269
 31
0.0
  0
LINE
  5
A1
330
1F
100
AcDbEntity
  8
A-2_蓋
  6
Continuous
 62
     3
370
     9
100
AcDbLine
 10
-180.9740221178208
 20
874.8479399809967
 30
0.0
 11
-180.9740221178208
 21
744.8477585251269
 31
0.0
  0
LINE
  5
A2
330
1F
100
AcDbEntity
  8
A-2_蓋
  6
Continuous
 62
     3
370
     9
100
AcDbLine
 10
-194.9741672825166
 20
722.8483787742823
 30
0.0
 11
-194.9741672825166
 21
544.8466038059544
 31
0.0
  0
LINE
  5
A3
330
1F
100
AcDbEntity
  8
A-2_蓋
  6
Continuous
 62
     3
370
     9
100
AcDbLine
 10
-180.9740221178208
 20
722.8483787742823
 30
0.0
 11
-180.9740221178208
 21
544.8466038059544
 31
0.0
  0
LINE
  5
A4
330
1F
100
AcDbEntity
  8
A-2_蓋
  6
Continuous
 62
     3
370
     9
100
AcDbLine
 10
-265.5744397962414
 20
874.8479399809967
 30
0.0
 11
-265.5744397962414
 21
744.8477585251269
 31
0.0
  0
LINE
  5
A5
330
1F
100
AcDbEntity
  8
A-2_蓋
  6
Continuous
 62
     3
370
     9
100
AcDbLine
 10
-251.5745420713682
 20
874.8479399809967
 30
0.0
 11
-251.5745420713682
 21
744.8477585251269
 31
0.0
  0
LINE
  5
A6
330
1F
100
AcDbEntity
  8
A-2_蓋
  6
Continuous
 62
     3
370
     9
100
AcDbLine
 10
-265.5744397962414
 20
722.8483787742823
 30
0.0
 11
-265.5744397962414
 21
544.8466038059544
 31
0.0
  0
LINE
  5
A7
330
1F
100
AcDbEntity
  8
A-2_蓋
  6
Continuous
 62
     3
370
     9
100
AcDbLine
 10
-251.5745420713682
 20
722.8483787742823
 30
0.0
 11
-251.5745420713682
 21
544.8466038059544
 31
0.0
  0
LINE
  5
A8
330
1F
100
AcDbEntity
  8
A-2_蓋
  6
Continuous
 62
     3
370
     9
100
AcDbLine
 10
-336.1748360298773
 20
874.8479399809967
 30
0.0
 11
-336.1748360298773
 21
744.8477585251269
 31
0.0
  0
LINE
  5
A9
330
1F
100
AcDbEntity
  8
A-2_蓋
  6
Continuous
 62
     3
370
     9
100
AcDbLine
 10
-322.1746908651815
 20
874.8479399809967
 30
0.0
 11
-322.1746908651815
 21
744.8477585251269
 31
0.0
  0
LINE
  5
AA
330
1F
100
AcDbEntity
  8
A-2_蓋
  6
Continuous
 62
     3
370
     9
100
AcDbLine
 10
-336.1748360298773
 20
722.8483787742823
 30
0.0
 11
-336.1748360298773
 21
544.8466038059544
 31
0.0
  0
LINE
  5
AB
330
1F
100
AcDbEntity
  8
A-2_蓋
  6
Continuous
 62
     3
370
     9
100
AcDbLine
 10
-322.1746908651815
 20
722.8483787742823
 30
0.0
 11
-322.1746908651815
 21
544.8466038059544
 31
0.0
  0
LINE
  5
AC
330
1F
100
AcDbEntity
  8
A-2_蓋
  6
Continuous
 62
     3
370
     9
100
AcDbLine
 10
-406.7741187843114
 20
874.8479399809967
 30
0.0
 11
-406.7741187843114
 21
744.8477585251269
 31
0.0
  0
LINE
  5
AD
330
1F
100
AcDbEntity
  8
A-2_蓋
  6
Continuous
 62
     3
370
     9
100
AcDbLine
 10
-392.7742210594383
 20
874.8479399809967
 30
0.0
 11
-392.7742210594383
 21
744.8477585251269
 31
0.0
  0
LINE
  5
AE
330
1F
100
AcDbEntity
  8
A-2_蓋
  6
Continuous
 62
     3
370
     9
100
AcDbLine
 10
-406.7741187843114
 20
722.8483787742823
 30
0.0
 11
-406.7741187843114
 21
544.8466038059544
 31
0.0
  0
LINE
  5
AF
330
1F
100
AcDbEntity
  8
A-2_蓋
  6
Continuous
 62
     3
370
     9
100
AcDbLine
 10
-392.7742210594383
 20
722.8483787742823
 30
0.0
 11
-392.7742210594383
 21
544.8466038059544
 31
0.0
  0
LINE
  5
B0
330
1F
100
AcDbEntity
  8
A-2_蓋
  6
Continuous
 62
     3
370
     9
100
AcDbLine
 10
-477.3743912980362
 20
874.8479399809967
 30
0.0
 11
-477.3743912980362
 21
744.8477585251269
 31
0.0
  0
LINE
  5
B1
330
1F
100
AcDbEntity
  8
A-2_蓋
  6
Continuous
 62
     3
370
     9
100
AcDbLine
 10
-463.374493573163
 20
874.8479399809967
 30
0.0
 11
-463.374493573163
 21
744.8477585251269
 31
0.0
  0
LINE
  5
B2
330
1F
100
AcDbEntity
  8
A-2_蓋
  6
Continuous
 62
     3
370
     9
100
AcDbLine
 10
-477.3743912980362
 20
722.8483787742823
 30
0.0
 11
-477.3743912980362
 21
544.8466038059544
 31
0.0
  0
LINE
  5
B3
330
1F
100
AcDbEntity
  8
A-2_蓋
  6
Continuous
 62
     3
370
     9
100
AcDbLine
 10
-463.374493573163
 20
722.8483787742823
 30
0.0
 11
-463.374493573163
 21
544.8466038059544
 31
0.0
  0
LINE
  5
B4
330
1F
100
AcDbEntity
  8
A-2_蓋
  6
Continuous
 62
     3
370
     9
100
AcDbLine
 10
-547.9736740524703
 20
874.8479399809967
 30
0.0
 11
-547.9736740524703
 21
744.8477585251269
 31
0.0
  0
LINE
  5
B5
330
1F
100
AcDbEntity
  8
A-2_蓋
  6
Continuous
 62
     3
370
     9
100
AcDbLine
 10
-533.9739000475083
 20
874.8479399809967
 30
0.0
 11
-533.9739000475083
 21
744.8477585251269
 31
0.0
  0
LINE
  5
B6
330
1F
100
AcDbEntity
  8
A-2_蓋
  6
Continuous
 62
     3
370
     9
100
AcDbLine
 10
-547.9736740524703
 20
722.8483787742823
 30
0.0
 11
-547.9736740524703
 21
544.8466038059544
 31
0.0
  0
LINE
  5
B7
330
1F
100
AcDbEntity
  8
A-2_蓋
  6
Continuous
 62
     3
370
     9
100
AcDbLine
 10
-533.9739000475083
 20
722.8483787742823
 30
0.0
 11
-533.9739000475083
 21
544.8466038059544
 31
0.0
  0
LINE
  5
B8
330
1F
100
AcDbEntity
  8
A-2_蓋
  6
Continuous
 62
     3
370
     9
100
AcDbLine
 10
-618.5741940060177
 20
874.8479399809967
 30
0.0
 11
-618.5741940060177
 21
744.8477585251269
 31
0.0
  0
LINE
  5
B9
330
1F
100
AcDbEntity
  8
A-2_蓋
  6
Continuous
 62
     3
370
     9
100
AcDbLine
 10
-604.5740488413217
 20
874.8479399809967
 30
0.0
 11
-604.5740488413217
 21
744.8477585251269
 31
0.0
  0
LINE
  5
BA
330
1F
100
AcDbEntity
  8
A-2_蓋
  6
Continuous
 62
     3
370
     9
100
AcDbLine
 10
-618.5741940060177
 20
722.8483787742823
 30
0.0
 11
-618.5741940060177
 21
544.8466038059544
 31
0.0
  0
LINE
  5
BB
330
1F
100
AcDbEntity
  8
A-2_蓋
  6
Continuous
 62
     3
370
     9
100
AcDbLine
 10
-604.5740488413217
 20
722.8483787742823
 30
0.0
 11
-604.5740488413217
 21
544.8466038059544
 31
0.0
  0
LINE
  5
BC
330
1F
100
AcDbEntity
  8
A-2_蓋
  6
Continuous
 62
     3
370
     9
100
AcDbLine
 10
-689.1744665197425
 20
874.8479399809967
 30
0.0
 11
-689.1744665197425
 21
744.8477585251269
 31
0.0
  0
LINE
  5
BD
330
1F
100
AcDbEntity
  8
A-2_蓋
  6
Continuous
 62
     3
370
     9
100
AcDbLine
 10
-675.174568794869
 20
874.8479399809967
 30
0.0
 11
-675.174568794869
 21
744.8477585251269
 31
0.0
  0
LINE
  5
BE
330
1F
100
AcDbEntity
  8
A-2_蓋
  6
Continuous
 62
     3
370
     9
100
AcDbLine
 10
-689.1744665197425
 20
722.8483787742823
 30
0.0
 11
-689.1744665197425
 21
544.8466038059544
 31
0.0
  0
LINE
  5
BF
330
1F
100
AcDbEntity
  8
A-2_蓋
  6
Continuous
 62
     3
370
     9
100
AcDbLine
 10
-675.174568794869
 20
722.8483787742823
 30
0.0
 11
-675.174568794869
 21
544.8466038059544
 31
0.0
  0
LINE
  5
C0
330
1F
100
AcDbEntity
  8
A-2_蓋
  6
Continuous
 62
     3
370
     9
100
AcDbLine
 10
-759.7737492741766
 20
874.8479399809967
 30
0.0
 11
-759.7737492741766
 21
744.8477585251269
 31
0.0
  0
LINE
  5
C1
330
1F
100
AcDbEntity
  8
A-2_蓋
  6
Continuous
 62
     3
370
     9
100
AcDbLine
 10
-745.7739752692146
 20
874.8479399809967
 30
0.0
 11
-745.7739752692146
 21
744.8477585251269
 31
0.0
  0
LINE
  5
C2
330
1F
100
AcDbEntity
  8
A-2_蓋
  6
Continuous
 62
     3
370
     9
100
AcDbLine
 10
-759.7737492741766
 20
722.8483787742823
 30
0.0
 11
-759.7737492741766
 21
544.8466038059544
 31
0.0
  0
LINE
  5
C3
330
1F
100
AcDbEntity
  8
A-2_蓋
  6
Continuous
 62
     3
370
     9
100
AcDbLine
 10
-745.7739752692146
 20
722.8483787742823
 30
0.0
 11
-745.7739752692146
 21
544.8466038059544
 31
0.0
  0
LINE
  5
C4
330
1F
100
AcDbEntity
  8
A-2_蓋
  6
Continuous
 62
     3
370
     9
100
AcDbLine
 10
-830.3742692277237
 20
874.8479399809967
 30
0.0
 11
-830.3742692277237
 21
744.8477585251269
 31
0.0
  0
LINE
  5
C5
330
1F
100
AcDbEntity
  8
A-2_蓋
  6
Continuous
 62
     3
370
     9
100
AcDbLine
 10
-816.3741240630279
 20
874.8479399809967
 30
0.0
 11
-816.3741240630279
 21
744.8477585251269
 31
0.0
  0
LINE
  5
C6
330
1F
100
AcDbEntity
  8
A-2_蓋
  6
Continuous
 62
     3
370
     9
100
AcDbLine
 10
-830.3742692277237
 20
722.8483787742823
 30
0.0
 11
-830.3742692277237
 21
544.8466038059544
 31
0.0
  0
LINE
  5
C7
330
1F
100
AcDbEntity
  8
A-2_蓋
  6
Continuous
 62
     3
370
     9
100
AcDbLine
 10
-816.3741240630279
 20
722.8483787742823
 30
0.0
 11
-816.3741240630279
 21
544.8466038059544
 31
0.0
  0
LINE
  5
C8
330
1F
100
AcDbEntity
  8
A-2_蓋
  6
Continuous
 62
     3
370
     9
100
AcDbLine
 10
-900.9736757020692
 20
874.8479399809967
 30
0.0
 11
-900.9736757020692
 21
744.8477585251269
 31
0.0
  0
LINE
  5
C9
330
1F
100
AcDbEntity
  8
A-2_蓋
  6
Continuous
 62
     3
370
     9
100
AcDbLine
 10
-886.9735305373733
 20
874.8479399809967
 30
0.0
 11
-886.9735305373733
 21
744.8477585251269
 31
0.0
  0
LINE
  5
CA
330
1F
100
AcDbEntity
  8
A-2_蓋
  6
Continuous
 62
     3
370
     9
100
AcDbLine
 10
-900.9736757020692
 20
722.8483787742823
 30
0.0
 11
-900.9736757020692
 21
544.8466038059544
 31
0.0
  0
LINE
  5
CB
330
1F
100
AcDbEntity
  8
A-2_蓋
  6
Continuous
 62
     3
370
     9
100
AcDbLine
 10
-886.9735305373733
 20
722.8483787742823
 30
0.0
 11
-886.9735305373733
 21
544.8466038059544
 31
0.0
  0
LINE
  5
CC
330
1F
100
AcDbEntity
  8
A-2_蓋
  6
Continuous
 62
     3
370
     9
100
AcDbLine
 10
-971.5738244958825
 20
874.8479399809967
 30
0.0
 11
-971.5738244958825
 21
744.8477585251269
 31
0.0
  0
LINE
  5
CD
330
1F
100
AcDbEntity
  8
A-2_蓋
  6
Continuous
 62
     3
370
     9
100
AcDbLine
 10
-957.5740504909206
 20
874.8479399809967
 30
0.0
 11
-957.5740504909206
 21
744.8477585251269
 31
0.0
  0
LINE
  5
CE
330
1F
100
AcDbEntity
  8
A-2_蓋
  6
Continuous
 62
     3
370
     9
100
AcDbLine
 10
-971.5738244958825
 20
722.8483787742823
 30
0.0
 11
-971.5738244958825
 21
544.8466038059544
 31
0.0
  0
LINE
  5
CF
330
1F
100
AcDbEntity
  8
A-2_蓋
  6
Continuous
 62
     3
370
     9
100
AcDbLine
 10
-957.5740504909206
 20
722.8483787742823
 30
0.0
 11
-957.5740504909206
 21
544.8466038059544
 31
0.0
  0
LINE
  5
D0
330
1F
100
AcDbEntity
  8
A-2_蓋
  6
Continuous
 62
     3
370
     9
100
AcDbLine
 10
-1042.174220729519
 20
874.8479399809967
 30
0.0
 11
-1042.174220729519
 21
744.8477585251269
 31
0.0
  0
LINE
  5
D1
330
1F
100
AcDbEntity
  8
A-2_蓋
  6
Continuous
 62
     3
370
     9
100
AcDbLine
 10
-1028.174323004645
 20
874.8479399809967
 30
0.0
 11
-1028.174323004645
 21
744.8477585251269
 31
0.0
  0
LINE
  5
D2
330
1F
100
AcDbEntity
  8
A-2_蓋
  6
Continuous
 62
     3
370
     9
100
AcDbLine
 10
-1042.174220729519
 20
722.8483787742823
 30
0.0
 11
-1042.174220729519
 21
544.8466038059544
 31
0.0
  0
LINE
  5
D3
330
1F
100
AcDbEntity
  8
A-2_蓋
  6
Continuous
 62
     3
370
     9
100
AcDbLine
 10
-1028.174323004645
 20
722.8483787742823
 30
0.0
 11
-1028.174323004645
 21
544.8466038059544
 31
0.0
  0
LINE
  5
D4
330
1F
100
AcDbEntity
  8
A-2_蓋
  6
Continuous
 62
     3
370
     9
100
AcDbLine
 10
-1112.773627203864
 20
874.8479399809967
 30
0.0
 11
-1112.773627203864
 21
744.8477585251269
 31
0.0
  0
LINE
  5
D5
330
1F
100
AcDbEntity
  8
A-2_蓋
  6
Continuous
 62
     3
370
     9
100
AcDbLine
 10
-1098.773605759079
 20
874.8479399809967
 30
0.0
 11
-1098.773605759079
 21
744.8477585251269
 31
0.0
  0
LINE
  5
D6
330
1F
100
AcDbEntity
  8
A-2_蓋
  6
Continuous
 62
     3
370
     9
100
AcDbLine
 10
-1112.773627203864
 20
722.8483787742823
 30
0.0
 11
-1112.773627203864
 21
544.8466038059544
 31
0.0
  0
LINE
  5
D7
330
1F
100
AcDbEntity
  8
A-2_蓋
  6
Continuous
 62
     3
370
     9
100
AcDbLine
 10
-1098.773605759079
 20
722.8483787742823
 30
0.0
 11
-1098.773605759079
 21
544.8466038059544
 31
0.0
  0
LINE
  5
D8
330
1F
100
AcDbEntity
  8
A-2_蓋
  6
Continuous
 62
     3
370
     9
100
AcDbLine
 10
-1183.3740234375
 20
874.8479399809967
 30
0.0
 11
-1183.3740234375
 21
744.8477585251269
 31
0.0
  0
LINE
  5
D9
330
1F
100
AcDbEntity
  8
A-2_蓋
  6
Continuous
 62
     3
370
     9
100
AcDbLine
 10
-1169.374001992715
 20
874.8479399809967
 30
0.0
 11
-1169.374001992715
 21
744.8477585251269
 31
0.0
  0
LINE
  5
DA
330
1F
100
AcDbEntity
  8
A-2_蓋
  6
Continuous
 62
     3
370
     9
100
AcDbLine
 10
-1183.3740234375
 20
722.8483787742823
 30
0.0
 11
-1183.3740234375
 21
544.8466038059544
 31
0.0
  0
LINE
  5
DB
330
1F
100
AcDbEntity
  8
A-2_蓋
  6
Continuous
 62
     3
370
     9
100
AcDbLine
 10
-1169.374001992715
 20
722.8483787742823
 30
0.0
 11
-1169.374001992715
 21
544.8466038059544
 31
0.0
  0
LINE
  5
DC
330
1F
100
AcDbEntity
  8
A-2_蓋
  6
Continuous
 62
     3
370
     9
100
AcDbLine
 10
-1253.974295951225
 20
874.8479399809967
 30
0.0
 11
-1253.974295951225
 21
744.8477585251269
 31
0.0
  0
LINE
  5
DD
330
1F
100
AcDbEntity
  8
A-2_蓋
  6
Continuous
 62
     3
370
     9
100
AcDbLine
 10
-1239.974398226351
 20
874.8479399809967
 30
0.0
 11
-1239.974398226351
 21
744.8477585251269
 31
0.0
  0
LINE
  5
DE
330
1F
100
AcDbEntity
  8
A-2_蓋
  6
Continuous
 62
     3
370
     9
100
AcDbLine
 10
-1253.974295951225
 20
722.8483787742823
 30
0.0
 11
-1253.974295951225
 21
544.8466038059544
 31
0.0
  0
LINE
  5
DF
330
1F
100
AcDbEntity
  8
A-2_蓋
  6
Continuous
 62
     3
370
     9
100
AcDbLine
 10
-1239.974398226351
 20
722.8483787742823
 30
0.0
 11
-1239.974398226351
 21
544.8466038059544
 31
0.0
  0
LINE
  5
E0
330
1F
100
AcDbEntity
  8
A-2_蓋
  6
Continuous
 62
     3
370
     9
100
AcDbLine
 10
-1324.573578705659
 20
874.8479399809967
 30
0.0
 11
-1324.573578705659
 21
744.8477585251269
 31
0.0
  0
LINE
  5
E1
330
1F
100
AcDbEntity
  8
A-2_蓋
  6
Continuous
 62
     3
370
     9
100
AcDbLine
 10
-1310.573680980785
 20
874.8479399809967
 30
0.0
 11
-1310.573680980785
 21
744.8477585251269
 31
0.0
  0
LINE
  5
E2
330
1F
100
AcDbEntity
  8
A-2_蓋
  6
Continuous
 62
     3
370
     9
100
AcDbLine
 10
-1324.573578705659
 20
722.8483787742823
 30
0.0
 11
-1324.573578705659
 21
544.8466038059544
 31
0.0
  0
LINE
  5
E3
330
1F
100
AcDbEntity
  8
A-2_蓋
  6
Continuous
 62
     3
370
     9
100
AcDbLine
 10
-1310.573680980785
 20
722.8483787742823
 30
0.0
 11
-1310.573680980785
 21
544.8466038059544
 31
0.0
  0
LINE
  5
E4
330
1F
100
AcDbEntity
  8
A-2_蓋
  6
Continuous
 62
     3
370
     9
100
AcDbLine
 10
-1395.173974939295
 20
874.8479399809967
 30
0.0
 11
-1395.173974939295
 21
744.8477585251269
 31
0.0
  0
LINE
  5
E5
330
1F
100
AcDbEntity
  8
A-2_蓋
  6
Continuous
 62
     3
370
     9
100
AcDbLine
 10
-1381.17395349451
 20
874.8479399809967
 30
0.0
 11
-1381.17395349451
 21
744.8477585251269
 31
0.0
  0
LINE
  5
E6
330
1F
100
AcDbEntity
  8
A-2_蓋
  6
Continuous
 62
     3
370
     9
100
AcDbLine
 10
-1395.173974939295
 20
722.8483787742823
 30
0.0
 11
-1395.173974939295
 21
544.8466038059544
 31
0.0
  0
LINE
  5
E7
330
1F
100
AcDbEntity
  8
A-2_蓋
  6
Continuous
 62
     3
370
     9
100
AcDbLine
 10
-1381.17395349451
 20
722.8483787742823
 30
0.0
 11
-1381.17395349451
 21
544.8466038059544
 31
0.0
  0
LINE
  5
E8
330
1F
100
AcDbEntity
  8
A-2_蓋
  6
Continuous
 62
     3
370
     9
100
AcDbLine
 10
-1465.774371172931
 20
874.8479399809967
 30
0.0
 11
-1465.774371172931
 21
744.8477585251269
 31
0.0
  0
LINE
  5
E9
330
1F
100
AcDbEntity
  8
A-2_蓋
  6
Continuous
 62
     3
370
     9
100
AcDbLine
 10
-1451.774226008235
 20
874.8479399809967
 30
0.0
 11
-1451.774226008235
 21
744.8477585251269
 31
0.0
  0
LINE
  5
EA
330
1F
100
AcDbEntity
  8
A-2_蓋
  6
Continuous
 62
     3
370
     9
100
AcDbLine
 10
-1465.774371172931
 20
722.8483787742823
 30
0.0
 11
-1465.774371172931
 21
544.8466038059544
 31
0.0
  0
LINE
  5
EB
330
1F
100
AcDbEntity
  8
A-2_蓋
  6
Continuous
 62
     3
370
     9
100
AcDbLine
 10
-1451.774226008235
 20
722.8483787742823
 30
0.0
 11
-1451.774226008235
 21
544.8466038059544
 31
0.0
  0
LINE
  5
EC
330
1F
100
AcDbEntity
  8
A-2_蓋
  6
Continuous
 62
     3
370
     9
100
AcDbLine
 10
-1521.574030695735
 20
722.8483787742823
 30
0.0
 11
-1451.774226008235
 21
744.8477585251269
 31
0.0
  0
LINE
  5
ED
330
1F
100
AcDbEntity
  8
A-2_蓋
  6
Continuous
 62
     3
370
     9
100
AcDbLine
 10
-1450.974253061655
 20
722.8483787742823
 30
0.0
 11
-1381.174572094067
 21
744.8477585251269
 31
0.0
  0
LINE
  5
EE
330
1F
100
AcDbEntity
  8
A-2_蓋
  6
Continuous
 62
     3
370
     9
100
AcDbLine
 10
-1380.373856828019
 20
722.8483787742823
 30
0.0
 11
-1310.574423300253
 21
744.8477585251269
 31
0.0
  0
LINE
  5
EF
330
1F
100
AcDbEntity
  8
A-2_蓋
  6
Continuous
 62
     3
370
     9
100
AcDbLine
 10
-1309.773955474029
 20
722.8483787742823
 30
0.0
 11
-1239.974398226351
 21
744.8477585251269
 31
0.0
  0
LINE
  5
F0
330
1F
100
AcDbEntity
  8
A-2_蓋
  6
Continuous
 62
     3
370
     9
100
AcDbLine
 10
-1239.174177839949
 20
722.8483787742823
 30
0.0
 11
-1169.374373152449
 21
744.8477585251269
 31
0.0
  0
LINE
  5
F1
330
1F
100
AcDbEntity
  8
A-2_蓋
  6
Continuous
 62
     3
370
     9
100
AcDbLine
 10
-1168.574152766047
 20
722.8483787742823
 30
0.0
 11
-1098.774348078547
 21
744.8477585251269
 31
0.0
  0
LINE
  5
F2
330
1F
100
AcDbEntity
  8
A-2_蓋
  6
Continuous
 62
     3
370
     9
100
AcDbLine
 10
-1097.974003972234
 20
722.8483787742823
 30
0.0
 11
-1028.174323004645
 21
744.8477585251269
 31
0.0
  0
LINE
  5
F3
330
1F
100
AcDbEntity
  8
A-2_蓋
  6
Continuous
 62
     3
370
     9
100
AcDbLine
 10
-1027.374102618243
 20
722.8483787742823
 30
0.0
 11
-957.5742979307432
 21
744.8477585251269
 31
0.0
  0
LINE
  5
F4
330
1F
100
AcDbEntity
  8
A-2_蓋
  6
Continuous
 62
     3
370
     9
100
AcDbLine
 10
-956.7740775443411
 20
722.8483787742823
 30
0.0
 11
-886.9743965767525
 21
744.8477585251269
 31
0.0
  0
LINE
  5
F5
330
1F
100
AcDbEntity
  8
A-2_蓋
  6
Continuous
 62
     3
370
     9
100
AcDbLine
 10
-886.1738050306166
 20
722.8483787742823
 30
0.0
 11
-816.3741240630279
 21
744.8477585251269
 31
0.0
  0
LINE
  5
F6
330
1F
100
AcDbEntity
  8
A-2_蓋
  6
Continuous
 62
     3
370
     9
100
AcDbLine
 10
-815.5739036766258
 20
722.8483787742823
 30
0.0
 11
-745.7744701488596
 21
744.8477585251269
 31
0.0
  0
LINE
  5
F7
330
1F
100
AcDbEntity
  8
A-2_蓋
  6
Continuous
 62
     3
370
     9
100
AcDbLine
 10
-744.9742497624578
 20
722.8483787742823
 30
0.0
 11
-675.174568794869
 21
744.8477585251269
 31
0.0
  0
LINE
  5
F8
330
1F
100
AcDbEntity
  8
A-2_蓋
  6
Continuous
 62
     3
370
     9
100
AcDbLine
 10
-674.3741009686443
 20
722.8483787742823
 30
0.0
 11
-604.5744200010557
 21
744.8477585251269
 31
0.0
  0
LINE
  5
F9
330
1F
100
AcDbEntity
  8
A-2_蓋
  6
Continuous
 62
     3
370
     9
100
AcDbLine
 10
-603.7741996146536
 20
722.8483787742823
 30
0.0
 11
-533.9743949271536
 21
744.8477585251269
 31
0.0
  0
LINE
  5
FA
330
1F
100
AcDbEntity
  8
A-2_蓋
  6
Continuous
 62
     3
370
     9
100
AcDbLine
 10
-533.1741745407516
 20
722.8483787742823
 30
0.0
 11
-463.374493573163
 21
744.8477585251269
 31
0.0
  0
LINE
  5
FB
330
1F
100
AcDbEntity
  8
A-2_蓋
  6
Continuous
 62
     3
370
     9
100
AcDbLine
 10
-462.5742731867609
 20
722.8483787742823
 30
0.0
 11
-392.7745922191721
 21
744.8477585251269
 31
0.0
  0
LINE
  5
FC
330
1F
100
AcDbEntity
  8
A-2_蓋
  6
Continuous
 62
     3
370
     9
100
AcDbLine
 10
-391.9743718327703
 20
722.8483787742823
 30
0.0
 11
-322.1746908651815
 21
744.8477585251269
 31
0.0
  0
LINE
  5
FD
330
1F
100
AcDbEntity
  8
A-2_蓋
  6
Continuous
 62
     3
370
     9
100
AcDbLine
 10
-321.3740993190456
 20
722.8483787742823
 30
0.0
 11
-251.5745420713682
 21
744.8477585251269
 31
0.0
  0
LINE
  5
FE
330
1F
100
AcDbEntity
  8
A-2_蓋
  6
Continuous
 62
     3
370
     9
100
AcDbLine
 10
-250.7743216849661
 20
722.8483787742823
 30
0.0
 11
-180.9746407173773
 21
744.8477585251269
 31
0.0
  0
LINE
  5
FF
330
1F
100
AcDbEntity
  8
A-2_蓋
  6
Continuous
 62
     3
370
     9
100
AcDbLine
 10
-180.1744203309755
 20
722.8483787742823
 30
0.0
 11
-110.3747393633867
 21
744.8477585251269
 31
0.0
  0
LINE
  5
100
330
1F
100
AcDbEntity
  8
A-2_蓋
  6
Continuous
 62
     3
370
     9
100
AcDbLine
 10
-109.5745189769846
 20
722.8483787742823
 30
0.0
 11
-39.77508544921875
 21
744.8477585251269
 31
0.0
  0
LINE
  5
101
330
1F
100
AcDbEntity
  8
A-2_蓋
  6
Continuous
 62
     3
370
     9
100
AcDbLine
 10
-38.97424646326016
 20
722.8483787742823
 30
0.0
 11
30.82555822423984
 21
744.8477585251269
 31
0.0
  0
LINE
  5
102
330
1F
100
AcDbEntity
  8
A-2_蓋
  6
Continuous
 62
     3
370
     9
100
AcDbLine
 10
31.62528373099661
 20
722.8483787742823
 30
0.0
 11
101.4250884184966
 21
744.8477585251269
 31
0.0
  0
LINE
  5
103
330
1F
100
AcDbEntity
  8
A-2_蓋
  6
Continuous
 62
     3
370
     9
100
AcDbLine
 10
102.2253088048987
 20
722.8483787742823
 30
0.0
 11
172.0251134923987
 21
744.8477585251269
 31
0.0
  0
LINE
  5
104
330
1F
100
AcDbEntity
  8
A-2_蓋
  6
Continuous
 62
     3
370
     9
100
AcDbLine
 10
172.8258287584461
 20
722.8483787742823
 30
0.0
 11
242.6253860061234
 21
744.8477585251269
 31
0.0
  0
LINE
  5
105
330
1F
100
AcDbEntity
  8
A-2_蓋
  6
Continuous
 62
     3
370
     9
100
AcDbLine
 10
243.4258538323482
 20
722.8483787742823
 30
0.0
 11
313.2254110800255
 21
744.8477585251269
 31
0.0
  0
LINE
  5
106
330
1F
100
AcDbEntity
  8
A-2_蓋
  6
Continuous
 62
     3
370
     9
100
AcDbLine
 10
314.0251365867823
 20
722.8483787742823
 30
0.0
 11
383.825188714105
 21
744.8477585251269
 31
0.0
  0
LINE
  5
107
330
1F
100
AcDbEntity
  8
A-2_蓋
  6
Continuous
 62
     3
370
     9
100
AcDbLine
 10
384.6251616606844
 20
722.8483787742823
 30
0.0
 11
454.4252137880068
 21
744.8477585251269
 31
0.0
  0
LINE
  5
108
330
1F
100
AcDbEntity
  8
A-2_蓋
  6
Continuous
 62
     3
370
     9
100
AcDbLine
 10
-1535.574918179899
 20
740.6870579075169
 30
0.0
 11
-1522.374251082137
 21
744.8477585251269
 31
0.0
  0
LINE
  5
109
330
1F
100
AcDbEntity
  8
A-2_蓋
  6
Continuous
 62
     3
370
     9
100
AcDbLine
 10
-1535.574918179899
 20
544.8478410050677
 30
0.0
 11
454.4257086676521
 21
544.8478410050677
 31
0.0
  0
LINE
  5
10A
330
1F
100
AcDbEntity
  8
A-2_蓋
  6
Continuous
 62
     3
370
     9
100
AcDbLine
 10
-1535.574918179899
 20
522.8484612542231
 30
0.0
 11
454.4257086676521
 21
522.8484612542231
 31
0.0
  0
LINE
  5
10B
330
1F
100
AcDbEntity
  8
A-2_蓋
  6
Continuous
 62
     3
370
     9
100
AcDbLine
 10
-1521.574030695735
 20
522.8484612542231
 30
0.0
 11
-1451.774226008235
 21
544.8478410050677
 31
0.0
  0
LINE
  5
10C
330
1F
100
AcDbEntity
  8
A-2_蓋
  6
Continuous
 62
     3
370
     9
100
AcDbLine
 10
-1450.974253061655
 20
522.8484612542231
 30
0.0
 11
-1381.174572094067
 21
544.8478410050677
 31
0.0
  0
LINE
  5
10D
330
1F
100
AcDbEntity
  8
A-2_蓋
  6
Continuous
 62
     3
370
     9
100
AcDbLine
 10
-1380.373856828019
 20
522.8484612542231
 30
0.0
 11
-1310.574423300253
 21
544.8478410050677
 31
0.0
  0
LINE
  5
10E
330
1F
100
AcDbEntity
  8
A-2_蓋
  6
Continuous
 62
     3
370
     9
100
AcDbLine
 10
-1309.773955474029
 20
522.8484612542231
 30
0.0
 11
-1239.974398226351
 21
544.8478410050677
 31
0.0
  0
LINE
  5
10F
330
1F
100
AcDbEntity
  8
A-2_蓋
  6
Continuous
 62
     3
370
     9
100
AcDbLine
 10
-1239.174177839949
 20
522.8484612542231
 30
0.0
 11
-1169.374373152449
 21
544.8478410050677
 31
0.0
  0
LINE
  5
110
330
1F
100
AcDbEntity
  8
A-2_蓋
  6
Continuous
 62
     3
370
     9
100
AcDbLine
 10
-1168.574152766047
 20
522.8484612542231
 30
0.0
 11
-1098.774348078547
 21
544.8478410050677
 31
0.0
  0
LINE
  5
111
330
1F
100
AcDbEntity
  8
A-2_蓋
  6
Continuous
 62
     3
370
     9
100
AcDbLine
 10
-1097.974003972234
 20
522.8484612542231
 30
0.0
 11
-1028.174323004645
 21
544.8478410050677
 31
0.0
  0
LINE
  5
112
330
1F
100
AcDbEntity
  8
A-2_蓋
  6
Continuous
 62
     3
370
     9
100
AcDbLine
 10
-1027.374102618243
 20
522.8484612542231
 30
0.0
 11
-957.5742979307432
 21
544.8478410050677
 31
0.0
  0
LINE
  5
113
330
1F
100
AcDbEntity
  8
A-2_蓋
  6
Continuous
 62
     3
370
     9
100
AcDbLine
 10
-956.7740775443411
 20
522.8484612542231
 30
0.0
 11
-886.9743965767525
 21
544.8478410050677
 31
0.0
  0
LINE
  5
114
330
1F
100
AcDbEntity
  8
A-2_蓋
  6
Continuous
 62
     3
370
     9
100
AcDbLine
 10
-886.1738050306166
 20
522.8484612542231
 30
0.0
 11
-816.3741240630279
 21
544.8478410050677
 31
0.0
  0
LINE
  5
115
330
1F
100
AcDbEntity
  8
A-2_蓋
  6
Continuous
 62
     3
370
     9
100
AcDbLine
 10
-815.5739036766258
 20
522.8484612542231
 30
0.0
 11
-745.7744701488596
 21
544.8478410050677
 31
0.0
  0
LINE
  5
116
330
1F
100
AcDbEntity
  8
A-2_蓋
  6
Continuous
 62
     3
370
     9
100
AcDbLine
 10
-744.9742497624578
 20
522.8484612542231
 30
0.0
 11
-675.174568794869
 21
544.8478410050677
 31
0.0
  0
LINE
  5
117
330
1F
100
AcDbEntity
  8
A-2_蓋
  6
Continuous
 62
     3
370
     9
100
AcDbLine
 10
-674.3741009686443
 20
522.8484612542231
 30
0.0
 11
-604.5744200010557
 21
544.8478410050677
 31
0.0
  0
LINE
  5
118
330
1F
100
AcDbEntity
  8
A-2_蓋
  6
Continuous
 62
     3
370
     9
100
AcDbLine
 10
-603.7741996146536
 20
522.8484612542231
 30
0.0
 11
-533.9743949271536
 21
544.8478410050677
 31
0.0
  0
LINE
  5
119
330
1F
100
AcDbEntity
  8
A-2_蓋
  6
Continuous
 62
     3
370
     9
100
AcDbLine
 10
-533.1741745407516
 20
522.8484612542231
 30
0.0
 11
-463.374493573163
 21
544.8478410050677
 31
0.0
  0
LINE
  5
11A
330
1F
100
AcDbEntity
  8
A-2_蓋
  6
Continuous
 62
     3
370
     9
100
AcDbLine
 10
-462.5742731867609
 20
522.8484612542231
 30
0.0
 11
-392.7745922191721
 21
544.8478410050677
 31
0.0
  0
LINE
  5
11B
330
1F
100
AcDbEntity
  8
A-2_蓋
  6
Continuous
 62
     3
370
     9
100
AcDbLine
 10
-391.9743718327703
 20
522.8484612542231
 30
0.0
 11
-322.1746908651815
 21
544.8478410050677
 31
0.0
  0
LINE
  5
11C
330
1F
100
AcDbEntity
  8
A-2_蓋
  6
Continuous
 62
     3
370
     9
100
AcDbLine
 10
-321.3740993190456
 20
522.8484612542231
 30
0.0
 11
-251.5745420713682
 21
544.8478410050677
 31
0.0
  0
LINE
  5
11D
330
1F
100
AcDbEntity
  8
A-2_蓋
  6
Continuous
 62
     3
370
     9
100
AcDbLine
 10
-250.7743216849661
 20
522.8484612542231
 30
0.0
 11
-180.9746407173773
 21
544.8478410050677
 31
0.0
  0
LINE
  5
11E
330
1F
100
AcDbEntity
  8
A-2_蓋
  6
Continuous
 62
     3
370
     9
100
AcDbLine
 10
-180.1744203309755
 20
522.8484612542231
 30
0.0
 11
-110.3747393633867
 21
544.8478410050677
 31
0.0
  0
LINE
  5
11F
330
1F
100
AcDbEntity
  8
A-2_蓋
  6
Continuous
 62
     3
370
     9
100
AcDbLine
 10
-109.5745189769846
 20
522.8484612542231
 30
0.0
 11
-39.77508544921875
 21
544.8478410050677
 31
0.0
  0
LINE
  5
120
330
1F
100
AcDbEntity
  8
A-2_蓋
  6
Continuous
 62
     3
370
     9
100
AcDbLine
 10
-38.97424646326016
 20
522.8484612542231
 30
0.0
 11
30.82555822423984
 21
544.8478410050677
 31
0.0
  0
LINE
  5
121
330
1F
100
AcDbEntity
  8
A-2_蓋
  6
Continuous
 62
     3
370
     9
100
AcDbLine
 10
31.62528373099661
 20
522.8484612542231
 30
0.0
 11
101.4250884184966
 21
544.8478410050677
 31
0.0
  0
LINE
  5
122
330
1F
100
AcDbEntity
  8
A-2_蓋
  6
Continuous
 62
     3
370
     9
100
AcDbLine
 10
102.2253088048987
 20
522.8484612542231
 30
0.0
 11
172.0251134923987
 21
544.8478410050677
 31
0.0
  0
LINE
  5
123
330
1F
100
AcDbEntity
  8
A-2_蓋
  6
Continuous
 62
     3
370
     9
100
AcDbLine
 10
172.8258287584461
 20
522.8484612542231
 30
0.0
 11
242.6253860061234
 21
544.8478410050677
 31
0.0
  0
LINE
  5
124
330
1F
100
AcDbEntity
  8
A-2_蓋
  6
Continuous
 62
     3
370
     9
100
AcDbLine
 10
243.4258538323482
 20
522.8484612542231
 30
0.0
 11
313.2254110800255
 21
544.8478410050677
 31
0.0
  0
LINE
  5
125
330
1F
100
AcDbEntity
  8
A-2_蓋
  6
Continuous
 62
     3
370
     9
100
AcDbLine
 10
314.0251365867823
 20
522.8484612542231
 30
0.0
 11
383.825188714105
 21
544.8478410050677
 31
0.0
  0
LINE
  5
126
330
1F
100
AcDbEntity
  8
A-2_蓋
  6
Continuous
 62
     3
370
     9
100
AcDbLine
 10
384.6251616606844
 20
522.8484612542231
 30
0.0
 11
454.4252137880068
 21
544.8478410050677
 31
0.0
  0
LINE
  5
127
330
1F
100
AcDbEntity
  8
A-2_蓋
  6
Continuous
 62
     3
370
     9
100
AcDbLine
 10
-1535.574918179899
 20
540.6873878272804
 30
0.0
 11
-1522.374251082137
 21
544.8478410050677
 31
0.0
  0
LINE
  5
128
330
1F
100
AcDbEntity
  8
A-2_蓋
  6
Continuous
 62
     3
370
     9
100
AcDbLine
 10
-1535.574918179899
 20
144.8476348052154
 30
0.0
 11
454.4257086676521
 21
144.8476348052154
 31
0.0
  0
LINE
  5
129
330
1F
100
AcDbEntity
  8
A-2_蓋
  6
Continuous
 62
     3
370
     9
100
AcDbLine
 10
-1535.574918179899
 20
122.8482550543708
 30
0.0
 11
454.4257086676521
 21
122.8482550543708
 31
0.0
  0
LINE
  5
12A
330
1F
100
AcDbEntity
  8
A-2_蓋
  6
Continuous
 62
     3
370
     9
100
AcDbLine
 10
-1521.574030695735
 20
122.8482550543708
 30
0.0
 11
-1451.774226008235
 21
144.8476348052154
 31
0.0
  0
LINE
  5
12B
330
1F
100
AcDbEntity
  8
A-2_蓋
  6
Continuous
 62
     3
370
     9
100
AcDbLine
 10
-1450.974253061655
 20
122.8482550543708
 30
0.0
 11
-1381.174572094067
 21
144.8476348052154
 31
0.0
  0
LINE
  5
12C
330
1F
100
AcDbEntity
  8
A-2_蓋
  6
Continuous
 62
     3
370
     9
100
AcDbLine
 10
-1380.373856828019
 20
122.8482550543708
 30
0.0
 11
-1310.574423300253
 21
144.8476348052154
 31
0.0
  0
LINE
  5
12D
330
1F
100
AcDbEntity
  8
A-2_蓋
  6
Continuous
 62
     3
370
     9
100
AcDbLine
 10
-1309.773955474029
 20
122.8482550543708
 30
0.0
 11
-1239.974398226351
 21
144.8476348052154
 31
0.0
  0
LINE
  5
12E
330
1F
100
AcDbEntity
  8
A-2_蓋
  6
Continuous
 62
     3
370
     9
100
AcDbLine
 10
-1239.174177839949
 20
122.8482550543708
 30
0.0
 11
-1169.374373152449
 21
144.8476348052154
 31
0.0
  0
LINE
  5
12F
330
1F
100
AcDbEntity
  8
A-2_蓋
  6
Continuous
 62
     3
370
     9
100
AcDbLine
 10
-1168.574152766047
 20
122.8482550543708
 30
0.0
 11
-1098.774348078547
 21
144.8476348052154
 31
0.0
  0
LINE
  5
130
330
1F
100
AcDbEntity
  8
A-2_蓋
  6
Continuous
 62
     3
370
     9
100
AcDbLine
 10
-1097.974003972234
 20
122.8482550543708
 30
0.0
 11
-1028.174323004645
 21
144.8476348052154
 31
0.0
  0
LINE
  5
131
330
1F
100
AcDbEntity
  8
A-2_蓋
  6
Continuous
 62
     3
370
     9
100
AcDbLine
 10
-1027.374102618243
 20
122.8482550543708
 30
0.0
 11
-957.5742979307432
 21
144.8476348052154
 31
0.0
  0
LINE
  5
132
330
1F
100
AcDbEntity
  8
A-2_蓋
  6
Continuous
 62
     3
370
     9
100
AcDbLine
 10
-956.7740775443411
 20
122.8482550543708
 30
0.0
 11
-886.9743965767525
 21
144.8476348052154
 31
0.0
  0
LINE
  5
133
330
1F
100
AcDbEntity
  8
A-2_蓋
  6
Continuous
 62
     3
370
     9
100
AcDbLine
 10
-886.1738050306166
 20
122.8482550543708
 30
0.0
 11
-816.3741240630279
 21
144.8476348052154
 31
0.0
  0
LINE
  5
134
330
1F
100
AcDbEntity
  8
A-2_蓋
  6
Continuous
 62
     3
370
     9
100
AcDbLine
 10
-815.5739036766258
 20
122.8482550543708
 30
0.0
 11
-745.7744701488596
 21
144.8476348052154
 31
0.0
  0
LINE
  5
135
330
1F
100
AcDbEntity
  8
A-2_蓋
  6
Continuous
 62
     3
370
     9
100
AcDbLine
 10
-744.9742497624578
 20
122.8482550543708
 30
0.0
 11
-675.174568794869
 21
144.8476348052154
 31
0.0
  0
LINE
  5
136
330
1F
100
AcDbEntity
  8
A-2_蓋
  6
Continuous
 62
     3
370
     9
100
AcDbLine
 10
-674.3741009686443
 20
122.8482550543708
 30
0.0
 11
-604.5744200010557
 21
144.8476348052154
 31
0.0
  0
LINE
  5
137
330
1F
100
AcDbEntity
  8
A-2_蓋
  6
Continuous
 62
     3
370
     9
100
AcDbLine
 10
-603.7741996146536
 20
122.8482550543708
 30
0.0
 11
-533.9743949271536
 21
144.8476348052154
 31
0.0
  0
LINE
  5
138
330
1F
100
AcDbEntity
  8
A-2_蓋
  6
Continuous
 62
     3
370
     9
100
AcDbLine
 10
-533.1741745407516
 20
122.8482550543708
 30
0.0
 11
-463.374493573163
 21
144.8476348052154
 31
0.0
  0
LINE
  5
139
330
1F
100
AcDbEntity
  8
A-2_蓋
  6
Continuous
 62
     3
370
     9
100
AcDbLine
 10
-462.5742731867609
 20
122.8482550543708
 30
0.0
 11
-392.7745922191721
 21
144.8476348052154
 31
0.0
  0
LINE
  5
13A
330
1F
100
AcDbEntity
  8
A-2_蓋
  6
Continuous
 62
     3
370
     9
100
AcDbLine
 10
-391.9743718327703
 20
122.8482550543708
 30
0.0
 11
-322.1746908651815
 21
144.8476348052154
 31
0.0
  0
LINE
  5
13B
330
1F
100
AcDbEntity
  8
A-2_蓋
  6
Continuous
 62
     3
370
     9
100
AcDbLine
 10
-321.3740993190456
 20
122.8482550543708
 30
0.0
 11
-251.5745420713682
 21
144.8476348052154
 31
0.0
  0
LINE
  5
13C
330
1F
100
AcDbEntity
  8
A-2_蓋
  6
Continuous
 62
     3
370
     9
100
AcDbLine
 10
-250.7743216849661
 20
122.8482550543708
 30
0.0
 11
-180.9746407173773
 21
144.8476348052154
 31
0.0
  0
LINE
  5
13D
330
1F
100
AcDbEntity
  8
A-2_蓋
  6
Continuous
 62
     3
370
     9
100
AcDbLine
 10
-180.1744203309755
 20
122.8482550543708
 30
0.0
 11
-110.3747393633867
 21
144.8476348052154
 31
0.0
  0
LINE
  5
13E
330
1F
100
AcDbEntity
  8
A-2_蓋
  6
Continuous
 62
     3
370
     9
100
AcDbLine
 10
-109.5745189769846
 20
122.8482550543708
 30
0.0
 11
-39.77508544921875
 21
144.8476348052154
 31
0.0
  0
LINE
  5
13F
330
1F
100
AcDbEntity
  8
A-2_蓋
  6
Continuous
 62
     3
370
     9
100
AcDbLine
 10
-38.97424646326016
 20
122.8482550543708
 30
0.0
 11
30.82555822423984
 21
144.8476348052154
 31
0.0
  0
LINE
  5
140
330
1F
100
AcDbEntity
  8
A-2_蓋
  6
Continuous
 62
     3
370
     9
100
AcDbLine
 10
31.62528373099661
 20
122.8482550543708
 30
0.0
 11
101.4250884184966
 21
144.8476348052154
 31
0.0
  0
LINE
  5
141
330
1F
100
AcDbEntity
  8
A-2_蓋
  6
Continuous
 62
     3
370
     9
100
AcDbLine
 10
102.2253088048987
 20
122.8482550543708
 30
0.0
 11
172.0251134923987
 21
144.8476348052154
 31
0.0
  0
LINE
  5
142
330
1F
100
AcDbEntity
  8
A-2_蓋
  6
Continuous
 62
     3
370
     9
100
AcDbLine
 10
172.8258287584461
 20
122.8482550543708
 30
0.0
 11
242.6253860061234
 21
144.8476348052154
 31
0.0
  0
LINE
  5
143
330
1F
100
AcDbEntity
  8
A-2_蓋
  6
Continuous
 62
     3
370
     9
100
AcDbLine
 10
243.4258538323482
 20
122.8482550543708
 30
0.0
 11
313.2254110800255
 21
144.8476348052154
 31
0.0
  0
LINE
  5
144
330
1F
100
AcDbEntity
  8
A-2_蓋
  6
Continuous
 62
     3
370
     9
100
AcDbLine
 10
314.0251365867823
 20
122.8482550543708
 30
0.0
 11
383.825188714105
 21
144.8476348052154
 31
0.0
  0
LINE
  5
145
330
1F
100
AcDbEntity
  8
A-2_蓋
  6
Continuous
 62
     3
370
     9
100
AcDbLine
 10
384.6251616606844
 20
122.8482550543708
 30
0.0
 11
454.4252137880068
 21
144.8476348052154
 31
0.0
  0
LINE
  5
146
330
1F
100
AcDbEntity
  8
A-2_蓋
  6
Continuous
 62
     3
370
     9
100
AcDbLine
 10
-1535.574918179899
 20
140.6871816274284
 30
0.0
 11
-1522.374251082137
 21
144.8476348052154
 31
0.0
  0
LINE
  5
147
330
1F
100
AcDbEntity
  8
A-4_寸法
  6
Continuous
 62
     7
370
     9
100
AcDbLine
 10
1258.4734942462
 20
-36.15224477407082
 30
0.0
 11
1090.473484348607
 21
-36.15224477407082
 31
0.0
  0
LINE
  5
148
330
1F
100
AcDbEntity
  8
A-4_寸法
  6
Continuous
 62
     7
370
     9
100
AcDbLine
 10
1258.4734942462
 20
-24.15240313555728
 30
0.0
 11
1170.473500844595
 21
-24.15240313555728
 31
0.0
  0
LINE
  5
149
330
1F
100
AcDbEntity
  8
A-4_寸法
  6
Continuous
 62
     7
370
     9
100
AcDbLine
 10
1258.4734942462
 20
-16.15168391047291
 30
0.0
 11
1170.473500844595
 21
-16.15168391047291
 31
0.0
  0
LINE
  5
14A
330
1F
100
AcDbEntity
  8
A-4_寸法
  6
Continuous
 62
     7
370
     9
100
AcDbLine
 10
1258.4734942462
 20
883.8480686497044
 30
0.0
 11
1170.473500844595
 21
883.8480686497044
 31
0.0
  0
LINE
  5
14B
330
1F
100
AcDbEntity
  8
A-4_寸法
  6
Continuous
 62
     7
370
     9
100
AcDbLine
 10
1258.4734942462
 20
891.848045555321
 30
0.0
 11
1170.473500844595
 21
891.848045555321
 31
0.0
  0
LINE
  5
14C
330
1F
100
AcDbEntity
  8
A-4_寸法
  6
Continuous
 62
     7
370
     9
100
AcDbLine
 10
1258.4734942462
 20
903.8478871938346
 30
0.0
 11
1090.473484348607
 21
903.8478871938346
 31
0.0
  0
LINE
  5
14D
330
1F
100
AcDbEntity
  8
A-4_寸法
  6
Continuous
 62
     7
370
     9
100
AcDbLine
 10
1093.473444758235
 20
-36.15224477407082
 30
0.0
 11
1093.473444758235
 21
903.8478871938346
 31
0.0
  0
LINE
  5
14E
330
1F
100
AcDbEntity
  8
A-4_寸法
  6
Continuous
 62
     7
370
     9
100
AcDbLine
 10
1612.149872650971
 20
-36.15224477407082
 30
0.0
 11
1612.149872650971
 21
903.8478871938346
 31
0.0
  0
LINE
  5
14F
330
1F
100
AcDbEntity
  8
A-4_寸法
  6
Continuous
 62
     7
370
     9
100
AcDbLine
 10
1403.149826462205
 20
-36.15224477407082
 30
0.0
 11
1615.1498330606
 21
-36.15224477407082
 31
0.0
  0
LINE
  5
150
330
1F
100
AcDbEntity
  8
A-4_寸法
  6
Continuous
 62
     7
370
     9
100
AcDbLine
 10
1427.150004618877
 20
83.84740881017734
 30
0.0
 11
1615.1498330606
 21
83.84740881017734
 31
0.0
  0
LINE
  5
151
330
1F
100
AcDbEntity
  8
A-4_寸法
  6
Continuous
 62
     7
370
     9
100
AcDbLine
 10
1427.150004618877
 20
783.8482336095863
 30
0.0
 11
1615.1498330606
 21
783.8482336095863
 31
0.0
  0
LINE
  5
152
330
1F
100
AcDbEntity
  8
A-4_寸法
  6
Continuous
 62
     7
370
     9
100
AcDbLine
 10
1403.149826462205
 20
903.8478871938346
 30
0.0
 11
1615.1498330606
 21
903.8478871938346
 31
0.0
  0
LINE
  5
153
330
1F
100
AcDbEntity
  8
A-4_寸法
  6
Continuous
 62
     7
370
     9
100
AcDbLine
 10
1270.150179476352
 20
-177.3525423616977
 30
0.0
 11
1390.151070259713
 21
-177.3525423616977
 31
0.0
  0
LINE
  5
154
330
1F
100
AcDbEntity
  8
A-4_寸法
  6
Continuous
 62
     7
370
     9
100
AcDbLine
 10
1270.150179476352
 20
-51.15229426203541
 30
0.0
 11
1270.150179476352
 21
-260.3526429872254
 31
0.0
  0
LINE
  5
155
330
1F
100
AcDbEntity
  8
A-4_寸法
  6
Continuous
 62
     7
370
     9
100
AcDbLine
 10
1390.151070259713
 20
-31.1517333984375
 30
0.0
 11
1390.151070259713
 21
-180.352502771326
 31
0.0
  0
LINE
  5
156
330
1F
100
AcDbEntity
  8
A-4_寸法
  6
Continuous
 62
     7
370
     9
100
AcDbLine
 10
1270.150179476352
 20
-257.3525588576858
 30
0.0
 11
1402.150417018581
 21
-257.3525588576858
 31
0.0
  0
LINE
  5
157
330
1F
100
AcDbEntity
  8
A-4_寸法
  6
Continuous
 62
     7
370
     9
100
AcDbLine
 10
1402.150417018581
 20
-27.15273470491979
 30
0.0
 11
1402.150417018581
 21
-260.3526429872254
 31
0.0
  0
LINE
  5
158
330
1F
100
AcDbEntity
  8
A-4_寸法
  6
Continuous
 62
     7
370
     9
100
AcDbLine
 10
1173.473461254223
 20
-93.57449093380495
 30
0.0
 11
1173.473461254223
 21
962.5059715477198
 31
0.0
  0
LINE
  5
159
330
1F
100
AcDbEntity
  8
A-4_寸法
  6
Continuous
 62
     7
370
     9
100
AcDbLine
 10
1507.649849556588
 20
952.7464500633448
 30
0.0
 11
1517.216862858953
 21
975.8434728673988
 31
0.0
  0
LINE
  5
15A
330
1F
100
AcDbEntity
  8
A-4_寸法
  6
Continuous
 62
     7
370
     9
100
AcDbLine
 10
1507.649849556588
 20
952.7464500633448
 30
0.0
 11
1522.868883287585
 21
972.5802364864867
 31
0.0
  0
LINE
  5
15B
330
1F
100
AcDbEntity
  8
A-4_寸法
  6
Continuous
 62
     7
370
     9
100
AcDbLine
 10
1270.150179476352
 20
903.8478871938346
 30
0.0
 11
1254.931145745355
 21
923.6816736169766
 31
0.0
  0
LINE
  5
15C
330
1F
100
AcDbEntity
  8
A-4_寸法
  6
Continuous
 62
     7
370
     9
100
AcDbLine
 10
1270.150179476352
 20
903.8478871938346
 30
0.0
 11
1260.583166173986
 21
926.9449099978885
 31
0.0
  0
LINE
  5
15D
330
1F
100
AcDbEntity
  8
A-4_寸法
  6
Continuous
 62
     7
370
     9
100
AcDbLine
 10
-675.1744450749578
 20
834.8478080130915
 30
0.0
 11
-671.9113324139568
 21
859.6338550464529
 31
0.0
  0
LINE
  5
15E
330
1F
100
AcDbEntity
  8
A-4_寸法
  6
Continuous
 62
     7
370
     9
100
AcDbLine
 10
-675.1744450749578
 20
834.8478080130915
 30
0.0
 11
-665.6073080526814
 21
857.9448308171453
 31
0.0
  0
LINE
  5
15F
330
1F
100
AcDbEntity
  8
A-4_寸法
  6
Continuous
 62
     7
370
     9
100
AcDbLine
 10
-801.4718133050042
 20
744.8477585251269
 30
0.0
 11
-791.9046762827279
 21
767.9447813291807
 31
0.0
  0
LINE
  5
160
330
1F
100
AcDbEntity
  8
A-4_寸法
  6
Continuous
 62
     7
370
     9
100
AcDbLine
 10
-859.4666352143157
 20
883.8478212098818
 30
0.0
 11
-856.203522553315
 21
908.6338682432436
 31
0.0
  0
LINE
  5
161
330
1F
100
AcDbEntity
  8
A-4_寸法
  6
Continuous
 62
     7
370
     9
100
AcDbLine
 10
-859.4666352143157
 20
883.8478212098818
 30
0.0
 11
-849.8994981920396
 21
906.944844013936
 31
0.0
  0
LINE
  5
162
330
1F
100
AcDbEntity
  8
A-4_寸法
  6
Continuous
 62
     7
370
     9
100
AcDbLine
 10
-675.1744450749578
 20
834.8478080130915
 30
0.0
 11
-592.0565630938554
 21
1145.047772381757
 31
0.0
  0
LINE
  5
163
330
1F
100
AcDbEntity
  8
A-4_寸法
  6
Continuous
 62
     7
370
     9
100
AcDbLine
 10
-859.4666352143157
 20
883.8478212098818
 30
0.0
 11
-746.6066102723818
 21
1305.047805373733
 31
0.0
  0
LINE
  5
164
330
1F
100
AcDbEntity
  8
A-4_寸法
  6
Continuous
 62
     7
370
     9
100
AcDbLine
 10
-746.6066102723818
 20
1305.047805373733
 30
0.0
 11
-267.9931640625
 21
1305.047805373733
 31
0.0
  0
LINE
  5
165
330
1F
100
AcDbEntity
  8
A-4_寸法
  6
Continuous
 62
     7
370
     9
100
AcDbLine
 10
-672.8024869351773
 20
1225.047788877745
 30
0.0
 11
-295.4466123838682
 21
1225.047788877745
 31
0.0
  0
LINE
  5
166
330
1F
100
AcDbEntity
  8
A-4_寸法
  6
Continuous
 62
     7
370
     9
100
AcDbLine
 10
-592.0565630938554
 20
1145.047772381757
 30
0.0
 11
-86.80139490076016
 21
1145.047772381757
 31
0.0
  0
LINE
  5
167
330
1F
100
AcDbEntity
  8
A-4_寸法
  6
Continuous
 62
     7
370
     9
100
AcDbLine
 10
1507.649849556588
 20
952.7464500633448
 30
0.0
 11
1600.412069784629
 21
1107.458199165963
 31
0.0
  0
LINE
  5
168
330
1F
100
AcDbEntity
  8
A-4_寸法
  6
Continuous
 62
     7
370
     9
100
AcDbLine
 10
1600.412069784629
 20
1107.458199165963
 30
0.0
 11
1853.804304793075
 21
1107.458199165963
 31
0.0
  0
LINE
  5
169
330
1F
100
AcDbEntity
  8
A-3_受枠
  6
Continuous
 62
     4
370
     9
100
AcDbLine
 10
-1327.473820866765
 20
840.8479762721709
 30
0.0
 11
-1378.274206213049
 21
840.8479762721709
 31
0.0
  0
LINE
  5
16A
330
1F
100
AcDbEntity
  8
A-3_受枠
  6
Continuous
 62
     4
370
     9
100
AcDbLine
 10
-1336.673880912162
 20
846.6477182749156
 30
0.0
 11
-1369.073898727829
 21
846.6477182749156
 31
0.0
  0
LINE
  5
16B
330
1F
100
AcDbEntity
  8
A-3_受枠
  6
Continuous
 62
     4
370
     9
100
AcDbLine
 10
-1375.873916213577
 20
846.6477182749156
 30
0.0
 11
-1378.274206213049
 21
846.6477182749156
 31
0.0
  0
LINE
  5
16C
330
1F
100
AcDbEntity
  8
A-3_受枠
  6
Continuous
 62
     4
370
     9
100
AcDbLine
 10
-1329.873863426415
 20
846.6477182749156
 30
0.0
 11
-1327.473820866765
 21
846.6477182749156
 31
0.0
  0
LINE
  5
16D
330
1F
100
AcDbEntity
  8
A-3_受枠
  6
Continuous
 62
     4
370
     9
100
AcDbLine
 10
-1374.873888170397
 20
847.6478700380068
 30
0.0
 11
-1374.873888170397
 21
874.8476925411742
 31
0.0
  0
LINE
  5
16E
330
1F
100
AcDbEntity
  8
A-3_受枠
  6
Continuous
 62
     4
370
     9
100
AcDbLine
 10
-1369.073898727829
 20
843.7477235536318
 30
0.0
 11
-1369.073898727829
 21
874.8476925411742
 31
0.0
  0
LINE
  5
16F
330
1F
100
AcDbEntity
  8
A-3_受枠
  6
Continuous
 62
     4
370
     9
100
AcDbLine
 10
-1336.673880912162
 20
843.7477235536318
 30
0.0
 11
-1336.673880912162
 21
874.8476925411742
 31
0.0
  0
LINE
  5
170
330
1F
100
AcDbEntity
  8
A-3_受枠
  6
Continuous
 62
     4
370
     9
100
AcDbLine
 10
-1330.873767749683
 20
847.6478700380068
 30
0.0
 11
-1330.873767749683
 21
874.8476925411742
 31
0.0
  0
LINE
  5
171
330
1F
100
AcDbEntity
  8
A-3_受枠
  6
Continuous
 62
     4
370
     9
100
AcDbLine
 10
-1370.074050490921
 20
862.847603462838
 30
0.0
 11
-1373.873736407306
 21
862.847603462838
 31
0.0
  0
LINE
  5
172
330
1F
100
AcDbEntity
  8
A-3_受枠
  6
Continuous
 62
     4
370
     9
100
AcDbLine
 10
-1335.674100308805
 20
862.847603462838
 30
0.0
 11
-1331.873672072952
 21
862.847603462838
 31
0.0
  0
LINE
  5
173
330
1F
100
AcDbEntity
  8
A-3_受枠
  6
Continuous
 62
     4
370
     9
100
AcDbLine
 10
-1374.873888170397
 20
883.8475737700592
 30
0.0
 11
-1374.873888170397
 21
888.9658665012669
 31
0.0
  0
LINE
  5
174
330
1F
100
AcDbEntity
  8
A-3_受枠
  6
Continuous
 62
     4
370
     9
100
AcDbLine
 10
-1369.073898727829
 20
883.8475737700592
 30
0.0
 11
-1369.073898727829
 21
888.9658665012669
 31
0.0
  0
LINE
  5
175
330
1F
100
AcDbEntity
  8
A-3_受枠
  6
Continuous
 62
     4
370
     9
100
AcDbLine
 10
-1336.673880912162
 20
883.8475737700592
 30
0.0
 11
-1336.673880912162
 21
888.9658665012669
 31
0.0
  0
LINE
  5
176
330
1F
100
AcDbEntity
  8
A-3_受枠
  6
Continuous
 62
     4
370
     9
100
AcDbLine
 10
-1330.873767749683
 20
883.8475737700592
 30
0.0
 11
-1330.873767749683
 21
888.9658665012669
 31
0.0
  0
LINE
  5
177
330
1F
100
AcDbEntity
  8
A-3_受枠
  6
Continuous
 62
     4
370
     9
100
AcDbLine
 10
295.9271405194258
 20
840.8479762721709
 30
0.0
 11
245.1267551731419
 21
840.8479762721709
 31
0.0
  0
LINE
  5
178
330
1F
100
AcDbEntity
  8
A-3_受枠
  6
Continuous
 62
     4
370
     9
100
AcDbLine
 10
286.7268330342063
 20
846.6477182749156
 30
0.0
 11
254.3270626583617
 21
846.6477182749156
 31
0.0
  0
LINE
  5
179
330
1F
100
AcDbEntity
  8
A-3_受枠
  6
Continuous
 62
     4
370
     9
100
AcDbLine
 10
247.5266740128802
 20
846.6477182749156
 30
0.0
 11
245.1267551731419
 21
846.6477182749156
 31
0.0
  0
LINE
  5
17A
330
1F
100
AcDbEntity
  8
A-3_受枠
  6
Continuous
 62
     4
370
     9
100
AcDbLine
 10
293.5267268000425
 20
846.6477182749156
 30
0.0
 11
295.9271405194258
 21
846.6477182749156
 31
0.0
  0
LINE
  5
17B
330
1F
100
AcDbEntity
  8
A-3_受枠
  6
Continuous
 62
     4
370
     9
100
AcDbLine
 10
248.527073215794
 20
847.6478700380068
 30
0.0
 11
248.527073215794
 21
874.8476925411742
 31
0.0
  0
LINE
  5
17C
330
1F
100
AcDbEntity
  8
A-3_受枠
  6
Continuous
 62
     4
370
     9
100
AcDbLine
 10
254.3270626583617
 20
843.7477235536318
 30
0.0
 11
254.3270626583617
 21
874.8476925411742
 31
0.0
  0
LINE
  5
17D
330
1F
100
AcDbEntity
  8
A-3_受枠
  6
Continuous
 62
     4
370
     9
100
AcDbLine
 10
286.7268330342063
 20
843.7477235536318
 30
0.0
 11
286.7268330342063
 21
874.8476925411742
 31
0.0
  0
LINE
  5
17E
330
1F
100
AcDbEntity
  8
A-3_受枠
  6
Continuous
 62
     4
370
     9
100
AcDbLine
 10
292.5268224767737
 20
847.6478700380068
 30
0.0
 11
292.5268224767737
 21
874.8476925411742
 31
0.0
  0
LINE
  5
17F
330
1F
100
AcDbEntity
  8
A-3_受枠
  6
Continuous
 62
     4
370
     9
100
AcDbLine
 10
253.3269108952703
 20
862.847603462838
 30
0.0
 11
249.5264826594175
 21
862.847603462838
 31
0.0
  0
LINE
  5
180
330
1F
100
AcDbEntity
  8
A-3_受枠
  6
Continuous
 62
     4
370
     9
100
AcDbLine
 10
287.7269847972974
 20
862.847603462838
 30
0.0
 11
291.5266707136826
 21
862.847603462838
 31
0.0
  0
LINE
  5
181
330
1F
100
AcDbEntity
  8
A-3_受枠
  6
Continuous
 62
     4
370
     9
100
AcDbLine
 10
248.527073215794
 20
883.8475737700592
 30
0.0
 11
248.527073215794
 21
888.9658665012669
 31
0.0
  0
LINE
  5
182
330
1F
100
AcDbEntity
  8
A-3_受枠
  6
Continuous
 62
     4
370
     9
100
AcDbLine
 10
254.3270626583617
 20
883.8475737700592
 30
0.0
 11
254.3270626583617
 21
888.9658665012669
 31
0.0
  0
LINE
  5
183
330
1F
100
AcDbEntity
  8
A-3_受枠
  6
Continuous
 62
     4
370
     9
100
AcDbLine
 10
286.7268330342063
 20
883.8475737700592
 30
0.0
 11
286.7268330342063
 21
888.9658665012669
 31
0.0
  0
LINE
  5
184
330
1F
100
AcDbEntity
  8
A-3_受枠
  6
Continuous
 62
     4
370
     9
100
AcDbLine
 10
292.5268224767737
 20
883.8475737700592
 30
0.0
 11
292.5268224767737
 21
888.9658665012669
 31
0.0
  0
LINE
  5
185
330
1F
100
AcDbEntity
  8
A-3_受枠
  6
Continuous
 62
     4
370
     9
100
AcDbLine
 10
-1327.473820866765
 20
26.84778986750445
 30
0.0
 11
-1378.274206213049
 21
26.84778986750445
 31
0.0
  0
LINE
  5
186
330
1F
100
AcDbEntity
  8
A-3_受枠
  6
Continuous
 62
     4
370
     9
100
AcDbLine
 10
-1336.673880912162
 20
21.04804786475938
 30
0.0
 11
-1369.073898727829
 21
21.04804786475938
 31
0.0
  0
LINE
  5
187
330
1F
100
AcDbEntity
  8
A-3_受枠
  6
Continuous
 62
     4
370
     9
100
AcDbLine
 10
-1375.873916213577
 20
21.04804786475938
 30
0.0
 11
-1378.274206213049
 21
21.04804786475938
 31
0.0
  0
LINE
  5
188
330
1F
100
AcDbEntity
  8
A-3_受枠
  6
Continuous
 62
     4
370
     9
100
AcDbLine
 10
-1329.873863426415
 20
21.04804786475938
 30
0.0
 11
-1327.473820866765
 21
21.04804786475938
 31
0.0
  0
LINE
  5
189
330
1F
100
AcDbEntity
  8
A-3_受枠
  6
Continuous
 62
     4
370
     9
100
AcDbLine
 10
-1374.873888170397
 20
20.04789610166824
 30
0.0
 11
-1374.873888170397
 21
-7.15192640149894
 31
0.0
  0
LINE
  5
18A
330
1F
100
AcDbEntity
  8
A-3_受枠
  6
Continuous
 62
     4
370
     9
100
AcDbLine
 10
-1369.073898727829
 20
23.94804258604324
 30
0.0
 11
-1369.073898727829
 21
-7.15192640149894
 31
0.0
  0
LINE
  5
18B
330
1F
100
AcDbEntity
  8
A-3_受枠
  6
Continuous
 62
     4
370
     9
100
AcDbLine
 10
-1336.673880912162
 20
23.94804258604324
 30
0.0
 11
-1336.673880912162
 21
-7.15192640149894
 31
0.0
  0
LINE
  5
18C
330
1F
100
AcDbEntity
  8
A-3_受枠
  6
Continuous
 62
     4
370
     9
100
AcDbLine
 10
-1330.873767749683
 20
20.04789610166824
 30
0.0
 11
-1330.873767749683
 21
-7.15192640149894
 31
0.0
  0
LINE
  5
18D
330
1F
100
AcDbEntity
  8
A-3_受枠
  6
Continuous
 62
     4
370
     9
100
AcDbLine
 10
-1370.074050490921
 20
4.848162676836978
 30
0.0
 11
-1373.873736407306
 21
4.848162676836978
 31
0.0
  0
LINE
  5
18E
330
1F
100
AcDbEntity
  8
A-3_受枠
  6
Continuous
 62
     4
370
     9
100
AcDbLine
 10
-1335.674100308805
 20
4.848162676836978
 30
0.0
 11
-1331.873672072952
 21
4.848162676836978
 31
0.0
  0
LINE
  5
18F
330
1F
100
AcDbEntity
  8
A-3_受枠
  6
Continuous
 62
     4
370
     9
100
AcDbLine
 10
-1374.873888170397
 20
-16.1518076303841
 30
0.0
 11
-1374.873888170397
 21
-21.27010036159191
 31
0.0
  0
LINE
  5
190
330
1F
100
AcDbEntity
  8
A-3_受枠
  6
Continuous
 62
     4
370
     9
100
AcDbLine
 10
-1369.073898727829
 20
-16.1518076303841
 30
0.0
 11
-1369.073898727829
 21
-21.27010036159191
 31
0.0
  0
LINE
  5
191
330
1F
100
AcDbEntity
  8
A-3_受枠
  6
Continuous
 62
     4
370
     9
100
AcDbLine
 10
-1336.673880912162
 20
-16.1518076303841
 30
0.0
 11
-1336.673880912162
 21
-21.27010036159191
 31
0.0
  0
LINE
  5
192
330
1F
100
AcDbEntity
  8
A-3_受枠
  6
Continuous
 62
     4
370
     9
100
AcDbLine
 10
-1330.873767749683
 20
-16.1518076303841
 30
0.0
 11
-1330.873767749683
 21
-21.27010036159191
 31
0.0
  0
LINE
  5
193
330
1F
100
AcDbEntity
  8
A-3_受枠
  6
Continuous
 62
     4
370
     9
100
AcDbLine
 10
295.9271405194258
 20
26.84778986750445
 30
0.0
 11
245.1267551731419
 21
26.84778986750445
 31
0.0
  0
LINE
  5
194
330
1F
100
AcDbEntity
  8
A-3_受枠
  6
Continuous
 62
     4
370
     9
100
AcDbLine
 10
286.7268330342063
 20
21.04804786475938
 30
0.0
 11
254.3270626583617
 21
21.04804786475938
 31
0.0
  0
LINE
  5
195
330
1F
100
AcDbEntity
  8
A-3_受枠
  6
Continuous
 62
     4
370
     9
100
AcDbLine
 10
247.5266740128802
 20
21.04804786475938
 30
0.0
 11
245.1267551731419
 21
21.04804786475938
 31
0.0
  0
LINE
  5
196
330
1F
100
AcDbEntity
  8
A-3_受枠
  6
Continuous
 62
     4
370
     9
100
AcDbLine
 10
293.5267268000425
 20
21.04804786475938
 30
0.0
 11
295.9271405194258
 21
21.04804786475938
 31
0.0
  0
LINE
  5
197
330
1F
100
AcDbEntity
  8
A-3_受枠
  6
Continuous
 62
     4
370
     9
100
AcDbLine
 10
248.527073215794
 20
20.04789610166824
 30
0.0
 11
248.527073215794
 21
-7.15192640149894
 31
0.0
  0
LINE
  5
198
330
1F
100
AcDbEntity
  8
A-3_受枠
  6
Continuous
 62
     4
370
     9
100
AcDbLine
 10
254.3270626583617
 20
23.94804258604324
 30
0.0
 11
254.3270626583617
 21
-7.15192640149894
 31
0.0
  0
LINE
  5
199
330
1F
100
AcDbEntity
  8
A-3_受枠
  6
Continuous
 62
     4
370
     9
100
AcDbLine
 10
286.7268330342063
 20
23.94804258604324
 30
0.0
 11
286.7268330342063
 21
-7.15192640149894
 31
0.0
  0
LINE
  5
19A
330
1F
100
AcDbEntity
  8
A-3_受枠
  6
Continuous
 62
     4
370
     9
100
AcDbLine
 10
292.5268224767737
 20
20.04789610166824
 30
0.0
 11
292.5268224767737
 21
-7.15192640149894
 31
0.0
  0
LINE
  5
19B
330
1F
100
AcDbEntity
  8
A-3_受枠
  6
Continuous
 62
     4
370
     9
100
AcDbLine
 10
253.3269108952703
 20
4.848162676836978
 30
0.0
 11
249.5264826594175
 21
4.848162676836978
 31
0.0
  0
LINE
  5
19C
330
1F
100
AcDbEntity
  8
A-3_受枠
  6
Continuous
 62
     4
370
     9
100
AcDbLine
 10
287.7269847972974
 20
4.848162676836978
 30
0.0
 11
291.5266707136826
 21
4.848162676836978
 31
0.0
  0
LINE
  5
19D
330
1F
100
AcDbEntity
  8
A-3_受枠
  6
Continuous
 62
     4
370
     9
100
AcDbLine
 10
248.527073215794
 20
-16.1518076303841
 30
0.0
 11
248.527073215794
 21
-21.27010036159191
 31
0.0
  0
LINE
  5
19E
330
1F
100
AcDbEntity
  8
A-3_受枠
  6
Continuous
 62
     4
370
     9
100
AcDbLine
 10
254.3270626583617
 20
-16.1518076303841
 30
0.0
 11
254.3270626583617
 21
-21.27010036159191
 31
0.0
  0
LINE
  5
19F
330
1F
100
AcDbEntity
  8
A-3_受枠
  6
Continuous
 62
     4
370
     9
100
AcDbLine
 10
286.7268330342063
 20
-16.1518076303841
 30
0.0
 11
286.7268330342063
 21
-21.27010036159191
 31
0.0
  0
LINE
  5
1A0
330
1F
100
AcDbEntity
  8
A-3_受枠
  6
Continuous
 62
     4
370
     9
100
AcDbLine
 10
292.5268224767737
 20
-16.1518076303841
 30
0.0
 11
292.5268224767737
 21
-21.27010036159191
 31
0.0
  0
LINE
  5
1A1
330
1F
100
AcDbEntity
  8
A-4_寸法
  6
Continuous
 62
     7
370
     9
100
AcDbLine
 10
270.5269478462839
 20
846.6477182749156
 30
0.0
 11
273.7901842271961
 21
871.4337653082771
 31
0.0
  0
LINE
  5
1A2
330
1F
100
AcDbEntity
  8
A-4_寸法
  6
Continuous
 62
     7
370
     9
100
AcDbLine
 10
270.5269478462839
 20
846.6477182749156
 30
0.0
 11
280.0939611486487
 21
869.7447410789698
 31
0.0
  0
LINE
  5
1A3
330
1F
100
AcDbEntity
  8
A-4_寸法
  6
Continuous
 62
     7
370
     9
100
AcDbLine
 10
270.5269478462839
 20
846.6477182749156
 30
0.0
 11
350.482920053843
 21
1145.047772381757
 31
0.0
  0
LINE
  5
1A4
330
1F
100
AcDbEntity
  8
A-4_寸法
  6
Continuous
 62
     7
370
     9
100
AcDbLine
 10
350.482920053843
 20
1145.047772381757
 30
0.0
 11
749.013952306799
 21
1145.047772381757
 31
0.0
  0
LINE
  5
1A5
330
1F
100
AcDbEntity
  8
A-2_蓋
  6
JWW_CENTER1
 62
     3
370
     9
100
AcDbLine
 10
1244.641608160895
 20
433.8476974899706
 30
0.0
 11
1443.274420660895
 21
433.8476974899706
 31
0.0
  0
LINE
  5
1A6
330
1F
100
AcDbEntity
  8
A-1_ピット
  6
Continuous
 62
     2
370
     9
100
AcDbLine
 10
-1554.574956120671
 20
903.847639754012
 30
0.0
 11
-1554.574956120671
 21
-36.15224477407082
 31
0.0
  0
LINE
  5
1A7
330
1F
100
AcDbEntity
  8
A-1_ピット
  6
Continuous
 62
     2
370
     9
100
AcDbLine
 10
-1554.57483240076
 20
903.847639754012
 30
0.0
 11
473.4258703283365
 21
903.847639754012
 31
0.0
  0
LINE
  5
1A8
330
1F
100
AcDbEntity
  8
A-1_ピット
  6
Continuous
 62
     2
370
     9
100
AcDbLine
 10
-1542.574990762247
 20
891.8475506756758
 30
0.0
 11
461.42578125
 21
891.8475506756758
 31
0.0
  0
LINE
  5
1A9
330
1F
100
AcDbEntity
  8
A-1_ピット
  6
Continuous
 62
     2
370
     9
100
AcDbLine
 10
-1554.57483240076
 20
-36.15224477407082
 30
0.0
 11
473.4258703283365
 21
-36.15224477407082
 31
0.0
  0
LINE
  5
1AA
330
1F
100
AcDbEntity
  8
A-1_ピット
  6
Continuous
 62
     2
370
     9
100
AcDbLine
 10
-1542.574990762247
 20
-24.15190825591196
 30
0.0
 11
461.42578125
 21
-24.15190825591196
 31
0.0
  0
LINE
  5
1AB
330
1F
100
AcDbEntity
  8
A-1_ピット
  6
Continuous
 62
     2
370
     9
100
AcDbLine
 10
473.4258703283365
 20
903.847639754012
 30
0.0
 11
473.4258703283365
 21
-36.15224477407082
 31
0.0
  0
LINE
  5
1AC
330
1F
100
AcDbEntity
  8
A-1_ピット
  6
JWW_DASHED3
 62
     2
370
     9
100
AcDbLine
 10
461.42578125
 20
783.8482336095863
 30
0.0
 11
-1542.574990762247
 21
783.8482336095863
 31
0.0
  0
LINE
  5
1AD
330
1F
100
AcDbEntity
  8
A-1_ピット
  6
JWW_DASHED3
 62
     2
370
     9
100
AcDbLine
 10
-1542.574990762247
 20
83.84728509026615
 30
0.0
 11
461.42578125
 21
83.84728509026615
 31
0.0
  0
LINE
  5
1AE
330
1F
100
AcDbEntity
  8
A-4_寸法
  6
Continuous
 62
     7
370
     9
100
AcDbLine
 10
-1554.57483240076
 20
1045.047689901816
 30
0.0
 11
473.4258703283365
 21
1045.047689901816
 31
0.0
  0
LINE
  5
1AF
330
1F
100
AcDbEntity
  8
A-4_寸法
  6
Continuous
 62
     7
370
     9
100
AcDbLine
 10
-1554.57483240076
 20
918.8476892419766
 30
0.0
 11
-1554.57483240076
 21
1048.047650311444
 31
0.0
  0
LINE
  5
1B0
330
1F
100
AcDbEntity
  8
A-4_寸法
  6
Continuous
 62
     7
370
     9
100
AcDbLine
 10
-1054.57479116079
 20
960.0476569098396
 30
0.0
 11
-1054.57479116079
 21
1048.047650311444
 31
0.0
  0
LINE
  5
1B1
330
1F
100
AcDbEntity
  8
A-4_寸法
  6
Continuous
 62
     7
370
     9
100
AcDbLine
 10
-26.57392347181144
 20
960.0476569098396
 30
0.0
 11
-26.57392347181144
 21
1048.047650311444
 31
0.0
  0
LINE
  5
1B2
330
1F
100
AcDbEntity
  8
A-4_寸法
  6
Continuous
 62
     7
370
     9
100
AcDbLine
 10
473.4258703283365
 20
918.8476892419766
 30
0.0
 11
473.4258703283365
 21
1048.047650311444
 31
0.0
  0
LINE
  5
1B3
330
1F
100
AcDbEntity
  8
A-4_寸法
  6
Continuous
 62
     7
370
     9
100
AcDbLine
 10
473.4258703283365
 20
669.265037742821
 30
0.0
 11
536.282018713049
 21
903.847639754012
 31
0.0
  0
LINE
  5
1B4
330
1F
100
AcDbEntity
  8
A-4_寸法
  6
Continuous
 62
     7
370
     9
100
AcDbLine
 10
473.4258703283365
 20
669.265037742821
 30
0.0
 11
476.6891067092484
 21
694.0510847761825
 31
0.0
  0
LINE
  5
1B5
330
1F
100
AcDbEntity
  8
A-4_寸法
  6
Continuous
 62
     7
370
     9
100
AcDbLine
 10
473.4258703283365
 20
669.265037742821
 30
0.0
 11
482.992883630701
 21
692.362060546875
 31
0.0
  0
LINE
  5
1B6
330
1F
100
AcDbEntity
  8
A-4_寸法
  6
Continuous
 62
     7
370
     9
100
AcDbLine
 10
1270.150179476352
 20
903.8478871938346
 30
0.0
 11
1130.893274255701
 21
1145.047772381757
 31
0.0
  0
LINE
  5
1B7
330
1F
100
AcDbEntity
  8
A-4_寸法
  6
Continuous
 62
     7
370
     9
100
AcDbLine
 10
840.0349385029563
 20
1145.047772381757
 30
0.0
 11
1130.893274255701
 21
1145.047772381757
 31
0.0
  0
LINE
  5
1B8
330
1F
100
AcDbEntity
  8
A-3_受枠
  6
Continuous
 62
     4
370
     9
100
AcDbLine
 10
1318.049085462416
 20
-18.38878734691718
 30
0.0
 11
1318.697625237542
 21
-24.15265057537994
 31
0.0
  0
LINE
  5
1B9
330
1F
100
AcDbEntity
  8
A-3_受枠
  6
Continuous
 62
     4
370
     9
100
AcDbLine
 10
1338.111753721495
 20
-21.96775694151171
 30
0.0
 11
1318.697625237542
 21
-24.15265057537994
 31
0.0
  0
LINE
  5
1BA
330
1F
100
AcDbEntity
  8
A-3_受枠
  6
Continuous
 62
     4
370
     9
100
AcDbLine
 10
1337.923699456292
 20
-16.15242622994089
 30
0.0
 11
1318.049085462416
 21
-18.38878734691718
 31
0.0
  0
LINE
  5
1BB
330
1F
100
AcDbEntity
  8
A-3_受枠
  6
Continuous
 62
     4
370
     9
100
AcDbLine
 10
1379.102634739232
 20
-18.1029943517737
 30
0.0
 11
1337.923699456292
 21
-16.15242622994089
 31
0.0
  0
LINE
  5
1BC
330
1F
100
AcDbEntity
  8
A-3_受枠
  6
Continuous
 62
     4
370
     9
100
AcDbLine
 10
1378.828471415752
 20
-23.89630291912994
 30
0.0
 11
1338.111753721495
 21
-21.96775694151171
 31
0.0
  0
LINE
  5
1BD
330
1F
100
AcDbEntity
  8
A-3_受枠
  6
Continuous
 62
     4
370
     9
100
AcDbLine
 10
1385.950284390836
 20
-6.20930439717057
 30
0.0
 11
1385.950284390836
 21
-17.10407978779557
 31
0.0
  0
LINE
  5
1BE
330
1F
100
AcDbEntity
  8
A-3_受枠
  6
Continuous
 62
     4
370
     9
100
AcDbLine
 10
1324.750003299198
 20
21.04767670502554
 30
0.0
 11
1383.05004222973
 21
21.04767670502554
 31
0.0
  0
LINE
  5
1BF
330
1F
100
AcDbEntity
  8
A-3_受枠
  6
Continuous
 62
     4
370
     9
100
AcDbLine
 10
1324.750003299198
 20
26.84741870777032
 30
0.0
 11
1383.05004222973
 21
26.84741870777032
 31
0.0
  0
LINE
  5
1C0
330
1F
100
AcDbEntity
  8
A-3_受枠
  6
Continuous
 62
     4
370
     9
100
AcDbLine
 10
1317.950109533361
 20
9.196051520270316
 30
0.0
 11
1317.950109533361
 21
20.04752494193411
 31
0.0
  0
LINE
  5
1C1
330
1F
100
AcDbEntity
  8
A-3_受枠
  6
Continuous
 62
     4
370
     9
100
AcDbLine
 10
1323.750098975929
 20
9.196051520270316
 30
0.0
 11
1323.750098975929
 21
20.04752494193411
 31
0.0
  0
LINE
  5
1C2
330
1F
100
AcDbEntity
  8
A-3_受枠
  6
Continuous
 62
     4
370
     9
100
AcDbLine
 10
1324.330840239654
 20
8.288194811022151
 30
0.0
 11
1345.041305954392
 21
-1.281787769214304
 31
0.0
  0
LINE
  5
1C3
330
1F
100
AcDbEntity
  8
A-3_受枠
  6
Continuous
 62
     4
370
     9
100
AcDbLine
 10
1378.775519293708
 20
0.5804443359375
 30
0.0
 11
1345.041305954392
 21
-1.281787769214304
 31
0.0
  0
LINE
  5
1C4
330
1F
100
AcDbEntity
  8
A-3_受枠
  6
Continuous
 62
     4
370
     9
100
AcDbLine
 10
1321.897764463683
 20
3.023417704814335
 30
0.0
 11
1343.919166358742
 21
-7.152545001055728
 31
0.0
  0
LINE
  5
1C5
330
1F
100
AcDbEntity
  8
A-3_受枠
  6
Continuous
 62
     4
370
     9
100
AcDbLine
 10
1379.09496410473
 20
-5.210637273015095
 30
0.0
 11
1343.919166358742
 21
-7.152545001055728
 31
0.0
  0
LINE
  5
1C6
330
1F
100
AcDbEntity
  8
A-3_受枠
  6
Continuous
 62
     4
370
     9
100
AcDbLine
 10
1380.150294948269
 20
-17.10407978779557
 30
0.0
 11
1380.150294948269
 21
-6.20930439717057
 31
0.0
  0
LINE
  5
1C7
330
1F
100
AcDbEntity
  8
A-2_蓋
  6
Continuous
 62
     3
370
     9
100
AcDbLine
 10
-1521.574030695735
 20
-7.152545001055728
 30
0.0
 11
-1521.574030695735
 21
122.8482550543708
 31
0.0
  0
LINE
  5
1C8
330
1F
100
AcDbEntity
  8
A-2_蓋
  6
Continuous
 62
     3
370
     9
100
AcDbLine
 10
-1395.173974939295
 20
122.8482550543708
 30
0.0
 11
-1395.173974939295
 21
-7.152545001055728
 31
0.0
  0
LINE
  5
1C9
330
1F
100
AcDbEntity
  8
A-2_蓋
  6
Continuous
 62
     3
370
     9
100
AcDbLine
 10
-1465.774371172931
 20
122.8482550543708
 30
0.0
 11
-1465.774371172931
 21
-7.152545001055728
 31
0.0
  0
LINE
  5
1CA
330
1F
100
AcDbEntity
  8
A-2_蓋
  6
Continuous
 62
     3
370
     9
100
AcDbLine
 10
-1451.774226008235
 20
122.8482550543708
 30
0.0
 11
-1451.774226008235
 21
-7.152545001055728
 31
0.0
  0
LINE
  5
1CB
330
1F
100
AcDbEntity
  8
A-2_蓋
  6
Continuous
 62
     3
370
     9
100
AcDbLine
 10
-1183.3740234375
 20
122.8482550543708
 30
0.0
 11
-1183.3740234375
 21
-7.152545001055728
 31
0.0
  0
LINE
  5
1CC
330
1F
100
AcDbEntity
  8
A-2_蓋
  6
Continuous
 62
     3
370
     9
100
AcDbLine
 10
-1253.974295951225
 20
122.8482550543708
 30
0.0
 11
-1253.974295951225
 21
-7.152545001055728
 31
0.0
  0
LINE
  5
1CD
330
1F
100
AcDbEntity
  8
A-2_蓋
  6
Continuous
 62
     3
370
     9
100
AcDbLine
 10
-1239.974398226351
 20
122.8482550543708
 30
0.0
 11
-1239.974398226351
 21
-7.152545001055728
 31
0.0
  0
LINE
  5
1CE
330
1F
100
AcDbEntity
  8
A-2_蓋
  6
Continuous
 62
     3
370
     9
100
AcDbLine
 10
-1324.573578705659
 20
122.8482550543708
 30
0.0
 11
-1324.573578705659
 21
-7.152545001055728
 31
0.0
  0
LINE
  5
1CF
330
1F
100
AcDbEntity
  8
A-2_蓋
  6
Continuous
 62
     3
370
     9
100
AcDbLine
 10
-1310.573680980785
 20
122.8482550543708
 30
0.0
 11
-1310.573680980785
 21
-7.152545001055728
 31
0.0
  0
LINE
  5
1D0
330
1F
100
AcDbEntity
  8
A-2_蓋
  6
Continuous
 62
     3
370
     9
100
AcDbLine
 10
-1381.17395349451
 20
122.8482550543708
 30
0.0
 11
-1381.17395349451
 21
-7.152545001055728
 31
0.0
  0
LINE
  5
1D1
330
1F
100
AcDbEntity
  8
A-2_蓋
  6
Continuous
 62
     3
370
     9
100
AcDbLine
 10
-971.5738244958825
 20
122.8482550543708
 30
0.0
 11
-971.5738244958825
 21
-7.152545001055728
 31
0.0
  0
LINE
  5
1D2
330
1F
100
AcDbEntity
  8
A-2_蓋
  6
Continuous
 62
     3
370
     9
100
AcDbLine
 10
-957.5740504909206
 20
122.8482550543708
 30
0.0
 11
-957.5740504909206
 21
-7.152545001055728
 31
0.0
  0
LINE
  5
1D3
330
1F
100
AcDbEntity
  8
A-2_蓋
  6
Continuous
 62
     3
370
     9
100
AcDbLine
 10
-1042.174220729519
 20
122.8482550543708
 30
0.0
 11
-1042.174220729519
 21
-7.152545001055728
 31
0.0
  0
LINE
  5
1D4
330
1F
100
AcDbEntity
  8
A-2_蓋
  6
Continuous
 62
     3
370
     9
100
AcDbLine
 10
-1028.174323004645
 20
122.8482550543708
 30
0.0
 11
-1028.174323004645
 21
-7.152545001055728
 31
0.0
  0
LINE
  5
1D5
330
1F
100
AcDbEntity
  8
A-2_蓋
  6
Continuous
 62
     3
370
     9
100
AcDbLine
 10
-1112.773627203864
 20
122.8482550543708
 30
0.0
 11
-1112.773627203864
 21
-7.152545001055728
 31
0.0
  0
LINE
  5
1D6
330
1F
100
AcDbEntity
  8
A-2_蓋
  6
Continuous
 62
     3
370
     9
100
AcDbLine
 10
-1098.773605759079
 20
122.8482550543708
 30
0.0
 11
-1098.773605759079
 21
-7.152545001055728
 31
0.0
  0
LINE
  5
1D7
330
1F
100
AcDbEntity
  8
A-2_蓋
  6
Continuous
 62
     3
370
     9
100
AcDbLine
 10
-1169.374001992715
 20
122.8482550543708
 30
0.0
 11
-1169.374001992715
 21
-7.152545001055728
 31
0.0
  0
LINE
  5
1D8
330
1F
100
AcDbEntity
  8
A-2_蓋
  6
Continuous
 62
     3
370
     9
100
AcDbLine
 10
-689.1744665197425
 20
122.8482550543708
 30
0.0
 11
-689.1744665197425
 21
-7.152545001055728
 31
0.0
  0
LINE
  5
1D9
330
1F
100
AcDbEntity
  8
A-2_蓋
  6
Continuous
 62
     3
370
     9
100
AcDbLine
 10
-675.174568794869
 20
122.8482550543708
 30
0.0
 11
-675.174568794869
 21
-7.152545001055728
 31
0.0
  0
LINE
  5
1DA
330
1F
100
AcDbEntity
  8
A-2_蓋
  6
Continuous
 62
     3
370
     9
100
AcDbLine
 10
-759.7737492741766
 20
122.8482550543708
 30
0.0
 11
-759.7737492741766
 21
-7.152545001055728
 31
0.0
  0
LINE
  5
1DB
330
1F
100
AcDbEntity
  8
A-2_蓋
  6
Continuous
 62
     3
370
     9
100
AcDbLine
 10
-745.7739752692146
 20
122.8482550543708
 30
0.0
 11
-745.7739752692146
 21
-7.152545001055728
 31
0.0
  0
LINE
  5
1DC
330
1F
100
AcDbEntity
  8
A-2_蓋
  6
Continuous
 62
     3
370
     9
100
AcDbLine
 10
-830.3742692277237
 20
122.8482550543708
 30
0.0
 11
-830.3742692277237
 21
-7.152545001055728
 31
0.0
  0
LINE
  5
1DD
330
1F
100
AcDbEntity
  8
A-2_蓋
  6
Continuous
 62
     3
370
     9
100
AcDbLine
 10
-816.3741240630279
 20
122.8482550543708
 30
0.0
 11
-816.3741240630279
 21
-7.152545001055728
 31
0.0
  0
LINE
  5
1DE
330
1F
100
AcDbEntity
  8
A-2_蓋
  6
Continuous
 62
     3
370
     9
100
AcDbLine
 10
-900.9736757020692
 20
122.8482550543708
 30
0.0
 11
-900.9736757020692
 21
-7.152545001055728
 31
0.0
  0
LINE
  5
1DF
330
1F
100
AcDbEntity
  8
A-2_蓋
  6
Continuous
 62
     3
370
     9
100
AcDbLine
 10
-886.9735305373733
 20
122.8482550543708
 30
0.0
 11
-886.9735305373733
 21
-7.152545001055728
 31
0.0
  0
LINE
  5
1E0
330
1F
100
AcDbEntity
  8
A-2_蓋
  6
Continuous
 62
     3
370
     9
100
AcDbLine
 10
-406.7741187843114
 20
122.8482550543708
 30
0.0
 11
-406.7741187843114
 21
-7.152545001055728
 31
0.0
  0
LINE
  5
1E1
330
1F
100
AcDbEntity
  8
A-2_蓋
  6
Continuous
 62
     3
370
     9
100
AcDbLine
 10
-392.7742210594383
 20
122.8482550543708
 30
0.0
 11
-392.7742210594383
 21
-7.152545001055728
 31
0.0
  0
LINE
  5
1E2
330
1F
100
AcDbEntity
  8
A-2_蓋
  6
Continuous
 62
     3
370
     9
100
AcDbLine
 10
-477.3743912980362
 20
122.8482550543708
 30
0.0
 11
-477.3743912980362
 21
-7.152545001055728
 31
0.0
  0
LINE
  5
1E3
330
1F
100
AcDbEntity
  8
A-2_蓋
  6
Continuous
 62
     3
370
     9
100
AcDbLine
 10
-463.374493573163
 20
122.8482550543708
 30
0.0
 11
-463.374493573163
 21
-7.152545001055728
 31
0.0
  0
LINE
  5
1E4
330
1F
100
AcDbEntity
  8
A-2_蓋
  6
Continuous
 62
     3
370
     9
100
AcDbLine
 10
-547.9736740524703
 20
122.8482550543708
 30
0.0
 11
-547.9736740524703
 21
-7.152545001055728
 31
0.0
  0
LINE
  5
1E5
330
1F
100
AcDbEntity
  8
A-2_蓋
  6
Continuous
 62
     3
370
     9
100
AcDbLine
 10
-533.9739000475083
 20
122.8482550543708
 30
0.0
 11
-533.9739000475083
 21
-7.152545001055728
 31
0.0
  0
LINE
  5
1E6
330
1F
100
AcDbEntity
  8
A-2_蓋
  6
Continuous
 62
     3
370
     9
100
AcDbLine
 10
-618.5741940060177
 20
122.8482550543708
 30
0.0
 11
-618.5741940060177
 21
-7.152545001055728
 31
0.0
  0
LINE
  5
1E7
330
1F
100
AcDbEntity
  8
A-2_蓋
  6
Continuous
 62
     3
370
     9
100
AcDbLine
 10
-604.5740488413217
 20
122.8482550543708
 30
0.0
 11
-604.5740488413217
 21
-7.152545001055728
 31
0.0
  0
LINE
  5
1E8
330
1F
100
AcDbEntity
  8
A-2_蓋
  6
Continuous
 62
     3
370
     9
100
AcDbLine
 10
-124.3748845280825
 20
122.8482550543708
 30
0.0
 11
-124.3748845280825
 21
-7.152545001055728
 31
0.0
  0
LINE
  5
1E9
330
1F
100
AcDbEntity
  8
A-2_蓋
  6
Continuous
 62
     3
370
     9
100
AcDbLine
 10
-110.3747393633867
 20
122.8482550543708
 30
0.0
 11
-110.3747393633867
 21
-7.152545001055728
 31
0.0
  0
LINE
  5
1EA
330
1F
100
AcDbEntity
  8
A-2_蓋
  6
Continuous
 62
     3
370
     9
100
AcDbLine
 10
-194.9741672825166
 20
122.8482550543708
 30
0.0
 11
-194.9741672825166
 21
-7.152545001055728
 31
0.0
  0
LINE
  5
1EB
330
1F
100
AcDbEntity
  8
A-2_蓋
  6
Continuous
 62
     3
370
     9
100
AcDbLine
 10
-180.9740221178208
 20
122.8482550543708
 30
0.0
 11
-180.9740221178208
 21
-7.152545001055728
 31
0.0
  0
LINE
  5
1EC
330
1F
100
AcDbEntity
  8
A-2_蓋
  6
Continuous
 62
     3
370
     9
100
AcDbLine
 10
-265.5744397962414
 20
122.8482550543708
 30
0.0
 11
-265.5744397962414
 21
-7.152545001055728
 31
0.0
  0
LINE
  5
1ED
330
1F
100
AcDbEntity
  8
A-2_蓋
  6
Continuous
 62
     3
370
     9
100
AcDbLine
 10
-251.5745420713682
 20
122.8482550543708
 30
0.0
 11
-251.5745420713682
 21
-7.152545001055728
 31
0.0
  0
LINE
  5
1EE
330
1F
100
AcDbEntity
  8
A-2_蓋
  6
Continuous
 62
     3
370
     9
100
AcDbLine
 10
-336.1748360298773
 20
122.8482550543708
 30
0.0
 11
-336.1748360298773
 21
-7.152545001055728
 31
0.0
  0
LINE
  5
1EF
330
1F
100
AcDbEntity
  8
A-2_蓋
  6
Continuous
 62
     3
370
     9
100
AcDbLine
 10
-322.1746908651815
 20
122.8482550543708
 30
0.0
 11
-322.1746908651815
 21
-7.152545001055728
 31
0.0
  0
LINE
  5
1F0
330
1F
100
AcDbEntity
  8
A-2_蓋
  6
Continuous
 62
     3
370
     9
100
AcDbLine
 10
87.42519069362345
 20
122.8482550543708
 30
0.0
 11
87.42519069362345
 21
-7.152545001055728
 31
0.0
  0
LINE
  5
1F1
330
1F
100
AcDbEntity
  8
A-2_蓋
  6
Continuous
 62
     3
370
     9
100
AcDbLine
 10
16.82590793918934
 20
122.8482550543708
 30
0.0
 11
16.82590793918934
 21
-7.152545001055728
 31
0.0
  0
LINE
  5
1F2
330
1F
100
AcDbEntity
  8
A-2_蓋
  6
Continuous
 62
     3
370
     9
100
AcDbLine
 10
30.82555822423984
 20
122.8482550543708
 30
0.0
 11
30.82555822423984
 21
-7.152545001055728
 31
0.0
  0
LINE
  5
1F3
330
1F
100
AcDbEntity
  8
A-2_蓋
  6
Continuous
 62
     3
370
     9
100
AcDbLine
 10
-53.77461201435807
 20
122.8482550543708
 30
0.0
 11
-53.77461201435807
 21
-7.152545001055728
 31
0.0
  0
LINE
  5
1F4
330
1F
100
AcDbEntity
  8
A-2_蓋
  6
Continuous
 62
     3
370
     9
100
AcDbLine
 10
-39.77446684966196
 20
122.8482550543708
 30
0.0
 11
-39.77446684966196
 21
-7.152545001055728
 31
0.0
  0
LINE
  5
1F5
330
1F
100
AcDbEntity
  8
A-2_蓋
  6
Continuous
 62
     3
370
     9
100
AcDbLine
 10
158.0254632073482
 20
122.8482550543708
 30
0.0
 11
158.0254632073482
 21
-7.152545001055728
 31
0.0
  0
LINE
  5
1F6
330
1F
100
AcDbEntity
  8
A-2_蓋
  6
Continuous
 62
     3
370
     9
100
AcDbLine
 10
172.0253609322214
 20
122.8482550543708
 30
0.0
 11
172.0253609322214
 21
-7.152545001055728
 31
0.0
  0
LINE
  5
1F7
330
1F
100
AcDbEntity
  8
A-2_蓋
  6
Continuous
 62
     3
370
     9
100
AcDbLine
 10
101.4250884184966
 20
122.8482550543708
 30
0.0
 11
101.4250884184966
 21
-7.152545001055728
 31
0.0
  0
LINE
  5
1F8
330
1F
100
AcDbEntity
  8
A-2_蓋
  6
Continuous
 62
     3
370
     9
100
AcDbLine
 10
299.2252659153294
 20
122.8482550543708
 30
0.0
 11
299.2252659153294
 21
-7.152545001055728
 31
0.0
  0
LINE
  5
1F9
330
1F
100
AcDbEntity
  8
A-2_蓋
  6
Continuous
 62
     3
370
     9
100
AcDbLine
 10
228.6257357210727
 20
122.8482550543708
 30
0.0
 11
228.6257357210727
 21
-7.152545001055728
 31
0.0
  0
LINE
  5
1FA
330
1F
100
AcDbEntity
  8
A-2_蓋
  6
Continuous
 62
     3
370
     9
100
AcDbLine
 10
242.6258808857688
 20
122.8482550543708
 30
0.0
 11
242.6258808857688
 21
-7.152545001055728
 31
0.0
  0
LINE
  5
1FB
330
1F
100
AcDbEntity
  8
A-2_蓋
  6
Continuous
 62
     3
370
     9
100
AcDbLine
 10
313.2254110800255
 20
122.8482550543708
 30
0.0
 11
313.2254110800255
 21
-7.152545001055728
 31
0.0
  0
LINE
  5
1FC
330
1F
100
AcDbEntity
  8
A-2_蓋
  6
Continuous
 62
     3
370
     9
100
AcDbLine
 10
440.4263058224242
 20
122.8482550543708
 30
0.0
 11
440.4263058224242
 21
-7.152545001055728
 31
0.0
  0
LINE
  5
1FD
330
1F
100
AcDbEntity
  8
A-2_蓋
  6
Continuous
 62
     3
370
     9
100
AcDbLine
 10
383.8259310335727
 20
122.8482550543708
 30
0.0
 11
383.8259310335727
 21
-7.152545001055728
 31
0.0
  0
LINE
  5
1FE
330
1F
100
AcDbEntity
  8
A-2_蓋
  6
Continuous
 62
     3
370
     9
100
AcDbLine
 10
369.8257858688768
 20
122.8482550543708
 30
0.0
 11
369.8257858688768
 21
-7.152545001055728
 31
0.0
  0
LINE
  5
1FF
330
1F
100
AcDbEntity
  8
A-4_寸法
  6
Continuous
 62
     7
370
     9
100
AcDbLine
 10
-399.774169921875
 20
952.5351364548144
 30
0.0
 11
-329.1747634475294
 21
952.5351364548144
 31
0.0
  0
LINE
  5
200
330
1F
100
AcDbEntity
  8
A-4_寸法
  6
Continuous
 62
     7
370
     9
100
AcDbLine
 10
-399.774169921875
 20
952.5351364548144
 30
0.0
 11
-399.774169921875
 21
830.9058441986908
 31
0.0
  0
LINE
  5
201
330
1F
100
AcDbEntity
  8
A-4_寸法
  6
Continuous
 62
     7
370
     9
100
AcDbLine
 10
-329.1747634475294
 20
952.5351364548144
 30
0.0
 11
-329.1747634475294
 21
830.9058441986908
 31
0.0
  0
LINE
  5
202
330
1F
100
AcDbEntity
  8
A-4_寸法
  6
Continuous
 62
     7
370
     9
100
AcDbLine
 10
-1554.574956120671
 20
-290.4054466453758
 30
0.0
 11
473.4258703283365
 21
-290.4054466453758
 31
0.0
  0
LINE
  5
203
330
1F
100
AcDbEntity
  8
A-4_寸法
  6
Continuous
 62
     7
370
     9
100
AcDbLine
 10
-1554.574956120671
 20
-51.15229426203541
 30
0.0
 11
-1554.574956120671
 21
-293.4054070550042
 31
0.0
  0
LINE
  5
204
330
1F
100
AcDbEntity
  8
A-4_寸法
  6
Continuous
 62
     7
370
     9
100
AcDbLine
 10
473.4258703283365
 20
-51.15229426203541
 30
0.0
 11
473.4258703283365
 21
-293.4054070550042
 31
0.0
  0
LINE
  5
205
330
1F
100
AcDbEntity
  8
A-4_寸法
  6
Continuous
 62
     7
370
     9
100
AcDbLine
 10
-1554.574956120671
 20
-185.0000412399703
 30
0.0
 11
-1542.574990762247
 21
-185.0000412399703
 31
0.0
  0
LINE
  5
206
330
1F
100
AcDbEntity
  8
A-4_寸法
  6
Continuous
 62
     7
370
     9
100
AcDbLine
 10
-1554.574956120671
 20
-200.0000907279349
 30
0.0
 11
-1554.574956120671
 21
-188.0000016495987
 31
0.0
  0
LINE
  5
207
330
1F
100
AcDbEntity
  8
A-4_寸法
  6
Continuous
 62
     7
370
     9
100
AcDbLine
 10
-1542.574990762247
 20
-39.15195774387655
 30
0.0
 11
-1542.574990762247
 21
-188.0000016495987
 31
0.0
  0
LINE
  5
208
330
1F
100
AcDbEntity
  8
A-4_寸法
  6
Continuous
 62
     7
370
     9
100
AcDbLine
 10
-1542.574990762247
 20
-185.0000412399703
 30
0.0
 11
-1535.574918179899
 21
-185.0000412399703
 31
0.0
  0
LINE
  5
209
330
1F
100
AcDbEntity
  8
A-4_寸法
  6
Continuous
 62
     7
370
     9
100
AcDbLine
 10
-1535.574918179899
 20
-31.15210455817135
 30
0.0
 11
-1535.574918179899
 21
-188.0000016495987
 31
0.0
  0
LINE
  5
20A
330
1F
100
AcDbEntity
  8
A-4_寸法
  6
Continuous
 62
     7
370
     9
100
AcDbLine
 10
-1609.569075300887
 20
-185.0000412399703
 30
0.0
 11
536.6690145956505
 21
-185.0000412399703
 31
0.0
  0
LINE
  5
20B
330
1F
100
AcDbEntity
  8
A-4_寸法
  6
Continuous
 62
     7
370
     9
100
AcDbLine
 10
454.4257086676521
 20
-31.15210455817135
 30
0.0
 11
454.4257086676521
 21
-188.0000016495987
 31
0.0
  0
LINE
  5
20C
330
1F
100
AcDbEntity
  8
A-4_寸法
  6
Continuous
 62
     7
370
     9
100
AcDbLine
 10
454.4257086676521
 20
-185.0000412399703
 30
0.0
 11
461.42578125
 21
-185.0000412399703
 31
0.0
  0
LINE
  5
20D
330
1F
100
AcDbEntity
  8
A-4_寸法
  6
Continuous
 62
     7
370
     9
100
AcDbLine
 10
461.42578125
 20
-39.15195774387655
 30
0.0
 11
461.42578125
 21
-188.0000016495987
 31
0.0
  0
LINE
  5
20E
330
1F
100
AcDbEntity
  8
A-4_寸法
  6
Continuous
 62
     7
370
     9
100
AcDbLine
 10
461.42578125
 20
-185.0000412399703
 30
0.0
 11
473.4258703283365
 21
-185.0000412399703
 31
0.0
  0
LINE
  5
20F
330
1F
100
AcDbEntity
  8
A-4_寸法
  6
Continuous
 62
     7
370
     9
100
AcDbLine
 10
473.4258703283365
 20
-51.15229426203541
 30
0.0
 11
473.4258703283365
 21
-188.0000016495987
 31
0.0
  0
LINE
  5
210
330
1F
100
AcDbEntity
  8
A-4_寸法
  6
Continuous
 62
     7
370
     9
100
AcDbLine
 10
-801.4718133050042
 20
744.8477585251269
 30
0.0
 11
-798.2087006440033
 21
769.6338055584883
 31
0.0
  0
LINE
  5
211
330
1F
100
AcDbEntity
  8
A-4_寸法
  6
Continuous
 62
     7
370
     9
100
AcDbLine
 10
-801.4718133050042
 20
744.8477585251269
 30
0.0
 11
-672.8024869351773
 21
1225.047788877745
 31
0.0
  0
LINE
  5
212
330
1F
100
AcDbEntity
  8
A-2_蓋
  6
Continuous
 62
     3
370
     9
100
AcDbLine
 10
-1535.574918179899
 20
344.8477997650971
 30
0.0
 11
454.4257086676521
 21
344.8477997650971
 31
0.0
  0
LINE
  5
213
330
1F
100
AcDbEntity
  8
A-2_蓋
  6
Continuous
 62
     3
370
     9
100
AcDbLine
 10
-1535.574918179899
 20
322.8484200142526
 30
0.0
 11
454.4257086676521
 21
322.8484200142526
 31
0.0
  0
LINE
  5
214
330
1F
100
AcDbEntity
  8
A-2_蓋
  6
Continuous
 62
     3
370
     9
100
AcDbLine
 10
-1521.574030695735
 20
322.8484200142526
 30
0.0
 11
-1451.774226008235
 21
344.8477997650971
 31
0.0
  0
LINE
  5
215
330
1F
100
AcDbEntity
  8
A-2_蓋
  6
Continuous
 62
     3
370
     9
100
AcDbLine
 10
-1450.974253061655
 20
322.8484200142526
 30
0.0
 11
-1381.174572094067
 21
344.8477997650971
 31
0.0
  0
LINE
  5
216
330
1F
100
AcDbEntity
  8
A-2_蓋
  6
Continuous
 62
     3
370
     9
100
AcDbLine
 10
-1380.373856828019
 20
322.8484200142526
 30
0.0
 11
-1310.574423300253
 21
344.8477997650971
 31
0.0
  0
LINE
  5
217
330
1F
100
AcDbEntity
  8
A-2_蓋
  6
Continuous
 62
     3
370
     9
100
AcDbLine
 10
-1309.773955474029
 20
322.8484200142526
 30
0.0
 11
-1239.974398226351
 21
344.8477997650971
 31
0.0
  0
LINE
  5
218
330
1F
100
AcDbEntity
  8
A-2_蓋
  6
Continuous
 62
     3
370
     9
100
AcDbLine
 10
-1239.174177839949
 20
322.8484200142526
 30
0.0
 11
-1169.374373152449
 21
344.8477997650971
 31
0.0
  0
LINE
  5
219
330
1F
100
AcDbEntity
  8
A-2_蓋
  6
Continuous
 62
     3
370
     9
100
AcDbLine
 10
-1168.574152766047
 20
322.8484200142526
 30
0.0
 11
-1098.774348078547
 21
344.8477997650971
 31
0.0
  0
LINE
  5
21A
330
1F
100
AcDbEntity
  8
A-2_蓋
  6
Continuous
 62
     3
370
     9
100
AcDbLine
 10
-1097.974003972234
 20
322.8484200142526
 30
0.0
 11
-1028.174323004645
 21
344.8477997650971
 31
0.0
  0
LINE
  5
21B
330
1F
100
AcDbEntity
  8
A-2_蓋
  6
Continuous
 62
     3
370
     9
100
AcDbLine
 10
-1027.374102618243
 20
322.8484200142526
 30
0.0
 11
-957.5742979307432
 21
344.8477997650971
 31
0.0
  0
LINE
  5
21C
330
1F
100
AcDbEntity
  8
A-2_蓋
  6
Continuous
 62
     3
370
     9
100
AcDbLine
 10
-956.7740775443411
 20
322.8484200142526
 30
0.0
 11
-886.9743965767525
 21
344.8477997650971
 31
0.0
  0
LINE
  5
21D
330
1F
100
AcDbEntity
  8
A-2_蓋
  6
Continuous
 62
     3
370
     9
100
AcDbLine
 10
-886.1738050306166
 20
322.8484200142526
 30
0.0
 11
-816.3741240630279
 21
344.8477997650971
 31
0.0
  0
LINE
  5
21E
330
1F
100
AcDbEntity
  8
A-2_蓋
  6
Continuous
 62
     3
370
     9
100
AcDbLine
 10
-815.5739036766258
 20
322.8484200142526
 30
0.0
 11
-745.7744701488596
 21
344.8477997650971
 31
0.0
  0
LINE
  5
21F
330
1F
100
AcDbEntity
  8
A-2_蓋
  6
Continuous
 62
     3
370
     9
100
AcDbLine
 10
-744.9742497624578
 20
322.8484200142526
 30
0.0
 11
-675.174568794869
 21
344.8477997650971
 31
0.0
  0
LINE
  5
220
330
1F
100
AcDbEntity
  8
A-2_蓋
  6
Continuous
 62
     3
370
     9
100
AcDbLine
 10
-674.3741009686443
 20
322.8484200142526
 30
0.0
 11
-604.5744200010557
 21
344.8477997650971
 31
0.0
  0
LINE
  5
221
330
1F
100
AcDbEntity
  8
A-2_蓋
  6
Continuous
 62
     3
370
     9
100
AcDbLine
 10
-603.7741996146536
 20
322.8484200142526
 30
0.0
 11
-533.9743949271536
 21
344.8477997650971
 31
0.0
  0
LINE
  5
222
330
1F
100
AcDbEntity
  8
A-2_蓋
  6
Continuous
 62
     3
370
     9
100
AcDbLine
 10
-533.1741745407516
 20
322.8484200142526
 30
0.0
 11
-463.374493573163
 21
344.8477997650971
 31
0.0
  0
LINE
  5
223
330
1F
100
AcDbEntity
  8
A-2_蓋
  6
Continuous
 62
     3
370
     9
100
AcDbLine
 10
-462.5742731867609
 20
322.8484200142526
 30
0.0
 11
-392.7745922191721
 21
344.8477997650971
 31
0.0
  0
LINE
  5
224
330
1F
100
AcDbEntity
  8
A-2_蓋
  6
Continuous
 62
     3
370
     9
100
AcDbLine
 10
-391.9743718327703
 20
322.8484200142526
 30
0.0
 11
-322.1746908651815
 21
344.8477997650971
 31
0.0
  0
LINE
  5
225
330
1F
100
AcDbEntity
  8
A-2_蓋
  6
Continuous
 62
     3
370
     9
100
AcDbLine
 10
-321.3740993190456
 20
322.8484200142526
 30
0.0
 11
-251.5745420713682
 21
344.8477997650971
 31
0.0
  0
LINE
  5
226
330
1F
100
AcDbEntity
  8
A-2_蓋
  6
Continuous
 62
     3
370
     9
100
AcDbLine
 10
-250.7743216849661
 20
322.8484200142526
 30
0.0
 11
-180.9746407173773
 21
344.8477997650971
 31
0.0
  0
LINE
  5
227
330
1F
100
AcDbEntity
  8
A-2_蓋
  6
Continuous
 62
     3
370
     9
100
AcDbLine
 10
-180.1744203309755
 20
322.8484200142526
 30
0.0
 11
-110.3747393633867
 21
344.8477997650971
 31
0.0
  0
LINE
  5
228
330
1F
100
AcDbEntity
  8
A-2_蓋
  6
Continuous
 62
     3
370
     9
100
AcDbLine
 10
-109.5745189769846
 20
322.8484200142526
 30
0.0
 11
-39.77508544921875
 21
344.8477997650971
 31
0.0
  0
LINE
  5
229
330
1F
100
AcDbEntity
  8
A-2_蓋
  6
Continuous
 62
     3
370
     9
100
AcDbLine
 10
-38.97424646326016
 20
322.8484200142526
 30
0.0
 11
30.82555822423984
 21
344.8477997650971
 31
0.0
  0
LINE
  5
22A
330
1F
100
AcDbEntity
  8
A-2_蓋
  6
Continuous
 62
     3
370
     9
100
AcDbLine
 10
31.62528373099661
 20
322.8484200142526
 30
0.0
 11
101.4250884184966
 21
344.8477997650971
 31
0.0
  0
LINE
  5
22B
330
1F
100
AcDbEntity
  8
A-2_蓋
  6
Continuous
 62
     3
370
     9
100
AcDbLine
 10
102.2253088048987
 20
322.8484200142526
 30
0.0
 11
172.0251134923987
 21
344.8477997650971
 31
0.0
  0
LINE
  5
22C
330
1F
100
AcDbEntity
  8
A-2_蓋
  6
Continuous
 62
     3
370
     9
100
AcDbLine
 10
172.8258287584461
 20
322.8484200142526
 30
0.0
 11
242.6253860061234
 21
344.8477997650971
 31
0.0
  0
LINE
  5
22D
330
1F
100
AcDbEntity
  8
A-2_蓋
  6
Continuous
 62
     3
370
     9
100
AcDbLine
 10
243.4258538323482
 20
322.8484200142526
 30
0.0
 11
313.2254110800255
 21
344.8477997650971
 31
0.0
  0
LINE
  5
22E
330
1F
100
AcDbEntity
  8
A-2_蓋
  6
Continuous
 62
     3
370
     9
100
AcDbLine
 10
314.0251365867823
 20
322.8484200142526
 30
0.0
 11
383.825188714105
 21
344.8477997650971
 31
0.0
  0
LINE
  5
22F
330
1F
100
AcDbEntity
  8
A-2_蓋
  6
Continuous
 62
     3
370
     9
100
AcDbLine
 10
384.6251616606844
 20
322.8484200142526
 30
0.0
 11
454.4252137880068
 21
344.8477997650971
 31
0.0
  0
LINE
  5
230
330
1F
100
AcDbEntity
  8
A-2_蓋
  6
Continuous
 62
     3
370
     9
100
AcDbLine
 10
-1535.574918179899
 20
340.6873465873102
 30
0.0
 11
-1522.374251082137
 21
344.8477997650971
 31
0.0
  0
LINE
  5
231
330
1F
100
AcDbEntity
  8
A-2_蓋
  6
Continuous
 62
     3
370
     9
100
AcDbLine
 10
-1521.574030695735
 20
144.8467687658362
 30
0.0
 11
-1521.574030695735
 21
322.8484200142526
 31
0.0
  0
LINE
  5
232
330
1F
100
AcDbEntity
  8
A-2_蓋
  6
Continuous
 62
     3
370
     9
100
AcDbLine
 10
-1521.574030695735
 20
344.8477997650971
 30
0.0
 11
-1521.574030695735
 21
522.8484612542231
 31
0.0
  0
LINE
  5
233
330
1F
100
AcDbEntity
  8
A-2_蓋
  6
Continuous
 62
     3
370
     9
100
AcDbLine
 10
440.4263058224242
 20
522.8484612542231
 30
0.0
 11
440.4263058224242
 21
344.8477997650971
 31
0.0
  0
LINE
  5
234
330
1F
100
AcDbEntity
  8
A-2_蓋
  6
Continuous
 62
     3
370
     9
100
AcDbLine
 10
440.4263058224242
 20
322.8484200142526
 30
0.0
 11
440.4263058224242
 21
144.8467687658362
 31
0.0
  0
LINE
  5
235
330
1F
100
AcDbEntity
  8
A-2_蓋
  6
Continuous
 62
     3
370
     9
100
AcDbLine
 10
369.8257858688768
 20
522.8484612542231
 30
0.0
 11
369.8257858688768
 21
344.8477997650971
 31
0.0
  0
LINE
  5
236
330
1F
100
AcDbEntity
  8
A-2_蓋
  6
Continuous
 62
     3
370
     9
100
AcDbLine
 10
369.8257858688768
 20
322.8484200142526
 30
0.0
 11
369.8257858688768
 21
144.8467687658362
 31
0.0
  0
LINE
  5
237
330
1F
100
AcDbEntity
  8
A-2_蓋
  6
Continuous
 62
     3
370
     9
100
AcDbLine
 10
383.8259310335727
 20
522.8484612542231
 30
0.0
 11
383.8259310335727
 21
344.8477997650971
 31
0.0
  0
LINE
  5
238
330
1F
100
AcDbEntity
  8
A-2_蓋
  6
Continuous
 62
     3
370
     9
100
AcDbLine
 10
383.8259310335727
 20
322.8484200142526
 30
0.0
 11
383.8259310335727
 21
144.8467687658362
 31
0.0
  0
LINE
  5
239
330
1F
100
AcDbEntity
  8
A-2_蓋
  6
Continuous
 62
     3
370
     9
100
AcDbLine
 10
299.2252659153294
 20
522.8484612542231
 30
0.0
 11
299.2252659153294
 21
344.8477997650971
 31
0.0
  0
LINE
  5
23A
330
1F
100
AcDbEntity
  8
A-2_蓋
  6
Continuous
 62
     3
370
     9
100
AcDbLine
 10
299.2252659153294
 20
322.8484200142526
 30
0.0
 11
299.2252659153294
 21
144.8467687658362
 31
0.0
  0
LINE
  5
23B
330
1F
100
AcDbEntity
  8
A-2_蓋
  6
Continuous
 62
     3
370
     9
100
AcDbLine
 10
313.2254110800255
 20
522.8484612542231
 30
0.0
 11
313.2254110800255
 21
344.8477997650971
 31
0.0
  0
LINE
  5
23C
330
1F
100
AcDbEntity
  8
A-2_蓋
  6
Continuous
 62
     3
370
     9
100
AcDbLine
 10
313.2254110800255
 20
322.8484200142526
 30
0.0
 11
313.2254110800255
 21
144.8467687658362
 31
0.0
  0
LINE
  5
23D
330
1F
100
AcDbEntity
  8
A-2_蓋
  6
Continuous
 62
     3
370
     9
100
AcDbLine
 10
228.6257357210727
 20
522.8484612542231
 30
0.0
 11
228.6257357210727
 21
344.8477997650971
 31
0.0
  0
LINE
  5
23E
330
1F
100
AcDbEntity
  8
A-2_蓋
  6
Continuous
 62
     3
370
     9
100
AcDbLine
 10
228.6257357210727
 20
322.8484200142526
 30
0.0
 11
228.6257357210727
 21
144.8467687658362
 31
0.0
  0
LINE
  5
23F
330
1F
100
AcDbEntity
  8
A-2_蓋
  6
Continuous
 62
     3
370
     9
100
AcDbLine
 10
242.6258808857688
 20
522.8484612542231
 30
0.0
 11
242.6258808857688
 21
344.8477997650971
 31
0.0
  0
LINE
  5
240
330
1F
100
AcDbEntity
  8
A-2_蓋
  6
Continuous
 62
     3
370
     9
100
AcDbLine
 10
242.6258808857688
 20
322.8484200142526
 30
0.0
 11
242.6258808857688
 21
144.8467687658362
 31
0.0
  0
LINE
  5
241
330
1F
100
AcDbEntity
  8
A-2_蓋
  6
Continuous
 62
     3
370
     9
100
AcDbLine
 10
158.0254632073482
 20
522.8484612542231
 30
0.0
 11
158.0254632073482
 21
344.8477997650971
 31
0.0
  0
LINE
  5
242
330
1F
100
AcDbEntity
  8
A-2_蓋
  6
Continuous
 62
     3
370
     9
100
AcDbLine
 10
158.0254632073482
 20
322.8484200142526
 30
0.0
 11
158.0254632073482
 21
144.8467687658362
 31
0.0
  0
LINE
  5
243
330
1F
100
AcDbEntity
  8
A-2_蓋
  6
Continuous
 62
     3
370
     9
100
AcDbLine
 10
172.0253609322214
 20
522.8484612542231
 30
0.0
 11
172.0253609322214
 21
344.8477997650971
 31
0.0
  0
LINE
  5
244
330
1F
100
AcDbEntity
  8
A-2_蓋
  6
Continuous
 62
     3
370
     9
100
AcDbLine
 10
172.0253609322214
 20
322.8484200142526
 30
0.0
 11
172.0253609322214
 21
144.8467687658362
 31
0.0
  0
LINE
  5
245
330
1F
100
AcDbEntity
  8
A-2_蓋
  6
Continuous
 62
     3
370
     9
100
AcDbLine
 10
87.42519069362345
 20
522.8484612542231
 30
0.0
 11
87.42519069362345
 21
344.8477997650971
 31
0.0
  0
LINE
  5
246
330
1F
100
AcDbEntity
  8
A-2_蓋
  6
Continuous
 62
     3
370
     9
100
AcDbLine
 10
87.42519069362345
 20
322.8484200142526
 30
0.0
 11
87.42519069362345
 21
144.8467687658362
 31
0.0
  0
LINE
  5
247
330
1F
100
AcDbEntity
  8
A-2_蓋
  6
Continuous
 62
     3
370
     9
100
AcDbLine
 10
101.4250884184966
 20
522.8484612542231
 30
0.0
 11
101.4250884184966
 21
344.8477997650971
 31
0.0
  0
LINE
  5
248
330
1F
100
AcDbEntity
  8
A-2_蓋
  6
Continuous
 62
     3
370
     9
100
AcDbLine
 10
101.4250884184966
 20
322.8484200142526
 30
0.0
 11
101.4250884184966
 21
144.8467687658362
 31
0.0
  0
LINE
  5
249
330
1F
100
AcDbEntity
  8
A-2_蓋
  6
Continuous
 62
     3
370
     9
100
AcDbLine
 10
16.82590793918934
 20
522.8484612542231
 30
0.0
 11
16.82590793918934
 21
344.8477997650971
 31
0.0
  0
LINE
  5
24A
330
1F
100
AcDbEntity
  8
A-2_蓋
  6
Continuous
 62
     3
370
     9
100
AcDbLine
 10
16.82590793918934
 20
322.8484200142526
 30
0.0
 11
16.82590793918934
 21
144.8467687658362
 31
0.0
  0
LINE
  5
24B
330
1F
100
AcDbEntity
  8
A-2_蓋
  6
Continuous
 62
     3
370
     9
100
AcDbLine
 10
30.82555822423984
 20
522.8484612542231
 30
0.0
 11
30.82555822423984
 21
344.8477997650971
 31
0.0
  0
LINE
  5
24C
330
1F
100
AcDbEntity
  8
A-2_蓋
  6
Continuous
 62
     3
370
     9
100
AcDbLine
 10
30.82555822423984
 20
322.8484200142526
 30
0.0
 11
30.82555822423984
 21
144.8467687658362
 31
0.0
  0
LINE
  5
24D
330
1F
100
AcDbEntity
  8
A-2_蓋
  6
Continuous
 62
     3
370
     9
100
AcDbLine
 10
-53.77461201435807
 20
522.8484612542231
 30
0.0
 11
-53.77461201435807
 21
344.8477997650971
 31
0.0
  0
LINE
  5
24E
330
1F
100
AcDbEntity
  8
A-2_蓋
  6
Continuous
 62
     3
370
     9
100
AcDbLine
 10
-53.77461201435807
 20
322.8484200142526
 30
0.0
 11
-53.77461201435807
 21
144.8467687658362
 31
0.0
  0
LINE
  5
24F
330
1F
100
AcDbEntity
  8
A-2_蓋
  6
Continuous
 62
     3
370
     9
100
AcDbLine
 10
-39.77446684966196
 20
522.8484612542231
 30
0.0
 11
-39.77446684966196
 21
344.8477997650971
 31
0.0
  0
LINE
  5
250
330
1F
100
AcDbEntity
  8
A-2_蓋
  6
Continuous
 62
     3
370
     9
100
AcDbLine
 10
-39.77446684966196
 20
322.8484200142526
 30
0.0
 11
-39.77446684966196
 21
144.8467687658362
 31
0.0
  0
LINE
  5
251
330
1F
100
AcDbEntity
  8
A-2_蓋
  6
Continuous
 62
     3
370
     9
100
AcDbLine
 10
-124.3748845280825
 20
522.8484612542231
 30
0.0
 11
-124.3748845280825
 21
344.8477997650971
 31
0.0
  0
LINE
  5
252
330
1F
100
AcDbEntity
  8
A-2_蓋
  6
Continuous
 62
     3
370
     9
100
AcDbLine
 10
-124.3748845280825
 20
322.8484200142526
 30
0.0
 11
-124.3748845280825
 21
144.8467687658362
 31
0.0
  0
LINE
  5
253
330
1F
100
AcDbEntity
  8
A-2_蓋
  6
Continuous
 62
     3
370
     9
100
AcDbLine
 10
-110.3747393633867
 20
522.8484612542231
 30
0.0
 11
-110.3747393633867
 21
344.8477997650971
 31
0.0
  0
LINE
  5
254
330
1F
100
AcDbEntity
  8
A-2_蓋
  6
Continuous
 62
     3
370
     9
100
AcDbLine
 10
-110.3747393633867
 20
322.8484200142526
 30
0.0
 11
-110.3747393633867
 21
144.8467687658362
 31
0.0
  0
LINE
  5
255
330
1F
100
AcDbEntity
  8
A-2_蓋
  6
Continuous
 62
     3
370
     9
100
AcDbLine
 10
-194.9741672825166
 20
522.8484612542231
 30
0.0
 11
-194.9741672825166
 21
344.8477997650971
 31
0.0
  0
LINE
  5
256
330
1F
100
AcDbEntity
  8
A-2_蓋
  6
Continuous
 62
     3
370
     9
100
AcDbLine
 10
-194.9741672825166
 20
322.8484200142526
 30
0.0
 11
-194.9741672825166
 21
144.8467687658362
 31
0.0
  0
LINE
  5
257
330
1F
100
AcDbEntity
  8
A-2_蓋
  6
Continuous
 62
     3
370
     9
100
AcDbLine
 10
-180.9740221178208
 20
522.8484612542231
 30
0.0
 11
-180.9740221178208
 21
344.8477997650971
 31
0.0
  0
LINE
  5
258
330
1F
100
AcDbEntity
  8
A-2_蓋
  6
Continuous
 62
     3
370
     9
100
AcDbLine
 10
-180.9740221178208
 20
322.8484200142526
 30
0.0
 11
-180.9740221178208
 21
144.8467687658362
 31
0.0
  0
LINE
  5
259
330
1F
100
AcDbEntity
  8
A-2_蓋
  6
Continuous
 62
     3
370
     9
100
AcDbLine
 10
-265.5744397962414
 20
522.8484612542231
 30
0.0
 11
-265.5744397962414
 21
344.8477997650971
 31
0.0
  0
LINE
  5
25A
330
1F
100
AcDbEntity
  8
A-2_蓋
  6
Continuous
 62
     3
370
     9
100
AcDbLine
 10
-265.5744397962414
 20
322.8484200142526
 30
0.0
 11
-265.5744397962414
 21
144.8467687658362
 31
0.0
  0
LINE
  5
25B
330
1F
100
AcDbEntity
  8
A-2_蓋
  6
Continuous
 62
     3
370
     9
100
AcDbLine
 10
-251.5745420713682
 20
522.8484612542231
 30
0.0
 11
-251.5745420713682
 21
344.8477997650971
 31
0.0
  0
LINE
  5
25C
330
1F
100
AcDbEntity
  8
A-2_蓋
  6
Continuous
 62
     3
370
     9
100
AcDbLine
 10
-251.5745420713682
 20
322.8484200142526
 30
0.0
 11
-251.5745420713682
 21
144.8467687658362
 31
0.0
  0
LINE
  5
25D
330
1F
100
AcDbEntity
  8
A-2_蓋
  6
Continuous
 62
     3
370
     9
100
AcDbLine
 10
-336.1748360298773
 20
522.8484612542231
 30
0.0
 11
-336.1748360298773
 21
344.8477997650971
 31
0.0
  0
LINE
  5
25E
330
1F
100
AcDbEntity
  8
A-2_蓋
  6
Continuous
 62
     3
370
     9
100
AcDbLine
 10
-336.1748360298773
 20
322.8484200142526
 30
0.0
 11
-336.1748360298773
 21
144.8467687658362
 31
0.0
  0
LINE
  5
25F
330
1F
100
AcDbEntity
  8
A-2_蓋
  6
Continuous
 62
     3
370
     9
100
AcDbLine
 10
-322.1746908651815
 20
522.8484612542231
 30
0.0
 11
-322.1746908651815
 21
344.8477997650971
 31
0.0
  0
LINE
  5
260
330
1F
100
AcDbEntity
  8
A-2_蓋
  6
Continuous
 62
     3
370
     9
100
AcDbLine
 10
-322.1746908651815
 20
322.8484200142526
 30
0.0
 11
-322.1746908651815
 21
144.8467687658362
 31
0.0
  0
LINE
  5
261
330
1F
100
AcDbEntity
  8
A-2_蓋
  6
Continuous
 62
     3
370
     9
100
AcDbLine
 10
-406.7741187843114
 20
522.8484612542231
 30
0.0
 11
-406.7741187843114
 21
344.8477997650971
 31
0.0
  0
LINE
  5
262
330
1F
100
AcDbEntity
  8
A-2_蓋
  6
Continuous
 62
     3
370
     9
100
AcDbLine
 10
-406.7741187843114
 20
322.8484200142526
 30
0.0
 11
-406.7741187843114
 21
144.8467687658362
 31
0.0
  0
LINE
  5
263
330
1F
100
AcDbEntity
  8
A-2_蓋
  6
Continuous
 62
     3
370
     9
100
AcDbLine
 10
-392.7742210594383
 20
522.8484612542231
 30
0.0
 11
-392.7742210594383
 21
344.8477997650971
 31
0.0
  0
LINE
  5
264
330
1F
100
AcDbEntity
  8
A-2_蓋
  6
Continuous
 62
     3
370
     9
100
AcDbLine
 10
-392.7742210594383
 20
322.8484200142526
 30
0.0
 11
-392.7742210594383
 21
144.8467687658362
 31
0.0
  0
LINE
  5
265
330
1F
100
AcDbEntity
  8
A-2_蓋
  6
Continuous
 62
     3
370
     9
100
AcDbLine
 10
-477.3743912980362
 20
522.8484612542231
 30
0.0
 11
-477.3743912980362
 21
344.8477997650971
 31
0.0
  0
LINE
  5
266
330
1F
100
AcDbEntity
  8
A-2_蓋
  6
Continuous
 62
     3
370
     9
100
AcDbLine
 10
-477.3743912980362
 20
322.8484200142526
 30
0.0
 11
-477.3743912980362
 21
144.8467687658362
 31
0.0
  0
LINE
  5
267
330
1F
100
AcDbEntity
  8
A-2_蓋
  6
Continuous
 62
     3
370
     9
100
AcDbLine
 10
-463.374493573163
 20
522.8484612542231
 30
0.0
 11
-463.374493573163
 21
344.8477997650971
 31
0.0
  0
LINE
  5
268
330
1F
100
AcDbEntity
  8
A-2_蓋
  6
Continuous
 62
     3
370
     9
100
AcDbLine
 10
-463.374493573163
 20
322.8484200142526
 30
0.0
 11
-463.374493573163
 21
144.8467687658362
 31
0.0
  0
LINE
  5
269
330
1F
100
AcDbEntity
  8
A-2_蓋
  6
Continuous
 62
     3
370
     9
100
AcDbLine
 10
-547.9736740524703
 20
522.8484612542231
 30
0.0
 11
-547.9736740524703
 21
344.8477997650971
 31
0.0
  0
LINE
  5
26A
330
1F
100
AcDbEntity
  8
A-2_蓋
  6
Continuous
 62
     3
370
     9
100
AcDbLine
 10
-547.9736740524703
 20
322.8484200142526
 30
0.0
 11
-547.9736740524703
 21
144.8467687658362
 31
0.0
  0
LINE
  5
26B
330
1F
100
AcDbEntity
  8
A-2_蓋
  6
Continuous
 62
     3
370
     9
100
AcDbLine
 10
-533.9739000475083
 20
522.8484612542231
 30
0.0
 11
-533.9739000475083
 21
344.8477997650971
 31
0.0
  0
LINE
  5
26C
330
1F
100
AcDbEntity
  8
A-2_蓋
  6
Continuous
 62
     3
370
     9
100
AcDbLine
 10
-533.9739000475083
 20
322.8484200142526
 30
0.0
 11
-533.9739000475083
 21
144.8467687658362
 31
0.0
  0
LINE
  5
26D
330
1F
100
AcDbEntity
  8
A-2_蓋
  6
Continuous
 62
     3
370
     9
100
AcDbLine
 10
-618.5741940060177
 20
522.8484612542231
 30
0.0
 11
-618.5741940060177
 21
344.8477997650971
 31
0.0
  0
LINE
  5
26E
330
1F
100
AcDbEntity
  8
A-2_蓋
  6
Continuous
 62
     3
370
     9
100
AcDbLine
 10
-618.5741940060177
 20
322.8484200142526
 30
0.0
 11
-618.5741940060177
 21
144.8467687658362
 31
0.0
  0
LINE
  5
26F
330
1F
100
AcDbEntity
  8
A-2_蓋
  6
Continuous
 62
     3
370
     9
100
AcDbLine
 10
-604.5740488413217
 20
522.8484612542231
 30
0.0
 11
-604.5740488413217
 21
344.8477997650971
 31
0.0
  0
LINE
  5
270
330
1F
100
AcDbEntity
  8
A-2_蓋
  6
Continuous
 62
     3
370
     9
100
AcDbLine
 10
-604.5740488413217
 20
322.8484200142526
 30
0.0
 11
-604.5740488413217
 21
144.8467687658362
 31
0.0
  0
LINE
  5
271
330
1F
100
AcDbEntity
  8
A-2_蓋
  6
Continuous
 62
     3
370
     9
100
AcDbLine
 10
-689.1744665197425
 20
522.8484612542231
 30
0.0
 11
-689.1744665197425
 21
344.8477997650971
 31
0.0
  0
LINE
  5
272
330
1F
100
AcDbEntity
  8
A-2_蓋
  6
Continuous
 62
     3
370
     9
100
AcDbLine
 10
-689.1744665197425
 20
322.8484200142526
 30
0.0
 11
-689.1744665197425
 21
144.8467687658362
 31
0.0
  0
LINE
  5
273
330
1F
100
AcDbEntity
  8
A-2_蓋
  6
Continuous
 62
     3
370
     9
100
AcDbLine
 10
-675.174568794869
 20
522.8484612542231
 30
0.0
 11
-675.174568794869
 21
344.8477997650971
 31
0.0
  0
LINE
  5
274
330
1F
100
AcDbEntity
  8
A-2_蓋
  6
Continuous
 62
     3
370
     9
100
AcDbLine
 10
-675.174568794869
 20
322.8484200142526
 30
0.0
 11
-675.174568794869
 21
144.8467687658362
 31
0.0
  0
LINE
  5
275
330
1F
100
AcDbEntity
  8
A-2_蓋
  6
Continuous
 62
     3
370
     9
100
AcDbLine
 10
-759.7737492741766
 20
522.8484612542231
 30
0.0
 11
-759.7737492741766
 21
344.8477997650971
 31
0.0
  0
LINE
  5
276
330
1F
100
AcDbEntity
  8
A-2_蓋
  6
Continuous
 62
     3
370
     9
100
AcDbLine
 10
-759.7737492741766
 20
322.8484200142526
 30
0.0
 11
-759.7737492741766
 21
144.8467687658362
 31
0.0
  0
LINE
  5
277
330
1F
100
AcDbEntity
  8
A-2_蓋
  6
Continuous
 62
     3
370
     9
100
AcDbLine
 10
-745.7739752692146
 20
522.8484612542231
 30
0.0
 11
-745.7739752692146
 21
344.8477997650971
 31
0.0
  0
LINE
  5
278
330
1F
100
AcDbEntity
  8
A-2_蓋
  6
Continuous
 62
     3
370
     9
100
AcDbLine
 10
-745.7739752692146
 20
322.8484200142526
 30
0.0
 11
-745.7739752692146
 21
144.8467687658362
 31
0.0
  0
LINE
  5
279
330
1F
100
AcDbEntity
  8
A-2_蓋
  6
Continuous
 62
     3
370
     9
100
AcDbLine
 10
-830.3742692277237
 20
522.8484612542231
 30
0.0
 11
-830.3742692277237
 21
344.8477997650971
 31
0.0
  0
LINE
  5
27A
330
1F
100
AcDbEntity
  8
A-2_蓋
  6
Continuous
 62
     3
370
     9
100
AcDbLine
 10
-830.3742692277237
 20
322.8484200142526
 30
0.0
 11
-830.3742692277237
 21
144.8467687658362
 31
0.0
  0
LINE
  5
27B
330
1F
100
AcDbEntity
  8
A-2_蓋
  6
Continuous
 62
     3
370
     9
100
AcDbLine
 10
-816.3741240630279
 20
522.8484612542231
 30
0.0
 11
-816.3741240630279
 21
344.8477997650971
 31
0.0
  0
LINE
  5
27C
330
1F
100
AcDbEntity
  8
A-2_蓋
  6
Continuous
 62
     3
370
     9
100
AcDbLine
 10
-816.3741240630279
 20
322.8484200142526
 30
0.0
 11
-816.3741240630279
 21
144.8467687658362
 31
0.0
  0
LINE
  5
27D
330
1F
100
AcDbEntity
  8
A-2_蓋
  6
Continuous
 62
     3
370
     9
100
AcDbLine
 10
-900.9736757020692
 20
522.8484612542231
 30
0.0
 11
-900.9736757020692
 21
344.8477997650971
 31
0.0
  0
LINE
  5
27E
330
1F
100
AcDbEntity
  8
A-2_蓋
  6
Continuous
 62
     3
370
     9
100
AcDbLine
 10
-900.9736757020692
 20
322.8484200142526
 30
0.0
 11
-900.9736757020692
 21
144.8467687658362
 31
0.0
  0
LINE
  5
27F
330
1F
100
AcDbEntity
  8
A-2_蓋
  6
Continuous
 62
     3
370
     9
100
AcDbLine
 10
-886.9735305373733
 20
522.8484612542231
 30
0.0
 11
-886.9735305373733
 21
344.8477997650971
 31
0.0
  0
LINE
  5
280
330
1F
100
AcDbEntity
  8
A-2_蓋
  6
Continuous
 62
     3
370
     9
100
AcDbLine
 10
-886.9735305373733
 20
322.8484200142526
 30
0.0
 11
-886.9735305373733
 21
144.8467687658362
 31
0.0
  0
LINE
  5
281
330
1F
100
AcDbEntity
  8
A-2_蓋
  6
Continuous
 62
     3
370
     9
100
AcDbLine
 10
-971.5738244958825
 20
522.8484612542231
 30
0.0
 11
-971.5738244958825
 21
344.8477997650971
 31
0.0
  0
LINE
  5
282
330
1F
100
AcDbEntity
  8
A-2_蓋
  6
Continuous
 62
     3
370
     9
100
AcDbLine
 10
-971.5738244958825
 20
322.8484200142526
 30
0.0
 11
-971.5738244958825
 21
144.8467687658362
 31
0.0
  0
LINE
  5
283
330
1F
100
AcDbEntity
  8
A-2_蓋
  6
Continuous
 62
     3
370
     9
100
AcDbLine
 10
-957.5740504909206
 20
522.8484612542231
 30
0.0
 11
-957.5740504909206
 21
344.8477997650971
 31
0.0
  0
LINE
  5
284
330
1F
100
AcDbEntity
  8
A-2_蓋
  6
Continuous
 62
     3
370
     9
100
AcDbLine
 10
-957.5740504909206
 20
322.8484200142526
 30
0.0
 11
-957.5740504909206
 21
144.8467687658362
 31
0.0
  0
LINE
  5
285
330
1F
100
AcDbEntity
  8
A-2_蓋
  6
Continuous
 62
     3
370
     9
100
AcDbLine
 10
-1042.174220729519
 20
522.8484612542231
 30
0.0
 11
-1042.174220729519
 21
344.8477997650971
 31
0.0
  0
LINE
  5
286
330
1F
100
AcDbEntity
  8
A-2_蓋
  6
Continuous
 62
     3
370
     9
100
AcDbLine
 10
-1042.174220729519
 20
322.8484200142526
 30
0.0
 11
-1042.174220729519
 21
144.8467687658362
 31
0.0
  0
LINE
  5
287
330
1F
100
AcDbEntity
  8
A-2_蓋
  6
Continuous
 62
     3
370
     9
100
AcDbLine
 10
-1028.174323004645
 20
522.8484612542231
 30
0.0
 11
-1028.174323004645
 21
344.8477997650971
 31
0.0
  0
LINE
  5
288
330
1F
100
AcDbEntity
  8
A-2_蓋
  6
Continuous
 62
     3
370
     9
100
AcDbLine
 10
-1028.174323004645
 20
322.8484200142526
 30
0.0
 11
-1028.174323004645
 21
144.8467687658362
 31
0.0
  0
LINE
  5
289
330
1F
100
AcDbEntity
  8
A-2_蓋
  6
Continuous
 62
     3
370
     9
100
AcDbLine
 10
-1112.773627203864
 20
522.8484612542231
 30
0.0
 11
-1112.773627203864
 21
344.8477997650971
 31
0.0
  0
LINE
  5
28A
330
1F
100
AcDbEntity
  8
A-2_蓋
  6
Continuous
 62
     3
370
     9
100
AcDbLine
 10
-1112.773627203864
 20
322.8484200142526
 30
0.0
 11
-1112.773627203864
 21
144.8467687658362
 31
0.0
  0
LINE
  5
28B
330
1F
100
AcDbEntity
  8
A-2_蓋
  6
Continuous
 62
     3
370
     9
100
AcDbLine
 10
-1098.773605759079
 20
522.8484612542231
 30
0.0
 11
-1098.773605759079
 21
344.8477997650971
 31
0.0
  0
LINE
  5
28C
330
1F
100
AcDbEntity
  8
A-2_蓋
  6
Continuous
 62
     3
370
     9
100
AcDbLine
 10
-1098.773605759079
 20
322.8484200142526
 30
0.0
 11
-1098.773605759079
 21
144.8467687658362
 31
0.0
  0
LINE
  5
28D
330
1F
100
AcDbEntity
  8
A-2_蓋
  6
Continuous
 62
     3
370
     9
100
AcDbLine
 10
-1183.3740234375
 20
522.8484612542231
 30
0.0
 11
-1183.3740234375
 21
344.8477997650971
 31
0.0
  0
LINE
  5
28E
330
1F
100
AcDbEntity
  8
A-2_蓋
  6
Continuous
 62
     3
370
     9
100
AcDbLine
 10
-1183.3740234375
 20
322.8484200142526
 30
0.0
 11
-1183.3740234375
 21
144.8467687658362
 31
0.0
  0
LINE
  5
28F
330
1F
100
AcDbEntity
  8
A-2_蓋
  6
Continuous
 62
     3
370
     9
100
AcDbLine
 10
-1169.374001992715
 20
522.8484612542231
 30
0.0
 11
-1169.374001992715
 21
344.8477997650971
 31
0.0
  0
LINE
  5
290
330
1F
100
AcDbEntity
  8
A-2_蓋
  6
Continuous
 62
     3
370
     9
100
AcDbLine
 10
-1169.374001992715
 20
322.8484200142526
 30
0.0
 11
-1169.374001992715
 21
144.8467687658362
 31
0.0
  0
LINE
  5
291
330
1F
100
AcDbEntity
  8
A-2_蓋
  6
Continuous
 62
     3
370
     9
100
AcDbLine
 10
-1253.974295951225
 20
522.8484612542231
 30
0.0
 11
-1253.974295951225
 21
344.8477997650971
 31
0.0
  0
LINE
  5
292
330
1F
100
AcDbEntity
  8
A-2_蓋
  6
Continuous
 62
     3
370
     9
100
AcDbLine
 10
-1253.974295951225
 20
322.8484200142526
 30
0.0
 11
-1253.974295951225
 21
144.8467687658362
 31
0.0
  0
LINE
  5
293
330
1F
100
AcDbEntity
  8
A-2_蓋
  6
Continuous
 62
     3
370
     9
100
AcDbLine
 10
-1239.974398226351
 20
522.8484612542231
 30
0.0
 11
-1239.974398226351
 21
344.8477997650971
 31
0.0
  0
LINE
  5
294
330
1F
100
AcDbEntity
  8
A-2_蓋
  6
Continuous
 62
     3
370
     9
100
AcDbLine
 10
-1239.974398226351
 20
322.8484200142526
 30
0.0
 11
-1239.974398226351
 21
144.8467687658362
 31
0.0
  0
LINE
  5
295
330
1F
100
AcDbEntity
  8
A-2_蓋
  6
Continuous
 62
     3
370
     9
100
AcDbLine
 10
-1324.573578705659
 20
522.8484612542231
 30
0.0
 11
-1324.573578705659
 21
344.8477997650971
 31
0.0
  0
LINE
  5
296
330
1F
100
AcDbEntity
  8
A-2_蓋
  6
Continuous
 62
     3
370
     9
100
AcDbLine
 10
-1324.573578705659
 20
322.8484200142526
 30
0.0
 11
-1324.573578705659
 21
144.8467687658362
 31
0.0
  0
LINE
  5
297
330
1F
100
AcDbEntity
  8
A-2_蓋
  6
Continuous
 62
     3
370
     9
100
AcDbLine
 10
-1310.573680980785
 20
522.8484612542231
 30
0.0
 11
-1310.573680980785
 21
344.8477997650971
 31
0.0
  0
LINE
  5
298
330
1F
100
AcDbEntity
  8
A-2_蓋
  6
Continuous
 62
     3
370
     9
100
AcDbLine
 10
-1310.573680980785
 20
322.8484200142526
 30
0.0
 11
-1310.573680980785
 21
144.8467687658362
 31
0.0
  0
LINE
  5
299
330
1F
100
AcDbEntity
  8
A-2_蓋
  6
Continuous
 62
     3
370
     9
100
AcDbLine
 10
-1395.173974939295
 20
522.8484612542231
 30
0.0
 11
-1395.173974939295
 21
344.8477997650971
 31
0.0
  0
LINE
  5
29A
330
1F
100
AcDbEntity
  8
A-2_蓋
  6
Continuous
 62
     3
370
     9
100
AcDbLine
 10
-1395.173974939295
 20
322.8484200142526
 30
0.0
 11
-1395.173974939295
 21
144.8467687658362
 31
0.0
  0
LINE
  5
29B
330
1F
100
AcDbEntity
  8
A-2_蓋
  6
Continuous
 62
     3
370
     9
100
AcDbLine
 10
-1381.17395349451
 20
522.8484612542231
 30
0.0
 11
-1381.17395349451
 21
344.8477997650971
 31
0.0
  0
LINE
  5
29C
330
1F
100
AcDbEntity
  8
A-2_蓋
  6
Continuous
 62
     3
370
     9
100
AcDbLine
 10
-1381.17395349451
 20
322.8484200142526
 30
0.0
 11
-1381.17395349451
 21
144.8467687658362
 31
0.0
  0
LINE
  5
29D
330
1F
100
AcDbEntity
  8
A-2_蓋
  6
Continuous
 62
     3
370
     9
100
AcDbLine
 10
-1465.774371172931
 20
522.8484612542231
 30
0.0
 11
-1465.774371172931
 21
344.8477997650971
 31
0.0
  0
LINE
  5
29E
330
1F
100
AcDbEntity
  8
A-2_蓋
  6
Continuous
 62
     3
370
     9
100
AcDbLine
 10
-1465.774371172931
 20
322.8484200142526
 30
0.0
 11
-1465.774371172931
 21
144.8467687658362
 31
0.0
  0
LINE
  5
29F
330
1F
100
AcDbEntity
  8
A-2_蓋
  6
Continuous
 62
     3
370
     9
100
AcDbLine
 10
-1451.774226008235
 20
522.8484612542231
 30
0.0
 11
-1451.774226008235
 21
344.8477997650971
 31
0.0
  0
LINE
  5
2A0
330
1F
100
AcDbEntity
  8
A-2_蓋
  6
Continuous
 62
     3
370
     9
100
AcDbLine
 10
-1451.774226008235
 20
322.8484200142526
 30
0.0
 11
-1451.774226008235
 21
144.8467687658362
 31
0.0
  0
LINE
  5
2A1
330
1F
100
AcDbEntity
  8
A-3_受枠
  6
Continuous
 62
     4
370
     9
100
AcDbLine
 10
1318.049085462416
 20
886.0841823268584
 30
0.0
 11
1318.697625237542
 21
891.848045555321
 31
0.0
  0
LINE
  5
2A2
330
1F
100
AcDbEntity
  8
A-3_受枠
  6
Continuous
 62
     4
370
     9
100
AcDbLine
 10
1338.111753721495
 20
889.6631519214529
 30
0.0
 11
1318.697625237542
 21
891.848045555321
 31
0.0
  0
LINE
  5
2A3
330
1F
100
AcDbEntity
  8
A-3_受枠
  6
Continuous
 62
     4
370
     9
100
AcDbLine
 10
1337.923699456292
 20
883.8478212098818
 30
0.0
 11
1318.049085462416
 21
886.0841823268584
 31
0.0
  0
LINE
  5
2A4
330
1F
100
AcDbEntity
  8
A-3_受枠
  6
Continuous
 62
     4
370
     9
100
AcDbLine
 10
1379.102634739232
 20
885.7983893317146
 30
0.0
 11
1337.923699456292
 21
883.8478212098818
 31
0.0
  0
LINE
  5
2A5
330
1F
100
AcDbEntity
  8
A-3_受枠
  6
Continuous
 62
     4
370
     9
100
AcDbLine
 10
1378.828471415752
 20
891.591697899071
 30
0.0
 11
1338.111753721495
 21
889.6631519214529
 31
0.0
  0
LINE
  5
2A6
330
1F
100
AcDbEntity
  8
A-3_受枠
  6
Continuous
 62
     4
370
     9
100
AcDbLine
 10
1385.950284390836
 20
873.9046993771117
 30
0.0
 11
1385.950284390836
 21
884.7994747677367
 31
0.0
  0
LINE
  5
2A7
330
1F
100
AcDbEntity
  8
A-3_受枠
  6
Continuous
 62
     4
370
     9
100
AcDbLine
 10
1324.750003299198
 20
846.6477182749156
 30
0.0
 11
1383.05004222973
 21
846.6477182749156
 31
0.0
  0
LINE
  5
2A8
330
1F
100
AcDbEntity
  8
A-3_受枠
  6
Continuous
 62
     4
370
     9
100
AcDbLine
 10
1324.750003299198
 20
840.8479762721709
 30
0.0
 11
1383.05004222973
 21
840.8479762721709
 31
0.0
  0
LINE
  5
2A9
330
1F
100
AcDbEntity
  8
A-3_受枠
  6
Continuous
 62
     4
370
     9
100
AcDbLine
 10
1317.950109533361
 20
858.4993434596709
 30
0.0
 11
1317.950109533361
 21
847.6478700380068
 31
0.0
  0
LINE
  5
2AA
330
1F
100
AcDbEntity
  8
A-3_受枠
  6
Continuous
 62
     4
370
     9
100
AcDbLine
 10
1323.750098975929
 20
858.4993434596709
 30
0.0
 11
1323.750098975929
 21
847.6478700380068
 31
0.0
  0
LINE
  5
2AB
330
1F
100
AcDbEntity
  8
A-3_受枠
  6
Continuous
 62
     4
370
     9
100
AcDbLine
 10
1324.330840239654
 20
859.407200168919
 30
0.0
 11
1345.041305954392
 21
868.9771827491554
 31
0.0
  0
LINE
  5
2AC
330
1F
100
AcDbEntity
  8
A-3_受枠
  6
Continuous
 62
     4
370
     9
100
AcDbLine
 10
1378.775519293708
 20
867.1149506440033
 30
0.0
 11
1345.041305954392
 21
868.9771827491554
 31
0.0
  0
LINE
  5
2AD
330
1F
100
AcDbEntity
  8
A-3_受枠
  6
Continuous
 62
     4
370
     9
100
AcDbLine
 10
1321.897764463683
 20
864.6719772751269
 30
0.0
 11
1343.919166358742
 21
874.8479399809967
 31
0.0
  0
LINE
  5
2AE
330
1F
100
AcDbEntity
  8
A-3_受枠
  6
Continuous
 62
     4
370
     9
100
AcDbLine
 10
1379.09496410473
 20
872.9060322529563
 30
0.0
 11
1343.919166358742
 21
874.8479399809967
 31
0.0
  0
LINE
  5
2AF
330
1F
100
AcDbEntity
  8
A-3_受枠
  6
Continuous
 62
     4
370
     9
100
AcDbLine
 10
1318.049085462416
 20
-18.38853990709453
 30
0.0
 11
1318.697625237542
 21
-24.15240313555728
 31
0.0
  0
LINE
  5
2B0
330
1F
100
AcDbEntity
  8
A-3_受枠
  6
Continuous
 62
     4
370
     9
100
AcDbLine
 10
1338.111753721495
 20
-21.96750950168905
 30
0.0
 11
1318.697625237542
 21
-24.15240313555728
 31
0.0
  0
LINE
  5
2B1
330
1F
100
AcDbEntity
  8
A-3_受枠
  6
Continuous
 62
     4
370
     9
100
AcDbLine
 10
1337.923699456292
 20
-16.15217879011823
 30
0.0
 11
1318.049085462416
 21
-18.38853990709453
 31
0.0
  0
LINE
  5
2B2
330
1F
100
AcDbEntity
  8
A-3_受枠
  6
Continuous
 62
     4
370
     9
100
AcDbLine
 10
1379.102634739232
 20
-18.10274691195104
 30
0.0
 11
1337.923699456292
 21
-16.15217879011823
 31
0.0
  0
LINE
  5
2B3
330
1F
100
AcDbEntity
  8
A-3_受枠
  6
Continuous
 62
     4
370
     9
100
AcDbLine
 10
1378.828471415752
 20
-23.89605547930728
 30
0.0
 11
1338.111753721495
 21
-21.96750950168905
 31
0.0
  0
LINE
  5
2B4
330
1F
100
AcDbEntity
  8
A-3_受枠
  6
Continuous
 62
     4
370
     9
100
AcDbLine
 10
1385.950284390836
 20
-6.209056957347912
 30
0.0
 11
1385.950284390836
 21
-17.10383234797291
 31
0.0
  0
LINE
  5
2B5
330
1F
100
AcDbEntity
  8
A-3_受枠
  6
Continuous
 62
     4
370
     9
100
AcDbLine
 10
1324.750003299198
 20
21.0479241448482
 30
0.0
 11
1383.05004222973
 21
21.0479241448482
 31
0.0
  0
LINE
  5
2B6
330
1F
100
AcDbEntity
  8
A-3_受枠
  6
Continuous
 62
     4
370
     9
100
AcDbLine
 10
1324.750003299198
 20
26.84766614759297
 30
0.0
 11
1383.05004222973
 21
26.84766614759297
 31
0.0
  0
LINE
  5
2B7
330
1F
100
AcDbEntity
  8
A-3_受枠
  6
Continuous
 62
     4
370
     9
100
AcDbLine
 10
1317.950109533361
 20
9.196298960092975
 30
0.0
 11
1317.950109533361
 21
20.04777238175677
 31
0.0
  0
LINE
  5
2B8
330
1F
100
AcDbEntity
  8
A-3_受枠
  6
Continuous
 62
     4
370
     9
100
AcDbLine
 10
1323.750098975929
 20
9.196298960092975
 30
0.0
 11
1323.750098975929
 21
20.04777238175677
 31
0.0
  0
LINE
  5
2B9
330
1F
100
AcDbEntity
  8
A-3_受枠
  6
Continuous
 62
     4
370
     9
100
AcDbLine
 10
1324.330840239654
 20
8.28844225084481
 30
0.0
 11
1345.041305954392
 21
-1.28154032939193
 31
0.0
  0
LINE
  5
2BA
330
1F
100
AcDbEntity
  8
A-3_受枠
  6
Continuous
 62
     4
370
     9
100
AcDbLine
 10
1378.775519293708
 20
0.5806917757601582
 30
0.0
 11
1345.041305954392
 21
-1.28154032939193
 31
0.0
  0
LINE
  5
2BB
330
1F
100
AcDbEntity
  8
A-3_受枠
  6
Continuous
 62
     4
370
     9
100
AcDbLine
 10
1321.897764463683
 20
3.023665144636993
 30
0.0
 11
1343.919166358742
 21
-7.15229756123307
 31
0.0
  0
LINE
  5
2BC
330
1F
100
AcDbEntity
  8
A-3_受枠
  6
Continuous
 62
     4
370
     9
100
AcDbLine
 10
1379.09496410473
 20
-5.210389833192437
 30
0.0
 11
1343.919166358742
 21
-7.15229756123307
 31
0.0
  0
LINE
  5
2BD
330
1F
100
AcDbEntity
  8
A-3_受枠
  6
Continuous
 62
     4
370
     9
100
AcDbLine
 10
1380.150294948269
 20
-17.10383234797291
 30
0.0
 11
1380.150294948269
 21
-6.209056957347912
 31
0.0
  0
LINE
  5
2BE
330
1F
100
AcDbEntity
  8
A-4_寸法
  6
Continuous
 62
     7
370
     9
100
AcDbLine
 10
826.2018152185391
 20
903.847639754012
 30
0.0
 11
536.282018713049
 21
903.847639754012
 31
0.0
  0
LINE
  5
2BF
330
1F
100
AcDbEntity
  8
A-1_ピット
  6
Continuous
 62
     2
370
     9
100
AcDbLine
 10
1270.150179476352
 20
896.8480620513092
 30
0.0
 11
1270.150179476352
 21
903.8478871938346
 31
0.0
  0
LINE
  5
2C0
330
1F
100
AcDbEntity
  8
A-1_ピット
  6
Continuous
 62
     2
370
     9
100
AcDbLine
 10
1395.15009699641
 20
783.8482336095863
 30
0.0
 11
1402.150169578759
 21
783.8482336095863
 31
0.0
  0
LINE
  5
2C1
330
1F
100
AcDbEntity
  8
A-1_ピット
  6
Continuous
 62
     2
370
     9
100
AcDbLine
 10
1390.150080500423
 20
883.8480686497044
 30
0.0
 11
1390.150080500423
 21
788.8480026657519
 31
0.0
  0
LINE
  5
2C2
330
1F
100
AcDbEntity
  8
A-1_ピット
  6
Continuous
 62
     2
370
     9
100
AcDbLine
 10
1382.150103594806
 20
891.848045555321
 30
0.0
 11
1275.15019597234
 21
891.848045555321
 31
0.0
  0
LINE
  5
2C3
330
1F
100
AcDbEntity
  8
A-1_ピット
  6
Continuous
 62
     2
370
     9
100
AcDbLine
 10
1402.150169578759
 20
903.8478871938346
 30
0.0
 11
1270.150179476352
 21
903.8478871938346
 31
0.0
  0
LINE
  5
2C4
330
1F
100
AcDbEntity
  8
A-1_ピット
  6
Continuous
 62
     2
370
     9
100
AcDbLine
 10
1402.150169578759
 20
903.8478871938346
 30
0.0
 11
1402.150169578759
 21
783.8482336095863
 31
0.0
  0
LINE
  5
2C5
330
1F
100
AcDbEntity
  8
A-1_ピット
  6
Continuous
 62
     2
370
     9
100
AcDbLine
 10
1352.1502520587
 20
903.8478871938346
 30
0.0
 11
1352.1502520587
 21
921.84814453125
 31
0.0
  0
LINE
  5
2C6
330
1F
100
AcDbEntity
  8
A-1_ピット
  6
Continuous
 62
     2
370
     9
100
AcDbLine
 10
1379.780372413429
 20
903.8478871938346
 30
0.0
 11
1352.1502520587
 21
903.8478871938346
 31
0.0
  0
LINE
  5
2C7
330
1F
100
AcDbEntity
  8
A-1_ピット
  6
Continuous
 62
     2
370
     9
100
AcDbLine
 10
1379.780372413429
 20
921.84814453125
 30
0.0
 11
1352.1502520587
 21
921.84814453125
 31
0.0
  0
LINE
  5
2C8
330
1F
100
AcDbEntity
  8
A-1_ピット
  6
Continuous
 62
     2
370
     9
100
AcDbLine
 10
1389.097966374578
 20
905.0746938344596
 30
0.0
 11
1505.479554872255
 21
936.2590398015203
 31
0.0
  0
LINE
  5
2C9
330
1F
100
AcDbEntity
  8
A-1_ピット
  6
Continuous
 62
     2
370
     9
100
AcDbLine
 10
1384.439169394004
 20
922.4613004117401
 30
0.0
 11
1500.820757891681
 21
953.6456463788008
 31
0.0
  0
LINE
  5
2CA
330
1F
100
AcDbEntity
  8
A-1_ピット
  6
JWW_CENTER2
 62
     2
370
     9
100
AcDbLine
 10
1379.780372413429
 20
912.8480158625425
 30
0.0
 11
1344.540240313556
 21
912.8480158625425
 31
0.0
  0
LINE
  5
2CB
330
1F
100
AcDbEntity
  8
A-1_ピット
  6
JWW_CENTER2
 62
     2
370
     9
100
AcDbLine
 10
1386.768320444468
 20
913.7679971230998
 30
0.0
 11
1517.101555901605
 21
948.6906639305323
 31
0.0
  0
LINE
  5
2CC
330
1F
100
AcDbEntity
  8
A-2_蓋
  6
Continuous
 62
     3
370
     9
100
AcDbLine
 10
1380.150294948269
 20
883.8480686497044
 30
0.0
 11
1380.150294948269
 21
874.8481874208193
 31
0.0
  0
LINE
  5
2CD
330
1F
100
AcDbEntity
  8
A-2_蓋
  6
Continuous
 62
     3
370
     9
100
AcDbLine
 10
1292.777561497044
 20
733.8480686497044
 30
0.0
 11
1281.463870486698
 21
722.5343776393584
 31
0.0
  0
LINE
  5
2CE
330
1F
100
AcDbEntity
  8
A-2_蓋
  6
Continuous
 62
     3
370
     9
100
AcDbLine
 10
1281.463870486698
 20
722.5343776393584
 30
0.0
 11
1270.150179476352
 21
733.8480686497044
 31
0.0
  0
LINE
  5
2CF
330
1F
100
AcDbEntity
  8
A-2_蓋
  6
Continuous
 62
     3
370
     9
100
AcDbLine
 10
1270.150179476352
 20
733.8480686497044
 30
0.0
 11
1281.463870486698
 21
745.1617596600508
 31
0.0
  0
LINE
  5
2D0
330
1F
100
AcDbEntity
  8
A-2_蓋
  6
Continuous
 62
     3
370
     9
100
AcDbLine
 10
1281.463870486698
 20
745.1617596600508
 30
0.0
 11
1292.777561497044
 21
733.8480686497044
 31
0.0
  0
LINE
  5
2D1
330
1F
100
AcDbEntity
  8
A-2_蓋
  6
Continuous
 62
     3
370
     9
100
AcDbLine
 10
1270.150179476352
 20
883.8480686497044
 30
0.0
 11
1380.150294948269
 21
883.8480686497044
 31
0.0
  0
LINE
  5
2D2
330
1F
100
AcDbEntity
  8
A-A
  6
Continuous
 62
     3
370
     9
100
AcDbLine
 10
1267.1499716269
 20
870.561787373311
 30
0.0
 11
1267.1499716269
 21
864.5616191142315
 31
0.0
  0
LINE
  5
2D3
330
1F
100
AcDbEntity
  8
A-A
  6
Continuous
 62
     3
370
     9
100
AcDbLine
 10
1267.1499716269
 20
870.561787373311
 30
0.0
 11
1270.150179476352
 21
872.5615960198481
 31
0.0
  0
LINE
  5
2D4
330
1F
100
AcDbEntity
  8
A-A
  6
Continuous
 62
     3
370
     9
100
AcDbLine
 10
1267.1499716269
 20
838.3357197529563
 30
0.0
 11
1270.150179476352
 21
836.3356636665964
 31
0.0
  0
LINE
  5
2D5
330
1F
100
AcDbEntity
  8
A-A
  6
Continuous
 62
     3
370
     9
100
AcDbLine
 10
1267.1499716269
 20
850.3355613914698
 30
0.0
 11
1267.1499716269
 21
838.3357197529563
 31
0.0
  0
LINE
  5
2D6
330
1F
100
AcDbEntity
  8
A-A
  6
Continuous
 62
     3
370
     9
100
AcDbLine
 10
1267.1499716269
 20
850.3355613914698
 30
0.0
 11
1270.150179476352
 21
852.3356174778294
 31
0.0
  0
LINE
  5
2D7
330
1F
100
AcDbEntity
  8
A-A
  6
Continuous
 62
     3
370
     9
100
AcDbLine
 10
1270.150179476352
 20
862.5618104676943
 30
0.0
 11
1270.150179476352
 21
852.3356174778294
 31
0.0
  0
LINE
  5
2D8
330
1F
100
AcDbEntity
  8
A-A
  6
Continuous
 62
     3
370
     9
100
AcDbLine
 10
1267.1499716269
 20
864.5616191142315
 30
0.0
 11
1270.150179476352
 21
862.5618104676943
 31
0.0
  0
LINE
  5
2D9
330
1F
100
AcDbEntity
  8
A-A
  6
Continuous
 62
     3
370
     9
100
AcDbLine
 10
1267.1499716269
 20
824.1099094700169
 30
0.0
 11
1267.1499716269
 21
818.1097412109375
 31
0.0
  0
LINE
  5
2DA
330
1F
100
AcDbEntity
  8
A-A
  6
Continuous
 62
     3
370
     9
100
AcDbLine
 10
1267.1499716269
 20
824.1099094700169
 30
0.0
 11
1270.150179476352
 21
826.1097181165542
 31
0.0
  0
LINE
  5
2DB
330
1F
100
AcDbEntity
  8
A-A
  6
Continuous
 62
     3
370
     9
100
AcDbLine
 10
1267.1499716269
 20
791.8835944098396
 30
0.0
 11
1270.150179476352
 21
789.8837857633026
 31
0.0
  0
LINE
  5
2DC
330
1F
100
AcDbEntity
  8
A-A
  6
Continuous
 62
     3
370
     9
100
AcDbLine
 10
1267.1499716269
 20
803.8836834881758
 30
0.0
 11
1267.1499716269
 21
791.8835944098396
 31
0.0
  0
LINE
  5
2DD
330
1F
100
AcDbEntity
  8
A-A
  6
Continuous
 62
     3
370
     9
100
AcDbLine
 10
1267.1499716269
 20
803.8836834881758
 30
0.0
 11
1270.150179476352
 21
805.8837395745356
 31
0.0
  0
LINE
  5
2DE
330
1F
100
AcDbEntity
  8
A-A
  6
Continuous
 62
     3
370
     9
100
AcDbLine
 10
1270.150179476352
 20
816.1096851245779
 30
0.0
 11
1270.150179476352
 21
805.8837395745356
 31
0.0
  0
LINE
  5
2DF
330
1F
100
AcDbEntity
  8
A-A
  6
Continuous
 62
     3
370
     9
100
AcDbLine
 10
1267.1499716269
 20
818.1097412109375
 30
0.0
 11
1270.150179476352
 21
816.1096851245779
 31
0.0
  0
LINE
  5
2E0
330
1F
100
AcDbEntity
  8
A-A
  6
Continuous
 62
     3
370
     9
100
AcDbLine
 10
1270.150179476352
 20
826.1097181165542
 30
0.0
 11
1270.150179476352
 21
836.3356636665964
 31
0.0
  0
LINE
  5
2E1
330
1F
100
AcDbEntity
  8
A-A
  6
Continuous
 62
     3
370
     9
100
AcDbLine
 10
1267.1499716269
 20
777.6577841269005
 30
0.0
 11
1267.1499716269
 21
771.657615867821
 31
0.0
  0
LINE
  5
2E2
330
1F
100
AcDbEntity
  8
A-A
  6
Continuous
 62
     3
370
     9
100
AcDbLine
 10
1267.1499716269
 20
777.6577841269005
 30
0.0
 11
1270.150179476352
 21
779.6578402132602
 31
0.0
  0
LINE
  5
2E3
330
1F
100
AcDbEntity
  8
A-A
  6
Continuous
 62
     3
370
     9
100
AcDbLine
 10
1267.1499716269
 20
745.4317165065459
 30
0.0
 11
1270.150179476352
 21
743.431660420186
 31
0.0
  0
LINE
  5
2E4
330
1F
100
AcDbEntity
  8
A-A
  6
Continuous
 62
     3
370
     9
100
AcDbLine
 10
1267.1499716269
 20
757.4315581450592
 30
0.0
 11
1267.1499716269
 21
745.4317165065459
 31
0.0
  0
LINE
  5
2E5
330
1F
100
AcDbEntity
  8
A-A
  6
Continuous
 62
     3
370
     9
100
AcDbLine
 10
1267.1499716269
 20
757.4315581450592
 30
0.0
 11
1270.150179476352
 21
759.431614231419
 31
0.0
  0
LINE
  5
2E6
330
1F
100
AcDbEntity
  8
A-A
  6
Continuous
 62
     3
370
     9
100
AcDbLine
 10
1270.150179476352
 20
769.6578072212839
 30
0.0
 11
1270.150179476352
 21
759.431614231419
 31
0.0
  0
LINE
  5
2E7
330
1F
100
AcDbEntity
  8
A-A
  6
Continuous
 62
     3
370
     9
100
AcDbLine
 10
1267.1499716269
 20
771.657615867821
 30
0.0
 11
1270.150179476352
 21
769.6578072212839
 31
0.0
  0
LINE
  5
2E8
330
1F
100
AcDbEntity
  8
A-A
  6
Continuous
 62
     3
370
     9
100
AcDbLine
 10
1270.150179476352
 20
779.6578402132602
 30
0.0
 11
1270.150179476352
 21
789.8837857633026
 31
0.0
  0
LINE
  5
2E9
330
1F
100
AcDbEntity
  8
A-A
  6
Continuous
 62
     3
370
     9
100
AcDbLine
 10
1267.1499716269
 20
731.2056587837839
 30
0.0
 11
1267.1499716269
 21
725.2057379645271
 31
0.0
  0
LINE
  5
2EA
330
1F
100
AcDbEntity
  8
A-A
  6
Continuous
 62
     3
370
     9
100
AcDbLine
 10
1267.1499716269
 20
731.2056587837839
 30
0.0
 11
1270.150179476352
 21
733.2057148701438
 31
0.0
  0
LINE
  5
2EB
330
1F
100
AcDbEntity
  8
A-A
  6
Continuous
 62
     3
370
     9
100
AcDbLine
 10
1267.1499716269
 20
725.2057379645271
 30
0.0
 11
1270.150179476352
 21
723.2056818781675
 31
0.0
  0
LINE
  5
2EC
330
1F
100
AcDbEntity
  8
A-A
  6
Continuous
 62
     3
370
     9
100
AcDbLine
 10
1270.150179476352
 20
733.2057148701438
 30
0.0
 11
1270.150179476352
 21
743.431660420186
 31
0.0
  0
LINE
  5
2ED
330
1F
100
AcDbEntity
  8
A-A
  6
Continuous
 62
     3
370
     9
100
AcDbLine
 10
1270.150179476352
 20
883.8480686497044
 30
0.0
 11
1270.150179476352
 21
872.5615960198481
 31
0.0
  0
LINE
  5
2EE
330
1F
100
AcDbEntity
  8
A-A
  6
Continuous
 62
     3
370
     9
100
AcDbLine
 10
1267.1499716269
 20
698.9795911634292
 30
0.0
 11
1270.150179476352
 21
696.9795350770693
 31
0.0
  0
LINE
  5
2EF
330
1F
100
AcDbEntity
  8
A-A
  6
Continuous
 62
     3
370
     9
100
AcDbLine
 10
1267.1499716269
 20
710.9794328019427
 30
0.0
 11
1267.1499716269
 21
698.9795911634292
 31
0.0
  0
LINE
  5
2F0
330
1F
100
AcDbEntity
  8
A-A
  6
Continuous
 62
     3
370
     9
100
AcDbLine
 10
1267.1499716269
 20
710.9794328019427
 30
0.0
 11
1270.150179476352
 21
712.979736328125
 31
0.0
  0
LINE
  5
2F1
330
1F
100
AcDbEntity
  8
A-A
  6
Continuous
 62
     3
370
     9
100
AcDbLine
 10
1270.150179476352
 20
723.2056818781675
 30
0.0
 11
1270.150179476352
 21
712.979736328125
 31
0.0
  0
LINE
  5
2F2
330
1F
100
AcDbEntity
  8
A-A
  6
Continuous
 62
     3
370
     9
100
AcDbLine
 10
1267.1499716269
 20
684.7535334406675
 30
0.0
 11
1267.1499716269
 21
678.7536126214106
 31
0.0
  0
LINE
  5
2F3
330
1F
100
AcDbEntity
  8
A-A
  6
Continuous
 62
     3
370
     9
100
AcDbLine
 10
1267.1499716269
 20
684.7535334406675
 30
0.0
 11
1270.150179476352
 21
686.7535895270271
 31
0.0
  0
LINE
  5
2F4
330
1F
100
AcDbEntity
  8
A-A
  6
Continuous
 62
     3
370
     9
100
AcDbLine
 10
1267.1499716269
 20
678.7536126214106
 30
0.0
 11
1270.150179476352
 21
676.7535565350508
 31
0.0
  0
LINE
  5
2F5
330
1F
100
AcDbEntity
  8
A-A
  6
Continuous
 62
     3
370
     9
100
AcDbLine
 10
1270.150179476352
 20
686.7535895270271
 30
0.0
 11
1270.150179476352
 21
696.9795350770693
 31
0.0
  0
LINE
  5
2F6
330
1F
100
AcDbEntity
  8
A-A
  6
Continuous
 62
     3
370
     9
100
AcDbLine
 10
1267.1499716269
 20
664.527307458826
 30
0.0
 11
1267.1499716269
 21
652.5274658203125
 31
0.0
  0
LINE
  5
2F7
330
1F
100
AcDbEntity
  8
A-A
  6
Continuous
 62
     3
370
     9
100
AcDbLine
 10
1267.1499716269
 20
664.527307458826
 30
0.0
 11
1270.150179476352
 21
666.5276109850086
 31
0.0
  0
LINE
  5
2F8
330
1F
100
AcDbEntity
  8
A-A
  6
Continuous
 62
     3
370
     9
100
AcDbLine
 10
1270.150179476352
 20
676.7535565350508
 30
0.0
 11
1270.150179476352
 21
666.5276109850086
 31
0.0
  0
LINE
  5
2F9
330
1F
100
AcDbEntity
  8
A-2_蓋
  6
Continuous
 62
     3
370
     9
100
AcDbLine
 10
1390.150080500423
 20
874.8481874208193
 30
0.0
 11
1390.150080500423
 21
604.7809827649917
 31
0.0
  0
LINE
  5
2FA
330
1F
100
AcDbEntity
  8
A-2_蓋
  6
Continuous
 62
     3
370
     9
100
AcDbLine
 10
1293.150205869933
 20
604.7809827649917
 30
0.0
 11
1293.150205869933
 21
874.8481874208193
 31
0.0
  0
LINE
  5
2FB
330
1F
100
AcDbEntity
  8
A-2_蓋
  6
Continuous
 62
     3
370
     9
100
AcDbLine
 10
1367.150054106841
 20
874.8481874208193
 30
0.0
 11
1367.150054106841
 21
873.565459380279
 31
0.0
  0
LINE
  5
2FC
330
1F
100
AcDbEntity
  8
A-3_受枠
  6
Continuous
 62
     4
370
     9
100
AcDbLine
 10
1380.150294948269
 20
884.7994747677367
 30
0.0
 11
1380.150294948269
 21
873.9046993771117
 31
0.0
  0
LINE
  5
2FD
330
1F
100
AcDbEntity
  8
A-2_蓋
  6
Continuous
 62
     3
370
     9
100
AcDbLine
 10
1270.150179476352
 20
874.8481874208193
 30
0.0
 11
1380.150294948269
 21
874.8481874208193
 31
0.0
  0
LINE
  5
2FE
330
1F
100
AcDbEntity
  8
A-2_蓋
  6
Continuous
 62
     3
370
     9
100
AcDbLine
 10
1385.950284390836
 20
874.8481874208193
 30
0.0
 11
1390.150080500423
 21
874.8481874208193
 31
0.0
  0
LINE
  5
2FF
330
1F
100
AcDbEntity
  8
A-2_蓋
  6
Continuous
 62
     3
370
     9
100
AcDbLine
 10
1370.150261956292
 20
874.8481874208193
 30
0.0
 11
1370.150261956292
 21
873.399922138936
 31
0.0
  0
LINE
  5
300
330
1F
100
AcDbEntity
  8
A-2_蓋
  6
Continuous
 62
     3
370
     9
100
AcDbLine
 10
1367.150054106841
 20
867.756809543919
 30
0.0
 11
1367.150054106841
 21
846.6477182749156
 31
0.0
  0
LINE
  5
301
330
1F
100
AcDbEntity
  8
A-2_蓋
  6
Continuous
 62
     3
370
     9
100
AcDbLine
 10
1367.150054106841
 20
840.8479762721709
 30
0.0
 11
1367.150054106841
 21
604.7809827649917
 31
0.0
  0
LINE
  5
302
330
1F
100
AcDbEntity
  8
A-2_蓋
  6
Continuous
 62
     3
370
     9
100
AcDbLine
 10
1370.150261956292
 20
867.5910248627533
 30
0.0
 11
1370.150261956292
 21
846.6477182749156
 31
0.0
  0
LINE
  5
303
330
1F
100
AcDbEntity
  8
A-2_蓋
  6
Continuous
 62
     3
370
     9
100
AcDbLine
 10
1370.150261956292
 20
840.8479762721709
 30
0.0
 11
1370.150261956292
 21
604.7809827649917
 31
0.0
  0
LINE
  5
304
330
1F
100
AcDbEntity
  8
A-3_受枠
  6
Continuous
 62
     4
370
     9
100
AcDbLine
 10
1318.049085462416
 20
-18.38853990709453
 30
0.0
 11
1318.697625237542
 21
-24.15240313555728
 31
0.0
  0
LINE
  5
305
330
1F
100
AcDbEntity
  8
A-3_受枠
  6
Continuous
 62
     4
370
     9
100
AcDbLine
 10
1338.111753721495
 20
-21.96750950168905
 30
0.0
 11
1318.697625237542
 21
-24.15240313555728
 31
0.0
  0
LINE
  5
306
330
1F
100
AcDbEntity
  8
A-3_受枠
  6
Continuous
 62
     4
370
     9
100
AcDbLine
 10
1337.923699456292
 20
-16.15217879011823
 30
0.0
 11
1318.049085462416
 21
-18.38853990709453
 31
0.0
  0
LINE
  5
307
330
1F
100
AcDbEntity
  8
A-3_受枠
  6
Continuous
 62
     4
370
     9
100
AcDbLine
 10
1379.102634739232
 20
-18.10274691195104
 30
0.0
 11
1337.923699456292
 21
-16.15217879011823
 31
0.0
  0
LINE
  5
308
330
1F
100
AcDbEntity
  8
A-3_受枠
  6
Continuous
 62
     4
370
     9
100
AcDbLine
 10
1378.828471415752
 20
-23.89605547930728
 30
0.0
 11
1338.111753721495
 21
-21.96750950168905
 31
0.0
  0
LINE
  5
309
330
1F
100
AcDbEntity
  8
A-3_受枠
  6
Continuous
 62
     4
370
     9
100
AcDbLine
 10
1385.950284390836
 20
-6.209056957347912
 30
0.0
 11
1385.950284390836
 21
-17.10383234797291
 31
0.0
  0
LINE
  5
30A
330
1F
100
AcDbEntity
  8
A-3_受枠
  6
Continuous
 62
     4
370
     9
100
AcDbLine
 10
1324.750003299198
 20
21.0479241448482
 30
0.0
 11
1383.05004222973
 21
21.0479241448482
 31
0.0
  0
LINE
  5
30B
330
1F
100
AcDbEntity
  8
A-3_受枠
  6
Continuous
 62
     4
370
     9
100
AcDbLine
 10
1324.750003299198
 20
26.84766614759297
 30
0.0
 11
1383.05004222973
 21
26.84766614759297
 31
0.0
  0
LINE
  5
30C
330
1F
100
AcDbEntity
  8
A-3_受枠
  6
Continuous
 62
     4
370
     9
100
AcDbLine
 10
1317.950109533361
 20
9.196298960092975
 30
0.0
 11
1317.950109533361
 21
20.04777238175677
 31
0.0
  0
LINE
  5
30D
330
1F
100
AcDbEntity
  8
A-3_受枠
  6
Continuous
 62
     4
370
     9
100
AcDbLine
 10
1323.750098975929
 20
9.196298960092975
 30
0.0
 11
1323.750098975929
 21
20.04777238175677
 31
0.0
  0
LINE
  5
30E
330
1F
100
AcDbEntity
  8
A-3_受枠
  6
Continuous
 62
     4
370
     9
100
AcDbLine
 10
1324.330840239654
 20
8.28844225084481
 30
0.0
 11
1345.041305954392
 21
-1.28154032939193
 31
0.0
  0
LINE
  5
30F
330
1F
100
AcDbEntity
  8
A-3_受枠
  6
Continuous
 62
     4
370
     9
100
AcDbLine
 10
1378.775519293708
 20
0.5806917757601582
 30
0.0
 11
1345.041305954392
 21
-1.28154032939193
 31
0.0
  0
LINE
  5
310
330
1F
100
AcDbEntity
  8
A-3_受枠
  6
Continuous
 62
     4
370
     9
100
AcDbLine
 10
1321.897764463683
 20
3.023665144636993
 30
0.0
 11
1343.919166358742
 21
-7.15229756123307
 31
0.0
  0
LINE
  5
311
330
1F
100
AcDbEntity
  8
A-3_受枠
  6
Continuous
 62
     4
370
     9
100
AcDbLine
 10
1379.09496410473
 20
-5.210389833192437
 30
0.0
 11
1343.919166358742
 21
-7.15229756123307
 31
0.0
  0
LINE
  5
312
330
1F
100
AcDbEntity
  8
A-1_ピット
  6
Continuous
 62
     2
370
     9
100
AcDbLine
 10
1270.150179476352
 20
-29.15241963154557
 30
0.0
 11
1270.150179476352
 21
-36.15224477407082
 31
0.0
  0
LINE
  5
313
330
1F
100
AcDbEntity
  8
A-1_ピット
  6
Continuous
 62
     2
370
     9
100
AcDbLine
 10
1395.15009699641
 20
83.84740881017734
 30
0.0
 11
1402.150169578759
 21
83.84740881017734
 31
0.0
  0
LINE
  5
314
330
1F
100
AcDbEntity
  8
A-1_ピット
  6
Continuous
 62
     2
370
     9
100
AcDbLine
 10
1390.150080500423
 20
-16.15242622994089
 30
0.0
 11
1390.150080500423
 21
78.847639754012
 31
0.0
  0
LINE
  5
315
330
1F
100
AcDbEntity
  8
A-1_ピット
  6
Continuous
 62
     2
370
     9
100
AcDbLine
 10
1382.150103594806
 20
-24.15240313555728
 30
0.0
 11
1275.15019597234
 21
-24.15240313555728
 31
0.0
  0
LINE
  5
316
330
1F
100
AcDbEntity
  8
A-1_ピット
  6
Continuous
 62
     2
370
     9
100
AcDbLine
 10
1402.150169578759
 20
-36.15224477407082
 30
0.0
 11
1270.150179476352
 21
-36.15224477407082
 31
0.0
  0
LINE
  5
317
330
1F
100
AcDbEntity
  8
A-1_ピット
  6
Continuous
 62
     2
370
     9
100
AcDbLine
 10
1402.150169578759
 20
-36.15224477407082
 30
0.0
 11
1402.150169578759
 21
83.84740881017734
 31
0.0
  0
LINE
  5
318
330
1F
100
AcDbEntity
  8
A-1_ピット
  6
Continuous
 62
     2
370
     9
100
AcDbLine
 10
1352.1502520587
 20
-36.15224477407082
 30
0.0
 11
1352.1502520587
 21
-54.15250211148646
 31
0.0
  0
LINE
  5
319
330
1F
100
AcDbEntity
  8
A-1_ピット
  6
Continuous
 62
     2
370
     9
100
AcDbLine
 10
1379.780372413429
 20
-36.15224477407082
 30
0.0
 11
1352.1502520587
 21
-36.15224477407082
 31
0.0
  0
LINE
  5
31A
330
1F
100
AcDbEntity
  8
A-1_ピット
  6
Continuous
 62
     2
370
     9
100
AcDbLine
 10
1379.780372413429
 20
-54.15250211148646
 30
0.0
 11
1352.1502520587
 21
-54.15250211148646
 31
0.0
  0
LINE
  5
31B
330
1F
100
AcDbEntity
  8
A-1_ピット
  6
Continuous
 62
     2
370
     9
100
AcDbLine
 10
1389.097966374578
 20
-37.37905141469582
 30
0.0
 11
1505.479554872255
 21
-68.56339738175677
 31
0.0
  0
LINE
  5
31C
330
1F
100
AcDbEntity
  8
A-1_ピット
  6
Continuous
 62
     2
370
     9
100
AcDbLine
 10
1384.439169394004
 20
-54.7656579919763
 30
0.0
 11
1500.820757891681
 21
-85.95000395903696
 31
0.0
  0
LINE
  5
31D
330
1F
100
AcDbEntity
  8
A-1_ピット
  6
JWW_CENTER2
 62
     2
370
     9
100
AcDbLine
 10
1379.780372413429
 20
-45.15237344277864
 30
0.0
 11
1344.540240313556
 21
-45.15237344277864
 31
0.0
  0
LINE
  5
31E
330
1F
100
AcDbEntity
  8
A-1_ピット
  6
JWW_CENTER2
 62
     2
370
     9
100
AcDbLine
 10
1386.768320444468
 20
-46.0723547033362
 30
0.0
 11
1517.101555901605
 21
-80.99502151076848
 31
0.0
  0
LINE
  5
31F
330
1F
100
AcDbEntity
  8
A-2_蓋
  6
Continuous
 62
     3
370
     9
100
AcDbLine
 10
1380.150294948269
 20
-16.15242622994089
 30
0.0
 11
1380.150294948269
 21
-7.152545001055728
 31
0.0
  0
LINE
  5
320
330
1F
100
AcDbEntity
  8
A-2_蓋
  6
Continuous
 62
     3
370
     9
100
AcDbLine
 10
1390.150080500423
 20
-7.152545001055728
 30
0.0
 11
1390.150080500423
 21
604.7809827649917
 31
0.0
  0
LINE
  5
321
330
1F
100
AcDbEntity
  8
A-2_蓋
  6
Continuous
 62
     3
370
     9
100
AcDbLine
 10
1293.150205869933
 20
604.7809827649917
 30
0.0
 11
1293.150205869933
 21
-7.152545001055728
 31
0.0
  0
LINE
  5
322
330
1F
100
AcDbEntity
  8
A-2_蓋
  6
Continuous
 62
     3
370
     9
100
AcDbLine
 10
1367.150054106841
 20
-7.152545001055728
 30
0.0
 11
1367.150054106841
 21
-5.869816960515095
 31
0.0
  0
LINE
  5
323
330
1F
100
AcDbEntity
  8
A-3_受枠
  6
Continuous
 62
     4
370
     9
100
AcDbLine
 10
1380.150294948269
 20
-17.10383234797291
 30
0.0
 11
1380.150294948269
 21
-6.209056957347912
 31
0.0
  0
LINE
  5
324
330
1F
100
AcDbEntity
  8
A-2_蓋
  6
Continuous
 62
     3
370
     9
100
AcDbLine
 10
1270.150179476352
 20
-7.152545001055728
 30
0.0
 11
1380.150294948269
 21
-7.152545001055728
 31
0.0
  0
LINE
  5
325
330
1F
100
AcDbEntity
  8
A-2_蓋
  6
Continuous
 62
     3
370
     9
100
AcDbLine
 10
1385.950284390836
 20
-7.152545001055728
 30
0.0
 11
1390.150080500423
 21
-7.152545001055728
 31
0.0
  0
LINE
  5
326
330
1F
100
AcDbEntity
  8
A-2_蓋
  6
Continuous
 62
     3
370
     9
100
AcDbLine
 10
1370.150261956292
 20
-7.152545001055728
 30
0.0
 11
1370.150261956292
 21
-5.704279719172121
 31
0.0
  0
LINE
  5
327
330
1F
100
AcDbEntity
  8
A-2_蓋
  6
Continuous
 62
     3
370
     9
100
AcDbLine
 10
1367.150054106841
 20
-0.0611671241551903
 30
0.0
 11
1367.150054106841
 21
21.0479241448482
 31
0.0
  0
LINE
  5
328
330
1F
100
AcDbEntity
  8
A-2_蓋
  6
Continuous
 62
     3
370
     9
100
AcDbLine
 10
1367.150054106841
 20
26.84766614759297
 30
0.0
 11
1367.150054106841
 21
604.7809827649917
 31
0.0
  0
LINE
  5
329
330
1F
100
AcDbEntity
  8
A-2_蓋
  6
Continuous
 62
     3
370
     9
100
AcDbLine
 10
1370.150261956292
 20
0.1046175570101582
 30
0.0
 11
1370.150261956292
 21
21.0479241448482
 31
0.0
  0
LINE
  5
32A
330
1F
100
AcDbEntity
  8
A-2_蓋
  6
Continuous
 62
     3
370
     9
100
AcDbLine
 10
1370.150261956292
 20
26.84766614759297
 30
0.0
 11
1370.150261956292
 21
604.7809827649917
 31
0.0
  0
LINE
  5
32B
330
1F
100
AcDbEntity
  8
A-A
  6
Continuous
 62
     3
370
     9
100
AcDbLine
 10
1267.1499716269
 20
652.5274658203125
 30
0.0
 11
1270.150179476352
 21
650.5274097339529
 31
0.0
  0
LINE
  5
32C
330
1F
100
AcDbEntity
  8
A-A
  6
Continuous
 62
     3
370
     9
100
AcDbLine
 10
1267.1499716269
 20
638.3014080975508
 30
0.0
 11
1267.1499716269
 21
632.301487278294
 31
0.0
  0
LINE
  5
32D
330
1F
100
AcDbEntity
  8
A-A
  6
Continuous
 62
     3
370
     9
100
AcDbLine
 10
1267.1499716269
 20
638.3014080975508
 30
0.0
 11
1270.150179476352
 21
640.3014641839106
 31
0.0
  0
LINE
  5
32E
330
1F
100
AcDbEntity
  8
A-A
  6
Continuous
 62
     3
370
     9
100
AcDbLine
 10
1267.1499716269
 20
632.301487278294
 30
0.0
 11
1270.150179476352
 21
630.3014311919342
 31
0.0
  0
LINE
  5
32F
330
1F
100
AcDbEntity
  8
A-A
  6
Continuous
 62
     3
370
     9
100
AcDbLine
 10
1270.150179476352
 20
640.3014641839106
 30
0.0
 11
1270.150179476352
 21
650.5274097339529
 31
0.0
  0
LINE
  5
330
330
1F
100
AcDbEntity
  8
A-A
  6
Continuous
 62
     3
370
     9
100
AcDbLine
 10
1267.1499716269
 20
618.0751821157096
 30
0.0
 11
1267.1499716269
 21
606.075340477196
 31
0.0
  0
LINE
  5
331
330
1F
100
AcDbEntity
  8
A-A
  6
Continuous
 62
     3
370
     9
100
AcDbLine
 10
1267.1499716269
 20
618.0751821157096
 30
0.0
 11
1270.150179476352
 21
620.0754856418919
 31
0.0
  0
LINE
  5
332
330
1F
100
AcDbEntity
  8
A-A
  6
Continuous
 62
     3
370
     9
100
AcDbLine
 10
1270.150179476352
 20
630.3014311919342
 30
0.0
 11
1270.150179476352
 21
620.0754856418919
 31
0.0
  0
LINE
  5
333
330
1F
100
AcDbEntity
  8
A-A
  6
Continuous
 62
     3
370
     9
100
AcDbLine
 10
1267.1499716269
 20
606.075340477196
 30
0.0
 11
1270.150179476352
 21
604.0752843908363
 31
0.0
  0
LINE
  5
334
330
1F
100
AcDbEntity
  8
A-A
  6
Continuous
 62
     3
370
     9
100
AcDbLine
 10
1267.1499716269
 20
591.8492827544342
 30
0.0
 11
1267.1499716269
 21
585.8493619351773
 31
0.0
  0
LINE
  5
335
330
1F
100
AcDbEntity
  8
A-A
  6
Continuous
 62
     3
370
     9
100
AcDbLine
 10
1267.1499716269
 20
591.8492827544342
 30
0.0
 11
1270.150179476352
 21
593.849338840794
 31
0.0
  0
LINE
  5
336
330
1F
100
AcDbEntity
  8
A-A
  6
Continuous
 62
     3
370
     9
100
AcDbLine
 10
1267.1499716269
 20
585.8493619351773
 30
0.0
 11
1270.150179476352
 21
583.8493058488177
 31
0.0
  0
LINE
  5
337
330
1F
100
AcDbEntity
  8
A-A
  6
Continuous
 62
     3
370
     9
100
AcDbLine
 10
1270.150179476352
 20
593.849338840794
 30
0.0
 11
1270.150179476352
 21
604.0752843908363
 31
0.0
  0
LINE
  5
338
330
1F
100
AcDbEntity
  8
A-A
  6
Continuous
 62
     3
370
     9
100
AcDbLine
 10
1267.1499716269
 20
571.6230567725929
 30
0.0
 11
1267.1499716269
 21
559.6232151340794
 31
0.0
  0
LINE
  5
339
330
1F
100
AcDbEntity
  8
A-A
  6
Continuous
 62
     3
370
     9
100
AcDbLine
 10
1267.1499716269
 20
571.6230567725929
 30
0.0
 11
1270.150179476352
 21
573.6233602987755
 31
0.0
  0
LINE
  5
33A
330
1F
100
AcDbEntity
  8
A-A
  6
Continuous
 62
     3
370
     9
100
AcDbLine
 10
1270.150179476352
 20
583.8493058488177
 30
0.0
 11
1270.150179476352
 21
573.6233602987755
 31
0.0
  0
LINE
  5
33B
330
1F
100
AcDbEntity
  8
A-A
  6
Continuous
 62
     3
370
     9
100
AcDbLine
 10
1267.1499716269
 20
559.6232151340794
 30
0.0
 11
1270.150179476352
 21
557.6231590477198
 31
0.0
  0
LINE
  5
33C
330
1F
100
AcDbEntity
  8
A-A
  6
Continuous
 62
     3
370
     9
100
AcDbLine
 10
1267.1499716269
 20
545.3971574113177
 30
0.0
 11
1267.1499716269
 21
539.397236592061
 31
0.0
  0
LINE
  5
33D
330
1F
100
AcDbEntity
  8
A-A
  6
Continuous
 62
     3
370
     9
100
AcDbLine
 10
1267.1499716269
 20
545.3971574113177
 30
0.0
 11
1270.150179476352
 21
547.3972134976773
 31
0.0
  0
LINE
  5
33E
330
1F
100
AcDbEntity
  8
A-A
  6
Continuous
 62
     3
370
     9
100
AcDbLine
 10
1267.1499716269
 20
539.397236592061
 30
0.0
 11
1270.150179476352
 21
537.397180505701
 31
0.0
  0
LINE
  5
33F
330
1F
100
AcDbEntity
  8
A-A
  6
Continuous
 62
     3
370
     9
100
AcDbLine
 10
1270.150179476352
 20
547.3972134976773
 30
0.0
 11
1270.150179476352
 21
557.6231590477198
 31
0.0
  0
LINE
  5
340
330
1F
100
AcDbEntity
  8
A-A
  6
Continuous
 62
     3
370
     9
100
AcDbLine
 10
1267.1499716269
 20
525.1709314294766
 30
0.0
 11
1267.1499716269
 21
513.171089790963
 31
0.0
  0
LINE
  5
341
330
1F
100
AcDbEntity
  8
A-A
  6
Continuous
 62
     3
370
     9
100
AcDbLine
 10
1267.1499716269
 20
525.1709314294766
 30
0.0
 11
1270.150179476352
 21
527.1712349556589
 31
0.0
  0
LINE
  5
342
330
1F
100
AcDbEntity
  8
A-A
  6
Continuous
 62
     3
370
     9
100
AcDbLine
 10
1270.150179476352
 20
537.397180505701
 30
0.0
 11
1270.150179476352
 21
527.1712349556589
 31
0.0
  0
LINE
  5
343
330
1F
100
AcDbEntity
  8
A-A
  6
Continuous
 62
     3
370
     9
100
AcDbLine
 10
1267.1499716269
 20
513.171089790963
 30
0.0
 11
1270.150179476352
 21
511.1710337046031
 31
0.0
  0
LINE
  5
344
330
1F
100
AcDbEntity
  8
A-A
  6
Continuous
 62
     3
370
     9
100
AcDbLine
 10
1267.1499716269
 20
498.945032068201
 30
0.0
 11
1267.1499716269
 21
492.9451112489443
 31
0.0
  0
LINE
  5
345
330
1F
100
AcDbEntity
  8
A-A
  6
Continuous
 62
     3
370
     9
100
AcDbLine
 10
1267.1499716269
 20
498.945032068201
 30
0.0
 11
1270.150179476352
 21
500.9450881545609
 31
0.0
  0
LINE
  5
346
330
1F
100
AcDbEntity
  8
A-A
  6
Continuous
 62
     3
370
     9
100
AcDbLine
 10
1267.1499716269
 20
492.9451112489443
 30
0.0
 11
1270.150179476352
 21
490.9450551625847
 31
0.0
  0
LINE
  5
347
330
1F
100
AcDbEntity
  8
A-A
  6
Continuous
 62
     3
370
     9
100
AcDbLine
 10
1270.150179476352
 20
500.9450881545609
 30
0.0
 11
1270.150179476352
 21
511.1710337046031
 31
0.0
  0
LINE
  5
348
330
1F
100
AcDbEntity
  8
A-A
  6
Continuous
 62
     3
370
     9
100
AcDbLine
 10
1267.1499716269
 20
478.7188060863599
 30
0.0
 11
1267.1499716269
 21
466.7189644478464
 31
0.0
  0
LINE
  5
349
330
1F
100
AcDbEntity
  8
A-A
  6
Continuous
 62
     3
370
     9
100
AcDbLine
 10
1267.1499716269
 20
478.7188060863599
 30
0.0
 11
1270.150179476352
 21
480.7191096125425
 31
0.0
  0
LINE
  5
34A
330
1F
100
AcDbEntity
  8
A-A
  6
Continuous
 62
     3
370
     9
100
AcDbLine
 10
1270.150179476352
 20
490.9450551625847
 30
0.0
 11
1270.150179476352
 21
480.7191096125425
 31
0.0
  0
LINE
  5
34B
330
1F
100
AcDbEntity
  8
A-A
  6
Continuous
 62
     3
370
     9
100
AcDbLine
 10
1267.1499716269
 20
466.7189644478464
 30
0.0
 11
1270.150179476352
 21
464.7189083614865
 31
0.0
  0
LINE
  5
34C
330
1F
100
AcDbEntity
  8
A-A
  6
Continuous
 62
     3
370
     9
100
AcDbLine
 10
1267.1499716269
 20
452.4929067250847
 30
0.0
 11
1267.1499716269
 21
446.4929859058279
 31
0.0
  0
LINE
  5
34D
330
1F
100
AcDbEntity
  8
A-A
  6
Continuous
 62
     3
370
     9
100
AcDbLine
 10
1267.1499716269
 20
452.4929067250847
 30
0.0
 11
1270.150179476352
 21
454.4929628114443
 31
0.0
  0
LINE
  5
34E
330
1F
100
AcDbEntity
  8
A-A
  6
Continuous
 62
     3
370
     9
100
AcDbLine
 10
1267.1499716269
 20
446.4929859058279
 30
0.0
 11
1270.150179476352
 21
444.492929819468
 31
0.0
  0
LINE
  5
34F
330
1F
100
AcDbEntity
  8
A-A
  6
Continuous
 62
     3
370
     9
100
AcDbLine
 10
1270.150179476352
 20
454.4929628114443
 30
0.0
 11
1270.150179476352
 21
464.7189083614865
 31
0.0
  0
LINE
  5
350
330
1F
100
AcDbEntity
  8
A-A
  6
Continuous
 62
     3
370
     9
100
AcDbLine
 10
1267.1499716269
 20
432.2666807432432
 30
0.0
 11
1267.1499716269
 21
420.26683910473
 31
0.0
  0
LINE
  5
351
330
1F
100
AcDbEntity
  8
A-A
  6
Continuous
 62
     3
370
     9
100
AcDbLine
 10
1267.1499716269
 20
432.2666807432432
 30
0.0
 11
1270.150179476352
 21
434.2669842694258
 31
0.0
  0
LINE
  5
352
330
1F
100
AcDbEntity
  8
A-A
  6
Continuous
 62
     3
370
     9
100
AcDbLine
 10
1270.150179476352
 20
444.492929819468
 30
0.0
 11
1270.150179476352
 21
434.2669842694258
 31
0.0
  0
LINE
  5
353
330
1F
100
AcDbEntity
  8
A-A
  6
Continuous
 62
     3
370
     9
100
AcDbLine
 10
1267.1499716269
 20
420.26683910473
 30
0.0
 11
1270.150179476352
 21
418.2667830183701
 31
0.0
  0
LINE
  5
354
330
1F
100
AcDbEntity
  8
A-A
  6
Continuous
 62
     3
370
     9
100
AcDbLine
 10
1267.1499716269
 20
406.040781381968
 30
0.0
 11
1267.1499716269
 21
400.0408605627112
 31
0.0
  0
LINE
  5
355
330
1F
100
AcDbEntity
  8
A-A
  6
Continuous
 62
     3
370
     9
100
AcDbLine
 10
1267.1499716269
 20
406.040781381968
 30
0.0
 11
1270.150179476352
 21
408.0408374683279
 31
0.0
  0
LINE
  5
356
330
1F
100
AcDbEntity
  8
A-A
  6
Continuous
 62
     3
370
     9
100
AcDbLine
 10
1267.1499716269
 20
400.0408605627112
 30
0.0
 11
1270.150179476352
 21
398.0408044763516
 31
0.0
  0
LINE
  5
357
330
1F
100
AcDbEntity
  8
A-A
  6
Continuous
 62
     3
370
     9
100
AcDbLine
 10
1270.150179476352
 20
408.0408374683279
 30
0.0
 11
1270.150179476352
 21
418.2667830183701
 31
0.0
  0
LINE
  5
358
330
1F
100
AcDbEntity
  8
A-A
  6
Continuous
 62
     3
370
     9
100
AcDbLine
 10
1267.1499716269
 20
385.8145554001268
 30
0.0
 11
1267.1499716269
 21
373.8147137616133
 31
0.0
  0
LINE
  5
359
330
1F
100
AcDbEntity
  8
A-A
  6
Continuous
 62
     3
370
     9
100
AcDbLine
 10
1267.1499716269
 20
385.8145554001268
 30
0.0
 11
1270.150179476352
 21
387.8148589263091
 31
0.0
  0
LINE
  5
35A
330
1F
100
AcDbEntity
  8
A-A
  6
Continuous
 62
     3
370
     9
100
AcDbLine
 10
1270.150179476352
 20
398.0408044763516
 30
0.0
 11
1270.150179476352
 21
387.8148589263091
 31
0.0
  0
LINE
  5
35B
330
1F
100
AcDbEntity
  8
A-A
  6
Continuous
 62
     3
370
     9
100
AcDbLine
 10
1267.1499716269
 20
373.8147137616133
 30
0.0
 11
1270.150179476352
 21
371.8146576752534
 31
0.0
  0
LINE
  5
35C
330
1F
100
AcDbEntity
  8
A-A
  6
Continuous
 62
     3
370
     9
100
AcDbLine
 10
1267.1499716269
 20
359.5886560388516
 30
0.0
 11
1267.1499716269
 21
353.5887352195948
 31
0.0
  0
LINE
  5
35D
330
1F
100
AcDbEntity
  8
A-A
  6
Continuous
 62
     3
370
     9
100
AcDbLine
 10
1267.1499716269
 20
359.5886560388516
 30
0.0
 11
1270.150179476352
 21
361.5887121252112
 31
0.0
  0
LINE
  5
35E
330
1F
100
AcDbEntity
  8
A-A
  6
Continuous
 62
     3
370
     9
100
AcDbLine
 10
1267.1499716269
 20
353.5887352195948
 30
0.0
 11
1270.150179476352
 21
351.5886791332349
 31
0.0
  0
LINE
  5
35F
330
1F
100
AcDbEntity
  8
A-A
  6
Continuous
 62
     3
370
     9
100
AcDbLine
 10
1270.150179476352
 20
361.5887121252112
 30
0.0
 11
1270.150179476352
 21
371.8146576752534
 31
0.0
  0
LINE
  5
360
330
1F
100
AcDbEntity
  8
A-A
  6
Continuous
 62
     3
370
     9
100
AcDbLine
 10
1267.1499716269
 20
339.3624300570102
 30
0.0
 11
1267.1499716269
 21
327.3625884184966
 31
0.0
  0
LINE
  5
361
330
1F
100
AcDbEntity
  8
A-A
  6
Continuous
 62
     3
370
     9
100
AcDbLine
 10
1267.1499716269
 20
339.3624300570102
 30
0.0
 11
1270.150179476352
 21
341.3627335831927
 31
0.0
  0
LINE
  5
362
330
1F
100
AcDbEntity
  8
A-A
  6
Continuous
 62
     3
370
     9
100
AcDbLine
 10
1270.150179476352
 20
351.5886791332349
 30
0.0
 11
1270.150179476352
 21
341.3627335831927
 31
0.0
  0
LINE
  5
363
330
1F
100
AcDbEntity
  8
A-A
  6
Continuous
 62
     3
370
     9
100
AcDbLine
 10
1267.1499716269
 20
327.3625884184966
 30
0.0
 11
1270.150179476352
 21
325.362532332137
 31
0.0
  0
LINE
  5
364
330
1F
100
AcDbEntity
  8
A-A
  6
Continuous
 62
     3
370
     9
100
AcDbLine
 10
1267.1499716269
 20
313.1365306957349
 30
0.0
 11
1267.1499716269
 21
307.1366098764781
 31
0.0
  0
LINE
  5
365
330
1F
100
AcDbEntity
  8
A-A
  6
Continuous
 62
     3
370
     9
100
AcDbLine
 10
1267.1499716269
 20
313.1365306957349
 30
0.0
 11
1270.150179476352
 21
315.1365867820948
 31
0.0
  0
LINE
  5
366
330
1F
100
AcDbEntity
  8
A-A
  6
Continuous
 62
     3
370
     9
100
AcDbLine
 10
1267.1499716269
 20
307.1366098764781
 30
0.0
 11
1270.150179476352
 21
305.1365537901182
 31
0.0
  0
LINE
  5
367
330
1F
100
AcDbEntity
  8
A-A
  6
Continuous
 62
     3
370
     9
100
AcDbLine
 10
1270.150179476352
 20
315.1365867820948
 30
0.0
 11
1270.150179476352
 21
325.362532332137
 31
0.0
  0
LINE
  5
368
330
1F
100
AcDbEntity
  8
A-A
  6
Continuous
 62
     3
370
     9
100
AcDbLine
 10
1267.1499716269
 20
292.9103047138938
 30
0.0
 11
1267.1499716269
 21
280.9104630753802
 31
0.0
  0
LINE
  5
369
330
1F
100
AcDbEntity
  8
A-A
  6
Continuous
 62
     3
370
     9
100
AcDbLine
 10
1267.1499716269
 20
292.9103047138938
 30
0.0
 11
1270.150179476352
 21
294.910608240076
 31
0.0
  0
LINE
  5
36A
330
1F
100
AcDbEntity
  8
A-A
  6
Continuous
 62
     3
370
     9
100
AcDbLine
 10
1270.150179476352
 20
305.1365537901182
 30
0.0
 11
1270.150179476352
 21
294.910608240076
 31
0.0
  0
LINE
  5
36B
330
1F
100
AcDbEntity
  8
A-A
  6
Continuous
 62
     3
370
     9
100
AcDbLine
 10
1267.1499716269
 20
280.9104630753802
 30
0.0
 11
1270.150179476352
 21
278.9104069890203
 31
0.0
  0
LINE
  5
36C
330
1F
100
AcDbEntity
  8
A-A
  6
Continuous
 62
     3
370
     9
100
AcDbLine
 10
1267.1499716269
 20
266.6844053526182
 30
0.0
 11
1267.1499716269
 21
260.6844845333615
 31
0.0
  0
LINE
  5
36D
330
1F
100
AcDbEntity
  8
A-A
  6
Continuous
 62
     3
370
     9
100
AcDbLine
 10
1267.1499716269
 20
266.6844053526182
 30
0.0
 11
1270.150179476352
 21
268.6844614389781
 31
0.0
  0
LINE
  5
36E
330
1F
100
AcDbEntity
  8
A-A
  6
Continuous
 62
     3
370
     9
100
AcDbLine
 10
1267.1499716269
 20
260.6844845333615
 30
0.0
 11
1270.150179476352
 21
258.6844284470018
 31
0.0
  0
LINE
  5
36F
330
1F
100
AcDbEntity
  8
A-A
  6
Continuous
 62
     3
370
     9
100
AcDbLine
 10
1270.150179476352
 20
268.6844614389781
 30
0.0
 11
1270.150179476352
 21
278.9104069890203
 31
0.0
  0
LINE
  5
370
330
1F
100
AcDbEntity
  8
A-A
  6
Continuous
 62
     3
370
     9
100
AcDbLine
 10
1267.1499716269
 20
246.4581793707771
 30
0.0
 11
1267.1499716269
 21
234.4583377322635
 31
0.0
  0
LINE
  5
371
330
1F
100
AcDbEntity
  8
A-A
  6
Continuous
 62
     3
370
     9
100
AcDbLine
 10
1267.1499716269
 20
246.4581793707771
 30
0.0
 11
1270.150179476352
 21
248.4584828969597
 31
0.0
  0
LINE
  5
372
330
1F
100
AcDbEntity
  8
A-A
  6
Continuous
 62
     3
370
     9
100
AcDbLine
 10
1270.150179476352
 20
258.6844284470018
 30
0.0
 11
1270.150179476352
 21
248.4584828969597
 31
0.0
  0
LINE
  5
373
330
1F
100
AcDbEntity
  8
A-A
  6
Continuous
 62
     3
370
     9
100
AcDbLine
 10
1267.1499716269
 20
234.4583377322635
 30
0.0
 11
1270.150179476352
 21
232.4582816459039
 31
0.0
  0
LINE
  5
374
330
1F
100
AcDbEntity
  8
A-A
  6
Continuous
 62
     3
370
     9
100
AcDbLine
 10
1267.1499716269
 20
220.2322800095018
 30
0.0
 11
1267.1499716269
 21
214.2323591902451
 31
0.0
  0
LINE
  5
375
330
1F
100
AcDbEntity
  8
A-A
  6
Continuous
 62
     3
370
     9
100
AcDbLine
 10
1267.1499716269
 20
220.2322800095018
 30
0.0
 11
1270.150179476352
 21
222.2323360958615
 31
0.0
  0
LINE
  5
376
330
1F
100
AcDbEntity
  8
A-A
  6
Continuous
 62
     3
370
     9
100
AcDbLine
 10
1267.1499716269
 20
214.2323591902451
 30
0.0
 11
1270.150179476352
 21
212.2323031038852
 31
0.0
  0
LINE
  5
377
330
1F
100
AcDbEntity
  8
A-A
  6
Continuous
 62
     3
370
     9
100
AcDbLine
 10
1270.150179476352
 20
222.2323360958615
 30
0.0
 11
1270.150179476352
 21
232.4582816459039
 31
0.0
  0
LINE
  5
378
330
1F
100
AcDbEntity
  8
A-A
  6
Continuous
 62
     3
370
     9
100
AcDbLine
 10
1267.1499716269
 20
200.0060540276607
 30
0.0
 11
1267.1499716269
 21
188.0062123891472
 31
0.0
  0
LINE
  5
379
330
1F
100
AcDbEntity
  8
A-A
  6
Continuous
 62
     3
370
     9
100
AcDbLine
 10
1267.1499716269
 20
200.0060540276607
 30
0.0
 11
1270.150179476352
 21
202.006357553843
 31
0.0
  0
LINE
  5
37A
330
1F
100
AcDbEntity
  8
A-A
  6
Continuous
 62
     3
370
     9
100
AcDbLine
 10
1270.150179476352
 20
212.2323031038852
 30
0.0
 11
1270.150179476352
 21
202.006357553843
 31
0.0
  0
LINE
  5
37B
330
1F
100
AcDbEntity
  8
A-A
  6
Continuous
 62
     3
370
     9
100
AcDbLine
 10
1267.1499716269
 20
188.0062123891472
 30
0.0
 11
1270.150179476352
 21
186.0061563027872
 31
0.0
  0
LINE
  5
37C
330
1F
100
AcDbEntity
  8
A-A
  6
Continuous
 62
     3
370
     9
100
AcDbLine
 10
1267.1499716269
 20
173.7801546663852
 30
0.0
 11
1267.1499716269
 21
167.7802338471284
 31
0.0
  0
LINE
  5
37D
330
1F
100
AcDbEntity
  8
A-A
  6
Continuous
 62
     3
370
     9
100
AcDbLine
 10
1267.1499716269
 20
173.7801546663852
 30
0.0
 11
1270.150179476352
 21
175.7802107527451
 31
0.0
  0
LINE
  5
37E
330
1F
100
AcDbEntity
  8
A-A
  6
Continuous
 62
     3
370
     9
100
AcDbLine
 10
1267.1499716269
 20
167.7802338471284
 30
0.0
 11
1270.150179476352
 21
165.7801777607688
 31
0.0
  0
LINE
  5
37F
330
1F
100
AcDbEntity
  8
A-A
  6
Continuous
 62
     3
370
     9
100
AcDbLine
 10
1270.150179476352
 20
175.7802107527451
 30
0.0
 11
1270.150179476352
 21
186.0061563027872
 31
0.0
  0
LINE
  5
380
330
1F
100
AcDbEntity
  8
A-A
  6
Continuous
 62
     3
370
     9
100
AcDbLine
 10
1267.1499716269
 20
153.553928684544
 30
0.0
 11
1267.1499716269
 21
141.5540870460305
 31
0.0
  0
LINE
  5
381
330
1F
100
AcDbEntity
  8
A-A
  6
Continuous
 62
     3
370
     9
100
AcDbLine
 10
1267.1499716269
 20
153.553928684544
 30
0.0
 11
1270.150179476352
 21
155.5542322107266
 31
0.0
  0
LINE
  5
382
330
1F
100
AcDbEntity
  8
A-A
  6
Continuous
 62
     3
370
     9
100
AcDbLine
 10
1270.150179476352
 20
165.7801777607688
 30
0.0
 11
1270.150179476352
 21
155.5542322107266
 31
0.0
  0
LINE
  5
383
330
1F
100
AcDbEntity
  8
A-A
  6
Continuous
 62
     3
370
     9
100
AcDbLine
 10
1267.1499716269
 20
141.5540870460305
 30
0.0
 11
1270.150179476352
 21
139.5540309596706
 31
0.0
  0
LINE
  5
384
330
1F
100
AcDbEntity
  8
A-A
  6
Continuous
 62
     3
370
     9
100
AcDbLine
 10
1267.1499716269
 20
127.3280293232688
 30
0.0
 11
1267.1499716269
 21
121.328108504012
 31
0.0
  0
LINE
  5
385
330
1F
100
AcDbEntity
  8
A-A
  6
Continuous
 62
     3
370
     9
100
AcDbLine
 10
1267.1499716269
 20
127.3280293232688
 30
0.0
 11
1270.150179476352
 21
129.3280854096284
 31
0.0
  0
LINE
  5
386
330
1F
100
AcDbEntity
  8
A-A
  6
Continuous
 62
     3
370
     9
100
AcDbLine
 10
1267.1499716269
 20
121.328108504012
 30
0.0
 11
1270.150179476352
 21
119.3280524176521
 31
0.0
  0
LINE
  5
387
330
1F
100
AcDbEntity
  8
A-A
  6
Continuous
 62
     3
370
     9
100
AcDbLine
 10
1270.150179476352
 20
129.3280854096284
 30
0.0
 11
1270.150179476352
 21
139.5540309596706
 31
0.0
  0
LINE
  5
388
330
1F
100
AcDbEntity
  8
A-A
  6
Continuous
 62
     3
370
     9
100
AcDbLine
 10
1267.1499716269
 20
107.1018033414273
 30
0.0
 11
1267.1499716269
 21
95.1019617029138
 31
0.0
  0
LINE
  5
389
330
1F
100
AcDbEntity
  8
A-A
  6
Continuous
 62
     3
370
     9
100
AcDbLine
 10
1267.1499716269
 20
107.1018033414273
 30
0.0
 11
1270.150179476352
 21
109.1021068676099
 31
0.0
  0
LINE
  5
38A
330
1F
100
AcDbEntity
  8
A-A
  6
Continuous
 62
     3
370
     9
100
AcDbLine
 10
1270.150179476352
 20
119.3280524176521
 30
0.0
 11
1270.150179476352
 21
109.1021068676099
 31
0.0
  0
LINE
  5
38B
330
1F
100
AcDbEntity
  8
A-A
  6
Continuous
 62
     3
370
     9
100
AcDbLine
 10
1267.1499716269
 20
95.1019617029138
 30
0.0
 11
1270.150179476352
 21
93.10190561655418
 31
0.0
  0
LINE
  5
38C
330
1F
100
AcDbEntity
  8
A-A
  6
Continuous
 62
     3
370
     9
100
AcDbLine
 10
1267.1499716269
 20
80.87590398015209
 30
0.0
 11
1267.1499716269
 21
74.87598316089532
 31
0.0
  0
LINE
  5
38D
330
1F
100
AcDbEntity
  8
A-A
  6
Continuous
 62
     3
370
     9
100
AcDbLine
 10
1267.1499716269
 20
80.87590398015209
 30
0.0
 11
1270.150179476352
 21
82.875960066512
 31
0.0
  0
LINE
  5
38E
330
1F
100
AcDbEntity
  8
A-A
  6
Continuous
 62
     3
370
     9
100
AcDbLine
 10
1267.1499716269
 20
74.87598316089532
 30
0.0
 11
1270.150179476352
 21
72.8759270745357
 31
0.0
  0
LINE
  5
38F
330
1F
100
AcDbEntity
  8
A-A
  6
Continuous
 62
     3
370
     9
100
AcDbLine
 10
1270.150179476352
 20
82.875960066512
 30
0.0
 11
1270.150179476352
 21
93.10190561655418
 31
0.0
  0
LINE
  5
390
330
1F
100
AcDbEntity
  8
A-A
  6
Continuous
 62
     3
370
     9
100
AcDbLine
 10
1267.1499716269
 20
60.64967799831095
 30
0.0
 11
1267.1499716269
 21
48.6498363597974
 31
0.0
  0
LINE
  5
391
330
1F
100
AcDbEntity
  8
A-A
  6
Continuous
 62
     3
370
     9
100
AcDbLine
 10
1267.1499716269
 20
60.64967799831095
 30
0.0
 11
1270.150179476352
 21
62.64998152449323
 31
0.0
  0
LINE
  5
392
330
1F
100
AcDbEntity
  8
A-A
  6
Continuous
 62
     3
370
     9
100
AcDbLine
 10
1270.150179476352
 20
72.8759270745357
 30
0.0
 11
1270.150179476352
 21
62.64998152449323
 31
0.0
  0
LINE
  5
393
330
1F
100
AcDbEntity
  8
A-A
  6
Continuous
 62
     3
370
     9
100
AcDbLine
 10
1267.1499716269
 20
48.6498363597974
 30
0.0
 11
1270.150179476352
 21
46.6497802734375
 31
0.0
  0
LINE
  5
394
330
1F
100
AcDbEntity
  8
A-A
  6
Continuous
 62
     3
370
     9
100
AcDbLine
 10
1267.1499716269
 20
34.4237786370357
 30
0.0
 11
1267.1499716269
 21
28.42385781777892
 31
0.0
  0
LINE
  5
395
330
1F
100
AcDbEntity
  8
A-A
  6
Continuous
 62
     3
370
     9
100
AcDbLine
 10
1267.1499716269
 20
34.4237786370357
 30
0.0
 11
1270.150179476352
 21
36.42383472339532
 31
0.0
  0
LINE
  5
396
330
1F
100
AcDbEntity
  8
A-A
  6
Continuous
 62
     3
370
     9
100
AcDbLine
 10
1267.1499716269
 20
28.42385781777892
 30
0.0
 11
1270.150179476352
 21
26.42380173141902
 31
0.0
  0
LINE
  5
397
330
1F
100
AcDbEntity
  8
A-A
  6
Continuous
 62
     3
370
     9
100
AcDbLine
 10
1270.150179476352
 20
36.42383472339532
 30
0.0
 11
1270.150179476352
 21
46.6497802734375
 31
0.0
  0
LINE
  5
398
330
1F
100
AcDbEntity
  8
A-A
  6
Continuous
 62
     3
370
     9
100
AcDbLine
 10
1267.1499716269
 20
14.19755265519427
 30
0.0
 11
1267.1499716269
 21
2.197711016680728
 31
0.0
  0
LINE
  5
399
330
1F
100
AcDbEntity
  8
A-A
  6
Continuous
 62
     3
370
     9
100
AcDbLine
 10
1267.1499716269
 20
14.19755265519427
 30
0.0
 11
1270.150179476352
 21
16.19785618137684
 31
0.0
  0
LINE
  5
39A
330
1F
100
AcDbEntity
  8
A-A
  6
Continuous
 62
     3
370
     9
100
AcDbLine
 10
1270.150179476352
 20
26.42380173141902
 30
0.0
 11
1270.150179476352
 21
16.19785618137684
 31
0.0
  0
LINE
  5
39B
330
1F
100
AcDbEntity
  8
A-A
  6
Continuous
 62
     3
370
     9
100
AcDbLine
 10
1267.1499716269
 20
2.197711016680728
 30
0.0
 11
1270.150179476352
 21
0.1976549303211073
 31
0.0
  0
LINE
  5
39C
330
1F
100
AcDbEntity
  8
A-A
  6
Continuous
 62
     3
370
     9
100
AcDbLine
 10
1270.150179476352
 20
-16.15242622994089
 30
0.0
 11
1270.150179476352
 21
0.1976549303211073
 31
0.0
  0
LINE
  5
39D
330
1F
100
AcDbEntity
  8
A-2_蓋
  6
Continuous
 62
     3
370
     9
100
AcDbLine
 10
1270.150179476352
 20
-16.15242622994089
 30
0.0
 11
1380.150294948269
 21
-16.15242622994089
 31
0.0
  0
LINE
  5
39E
330
1F
100
AcDbEntity
  8
A-2_蓋
  6
Continuous
 62
     3
370
     9
100
AcDbLine
 10
1290.150245460304
 20
604.7809827649917
 30
0.0
 11
1290.150245460304
 21
731.2207526129646
 31
0.0
  0
LINE
  5
39F
330
1F
100
AcDbEntity
  8
A-2_蓋
  6
Continuous
 62
     3
370
     9
100
AcDbLine
 10
1290.150245460304
 20
736.4753846864443
 30
0.0
 11
1290.150245460304
 21
874.8481874208193
 31
0.0
  0
LINE
  5
3A0
330
1F
100
AcDbEntity
  8
A-2_蓋
  6
Continuous
 62
     3
370
     9
100
AcDbLine
 10
1292.777561497044
 20
533.8480274097342
 30
0.0
 11
1281.463870486698
 21
522.5343363993877
 31
0.0
  0
LINE
  5
3A1
330
1F
100
AcDbEntity
  8
A-2_蓋
  6
Continuous
 62
     3
370
     9
100
AcDbLine
 10
1281.463870486698
 20
522.5343363993877
 30
0.0
 11
1270.150179476352
 21
533.8480274097342
 31
0.0
  0
LINE
  5
3A2
330
1F
100
AcDbEntity
  8
A-2_蓋
  6
Continuous
 62
     3
370
     9
100
AcDbLine
 10
1270.150179476352
 20
533.8480274097342
 30
0.0
 11
1281.463870486698
 21
545.1617184200804
 31
0.0
  0
LINE
  5
3A3
330
1F
100
AcDbEntity
  8
A-2_蓋
  6
Continuous
 62
     3
370
     9
100
AcDbLine
 10
1281.463870486698
 20
545.1617184200804
 30
0.0
 11
1292.777561497044
 21
533.8480274097342
 31
0.0
  0
LINE
  5
3A4
330
1F
100
AcDbEntity
  8
A-2_蓋
  6
Continuous
 62
     3
370
     9
100
AcDbLine
 10
1292.777561497044
 20
333.848109889675
 30
0.0
 11
1281.463870486698
 21
322.5344188793287
 31
0.0
  0
LINE
  5
3A5
330
1F
100
AcDbEntity
  8
A-2_蓋
  6
Continuous
 62
     3
370
     9
100
AcDbLine
 10
1281.463870486698
 20
322.5344188793287
 30
0.0
 11
1270.150179476352
 21
333.848109889675
 31
0.0
  0
LINE
  5
3A6
330
1F
100
AcDbEntity
  8
A-2_蓋
  6
Continuous
 62
     3
370
     9
100
AcDbLine
 10
1270.150179476352
 20
333.848109889675
 30
0.0
 11
1281.463870486698
 21
345.1618009000211
 31
0.0
  0
LINE
  5
3A7
330
1F
100
AcDbEntity
  8
A-2_蓋
  6
Continuous
 62
     3
370
     9
100
AcDbLine
 10
1281.463870486698
 20
345.1618009000211
 30
0.0
 11
1292.777561497044
 21
333.848109889675
 31
0.0
  0
LINE
  5
3A8
330
1F
100
AcDbEntity
  8
A-2_蓋
  6
Continuous
 62
     3
370
     9
100
AcDbLine
 10
1292.777561497044
 20
133.8480686497044
 30
0.0
 11
1281.463870486698
 21
122.5343776393581
 31
0.0
  0
LINE
  5
3A9
330
1F
100
AcDbEntity
  8
A-2_蓋
  6
Continuous
 62
     3
370
     9
100
AcDbLine
 10
1281.463870486698
 20
122.5343776393581
 30
0.0
 11
1270.150179476352
 21
133.8480686497044
 31
0.0
  0
LINE
  5
3AA
330
1F
100
AcDbEntity
  8
A-2_蓋
  6
Continuous
 62
     3
370
     9
100
AcDbLine
 10
1270.150179476352
 20
133.8480686497044
 30
0.0
 11
1281.463870486698
 21
145.1617596600508
 31
0.0
  0
LINE
  5
3AB
330
1F
100
AcDbEntity
  8
A-2_蓋
  6
Continuous
 62
     3
370
     9
100
AcDbLine
 10
1281.463870486698
 20
145.1617596600508
 30
0.0
 11
1292.777561497044
 21
133.8480686497044
 31
0.0
  0
LINE
  5
3AC
330
1F
100
AcDbEntity
  8
A-2_蓋
  6
Continuous
 62
     3
370
     9
100
AcDbLine
 10
1290.150245460304
 20
604.7809827649917
 30
0.0
 11
1290.150245460304
 21
536.475343446474
 31
0.0
  0
LINE
  5
3AD
330
1F
100
AcDbEntity
  8
A-2_蓋
  6
Continuous
 62
     3
370
     9
100
AcDbLine
 10
1290.150245460304
 20
531.2207113729943
 30
0.0
 11
1290.150245460304
 21
336.4754259264149
 31
0.0
  0
LINE
  5
3AE
330
1F
100
AcDbEntity
  8
A-2_蓋
  6
Continuous
 62
     3
370
     9
100
AcDbLine
 10
1290.150245460304
 20
331.2207938529352
 30
0.0
 11
1290.150245460304
 21
136.4753846864443
 31
0.0
  0
LINE
  5
3AF
330
1F
100
AcDbEntity
  8
A-2_蓋
  6
Continuous
 62
     3
370
     9
100
AcDbLine
 10
1290.150245460304
 20
131.2207526129646
 30
0.0
 11
1290.150245460304
 21
-7.152545001055728
 31
0.0
  0
LINE
  5
3B0
330
1F
100
AcDbEntity
  8
D-2_蓋
  6
Continuous
 62
     3
370
     9
100
AcDbLine
 10
-422.6888295766469
 20
-594.0541942699535
 30
0.0
 11
-428.4050606392523
 21
-594.0541942699535
 31
0.0
  0
LINE
  5
3B1
330
1F
100
AcDbEntity
  8
D-2_蓋
  6
Continuous
 62
     3
370
     9
100
AcDbLine
 10
-422.6888295766469
 20
-894.0541324099979
 30
0.0
 11
-819.2031035552154
 21
-894.0541324099979
 31
0.0
  0
LINE
  5
3B2
330
1F
100
AcDbEntity
  8
D-2_蓋
  6
Continuous
 62
     3
370
     9
100
AcDbLine
 10
-326.9058639938766
 20
-594.0541942699535
 30
0.0
 11
-291.9058722418706
 21
-594.0541942699535
 31
0.0
  0
LINE
  5
3B3
330
1F
100
AcDbEntity
  8
D-2_蓋
  6
Continuous
 62
     3
370
     9
100
AcDbLine
 10
-291.9058722418706
 20
-894.0541324099979
 30
0.0
 11
-326.9058639938766
 21
-894.0541324099979
 31
0.0
  0
LINE
  5
3B4
330
1F
100
AcDbEntity
  8
D-2_蓋
  6
Continuous
 62
     3
370
     9
100
AcDbLine
 10
-326.9058639938766
 20
-586.5537983662373
 30
0.0
 11
-291.9058722418706
 21
-586.5537983662373
 31
0.0
  0
LINE
  5
3B5
330
1F
100
AcDbEntity
  8
D-2_蓋
  6
Continuous
 62
     3
370
     9
100
AcDbLine
 10
-326.9058639938766
 20
-586.5537983662373
 30
0.0
 11
-326.9058639938766
 21
-644.0539880701012
 31
0.0
  0
LINE
  5
3B6
330
1F
100
AcDbEntity
  8
D-2_蓋
  6
Continuous
 62
     3
370
     9
100
AcDbLine
 10
-291.9058722418706
 20
-586.5537983662373
 30
0.0
 11
-291.9058722418706
 21
-644.0539880701012
 31
0.0
  0
LINE
  5
3B7
330
1F
100
AcDbEntity
  8
D-4_寸法
  6
Continuous
 62
     7
370
     9
100
AcDbLine
 10
-169.4596574113174
 20
-894.0541324099979
 30
0.0
 11
-169.4596574113174
 21
-594.0541942699535
 31
0.0
  0
LINE
  5
3B8
330
1F
100
AcDbEntity
  8
D-4_寸法
  6
Continuous
 62
     7
370
     9
100
AcDbLine
 10
-273.1316231392523
 20
-894.0541324099979
 30
0.0
 11
-166.4596970016891
 21
-894.0541324099979
 31
0.0
  0
LINE
  5
3B9
330
1F
100
AcDbEntity
  8
D-4_寸法
  6
Continuous
 62
     7
370
     9
100
AcDbLine
 10
-273.1316231392523
 20
-594.0541942699535
 30
0.0
 11
-166.4596970016891
 21
-594.0541942699535
 31
0.0
  0
LINE
  5
3BA
330
1F
100
AcDbEntity
  8
D-4_寸法
  6
Continuous
 62
     7
370
     9
100
AcDbLine
 10
-169.4596574113174
 20
-894.0541324099979
 30
0.0
 11
-172.7228937922297
 21
-869.2682709565033
 31
0.0
  0
LINE
  5
3BB
330
1F
100
AcDbEntity
  8
D-4_寸法
  6
Continuous
 62
     7
370
     9
100
AcDbLine
 10
-169.4596574113174
 20
-894.0541324099979
 30
0.0
 11
-166.1965447503167
 21
-869.2682709565033
 31
0.0
  0
LINE
  5
3BC
330
1F
100
AcDbEntity
  8
D-4_寸法
  6
Continuous
 62
     7
370
     9
100
AcDbLine
 10
-169.4596574113174
 20
-594.0541942699535
 30
0.0
 11
-172.7228937922297
 21
-618.840055723448
 31
0.0
  0
LINE
  5
3BD
330
1F
100
AcDbEntity
  8
D-4_寸法
  6
Continuous
 62
     7
370
     9
100
AcDbLine
 10
-169.4596574113174
 20
-594.0541942699535
 30
0.0
 11
-166.1965447503167
 21
-618.840055723448
 31
0.0
  0
LINE
  5
3BE
330
1F
100
AcDbEntity
  8
D-4_寸法
  6
Continuous
 62
     7
370
     9
100
AcDbLine
 10
-291.9058722418706
 20
-574.9697793496621
 30
0.0
 11
-291.9058722418706
 21
-538.8000158361485
 31
0.0
  0
LINE
  5
3BF
330
1F
100
AcDbEntity
  8
D-4_寸法
  6
Continuous
 62
     7
370
     9
100
AcDbLine
 10
-326.9058639938766
 20
-574.9697793496621
 30
0.0
 11
-326.9058639938766
 21
-538.8000158361485
 31
0.0
  0
LINE
  5
3C0
330
1F
100
AcDbEntity
  8
D-4_寸法
  6
Continuous
 62
     7
370
     9
100
AcDbLine
 10
-291.9058722418706
 20
-541.8000999656883
 30
0.0
 11
-267.1195777686864
 21
-538.5369254447318
 31
0.0
  0
LINE
  5
3C1
330
1F
100
AcDbEntity
  8
D-4_寸法
  6
Continuous
 62
     7
370
     9
100
AcDbLine
 10
-291.9058722418706
 20
-541.8000999656883
 30
0.0
 11
-267.1195777686864
 21
-545.0632744866448
 31
0.0
  0
LINE
  5
3C2
330
1F
100
AcDbEntity
  8
D-4_寸法
  6
Continuous
 62
     7
370
     9
100
AcDbLine
 10
-326.9058639938766
 20
-541.8000999656883
 30
0.0
 11
-351.6921584670607
 21
-538.5369254447318
 31
0.0
  0
LINE
  5
3C3
330
1F
100
AcDbEntity
  8
D-4_寸法
  6
Continuous
 62
     7
370
     9
100
AcDbLine
 10
-326.9058639938766
 20
-541.8000999656883
 30
0.0
 11
-351.6921584670607
 21
-545.0632744866448
 31
0.0
  0
LINE
  5
3C4
330
1F
100
AcDbEntity
  8
D-4_寸法
  6
Continuous
 62
     7
370
     9
100
AcDbLine
 10
-264.0332608609586
 20
-541.8000999656883
 30
0.0
 11
-354.5891839104729
 21
-541.8000999656883
 31
0.0
  0
LINE
  5
3C5
330
1F
100
AcDbEntity
  8
D-4_寸法
  6
Continuous
 62
     7
370
     9
100
AcDbLine
 10
-299.406268145587
 20
-759.5853733372043
 30
0.0
 11
-274.6199736724029
 21
-756.3222606762035
 31
0.0
  0
LINE
  5
3C6
330
1F
100
AcDbEntity
  8
D-4_寸法
  6
Continuous
 62
     7
370
     9
100
AcDbLine
 10
-299.406268145587
 20
-759.5853733372043
 30
0.0
 11
-274.6199736724029
 21
-762.8485478581608
 31
0.0
  0
LINE
  5
3C7
330
1F
100
AcDbEntity
  8
D-4_寸法
  6
Continuous
 62
     7
370
     9
100
AcDbLine
 10
-319.4058392498943
 20
-759.5853733372043
 30
0.0
 11
-344.1917625633445
 21
-756.3222606762035
 31
0.0
  0
LINE
  5
3C8
330
1F
100
AcDbEntity
  8
D-4_寸法
  6
Continuous
 62
     7
370
     9
100
AcDbLine
 10
-319.4058392498943
 20
-759.5853733372043
 30
0.0
 11
-344.1917625633445
 21
-762.8485478581608
 31
0.0
  0
LINE
  5
3C9
330
1F
100
AcDbEntity
  8
D-4_寸法
  6
Continuous
 62
     7
370
     9
100
AcDbLine
 10
-261.1487311285893
 20
-759.5853733372043
 30
0.0
 11
-349.1195266311232
 21
-759.5853733372043
 31
0.0
  0
LINE
  5
3CA
330
1F
100
AcDbEntity
  8
D-2_蓋
  6
Continuous
 62
     3
370
     9
100
AcDbLine
 10
-433.4053245750633
 20
-586.5537983662373
 30
0.0
 11
-448.4052503431164
 21
-586.5537983662373
 31
0.0
  0
LINE
  5
3CB
330
1F
100
AcDbEntity
  8
D-2_蓋
  6
Continuous
 62
     3
370
     9
100
AcDbLine
 10
-433.4053245750633
 20
-586.5537983662373
 30
0.0
 11
-428.4050606392523
 21
-594.0541942699535
 31
0.0
  0
LINE
  5
3CC
330
1F
100
AcDbEntity
  8
D-2_蓋
  6
Continuous
 62
     3
370
     9
100
AcDbLine
 10
-513.9701224662161
 20
-586.5537983662373
 30
0.0
 11
-518.9698915223818
 21
-594.0541942699535
 31
0.0
  0
LINE
  5
3CD
330
1F
100
AcDbEntity
  8
D-2_蓋
  6
Continuous
 62
     3
370
     9
100
AcDbLine
 10
-483.9698997703758
 20
-586.5537983662373
 30
0.0
 11
-513.9701224662161
 21
-586.5537983662373
 31
0.0
  0
LINE
  5
3CE
330
1F
100
AcDbEntity
  8
D-2_蓋
  6
Continuous
 62
     3
370
     9
100
AcDbLine
 10
-483.9698997703758
 20
-586.5537983662373
 30
0.0
 11
-478.9701307142101
 21
-594.0541942699535
 31
0.0
  0
LINE
  5
3CF
330
1F
100
AcDbEntity
  8
D-2_蓋
  6
Continuous
 62
     3
370
     9
100
AcDbLine
 10
-453.405019399282
 20
-594.0541942699535
 30
0.0
 11
-478.9701307142101
 21
-594.0541942699535
 31
0.0
  0
LINE
  5
3D0
330
1F
100
AcDbEntity
  8
D-2_蓋
  6
Continuous
 62
     3
370
     9
100
AcDbLine
 10
-448.4052503431164
 20
-586.5537983662373
 30
0.0
 11
-453.405019399282
 21
-594.0541942699535
 31
0.0
  0
LINE
  5
3D1
330
1F
100
AcDbEntity
  8
D-2_蓋
  6
Continuous
 62
     3
370
     9
100
AcDbLine
 10
-549.5347718934755
 20
-586.5537983662373
 30
0.0
 11
-564.5350688212625
 21
-586.5537983662373
 31
0.0
  0
LINE
  5
3D2
330
1F
100
AcDbEntity
  8
D-2_蓋
  6
Continuous
 62
     3
370
     9
100
AcDbLine
 10
-549.5347718934755
 20
-586.5537983662373
 30
0.0
 11
-544.5350028373099
 21
-594.0541942699535
 31
0.0
  0
LINE
  5
3D3
330
1F
100
AcDbEntity
  8
D-2_蓋
  6
Continuous
 62
     3
370
     9
100
AcDbLine
 10
-630.1000646642738
 20
-586.5537983662373
 30
0.0
 11
-635.099833720439
 21
-594.0541942699535
 31
0.0
  0
LINE
  5
3D4
330
1F
100
AcDbEntity
  8
D-2_蓋
  6
Continuous
 62
     3
370
     9
100
AcDbLine
 10
-600.0998419684331
 20
-586.5537983662373
 30
0.0
 11
-630.1000646642738
 21
-586.5537983662373
 31
0.0
  0
LINE
  5
3D5
330
1F
100
AcDbEntity
  8
D-2_蓋
  6
Continuous
 62
     3
370
     9
100
AcDbLine
 10
-600.0998419684331
 20
-586.5537983662373
 30
0.0
 11
-595.1000729122677
 21
-594.0541942699535
 31
0.0
  0
LINE
  5
3D6
330
1F
100
AcDbEntity
  8
D-2_蓋
  6
Continuous
 62
     3
370
     9
100
AcDbLine
 10
-569.5348378774281
 20
-594.0541942699535
 30
0.0
 11
-595.1000729122677
 21
-594.0541942699535
 31
0.0
  0
LINE
  5
3D7
330
1F
100
AcDbEntity
  8
D-2_蓋
  6
Continuous
 62
     3
370
     9
100
AcDbLine
 10
-564.5350688212625
 20
-586.5537983662373
 30
0.0
 11
-569.5348378774281
 21
-594.0541942699535
 31
0.0
  0
LINE
  5
3D8
330
1F
100
AcDbEntity
  8
D-2_蓋
  6
Continuous
 62
     3
370
     9
100
AcDbLine
 10
-544.5350028373099
 20
-594.0541942699535
 30
0.0
 11
-518.9698915223818
 21
-594.0541942699535
 31
0.0
  0
LINE
  5
3D9
330
1F
100
AcDbEntity
  8
D-2_蓋
  6
Continuous
 62
     3
370
     9
100
AcDbLine
 10
-665.6647140915328
 20
-586.5537983662373
 30
0.0
 11
-680.6651347392312
 21
-586.5537983662373
 31
0.0
  0
LINE
  5
3DA
330
1F
100
AcDbEntity
  8
D-2_蓋
  6
Continuous
 62
     3
370
     9
100
AcDbLine
 10
-665.6647140915328
 20
-586.5537983662373
 30
0.0
 11
-660.6649450353675
 21
-594.0541942699535
 31
0.0
  0
LINE
  5
3DB
330
1F
100
AcDbEntity
  8
D-2_蓋
  6
Continuous
 62
     3
370
     9
100
AcDbLine
 10
-746.2295119826856
 20
-586.5537983662373
 30
0.0
 11
-751.2297759184967
 21
-594.0541942699535
 31
0.0
  0
LINE
  5
3DC
330
1F
100
AcDbEntity
  8
D-2_蓋
  6
Continuous
 62
     3
370
     9
100
AcDbLine
 10
-716.2297841664906
 20
-586.5537983662373
 30
0.0
 11
-746.2295119826856
 21
-586.5537983662373
 31
0.0
  0
LINE
  5
3DD
330
1F
100
AcDbEntity
  8
D-2_蓋
  6
Continuous
 62
     3
370
     9
100
AcDbLine
 10
-716.2297841664906
 20
-586.5537983662373
 30
0.0
 11
-711.230015110325
 21
-594.0541942699535
 31
0.0
  0
LINE
  5
3DE
330
1F
100
AcDbEntity
  8
D-2_蓋
  6
Continuous
 62
     3
370
     9
100
AcDbLine
 10
-685.6649037953969
 20
-594.0541942699535
 30
0.0
 11
-711.230015110325
 21
-594.0541942699535
 31
0.0
  0
LINE
  5
3DF
330
1F
100
AcDbEntity
  8
D-2_蓋
  6
Continuous
 62
     3
370
     9
100
AcDbLine
 10
-680.6651347392312
 20
-586.5537983662373
 30
0.0
 11
-685.6649037953969
 21
-594.0541942699535
 31
0.0
  0
LINE
  5
3E0
330
1F
100
AcDbEntity
  8
D-2_蓋
  6
Continuous
 62
     3
370
     9
100
AcDbLine
 10
-660.6649450353675
 20
-594.0541942699535
 30
0.0
 11
-635.099833720439
 21
-594.0541942699535
 31
0.0
  0
LINE
  5
3E1
330
1F
100
AcDbEntity
  8
D-2_蓋
  6
Continuous
 62
     3
370
     9
100
AcDbLine
 10
-781.7946562895904
 20
-586.5537983662373
 30
0.0
 11
-796.7950769372887
 21
-586.5537983662373
 31
0.0
  0
LINE
  5
3E2
330
1F
100
AcDbEntity
  8
D-2_蓋
  6
Continuous
 62
     3
370
     9
100
AcDbLine
 10
-781.7946562895904
 20
-586.5537983662373
 30
0.0
 11
-776.7948872334248
 21
-594.0541942699535
 31
0.0
  0
LINE
  5
3E3
330
1F
100
AcDbEntity
  8
D-2_蓋
  6
Continuous
 62
     3
370
     9
100
AcDbLine
 10
-796.7950769372887
 20
-586.5537983662373
 30
0.0
 11
-801.7948459934544
 21
-594.0541942699535
 31
0.0
  0
LINE
  5
3E4
330
1F
100
AcDbEntity
  8
D-2_蓋
  6
Continuous
 62
     3
370
     9
100
AcDbLine
 10
-776.7948872334248
 20
-594.0541942699535
 30
0.0
 11
-751.2297759184967
 21
-594.0541942699535
 31
0.0
  0
LINE
  5
3E5
330
1F
100
AcDbEntity
  8
D-2_蓋
  6
Continuous
 62
     3
370
     9
100
AcDbLine
 10
-801.7948459934544
 20
-594.0541942699535
 30
0.0
 11
-819.2031035552154
 21
-594.0541942699535
 31
0.0
  0
LINE
  5
3E6
330
1F
100
AcDbEntity
  8
D-2_蓋
  6
Continuous
 62
     3
370
     9
100
AcDbLine
 10
-319.4058392498943
 20
-651.5538890941723
 30
0.0
 11
-326.9058639938766
 21
-644.0539880701012
 31
0.0
  0
LINE
  5
3E7
330
1F
100
AcDbEntity
  8
D-2_蓋
  6
Continuous
 62
     3
370
     9
100
AcDbLine
 10
-299.406268145587
 20
-651.5538890941723
 30
0.0
 11
-291.9058722418706
 21
-644.0539880701012
 31
0.0
  0
LINE
  5
3E8
330
1F
100
AcDbEntity
  8
D-2_蓋
  6
Continuous
 62
     3
370
     9
100
AcDbLine
 10
-326.9058639938766
 20
-894.0541324099979
 30
0.0
 11
-326.9058639938766
 21
-844.0544004698057
 31
0.0
  0
LINE
  5
3E9
330
1F
100
AcDbEntity
  8
D-2_蓋
  6
Continuous
 62
     3
370
     9
100
AcDbLine
 10
-326.9058639938766
 20
-844.0544004698057
 30
0.0
 11
-319.4058392498943
 21
-836.5544994457348
 31
0.0
  0
LINE
  5
3EA
330
1F
100
AcDbEntity
  8
D-2_蓋
  6
Continuous
 62
     3
370
     9
100
AcDbLine
 10
-319.4058392498943
 20
-651.5538890941723
 30
0.0
 11
-319.4058392498943
 21
-836.5544994457348
 31
0.0
  0
LINE
  5
3EB
330
1F
100
AcDbEntity
  8
D-2_蓋
  6
Continuous
 62
     3
370
     9
100
AcDbLine
 10
-299.406268145587
 20
-651.5538890941723
 30
0.0
 11
-299.406268145587
 21
-836.5544994457348
 31
0.0
  0
LINE
  5
3EC
330
1F
100
AcDbEntity
  8
D-2_蓋
  6
Continuous
 62
     3
370
     9
100
AcDbLine
 10
-299.406268145587
 20
-836.5544994457348
 30
0.0
 11
-291.9058722418706
 21
-844.0544004698057
 31
0.0
  0
LINE
  5
3ED
330
1F
100
AcDbEntity
  8
D-2_蓋
  6
Continuous
 62
     3
370
     9
100
AcDbLine
 10
-291.9058722418706
 20
-844.0544004698057
 30
0.0
 11
-291.9058722418706
 21
-894.0541324099979
 31
0.0
  0
LINE
  5
3EE
330
1F
100
AcDbEntity
  8
D-2_蓋
  6
Continuous
 62
     3
370
     9
100
AcDbLine
 10
-422.6888295766469
 20
-844.0544004698057
 30
0.0
 11
-819.2031035552154
 21
-844.0544004698057
 31
0.0
  0
LINE
  5
3EF
330
1F
100
AcDbEntity
  8
D-2_蓋
  6
Continuous
 62
     3
370
     9
100
AcDbLine
 10
-422.6888295766469
 20
-836.5544994457348
 30
0.0
 11
-819.2031035552154
 21
-836.5544994457348
 31
0.0
  0
LINE
  5
3F0
330
1F
100
AcDbEntity
  8
D-2_蓋
  6
Continuous
 62
     3
370
     9
100
AcDbLine
 10
-422.6888295766469
 20
-644.0539880701012
 30
0.0
 11
-819.2031035552154
 21
-644.0539880701012
 31
0.0
  0
LINE
  5
3F1
330
1F
100
AcDbEntity
  8
D-2_蓋
  6
Continuous
 62
     3
370
     9
100
AcDbLine
 10
-422.6888295766469
 20
-651.553394214527
 30
0.0
 11
-819.2031035552154
 21
-651.553394214527
 31
0.0
  0
LINE
  5
3F2
330
1F
100
AcDbEntity
  8
D-4_寸法
  6
Continuous
 62
     7
370
     9
100
AcDbLine
 10
-1045.945945945946
 20
-969.0542251999314
 30
0.0
 11
-1045.945945945946
 21
-1039.054054054054
 31
0.0
  0
LINE
  5
3F3
330
1F
100
AcDbEntity
  8
D-4_寸法
  6
Continuous
 62
     7
370
     9
100
AcDbLine
 10
-195.9458634660049
 20
-969.0542251999314
 30
0.0
 11
-1045.945945945946
 21
-969.0542251999314
 31
0.0
  0
LINE
  5
3F4
330
1F
100
AcDbEntity
  8
D-4_寸法
  6
Continuous
 62
     7
370
     9
100
AcDbLine
 10
-195.9458634660049
 20
-969.0542251999314
 30
0.0
 11
-195.9458634660049
 21
-1039.054054054054
 31
0.0
  0
LINE
  5
3F5
330
1F
100
AcDbEntity
  8
D-4_寸法
  6
Continuous
 62
     7
370
     9
100
AcDbLine
 10
-195.9458634660049
 20
-1039.054054054054
 30
0.0
 11
-1045.945945945946
 21
-1039.054054054054
 31
0.0
  0
LINE
  5
3F6
330
1F
100
AcDbEntity
  8
D-2_蓋
  6
Continuous
 62
     3
370
     9
100
AcDbLine
 10
-958.0111529376054
 20
-669.5279796703442
 30
0.0
 11
-950.48452841269
 21
-677.05417117557
 31
0.0
  0
LINE
  5
3F7
330
1F
100
AcDbEntity
  8
D-2_蓋
  6
Continuous
 62
     3
370
     9
100
AcDbLine
 10
-975.4848583324535
 20
-673.266795390361
 30
0.0
 11
-954.4258736275337
 21
-694.3262131149704
 31
0.0
  0
LINE
  5
3F8
330
1F
100
AcDbEntity
  8
D-2_蓋
  6
Continuous
 62
     3
370
     9
100
AcDbLine
 10
-975.4848583324535
 20
-611.9807145402239
 30
0.0
 11
-950.48452841269
 21
-636.9811681798985
 31
0.0
  0
LINE
  5
3F9
330
1F
100
AcDbEntity
  8
D-2_蓋
  6
Continuous
 62
     3
370
     9
100
AcDbLine
 10
-961.9907276050463
 20
-614.868832150021
 30
0.0
 11
-950.48452841269
 21
-626.3741653029983
 31
0.0
  0
LINE
  5
3FA
330
1F
100
AcDbEntity
  8
D-2_蓋
  6
Continuous
 62
     3
370
     9
100
AcDbLine
 10
-950.48452841269
 20
-597.6463400351033
 30
0.0
 11
-950.48452841269
 21
-889.1207390862542
 31
0.0
  0
LINE
  5
3FB
330
1F
100
AcDbEntity
  8
D-4_寸法
  6
Continuous
 62
     7
370
     9
100
AcDbLine
 10
-992.4214955922719
 20
-817.1048633472338
 30
0.0
 11
-1046.116431983741
 21
-817.1048633472338
 31
0.0
  0
LINE
  5
3FC
330
1F
100
AcDbEntity
  8
D-4_寸法
  6
Continuous
 62
     7
370
     9
100
AcDbLine
 10
-992.4214955922719
 20
-842.2181495460303
 30
0.0
 11
-1046.116431983741
 21
-842.2181495460303
 31
0.0
  0
LINE
  5
3FD
330
1F
100
AcDbEntity
  8
D-4_寸法
  6
Continuous
 62
     7
370
     9
100
AcDbLine
 10
-1043.116842733847
 20
-817.1048633472338
 30
0.0
 11
-1046.379955394848
 21
-792.319063753695
 31
0.0
  0
LINE
  5
3FE
330
1F
100
AcDbEntity
  8
D-4_寸法
  6
Continuous
 62
     7
370
     9
100
AcDbLine
 10
-1043.116842733847
 20
-817.1048633472338
 30
0.0
 11
-1039.85311147329
 21
-792.319063753695
 31
0.0
  0
LINE
  5
3FF
330
1F
100
AcDbEntity
  8
D-4_寸法
  6
Continuous
 62
     7
370
     9
100
AcDbLine
 10
-1043.116842733847
 20
-842.2181495460303
 30
0.0
 11
-1046.379955394848
 21
-867.0040109995249
 31
0.0
  0
LINE
  5
400
330
1F
100
AcDbEntity
  8
D-4_寸法
  6
Continuous
 62
     7
370
     9
100
AcDbLine
 10
-1043.116842733847
 20
-842.2181495460303
 30
0.0
 11
-1039.85311147329
 21
-867.0040109995249
 31
0.0
  0
LINE
  5
401
330
1F
100
AcDbEntity
  8
D-4_寸法
  6
Continuous
 62
     7
370
     9
100
AcDbLine
 10
-1043.116842733847
 20
-785.6054027660473
 30
0.0
 11
-1043.116842733847
 21
-881.4786220241238
 31
0.0
  0
LINE
  5
402
330
1F
100
AcDbEntity
  8
D-4_寸法
  6
Continuous
 62
     7
370
     9
100
AcDbLine
 10
-939.0296729835303
 20
-691.0313044367609
 30
0.0
 11
-907.0135580526814
 21
-684.180438067462
 31
0.0
  0
LINE
  5
403
330
1F
100
AcDbEntity
  8
D-4_寸法
  6
Continuous
 62
     7
370
     9
100
AcDbLine
 10
-944.260921993771
 20
-666.5848685599661
 30
0.0
 11
-912.2451782226562
 21
-659.7335691709776
 31
0.0
  0
LINE
  5
404
330
1F
100
AcDbEntity
  8
D-4_寸法
  6
Continuous
 62
     7
370
     9
100
AcDbLine
 10
-909.947699469489
 20
-684.8082547574429
 30
0.0
 11
-901.569263355152
 21
-708.3628556535051
 31
0.0
  0
LINE
  5
405
330
1F
100
AcDbEntity
  8
D-4_寸法
  6
Continuous
 62
     7
370
     9
100
AcDbLine
 10
-909.947699469489
 20
-684.8082547574429
 30
0.0
 11
-907.95147870038
 21
-709.7283523147171
 31
0.0
  0
LINE
  5
406
330
1F
100
AcDbEntity
  8
D-4_寸法
  6
Continuous
 62
     7
370
     9
100
AcDbLine
 10
-915.1788247598183
 20
-660.3618188806481
 30
0.0
 11
-917.1745506492821
 21
-635.441226443729
 31
0.0
  0
LINE
  5
407
330
1F
100
AcDbEntity
  8
D-4_寸法
  6
Continuous
 62
     7
370
     9
100
AcDbLine
 10
-915.1788247598183
 20
-660.3618188806481
 30
0.0
 11
-923.5562711148648
 21
-636.807217984586
 31
0.0
  0
LINE
  5
408
330
1F
100
AcDbEntity
  8
D-4_寸法
  6
Continuous
 62
     7
370
     9
100
AcDbLine
 10
-903.6731204471072
 20
-714.1270900417019
 30
0.0
 11
-922.029196249472
 21
-628.3491062473605
 31
0.0
  0
LINE
  5
409
330
1F
100
AcDbEntity
  8
D-2_蓋
  6
Continuous
 62
     3
370
     9
100
AcDbLine
 10
-985.4848913244298
 20
-597.6463400351033
 30
0.0
 11
-985.4848913244298
 21
-889.1207390862542
 31
0.0
  0
LINE
  5
40A
330
1F
100
AcDbEntity
  8
D-2_蓋
  6
Continuous
 62
     3
370
     9
100
AcDbLine
 10
-985.4848913244298
 20
-635.4075746278505
 30
0.0
 11
-950.48452841269
 21
-642.8970831793707
 31
0.0
  0
LINE
  5
40B
330
1F
100
AcDbEntity
  8
D-2_蓋
  6
Continuous
 62
     3
370
     9
100
AcDbLine
 10
-985.4848913244298
 20
-637.9636279956713
 30
0.0
 11
-950.48452841269
 21
-645.453631426837
 31
0.0
  0
LINE
  5
40C
330
1F
100
AcDbEntity
  8
D-2_蓋
  6
Continuous
 62
     3
370
     9
100
AcDbLine
 10
-950.48452841269
 20
-614.7741864178631
 30
0.0
 11
-985.4848913244298
 21
-607.2846778663428
 31
0.0
  0
LINE
  5
40D
330
1F
100
AcDbEntity
  8
D-2_蓋
  6
Continuous
 62
     3
370
     9
100
AcDbLine
 10
-950.48452841269
 20
-617.3308583852406
 30
0.0
 11
-985.4848913244298
 21
-609.8413498337204
 31
0.0
  0
LINE
  5
40E
330
1F
100
AcDbEntity
  8
D-2_蓋
  6
Continuous
 62
     3
370
     9
100
AcDbLine
 10
-966.7477581952069
 20
-671.3978824099978
 30
0.0
 11
-950.48452841269
 21
-687.6601842931798
 31
0.0
  0
LINE
  5
40F
330
1F
100
AcDbEntity
  8
D-2_蓋
  6
Continuous
 62
     3
370
     9
100
AcDbLine
 10
-985.4848913244298
 20
-675.4072117161105
 30
0.0
 11
-950.48452841269
 21
-667.917208284945
 31
0.0
  0
LINE
  5
410
330
1F
100
AcDbEntity
  8
D-2_蓋
  6
Continuous
 62
     3
370
     9
100
AcDbLine
 10
-985.4848913244298
 20
-672.8506016086886
 30
0.0
 11
-950.48452841269
 21
-665.3610930571685
 31
0.0
  0
LINE
  5
411
330
1F
100
AcDbEntity
  8
D-2_蓋
  6
Continuous
 62
     3
370
     9
100
AcDbLine
 10
-985.4848913244298
 20
-700.9729416305954
 30
0.0
 11
-950.48452841269
 21
-693.4829381994298
 31
0.0
  0
LINE
  5
412
330
1F
100
AcDbEntity
  8
D-2_蓋
  6
Continuous
 62
     3
370
     9
100
AcDbLine
 10
-985.4848913244298
 20
-703.5299847577069
 30
0.0
 11
-950.48452841269
 21
-696.0399813265415
 31
0.0
  0
LINE
  5
413
330
1F
100
AcDbEntity
  8
D-2_蓋
  6
Continuous
 62
     3
370
     9
100
AcDbLine
 10
-985.4848913244298
 20
-612.5876844251478
 30
0.0
 11
-956.4524057749155
 21
-641.6196750950168
 31
0.0
  0
LINE
  5
414
330
1F
100
AcDbEntity
  8
D-2_蓋
  6
Continuous
 62
     3
370
     9
100
AcDbLine
 10
-985.4848913244298
 20
-623.1941924224029
 30
0.0
 11
-969.9470313819678
 21
-638.7321142248204
 31
0.0
  0
LINE
  5
415
330
1F
100
AcDbEntity
  8
D-2_蓋
  6
Continuous
 62
     3
370
     9
100
AcDbLine
 10
-985.4848913244298
 20
-633.8011952993031
 30
0.0
 11
-983.4415332691088
 21
-635.844553354624
 31
0.0
  0
LINE
  5
416
330
1F
100
AcDbEntity
  8
D-2_蓋
  6
Continuous
 62
     3
370
     9
100
AcDbLine
 10
-984.2219584697001
 20
-675.1366981300147
 30
0.0
 11
-963.1619840054898
 21
-696.196115854624
 31
0.0
  0
LINE
  5
417
330
1F
100
AcDbEntity
  8
D-2_蓋
  6
Continuous
 62
     3
370
     9
100
AcDbLine
 10
-985.4848913244298
 20
-684.4807062922297
 30
0.0
 11
-971.8990841427365
 21
-698.0660185942779
 31
0.0
  0
LINE
  5
418
330
1F
100
AcDbEntity
  8
D-2_蓋
  6
Continuous
 62
     3
370
     9
100
AcDbLine
 10
-985.4848913244298
 20
-695.0872142894848
 30
0.0
 11
-980.6361842799831
 21
-699.9354264542864
 31
0.0
  0
LINE
  5
419
330
1F
100
AcDbEntity
  8
D-4_寸法
  6
Continuous
 62
     7
370
     9
100
AcDbLine
 10
-992.4214955922719
 20
-635.4075746278505
 30
0.0
 11
-1046.116431983741
 21
-635.4075746278505
 31
0.0
  0
LINE
  5
41A
330
1F
100
AcDbEntity
  8
D-4_寸法
  6
Continuous
 62
     7
370
     9
100
AcDbLine
 10
-992.4214955922719
 20
-675.4072117161105
 30
0.0
 11
-1046.116431983741
 21
-675.4072117161105
 31
0.0
  0
LINE
  5
41B
330
1F
100
AcDbEntity
  8
D-4_寸法
  6
Continuous
 62
     7
370
     9
100
AcDbLine
 10
-1043.116842733847
 20
-635.4075746278505
 30
0.0
 11
-1046.378965635558
 21
-610.6211564347551
 31
0.0
  0
LINE
  5
41C
330
1F
100
AcDbEntity
  8
D-4_寸法
  6
Continuous
 62
     7
370
     9
100
AcDbLine
 10
-1043.116842733847
 20
-635.4075746278505
 30
0.0
 11
-1039.85311147329
 21
-610.6211564347551
 31
0.0
  0
LINE
  5
41D
330
1F
100
AcDbEntity
  8
D-4_寸法
  6
Continuous
 62
     7
370
     9
100
AcDbLine
 10
-1043.116842733847
 20
-675.4072117161105
 30
0.0
 11
-1046.378965635558
 21
-700.1930113096495
 31
0.0
  0
LINE
  5
41E
330
1F
100
AcDbEntity
  8
D-4_寸法
  6
Continuous
 62
     7
370
     9
100
AcDbLine
 10
-1043.116842733847
 20
-675.4072117161105
 30
0.0
 11
-1039.85311147329
 21
-700.1930113096495
 31
0.0
  0
LINE
  5
41F
330
1F
100
AcDbEntity
  8
D-4_寸法
  6
Continuous
 62
     7
370
     9
100
AcDbLine
 10
-1043.116842733847
 20
-604.7127264899176
 30
0.0
 11
-1043.116842733847
 21
-703.860997380437
 31
0.0
  0
LINE
  5
420
330
1F
100
AcDbEntity
  8
D-2_蓋
  6
Continuous
 62
     3
370
     9
100
AcDbLine
 10
-985.4848913244298
 20
-791.539133432749
 30
0.0
 11
-950.48452841269
 21
-784.0491300015835
 31
0.0
  0
LINE
  5
421
330
1F
100
AcDbEntity
  8
D-2_蓋
  6
Continuous
 62
     3
370
     9
100
AcDbLine
 10
-985.4848913244298
 20
-788.9825233253272
 30
0.0
 11
-950.48452841269
 21
-781.4925198941617
 31
0.0
  0
LINE
  5
422
330
1F
100
AcDbEntity
  8
D-2_蓋
  6
Continuous
 62
     3
370
     9
100
AcDbLine
 10
-950.48452841269
 20
-812.1714700234902
 30
0.0
 11
-985.4848913244298
 21
-819.6614734546557
 31
0.0
  0
LINE
  5
423
330
1F
100
AcDbEntity
  8
D-2_蓋
  6
Continuous
 62
     3
370
     9
100
AcDbLine
 10
-950.48452841269
 20
-809.6148599160683
 30
0.0
 11
-985.4848913244298
 21
-817.1048633472338
 31
0.0
  0
LINE
  5
424
330
1F
100
AcDbEntity
  8
D-2_蓋
  6
Continuous
 62
     3
370
     9
100
AcDbLine
 10
-985.4848913244298
 20
-751.5390014648438
 30
0.0
 11
-950.48452841269
 21
-759.028510016364
 31
0.0
  0
LINE
  5
425
330
1F
100
AcDbEntity
  8
D-2_蓋
  6
Continuous
 62
     3
370
     9
100
AcDbLine
 10
-985.4848913244298
 20
-754.0955497123099
 30
0.0
 11
-950.48452841269
 21
-761.5850582638302
 31
0.0
  0
LINE
  5
426
330
1F
100
AcDbEntity
  8
D-2_蓋
  6
Continuous
 62
     3
370
     9
100
AcDbLine
 10
-985.4848913244298
 20
-725.9727766707136
 30
0.0
 11
-950.48452841269
 21
-733.4627801018792
 31
0.0
  0
LINE
  5
427
330
1F
100
AcDbEntity
  8
D-2_蓋
  6
Continuous
 62
     3
370
     9
100
AcDbLine
 10
-985.4848913244298
 20
-723.4161665632918
 30
0.0
 11
-950.48452841269
 21
-730.905675114812
 31
0.0
  0
LINE
  5
428
330
1F
100
AcDbEntity
  8
D-2_蓋
  6
Continuous
 62
     3
370
     9
100
AcDbLine
 10
-985.4848913244298
 20
-867.7838794605151
 30
0.0
 11
-950.48452841269
 21
-875.2738828916807
 31
0.0
  0
LINE
  5
429
330
1F
100
AcDbEntity
  8
D-2_蓋
  6
Continuous
 62
     3
370
     9
100
AcDbLine
 10
-985.4848913244298
 20
-870.340489567937
 30
0.0
 11
-950.48452841269
 21
-877.8299981194573
 31
0.0
  0
LINE
  5
42A
330
1F
100
AcDbEntity
  8
D-2_蓋
  6
Continuous
 62
     3
370
     9
100
AcDbLine
 10
-985.4848913244298
 20
-842.2181495460303
 30
0.0
 11
-950.48452841269
 21
-849.7081529771958
 31
0.0
  0
LINE
  5
42B
330
1F
100
AcDbEntity
  8
D-2_蓋
  6
Continuous
 62
     3
370
     9
100
AcDbLine
 10
-985.4848913244298
 20
-839.6610445589633
 30
0.0
 11
-950.48452841269
 21
-847.1510479901287
 31
0.0
  0
LINE
  5
42C
330
1F
100
AcDbEntity
  8
D-2_蓋
  6
Continuous
 62
     3
370
     9
100
AcDbLine
 10
-975.4848583324535
 20
-844.3581328520904
 30
0.0
 11
-950.48452841269
 21
-869.3574730125633
 31
0.0
  0
LINE
  5
42D
330
1F
100
AcDbEntity
  8
D-2_蓋
  6
Continuous
 62
     3
370
     9
100
AcDbLine
 10
-961.9907276050463
 20
-847.2456937222867
 30
0.0
 11
-950.48452841269
 21
-858.7514598949535
 31
0.0
  0
LINE
  5
42E
330
1F
100
AcDbEntity
  8
D-2_蓋
  6
Continuous
 62
     3
370
     9
100
AcDbLine
 10
-985.4848913244298
 20
-844.9645459974134
 30
0.0
 11
-956.4524057749155
 21
-873.9970934068833
 31
0.0
  0
LINE
  5
42F
330
1F
100
AcDbEntity
  8
D-2_蓋
  6
Continuous
 62
     3
370
     9
100
AcDbLine
 10
-985.4848913244298
 20
-855.5710539946685
 30
0.0
 11
-969.9470313819678
 21
-871.1089757970863
 31
0.0
  0
LINE
  5
430
330
1F
100
AcDbEntity
  8
D-2_蓋
  6
Continuous
 62
     3
370
     9
100
AcDbLine
 10
-985.4848913244298
 20
-866.1780568715687
 30
0.0
 11
-983.4415332691088
 21
-868.2213530669342
 31
0.0
  0
LINE
  5
431
330
1F
100
AcDbEntity
  8
D-2_蓋
  6
Continuous
 62
     3
370
     9
100
AcDbLine
 10
-975.4848583324535
 20
-728.1132548564188
 30
0.0
 11
-950.48452841269
 21
-753.1125950168918
 31
0.0
  0
LINE
  5
432
330
1F
100
AcDbEntity
  8
D-2_蓋
  6
Continuous
 62
     3
370
     9
100
AcDbLine
 10
-961.9907276050463
 20
-731.0008157266152
 30
0.0
 11
-950.48452841269
 21
-742.5065818992821
 31
0.0
  0
LINE
  5
433
330
1F
100
AcDbEntity
  8
D-2_蓋
  6
Continuous
 62
     3
370
     9
100
AcDbLine
 10
-985.4848913244298
 20
-728.7196680017419
 30
0.0
 11
-956.4524057749155
 21
-757.7521535512562
 31
0.0
  0
LINE
  5
434
330
1F
100
AcDbEntity
  8
D-2_蓋
  6
Continuous
 62
     3
370
     9
100
AcDbLine
 10
-985.4848913244298
 20
-739.3261141390415
 30
0.0
 11
-969.9470313819678
 21
-754.8636029217694
 31
0.0
  0
LINE
  5
435
330
1F
100
AcDbEntity
  8
D-2_蓋
  6
Continuous
 62
     3
370
     9
100
AcDbLine
 10
-985.4848913244298
 20
-749.9326221362963
 30
0.0
 11
-983.4415332691088
 21
-751.9759801916173
 31
0.0
  0
LINE
  5
436
330
1F
100
AcDbEntity
  8
D-2_蓋
  6
Continuous
 62
     3
370
     9
100
AcDbLine
 10
-958.0111529376054
 20
-785.6599013869827
 30
0.0
 11
-950.48452841269
 21
-793.1855980125633
 31
0.0
  0
LINE
  5
437
330
1F
100
AcDbEntity
  8
D-2_蓋
  6
Continuous
 62
     3
370
     9
100
AcDbLine
 10
-975.4848583324535
 20
-789.3987171069995
 30
0.0
 11
-954.4258736275337
 21
-810.4581348316088
 31
0.0
  0
LINE
  5
438
330
1F
100
AcDbEntity
  8
D-2_蓋
  6
Continuous
 62
     3
370
     9
100
AcDbLine
 10
-966.7477581952069
 20
-787.5293711069468
 30
0.0
 11
-950.48452841269
 21
-803.7921060098183
 31
0.0
  0
LINE
  5
439
330
1F
100
AcDbEntity
  8
D-2_蓋
  6
Continuous
 62
     3
370
     9
100
AcDbLine
 10
-984.2219584697001
 20
-791.2686198466532
 30
0.0
 11
-963.1619840054898
 21
-812.3280375712626
 31
0.0
  0
LINE
  5
43A
330
1F
100
AcDbEntity
  8
D-2_蓋
  6
Continuous
 62
     3
370
     9
100
AcDbLine
 10
-985.4848913244298
 20
-800.6121949891786
 30
0.0
 11
-971.8990841427365
 21
-814.1979403109165
 31
0.0
  0
LINE
  5
43B
330
1F
100
AcDbEntity
  8
D-2_蓋
  6
Continuous
 62
     3
370
     9
100
AcDbLine
 10
-985.4848913244298
 20
-811.219197866079
 30
0.0
 11
-980.6361842799831
 21
-816.0673481709248
 31
0.0
  0
LINE
  5
43C
330
1F
100
AcDbEntity
  8
D-4_寸法
  6
Continuous
 62
     7
370
     9
100
AcDbLine
 10
-950.48452841269
 20
-584.5070380133551
 30
0.0
 11
-950.48452841269
 21
-552.1598485998204
 31
0.0
  0
LINE
  5
43D
330
1F
100
AcDbEntity
  8
D-4_寸法
  6
Continuous
 62
     7
370
     9
100
AcDbLine
 10
-985.4848913244298
 20
-584.5070380133551
 30
0.0
 11
-985.4848913244298
 21
-552.1598485998204
 31
0.0
  0
LINE
  5
43E
330
1F
100
AcDbEntity
  8
D-4_寸法
  6
Continuous
 62
     7
370
     9
100
AcDbLine
 10
-950.48452841269
 20
-555.1594378497148
 30
0.0
 11
-925.6986050992398
 21
-551.8962633287584
 31
0.0
  0
LINE
  5
43F
330
1F
100
AcDbEntity
  8
D-4_寸法
  6
Continuous
 62
     7
370
     9
100
AcDbLine
 10
-950.48452841269
 20
-555.1594378497148
 30
0.0
 11
-925.6986050992398
 21
-558.4225505107157
 31
0.0
  0
LINE
  5
440
330
1F
100
AcDbEntity
  8
D-4_寸法
  6
Continuous
 62
     7
370
     9
100
AcDbLine
 10
-985.4848913244298
 20
-555.1594378497148
 30
0.0
 11
-1010.271185797614
 21
-551.8962633287584
 31
0.0
  0
LINE
  5
441
330
1F
100
AcDbEntity
  8
D-4_寸法
  6
Continuous
 62
     7
370
     9
100
AcDbLine
 10
-985.4848913244298
 20
-555.1594378497148
 30
0.0
 11
-1010.271185797614
 21
-558.4225505107157
 31
0.0
  0
LINE
  5
442
330
1F
100
AcDbEntity
  8
D-4_寸法
  6
Continuous
 62
     7
370
     9
100
AcDbLine
 10
-919.5419311523438
 20
-555.1594378497148
 30
0.0
 11
-1010.970821896115
 21
-555.1594378497148
 31
0.0
  0
LINE
  5
443
330
1F
100
AcDbEntity
  8
D-4_寸法
  6
Continuous
 62
     7
370
     9
100
AcDbLine
 10
-955.6685164168074
 20
-656.5625659839526
 30
0.0
 11
-942.7140519425675
 21
-635.1806104505384
 31
0.0
  0
LINE
  5
444
330
1F
100
AcDbEntity
  8
D-4_寸法
  6
Continuous
 62
     7
370
     9
100
AcDbLine
 10
-955.6685164168074
 20
-656.5625659839526
 30
0.0
 11
-937.6211217931798
 21
-639.2623159047719
 31
0.0
  0
LINE
  5
445
330
1F
100
AcDbEntity
  8
D-2_蓋
  6
Continuous
 62
     3
370
     9
100
AcDbLine
 10
-985.4848913244298
 20
-815.4990407582875
 30
0.0
 11
-984.161954312711
 21
-816.8219159100506
 31
0.0
  0
LINE
  5
446
330
1F
100
AcDbEntity
  8
D-4_寸法
  6
Continuous
 62
     7
370
     9
100
AcDbLine
 10
-874.3977727116765
 20
-555.1594378497148
 30
0.0
 11
-955.6685164168074
 21
-656.5625659839526
 31
0.0
  0
LINE
  5
447
330
1F
100
AcDbEntity
  8
D-4_寸法
  6
Continuous
 62
     7
370
     9
100
AcDbLine
 10
-874.3977727116765
 20
-555.1594378497148
 30
0.0
 11
-620.5503721494932
 21
-555.1594378497148
 31
0.0
  0
LINE
  5
448
330
1F
100
AcDbEntity
  8
A-1_ピット
  6
Continuous
 62
     2
370
     9
100
AcDbLine
 10
-1542.574990762247
 20
903.847639754012
 30
0.0
 11
-1542.574990762247
 21
-36.15224477407082
 31
0.0
  0
LINE
  5
449
330
1F
100
AcDbEntity
  8
A-1_ピット
  6
Continuous
 62
     2
370
     9
100
AcDbLine
 10
461.42578125
 20
903.847639754012
 30
0.0
 11
461.42578125
 21
-36.15224477407082
 31
0.0
  0
CIRCLE
  5
44A
330
1F
100
AcDbEntity
  8
A-1_ピット
  6
Continuous
 62
     2
370
     9
100
AcDbCircle
 10
-1155.574777963999
 20
-45.15299204233514
 30
0.0
 40
9.000002049111032
  0
CIRCLE
  5
44B
330
1F
100
AcDbEntity
  8
A-1_ピット
  6
Continuous
 62
     2
370
     9
100
AcDbCircle
 10
-953.5746806376688
 20
-45.15299204233514
 30
0.0
 40
9.000002049111032
  0
ARC
  5
44C
330
1F
100
AcDbEntity
  8
A-1_ピット
  6
Continuous
 62
     2
370
     9
100
AcDbCircle
 10
-1144.574593208931
 20
-57.35375481682837
 30
0.0
 40
20.00000025774982
100
AcDbArc
 50
180.0
 51
270.0
  0
ARC
  5
44D
330
1F
100
AcDbEntity
  8
A-1_ピット
  6
Continuous
 62
     2
370
     9
100
AcDbCircle
 10
-964.5747416728251
 20
-57.35375481682837
 30
0.0
 40
20.00000025774982
100
AcDbArc
 50
270.0
 51
0.0
  0
ARC
  5
44E
330
1F
100
AcDbEntity
  8
A-1_ピット
  6
Continuous
 62
     2
370
     9
100
AcDbCircle
 10
-964.5743705130911
 20
-57.35375481682837
 30
0.0
 40
2.000000146595208
100
AcDbArc
 50
270.0
 51
0.0
  0
ARC
  5
44F
330
1F
100
AcDbEntity
  8
A-1_ピット
  6
Continuous
 62
     2
370
     9
100
AcDbCircle
 10
-1144.574593208931
 20
-57.35375481682837
 30
0.0
 40
2.000000146595208
100
AcDbArc
 50
180.0
 51
270.0
  0
CIRCLE
  5
450
330
1F
100
AcDbEntity
  8
A-1_ピット
  6
Continuous
 62
     2
370
     9
100
AcDbCircle
 10
-127.5742814347549
 20
-45.15299204233514
 30
0.0
 40
9.000002049111032
  0
CIRCLE
  5
451
330
1F
100
AcDbEntity
  8
A-1_ピット
  6
Continuous
 62
     2
370
     9
100
AcDbCircle
 10
74.42494985219611
 20
-45.15299204233514
 30
0.0
 40
9.000002049111032
  0
ARC
  5
452
330
1F
100
AcDbEntity
  8
A-1_ピット
  6
Continuous
 62
     2
370
     9
100
AcDbCircle
 10
-116.5742203995987
 20
-57.35375481682837
 30
0.0
 40
20.00000025774982
100
AcDbArc
 50
180.0
 51
270.0
  0
ARC
  5
453
330
1F
100
AcDbEntity
  8
A-1_ピット
  6
Continuous
 62
     2
370
     9
100
AcDbCircle
 10
63.42624973606434
 20
-57.35375481682837
 30
0.0
 40
20.00000025774982
100
AcDbArc
 50
270.0
 51
0.0
  0
ARC
  5
454
330
1F
100
AcDbEntity
  8
A-1_ピット
  6
Continuous
 62
     2
370
     9
100
AcDbCircle
 10
63.42624973606434
 20
-57.35375481682837
 30
0.0
 40
2.000000146595208
100
AcDbArc
 50
270.0
 51
0.0
  0
ARC
  5
455
330
1F
100
AcDbEntity
  8
A-1_ピット
  6
Continuous
 62
     2
370
     9
100
AcDbCircle
 10
-116.5748389991552
 20
-57.35375481682837
 30
0.0
 40
2.000000146595208
100
AcDbArc
 50
180.0
 51
270.0
  0
CIRCLE
  5
456
330
1F
100
AcDbEntity
  8
A-1_ピット
  6
Continuous
 62
     2
370
     9
100
AcDbCircle
 10
-1155.574777963999
 20
912.8482633023651
 30
0.0
 40
9.000002049111032
  0
CIRCLE
  5
457
330
1F
100
AcDbEntity
  8
A-1_ピット
  6
Continuous
 62
     2
370
     9
100
AcDbCircle
 10
-953.5746806376688
 20
912.8482633023651
 30
0.0
 40
9.000002049111032
  0
ARC
  5
458
330
1F
100
AcDbEntity
  8
A-1_ピット
  6
Continuous
 62
     2
370
     9
100
AcDbCircle
 10
-1144.574593208931
 20
925.0480363175677
 30
0.0
 40
20.00000025774982
100
AcDbArc
 50
90.0
 51
180.0
  0
ARC
  5
459
330
1F
100
AcDbEntity
  8
A-1_ピット
  6
Continuous
 62
     2
370
     9
100
AcDbCircle
 10
-964.5747416728251
 20
925.0480363175677
 30
0.0
 40
20.00000025774982
100
AcDbArc
 50
0.0
 51
90.0
  0
ARC
  5
45A
330
1F
100
AcDbEntity
  8
A-1_ピット
  6
Continuous
 62
     2
370
     9
100
AcDbCircle
 10
-964.5743705130911
 20
925.0480363175677
 30
0.0
 40
2.000000146595208
100
AcDbArc
 50
0.0
 51
90.0
  0
ARC
  5
45B
330
1F
100
AcDbEntity
  8
A-1_ピット
  6
Continuous
 62
     2
370
     9
100
AcDbCircle
 10
-1144.574593208931
 20
925.0480363175677
 30
0.0
 40
2.000000146595208
100
AcDbArc
 50
90.0
 51
180.0
  0
CIRCLE
  5
45C
330
1F
100
AcDbEntity
  8
A-1_ピット
  6
Continuous
 62
     2
370
     9
100
AcDbCircle
 10
-127.5742814347549
 20
912.8482633023651
 30
0.0
 40
9.000002049111032
  0
CIRCLE
  5
45D
330
1F
100
AcDbEntity
  8
A-1_ピット
  6
Continuous
 62
     2
370
     9
100
AcDbCircle
 10
74.42494985219611
 20
912.8482633023651
 30
0.0
 40
9.000002049111032
  0
ARC
  5
45E
330
1F
100
AcDbEntity
  8
A-1_ピット
  6
Continuous
 62
     2
370
     9
100
AcDbCircle
 10
-116.5742203995987
 20
925.0480363175677
 30
0.0
 40
20.00000025774982
100
AcDbArc
 50
90.0
 51
180.0
  0
ARC
  5
45F
330
1F
100
AcDbEntity
  8
A-1_ピット
  6
Continuous
 62
     2
370
     9
100
AcDbCircle
 10
63.42624973606434
 20
925.0480363175677
 30
0.0
 40
20.00000025774982
100
AcDbArc
 50
0.0
 51
90.0
  0
ARC
  5
460
330
1F
100
AcDbEntity
  8
A-1_ピット
  6
Continuous
 62
     2
370
     9
100
AcDbCircle
 10
63.42624973606434
 20
925.0480363175677
 30
0.0
 40
2.000000146595208
100
AcDbArc
 50
0.0
 51
90.0
  0
ARC
  5
461
330
1F
100
AcDbEntity
  8
A-1_ピット
  6
Continuous
 62
     2
370
     9
100
AcDbCircle
 10
-116.5748389991552
 20
925.0480363175677
 30
0.0
 40
2.000000146595208
100
AcDbArc
 50
90.0
 51
180.0
  0
ARC
  5
462
330
1F
100
AcDbEntity
  8
A-3_受枠
  6
Continuous
 62
     4
370
     9
100
AcDbCircle
 10
-1327.473820866765
 20
843.7477235536318
 30
0.0
 40
2.899994479643332
100
AcDbArc
 50
270.0
 51
90.0
  0
ARC
  5
463
330
1F
100
AcDbEntity
  8
A-3_受枠
  6
Continuous
 62
     4
370
     9
100
AcDbCircle
 10
-1378.274206213049
 20
843.7477235536318
 30
0.0
 40
2.899994479643332
100
AcDbArc
 50
90.0
 51
270.0
  0
ARC
  5
464
330
1F
100
AcDbEntity
  8
A-3_受枠
  6
Continuous
 62
     4
370
     9
100
AcDbCircle
 10
-1371.973769729202
 20
843.7477235536318
 30
0.0
 40
2.900000762295079
100
AcDbArc
 50
270.0
 51
0.0
  0
ARC
  5
465
330
1F
100
AcDbEntity
  8
A-3_受枠
  6
Continuous
 62
     4
370
     9
100
AcDbCircle
 10
-1333.773886190878
 20
843.7477235536318
 30
0.0
 40
2.900000762295079
100
AcDbArc
 50
180.0
 51
270.0
  0
ARC
  5
466
330
1F
100
AcDbEntity
  8
A-3_受枠
  6
Continuous
 62
     4
370
     9
100
AcDbCircle
 10
-1375.873916213577
 20
847.6478700380068
 30
0.0
 40
0.9999999524773778
100
AcDbArc
 50
270.0
 51
0.0
  0
ARC
  5
467
330
1F
100
AcDbEntity
  8
A-3_受枠
  6
Continuous
 62
     4
370
     9
100
AcDbCircle
 10
-1329.873863426415
 20
847.6478700380068
 30
0.0
 40
0.9999999524773778
100
AcDbArc
 50
180.0
 51
270.0
  0
ARC
  5
468
330
1F
100
AcDbEntity
  8
A-3_受枠
  6
JWW_HOJO
 62
     4
370
     9
100
AcDbCircle
 10
-1371.973769729202
 20
871.9474503800677
 30
0.0
 40
2.899988196991586
100
AcDbArc
 50
0.0
 51
180.0
  0
ARC
  5
469
330
1F
100
AcDbEntity
  8
A-3_受枠
  6
JWW_HOJO
 62
     4
370
     9
100
AcDbCircle
 10
-1333.773886190878
 20
871.9474503800677
 30
0.0
 40
2.899988196991586
100
AcDbArc
 50
0.0
 51
180.0
  0
ELLIPSE
  5
46A
330
1F
100
AcDbEntity
  8
A-3_受枠
  6
Continuous
 62
     4
370
     9
100
AcDbEllipse
 10
-1371.973769729202
 20
888.9658665012669
 30
0.0
 11
2.899994479643332
 21
0.0
 31
0.0
210
0.0
220
0.0
230
1.0
 40
0.9937
 41
0.0
 42
6.283185307179586
  0
ELLIPSE
  5
46B
330
1F
100
AcDbEntity
  8
A-3_受枠
  6
Continuous
 62
     4
370
     9
100
AcDbEllipse
 10
-1333.773886190878
 20
888.9658665012669
 30
0.0
 11
-2.899994479643332
 21
3.551351665821042E-16
 31
0.0
210
0.0
220
0.0
230
1.0
 40
0.9937
 41
0.0
 42
6.283185307179586
  0
ARC
  5
46C
330
1F
100
AcDbEntity
  8
A-3_受枠
  6
JWW_HOJO
 62
     4
370
     9
100
AcDbCircle
 10
-1371.973769729202
 20
886.7473210515203
 30
0.0
 40
2.899988196991586
100
AcDbArc
 50
180.0
 51
0.0
  0
ARC
  5
46D
330
1F
100
AcDbEntity
  8
A-3_受枠
  6
JWW_HOJO
 62
     4
370
     9
100
AcDbCircle
 10
-1333.773886190878
 20
886.7473210515203
 30
0.0
 40
2.899988196991586
100
AcDbArc
 50
180.0
 51
0.0
  0
ARC
  5
46E
330
1F
100
AcDbEntity
  8
A-3_受枠
  6
Continuous
 62
     4
370
     9
100
AcDbCircle
 10
295.9271405194258
 20
843.7477235536318
 30
0.0
 40
2.899994479643332
100
AcDbArc
 50
270.0
 51
90.0
  0
ARC
  5
46F
330
1F
100
AcDbEntity
  8
A-3_受枠
  6
Continuous
 62
     4
370
     9
100
AcDbCircle
 10
245.1267551731419
 20
843.7477235536318
 30
0.0
 40
2.899994479643332
100
AcDbArc
 50
90.0
 51
270.0
  0
ARC
  5
470
330
1F
100
AcDbEntity
  8
A-3_受枠
  6
Continuous
 62
     4
370
     9
100
AcDbCircle
 10
251.4268204972552
 20
843.7477235536318
 30
0.0
 40
2.900000762295079
100
AcDbArc
 50
270.0
 51
0.0
  0
ARC
  5
471
330
1F
100
AcDbEntity
  8
A-3_受枠
  6
Continuous
 62
     4
370
     9
100
AcDbCircle
 10
289.6265803156675
 20
843.7477235536318
 30
0.0
 40
2.900000762295079
100
AcDbArc
 50
180.0
 51
270.0
  0
ARC
  5
472
330
1F
100
AcDbEntity
  8
A-3_受枠
  6
Continuous
 62
     4
370
     9
100
AcDbCircle
 10
247.5266740128802
 20
847.6478700380068
 30
0.0
 40
0.9999999524773778
100
AcDbArc
 50
270.0
 51
0.0
  0
ARC
  5
473
330
1F
100
AcDbEntity
  8
A-3_受枠
  6
Continuous
 62
     4
370
     9
100
AcDbCircle
 10
293.5267268000425
 20
847.6478700380068
 30
0.0
 40
0.9999999524773778
100
AcDbArc
 50
180.0
 51
270.0
  0
ARC
  5
474
330
1F
100
AcDbEntity
  8
A-3_受枠
  6
JWW_HOJO
 62
     4
370
     9
100
AcDbCircle
 10
251.4268204972552
 20
871.9474503800677
 30
0.0
 40
2.899988196991586
100
AcDbArc
 50
0.0
 51
180.0
  0
ARC
  5
475
330
1F
100
AcDbEntity
  8
A-3_受枠
  6
JWW_HOJO
 62
     4
370
     9
100
AcDbCircle
 10
289.6265803156675
 20
871.9474503800677
 30
0.0
 40
2.899988196991586
100
AcDbArc
 50
0.0
 51
180.0
  0
ELLIPSE
  5
476
330
1F
100
AcDbEntity
  8
A-3_受枠
  6
Continuous
 62
     4
370
     9
100
AcDbEllipse
 10
251.4268204972552
 20
888.9658665012669
 30
0.0
 11
2.899994479643332
 21
0.0
 31
0.0
210
0.0
220
0.0
230
1.0
 40
0.9937
 41
0.0
 42
6.283185307179586
  0
ELLIPSE
  5
477
330
1F
100
AcDbEntity
  8
A-3_受枠
  6
Continuous
 62
     4
370
     9
100
AcDbEllipse
 10
289.6265803156675
 20
888.9658665012669
 30
0.0
 11
-2.899994479643332
 21
3.551351665821042E-16
 31
0.0
210
0.0
220
0.0
230
1.0
 40
0.9937
 41
0.0
 42
6.283185307179586
  0
ARC
  5
478
330
1F
100
AcDbEntity
  8
A-3_受枠
  6
JWW_HOJO
 62
     4
370
     9
100
AcDbCircle
 10
251.4268204972552
 20
886.7473210515203
 30
0.0
 40
2.899988196991586
100
AcDbArc
 50
180.0
 51
0.0
  0
ARC
  5
479
330
1F
100
AcDbEntity
  8
A-3_受枠
  6
JWW_HOJO
 62
     4
370
     9
100
AcDbCircle
 10
289.6265803156675
 20
886.7473210515203
 30
0.0
 40
2.899988196991586
100
AcDbArc
 50
180.0
 51
0.0
  0
ARC
  5
47A
330
1F
100
AcDbEntity
  8
A-3_受枠
  6
Continuous
 62
     4
370
     9
100
AcDbCircle
 10
-1327.473820866765
 20
23.94804258604324
 30
0.0
 40
2.899994479643332
100
AcDbArc
 50
270.0
 51
90.0
  0
ARC
  5
47B
330
1F
100
AcDbEntity
  8
A-3_受枠
  6
Continuous
 62
     4
370
     9
100
AcDbCircle
 10
-1378.274206213049
 20
23.94804258604324
 30
0.0
 40
2.899994479643332
100
AcDbArc
 50
90.0
 51
270.0
  0
ARC
  5
47C
330
1F
100
AcDbEntity
  8
A-3_受枠
  6
Continuous
 62
     4
370
     9
100
AcDbCircle
 10
-1371.973769729202
 20
23.94804258604324
 30
0.0
 40
2.900000762295079
100
AcDbArc
 50
0.0
 51
90.0
  0
ARC
  5
47D
330
1F
100
AcDbEntity
  8
A-3_受枠
  6
Continuous
 62
     4
370
     9
100
AcDbCircle
 10
-1333.773886190878
 20
23.94804258604324
 30
0.0
 40
2.900000762295079
100
AcDbArc
 50
90.0
 51
180.0
  0
ARC
  5
47E
330
1F
100
AcDbEntity
  8
A-3_受枠
  6
Continuous
 62
     4
370
     9
100
AcDbCircle
 10
-1375.873916213577
 20
20.04789610166824
 30
0.0
 40
0.9999999524773778
100
AcDbArc
 50
0.0
 51
90.0
  0
ARC
  5
47F
330
1F
100
AcDbEntity
  8
A-3_受枠
  6
Continuous
 62
     4
370
     9
100
AcDbCircle
 10
-1329.873863426415
 20
20.04789610166824
 30
0.0
 40
0.9999999524773778
100
AcDbArc
 50
90.0
 51
180.0
  0
ARC
  5
480
330
1F
100
AcDbEntity
  8
A-3_受枠
  6
JWW_HOJO
 62
     4
370
     9
100
AcDbCircle
 10
-1371.973769729202
 20
-4.251684240392706
 30
0.0
 40
2.899988196991586
100
AcDbArc
 50
180.0
 51
0.0
  0
ARC
  5
481
330
1F
100
AcDbEntity
  8
A-3_受枠
  6
JWW_HOJO
 62
     4
370
     9
100
AcDbCircle
 10
-1333.773886190878
 20
-4.251684240392706
 30
0.0
 40
2.899988196991586
100
AcDbArc
 50
180.0
 51
0.0
  0
ELLIPSE
  5
482
330
1F
100
AcDbEntity
  8
A-3_受枠
  6
Continuous
 62
     4
370
     9
100
AcDbEllipse
 10
-1371.973769729202
 20
-21.27010036159191
 30
0.0
 11
2.899994479643332
 21
0.0
 31
0.0
210
0.0
220
0.0
230
1.0
 40
0.9937
 41
0.0
 42
6.283185307179586
  0
ELLIPSE
  5
483
330
1F
100
AcDbEntity
  8
A-3_受枠
  6
Continuous
 62
     4
370
     9
100
AcDbEllipse
 10
-1333.773886190878
 20
-21.27010036159191
 30
0.0
 11
-2.899994479643332
 21
3.551351665821042E-16
 31
0.0
210
0.0
220
0.0
230
1.0
 40
0.9937
 41
0.0
 42
6.283185307179586
  0
ARC
  5
484
330
1F
100
AcDbEntity
  8
A-3_受枠
  6
JWW_HOJO
 62
     4
370
     9
100
AcDbCircle
 10
-1371.973769729202
 20
-19.0515549118453
 30
0.0
 40
2.899988196991586
100
AcDbArc
 50
0.0
 51
180.0
  0
ARC
  5
485
330
1F
100
AcDbEntity
  8
A-3_受枠
  6
JWW_HOJO
 62
     4
370
     9
100
AcDbCircle
 10
-1333.773886190878
 20
-19.0515549118453
 30
0.0
 40
2.899988196991586
100
AcDbArc
 50
0.0
 51
180.0
  0
ARC
  5
486
330
1F
100
AcDbEntity
  8
A-3_受枠
  6
Continuous
 62
     4
370
     9
100
AcDbCircle
 10
295.9271405194258
 20
23.94804258604324
 30
0.0
 40
2.899994479643332
100
AcDbArc
 50
270.0
 51
90.0
  0
ARC
  5
487
330
1F
100
AcDbEntity
  8
A-3_受枠
  6
Continuous
 62
     4
370
     9
100
AcDbCircle
 10
245.1267551731419
 20
23.94804258604324
 30
0.0
 40
2.899994479643332
100
AcDbArc
 50
90.0
 51
270.0
  0
ARC
  5
488
330
1F
100
AcDbEntity
  8
A-3_受枠
  6
Continuous
 62
     4
370
     9
100
AcDbCircle
 10
251.4268204972552
 20
23.94804258604324
 30
0.0
 40
2.900000762295079
100
AcDbArc
 50
0.0
 51
90.0
  0
ARC
  5
489
330
1F
100
AcDbEntity
  8
A-3_受枠
  6
Continuous
 62
     4
370
     9
100
AcDbCircle
 10
289.6265803156675
 20
23.94804258604324
 30
0.0
 40
2.900000762295079
100
AcDbArc
 50
90.0
 51
180.0
  0
ARC
  5
48A
330
1F
100
AcDbEntity
  8
A-3_受枠
  6
Continuous
 62
     4
370
     9
100
AcDbCircle
 10
247.5266740128802
 20
20.04789610166824
 30
0.0
 40
0.9999999524773778
100
AcDbArc
 50
0.0
 51
90.0
  0
ARC
  5
48B
330
1F
100
AcDbEntity
  8
A-3_受枠
  6
Continuous
 62
     4
370
     9
100
AcDbCircle
 10
293.5267268000425
 20
20.04789610166824
 30
0.0
 40
0.9999999524773778
100
AcDbArc
 50
90.0
 51
180.0
  0
ARC
  5
48C
330
1F
100
AcDbEntity
  8
A-3_受枠
  6
JWW_HOJO
 62
     4
370
     9
100
AcDbCircle
 10
251.4268204972552
 20
-4.251684240392706
 30
0.0
 40
2.899988196991586
100
AcDbArc
 50
180.0
 51
0.0
  0
ARC
  5
48D
330
1F
100
AcDbEntity
  8
A-3_受枠
  6
JWW_HOJO
 62
     4
370
     9
100
AcDbCircle
 10
289.6265803156675
 20
-4.251684240392706
 30
0.0
 40
2.899988196991586
100
AcDbArc
 50
180.0
 51
0.0
  0
ELLIPSE
  5
48E
330
1F
100
AcDbEntity
  8
A-3_受枠
  6
Continuous
 62
     4
370
     9
100
AcDbEllipse
 10
251.4268204972552
 20
-21.27010036159191
 30
0.0
 11
2.899994479643332
 21
0.0
 31
0.0
210
0.0
220
0.0
230
1.0
 40
0.9937
 41
0.0
 42
6.283185307179586
  0
ELLIPSE
  5
48F
330
1F
100
AcDbEntity
  8
A-3_受枠
  6
Continuous
 62
     4
370
     9
100
AcDbEllipse
 10
289.6265803156675
 20
-21.27010036159191
 30
0.0
 11
-2.899994479643332
 21
3.551351665821042E-16
 31
0.0
210
0.0
220
0.0
230
1.0
 40
0.9937
 41
0.0
 42
6.283185307179586
  0
ARC
  5
490
330
1F
100
AcDbEntity
  8
A-3_受枠
  6
JWW_HOJO
 62
     4
370
     9
100
AcDbCircle
 10
251.4268204972552
 20
-19.0515549118453
 30
0.0
 40
2.899988196991586
100
AcDbArc
 50
0.0
 51
180.0
  0
ARC
  5
491
330
1F
100
AcDbEntity
  8
A-3_受枠
  6
JWW_HOJO
 62
     4
370
     9
100
AcDbCircle
 10
289.6265803156675
 20
-19.0515549118453
 30
0.0
 40
2.899988196991586
100
AcDbArc
 50
0.0
 51
180.0
  0
ARC
  5
492
330
1F
100
AcDbEntity
  8
A-3_受枠
  6
Continuous
 62
     4
370
     9
100
AcDbCircle
 10
1379.150143185178
 20
-17.10407978779557
 30
0.0
 40
0.9999999524773778
100
AcDbArc
 50
267.2883911132812
 51
0.0000000000000254
  0
ARC
  5
493
330
1F
100
AcDbEntity
  8
A-3_受枠
  6
Continuous
 62
     4
370
     9
100
AcDbCircle
 10
1379.150143185178
 20
-17.10407978779557
 30
0.0
 40
6.800000570915841
100
AcDbArc
 50
267.2882080078125
 51
0.0000000000000254
  0
ARC
  5
494
330
1F
100
AcDbEntity
  8
A-3_受枠
  6
Continuous
 62
     4
370
     9
100
AcDbCircle
 10
1379.150143185178
 20
-6.20930439717057
 30
0.0
 40
6.800000570915841
100
AcDbArc
 50
0.0
 51
93.15977478027344
  0
ARC
  5
495
330
1F
100
AcDbEntity
  8
A-3_受枠
  6
Continuous
 62
     4
370
     9
100
AcDbCircle
 10
1379.150143185178
 20
-6.20930439717057
 30
0.0
 40
0.9999999524773778
100
AcDbArc
 50
0.0
 51
93.16032409667969
  0
ARC
  5
496
330
1F
100
AcDbEntity
  8
A-3_受枠
  6
Continuous
 62
     4
370
     9
100
AcDbCircle
 10
1383.05004222973
 20
23.94742398648646
 30
0.0
 40
2.899994479643332
100
AcDbArc
 50
270.0
 51
90.0
  0
ARC
  5
497
330
1F
100
AcDbEntity
  8
A-3_受枠
  6
Continuous
 62
     4
370
     9
100
AcDbCircle
 10
1324.750003299198
 20
20.04752494193411
 30
0.0
 40
0.9999999524773778
100
AcDbArc
 50
90.0
 51
180.0
  0
ARC
  5
498
330
1F
100
AcDbEntity
  8
A-3_受枠
  6
Continuous
 62
     4
370
     9
100
AcDbCircle
 10
1324.750003299198
 20
20.04752494193411
 30
0.0
 40
6.800000570915841
100
AcDbArc
 50
90.0
 51
180.0
  0
ARC
  5
499
330
1F
100
AcDbEntity
  8
A-3_受枠
  6
Continuous
 62
     4
370
     9
100
AcDbCircle
 10
1324.750003299198
 20
9.196051520270316
 30
0.0
 40
6.800000570915841
100
AcDbArc
 50
180.0
 51
245.1987609863281
  0
ARC
  5
49A
330
1F
100
AcDbEntity
  8
A-3_受枠
  6
Continuous
 62
     4
370
     9
100
AcDbCircle
 10
1324.750003299198
 20
9.196051520270316
 30
0.0
 40
0.9999999524773778
100
AcDbArc
 50
180.0
 51
245.1991119384766
  0
ARC
  5
49B
330
1F
100
AcDbEntity
  8
A-3_受枠
  6
Continuous
 62
     4
370
     9
100
AcDbCircle
 10
1379.150143185178
 20
884.7994747677367
 30
0.0
 40
0.9999999524773778
100
AcDbArc
 50
0.0
 51
92.71160888671875
  0
ARC
  5
49C
330
1F
100
AcDbEntity
  8
A-3_受枠
  6
Continuous
 62
     4
370
     9
100
AcDbCircle
 10
1379.150143185178
 20
884.7994747677367
 30
0.0
 40
6.800000570915841
100
AcDbArc
 50
0.0
 51
92.71179199218751
  0
ARC
  5
49D
330
1F
100
AcDbEntity
  8
A-3_受枠
  6
Continuous
 62
     4
370
     9
100
AcDbCircle
 10
1379.150143185178
 20
873.9046993771117
 30
0.0
 40
6.800000570915841
100
AcDbArc
 50
266.8402252197266
 51
0.0000000000000568
  0
ARC
  5
49E
330
1F
100
AcDbEntity
  8
A-3_受枠
  6
Continuous
 62
     4
370
     9
100
AcDbCircle
 10
1379.150143185178
 20
873.9046993771117
 30
0.0
 40
0.9999999524773778
100
AcDbArc
 50
266.8396759033203
 51
0.0
  0
ARC
  5
49F
330
1F
100
AcDbEntity
  8
A-3_受枠
  6
Continuous
 62
     4
370
     9
100
AcDbCircle
 10
1383.05004222973
 20
843.7479709934544
 30
0.0
 40
2.899994479643332
100
AcDbArc
 50
270.0
 51
90.0
  0
ARC
  5
4A0
330
1F
100
AcDbEntity
  8
A-3_受枠
  6
Continuous
 62
     4
370
     9
100
AcDbCircle
 10
1324.750003299198
 20
847.6478700380068
 30
0.0
 40
0.9999999524773778
100
AcDbArc
 50
180.0
 51
270.0
  0
ARC
  5
4A1
330
1F
100
AcDbEntity
  8
A-3_受枠
  6
Continuous
 62
     4
370
     9
100
AcDbCircle
 10
1324.750003299198
 20
847.6478700380068
 30
0.0
 40
6.800000570915841
100
AcDbArc
 50
180.0
 51
270.0
  0
ARC
  5
4A2
330
1F
100
AcDbEntity
  8
A-3_受枠
  6
Continuous
 62
     4
370
     9
100
AcDbCircle
 10
1324.750003299198
 20
858.4993434596709
 30
0.0
 40
6.800000570915841
100
AcDbArc
 50
114.8012390136719
 51
180.0
  0
ARC
  5
4A3
330
1F
100
AcDbEntity
  8
A-3_受枠
  6
Continuous
 62
     4
370
     9
100
AcDbCircle
 10
1324.750003299198
 20
858.4993434596709
 30
0.0
 40
0.9999999524773778
100
AcDbArc
 50
114.8008880615234
 51
180.0
  0
ARC
  5
4A4
330
1F
100
AcDbEntity
  8
A-3_受枠
  6
Continuous
 62
     4
370
     9
100
AcDbCircle
 10
1379.150143185178
 20
-17.10383234797291
 30
0.0
 40
0.9999999524773778
100
AcDbArc
 50
267.2883911132812
 51
0.0000000000000254
  0
ARC
  5
4A5
330
1F
100
AcDbEntity
  8
A-3_受枠
  6
Continuous
 62
     4
370
     9
100
AcDbCircle
 10
1379.150143185178
 20
-17.10383234797291
 30
0.0
 40
6.800000570915841
100
AcDbArc
 50
267.2882080078125
 51
0.0000000000000254
  0
ARC
  5
4A6
330
1F
100
AcDbEntity
  8
A-3_受枠
  6
Continuous
 62
     4
370
     9
100
AcDbCircle
 10
1379.150143185178
 20
-6.209056957347912
 30
0.0
 40
6.800000570915841
100
AcDbArc
 50
0.0
 51
93.15977478027344
  0
ARC
  5
4A7
330
1F
100
AcDbEntity
  8
A-3_受枠
  6
Continuous
 62
     4
370
     9
100
AcDbCircle
 10
1379.150143185178
 20
-6.209056957347912
 30
0.0
 40
0.9999999524773778
100
AcDbArc
 50
0.0
 51
93.16032409667969
  0
ARC
  5
4A8
330
1F
100
AcDbEntity
  8
A-3_受枠
  6
Continuous
 62
     4
370
     9
100
AcDbCircle
 10
1383.05004222973
 20
23.94767142630911
 30
0.0
 40
2.899994479643332
100
AcDbArc
 50
270.0
 51
90.0
  0
ARC
  5
4A9
330
1F
100
AcDbEntity
  8
A-3_受枠
  6
Continuous
 62
     4
370
     9
100
AcDbCircle
 10
1324.750003299198
 20
20.04777238175677
 30
0.0
 40
0.9999999524773778
100
AcDbArc
 50
90.0
 51
180.0
  0
ARC
  5
4AA
330
1F
100
AcDbEntity
  8
A-3_受枠
  6
Continuous
 62
     4
370
     9
100
AcDbCircle
 10
1324.750003299198
 20
20.04777238175677
 30
0.0
 40
6.800000570915841
100
AcDbArc
 50
90.0
 51
180.0
  0
ARC
  5
4AB
330
1F
100
AcDbEntity
  8
A-3_受枠
  6
Continuous
 62
     4
370
     9
100
AcDbCircle
 10
1324.750003299198
 20
9.196298960092975
 30
0.0
 40
6.800000570915841
100
AcDbArc
 50
180.0
 51
245.1987609863281
  0
ARC
  5
4AC
330
1F
100
AcDbEntity
  8
A-3_受枠
  6
Continuous
 62
     4
370
     9
100
AcDbCircle
 10
1324.750003299198
 20
9.196298960092975
 30
0.0
 40
0.9999999524773778
100
AcDbArc
 50
180.0
 51
245.1991119384766
  0
ARC
  5
4AD
330
1F
100
AcDbEntity
  8
A-1_ピット
  6
Continuous
 62
     2
370
     9
100
AcDbCircle
 10
1275.15019597234
 20
896.8480620513092
 30
0.0
 40
4.99999958115655
100
AcDbArc
 50
180.0
 51
270.0
  0
ARC
  5
4AE
330
1F
100
AcDbEntity
  8
A-1_ピット
  6
Continuous
 62
     2
370
     9
100
AcDbCircle
 10
1395.15009699641
 20
788.8480026657519
 30
0.0
 40
4.99999958115655
100
AcDbArc
 50
180.0
 51
270.0
  0
ARC
  5
4AF
330
1F
100
AcDbEntity
  8
A-1_ピット
  6
Continuous
 62
     2
370
     9
100
AcDbCircle
 10
1382.150103594806
 20
883.8480686497044
 30
0.0
 40
7.999999619819023
100
AcDbArc
 50
0.0
 51
90.0
  0
ARC
  5
4B0
330
1F
100
AcDbEntity
  8
A-1_ピット
  6
Continuous
 62
     2
370
     9
100
AcDbCircle
 10
1379.780372413429
 20
939.8479069890203
 30
0.0
 40
35.99999659770244
100
AcDbArc
 50
270.0
 51
285.0
  0
ARC
  5
4B1
330
1F
100
AcDbEntity
  8
A-1_ピット
  6
Continuous
 62
     2
370
     9
100
AcDbCircle
 10
1503.150156381968
 20
944.9523430901606
 30
0.0
 40
8.99999914942561
100
AcDbArc
 50
285.0001373291016
 51
104.9999084472656
  0
ARC
  5
4B2
330
1F
100
AcDbEntity
  8
A-1_ピット
  6
JWW_CENTER2
 62
     2
370
     9
100
AcDbCircle
 10
1379.780372413429
 20
939.8479069890203
 30
0.0
 40
27.00000131452406
100
AcDbArc
 50
270.0
 51
284.9999542236328
  0
ARC
  5
4B3
330
1F
100
AcDbEntity
  8
A-1_ピット
  6
Continuous
 62
     2
370
     9
100
AcDbCircle
 10
1379.780372413429
 20
939.8479069890203
 30
0.0
 40
17.99999829885122
100
AcDbArc
 50
270.0
 51
285.0000152587891
  0
ARC
  5
4B4
330
1F
100
AcDbEntity
  8
A-3_受枠
  6
Continuous
 62
     4
370
     9
100
AcDbCircle
 10
1379.150143185178
 20
-17.10383234797291
 30
0.0
 40
0.9999999524773778
100
AcDbArc
 50
267.2883911132812
 51
0.0000000000000254
  0
ARC
  5
4B5
330
1F
100
AcDbEntity
  8
A-3_受枠
  6
Continuous
 62
     4
370
     9
100
AcDbCircle
 10
1379.150143185178
 20
-17.10383234797291
 30
0.0
 40
6.800000570915841
100
AcDbArc
 50
267.2882080078125
 51
0.0000000000000254
  0
ARC
  5
4B6
330
1F
100
AcDbEntity
  8
A-3_受枠
  6
Continuous
 62
     4
370
     9
100
AcDbCircle
 10
1379.150143185178
 20
-6.209056957347912
 30
0.0
 40
6.800000570915841
100
AcDbArc
 50
0.0
 51
93.15977478027344
  0
ARC
  5
4B7
330
1F
100
AcDbEntity
  8
A-3_受枠
  6
Continuous
 62
     4
370
     9
100
AcDbCircle
 10
1379.150143185178
 20
-6.209056957347912
 30
0.0
 40
0.9999999524773778
100
AcDbArc
 50
0.0
 51
93.16032409667969
  0
ARC
  5
4B8
330
1F
100
AcDbEntity
  8
A-3_受枠
  6
Continuous
 62
     4
370
     9
100
AcDbCircle
 10
1383.05004222973
 20
23.94767142630911
 30
0.0
 40
2.899994479643332
100
AcDbArc
 50
270.0
 51
90.0
  0
ARC
  5
4B9
330
1F
100
AcDbEntity
  8
A-3_受枠
  6
Continuous
 62
     4
370
     9
100
AcDbCircle
 10
1324.750003299198
 20
20.04777238175677
 30
0.0
 40
0.9999999524773778
100
AcDbArc
 50
90.0
 51
180.0
  0
ARC
  5
4BA
330
1F
100
AcDbEntity
  8
A-3_受枠
  6
Continuous
 62
     4
370
     9
100
AcDbCircle
 10
1324.750003299198
 20
20.04777238175677
 30
0.0
 40
6.800000570915841
100
AcDbArc
 50
90.0
 51
180.0
  0
ARC
  5
4BB
330
1F
100
AcDbEntity
  8
A-3_受枠
  6
Continuous
 62
     4
370
     9
100
AcDbCircle
 10
1324.750003299198
 20
9.196298960092975
 30
0.0
 40
6.800000570915841
100
AcDbArc
 50
180.0
 51
245.1987609863281
  0
ARC
  5
4BC
330
1F
100
AcDbEntity
  8
A-3_受枠
  6
Continuous
 62
     4
370
     9
100
AcDbCircle
 10
1324.750003299198
 20
9.196298960092975
 30
0.0
 40
0.9999999524773778
100
AcDbArc
 50
180.0
 51
245.1991119384766
  0
ARC
  5
4BD
330
1F
100
AcDbEntity
  8
A-1_ピット
  6
Continuous
 62
     2
370
     9
100
AcDbCircle
 10
1275.15019597234
 20
-29.15241963154557
 30
0.0
 40
4.99999958115655
100
AcDbArc
 50
90.0
 51
180.0
  0
ARC
  5
4BE
330
1F
100
AcDbEntity
  8
A-1_ピット
  6
Continuous
 62
     2
370
     9
100
AcDbCircle
 10
1395.15009699641
 20
78.847639754012
 30
0.0
 40
4.99999958115655
100
AcDbArc
 50
90.0
 51
180.0
  0
ARC
  5
4BF
330
1F
100
AcDbEntity
  8
A-1_ピット
  6
Continuous
 62
     2
370
     9
100
AcDbCircle
 10
1382.150103594806
 20
-16.15242622994089
 30
0.0
 40
7.999999619819023
100
AcDbArc
 50
270.0
 51
0.0
  0
ARC
  5
4C0
330
1F
100
AcDbEntity
  8
A-1_ピット
  6
Continuous
 62
     2
370
     9
100
AcDbCircle
 10
1379.780372413429
 20
-72.15226456925677
 30
0.0
 40
35.99999659770244
100
AcDbArc
 50
74.99999999999999
 51
89.99999999999999
  0
ARC
  5
4C1
330
1F
100
AcDbEntity
  8
A-1_ピット
  6
Continuous
 62
     2
370
     9
100
AcDbCircle
 10
1503.150156381968
 20
-77.25670067039687
 30
0.0
 40
8.99999914942561
100
AcDbArc
 50
255.0000915527343
 51
74.9998626708984
  0
ARC
  5
4C2
330
1F
100
AcDbEntity
  8
A-1_ピット
  6
JWW_CENTER2
 62
     2
370
     9
100
AcDbCircle
 10
1379.780372413429
 20
-72.15226456925677
 30
0.0
 40
27.00000131452406
100
AcDbArc
 50
75.00004577636717
 51
90.0
  0
ARC
  5
4C3
330
1F
100
AcDbEntity
  8
A-1_ピット
  6
Continuous
 62
     2
370
     9
100
AcDbCircle
 10
1379.780372413429
 20
-72.15226456925677
 30
0.0
 40
17.99999829885122
100
AcDbArc
 50
74.99998474121095
 51
90.0
  0
TEXT
  5
4C4
330
1F
100
AcDbEntity
  8
D-4_寸法
  6
Continuous
 62
     2
370
     9
100
AcDbText
 10
882.5020125105575
 20
-1037.24479366818
 30
0.0
 40
30.48
  1
材質：ＳＳ４００
 41
1.109375
  7
ＭＳ ゴシック
100
AcDbText
  0
TEXT
  5
4C5
330
1F
100
AcDbEntity
  8
D-4_寸法
  6
Continuous
 62
     2
370
     9
100
AcDbText
 10
882.5020372545398
 20
-1092.244727684227
 30
0.0
 40
30.48
  1
処理：樹脂系塗料塗装
 41
1.1125
  7
ＭＳ ゴシック
100
AcDbText
  0
TEXT
  5
4C6
330
1F
100
AcDbEntity
  8
D-4_寸法
  6
Continuous
 62
     2
370
     9
100
AcDbText
 10
768.2004031619513
 20
-634.3246738413218
 30
0.0
 40
30.48
  1
仕　様
 41
1.083333333333333
  7
ＭＳ ゴシック
100
AcDbText
  0
TEXT
  5
4C7
330
1F
100
AcDbEntity
  8
D-4_寸法
  6
Continuous
 62
     2
370
     9
100
AcDbText
 10
882.5020372545398
 20
-862.2442163085938
 30
0.0
 40
30.48
  1
処理：溶融亜鉛めっき
 41
1.1125
  7
ＭＳ ゴシック
100
AcDbText
  0
TEXT
  5
4C8
330
1F
100
AcDbEntity
  8
D-4_寸法
  6
Continuous
 62
     2
370
     9
100
AcDbText
 10
882.5021114864867
 20
-917.2452638038429
 30
0.0
 40
30.48
  1
定尺：９９５
 41
1.104166666666667
  7
ＭＳ ゴシック
100
AcDbText
  0
TEXT
  5
4C9
330
1F
100
AcDbEntity
  8
D-4_寸法
  6
Continuous
 62
     2
370
     9
100
AcDbText
 10
822.7896613043708
 20
-697.245280299831
 30
0.0
 40
30.48
  1
ノンスリップタイプ
 41
1.111111111111111
  7
ＭＳ ゴシック
100
AcDbText
  0
TEXT
  5
4CA
330
1F
100
AcDbEntity
  8
D-4_寸法
  6
Continuous
 62
     2
370
     9
100
AcDbText
 10
882.5020125105575
 20
-807.2431688133446
 30
0.0
 40
30.48
  1
材質：ＳＳ４００
 41
1.109375
  7
ＭＳ ゴシック
100
AcDbText
  0
TEXT
  5
4CB
330
1F
100
AcDbEntity
  8
A-4_寸法
  6
Continuous
 62
     7
370
     9
100
AcDbText
 10
1610.15602730416
 20
1124.145309596706
 30
0.0
 40
22.86
  1
アンカー：φ９
 41
1.142857142857143
  7
ＭＳ ゴシック
100
AcDbText
  0
TEXT
  5
4CC
330
1F
100
AcDbEntity
  8
A-4_寸法
  6
Continuous
 62
     2
370
     9
100
AcDbText
 10
1157.833428699361
 20
-76.78312996438468
 30
0.0
 40
30.48
  1
6
 50
90.00000250447816
 41
0.9999999999999998
  7
ＭＳ ゴシック
100
AcDbText
  0
TEXT
  5
4CD
330
1F
100
AcDbEntity
  8
A-4_寸法
  6
Continuous
 62
     2
370
     9
100
AcDbText
 10
1157.833428699361
 20
-9.36060337285189
 30
0.0
 40
30.48
  1
4
 50
90.00000250447816
 41
0.9999999999999998
  7
ＭＳ ゴシック
100
AcDbText
  0
TEXT
  5
4CE
330
1F
100
AcDbEntity
  8
A-4_寸法
  6
Continuous
 62
     2
370
     9
100
AcDbText
 10
1157.833428699361
 20
852.9371764320996
 30
0.0
 40
30.48
  1
4
 50
90.00000250447816
 41
1.000000000000001
  7
ＭＳ ゴシック
100
AcDbText
  0
TEXT
  5
4CF
330
1F
100
AcDbEntity
  8
A-4_寸法
  6
Continuous
 62
     2
370
     9
100
AcDbText
 10
1157.833428699361
 20
926.0467361871672
 30
0.0
 40
30.48
  1
6
 50
90.00000250447816
 41
1.000000000000001
  7
ＭＳ ゴシック
100
AcDbText
  0
TEXT
  5
4D0
330
1F
100
AcDbEntity
  8
A-4_寸法
  6
Continuous
 62
     2
370
     9
100
AcDbText
 10
1596.509840587862
 20
2.597581771521042
 30
0.0
 40
30.48
  1
60
 50
90.00000250447816
 41
1.0625
  7
ＭＳ ゴシック
100
AcDbText
  0
TEXT
  5
4D1
330
1F
100
AcDbEntity
  8
A-4_寸法
  6
Continuous
 62
     2
370
     9
100
AcDbText
 10
1596.509840587862
 20
822.5980601551781
 30
0.0
 40
30.48
  1
60
 50
90.00000250447816
 41
1.062500000000001
  7
ＭＳ ゴシック
100
AcDbText
  0
TEXT
  5
4D2
330
1F
100
AcDbEntity
  8
A-4_寸法
  6
Continuous
 62
     7
370
     9
100
AcDbText
 10
-668.8114256795207
 20
1239.278069309529
 30
0.0
 40
22.86
  1
クロスバー □８ ＠100
 50
0.0000388418058018
 41
1.158730158730159
  7
ＭＳ ゴシック
100
AcDbText
  0
TEXT
  5
4D3
330
1F
100
AcDbEntity
  8
A-4_寸法
  6
Continuous
 62
     7
370
     9
100
AcDbText
 10
362.4543143607475
 20
1159.277063054265
 30
0.0
 40
22.86
  1
ＵＳクリップ：ＵＳ－２
 41
1.151515151515152
  7
ＭＳ ゴシック
100
AcDbText
  0
TEXT
  5
4D4
330
1F
100
AcDbEntity
  8
A-4_寸法
  6
Continuous
 62
     7
370
     9
100
AcDbText
 10
844.2938314901818
 20
1109.734661766258
 30
0.0
 40
22.86
  1
（二方受四方枠）
 41
1.145833333333333
  7
ＭＳ ゴシック
100
AcDbText
  0
TEXT
  5
4D5
330
1F
100
AcDbEntity
  8
A-4_寸法
  6
Continuous
 62
     2
370
     9
100
AcDbText
 10
-408.2244666847022
 20
964.175057274071
 30
0.0
 40
30.48
  1
35.3
 41
1.09375
  7
ＭＳ ゴシック
100
AcDbText
  0
TEXT
  5
4D6
330
1F
100
AcDbEntity
  8
A-4_寸法
  6
Continuous
 62
     2
370
     9
100
AcDbText
 10
-584.3245428961676
 20
-278.7654021062077
 30
0.0
 40
30.48
  1
1014
 41
1.09375
  7
ＭＳ ゴシック
100
AcDbText
  0
TEXT
  5
4D7
330
1F
100
AcDbEntity
  8
A-4_寸法
  6
Continuous
 62
     2
370
     9
100
AcDbText
 10
-1596.67114876412
 20
-173.3599967008024
 30
0.0
 40
30.48
  1
6
 41
0.9999999999999998
  7
ＭＳ ゴシック
100
AcDbText
  0
TEXT
  5
4D8
330
1F
100
AcDbEntity
  8
A-4_寸法
  6
Continuous
 62
     2
370
     9
100
AcDbText
 10
-1520.896278587547
 20
-173.3599967008024
 30
0.0
 40
30.48
  1
3.5
 41
1.083333333333333
  7
ＭＳ ゴシック
100
AcDbText
  0
TEXT
  5
4D9
330
1F
100
AcDbEntity
  8
A-4_寸法
  6
Continuous
 62
     2
370
     9
100
AcDbText
 10
-573.0746047561233
 20
-173.3599967008024
 30
0.0
 40
30.48
  1
995
 41
1.083333333333333
  7
ＭＳ ゴシック
100
AcDbText
  0
TEXT
  5
4DA
330
1F
100
AcDbEntity
  8
A-4_寸法
  6
Continuous
 62
     2
370
     9
100
AcDbText
 10
367.9328547297298
 20
-173.3599967008024
 30
0.0
 40
30.48
  1
3.5
 41
1.083333333333333
  7
ＭＳ ゴシック
100
AcDbText
  0
TEXT
  5
4DB
330
1F
100
AcDbEntity
  8
A-4_寸法
  6
Continuous
 62
     2
370
     9
100
AcDbText
 10
495.2520751953128
 20
-173.3599967008024
 30
0.0
 40
30.48
  1
6
 41
0.9999999999999998
  7
ＭＳ ゴシック
100
AcDbText
  0
TEXT
  5
4DC
330
1F
100
AcDbEntity
  8
A-4_寸法
  6
Continuous
 62
     2
370
     9
100
AcDbText
 10
1161.833541855586
 20
401.3481921230835
 30
0.0
 40
30.48
  1
450
 50
90.00000250447816
 41
1.083333333333333
  7
ＭＳ ゴシック
100
AcDbText
  0
TEXT
  5
4DD
330
1F
100
AcDbEntity
  8
A-4_寸法
  6
Continuous
 62
     2
370
     9
100
AcDbText
 10
1081.833525359598
 20
401.3478209633496
 30
0.0
 40
30.48
  1
470
 50
90.00000250447816
 41
1.083333333333333
  7
ＭＳ ゴシック
100
AcDbText
  0
TEXT
  5
4DE
330
1F
100
AcDbEntity
  8
A-4_寸法
  6
Continuous
 62
     2
370
     9
100
AcDbText
 10
1601.870673550113
 20
401.3979673629075
 30
0.0
 40
30.48
  1
350
 50
89.75440256230284
 41
1.083333333333333
  7
ＭＳ ゴシック
100
AcDbText
  0
TEXT
  5
4DF
330
1F
100
AcDbEntity
  8
A-4_寸法
  6
Continuous
 62
     7
370
     9
100
AcDbText
 10
862.3401786185599
 20
1159.170663930532
 30
0.0
 40
22.86
  1
受枠：Ｌ－６０
 41
1.142857142857143
  7
ＭＳ ゴシック
100
AcDbText
  0
TEXT
  5
4E0
330
1F
100
AcDbEntity
  8
A-4_寸法
  6
Continuous
 62
     7
370
     9
100
AcDbText
 10
-584.6212374221608
 20
1159.277805373731
 30
0.0
 40
22.86
  1
メインバー ＤⅠ－６０ ＠35.3
 50
359.9999127553377
 41
1.160714285714286
  7
ＭＳ ゴシック
100
AcDbText
  0
TEXT
  5
4E1
330
1F
100
AcDbEntity
  8
A-4_寸法
  6
Continuous
 62
     2
370
     9
100
AcDbText
 10
1308.900748587944
 20
-165.7124978225294
 30
0.0
 40
30.48
  1
60
 41
1.0625
  7
ＭＳ ゴシック
100
AcDbText
  0
TEXT
  5
4E2
330
1F
100
AcDbEntity
  8
A-4_寸法
  6
Continuous
 62
     2
370
     9
100
AcDbText
 10
1314.900421967378
 20
-245.7125143185177
 30
0.0
 40
30.48
  1
66
 41
1.0625
  7
ＭＳ ゴシック
100
AcDbText
  0
TEXT
  5
4E3
330
1F
100
AcDbEntity
  8
D-4_寸法
  6
Continuous
 62
     7
370
     9
100
AcDbText
 10
-1003.446152145798
 20
-1094.824344795845
 30
0.0
 40
22.86
  1
※デルタパターンの配列は一定ではありません。
 41
1.159090909090909
  7
ＭＳ ゴシック
100
AcDbText
  0
TEXT
  5
4E4
330
1F
100
AcDbEntity
  8
D-4_寸法
  6
Continuous
 62
     2
370
     9
100
AcDbText
 10
-1023.446275865709
 20
-1018.414221075935
 30
0.0
 40
30.48
  1
ＤⅠ－６０　バー形状詳細　Ｓ＝１：２
 41
1.118055555555555
  7
ＭＳ ゴシック
100
AcDbText
  0
TEXT
  5
4E5
330
1F
100
AcDbEntity
  8
D-4_寸法
  6
Continuous
 62
     7
370
     9
100
AcDbText
 10
-870.3527254671665
 20
-540.9997396273225
 30
0.0
 40
22.86
  1
デルタパターン
 41
1.142857142857143
  7
ＭＳ ゴシック
100
AcDbText
  0
TEXT
  5
4E6
330
1F
100
AcDbEntity
  8
D-4_寸法
  6
Continuous
 62
     2
370
     9
100
AcDbText
 10
-1058.756380409064
 20
-665.407176908668
 30
0.0
 40
30.48
  1
8
 50
90.00000250447816
 41
1.000000000000001
  7
ＭＳ ゴシック
100
AcDbText
  0
TEXT
  5
4E7
330
1F
100
AcDbEntity
  8
D-4_寸法
  6
Continuous
 62
     2
370
     9
100
AcDbText
 10
-1058.756380409064
 20
-839.6615376231422
 30
0.0
 40
30.48
  1
5
 50
90.00000250447816
 41
1.000000000000001
  7
ＭＳ ゴシック
100
AcDbText
  0
TEXT
  5
4E8
330
1F
100
AcDbEntity
  8
D-4_寸法
  6
Continuous
 62
     2
370
     9
100
AcDbText
 10
-977.9845242886929
 20
-539.5198997373839
 30
0.0
 40
30.48
  1
7
 41
0.9999999999999998
  7
ＭＳ ゴシック
100
AcDbText
  0
TEXT
  5
4E9
330
1F
100
AcDbEntity
  8
D-4_寸法
  6
Continuous
 62
     2
370
     9
100
AcDbText
 10
-899.361906925016
 20
-659.5333958280095
 30
0.0
 40
30.48
  1
5
 50
282.0789753068251
 41
0.999999999999997
  7
ＭＳ ゴシック
100
AcDbText
  0
TEXT
  5
4EA
330
1F
100
AcDbEntity
  8
D-4_寸法
  6
Continuous
 62
     2
370
     9
100
AcDbText
 10
-271.374705546611
 20
-743.945340345228
 30
0.0
 40
30.48
  1
4
 41
0.9999999999999998
  7
ＭＳ ゴシック
100
AcDbText
  0
TEXT
  5
4EB
330
1F
100
AcDbEntity
  8
D-4_寸法
  6
Continuous
 62
     2
370
     9
100
AcDbText
 10
-319.4058681178735
 20
-526.160066973712
 30
0.0
 40
30.48
  1
7
 41
0.9999999999999998
  7
ＭＳ ゴシック
100
AcDbText
  0
TEXT
  5
4EC
330
1F
100
AcDbEntity
  8
D-4_寸法
  6
Continuous
 62
     2
370
     9
100
AcDbText
 10
-185.0996894744267
 20
-765.3040707965745
 30
0.0
 40
30.48
  1
60
 50
90.00000250447816
 41
1.062500000000001
  7
ＭＳ ゴシック
100
AcDbText
  0
TEXT
  5
4ED
330
1F
100
AcDbEntity
  8
D-4_寸法
  6
Continuous
 62
     2
370
     9
100
AcDbText
 10
822.7896118164065
 20
-752.2463277950802
 30
0.0
 40
30.48
  1
圧接式グレーチング　ＨＸＢＣ　１４５６０
 41
1.11875
  7
ＭＳ ゴシック
100
AcDbText
  0
TEXT
  5
4EE
330
1F
100
AcDbEntity
  8
D-4_寸法
  6
Continuous
 62
     2
370
     9
100
AcDbText
 10
822.7910964553422
 20
-982.2447359322214
 30
0.0
 40
30.48
  1
スチール製受枠　Ｌ－６０（二方受四方枠）
 41
1.11875
  7
ＭＳ ゴシック
100
AcDbText
  0
TEXT
  5
4EF
330
1F
100
AcDbEntity
  8
A-4_寸法
  6
Continuous
 62
     2
370
     9
100
AcDbText
 10
-573.0743573163006
 20
1056.687610721073
 30
0.0
 40
30.48
  1
514
 41
1.083333333333333
  7
ＭＳ ゴシック
100
AcDbText
  0
TEXT
  5
4F0
330
1F
100
AcDbEntity
  8
A-4_寸法
  6
Continuous
 62
     2
370
     9
100
AcDbText
 10
190.9260352882181
 20
1056.687610721073
 30
0.0
 40
30.48
  1
250
 41
1.083333333333333
  7
ＭＳ ゴシック
100
AcDbText
  0
TEXT
  5
4F1
330
1F
100
AcDbEntity
  8
A-4_寸法
  6
Continuous
 62
     2
370
     9
100
AcDbText
 10
-1337.004387420086
 20
1058.382471940724
 30
0.0
 40
30.48
  1
250
 50
359.656254081433
 41
1.083333333333333
  7
ＭＳ ゴシック
100
AcDbText
  0
TEXT
  5
4F2
330
1F
100
AcDbEntity
  8
A-4_寸法
  6
Continuous
 62
     7
370
     9
100
AcDbText
 10
551.0457219304266
 20
921.333733372044
 30
0.0
 40
22.86
  1
プレート：ｔ＝６
 41
1.145833333333333
  7
ＭＳ ゴシック
100
AcDbText
  0
LWPOLYLINE
  5
4F3
330
1F
100
AcDbEntity
  8
A-4_寸法
  6
Continuous
 62
     7
370
     9
100
AcDbPolyline
 90
        4
 70
     1
 43
1.0
 10
1173.973461254223
 20
-36.15224477407082
 42
0.4142135623731
 10
1173.473461254223
 20
-35.65224477407082
 42
0.4142135623731
 10
1172.973461254223
 20
-36.15224477407082
 42
0.4142135623731
 10
1173.473461254223
 20
-36.65224477407082
 42
0.4142135623731
  0
LWPOLYLINE
  5
4F4
330
1F
100
AcDbEntity
  8
A-4_寸法
  6
Continuous
 62
     7
370
     9
100
AcDbPolyline
 90
        4
 70
     1
 43
1.0
 10
1173.973461254223
 20
-24.15240313555728
 42
0.4142135623731
 10
1173.473461254223
 20
-23.65240313555728
 42
0.4142135623731
 10
1172.973461254223
 20
-24.15240313555728
 42
0.4142135623731
 10
1173.473461254223
 20
-24.65240313555728
 42
0.4142135623731
  0
LWPOLYLINE
  5
4F5
330
1F
100
AcDbEntity
  8
A-4_寸法
  6
Continuous
 62
     7
370
     9
100
AcDbPolyline
 90
        4
 70
     1
 43
1.0
 10
1173.973461254223
 20
-16.15168391047291
 42
0.4142135623731
 10
1173.473461254223
 20
-15.65168391047291
 42
0.4142135623731
 10
1172.973461254223
 20
-16.15168391047291
 42
0.4142135623731
 10
1173.473461254223
 20
-16.65168391047291
 42
0.4142135623731
  0
LWPOLYLINE
  5
4F6
330
1F
100
AcDbEntity
  8
A-4_寸法
  6
Continuous
 62
     7
370
     9
100
AcDbPolyline
 90
        4
 70
     1
 43
1.0
 10
1173.973461254223
 20
883.8480686497044
 42
0.4142135623731
 10
1173.473461254223
 20
884.3480686497044
 42
0.4142135623731
 10
1172.973461254223
 20
883.8480686497044
 42
0.4142135623731
 10
1173.473461254223
 20
883.3480686497045
 42
0.4142135623731
  0
LWPOLYLINE
  5
4F7
330
1F
100
AcDbEntity
  8
A-4_寸法
  6
Continuous
 62
     7
370
     9
100
AcDbPolyline
 90
        4
 70
     1
 43
1.0
 10
1173.973461254223
 20
891.848045555321
 42
0.4142135623731
 10
1173.473461254223
 20
892.348045555321
 42
0.4142135623731
 10
1172.973461254223
 20
891.848045555321
 42
0.4142135623731
 10
1173.473461254223
 20
891.3480455553212
 42
0.4142135623731
  0
LWPOLYLINE
  5
4F8
330
1F
100
AcDbEntity
  8
A-4_寸法
  6
Continuous
 62
     7
370
     9
100
AcDbPolyline
 90
        4
 70
     1
 43
1.0
 10
1173.973461254223
 20
903.8478871938346
 42
0.4142135623731
 10
1173.473461254223
 20
904.3478871938346
 42
0.4142135623731
 10
1172.973461254223
 20
903.8478871938346
 42
0.4142135623731
 10
1173.473461254223
 20
903.3478871938347
 42
0.4142135623731
  0
LWPOLYLINE
  5
4F9
330
1F
100
AcDbEntity
  8
A-4_寸法
  6
Continuous
 62
     7
370
     9
100
AcDbPolyline
 90
        4
 70
     1
 43
1.0
 10
1093.973444758235
 20
-36.15224477407082
 42
0.4142135623731
 10
1093.473444758235
 20
-35.65224477407082
 42
0.4142135623731
 10
1092.973444758235
 20
-36.15224477407082
 42
0.4142135623731
 10
1093.473444758235
 20
-36.65224477407082
 42
0.4142135623731
  0
LWPOLYLINE
  5
4FA
330
1F
100
AcDbEntity
  8
A-4_寸法
  6
Continuous
 62
     7
370
     9
100
AcDbPolyline
 90
        4
 70
     1
 43
1.0
 10
1093.973444758235
 20
903.8478871938346
 42
0.4142135623731
 10
1093.473444758235
 20
904.3478871938346
 42
0.4142135623731
 10
1092.973444758235
 20
903.8478871938346
 42
0.4142135623731
 10
1093.473444758235
 20
903.3478871938347
 42
0.4142135623731
  0
LWPOLYLINE
  5
4FB
330
1F
100
AcDbEntity
  8
A-4_寸法
  6
Continuous
 62
     7
370
     9
100
AcDbPolyline
 90
        4
 70
     1
 43
1.0
 10
1612.649872650971
 20
-36.15224477407082
 42
0.4142135623731
 10
1612.149872650971
 20
-35.65224477407082
 42
0.4142135623731
 10
1611.649872650971
 20
-36.15224477407082
 42
0.4142135623731
 10
1612.149872650971
 20
-36.65224477407082
 42
0.4142135623731
  0
LWPOLYLINE
  5
4FC
330
1F
100
AcDbEntity
  8
A-4_寸法
  6
Continuous
 62
     7
370
     9
100
AcDbPolyline
 90
        4
 70
     1
 43
1.0
 10
1612.649872650971
 20
83.84740881017734
 42
0.4142135623731
 10
1612.149872650971
 20
84.34740881017734
 42
0.4142135623731
 10
1611.649872650971
 20
83.84740881017734
 42
0.4142135623731
 10
1612.149872650971
 20
83.34740881017734
 42
0.4142135623731
  0
LWPOLYLINE
  5
4FD
330
1F
100
AcDbEntity
  8
A-4_寸法
  6
Continuous
 62
     7
370
     9
100
AcDbPolyline
 90
        4
 70
     1
 43
1.0
 10
1612.649872650971
 20
783.8482336095863
 42
0.4142135623731
 10
1612.149872650971
 20
784.3482336095861
 42
0.4142135623731
 10
1611.649872650971
 20
783.8482336095863
 42
0.4142135623731
 10
1612.149872650971
 20
783.3482336095863
 42
0.4142135623731
  0
LWPOLYLINE
  5
4FE
330
1F
100
AcDbEntity
  8
A-4_寸法
  6
Continuous
 62
     7
370
     9
100
AcDbPolyline
 90
        4
 70
     1
 43
1.0
 10
1612.649872650971
 20
903.8478871938346
 42
0.4142135623731
 10
1612.149872650971
 20
904.3478871938346
 42
0.4142135623731
 10
1611.649872650971
 20
903.8478871938346
 42
0.4142135623731
 10
1612.149872650971
 20
903.3478871938347
 42
0.4142135623731
  0
LWPOLYLINE
  5
4FF
330
1F
100
AcDbEntity
  8
A-4_寸法
  6
Continuous
 62
     7
370
     9
100
AcDbPolyline
 90
        4
 70
     1
 43
1.0
 10
1270.650179476351
 20
-177.3525423616977
 42
0.4142135623731
 10
1270.150179476352
 20
-176.8525423616977
 42
0.4142135623731
 10
1269.650179476352
 20
-177.3525423616977
 42
0.4142135623731
 10
1270.150179476352
 20
-177.8525423616977
 42
0.4142135623731
  0
LWPOLYLINE
  5
500
330
1F
100
AcDbEntity
  8
A-4_寸法
  6
Continuous
 62
     7
370
     9
100
AcDbPolyline
 90
        4
 70
     1
 43
1.0
 10
1390.651070259713
 20
-177.3525423616977
 42
0.4142135623731
 10
1390.151070259713
 20
-176.8525423616977
 42
0.4142135623731
 10
1389.651070259713
 20
-177.3525423616977
 42
0.4142135623731
 10
1390.151070259713
 20
-177.8525423616977
 42
0.4142135623731
  0
LWPOLYLINE
  5
501
330
1F
100
AcDbEntity
  8
A-4_寸法
  6
Continuous
 62
     7
370
     9
100
AcDbPolyline
 90
        4
 70
     1
 43
1.0
 10
1270.650179476351
 20
-257.3525588576858
 42
0.4142135623731
 10
1270.150179476352
 20
-256.8525588576858
 42
0.4142135623731
 10
1269.650179476352
 20
-257.3525588576858
 42
0.4142135623731
 10
1270.150179476352
 20
-257.8525588576858
 42
0.4142135623731
  0
LWPOLYLINE
  5
502
330
1F
100
AcDbEntity
  8
A-4_寸法
  6
Continuous
 62
     7
370
     9
100
AcDbPolyline
 90
        4
 70
     1
 43
1.0
 10
1402.650417018581
 20
-257.3525588576858
 42
0.4142135623731
 10
1402.150417018581
 20
-256.8525588576858
 42
0.4142135623731
 10
1401.650417018581
 20
-257.3525588576858
 42
0.4142135623731
 10
1402.150417018581
 20
-257.8525588576858
 42
0.4142135623731
  0
LWPOLYLINE
  5
503
330
1F
100
AcDbEntity
  8
A-4_寸法
  6
Continuous
 62
     7
370
     9
100
AcDbPolyline
 90
        4
 70
     1
 43
1.0
 10
-1554.07483240076
 20
1045.047689901816
 42
0.4142135623731
 10
-1554.57483240076
 20
1045.547689901816
 42
0.4142135623731
 10
-1555.07483240076
 20
1045.047689901816
 42
0.4142135623731
 10
-1554.57483240076
 20
1044.547689901816
 42
0.4142135623731
  0
LWPOLYLINE
  5
504
330
1F
100
AcDbEntity
  8
A-4_寸法
  6
Continuous
 62
     7
370
     9
100
AcDbPolyline
 90
        4
 70
     1
 43
1.0
 10
-1054.07479116079
 20
1045.047689901816
 42
0.4142135623731
 10
-1054.57479116079
 20
1045.547689901816
 42
0.4142135623731
 10
-1055.07479116079
 20
1045.047689901816
 42
0.4142135623731
 10
-1054.57479116079
 20
1044.547689901816
 42
0.4142135623731
  0
LWPOLYLINE
  5
505
330
1F
100
AcDbEntity
  8
A-4_寸法
  6
Continuous
 62
     7
370
     9
100
AcDbPolyline
 90
        4
 70
     1
 43
1.0
 10
-26.07392347181144
 20
1045.047689901816
 42
0.4142135623731
 10
-26.57392347181144
 20
1045.547689901816
 42
0.4142135623731
 10
-27.07392347181144
 20
1045.047689901816
 42
0.4142135623731
 10
-26.57392347181144
 20
1044.547689901816
 42
0.4142135623731
  0
LWPOLYLINE
  5
506
330
1F
100
AcDbEntity
  8
A-4_寸法
  6
Continuous
 62
     7
370
     9
100
AcDbPolyline
 90
        4
 70
     1
 43
1.0
 10
473.9258703283365
 20
1045.047689901816
 42
0.4142135623731
 10
473.4258703283365
 20
1045.547689901816
 42
0.4142135623731
 10
472.9258703283365
 20
1045.047689901816
 42
0.4142135623731
 10
473.4258703283365
 20
1044.547689901816
 42
0.4142135623731
  0
LWPOLYLINE
  5
507
330
1F
100
AcDbEntity
  8
A-4_寸法
  6
Continuous
 62
     7
370
     9
100
AcDbPolyline
 90
        4
 70
     1
 43
1.0
 10
-399.274169921875
 20
952.5351364548144
 42
0.4142135623731
 10
-399.774169921875
 20
953.0351364548143
 42
0.4142135623731
 10
-400.274169921875
 20
952.5351364548144
 42
0.4142135623731
 10
-399.774169921875
 20
952.0351364548144
 42
0.4142135623731
  0
LWPOLYLINE
  5
508
330
1F
100
AcDbEntity
  8
A-4_寸法
  6
Continuous
 62
     7
370
     9
100
AcDbPolyline
 90
        4
 70
     1
 43
1.0
 10
-328.6747634475295
 20
952.5351364548144
 42
0.4142135623731
 10
-329.1747634475294
 20
953.0351364548143
 42
0.4142135623731
 10
-329.6747634475294
 20
952.5351364548144
 42
0.4142135623731
 10
-329.1747634475294
 20
952.0351364548144
 42
0.4142135623731
  0
LWPOLYLINE
  5
509
330
1F
100
AcDbEntity
  8
A-4_寸法
  6
Continuous
 62
     7
370
     9
100
AcDbPolyline
 90
        4
 70
     1
 43
1.0
 10
-1554.074956120671
 20
-290.4054466453758
 42
0.4142135623731
 10
-1554.574956120671
 20
-289.9054466453758
 42
0.4142135623731
 10
-1555.074956120671
 20
-290.4054466453758
 42
0.4142135623731
 10
-1554.574956120671
 20
-290.9054466453758
 42
0.4142135623731
  0
LWPOLYLINE
  5
50A
330
1F
100
AcDbEntity
  8
A-4_寸法
  6
Continuous
 62
     7
370
     9
100
AcDbPolyline
 90
        4
 70
     1
 43
1.0
 10
473.9258703283365
 20
-290.4054466453758
 42
0.4142135623731
 10
473.4258703283365
 20
-289.9054466453758
 42
0.4142135623731
 10
472.9258703283365
 20
-290.4054466453758
 42
0.4142135623731
 10
473.4258703283365
 20
-290.9054466453758
 42
0.4142135623731
  0
LWPOLYLINE
  5
50B
330
1F
100
AcDbEntity
  8
A-4_寸法
  6
Continuous
 62
     7
370
     9
100
AcDbPolyline
 90
        4
 70
     1
 43
1.0
 10
-1554.074956120671
 20
-185.0000412399703
 42
0.4142135623731
 10
-1554.574956120671
 20
-184.5000412399703
 42
0.4142135623731
 10
-1555.074956120671
 20
-185.0000412399703
 42
0.4142135623731
 10
-1554.574956120671
 20
-185.5000412399703
 42
0.4142135623731
  0
LWPOLYLINE
  5
50C
330
1F
100
AcDbEntity
  8
A-4_寸法
  6
Continuous
 62
     7
370
     9
100
AcDbPolyline
 90
        4
 70
     1
 43
1.0
 10
-1542.074990762246
 20
-185.0000412399703
 42
0.4142135623731
 10
-1542.574990762247
 20
-184.5000412399703
 42
0.4142135623731
 10
-1543.074990762247
 20
-185.0000412399703
 42
0.4142135623731
 10
-1542.574990762247
 20
-185.5000412399703
 42
0.4142135623731
  0
LWPOLYLINE
  5
50D
330
1F
100
AcDbEntity
  8
A-4_寸法
  6
Continuous
 62
     7
370
     9
100
AcDbPolyline
 90
        4
 70
     1
 43
1.0
 10
-1535.074918179899
 20
-185.0000412399703
 42
0.4142135623731
 10
-1535.574918179899
 20
-184.5000412399703
 42
0.4142135623731
 10
-1536.074918179899
 20
-185.0000412399703
 42
0.4142135623731
 10
-1535.574918179899
 20
-185.5000412399703
 42
0.4142135623731
  0
LWPOLYLINE
  5
50E
330
1F
100
AcDbEntity
  8
A-4_寸法
  6
Continuous
 62
     7
370
     9
100
AcDbPolyline
 90
        4
 70
     1
 43
1.0
 10
454.9257086676521
 20
-185.0000412399703
 42
0.4142135623731
 10
454.4257086676521
 20
-184.5000412399703
 42
0.4142135623731
 10
453.9257086676521
 20
-185.0000412399703
 42
0.4142135623731
 10
454.4257086676521
 20
-185.5000412399703
 42
0.4142135623731
  0
LWPOLYLINE
  5
50F
330
1F
100
AcDbEntity
  8
A-4_寸法
  6
Continuous
 62
     7
370
     9
100
AcDbPolyline
 90
        4
 70
     1
 43
1.0
 10
461.92578125
 20
-185.0000412399703
 42
0.4142135623731
 10
461.42578125
 20
-184.5000412399703
 42
0.4142135623731
 10
460.92578125
 20
-185.0000412399703
 42
0.4142135623731
 10
461.42578125
 20
-185.5000412399703
 42
0.4142135623731
  0
LWPOLYLINE
  5
510
330
1F
100
AcDbEntity
  8
A-4_寸法
  6
Continuous
 62
     7
370
     9
100
AcDbPolyline
 90
        4
 70
     1
 43
1.0
 10
473.9258703283365
 20
-185.0000412399703
 42
0.4142135623731
 10
473.4258703283365
 20
-184.5000412399703
 42
0.4142135623731
 10
472.9258703283365
 20
-185.0000412399703
 42
0.4142135623731
 10
473.4258703283365
 20
-185.5000412399703
 42
0.4142135623731
  0
TEXT
  5
511
330
1F
100
AcDbEntity
  8
F-5
  6
Continuous
 62
     2
370
     9
100
AcDbText
 10
-904.6689560348923
 20
-1362.093442976668
 30
0.0
 40
30.48
  1
騒音防止型　ノンスリップタイプ　横断溝用　スチール製グレーチング　　ＨＸＢＣ　１４５６０
 41
0.7238636363636365
  7
ＭＳ ゴシック
100
AcDbText
  0
TEXT
  5
512
330
1F
100
AcDbEntity
  8
A-4_寸法
  6
Continuous
 62
     7
370
     9
100
AcDbText
 10
-734.6993070035365
 20
1319.277838365709
 30
0.0
 40
22.86
  1
エンドプレート ＦＢ4.5×55
 41
1.16025641025641
  7
ＭＳ ゴシック
100
AcDbText
  0
ENDSEC
  0
SECTION
  2
OBJECTS
  0
DICTIONARY
  5
C
330
0
100
AcDbDictionary
281
     1
  3
ACAD_GROUP
350
D
  3
ACAD_LAYOUT
350
1A
  3
ACAD_MLEADERSTYLE
350
514
  3
ACAD_MLINESTYLE
350
17
  3
ACAD_PLOTSETTINGS
350
19
  3
ACAD_PLOTSTYLENAME
350
E
  3
ACAD_TABLESTYLE
350
513
  3
ACAD_VISUALSTYLE
350
2A
  0
DICTIONARY
  5
D
102
{ACAD_REACTORS
330
C
102
}
330
C
100
AcDbDictionary
281
     1
  0
DICTIONARY
  5
1A
102
{ACAD_REACTORS
330
C
102
}
330
C
100
AcDbDictionary
281
     1
  3
Layout1
350
1E
  3
Layout2
350
26
  3
Model
350
22
  0
DICTIONARY
  5
514
102
{ACAD_REACTORS
330
C
102
}
330
C
100
AcDbDictionary
281
     1
  0
DICTIONARY
  5
17
102
{ACAD_REACTORS
330
C
102
}
330
C
100
AcDbDictionary
281
     1
  3
Standard
350
18
  0
DICTIONARY
  5
19
102
{ACAD_REACTORS
330
C
102
}
330
C
100
AcDbDictionary
281
     1
  0
ACDBDICTIONARYWDFLT
  5
E
102
{ACAD_REACTORS
330
C
102
}
330
C
100
AcDbDictionary
281
     1
  3
Normal
350
F
100
AcDbDictionaryWithDefault
340
F
  0
DICTIONARY
  5
513
102
{ACAD_REACTORS
330
C
102
}
330
C
100
AcDbDictionary
281
     1
  0
DICTIONARY
  5
2A
102
{ACAD_REACTORS
330
C
102
}
330
C
100
AcDbDictionary
281
     1
  3
2dWireframe
350
2F
  3
3D Hidden
350
31
  3
3dWireframe
350
30
  3
Basic
350
32
  3
Brighten
350
36
  3
ColorChange
350
3A
  3
Conceptual
350
34
  3
Dim
350
35
  3
Facepattern
350
39
  3
Flat
350
2B
  3
FlatWithEdges
350
2C
  3
Gouraud
350
2D
  3
GouraudWithEdges
350
2E
  3
Linepattern
350
38
  3
Realistic
350
33
  3
Thicken
350
37
  0
LAYOUT
  5
1E
102
{ACAD_REACTORS
330
1A
102
}
330
1A
100
AcDbPlotSettings
  1

  2
none_device
  4

  6

 40
0.0
 41
0.0
 42
0.0
 43
0.0
 44
0.0
 45
0.0
 46
0.0
 47
0.0
 48
0.0
 49
0.0
140
0.0
141
0.0
142
1.0
143
1.0
 70
   688
 72
     0
 73
     0
 74
     5
  7

 75
    16
 76
     0
 77
     5
 78
   300
147
1.0
148
0.0
149
0.0
100
AcDbLayout
  1
Layout1
 70
     1
 71
     1
 10
0.0
 20
0.0
 11
420.0
 21
297.0
 12
0.0
 22
0.0
 32
0.0
 14
1.000000000000000E+20
 24
1.000000000000000E+20
 34
1.000000000000000E+20
 15
-1.000000000000000E+20
 25
-1.000000000000000E+20
 35
-1.000000000000000E+20
146
0.0
 13
0.0
 23
0.0
 33
0.0
 16
1.0
 26
0.0
 36
0.0
 17
0.0
 27
1.0
 37
0.0
 76
     0
330
1B
  0
LAYOUT
  5
26
102
{ACAD_REACTORS
330
1A
102
}
330
1A
100
AcDbPlotSettings
  1

  2
none_device
  4

  6

 40
0.0
 41
0.0
 42
0.0
 43
0.0
 44
0.0
 45
0.0
 46
0.0
 47
0.0
 48
0.0
 49
0.0
140
0.0
141
0.0
142
1.0
143
1.0
 70
   688
 72
     0
 73
     0
 74
     5
  7

 75
    16
 76
     0
 77
     5
 78
   300
147
1.0
148
0.0
149
0.0
100
AcDbLayout
  1
Layout2
 70
     1
 71
     2
 10
0.0
 20
0.0
 11
0.0
 21
0.0
 12
0.0
 22
0.0
 32
0.0
 14
0.0
 24
0.0
 34
0.0
 15
0.0
 25
0.0
 35
0.0
146
0.0
 13
0.0
 23
0.0
 33
0.0
 16
1.0
 26
0.0
 36
0.0
 17
0.0
 27
1.0
 37
0.0
 76
     0
330
23
  0
LAYOUT
  5
22
102
{ACAD_REACTORS
330
1A
102
}
330
1A
100
AcDbPlotSettings
  1

  2
none_device
  4

  6

 40
0.0
 41
0.0
 42
0.0
 43
0.0
 44
0.0
 45
0.0
 46
0.0
 47
0.0
 48
0.0
 49
0.0
140
0.0
141
0.0
142
1.0
143
1.0
 70
  1712
 72
     0
 73
     0
 74
     0
  7

 75
     0
 76
     0
 77
     5
 78
   300
147
1.0
148
0.0
149
0.0
100
AcDbLayout
  1
Model
 70
     1
 71
     0
 10
-2100.0
 20
-1485.0
 11
2100.0
 21
1485.0
 12
0.0
 22
0.0
 32
0.0
 14
-2100.0
 24
-1485.0
 34
0.0
 15
2100.0
 25
1485.0
 35
0.0
146
0.0
 13
0.0
 23
0.0
 33
0.0
 16
1.0
 26
0.0
 36
0.0
 17
0.0
 27
1.0
 37
0.0
 76
     0
330
1F
331
29
  0
MLINESTYLE
  5
18
102
{ACAD_REACTORS
330
17
102
}
330
17
100
AcDbMlineStyle
  2
Standard
 70
     0
  3

 62
   256
 51
90.0
 52
90.0
 71
     2
 49
0.5
 62
   256
  6
BYLAYER
 49
-0.5
 62
   256
  6
BYLAYER
  0
ACDBPLACEHOLDER
  5
F
102
{ACAD_REACTORS
330
E
102
}
330
E
  0
VISUALSTYLE
  5
2F
102
{ACAD_REACTORS
330
2A
102
}
330
2A
100
AcDbVisualStyle
  2
2dWireframe
 70
     4
 71
     0
 72
     2
 73
     0
 90
        0
 40
-0.6
 41
-30.0
 62
     5
 63
     7
421
 16777215
 74
     1
 91
        4
 64
     7
 65
   257
 75
     1
175
     1
 42
1.0
 92
        0
 66
   257
 43
1.0
 76
     1
 77
     6
 78
     2
 67
     7
 79
     5
170
     0
171
     0
290
     0
174
     0
 93
        1
 44
0.0
173
     0
291
     0
 45
0.0
1001
ACAD
1000
AcDbSavedByObjectVersion
1070
     0
  0
VISUALSTYLE
  5
31
102
{ACAD_REACTORS
330
2A
102
}
330
2A
100
AcDbVisualStyle
  2
3D Hidden
 70
     6
 71
     1
 72
     2
 73
     2
 90
        0
 40
-0.6
 41
-30.0
 62
     5
 63
     7
421
 16777215
 74
     2
 91
        2
 64
     7
 65
   257
 75
     2
175
     1
 42
40.0
 92
        0
 66
   257
 43
1.0
 76
     1
 77
     6
 78
     2
 67
     7
 79
     3
170
     0
171
     0
290
     0
174
     0
 93
        1
 44
0.0
173
     0
291
     0
 45
0.0
1001
ACAD
1000
AcDbSavedByObjectVersion
1070
     0
  0
VISUALSTYLE
  5
30
102
{ACAD_REACTORS
330
2A
102
}
330
2A
100
AcDbVisualStyle
  2
3dWireframe
 70
     5
 71
     0
 72
     2
 73
     0
 90
        0
 40
-0.6
 41
-30.0
 62
     5
 63
     7
421
 16777215
 74
     1
 91
        4
 64
     7
 65
   257
 75
     1
175
     1
 42
1.0
 92
        0
 66
   257
 43
1.0
 76
     1
 77
     6
 78
     2
 67
     7
 79
     5
170
     0
171
     0
290
     0
174
     0
 93
        1
 44
0.0
173
     0
291
     0
 45
0.0
1001
ACAD
1000
AcDbSavedByObjectVersion
1070
     0
  0
VISUALSTYLE
  5
32
102
{ACAD_REACTORS
330
2A
102
}
330
2A
100
AcDbVisualStyle
  2
Basic
 70
     7
 71
     1
 72
     0
 73
     1
 90
        0
 40
-0.6
 41
-30.0
 62
     5
 63
     7
421
 16777215
 74
     0
 91
        4
 64
     7
 65
   257
 75
     1
175
     1
 42
1.0
 92
        8
 66
     7
 43
1.0
 76
     1
 77
     6
 78
     2
 67
     7
 79
     5
170
     0
171
     0
290
     0
174
     0
 93
        1
 44
0.0
173
     0
291
     1
 45
0.0
1001
ACAD
1000
AcDbSavedByObjectVersion
1070
     0
  0
VISUALSTYLE
  5
36
102
{ACAD_REACTORS
330
2A
102
}
330
2A
100
AcDbVisualStyle
  2
Brighten
 70
    12
 71
     2
 72
     2
 73
     0
 90
        0
 40
-0.6
 41
-30.0
 62
     5
 63
     7
421
 16777215
 74
     1
 91
        4
 64
     7
 65
   257
 75
     1
175
     1
 42
1.0
 92
        8
 66
     7
 43
1.0
 76
     1
 77
     6
 78
     2
 67
     7
 79
     5
170
     0
171
     0
290
     0
174
     0
 93
        1
 44
50.0
173
     0
291
     1
 45
0.0
1001
ACAD
1000
AcDbSavedByObjectVersion
1070
     0
  0
VISUALSTYLE
  5
3A
102
{ACAD_REACTORS
330
2A
102
}
330
2A
100
AcDbVisualStyle
  2
ColorChange
 70
    16
 71
     2
 72
     2
 73
     3
 90
        0
 40
-0.6
 41
-30.0
 62
     5
 63
     8
421
  8421504
 74
     1
 91
        4
 64
     7
 65
   257
 75
     1
175
     1
 42
1.0
 92
        8
 66
     8
424
  8421504
 43
1.0
 76
     1
 77
     6
 78
     2
 67
     7
 79
     5
170
     0
171
     0
290
     0
174
     0
 93
        1
 44
0.0
173
     0
291
     1
 45
0.0
1001
ACAD
1000
AcDbSavedByObjectVersion
1070
     0
  0
VISUALSTYLE
  5
34
102
{ACAD_REACTORS
330
2A
102
}
330
2A
100
AcDbVisualStyle
  2
Conceptual
 70
     9
 71
     3
 72
     2
 73
     0
 90
        0
 40
-0.6
 41
-30.0
 62
     5
 63
     7
421
 16777215
 74
     2
 91
        2
 64
     7
 65
   257
 75
     1
175
     1
 42
40.0
 92
        8
 66
     7
 43
1.0
 76
     1
 77
     6
 78
     2
 67
     7
 79
     3
170
     0
171
     0
290
     0
174
     0
 93
        1
 44
0.0
173
     0
291
     0
 45
0.0
1001
ACAD
1000
AcDbSavedByObjectVersion
1070
     0
  0
VISUALSTYLE
  5
35
102
{ACAD_REACTORS
330
2A
102
}
330
2A
100
AcDbVisualStyle
  2
Dim
 70
    11
 71
     2
 72
     2
 73
     0
 90
        0
 40
-0.6
 41
-30.0
 62
     5
 63
     7
421
 16777215
 74
     1
 91
        4
 64
     7
 65
   257
 75
     1
175
     1
 42
1.0
 92
        8
 66
     7
 43
1.0
 76
     1
 77
     6
 78
     2
 67
     7
 79
     5
170
     0
171
     0
290
     0
174
     0
 93
        1
 44
-50.0
173
     0
291
     1
 45
0.0
1001
ACAD
1000
AcDbSavedByObjectVersion
1070
     0
  0
VISUALSTYLE
  5
39
102
{ACAD_REACTORS
330
2A
102
}
330
2A
100
AcDbVisualStyle
  2
Facepattern
 70
    15
 71
     2
 72
     2
 73
     0
 90
        0
 40
-0.6
 41
-30.0
 62
     5
 63
     7
421
 16777215
 74
     1
 91
        4
 64
     7
 65
   257
 75
     1
175
     1
 42
1.0
 92
        8
 66
     7
 43
1.0
 76
     1
 77
     6
 78
     2
 67
     7
 79
     5
170
     0
171
     0
290
     0
174
     0
 93
        1
 44
0.0
173
     0
291
     1
 45
0.0
1001
ACAD
1000
AcDbSavedByObjectVersion
1070
     0
  0
VISUALSTYLE
  5
2B
102
{ACAD_REACTORS
330
2A
102
}
330
2A
100
AcDbVisualStyle
  2
Flat
 70
     0
 71
     2
 72
     1
 73
     1
 90
        2
 40
-0.6
 41
30.0
 62
     5
 63
     7
421
 16777215
 74
     0
 91
        4
 64
     7
 65
   257
 75
     1
175
     1
 42
1.0
 92
        8
 66
     7
 43
1.0
 76
     1
 77
     6
 78
     2
 67
     7
 79
     5
170
     0
171
     0
290
     0
174
     0
 93
       13
 44
0.0
173
     0
291
     1
 45
0.0
1001
ACAD
1000
AcDbSavedByObjectVersion
1070
     0
  0
VISUALSTYLE
  5
2C
102
{ACAD_REACTORS
330
2A
102
}
330
2A
100
AcDbVisualStyle
  2
FlatWithEdges
 70
     1
 71
     2
 72
     1
 73
     1
 90
        2
 40
-0.6
 41
30.0
 62
     5
 63
     7
421
 16777215
 74
     1
 91
        4
 64
     7
 65
   257
 75
     1
175
     1
 42
1.0
 92
        0
 66
   257
 43
1.0
 76
     1
 77
     6
 78
     2
 67
     7
 79
     5
170
     0
171
     0
290
     0
174
     0
 93
       13
 44
0.0
173
     0
291
     1
 45
0.0
1001
ACAD
1000
AcDbSavedByObjectVersion
1070
     0
  0
VISUALSTYLE
  5
2D
102
{ACAD_REACTORS
330
2A
102
}
330
2A
100
AcDbVisualStyle
  2
Gouraud
 70
     2
 71
     2
 72
     2
 73
     1
 90
        2
 40
-0.6
 41
30.0
 62
     5
 63
     7
421
 16777215
 74
     0
 91
        4
 64
     7
 65
   257
 75
     1
175
     1
 42
1.0
 92
        0
 66
     7
 43
1.0
 76
     1
 77
     6
 78
     2
 67
     7
 79
     5
170
     0
171
     0
290
     0
174
     0
 93
       13
 44
0.0
173
     0
291
     1
 45
0.0
1001
ACAD
1000
AcDbSavedByObjectVersion
1070
     0
  0
VISUALSTYLE
  5
2E
102
{ACAD_REACTORS
330
2A
102
}
330
2A
100
AcDbVisualStyle
  2
GouraudWithEdges
 70
     3
 71
     2
 72
     2
 73
     1
 90
        2
 40
-0.6
 41
30.0
 62
     5
 63
     7
421
 16777215
 74
     1
 91
        4
 64
     7
 65
   257
 75
     1
175
     1
 42
1.0
 92
        0
 66
   257
 43
1.0
 76
     1
 77
     6
 78
     2
 67
     7
 79
     5
170
     0
171
     0
290
     0
174
     0
 93
       13
 44
0.0
173
     0
291
     1
 45
0.0
1001
ACAD
1000
AcDbSavedByObjectVersion
1070
     0
  0
VISUALSTYLE
  5
38
102
{ACAD_REACTORS
330
2A
102
}
330
2A
100
AcDbVisualStyle
  2
Linepattern
 70
    14
 71
     2
 72
     2
 73
     0
 90
        0
 40
-0.6
 41
-30.0
 62
     5
 63
     7
421
 16777215
 74
     1
 91
        4
 64
     7
 65
   257
 75
     7
175
     7
 42
1.0
 92
        8
 66
     7
 43
1.0
 76
     1
 77
     6
 78
     2
 67
     7
 79
     5
170
     0
171
     0
290
     0
174
     0
 93
        1
 44
0.0
173
     0
291
     1
 45
0.0
1001
ACAD
1000
AcDbSavedByObjectVersion
1070
     0
  0
VISUALSTYLE
  5
33
102
{ACAD_REACTORS
330
2A
102
}
330
2A
100
AcDbVisualStyle
  2
Realistic
 70
     8
 71
     2
 72
     2
 73
     0
 90
        0
 40
-0.6
 41
-30.0
 62
     5
 63
     7
421
 16777215
 74
     1
 91
        0
 64
     7
 65
   257
 75
     1
175
     1
 42
1.0
 92
        8
 66
     8
424
  7895160
 43
1.0
 76
     1
 77
     6
 78
     2
 67
     7
 79
     5
170
     0
171
     0
290
     0
174
     0
 93
       13
 44
0.0
173
     0
291
     0
 45
0.0
1001
ACAD
1000
AcDbSavedByObjectVersion
1070
     0
  0
VISUALSTYLE
  5
37
102
{ACAD_REACTORS
330
2A
102
}
330
2A
100
AcDbVisualStyle
  2
Thicken
 70
    13
 71
     2
 72
     2
 73
     0
 90
        0
 40
-0.6
 41
-30.0
 62
     5
 63
     7
421
 16777215
 74
     1
 91
        4
 64
     7
 65
   257
 75
     1
175
     1
 42
1.0
 92
       12
 66
     7
 43
1.0
 76
     1
 77
     6
 78
     2
 67
     7
 79
     5
170
     0
171
     0
290
     0
174
     0
 93
        1
 44
0.0
173
     0
291
     1
 45
0.0
1001
ACAD
1000
AcDbSavedByObjectVersion
1070
     0
  0
ENDSEC
  0
EOF
