  0
SECTION
  2
HEADER
  9
$ACADVER
  1
AC1018
  9
$ACADMAINTVER
 70
     0
  9
$DWGCODEPAGE
  3
ANSI_932
  9
$INSBASE
 10
0.0
 20
0.0
 30
0.0
  9
$EXTMIN
 10
-2100.0
 20
-1485.0
 30
0.0
  9
$EXTMAX
 10
2100.0
 20
1485.0
 30
0.0
  9
$LIMMIN
 10
-2100.0
 20
-1485.0
  9
$LIMMAX
 10
2100.0
 20
1485.0
  9
$ORTHOMODE
 70
     0
  9
$REGENMODE
 70
     1
  9
$FILLMODE
 70
     1
  9
$QTEXTMODE
 70
     0
  9
$MIRRTEXT
 70
     1
  9
$LTSCALE
 40
10.0
  9
$ATTMODE
 70
     1
  9
$TEXTSIZE
 40
2.5
  9
$TRACEWID
 40
1.0
  9
$TEXTSTYLE
  7
Standard
  9
$CLAYER
  8
0
  9
$CELTYPE
  6
ByLayer
  9
$CECOLOR
 62
   256
  9
$CELTSCALE
 40
1.0
  9
$DISPSILH
 70
     0
  9
$DIMSCALE
 40
1.0
  9
$DIMASZ
 40
2.5
  9
$DIMEXO
 40
0.625
  9
$DIMDLI
 40
3.75
  9
$DIMRND
 40
0.0
  9
$DIMDLE
 40
0.0
  9
$DIMEXE
 40
1.25
  9
$DIMTP
 40
0.0
  9
$DIMTM
 40
0.0
  9
$DIMTXT
 40
2.5
  9
$DIMCEN
 40
2.5
  9
$DIMTSZ
 40
0.0
  9
$DIMTOL
 70
     0
  9
$DIMLIM
 70
     0
  9
$DIMTIH
 70
     0
  9
$DIMTOH
 70
     0
  9
$DIMSE1
 70
     0
  9
$DIMSE2
 70
     0
  9
$DIMTAD
 70
     1
  9
$DIMZIN
 70
     8
  9
$DIMBLK
  1

  9
$DIMASO
 70
     1
  9
$DIMSHO
 70
     1
  9
$DIMPOST
  1

  9
$DIMAPOST
  1

  9
$DIMALT
 70
     0
  9
$DIMALTD
 70
     3
  9
$DIMALTF
 40
0.03937007874016
  9
$DIMLFAC
 40
1.0
  9
$DIMTOFL
 70
     1
  9
$DIMTVP
 40
0.0
  9
$DIMTIX
 70
     0
  9
$DIMSOXD
 70
     0
  9
$DIMSAH
 70
     0
  9
$DIMBLK1
  1

  9
$DIMBLK2
  1

  9
$DIMSTYLE
  2
ISO-25
  9
$DIMCLRD
 70
     0
  9
$DIMCLRE
 70
     0
  9
$DIMCLRT
 70
     0
  9
$DIMTFAC
 40
1.0
  9
$DIMGAP
 40
0.625
  9
$DIMJUST
 70
     0
  9
$DIMSD1
 70
     0
  9
$DIMSD2
 70
     0
  9
$DIMTOLJ
 70
     0
  9
$DIMTZIN
 70
     8
  9
$DIMALTZ
 70
     0
  9
$DIMALTTZ
 70
     0
  9
$DIMUPT
 70
     0
  9
$DIMDEC
 70
     2
  9
$DIMTDEC
 70
     2
  9
$DIMALTU
 70
     2
  9
$DIMALTTD
 70
     3
  9
$DIMTXSTY
  7
Standard
  9
$DIMAUNIT
 70
     0
  9
$DIMADEC
 70
     0
  9
$DIMALTRND
 40
0.0
  9
$DIMAZIN
 70
     0
  9
$DIMDSEP
 70
    44
  9
$DIMATFIT
 70
     3
  9
$DIMFRAC
 70
     0
  9
$DIMLDRBLK
  1

  9
$DIMLUNIT
 70
     2
  9
$DIMLWD
 70
    -2
  9
$DIMLWE
 70
    -2
  9
$DIMTMOVE
 70
     0
  9
$LUNITS
 70
     2
  9
$LUPREC
 70
     4
  9
$SKETCHINC
 40
1.0
  9
$FILLETRAD
 40
10.0
  9
$AUNITS
 70
     0
  9
$AUPREC
 70
     0
  9
$MENU
  1
.
  9
$ELEVATION
 40
0.0
  9
$PELEVATION
 40
0.0
  9
$THICKNESS
 40
0.0
  9
$LIMCHECK
 70
     0
  9
$CHAMFERA
 40
10.0
  9
$CHAMFERB
 40
10.0
  9
$CHAMFERC
 40
20.0
  9
$CHAMFERD
 40
0.0
  9
$SKPOLY
 70
     0
  9
$TDCREATE
 40
2458268.579727037
  9
$TDUCREATE
 40
2458268.204727037
  9
$TDUPDATE
 40
2458268.579727049
  9
$TDUUPDATE
 40
2458268.204727049
  9
$TDINDWG
 40
0.0000000116
  9
$TDUSRTIMER
 40
0.0000000116
  9
$USRTIMER
 70
     1
  9
$ANGBASE
 50
0.0
  9
$ANGDIR
 70
     0
  9
$PDMODE
 70
     0
  9
$PDSIZE
 40
0.0
  9
$PLINEWID
 40
0.0
  9
$SPLFRAME
 70
     0
  9
$SPLINETYPE
 70
     6
  9
$SPLINESEGS
 70
     8
  9
$HANDSEED
  5
55B
  9
$SURFTAB1
 70
     6
  9
$SURFTAB2
 70
     6
  9
$SURFTYPE
 70
     6
  9
$SURFU
 70
     6
  9
$SURFV
 70
     6
  9
$UCSBASE
  2

  9
$UCSNAME
  2

  9
$UCSORG
 10
0.0
 20
0.0
 30
0.0
  9
$UCSXDIR
 10
1.0
 20
0.0
 30
0.0
  9
$UCSYDIR
 10
0.0
 20
1.0
 30
0.0
  9
$UCSORTHOREF
  2

  9
$UCSORTHOVIEW
 70
     0
  9
$UCSORGTOP
 10
0.0
 20
0.0
 30
0.0
  9
$UCSORGBOTTOM
 10
0.0
 20
0.0
 30
0.0
  9
$UCSORGLEFT
 10
0.0
 20
0.0
 30
0.0
  9
$UCSORGRIGHT
 10
0.0
 20
0.0
 30
0.0
  9
$UCSORGFRONT
 10
0.0
 20
0.0
 30
0.0
  9
$UCSORGBACK
 10
0.0
 20
0.0
 30
0.0
  9
$PUCSBASE
  2

  9
$PUCSNAME
  2

  9
$PUCSORG
 10
0.0
 20
0.0
 30
0.0
  9
$PUCSXDIR
 10
1.0
 20
0.0
 30
0.0
  9
$PUCSYDIR
 10
0.0
 20
1.0
 30
0.0
  9
$PUCSORTHOREF
  2

  9
$PUCSORTHOVIEW
 70
     0
  9
$PUCSORGTOP
 10
0.0
 20
0.0
 30
0.0
  9
$PUCSORGBOTTOM
 10
0.0
 20
0.0
 30
0.0
  9
$PUCSORGLEFT
 10
0.0
 20
0.0
 30
0.0
  9
$PUCSORGRIGHT
 10
0.0
 20
0.0
 30
0.0
  9
$PUCSORGFRONT
 10
0.0
 20
0.0
 30
0.0
  9
$PUCSORGBACK
 10
0.0
 20
0.0
 30
0.0
  9
$USERI1
 70
     0
  9
$USERI2
 70
     0
  9
$USERI3
 70
     0
  9
$USERI4
 70
     0
  9
$USERI5
 70
     0
  9
$USERR1
 40
0.0
  9
$USERR2
 40
0.0
  9
$USERR3
 40
0.0
  9
$USERR4
 40
0.0
  9
$USERR5
 40
0.0
  9
$WORLDVIEW
 70
     1
  9
$SHADEDGE
 70
     3
  9
$SHADEDIF
 70
    70
  9
$TILEMODE
 70
     1
  9
$MAXACTVP
 70
    64
  9
$PINSBASE
 10
0.0
 20
0.0
 30
0.0
  9
$PLIMCHECK
 70
     0
  9
$PEXTMIN
 10
1.000000000000000E+20
 20
1.000000000000000E+20
 30
1.000000000000000E+20
  9
$PEXTMAX
 10
-1.000000000000000E+20
 20
-1.000000000000000E+20
 30
-1.000000000000000E+20
  9
$PLIMMIN
 10
0.0
 20
0.0
  9
$PLIMMAX
 10
420.0
 20
297.0
  9
$UNITMODE
 70
     0
  9
$VISRETAIN
 70
     1
  9
$PLINEGEN
 70
     0
  9
$PSLTSCALE
 70
     1
  9
$TREEDEPTH
 70
  3020
  9
$CMLSTYLE
  2
Standard
  9
$CMLJUST
 70
     0
  9
$CMLSCALE
 40
20.0
  9
$PROXYGRAPHICS
 70
     1
  9
$MEASUREMENT
 70
     1
  9
$CELWEIGHT
370
    -1
  9
$ENDCAPS
280
     0
  9
$JOINSTYLE
280
     0
  9
$LWDISPLAY
290
     0
  9
$INSUNITS
 70
     4
  9
$HYPERLINKBASE
  1

  9
$STYLESHEET
  1

  9
$XEDIT
290
     1
  9
$CEPSNTYPE
380
     0
  9
$PSTYLEMODE
290
     1
  9
$FINGERPRINTGUID
  2
{7D81CEFE-A7B0-4DAF-927E-C27F7265BE48}
  9
$VERSIONGUID
  2
{FAEB1C32-E019-11D5-929B-00C0DF256EC4}
  9
$EXTNAMES
290
     1
  9
$PSVPSCALE
 40
0.0
  9
$OLESTARTUP
290
     0
  9
$SORTENTS
280
   127
  9
$INDEXCTL
280
     0
  9
$HIDETEXT
280
     1
  9
$XCLIPFRAME
290
     0
  9
$HALOGAP
280
     0
  9
$OBSCOLOR
 70
   257
  9
$OBSLTYPE
280
     0
  9
$INTERSECTIONDISPLAY
280
     0
  9
$INTERSECTIONCOLOR
 70
   257
  9
$DIMASSOC
280
     2
  9
$PROJECTNAME
  1

  0
ENDSEC
  0
SECTION
  2
CLASSES
  0
CLASS
  1
ACDBDICTIONARYWDFLT
  2
AcDbDictionaryWithDefault
  3
ObjectDBX Classes
 90
        0
 91
        4
280
     0
281
     0
  0
CLASS
  1
VISUALSTYLE
  2
AcDbVisualStyle
  3
ObjectDBX Classes
 90
     4095
 91
        4
280
     0
281
     0
  0
ENDSEC
  0
SECTION
  2
TABLES
  0
TABLE
  2
VPORT
  5
8
330
0
100
AcDbSymbolTable
 70
     1
  0
VPORT
  5
29
330
8
100
AcDbSymbolTableRecord
100
AcDbViewportTableRecord
  2
*Active
 70
     0
 10
0.0
 20
0.0
 11
1.0
 21
1.0
 12
0.0
 22
0.0
 13
0.0
 23
0.0
 14
10.0
 24
10.0
 15
10.0
 25
10.0
 16
0.0
 26
0.0
 36
1.0
 17
0.0
 27
0.0
 37
0.0
 40
3267.0
 41
1.414141414141414
 42
50.0
 43
0.0
 44
0.0
 50
0.0
 51
0.0
 71
     0
 72
 10000
 73
     1
 74
     3
 75
     0
 76
     0
 77
     0
 78
     0
281
     0
 65
     1
110
0.0
120
0.0
130
0.0
111
1.0
121
0.0
131
0.0
112
0.0
122
1.0
132
0.0
 79
     0
146
0.0
  0
ENDTAB
  0
TABLE
  2
LTYPE
  5
5
330
0
100
AcDbSymbolTable
 70
     5
  0
LTYPE
  5
14
330
5
100
AcDbSymbolTableRecord
100
AcDbLinetypeTableRecord
  2
ByBlock
 70
     0
  3

 72
    65
 73
     0
 40
0.0
  0
LTYPE
  5
15
330
5
100
AcDbSymbolTableRecord
100
AcDbLinetypeTableRecord
  2
ByLayer
 70
     0
  3

 72
    65
 73
     0
 40
0.0
  0
LTYPE
  5
16
330
5
100
AcDbSymbolTableRecord
100
AcDbLinetypeTableRecord
  2
Continuous
 70
     0
  3
Solid line
 72
    65
 73
     0
 40
0.0
  0
LTYPE
  5
3C
330
5
100
AcDbSymbolTableRecord
100
AcDbLinetypeTableRecord
  2
JWW_CENTER1
 70
     0
  3
-----  --  ----------  --  -----
 72
    65
 73
     4
 40
6.773333333333333
 49
4.233333333333333
 74
     0
 49
-0.8466666666666667
 74
     0
 49
0.8466666666666667
 74
     0
 49
-0.8466666666666667
 74
     0
  0
LTYPE
  5
3D
330
5
100
AcDbSymbolTableRecord
100
AcDbLinetypeTableRecord
  2
JWW_DASHED3
 70
     0
  3
---  ------  ------  ------  ---
 72
    65
 73
     2
 40
3.386666666666667
 49
2.54
 74
     0
 49
-0.8466666666666667
 74
     0
  0
LTYPE
  5
3E
330
5
100
AcDbSymbolTableRecord
100
AcDbLinetypeTableRecord
  2
JWW_CENTER2
 70
     0
  3
-------------  --  -------------
 72
    65
 73
     4
 40
13.54666666666667
 49
11.00666666666667
 74
     0
 49
-0.8466666666666667
 74
     0
 49
0.8466666666666667
 74
     0
 49
-0.8466666666666667
 74
     0
  0
LTYPE
  5
3F
330
5
100
AcDbSymbolTableRecord
100
AcDbLinetypeTableRecord
  2
JWW_HOJO
 70
     0
  3
  -   -   -   -   -   -   -   - 
 72
    65
 73
     2
 40
1.693333333333333
 49
-1.27
 74
     0
 49
0.4233333333333333
 74
     0
  0
ENDTAB
  0
TABLE
  2
LAYER
  5
2
330
0
100
AcDbSymbolTable
 70
     9
  0
LAYER
  5
10
330
2
100
AcDbSymbolTableRecord
100
AcDbLayerTableRecord
  2
0
 70
     0
 62
     7
  6
Continuous
370
    -3
390
F
  0
LAYER
  5
40
330
2
100
AcDbSymbolTableRecord
100
AcDbLayerTableRecord
  2
D-4_寸法
 70
     0
 62
     7
  6
Continuous
370
    -3
390
F
  0
LAYER
  5
41
330
2
100
AcDbSymbolTableRecord
100
AcDbLayerTableRecord
  2
A-1_ピット
 70
     0
 62
     7
  6
Continuous
370
    -3
390
F
  0
LAYER
  5
42
330
2
100
AcDbSymbolTableRecord
100
AcDbLayerTableRecord
  2
A-2_蓋
 70
     0
 62
     7
  6
Continuous
370
    -3
390
F
  0
LAYER
  5
43
330
2
100
AcDbSymbolTableRecord
100
AcDbLayerTableRecord
  2
A-4_寸法
 70
     0
 62
     7
  6
Continuous
370
    -3
390
F
  0
LAYER
  5
44
330
2
100
AcDbSymbolTableRecord
100
AcDbLayerTableRecord
  2
A-3_受枠
 70
     0
 62
     7
  6
Continuous
370
    -3
390
F
  0
LAYER
  5
45
330
2
100
AcDbSymbolTableRecord
100
AcDbLayerTableRecord
  2
D-2_蓋
 70
     0
 62
     7
  6
Continuous
370
    -3
390
F
  0
LAYER
  5
46
330
2
100
AcDbSymbolTableRecord
100
AcDbLayerTableRecord
  2
A-A
 70
     0
 62
     7
  6
Continuous
370
    -3
390
F
  0
LAYER
  5
47
330
2
100
AcDbSymbolTableRecord
100
AcDbLayerTableRecord
  2
F-5
 70
     0
 62
     7
  6
Continuous
370
    -3
390
F
  0
ENDTAB
  0
TABLE
  2
STYLE
  5
3
330
0
100
AcDbSymbolTable
 70
     2
  0
STYLE
  5
11
330
3
100
AcDbSymbolTableRecord
100
AcDbTextStyleTableRecord
  2
Standard
 70
     0
 40
0.0
 41
1.0
 50
0.0
 71
     0
 42
2.5
  3
txt
  4

1001
ACAD
1000

1071
        0
  0
STYLE
  5
3B
330
3
100
AcDbSymbolTableRecord
100
AcDbTextStyleTableRecord
  2
ＭＳ ゴシック
 70
     0
 40
1.0
 41
1.0
 50
0.0
 71
     0
 42
10.0
  3

  4

1001
ACAD
1000
MS Gothic
1071
    32817
  0
ENDTAB
  0
TABLE
  2
VIEW
  5
6
330
0
100
AcDbSymbolTable
 70
     0
  0
ENDTAB
  0
TABLE
  2
UCS
  5
7
330
0
100
AcDbSymbolTable
 70
     0
  0
ENDTAB
  0
TABLE
  2
APPID
  5
9
330
0
100
AcDbSymbolTable
 70
     1
  0
APPID
  5
12
330
9
100
AcDbSymbolTableRecord
100
AcDbRegAppTableRecord
  2
ACAD
 70
     0
  0
ENDTAB
  0
TABLE
  2
DIMSTYLE
  5
A
330
0
100
AcDbSymbolTable
 70
     1
100
AcDbDimStyleTable
  0
DIMSTYLE
105
27
330
A
100
AcDbSymbolTableRecord
100
AcDbDimStyleTableRecord
  2
ISO-25
 70
     0
 41
2.5
 42
0.625
 43
3.75
 44
1.25
 73
     0
 74
     0
 77
     1
 78
     8
140
2.5
141
2.5
143
0.03937007874016
147
0.625
171
     3
172
     1
271
     2
272
     2
274
     3
278
    44
283
     0
284
     8
340
11
  0
ENDTAB
  0
TABLE
  2
BLOCK_RECORD
  5
1
330
0
100
AcDbSymbolTable
 70
     1
  0
BLOCK_RECORD
  5
1F
330
1
100
AcDbSymbolTableRecord
100
AcDbBlockTableRecord
  2
*Model_Space
340
22
  0
BLOCK_RECORD
  5
1B
330
1
100
AcDbSymbolTableRecord
100
AcDbBlockTableRecord
  2
*Paper_Space
340
1E
  0
BLOCK_RECORD
  5
23
330
1
100
AcDbSymbolTableRecord
100
AcDbBlockTableRecord
  2
*Paper_Space0
340
26
  0
ENDTAB
  0
ENDSEC
  0
SECTION
  2
BLOCKS
  0
BLOCK
  5
20
330
1F
100
AcDbEntity
  8
0
100
AcDbBlockBegin
  2
*Model_Space
 70
     0
 10
0.0
 20
0.0
 30
0.0
  3
*Model_Space
  1

  0
ENDBLK
  5
21
330
1F
100
AcDbEntity
  8
0
100
AcDbBlockEnd
  0
BLOCK
  5
1C
330
1B
100
AcDbEntity
 67
     1
  8
0
100
AcDbBlockBegin
  2
*Paper_Space
 70
     0
 10
0.0
 20
0.0
 30
0.0
  3
*Paper_Space
  1

  0
ENDBLK
  5
1D
330
1B
100
AcDbEntity
 67
     1
  8
0
100
AcDbBlockEnd
  0
BLOCK
  5
24
330
23
100
AcDbEntity
  8
0
100
AcDbBlockBegin
  2
*Paper_Space0
 70
     0
 10
0.0
 20
0.0
 30
0.0
  3
*Paper_Space0
  1

  0
ENDBLK
  5
25
330
23
100
AcDbEntity
  8
0
100
AcDbBlockEnd
  0
ENDSEC
  0
SECTION
  2
ENTITIES
  0
LINE
  5
48
330
1F
100
AcDbEntity
  8
D-4_寸法
  6
Continuous
 62
     2
370
     9
100
AcDbLine
 10
720.7001557221287
 20
-653.0730458852406
 30
0.0
 11
720.7001557221287
 21
-603.0723241857579
 31
0.0
  0
LINE
  5
49
330
1F
100
AcDbEntity
  8
D-4_寸法
  6
Continuous
 62
     2
370
     9
100
AcDbLine
 10
720.7001557221287
 20
-603.0723241857579
 30
0.0
 11
945.7001557221287
 21
-603.0723241857579
 31
0.0
  0
LINE
  5
4A
330
1F
100
AcDbEntity
  8
D-4_寸法
  6
Continuous
 62
     2
370
     9
100
AcDbLine
 10
945.7001557221287
 20
-603.0723241857579
 30
0.0
 11
945.7001557221287
 21
-653.0730458852406
 31
0.0
  0
LINE
  5
4B
330
1F
100
AcDbEntity
  8
D-4_寸法
  6
Continuous
 62
     2
370
     9
100
AcDbLine
 10
945.7001557221287
 20
-653.0730458852406
 30
0.0
 11
720.7001557221287
 21
-653.0730458852406
 31
0.0
  0
LINE
  5
4C
330
1F
100
AcDbEntity
  8
A-1_ピット
  6
Continuous
 62
     2
370
     9
100
AcDbLine
 10
-1237.547632165857
 20
-189.7861460092903
 30
0.0
 11
-1237.547632165857
 21
-177.5853832347971
 31
0.0
  0
LINE
  5
4D
330
1F
100
AcDbEntity
  8
A-1_ピット
  6
Continuous
 62
     2
370
     9
100
AcDbLine
 10
-1037.547714645798
 20
-209.7857171135979
 30
0.0
 11
-1217.547566181905
 21
-209.7857171135979
 31
0.0
  0
LINE
  5
4E
330
1F
100
AcDbEntity
  8
A-1_ピット
  6
Continuous
 62
     2
370
     9
100
AcDbLine
 10
-1017.547524941934
 20
-189.7861460092903
 30
0.0
 11
-1017.547524941934
 21
-177.5853832347971
 31
0.0
  0
LINE
  5
4F
330
1F
100
AcDbEntity
  8
A-1_ピット
  6
Continuous
 62
     2
370
     9
100
AcDbLine
 10
-1035.547658559438
 20
-189.7861460092903
 30
0.0
 11
-1035.547658559438
 21
-177.5853832347971
 31
0.0
  0
LINE
  5
50
330
1F
100
AcDbEntity
  8
A-1_ピット
  6
Continuous
 62
     2
370
     9
100
AcDbLine
 10
-1217.547566181905
 20
-191.7859546558276
 30
0.0
 11
-1037.547343486064
 21
-191.7859546558276
 31
0.0
  0
LINE
  5
51
330
1F
100
AcDbEntity
  8
A-1_ピット
  6
Continuous
 62
     2
370
     9
100
AcDbLine
 10
-1219.547869708087
 20
-189.7861460092903
 30
0.0
 11
-1219.547869708087
 21
-177.5853832347971
 31
0.0
  0
LINE
  5
52
330
1F
100
AcDbEntity
  8
A-1_ピット
  6
JWW_CENTER1
 62
     2
370
     9
100
AcDbLine
 10
-1228.547750936972
 20
-161.371146537162
 30
0.0
 11
-1228.547750936972
 21
-192.5653900971284
 31
0.0
  0
LINE
  5
53
330
1F
100
AcDbEntity
  8
A-1_ピット
  6
JWW_CENTER1
 62
     2
370
     9
100
AcDbLine
 10
-1212.221671439506
 20
-177.5853832347971
 30
0.0
 11
-1245.035903518264
 21
-177.5853832347971
 31
0.0
  0
LINE
  5
54
330
1F
100
AcDbEntity
  8
A-1_ピット
  6
JWW_CENTER1
 62
     2
370
     9
100
AcDbLine
 10
-1026.547282450908
 20
-161.371146537162
 30
0.0
 11
-1026.547282450908
 21
-192.5653900971284
 31
0.0
  0
LINE
  5
55
330
1F
100
AcDbEntity
  8
A-1_ピット
  6
JWW_CENTER1
 62
     2
370
     9
100
AcDbLine
 10
-1010.221821552998
 20
-177.5853832347971
 30
0.0
 11
-1043.035682472023
 21
-177.5853832347971
 31
0.0
  0
LINE
  5
56
330
1F
100
AcDbEntity
  8
A-1_ピット
  6
Continuous
 62
     2
370
     9
100
AcDbLine
 10
-209.5476305162583
 20
-189.7861460092903
 30
0.0
 11
-209.5476305162583
 21
-177.5853832347971
 31
0.0
  0
LINE
  5
57
330
1F
100
AcDbEntity
  8
A-1_ピット
  6
Continuous
 62
     2
370
     9
100
AcDbLine
 10
-9.546723236908576
 20
-209.7857171135979
 30
0.0
 11
-189.5471933725716
 21
-209.7857171135979
 31
0.0
  0
LINE
  5
58
330
1F
100
AcDbEntity
  8
A-1_ピット
  6
Continuous
 62
     2
370
     9
100
AcDbLine
 10
10.45260042757604
 20
-189.7861460092903
 30
0.0
 11
10.45260042757604
 21
-177.5853832347971
 31
0.0
  0
LINE
  5
59
330
1F
100
AcDbEntity
  8
A-1_ピット
  6
Continuous
 62
     2
370
     9
100
AcDbLine
 10
-7.546914590371614
 20
-189.7861460092903
 30
0.0
 11
-7.546914590371614
 21
-177.5853832347971
 31
0.0
  0
LINE
  5
5A
330
1F
100
AcDbEntity
  8
A-1_ピット
  6
Continuous
 62
     2
370
     9
100
AcDbLine
 10
-189.5478119721284
 20
-191.7859546558276
 30
0.0
 11
-9.546723236908576
 21
-191.7859546558276
 31
0.0
  0
LINE
  5
5B
330
1F
100
AcDbEntity
  8
A-1_ピット
  6
Continuous
 62
     2
370
     9
100
AcDbLine
 10
-191.5473731788427
 20
-189.7861460092903
 30
0.0
 11
-191.5473731788427
 21
-177.5853832347971
 31
0.0
  0
LINE
  5
5C
330
1F
100
AcDbEntity
  8
A-1_ピット
  6
JWW_CENTER1
 62
     2
370
     9
100
AcDbLine
 10
-200.5472544077278
 20
-161.371146537162
 30
0.0
 11
-200.5472544077278
 21
-192.5653900971284
 31
0.0
  0
LINE
  5
5D
330
1F
100
AcDbEntity
  8
A-1_ピット
  6
JWW_CENTER1
 62
     2
370
     9
100
AcDbLine
 10
-184.2215460699956
 20
-177.5853832347971
 30
0.0
 11
-217.0359018686653
 21
-177.5853832347971
 31
0.0
  0
LINE
  5
5E
330
1F
100
AcDbEntity
  8
A-1_ピット
  6
JWW_CENTER1
 62
     2
370
     9
100
AcDbLine
 10
1.451976879223196
 20
-161.371146537162
 30
0.0
 11
1.451976879223196
 21
-192.5653900971284
 31
0.0
  0
LINE
  5
5F
330
1F
100
AcDbEntity
  8
A-1_ピット
  6
JWW_CENTER1
 62
     2
370
     9
100
AcDbLine
 10
17.77904613597997
 20
-177.5853832347971
 30
0.0
 11
-15.03592826224661
 21
-177.5853832347971
 31
0.0
  0
LINE
  5
60
330
1F
100
AcDbEntity
  8
A-1_ピット
  6
Continuous
 62
     2
370
     9
100
AcDbLine
 10
-1237.547632165857
 20
892.6156038851352
 30
0.0
 11
-1237.547632165857
 21
880.4158308699325
 31
0.0
  0
LINE
  5
61
330
1F
100
AcDbEntity
  8
A-1_ピット
  6
Continuous
 62
     2
370
     9
100
AcDbLine
 10
-1037.547714645798
 20
912.6151749894427
 30
0.0
 11
-1217.547566181905
 21
912.6151749894427
 31
0.0
  0
LINE
  5
62
330
1F
100
AcDbEntity
  8
A-1_ピット
  6
Continuous
 62
     2
370
     9
100
AcDbLine
 10
-1017.547524941934
 20
892.6156038851352
 30
0.0
 11
-1017.547524941934
 21
880.4158308699325
 31
0.0
  0
LINE
  5
63
330
1F
100
AcDbEntity
  8
A-1_ピット
  6
Continuous
 62
     2
370
     9
100
AcDbLine
 10
-1035.547658559438
 20
892.6156038851352
 30
0.0
 11
-1035.547658559438
 21
880.4158308699325
 31
0.0
  0
LINE
  5
64
330
1F
100
AcDbEntity
  8
A-1_ピット
  6
Continuous
 62
     2
370
     9
100
AcDbLine
 10
-1217.547566181905
 20
894.6154125316724
 30
0.0
 11
-1037.547343486064
 21
894.6154125316724
 31
0.0
  0
LINE
  5
65
330
1F
100
AcDbEntity
  8
A-1_ピット
  6
Continuous
 62
     2
370
     9
100
AcDbLine
 10
-1219.547869708087
 20
892.6156038851352
 30
0.0
 11
-1219.547869708087
 21
880.4158308699325
 31
0.0
  0
LINE
  5
66
330
1F
100
AcDbEntity
  8
A-1_ピット
  6
JWW_CENTER1
 62
     2
370
     9
100
AcDbLine
 10
-1228.547750936972
 20
864.2006044130068
 30
0.0
 11
-1228.547750936972
 21
895.3958377322635
 31
0.0
  0
LINE
  5
67
330
1F
100
AcDbEntity
  8
A-1_ピット
  6
JWW_CENTER1
 62
     2
370
     9
100
AcDbLine
 10
-1212.221671439506
 20
880.4158308699325
 30
0.0
 11
-1245.035903518264
 21
880.4158308699325
 31
0.0
  0
LINE
  5
68
330
1F
100
AcDbEntity
  8
A-1_ピット
  6
JWW_CENTER1
 62
     2
370
     9
100
AcDbLine
 10
-1026.547282450908
 20
864.2006044130068
 30
0.0
 11
-1026.547282450908
 21
895.3958377322635
 31
0.0
  0
LINE
  5
69
330
1F
100
AcDbEntity
  8
A-1_ピット
  6
JWW_CENTER1
 62
     2
370
     9
100
AcDbLine
 10
-1010.221821552998
 20
880.4158308699325
 30
0.0
 11
-1043.035682472023
 21
880.4158308699325
 31
0.0
  0
LINE
  5
6A
330
1F
100
AcDbEntity
  8
A-1_ピット
  6
Continuous
 62
     2
370
     9
100
AcDbLine
 10
-209.5476305162583
 20
892.6156038851352
 30
0.0
 11
-209.5476305162583
 21
880.4158308699325
 31
0.0
  0
LINE
  5
6B
330
1F
100
AcDbEntity
  8
A-1_ピット
  6
Continuous
 62
     2
370
     9
100
AcDbLine
 10
-9.546723236908576
 20
912.6151749894427
 30
0.0
 11
-189.5471933725716
 21
912.6151749894427
 31
0.0
  0
LINE
  5
6C
330
1F
100
AcDbEntity
  8
A-1_ピット
  6
Continuous
 62
     2
370
     9
100
AcDbLine
 10
10.45260042757604
 20
892.6156038851352
 30
0.0
 11
10.45260042757604
 21
880.4158308699325
 31
0.0
  0
LINE
  5
6D
330
1F
100
AcDbEntity
  8
A-1_ピット
  6
Continuous
 62
     2
370
     9
100
AcDbLine
 10
-7.546914590371614
 20
892.6156038851352
 30
0.0
 11
-7.546914590371614
 21
880.4158308699325
 31
0.0
  0
LINE
  5
6E
330
1F
100
AcDbEntity
  8
A-1_ピット
  6
Continuous
 62
     2
370
     9
100
AcDbLine
 10
-189.5478119721284
 20
894.6154125316724
 30
0.0
 11
-9.546723236908576
 21
894.6154125316724
 31
0.0
  0
LINE
  5
6F
330
1F
100
AcDbEntity
  8
A-1_ピット
  6
Continuous
 62
     2
370
     9
100
AcDbLine
 10
-191.5473731788427
 20
892.6156038851352
 30
0.0
 11
-191.5473731788427
 21
880.4158308699325
 31
0.0
  0
LINE
  5
70
330
1F
100
AcDbEntity
  8
A-1_ピット
  6
JWW_CENTER1
 62
     2
370
     9
100
AcDbLine
 10
-200.5472544077278
 20
864.2006044130068
 30
0.0
 11
-200.5472544077278
 21
895.3958377322635
 31
0.0
  0
LINE
  5
71
330
1F
100
AcDbEntity
  8
A-1_ピット
  6
JWW_CENTER1
 62
     2
370
     9
100
AcDbLine
 10
-184.2215460699956
 20
880.4158308699325
 30
0.0
 11
-217.0359018686653
 21
880.4158308699325
 31
0.0
  0
LINE
  5
72
330
1F
100
AcDbEntity
  8
A-1_ピット
  6
JWW_CENTER1
 62
     2
370
     9
100
AcDbLine
 10
1.451976879223196
 20
864.2006044130068
 30
0.0
 11
1.451976879223196
 21
895.3958377322635
 31
0.0
  0
LINE
  5
73
330
1F
100
AcDbEntity
  8
A-1_ピット
  6
JWW_CENTER1
 62
     2
370
     9
100
AcDbLine
 10
17.77904613597997
 20
880.4158308699325
 30
0.0
 11
-15.03592826224661
 21
880.4158308699325
 31
0.0
  0
LINE
  5
74
330
1F
100
AcDbEntity
  8
A-2_蓋
  6
Continuous
 62
     3
370
     9
100
AcDbLine
 10
381.4527356946792
 20
-148.5844462626687
 30
0.0
 11
-1608.547891152872
 21
-148.5844462626687
 31
0.0
  0
LINE
  5
75
330
1F
100
AcDbEntity
  8
A-2_蓋
  6
Continuous
 62
     3
370
     9
100
AcDbLine
 10
381.4527356946792
 20
-139.5849361935177
 30
0.0
 11
-1608.547891152872
 21
-139.5849361935177
 31
0.0
  0
LINE
  5
76
330
1F
100
AcDbEntity
  8
A-2_蓋
  6
Continuous
 62
     3
370
     9
100
AcDbLine
 10
-1608.547891152872
 20
762.4152436127533
 30
0.0
 11
381.4527356946792
 21
762.4152436127533
 31
0.0
  0
LINE
  5
77
330
1F
100
AcDbEntity
  8
A-2_蓋
  6
Continuous
 62
     3
370
     9
100
AcDbLine
 10
-1608.547891152872
 20
740.4158638619089
 30
0.0
 11
381.4527356946792
 21
740.4158638619089
 31
0.0
  0
LINE
  5
78
330
1F
100
AcDbEntity
  8
A-2_蓋
  6
Continuous
 62
     3
370
     9
100
AcDbLine
 10
-1608.547891152872
 20
842.4155075485644
 30
0.0
 11
381.4527356946792
 21
842.4155075485644
 31
0.0
  0
LINE
  5
79
330
1F
100
AcDbEntity
  8
A-2_蓋
  6
Continuous
 62
     3
370
     9
100
AcDbLine
 10
-1608.547891152872
 20
851.4153887774495
 30
0.0
 11
381.4527356946792
 21
851.4153887774495
 31
0.0
  0
LINE
  5
7A
330
1F
100
AcDbEntity
  8
A-2_蓋
  6
Continuous
 62
     3
370
     9
100
AcDbLine
 10
-1608.547891152872
 20
-148.5844462626687
 30
0.0
 11
-1608.547891152872
 21
851.4153887774495
 31
0.0
  0
LINE
  5
7B
330
1F
100
AcDbEntity
  8
A-2_蓋
  6
Continuous
 62
     3
370
     9
100
AcDbLine
 10
381.4527356946792
 20
851.4153887774495
 30
0.0
 11
381.4527356946792
 21
-148.5844462626687
 31
0.0
  0
LINE
  5
7C
330
1F
100
AcDbEntity
  8
A-2_蓋
  6
Continuous
 62
     3
370
     9
100
AcDbLine
 10
-1594.547003668708
 20
562.4142126134925
 30
0.0
 11
-1594.547003668708
 21
740.4158638619089
 31
0.0
  0
LINE
  5
7D
330
1F
100
AcDbEntity
  8
A-2_蓋
  6
Continuous
 62
     3
370
     9
100
AcDbLine
 10
-1594.547003668708
 20
762.4152436127533
 30
0.0
 11
-1594.547003668708
 21
842.4155075485644
 31
0.0
  0
LINE
  5
7E
330
1F
100
AcDbEntity
  8
A-2_蓋
  6
Continuous
 62
     3
370
     9
100
AcDbLine
 10
367.453332849451
 20
842.4155075485644
 30
0.0
 11
367.453332849451
 21
762.4152436127533
 31
0.0
  0
LINE
  5
7F
330
1F
100
AcDbEntity
  8
A-2_蓋
  6
Continuous
 62
     3
370
     9
100
AcDbLine
 10
367.453332849451
 20
740.4158638619089
 30
0.0
 11
367.453332849451
 21
562.4142126134925
 31
0.0
  0
LINE
  5
80
330
1F
100
AcDbEntity
  8
A-2_蓋
  6
Continuous
 62
     3
370
     9
100
AcDbLine
 10
296.8528128959039
 20
842.4155075485644
 30
0.0
 11
296.8528128959039
 21
762.4152436127533
 31
0.0
  0
LINE
  5
81
330
1F
100
AcDbEntity
  8
A-2_蓋
  6
Continuous
 62
     3
370
     9
100
AcDbLine
 10
310.8529580605997
 20
842.4155075485644
 30
0.0
 11
310.8529580605997
 21
762.4152436127533
 31
0.0
  0
LINE
  5
82
330
1F
100
AcDbEntity
  8
A-2_蓋
  6
Continuous
 62
     3
370
     9
100
AcDbLine
 10
296.8528128959039
 20
740.4158638619089
 30
0.0
 11
296.8528128959039
 21
562.4142126134925
 31
0.0
  0
LINE
  5
83
330
1F
100
AcDbEntity
  8
A-2_蓋
  6
Continuous
 62
     3
370
     9
100
AcDbLine
 10
310.8529580605997
 20
740.4158638619089
 30
0.0
 11
310.8529580605997
 21
562.4142126134925
 31
0.0
  0
LINE
  5
84
330
1F
100
AcDbEntity
  8
A-2_蓋
  6
Continuous
 62
     3
370
     9
100
AcDbLine
 10
226.2522929423565
 20
842.4155075485644
 30
0.0
 11
226.2522929423565
 21
762.4152436127533
 31
0.0
  0
LINE
  5
85
330
1F
100
AcDbEntity
  8
A-2_蓋
  6
Continuous
 62
     3
370
     9
100
AcDbLine
 10
240.2524381070526
 20
842.4155075485644
 30
0.0
 11
240.2524381070526
 21
762.4152436127533
 31
0.0
  0
LINE
  5
86
330
1F
100
AcDbEntity
  8
A-2_蓋
  6
Continuous
 62
     3
370
     9
100
AcDbLine
 10
226.2522929423565
 20
740.4158638619089
 30
0.0
 11
226.2522929423565
 21
562.4142126134925
 31
0.0
  0
LINE
  5
87
330
1F
100
AcDbEntity
  8
A-2_蓋
  6
Continuous
 62
     3
370
     9
100
AcDbLine
 10
240.2524381070526
 20
740.4158638619089
 30
0.0
 11
240.2524381070526
 21
562.4142126134925
 31
0.0
  0
LINE
  5
88
330
1F
100
AcDbEntity
  8
A-2_蓋
  6
Continuous
 62
     3
370
     9
100
AcDbLine
 10
155.6527627480997
 20
842.4155075485644
 30
0.0
 11
155.6527627480997
 21
762.4152436127533
 31
0.0
  0
LINE
  5
89
330
1F
100
AcDbEntity
  8
A-2_蓋
  6
Continuous
 62
     3
370
     9
100
AcDbLine
 10
169.6529079127959
 20
842.4155075485644
 30
0.0
 11
169.6529079127959
 21
762.4152436127533
 31
0.0
  0
LINE
  5
8A
330
1F
100
AcDbEntity
  8
A-2_蓋
  6
Continuous
 62
     3
370
     9
100
AcDbLine
 10
155.6527627480997
 20
740.4158638619089
 30
0.0
 11
155.6527627480997
 21
562.4142126134925
 31
0.0
  0
LINE
  5
8B
330
1F
100
AcDbEntity
  8
A-2_蓋
  6
Continuous
 62
     3
370
     9
100
AcDbLine
 10
169.6529079127959
 20
740.4158638619089
 30
0.0
 11
169.6529079127959
 21
562.4142126134925
 31
0.0
  0
LINE
  5
8C
330
1F
100
AcDbEntity
  8
A-2_蓋
  6
Continuous
 62
     3
370
     9
100
AcDbLine
 10
85.052490234375
 20
842.4155075485644
 30
0.0
 11
85.052490234375
 21
762.4152436127533
 31
0.0
  0
LINE
  5
8D
330
1F
100
AcDbEntity
  8
A-2_蓋
  6
Continuous
 62
     3
370
     9
100
AcDbLine
 10
99.05238795924845
 20
842.4155075485644
 30
0.0
 11
99.05238795924845
 21
762.4152436127533
 31
0.0
  0
LINE
  5
8E
330
1F
100
AcDbEntity
  8
A-2_蓋
  6
Continuous
 62
     3
370
     9
100
AcDbLine
 10
85.052490234375
 20
740.4158638619089
 30
0.0
 11
85.052490234375
 21
562.4142126134925
 31
0.0
  0
LINE
  5
8F
330
1F
100
AcDbEntity
  8
A-2_蓋
  6
Continuous
 62
     3
370
     9
100
AcDbLine
 10
99.05238795924845
 20
740.4158638619089
 30
0.0
 11
99.05238795924845
 21
562.4142126134925
 31
0.0
  0
LINE
  5
90
330
1F
100
AcDbEntity
  8
A-2_蓋
  6
Continuous
 62
     3
370
     9
100
AcDbLine
 10
14.45221772065054
 20
842.4155075485644
 30
0.0
 11
14.45221772065054
 21
762.4152436127533
 31
0.0
  0
LINE
  5
91
330
1F
100
AcDbEntity
  8
A-2_蓋
  6
Continuous
 62
     3
370
     9
100
AcDbLine
 10
28.4521154455237
 20
842.4155075485644
 30
0.0
 11
28.4521154455237
 21
762.4152436127533
 31
0.0
  0
LINE
  5
92
330
1F
100
AcDbEntity
  8
A-2_蓋
  6
Continuous
 62
     3
370
     9
100
AcDbLine
 10
14.45221772065054
 20
740.4158638619089
 30
0.0
 11
14.45221772065054
 21
562.4142126134925
 31
0.0
  0
LINE
  5
93
330
1F
100
AcDbEntity
  8
A-2_蓋
  6
Continuous
 62
     3
370
     9
100
AcDbLine
 10
28.4521154455237
 20
740.4158638619089
 30
0.0
 11
28.4521154455237
 21
562.4142126134925
 31
0.0
  0
LINE
  5
94
330
1F
100
AcDbEntity
  8
A-2_蓋
  6
Continuous
 62
     3
370
     9
100
AcDbLine
 10
-56.14706503378358
 20
842.4155075485644
 30
0.0
 11
-56.14706503378358
 21
762.4152436127533
 31
0.0
  0
LINE
  5
95
330
1F
100
AcDbEntity
  8
A-2_蓋
  6
Continuous
 62
     3
370
     9
100
AcDbLine
 10
-42.14741474873307
 20
842.4155075485644
 30
0.0
 11
-42.14741474873307
 21
762.4152436127533
 31
0.0
  0
LINE
  5
96
330
1F
100
AcDbEntity
  8
A-2_蓋
  6
Continuous
 62
     3
370
     9
100
AcDbLine
 10
-56.14706503378358
 20
740.4158638619089
 30
0.0
 11
-56.14706503378358
 21
562.4142126134925
 31
0.0
  0
LINE
  5
97
330
1F
100
AcDbEntity
  8
A-2_蓋
  6
Continuous
 62
     3
370
     9
100
AcDbLine
 10
-42.14741474873307
 20
740.4158638619089
 30
0.0
 11
-42.14741474873307
 21
562.4142126134925
 31
0.0
  0
LINE
  5
98
330
1F
100
AcDbEntity
  8
A-2_蓋
  6
Continuous
 62
     3
370
     9
100
AcDbLine
 10
-126.747584987331
 20
842.4155075485644
 30
0.0
 11
-126.747584987331
 21
762.4152436127533
 31
0.0
  0
LINE
  5
99
330
1F
100
AcDbEntity
  8
A-2_蓋
  6
Continuous
 62
     3
370
     9
100
AcDbLine
 10
-112.7474398226352
 20
842.4155075485644
 30
0.0
 11
-112.7474398226352
 21
762.4152436127533
 31
0.0
  0
LINE
  5
9A
330
1F
100
AcDbEntity
  8
A-2_蓋
  6
Continuous
 62
     3
370
     9
100
AcDbLine
 10
-126.747584987331
 20
740.4158638619089
 30
0.0
 11
-126.747584987331
 21
562.4142126134925
 31
0.0
  0
LINE
  5
9B
330
1F
100
AcDbEntity
  8
A-2_蓋
  6
Continuous
 62
     3
370
     9
100
AcDbLine
 10
-112.7474398226352
 20
740.4158638619089
 30
0.0
 11
-112.7474398226352
 21
562.4142126134925
 31
0.0
  0
LINE
  5
9C
330
1F
100
AcDbEntity
  8
A-2_蓋
  6
Continuous
 62
     3
370
     9
100
AcDbLine
 10
-197.3478575010557
 20
842.4155075485644
 30
0.0
 11
-197.3478575010557
 21
762.4152436127533
 31
0.0
  0
LINE
  5
9D
330
1F
100
AcDbEntity
  8
A-2_蓋
  6
Continuous
 62
     3
370
     9
100
AcDbLine
 10
-183.3477123363596
 20
842.4155075485644
 30
0.0
 11
-183.3477123363596
 21
762.4152436127533
 31
0.0
  0
LINE
  5
9E
330
1F
100
AcDbEntity
  8
A-2_蓋
  6
Continuous
 62
     3
370
     9
100
AcDbLine
 10
-197.3478575010557
 20
740.4158638619089
 30
0.0
 11
-197.3478575010557
 21
562.4142126134925
 31
0.0
  0
LINE
  5
9F
330
1F
100
AcDbEntity
  8
A-2_蓋
  6
Continuous
 62
     3
370
     9
100
AcDbLine
 10
-183.3477123363596
 20
740.4158638619089
 30
0.0
 11
-183.3477123363596
 21
562.4142126134925
 31
0.0
  0
LINE
  5
A0
330
1F
100
AcDbEntity
  8
A-2_蓋
  6
Continuous
 62
     3
370
     9
100
AcDbLine
 10
-267.9471402554898
 20
842.4155075485644
 30
0.0
 11
-267.9471402554898
 21
762.4152436127533
 31
0.0
  0
LINE
  5
A1
330
1F
100
AcDbEntity
  8
A-2_蓋
  6
Continuous
 62
     3
370
     9
100
AcDbLine
 10
-253.9469950907937
 20
842.4155075485644
 30
0.0
 11
-253.9469950907937
 21
762.4152436127533
 31
0.0
  0
LINE
  5
A2
330
1F
100
AcDbEntity
  8
A-2_蓋
  6
Continuous
 62
     3
370
     9
100
AcDbLine
 10
-267.9471402554898
 20
740.4158638619089
 30
0.0
 11
-267.9471402554898
 21
562.4142126134925
 31
0.0
  0
LINE
  5
A3
330
1F
100
AcDbEntity
  8
A-2_蓋
  6
Continuous
 62
     3
370
     9
100
AcDbLine
 10
-253.9469950907937
 20
740.4158638619089
 30
0.0
 11
-253.9469950907937
 21
562.4142126134925
 31
0.0
  0
LINE
  5
A4
330
1F
100
AcDbEntity
  8
A-2_蓋
  6
Continuous
 62
     3
370
     9
100
AcDbLine
 10
-338.5474127692143
 20
842.4155075485644
 30
0.0
 11
-338.5474127692143
 21
762.4152436127533
 31
0.0
  0
LINE
  5
A5
330
1F
100
AcDbEntity
  8
A-2_蓋
  6
Continuous
 62
     3
370
     9
100
AcDbLine
 10
-324.5475150443411
 20
842.4155075485644
 30
0.0
 11
-324.5475150443411
 21
762.4152436127533
 31
0.0
  0
LINE
  5
A6
330
1F
100
AcDbEntity
  8
A-2_蓋
  6
Continuous
 62
     3
370
     9
100
AcDbLine
 10
-338.5474127692143
 20
740.4158638619089
 30
0.0
 11
-338.5474127692143
 21
562.4142126134925
 31
0.0
  0
LINE
  5
A7
330
1F
100
AcDbEntity
  8
A-2_蓋
  6
Continuous
 62
     3
370
     9
100
AcDbLine
 10
-324.5475150443411
 20
740.4158638619089
 30
0.0
 11
-324.5475150443411
 21
562.4142126134925
 31
0.0
  0
LINE
  5
A8
330
1F
100
AcDbEntity
  8
A-2_蓋
  6
Continuous
 62
     3
370
     9
100
AcDbLine
 10
-409.1478090028505
 20
842.4155075485644
 30
0.0
 11
-409.1478090028505
 21
762.4152436127533
 31
0.0
  0
LINE
  5
A9
330
1F
100
AcDbEntity
  8
A-2_蓋
  6
Continuous
 62
     3
370
     9
100
AcDbLine
 10
-395.1476638381544
 20
842.4155075485644
 30
0.0
 11
-395.1476638381544
 21
762.4152436127533
 31
0.0
  0
LINE
  5
AA
330
1F
100
AcDbEntity
  8
A-2_蓋
  6
Continuous
 62
     3
370
     9
100
AcDbLine
 10
-409.1478090028505
 20
740.4158638619089
 30
0.0
 11
-409.1478090028505
 21
562.4142126134925
 31
0.0
  0
LINE
  5
AB
330
1F
100
AcDbEntity
  8
A-2_蓋
  6
Continuous
 62
     3
370
     9
100
AcDbLine
 10
-395.1476638381544
 20
740.4158638619089
 30
0.0
 11
-395.1476638381544
 21
562.4142126134925
 31
0.0
  0
LINE
  5
AC
330
1F
100
AcDbEntity
  8
A-2_蓋
  6
Continuous
 62
     3
370
     9
100
AcDbLine
 10
-479.7470917572846
 20
842.4155075485644
 30
0.0
 11
-479.7470917572846
 21
762.4152436127533
 31
0.0
  0
LINE
  5
AD
330
1F
100
AcDbEntity
  8
A-2_蓋
  6
Continuous
 62
     3
370
     9
100
AcDbLine
 10
-465.7471940324112
 20
842.4155075485644
 30
0.0
 11
-465.7471940324112
 21
762.4152436127533
 31
0.0
  0
LINE
  5
AE
330
1F
100
AcDbEntity
  8
A-2_蓋
  6
Continuous
 62
     3
370
     9
100
AcDbLine
 10
-479.7470917572846
 20
740.4158638619089
 30
0.0
 11
-479.7470917572846
 21
562.4142126134925
 31
0.0
  0
LINE
  5
AF
330
1F
100
AcDbEntity
  8
A-2_蓋
  6
Continuous
 62
     3
370
     9
100
AcDbLine
 10
-465.7471940324112
 20
740.4158638619089
 30
0.0
 11
-465.7471940324112
 21
562.4142126134925
 31
0.0
  0
LINE
  5
B0
330
1F
100
AcDbEntity
  8
A-2_蓋
  6
Continuous
 62
     3
370
     9
100
AcDbLine
 10
-550.3473642710092
 20
842.4155075485644
 30
0.0
 11
-550.3473642710092
 21
762.4152436127533
 31
0.0
  0
LINE
  5
B1
330
1F
100
AcDbEntity
  8
A-2_蓋
  6
Continuous
 62
     3
370
     9
100
AcDbLine
 10
-536.3474665461359
 20
842.4155075485644
 30
0.0
 11
-536.3474665461359
 21
762.4152436127533
 31
0.0
  0
LINE
  5
B2
330
1F
100
AcDbEntity
  8
A-2_蓋
  6
Continuous
 62
     3
370
     9
100
AcDbLine
 10
-550.3473642710092
 20
740.4158638619089
 30
0.0
 11
-550.3473642710092
 21
562.4142126134925
 31
0.0
  0
LINE
  5
B3
330
1F
100
AcDbEntity
  8
A-2_蓋
  6
Continuous
 62
     3
370
     9
100
AcDbLine
 10
-536.3474665461359
 20
740.4158638619089
 30
0.0
 11
-536.3474665461359
 21
562.4142126134925
 31
0.0
  0
LINE
  5
B4
330
1F
100
AcDbEntity
  8
A-2_蓋
  6
Continuous
 62
     3
370
     9
100
AcDbLine
 10
-620.9466470254432
 20
842.4155075485644
 30
0.0
 11
-620.9466470254432
 21
762.4152436127533
 31
0.0
  0
LINE
  5
B5
330
1F
100
AcDbEntity
  8
A-2_蓋
  6
Continuous
 62
     3
370
     9
100
AcDbLine
 10
-606.9468730204812
 20
842.4155075485644
 30
0.0
 11
-606.9468730204812
 21
762.4152436127533
 31
0.0
  0
LINE
  5
B6
330
1F
100
AcDbEntity
  8
A-2_蓋
  6
Continuous
 62
     3
370
     9
100
AcDbLine
 10
-620.9466470254432
 20
740.4158638619089
 30
0.0
 11
-620.9466470254432
 21
562.4142126134925
 31
0.0
  0
LINE
  5
B7
330
1F
100
AcDbEntity
  8
A-2_蓋
  6
Continuous
 62
     3
370
     9
100
AcDbLine
 10
-606.9468730204812
 20
740.4158638619089
 30
0.0
 11
-606.9468730204812
 21
562.4142126134925
 31
0.0
  0
LINE
  5
B8
330
1F
100
AcDbEntity
  8
A-2_蓋
  6
Continuous
 62
     3
370
     9
100
AcDbLine
 10
-691.5471669789906
 20
842.4155075485644
 30
0.0
 11
-691.5471669789906
 21
762.4152436127533
 31
0.0
  0
LINE
  5
B9
330
1F
100
AcDbEntity
  8
A-2_蓋
  6
Continuous
 62
     3
370
     9
100
AcDbLine
 10
-677.5470218142948
 20
842.4155075485644
 30
0.0
 11
-677.5470218142948
 21
762.4152436127533
 31
0.0
  0
LINE
  5
BA
330
1F
100
AcDbEntity
  8
A-2_蓋
  6
Continuous
 62
     3
370
     9
100
AcDbLine
 10
-691.5471669789906
 20
740.4158638619089
 30
0.0
 11
-691.5471669789906
 21
562.4142126134925
 31
0.0
  0
LINE
  5
BB
330
1F
100
AcDbEntity
  8
A-2_蓋
  6
Continuous
 62
     3
370
     9
100
AcDbLine
 10
-677.5470218142948
 20
740.4158638619089
 30
0.0
 11
-677.5470218142948
 21
562.4142126134925
 31
0.0
  0
LINE
  5
BC
330
1F
100
AcDbEntity
  8
A-2_蓋
  6
Continuous
 62
     3
370
     9
100
AcDbLine
 10
-762.1474394927154
 20
842.4155075485644
 30
0.0
 11
-762.1474394927154
 21
762.4152436127533
 31
0.0
  0
LINE
  5
BD
330
1F
100
AcDbEntity
  8
A-2_蓋
  6
Continuous
 62
     3
370
     9
100
AcDbLine
 10
-748.1475417678419
 20
842.4155075485644
 30
0.0
 11
-748.1475417678419
 21
762.4152436127533
 31
0.0
  0
LINE
  5
BE
330
1F
100
AcDbEntity
  8
A-2_蓋
  6
Continuous
 62
     3
370
     9
100
AcDbLine
 10
-762.1474394927154
 20
740.4158638619089
 30
0.0
 11
-762.1474394927154
 21
562.4142126134925
 31
0.0
  0
LINE
  5
BF
330
1F
100
AcDbEntity
  8
A-2_蓋
  6
Continuous
 62
     3
370
     9
100
AcDbLine
 10
-748.1475417678419
 20
740.4158638619089
 30
0.0
 11
-748.1475417678419
 21
562.4142126134925
 31
0.0
  0
LINE
  5
C0
330
1F
100
AcDbEntity
  8
A-2_蓋
  6
Continuous
 62
     3
370
     9
100
AcDbLine
 10
-832.7467222471495
 20
842.4155075485644
 30
0.0
 11
-832.7467222471495
 21
762.4152436127533
 31
0.0
  0
LINE
  5
C1
330
1F
100
AcDbEntity
  8
A-2_蓋
  6
Continuous
 62
     3
370
     9
100
AcDbLine
 10
-818.7469482421875
 20
842.4155075485644
 30
0.0
 11
-818.7469482421875
 21
762.4152436127533
 31
0.0
  0
LINE
  5
C2
330
1F
100
AcDbEntity
  8
A-2_蓋
  6
Continuous
 62
     3
370
     9
100
AcDbLine
 10
-832.7467222471495
 20
740.4158638619089
 30
0.0
 11
-832.7467222471495
 21
562.4142126134925
 31
0.0
  0
LINE
  5
C3
330
1F
100
AcDbEntity
  8
A-2_蓋
  6
Continuous
 62
     3
370
     9
100
AcDbLine
 10
-818.7469482421875
 20
740.4158638619089
 30
0.0
 11
-818.7469482421875
 21
562.4142126134925
 31
0.0
  0
LINE
  5
C4
330
1F
100
AcDbEntity
  8
A-2_蓋
  6
Continuous
 62
     3
370
     9
100
AcDbLine
 10
-903.3472422006968
 20
842.4155075485644
 30
0.0
 11
-903.3472422006968
 21
762.4152436127533
 31
0.0
  0
LINE
  5
C5
330
1F
100
AcDbEntity
  8
A-2_蓋
  6
Continuous
 62
     3
370
     9
100
AcDbLine
 10
-889.3470970360008
 20
842.4155075485644
 30
0.0
 11
-889.3470970360008
 21
762.4152436127533
 31
0.0
  0
LINE
  5
C6
330
1F
100
AcDbEntity
  8
A-2_蓋
  6
Continuous
 62
     3
370
     9
100
AcDbLine
 10
-903.3472422006968
 20
740.4158638619089
 30
0.0
 11
-903.3472422006968
 21
562.4142126134925
 31
0.0
  0
LINE
  5
C7
330
1F
100
AcDbEntity
  8
A-2_蓋
  6
Continuous
 62
     3
370
     9
100
AcDbLine
 10
-889.3470970360008
 20
740.4158638619089
 30
0.0
 11
-889.3470970360008
 21
562.4142126134925
 31
0.0
  0
LINE
  5
C8
330
1F
100
AcDbEntity
  8
A-2_蓋
  6
Continuous
 62
     3
370
     9
100
AcDbLine
 10
-973.9466486750422
 20
842.4155075485644
 30
0.0
 11
-973.9466486750422
 21
762.4152436127533
 31
0.0
  0
LINE
  5
C9
330
1F
100
AcDbEntity
  8
A-2_蓋
  6
Continuous
 62
     3
370
     9
100
AcDbLine
 10
-959.9465035103462
 20
842.4155075485644
 30
0.0
 11
-959.9465035103462
 21
762.4152436127533
 31
0.0
  0
LINE
  5
CA
330
1F
100
AcDbEntity
  8
A-2_蓋
  6
Continuous
 62
     3
370
     9
100
AcDbLine
 10
-973.9466486750422
 20
740.4158638619089
 30
0.0
 11
-973.9466486750422
 21
562.4142126134925
 31
0.0
  0
LINE
  5
CB
330
1F
100
AcDbEntity
  8
A-2_蓋
  6
Continuous
 62
     3
370
     9
100
AcDbLine
 10
-959.9465035103462
 20
740.4158638619089
 30
0.0
 11
-959.9465035103462
 21
562.4142126134925
 31
0.0
  0
LINE
  5
CC
330
1F
100
AcDbEntity
  8
A-2_蓋
  6
Continuous
 62
     3
370
     9
100
AcDbLine
 10
-1044.546797468855
 20
842.4155075485644
 30
0.0
 11
-1044.546797468855
 21
762.4152436127533
 31
0.0
  0
LINE
  5
CD
330
1F
100
AcDbEntity
  8
A-2_蓋
  6
Continuous
 62
     3
370
     9
100
AcDbLine
 10
-1030.547023463894
 20
842.4155075485644
 30
0.0
 11
-1030.547023463894
 21
762.4152436127533
 31
0.0
  0
LINE
  5
CE
330
1F
100
AcDbEntity
  8
A-2_蓋
  6
Continuous
 62
     3
370
     9
100
AcDbLine
 10
-1044.546797468855
 20
740.4158638619089
 30
0.0
 11
-1044.546797468855
 21
562.4142126134925
 31
0.0
  0
LINE
  5
CF
330
1F
100
AcDbEntity
  8
A-2_蓋
  6
Continuous
 62
     3
370
     9
100
AcDbLine
 10
-1030.547023463894
 20
740.4158638619089
 30
0.0
 11
-1030.547023463894
 21
562.4142126134925
 31
0.0
  0
LINE
  5
D0
330
1F
100
AcDbEntity
  8
A-2_蓋
  6
Continuous
 62
     3
370
     9
100
AcDbLine
 10
-1115.147193702491
 20
842.4155075485644
 30
0.0
 11
-1115.147193702491
 21
762.4152436127533
 31
0.0
  0
LINE
  5
D1
330
1F
100
AcDbEntity
  8
A-2_蓋
  6
Continuous
 62
     3
370
     9
100
AcDbLine
 10
-1101.147295977618
 20
842.4155075485644
 30
0.0
 11
-1101.147295977618
 21
762.4152436127533
 31
0.0
  0
LINE
  5
D2
330
1F
100
AcDbEntity
  8
A-2_蓋
  6
Continuous
 62
     3
370
     9
100
AcDbLine
 10
-1115.147193702491
 20
740.4158638619089
 30
0.0
 11
-1115.147193702491
 21
562.4142126134925
 31
0.0
  0
LINE
  5
D3
330
1F
100
AcDbEntity
  8
A-2_蓋
  6
Continuous
 62
     3
370
     9
100
AcDbLine
 10
-1101.147295977618
 20
740.4158638619089
 30
0.0
 11
-1101.147295977618
 21
562.4142126134925
 31
0.0
  0
LINE
  5
D4
330
1F
100
AcDbEntity
  8
A-2_蓋
  6
Continuous
 62
     3
370
     9
100
AcDbLine
 10
-1185.746600176837
 20
842.4155075485644
 30
0.0
 11
-1185.746600176837
 21
762.4152436127533
 31
0.0
  0
LINE
  5
D5
330
1F
100
AcDbEntity
  8
A-2_蓋
  6
Continuous
 62
     3
370
     9
100
AcDbLine
 10
-1171.746578732052
 20
842.4155075485644
 30
0.0
 11
-1171.746578732052
 21
762.4152436127533
 31
0.0
  0
LINE
  5
D6
330
1F
100
AcDbEntity
  8
A-2_蓋
  6
Continuous
 62
     3
370
     9
100
AcDbLine
 10
-1185.746600176837
 20
740.4158638619089
 30
0.0
 11
-1185.746600176837
 21
562.4142126134925
 31
0.0
  0
LINE
  5
D7
330
1F
100
AcDbEntity
  8
A-2_蓋
  6
Continuous
 62
     3
370
     9
100
AcDbLine
 10
-1171.746578732052
 20
740.4158638619089
 30
0.0
 11
-1171.746578732052
 21
562.4142126134925
 31
0.0
  0
LINE
  5
D8
330
1F
100
AcDbEntity
  8
A-2_蓋
  6
Continuous
 62
     3
370
     9
100
AcDbLine
 10
-1256.346996410473
 20
842.4155075485644
 30
0.0
 11
-1256.346996410473
 21
762.4152436127533
 31
0.0
  0
LINE
  5
D9
330
1F
100
AcDbEntity
  8
A-2_蓋
  6
Continuous
 62
     3
370
     9
100
AcDbLine
 10
-1242.346974965688
 20
842.4155075485644
 30
0.0
 11
-1242.346974965688
 21
762.4152436127533
 31
0.0
  0
LINE
  5
DA
330
1F
100
AcDbEntity
  8
A-2_蓋
  6
Continuous
 62
     3
370
     9
100
AcDbLine
 10
-1256.346996410473
 20
740.4158638619089
 30
0.0
 11
-1256.346996410473
 21
562.4142126134925
 31
0.0
  0
LINE
  5
DB
330
1F
100
AcDbEntity
  8
A-2_蓋
  6
Continuous
 62
     3
370
     9
100
AcDbLine
 10
-1242.346974965688
 20
740.4158638619089
 30
0.0
 11
-1242.346974965688
 21
562.4142126134925
 31
0.0
  0
LINE
  5
DC
330
1F
100
AcDbEntity
  8
A-2_蓋
  6
Continuous
 62
     3
370
     9
100
AcDbLine
 10
-1326.947268924198
 20
842.4155075485644
 30
0.0
 11
-1326.947268924198
 21
762.4152436127533
 31
0.0
  0
LINE
  5
DD
330
1F
100
AcDbEntity
  8
A-2_蓋
  6
Continuous
 62
     3
370
     9
100
AcDbLine
 10
-1312.947371199325
 20
842.4155075485644
 30
0.0
 11
-1312.947371199325
 21
762.4152436127533
 31
0.0
  0
LINE
  5
DE
330
1F
100
AcDbEntity
  8
A-2_蓋
  6
Continuous
 62
     3
370
     9
100
AcDbLine
 10
-1326.947268924198
 20
740.4158638619089
 30
0.0
 11
-1326.947268924198
 21
562.4142126134925
 31
0.0
  0
LINE
  5
DF
330
1F
100
AcDbEntity
  8
A-2_蓋
  6
Continuous
 62
     3
370
     9
100
AcDbLine
 10
-1312.947371199325
 20
740.4158638619089
 30
0.0
 11
-1312.947371199325
 21
562.4142126134925
 31
0.0
  0
LINE
  5
E0
330
1F
100
AcDbEntity
  8
A-2_蓋
  6
Continuous
 62
     3
370
     9
100
AcDbLine
 10
-1397.546551678632
 20
842.4155075485644
 30
0.0
 11
-1397.546551678632
 21
762.4152436127533
 31
0.0
  0
LINE
  5
E1
330
1F
100
AcDbEntity
  8
A-2_蓋
  6
Continuous
 62
     3
370
     9
100
AcDbLine
 10
-1383.546653953758
 20
842.4155075485644
 30
0.0
 11
-1383.546653953758
 21
762.4152436127533
 31
0.0
  0
LINE
  5
E2
330
1F
100
AcDbEntity
  8
A-2_蓋
  6
Continuous
 62
     3
370
     9
100
AcDbLine
 10
-1397.546551678632
 20
740.4158638619089
 30
0.0
 11
-1397.546551678632
 21
562.4142126134925
 31
0.0
  0
LINE
  5
E3
330
1F
100
AcDbEntity
  8
A-2_蓋
  6
Continuous
 62
     3
370
     9
100
AcDbLine
 10
-1383.546653953758
 20
740.4158638619089
 30
0.0
 11
-1383.546653953758
 21
562.4142126134925
 31
0.0
  0
LINE
  5
E4
330
1F
100
AcDbEntity
  8
A-2_蓋
  6
Continuous
 62
     3
370
     9
100
AcDbLine
 10
-1468.146947912268
 20
842.4155075485644
 30
0.0
 11
-1468.146947912268
 21
762.4152436127533
 31
0.0
  0
LINE
  5
E5
330
1F
100
AcDbEntity
  8
A-2_蓋
  6
Continuous
 62
     3
370
     9
100
AcDbLine
 10
-1454.146926467483
 20
842.4155075485644
 30
0.0
 11
-1454.146926467483
 21
762.4152436127533
 31
0.0
  0
LINE
  5
E6
330
1F
100
AcDbEntity
  8
A-2_蓋
  6
Continuous
 62
     3
370
     9
100
AcDbLine
 10
-1468.146947912268
 20
740.4158638619089
 30
0.0
 11
-1468.146947912268
 21
562.4142126134925
 31
0.0
  0
LINE
  5
E7
330
1F
100
AcDbEntity
  8
A-2_蓋
  6
Continuous
 62
     3
370
     9
100
AcDbLine
 10
-1454.146926467483
 20
740.4158638619089
 30
0.0
 11
-1454.146926467483
 21
562.4142126134925
 31
0.0
  0
LINE
  5
E8
330
1F
100
AcDbEntity
  8
A-2_蓋
  6
Continuous
 62
     3
370
     9
100
AcDbLine
 10
-1538.747344145904
 20
842.4155075485644
 30
0.0
 11
-1538.747344145904
 21
762.4152436127533
 31
0.0
  0
LINE
  5
E9
330
1F
100
AcDbEntity
  8
A-2_蓋
  6
Continuous
 62
     3
370
     9
100
AcDbLine
 10
-1524.747198981208
 20
842.4155075485644
 30
0.0
 11
-1524.747198981208
 21
762.4152436127533
 31
0.0
  0
LINE
  5
EA
330
1F
100
AcDbEntity
  8
A-2_蓋
  6
Continuous
 62
     3
370
     9
100
AcDbLine
 10
-1538.747344145904
 20
740.4158638619089
 30
0.0
 11
-1538.747344145904
 21
562.4142126134925
 31
0.0
  0
LINE
  5
EB
330
1F
100
AcDbEntity
  8
A-2_蓋
  6
Continuous
 62
     3
370
     9
100
AcDbLine
 10
-1524.747198981208
 20
740.4158638619089
 30
0.0
 11
-1524.747198981208
 21
562.4142126134925
 31
0.0
  0
LINE
  5
EC
330
1F
100
AcDbEntity
  8
A-2_蓋
  6
Continuous
 62
     3
370
     9
100
AcDbLine
 10
-1594.547003668708
 20
740.4158638619089
 30
0.0
 11
-1524.747198981208
 21
762.4152436127533
 31
0.0
  0
LINE
  5
ED
330
1F
100
AcDbEntity
  8
A-2_蓋
  6
Continuous
 62
     3
370
     9
100
AcDbLine
 10
-1523.947226034628
 20
740.4158638619089
 30
0.0
 11
-1454.14754506704
 21
762.4152436127533
 31
0.0
  0
LINE
  5
EE
330
1F
100
AcDbEntity
  8
A-2_蓋
  6
Continuous
 62
     3
370
     9
100
AcDbLine
 10
-1453.346829800992
 20
740.4158638619089
 30
0.0
 11
-1383.547396273226
 21
762.4152436127533
 31
0.0
  0
LINE
  5
EF
330
1F
100
AcDbEntity
  8
A-2_蓋
  6
Continuous
 62
     3
370
     9
100
AcDbLine
 10
-1382.746928447002
 20
740.4158638619089
 30
0.0
 11
-1312.947371199325
 21
762.4152436127533
 31
0.0
  0
LINE
  5
F0
330
1F
100
AcDbEntity
  8
A-2_蓋
  6
Continuous
 62
     3
370
     9
100
AcDbLine
 10
-1312.147150812923
 20
740.4158638619089
 30
0.0
 11
-1242.347346125422
 21
762.4152436127533
 31
0.0
  0
LINE
  5
F1
330
1F
100
AcDbEntity
  8
A-2_蓋
  6
Continuous
 62
     3
370
     9
100
AcDbLine
 10
-1241.54712573902
 20
740.4158638619089
 30
0.0
 11
-1171.74732105152
 21
762.4152436127533
 31
0.0
  0
LINE
  5
F2
330
1F
100
AcDbEntity
  8
A-2_蓋
  6
Continuous
 62
     3
370
     9
100
AcDbLine
 10
-1170.946976945207
 20
740.4158638619089
 30
0.0
 11
-1101.147295977618
 21
762.4152436127533
 31
0.0
  0
LINE
  5
F3
330
1F
100
AcDbEntity
  8
A-2_蓋
  6
Continuous
 62
     3
370
     9
100
AcDbLine
 10
-1100.347075591216
 20
740.4158638619089
 30
0.0
 11
-1030.547270903716
 21
762.4152436127533
 31
0.0
  0
LINE
  5
F4
330
1F
100
AcDbEntity
  8
A-2_蓋
  6
Continuous
 62
     3
370
     9
100
AcDbLine
 10
-1029.747050517314
 20
740.4158638619089
 30
0.0
 11
-959.9473695497254
 21
762.4152436127533
 31
0.0
  0
LINE
  5
F5
330
1F
100
AcDbEntity
  8
A-2_蓋
  6
Continuous
 62
     3
370
     9
100
AcDbLine
 10
-959.1467780035895
 20
740.4158638619089
 30
0.0
 11
-889.3470970360008
 21
762.4152436127533
 31
0.0
  0
LINE
  5
F6
330
1F
100
AcDbEntity
  8
A-2_蓋
  6
Continuous
 62
     3
370
     9
100
AcDbLine
 10
-888.5468766495987
 20
740.4158638619089
 30
0.0
 11
-818.7474431218328
 21
762.4152436127533
 31
0.0
  0
LINE
  5
F7
330
1F
100
AcDbEntity
  8
A-2_蓋
  6
Continuous
 62
     3
370
     9
100
AcDbLine
 10
-817.9472227354307
 20
740.4158638619089
 30
0.0
 11
-748.1475417678419
 21
762.4152436127533
 31
0.0
  0
LINE
  5
F8
330
1F
100
AcDbEntity
  8
A-2_蓋
  6
Continuous
 62
     3
370
     9
100
AcDbLine
 10
-747.3470739416175
 20
740.4158638619089
 30
0.0
 11
-677.5473929740286
 21
762.4152436127533
 31
0.0
  0
LINE
  5
F9
330
1F
100
AcDbEntity
  8
A-2_蓋
  6
Continuous
 62
     3
370
     9
100
AcDbLine
 10
-676.7471725876266
 20
740.4158638619089
 30
0.0
 11
-606.9473679001266
 21
762.4152436127533
 31
0.0
  0
LINE
  5
FA
330
1F
100
AcDbEntity
  8
A-2_蓋
  6
Continuous
 62
     3
370
     9
100
AcDbLine
 10
-606.1471475137245
 20
740.4158638619089
 30
0.0
 11
-536.3474665461359
 21
762.4152436127533
 31
0.0
  0
LINE
  5
FB
330
1F
100
AcDbEntity
  8
A-2_蓋
  6
Continuous
 62
     3
370
     9
100
AcDbLine
 10
-535.5472461597338
 20
740.4158638619089
 30
0.0
 11
-465.7475651921453
 21
762.4152436127533
 31
0.0
  0
LINE
  5
FC
330
1F
100
AcDbEntity
  8
A-2_蓋
  6
Continuous
 62
     3
370
     9
100
AcDbLine
 10
-464.9473448057432
 20
740.4158638619089
 30
0.0
 11
-395.1476638381544
 21
762.4152436127533
 31
0.0
  0
LINE
  5
FD
330
1F
100
AcDbEntity
  8
A-2_蓋
  6
Continuous
 62
     3
370
     9
100
AcDbLine
 10
-394.3470722920185
 20
740.4158638619089
 30
0.0
 11
-324.5475150443411
 21
762.4152436127533
 31
0.0
  0
LINE
  5
FE
330
1F
100
AcDbEntity
  8
A-2_蓋
  6
Continuous
 62
     3
370
     9
100
AcDbLine
 10
-323.7472946579391
 20
740.4158638619089
 30
0.0
 11
-253.9476136903505
 21
762.4152436127533
 31
0.0
  0
LINE
  5
FF
330
1F
100
AcDbEntity
  8
A-2_蓋
  6
Continuous
 62
     3
370
     9
100
AcDbLine
 10
-253.1473933039484
 20
740.4158638619089
 30
0.0
 11
-183.3477123363596
 21
762.4152436127533
 31
0.0
  0
LINE
  5
100
330
1F
100
AcDbEntity
  8
A-2_蓋
  6
Continuous
 62
     3
370
     9
100
AcDbLine
 10
-182.5474919499575
 20
740.4158638619089
 30
0.0
 11
-112.7480584221917
 21
762.4152436127533
 31
0.0
  0
LINE
  5
101
330
1F
100
AcDbEntity
  8
A-2_蓋
  6
Continuous
 62
     3
370
     9
100
AcDbLine
 10
-111.9472194362331
 20
740.4158638619089
 30
0.0
 11
-42.14741474873307
 21
762.4152436127533
 31
0.0
  0
LINE
  5
102
330
1F
100
AcDbEntity
  8
A-2_蓋
  6
Continuous
 62
     3
370
     9
100
AcDbLine
 10
-41.3476892419763
 20
740.4158638619089
 30
0.0
 11
28.4521154455237
 21
762.4152436127533
 31
0.0
  0
LINE
  5
103
330
1F
100
AcDbEntity
  8
A-2_蓋
  6
Continuous
 62
     3
370
     9
100
AcDbLine
 10
29.25233583192579
 20
740.4158638619089
 30
0.0
 11
99.05214051942579
 21
762.4152436127533
 31
0.0
  0
LINE
  5
104
330
1F
100
AcDbEntity
  8
A-2_蓋
  6
Continuous
 62
     3
370
     9
100
AcDbLine
 10
99.8528557854732
 20
740.4158638619089
 30
0.0
 11
169.6524130331505
 21
762.4152436127533
 31
0.0
  0
LINE
  5
105
330
1F
100
AcDbEntity
  8
A-2_蓋
  6
Continuous
 62
     3
370
     9
100
AcDbLine
 10
170.452880859375
 20
740.4158638619089
 30
0.0
 11
240.2524381070526
 21
762.4152436127533
 31
0.0
  0
LINE
  5
106
330
1F
100
AcDbEntity
  8
A-2_蓋
  6
Continuous
 62
     3
370
     9
100
AcDbLine
 10
241.0521636138091
 20
740.4158638619089
 30
0.0
 11
310.8522157411318
 21
762.4152436127533
 31
0.0
  0
LINE
  5
107
330
1F
100
AcDbEntity
  8
A-2_蓋
  6
Continuous
 62
     3
370
     9
100
AcDbLine
 10
311.6521886877112
 20
740.4158638619089
 30
0.0
 11
381.4522408150339
 21
762.4152436127533
 31
0.0
  0
LINE
  5
108
330
1F
100
AcDbEntity
  8
A-2_蓋
  6
Continuous
 62
     3
370
     9
100
AcDbLine
 10
-1608.547891152872
 20
758.2545429951438
 30
0.0
 11
-1595.34722405511
 21
762.4152436127533
 31
0.0
  0
LINE
  5
109
330
1F
100
AcDbEntity
  8
A-2_蓋
  6
Continuous
 62
     3
370
     9
100
AcDbLine
 10
-1608.547891152872
 20
562.4154498126057
 30
0.0
 11
381.4527356946792
 21
562.4154498126057
 31
0.0
  0
LINE
  5
10A
330
1F
100
AcDbEntity
  8
A-2_蓋
  6
Continuous
 62
     3
370
     9
100
AcDbLine
 10
-1608.547891152872
 20
540.4160700617613
 30
0.0
 11
381.4527356946792
 21
540.4160700617613
 31
0.0
  0
LINE
  5
10B
330
1F
100
AcDbEntity
  8
A-2_蓋
  6
Continuous
 62
     3
370
     9
100
AcDbLine
 10
-1594.547003668708
 20
362.4144188133448
 30
0.0
 11
-1594.547003668708
 21
540.4160700617613
 31
0.0
  0
LINE
  5
10C
330
1F
100
AcDbEntity
  8
A-2_蓋
  6
Continuous
 62
     3
370
     9
100
AcDbLine
 10
367.453332849451
 20
540.4160700617613
 30
0.0
 11
367.453332849451
 21
362.4144188133448
 31
0.0
  0
LINE
  5
10D
330
1F
100
AcDbEntity
  8
A-2_蓋
  6
Continuous
 62
     3
370
     9
100
AcDbLine
 10
296.8528128959039
 20
540.4160700617613
 30
0.0
 11
296.8528128959039
 21
362.4144188133448
 31
0.0
  0
LINE
  5
10E
330
1F
100
AcDbEntity
  8
A-2_蓋
  6
Continuous
 62
     3
370
     9
100
AcDbLine
 10
310.8529580605997
 20
540.4160700617613
 30
0.0
 11
310.8529580605997
 21
362.4144188133448
 31
0.0
  0
LINE
  5
10F
330
1F
100
AcDbEntity
  8
A-2_蓋
  6
Continuous
 62
     3
370
     9
100
AcDbLine
 10
226.2522929423565
 20
540.4160700617613
 30
0.0
 11
226.2522929423565
 21
362.4144188133448
 31
0.0
  0
LINE
  5
110
330
1F
100
AcDbEntity
  8
A-2_蓋
  6
Continuous
 62
     3
370
     9
100
AcDbLine
 10
240.2524381070526
 20
540.4160700617613
 30
0.0
 11
240.2524381070526
 21
362.4144188133448
 31
0.0
  0
LINE
  5
111
330
1F
100
AcDbEntity
  8
A-2_蓋
  6
Continuous
 62
     3
370
     9
100
AcDbLine
 10
155.6527627480997
 20
540.4160700617613
 30
0.0
 11
155.6527627480997
 21
362.4144188133448
 31
0.0
  0
LINE
  5
112
330
1F
100
AcDbEntity
  8
A-2_蓋
  6
Continuous
 62
     3
370
     9
100
AcDbLine
 10
169.6529079127959
 20
540.4160700617613
 30
0.0
 11
169.6529079127959
 21
362.4144188133448
 31
0.0
  0
LINE
  5
113
330
1F
100
AcDbEntity
  8
A-2_蓋
  6
Continuous
 62
     3
370
     9
100
AcDbLine
 10
85.052490234375
 20
540.4160700617613
 30
0.0
 11
85.052490234375
 21
362.4144188133448
 31
0.0
  0
LINE
  5
114
330
1F
100
AcDbEntity
  8
A-2_蓋
  6
Continuous
 62
     3
370
     9
100
AcDbLine
 10
99.05238795924845
 20
540.4160700617613
 30
0.0
 11
99.05238795924845
 21
362.4144188133448
 31
0.0
  0
LINE
  5
115
330
1F
100
AcDbEntity
  8
A-2_蓋
  6
Continuous
 62
     3
370
     9
100
AcDbLine
 10
14.45221772065054
 20
540.4160700617613
 30
0.0
 11
14.45221772065054
 21
362.4144188133448
 31
0.0
  0
LINE
  5
116
330
1F
100
AcDbEntity
  8
A-2_蓋
  6
Continuous
 62
     3
370
     9
100
AcDbLine
 10
28.4521154455237
 20
540.4160700617613
 30
0.0
 11
28.4521154455237
 21
362.4144188133448
 31
0.0
  0
LINE
  5
117
330
1F
100
AcDbEntity
  8
A-2_蓋
  6
Continuous
 62
     3
370
     9
100
AcDbLine
 10
-56.14706503378358
 20
540.4160700617613
 30
0.0
 11
-56.14706503378358
 21
362.4144188133448
 31
0.0
  0
LINE
  5
118
330
1F
100
AcDbEntity
  8
A-2_蓋
  6
Continuous
 62
     3
370
     9
100
AcDbLine
 10
-42.14741474873307
 20
540.4160700617613
 30
0.0
 11
-42.14741474873307
 21
362.4144188133448
 31
0.0
  0
LINE
  5
119
330
1F
100
AcDbEntity
  8
A-2_蓋
  6
Continuous
 62
     3
370
     9
100
AcDbLine
 10
-126.747584987331
 20
540.4160700617613
 30
0.0
 11
-126.747584987331
 21
362.4144188133448
 31
0.0
  0
LINE
  5
11A
330
1F
100
AcDbEntity
  8
A-2_蓋
  6
Continuous
 62
     3
370
     9
100
AcDbLine
 10
-112.7474398226352
 20
540.4160700617613
 30
0.0
 11
-112.7474398226352
 21
362.4144188133448
 31
0.0
  0
LINE
  5
11B
330
1F
100
AcDbEntity
  8
A-2_蓋
  6
Continuous
 62
     3
370
     9
100
AcDbLine
 10
-197.3478575010557
 20
540.4160700617613
 30
0.0
 11
-197.3478575010557
 21
362.4144188133448
 31
0.0
  0
LINE
  5
11C
330
1F
100
AcDbEntity
  8
A-2_蓋
  6
Continuous
 62
     3
370
     9
100
AcDbLine
 10
-183.3477123363596
 20
540.4160700617613
 30
0.0
 11
-183.3477123363596
 21
362.4144188133448
 31
0.0
  0
LINE
  5
11D
330
1F
100
AcDbEntity
  8
A-2_蓋
  6
Continuous
 62
     3
370
     9
100
AcDbLine
 10
-267.9471402554898
 20
540.4160700617613
 30
0.0
 11
-267.9471402554898
 21
362.4144188133448
 31
0.0
  0
LINE
  5
11E
330
1F
100
AcDbEntity
  8
A-2_蓋
  6
Continuous
 62
     3
370
     9
100
AcDbLine
 10
-253.9469950907937
 20
540.4160700617613
 30
0.0
 11
-253.9469950907937
 21
362.4144188133448
 31
0.0
  0
LINE
  5
11F
330
1F
100
AcDbEntity
  8
A-2_蓋
  6
Continuous
 62
     3
370
     9
100
AcDbLine
 10
-338.5474127692143
 20
540.4160700617613
 30
0.0
 11
-338.5474127692143
 21
362.4144188133448
 31
0.0
  0
LINE
  5
120
330
1F
100
AcDbEntity
  8
A-2_蓋
  6
Continuous
 62
     3
370
     9
100
AcDbLine
 10
-324.5475150443411
 20
540.4160700617613
 30
0.0
 11
-324.5475150443411
 21
362.4144188133448
 31
0.0
  0
LINE
  5
121
330
1F
100
AcDbEntity
  8
A-2_蓋
  6
Continuous
 62
     3
370
     9
100
AcDbLine
 10
-409.1478090028505
 20
540.4160700617613
 30
0.0
 11
-409.1478090028505
 21
362.4144188133448
 31
0.0
  0
LINE
  5
122
330
1F
100
AcDbEntity
  8
A-2_蓋
  6
Continuous
 62
     3
370
     9
100
AcDbLine
 10
-395.1476638381544
 20
540.4160700617613
 30
0.0
 11
-395.1476638381544
 21
362.4144188133448
 31
0.0
  0
LINE
  5
123
330
1F
100
AcDbEntity
  8
A-2_蓋
  6
Continuous
 62
     3
370
     9
100
AcDbLine
 10
-479.7470917572846
 20
540.4160700617613
 30
0.0
 11
-479.7470917572846
 21
362.4144188133448
 31
0.0
  0
LINE
  5
124
330
1F
100
AcDbEntity
  8
A-2_蓋
  6
Continuous
 62
     3
370
     9
100
AcDbLine
 10
-465.7471940324112
 20
540.4160700617613
 30
0.0
 11
-465.7471940324112
 21
362.4144188133448
 31
0.0
  0
LINE
  5
125
330
1F
100
AcDbEntity
  8
A-2_蓋
  6
Continuous
 62
     3
370
     9
100
AcDbLine
 10
-550.3473642710092
 20
540.4160700617613
 30
0.0
 11
-550.3473642710092
 21
362.4144188133448
 31
0.0
  0
LINE
  5
126
330
1F
100
AcDbEntity
  8
A-2_蓋
  6
Continuous
 62
     3
370
     9
100
AcDbLine
 10
-536.3474665461359
 20
540.4160700617613
 30
0.0
 11
-536.3474665461359
 21
362.4144188133448
 31
0.0
  0
LINE
  5
127
330
1F
100
AcDbEntity
  8
A-2_蓋
  6
Continuous
 62
     3
370
     9
100
AcDbLine
 10
-620.9466470254432
 20
540.4160700617613
 30
0.0
 11
-620.9466470254432
 21
362.4144188133448
 31
0.0
  0
LINE
  5
128
330
1F
100
AcDbEntity
  8
A-2_蓋
  6
Continuous
 62
     3
370
     9
100
AcDbLine
 10
-606.9468730204812
 20
540.4160700617613
 30
0.0
 11
-606.9468730204812
 21
362.4144188133448
 31
0.0
  0
LINE
  5
129
330
1F
100
AcDbEntity
  8
A-2_蓋
  6
Continuous
 62
     3
370
     9
100
AcDbLine
 10
-691.5471669789906
 20
540.4160700617613
 30
0.0
 11
-691.5471669789906
 21
362.4144188133448
 31
0.0
  0
LINE
  5
12A
330
1F
100
AcDbEntity
  8
A-2_蓋
  6
Continuous
 62
     3
370
     9
100
AcDbLine
 10
-677.5470218142948
 20
540.4160700617613
 30
0.0
 11
-677.5470218142948
 21
362.4144188133448
 31
0.0
  0
LINE
  5
12B
330
1F
100
AcDbEntity
  8
A-2_蓋
  6
Continuous
 62
     3
370
     9
100
AcDbLine
 10
-762.1474394927154
 20
540.4160700617613
 30
0.0
 11
-762.1474394927154
 21
362.4144188133448
 31
0.0
  0
LINE
  5
12C
330
1F
100
AcDbEntity
  8
A-2_蓋
  6
Continuous
 62
     3
370
     9
100
AcDbLine
 10
-748.1475417678419
 20
540.4160700617613
 30
0.0
 11
-748.1475417678419
 21
362.4144188133448
 31
0.0
  0
LINE
  5
12D
330
1F
100
AcDbEntity
  8
A-2_蓋
  6
Continuous
 62
     3
370
     9
100
AcDbLine
 10
-832.7467222471495
 20
540.4160700617613
 30
0.0
 11
-832.7467222471495
 21
362.4144188133448
 31
0.0
  0
LINE
  5
12E
330
1F
100
AcDbEntity
  8
A-2_蓋
  6
Continuous
 62
     3
370
     9
100
AcDbLine
 10
-818.7469482421875
 20
540.4160700617613
 30
0.0
 11
-818.7469482421875
 21
362.4144188133448
 31
0.0
  0
LINE
  5
12F
330
1F
100
AcDbEntity
  8
A-2_蓋
  6
Continuous
 62
     3
370
     9
100
AcDbLine
 10
-903.3472422006968
 20
540.4160700617613
 30
0.0
 11
-903.3472422006968
 21
362.4144188133448
 31
0.0
  0
LINE
  5
130
330
1F
100
AcDbEntity
  8
A-2_蓋
  6
Continuous
 62
     3
370
     9
100
AcDbLine
 10
-889.3470970360008
 20
540.4160700617613
 30
0.0
 11
-889.3470970360008
 21
362.4144188133448
 31
0.0
  0
LINE
  5
131
330
1F
100
AcDbEntity
  8
A-2_蓋
  6
Continuous
 62
     3
370
     9
100
AcDbLine
 10
-973.9466486750422
 20
540.4160700617613
 30
0.0
 11
-973.9466486750422
 21
362.4144188133448
 31
0.0
  0
LINE
  5
132
330
1F
100
AcDbEntity
  8
A-2_蓋
  6
Continuous
 62
     3
370
     9
100
AcDbLine
 10
-959.9465035103462
 20
540.4160700617613
 30
0.0
 11
-959.9465035103462
 21
362.4144188133448
 31
0.0
  0
LINE
  5
133
330
1F
100
AcDbEntity
  8
A-2_蓋
  6
Continuous
 62
     3
370
     9
100
AcDbLine
 10
-1044.546797468855
 20
540.4160700617613
 30
0.0
 11
-1044.546797468855
 21
362.4144188133448
 31
0.0
  0
LINE
  5
134
330
1F
100
AcDbEntity
  8
A-2_蓋
  6
Continuous
 62
     3
370
     9
100
AcDbLine
 10
-1030.547023463894
 20
540.4160700617613
 30
0.0
 11
-1030.547023463894
 21
362.4144188133448
 31
0.0
  0
LINE
  5
135
330
1F
100
AcDbEntity
  8
A-2_蓋
  6
Continuous
 62
     3
370
     9
100
AcDbLine
 10
-1115.147193702491
 20
540.4160700617613
 30
0.0
 11
-1115.147193702491
 21
362.4144188133448
 31
0.0
  0
LINE
  5
136
330
1F
100
AcDbEntity
  8
A-2_蓋
  6
Continuous
 62
     3
370
     9
100
AcDbLine
 10
-1101.147295977618
 20
540.4160700617613
 30
0.0
 11
-1101.147295977618
 21
362.4144188133448
 31
0.0
  0
LINE
  5
137
330
1F
100
AcDbEntity
  8
A-2_蓋
  6
Continuous
 62
     3
370
     9
100
AcDbLine
 10
-1185.746600176837
 20
540.4160700617613
 30
0.0
 11
-1185.746600176837
 21
362.4144188133448
 31
0.0
  0
LINE
  5
138
330
1F
100
AcDbEntity
  8
A-2_蓋
  6
Continuous
 62
     3
370
     9
100
AcDbLine
 10
-1171.746578732052
 20
540.4160700617613
 30
0.0
 11
-1171.746578732052
 21
362.4144188133448
 31
0.0
  0
LINE
  5
139
330
1F
100
AcDbEntity
  8
A-2_蓋
  6
Continuous
 62
     3
370
     9
100
AcDbLine
 10
-1256.346996410473
 20
540.4160700617613
 30
0.0
 11
-1256.346996410473
 21
362.4144188133448
 31
0.0
  0
LINE
  5
13A
330
1F
100
AcDbEntity
  8
A-2_蓋
  6
Continuous
 62
     3
370
     9
100
AcDbLine
 10
-1242.346974965688
 20
540.4160700617613
 30
0.0
 11
-1242.346974965688
 21
362.4144188133448
 31
0.0
  0
LINE
  5
13B
330
1F
100
AcDbEntity
  8
A-2_蓋
  6
Continuous
 62
     3
370
     9
100
AcDbLine
 10
-1326.947268924198
 20
540.4160700617613
 30
0.0
 11
-1326.947268924198
 21
362.4144188133448
 31
0.0
  0
LINE
  5
13C
330
1F
100
AcDbEntity
  8
A-2_蓋
  6
Continuous
 62
     3
370
     9
100
AcDbLine
 10
-1312.947371199325
 20
540.4160700617613
 30
0.0
 11
-1312.947371199325
 21
362.4144188133448
 31
0.0
  0
LINE
  5
13D
330
1F
100
AcDbEntity
  8
A-2_蓋
  6
Continuous
 62
     3
370
     9
100
AcDbLine
 10
-1397.546551678632
 20
540.4160700617613
 30
0.0
 11
-1397.546551678632
 21
362.4144188133448
 31
0.0
  0
LINE
  5
13E
330
1F
100
AcDbEntity
  8
A-2_蓋
  6
Continuous
 62
     3
370
     9
100
AcDbLine
 10
-1383.546653953758
 20
540.4160700617613
 30
0.0
 11
-1383.546653953758
 21
362.4144188133448
 31
0.0
  0
LINE
  5
13F
330
1F
100
AcDbEntity
  8
A-2_蓋
  6
Continuous
 62
     3
370
     9
100
AcDbLine
 10
-1468.146947912268
 20
540.4160700617613
 30
0.0
 11
-1468.146947912268
 21
362.4144188133448
 31
0.0
  0
LINE
  5
140
330
1F
100
AcDbEntity
  8
A-2_蓋
  6
Continuous
 62
     3
370
     9
100
AcDbLine
 10
-1454.146926467483
 20
540.4160700617613
 30
0.0
 11
-1454.146926467483
 21
362.4144188133448
 31
0.0
  0
LINE
  5
141
330
1F
100
AcDbEntity
  8
A-2_蓋
  6
Continuous
 62
     3
370
     9
100
AcDbLine
 10
-1538.747344145904
 20
540.4160700617613
 30
0.0
 11
-1538.747344145904
 21
362.4144188133448
 31
0.0
  0
LINE
  5
142
330
1F
100
AcDbEntity
  8
A-2_蓋
  6
Continuous
 62
     3
370
     9
100
AcDbLine
 10
-1524.747198981208
 20
540.4160700617613
 30
0.0
 11
-1524.747198981208
 21
362.4144188133448
 31
0.0
  0
LINE
  5
143
330
1F
100
AcDbEntity
  8
A-2_蓋
  6
Continuous
 62
     3
370
     9
100
AcDbLine
 10
-1594.547003668708
 20
540.4160700617613
 30
0.0
 11
-1524.747198981208
 21
562.4154498126057
 31
0.0
  0
LINE
  5
144
330
1F
100
AcDbEntity
  8
A-2_蓋
  6
Continuous
 62
     3
370
     9
100
AcDbLine
 10
-1523.947226034628
 20
540.4160700617613
 30
0.0
 11
-1454.14754506704
 21
562.4154498126057
 31
0.0
  0
LINE
  5
145
330
1F
100
AcDbEntity
  8
A-2_蓋
  6
Continuous
 62
     3
370
     9
100
AcDbLine
 10
-1453.346829800992
 20
540.4160700617613
 30
0.0
 11
-1383.547396273226
 21
562.4154498126057
 31
0.0
  0
LINE
  5
146
330
1F
100
AcDbEntity
  8
A-2_蓋
  6
Continuous
 62
     3
370
     9
100
AcDbLine
 10
-1382.746928447002
 20
540.4160700617613
 30
0.0
 11
-1312.947371199325
 21
562.4154498126057
 31
0.0
  0
LINE
  5
147
330
1F
100
AcDbEntity
  8
A-2_蓋
  6
Continuous
 62
     3
370
     9
100
AcDbLine
 10
-1312.147150812923
 20
540.4160700617613
 30
0.0
 11
-1242.347346125422
 21
562.4154498126057
 31
0.0
  0
LINE
  5
148
330
1F
100
AcDbEntity
  8
A-2_蓋
  6
Continuous
 62
     3
370
     9
100
AcDbLine
 10
-1241.54712573902
 20
540.4160700617613
 30
0.0
 11
-1171.74732105152
 21
562.4154498126057
 31
0.0
  0
LINE
  5
149
330
1F
100
AcDbEntity
  8
A-2_蓋
  6
Continuous
 62
     3
370
     9
100
AcDbLine
 10
-1170.946976945207
 20
540.4160700617613
 30
0.0
 11
-1101.147295977618
 21
562.4154498126057
 31
0.0
  0
LINE
  5
14A
330
1F
100
AcDbEntity
  8
A-2_蓋
  6
Continuous
 62
     3
370
     9
100
AcDbLine
 10
-1100.347075591216
 20
540.4160700617613
 30
0.0
 11
-1030.547270903716
 21
562.4154498126057
 31
0.0
  0
LINE
  5
14B
330
1F
100
AcDbEntity
  8
A-2_蓋
  6
Continuous
 62
     3
370
     9
100
AcDbLine
 10
-1029.747050517314
 20
540.4160700617613
 30
0.0
 11
-959.9473695497254
 21
562.4154498126057
 31
0.0
  0
LINE
  5
14C
330
1F
100
AcDbEntity
  8
A-2_蓋
  6
Continuous
 62
     3
370
     9
100
AcDbLine
 10
-959.1467780035895
 20
540.4160700617613
 30
0.0
 11
-889.3470970360008
 21
562.4154498126057
 31
0.0
  0
LINE
  5
14D
330
1F
100
AcDbEntity
  8
A-2_蓋
  6
Continuous
 62
     3
370
     9
100
AcDbLine
 10
-888.5468766495987
 20
540.4160700617613
 30
0.0
 11
-818.7474431218328
 21
562.4154498126057
 31
0.0
  0
LINE
  5
14E
330
1F
100
AcDbEntity
  8
A-2_蓋
  6
Continuous
 62
     3
370
     9
100
AcDbLine
 10
-817.9472227354307
 20
540.4160700617613
 30
0.0
 11
-748.1475417678419
 21
562.4154498126057
 31
0.0
  0
LINE
  5
14F
330
1F
100
AcDbEntity
  8
A-2_蓋
  6
Continuous
 62
     3
370
     9
100
AcDbLine
 10
-747.3470739416175
 20
540.4160700617613
 30
0.0
 11
-677.5473929740286
 21
562.4154498126057
 31
0.0
  0
LINE
  5
150
330
1F
100
AcDbEntity
  8
A-2_蓋
  6
Continuous
 62
     3
370
     9
100
AcDbLine
 10
-676.7471725876266
 20
540.4160700617613
 30
0.0
 11
-606.9473679001266
 21
562.4154498126057
 31
0.0
  0
LINE
  5
151
330
1F
100
AcDbEntity
  8
A-2_蓋
  6
Continuous
 62
     3
370
     9
100
AcDbLine
 10
-606.1471475137245
 20
540.4160700617613
 30
0.0
 11
-536.3474665461359
 21
562.4154498126057
 31
0.0
  0
LINE
  5
152
330
1F
100
AcDbEntity
  8
A-2_蓋
  6
Continuous
 62
     3
370
     9
100
AcDbLine
 10
-535.5472461597338
 20
540.4160700617613
 30
0.0
 11
-465.7475651921453
 21
562.4154498126057
 31
0.0
  0
LINE
  5
153
330
1F
100
AcDbEntity
  8
A-2_蓋
  6
Continuous
 62
     3
370
     9
100
AcDbLine
 10
-464.9473448057432
 20
540.4160700617613
 30
0.0
 11
-395.1476638381544
 21
562.4154498126057
 31
0.0
  0
LINE
  5
154
330
1F
100
AcDbEntity
  8
A-2_蓋
  6
Continuous
 62
     3
370
     9
100
AcDbLine
 10
-394.3470722920185
 20
540.4160700617613
 30
0.0
 11
-324.5475150443411
 21
562.4154498126057
 31
0.0
  0
LINE
  5
155
330
1F
100
AcDbEntity
  8
A-2_蓋
  6
Continuous
 62
     3
370
     9
100
AcDbLine
 10
-323.7472946579391
 20
540.4160700617613
 30
0.0
 11
-253.9476136903505
 21
562.4154498126057
 31
0.0
  0
LINE
  5
156
330
1F
100
AcDbEntity
  8
A-2_蓋
  6
Continuous
 62
     3
370
     9
100
AcDbLine
 10
-253.1473933039484
 20
540.4160700617613
 30
0.0
 11
-183.3477123363596
 21
562.4154498126057
 31
0.0
  0
LINE
  5
157
330
1F
100
AcDbEntity
  8
A-2_蓋
  6
Continuous
 62
     3
370
     9
100
AcDbLine
 10
-182.5474919499575
 20
540.4160700617613
 30
0.0
 11
-112.7480584221917
 21
562.4154498126057
 31
0.0
  0
LINE
  5
158
330
1F
100
AcDbEntity
  8
A-2_蓋
  6
Continuous
 62
     3
370
     9
100
AcDbLine
 10
-111.9472194362331
 20
540.4160700617613
 30
0.0
 11
-42.14741474873307
 21
562.4154498126057
 31
0.0
  0
LINE
  5
159
330
1F
100
AcDbEntity
  8
A-2_蓋
  6
Continuous
 62
     3
370
     9
100
AcDbLine
 10
-41.3476892419763
 20
540.4160700617613
 30
0.0
 11
28.4521154455237
 21
562.4154498126057
 31
0.0
  0
LINE
  5
15A
330
1F
100
AcDbEntity
  8
A-2_蓋
  6
Continuous
 62
     3
370
     9
100
AcDbLine
 10
29.25233583192579
 20
540.4160700617613
 30
0.0
 11
99.05214051942579
 21
562.4154498126057
 31
0.0
  0
LINE
  5
15B
330
1F
100
AcDbEntity
  8
A-2_蓋
  6
Continuous
 62
     3
370
     9
100
AcDbLine
 10
99.8528557854732
 20
540.4160700617613
 30
0.0
 11
169.6524130331505
 21
562.4154498126057
 31
0.0
  0
LINE
  5
15C
330
1F
100
AcDbEntity
  8
A-2_蓋
  6
Continuous
 62
     3
370
     9
100
AcDbLine
 10
170.452880859375
 20
540.4160700617613
 30
0.0
 11
240.2524381070526
 21
562.4154498126057
 31
0.0
  0
LINE
  5
15D
330
1F
100
AcDbEntity
  8
A-2_蓋
  6
Continuous
 62
     3
370
     9
100
AcDbLine
 10
241.0521636138091
 20
540.4160700617613
 30
0.0
 11
310.8522157411318
 21
562.4154498126057
 31
0.0
  0
LINE
  5
15E
330
1F
100
AcDbEntity
  8
A-2_蓋
  6
Continuous
 62
     3
370
     9
100
AcDbLine
 10
311.6521886877112
 20
540.4160700617613
 30
0.0
 11
381.4522408150339
 21
562.4154498126057
 31
0.0
  0
LINE
  5
15F
330
1F
100
AcDbEntity
  8
A-2_蓋
  6
Continuous
 62
     3
370
     9
100
AcDbLine
 10
-1608.547891152872
 20
558.2549966348186
 30
0.0
 11
-1595.34722405511
 21
562.4154498126057
 31
0.0
  0
LINE
  5
160
330
1F
100
AcDbEntity
  8
A-2_蓋
  6
Continuous
 62
     3
370
     9
100
AcDbLine
 10
-1608.547891152872
 20
362.415284852724
 30
0.0
 11
381.4527356946792
 21
362.415284852724
 31
0.0
  0
LINE
  5
161
330
1F
100
AcDbEntity
  8
A-2_蓋
  6
Continuous
 62
     3
370
     9
100
AcDbLine
 10
-1608.547891152872
 20
340.4159051018794
 30
0.0
 11
381.4527356946792
 21
340.4159051018794
 31
0.0
  0
LINE
  5
162
330
1F
100
AcDbEntity
  8
A-2_蓋
  6
Continuous
 62
     3
370
     9
100
AcDbLine
 10
-1594.547003668708
 20
340.4159051018794
 30
0.0
 11
-1524.747198981208
 21
362.415284852724
 31
0.0
  0
LINE
  5
163
330
1F
100
AcDbEntity
  8
A-2_蓋
  6
Continuous
 62
     3
370
     9
100
AcDbLine
 10
-1523.947226034628
 20
340.4159051018794
 30
0.0
 11
-1454.14754506704
 21
362.415284852724
 31
0.0
  0
LINE
  5
164
330
1F
100
AcDbEntity
  8
A-2_蓋
  6
Continuous
 62
     3
370
     9
100
AcDbLine
 10
-1453.346829800992
 20
340.4159051018794
 30
0.0
 11
-1383.547396273226
 21
362.415284852724
 31
0.0
  0
LINE
  5
165
330
1F
100
AcDbEntity
  8
A-2_蓋
  6
Continuous
 62
     3
370
     9
100
AcDbLine
 10
-1382.746928447002
 20
340.4159051018794
 30
0.0
 11
-1312.947371199325
 21
362.415284852724
 31
0.0
  0
LINE
  5
166
330
1F
100
AcDbEntity
  8
A-2_蓋
  6
Continuous
 62
     3
370
     9
100
AcDbLine
 10
-1312.147150812923
 20
340.4159051018794
 30
0.0
 11
-1242.347346125422
 21
362.415284852724
 31
0.0
  0
LINE
  5
167
330
1F
100
AcDbEntity
  8
A-2_蓋
  6
Continuous
 62
     3
370
     9
100
AcDbLine
 10
-1241.54712573902
 20
340.4159051018794
 30
0.0
 11
-1171.74732105152
 21
362.415284852724
 31
0.0
  0
LINE
  5
168
330
1F
100
AcDbEntity
  8
A-2_蓋
  6
Continuous
 62
     3
370
     9
100
AcDbLine
 10
-1170.946976945207
 20
340.4159051018794
 30
0.0
 11
-1101.147295977618
 21
362.415284852724
 31
0.0
  0
LINE
  5
169
330
1F
100
AcDbEntity
  8
A-2_蓋
  6
Continuous
 62
     3
370
     9
100
AcDbLine
 10
-1100.347075591216
 20
340.4159051018794
 30
0.0
 11
-1030.547270903716
 21
362.415284852724
 31
0.0
  0
LINE
  5
16A
330
1F
100
AcDbEntity
  8
A-2_蓋
  6
Continuous
 62
     3
370
     9
100
AcDbLine
 10
-1029.747050517314
 20
340.4159051018794
 30
0.0
 11
-959.9473695497254
 21
362.415284852724
 31
0.0
  0
LINE
  5
16B
330
1F
100
AcDbEntity
  8
A-2_蓋
  6
Continuous
 62
     3
370
     9
100
AcDbLine
 10
-959.1467780035895
 20
340.4159051018794
 30
0.0
 11
-889.3470970360008
 21
362.415284852724
 31
0.0
  0
LINE
  5
16C
330
1F
100
AcDbEntity
  8
A-2_蓋
  6
Continuous
 62
     3
370
     9
100
AcDbLine
 10
-888.5468766495987
 20
340.4159051018794
 30
0.0
 11
-818.7474431218328
 21
362.415284852724
 31
0.0
  0
LINE
  5
16D
330
1F
100
AcDbEntity
  8
A-2_蓋
  6
Continuous
 62
     3
370
     9
100
AcDbLine
 10
-817.9472227354307
 20
340.4159051018794
 30
0.0
 11
-748.1475417678419
 21
362.415284852724
 31
0.0
  0
LINE
  5
16E
330
1F
100
AcDbEntity
  8
A-2_蓋
  6
Continuous
 62
     3
370
     9
100
AcDbLine
 10
-747.3470739416175
 20
340.4159051018794
 30
0.0
 11
-677.5473929740286
 21
362.415284852724
 31
0.0
  0
LINE
  5
16F
330
1F
100
AcDbEntity
  8
A-2_蓋
  6
Continuous
 62
     3
370
     9
100
AcDbLine
 10
-676.7471725876266
 20
340.4159051018794
 30
0.0
 11
-606.9473679001266
 21
362.415284852724
 31
0.0
  0
LINE
  5
170
330
1F
100
AcDbEntity
  8
A-2_蓋
  6
Continuous
 62
     3
370
     9
100
AcDbLine
 10
-606.1471475137245
 20
340.4159051018794
 30
0.0
 11
-536.3474665461359
 21
362.415284852724
 31
0.0
  0
LINE
  5
171
330
1F
100
AcDbEntity
  8
A-2_蓋
  6
Continuous
 62
     3
370
     9
100
AcDbLine
 10
-535.5472461597338
 20
340.4159051018794
 30
0.0
 11
-465.7475651921453
 21
362.415284852724
 31
0.0
  0
LINE
  5
172
330
1F
100
AcDbEntity
  8
A-2_蓋
  6
Continuous
 62
     3
370
     9
100
AcDbLine
 10
-464.9473448057432
 20
340.4159051018794
 30
0.0
 11
-395.1476638381544
 21
362.415284852724
 31
0.0
  0
LINE
  5
173
330
1F
100
AcDbEntity
  8
A-2_蓋
  6
Continuous
 62
     3
370
     9
100
AcDbLine
 10
-394.3470722920185
 20
340.4159051018794
 30
0.0
 11
-324.5475150443411
 21
362.415284852724
 31
0.0
  0
LINE
  5
174
330
1F
100
AcDbEntity
  8
A-2_蓋
  6
Continuous
 62
     3
370
     9
100
AcDbLine
 10
-323.7472946579391
 20
340.4159051018794
 30
0.0
 11
-253.9476136903505
 21
362.415284852724
 31
0.0
  0
LINE
  5
175
330
1F
100
AcDbEntity
  8
A-2_蓋
  6
Continuous
 62
     3
370
     9
100
AcDbLine
 10
-253.1473933039484
 20
340.4159051018794
 30
0.0
 11
-183.3477123363596
 21
362.415284852724
 31
0.0
  0
LINE
  5
176
330
1F
100
AcDbEntity
  8
A-2_蓋
  6
Continuous
 62
     3
370
     9
100
AcDbLine
 10
-182.5474919499575
 20
340.4159051018794
 30
0.0
 11
-112.7480584221917
 21
362.415284852724
 31
0.0
  0
LINE
  5
177
330
1F
100
AcDbEntity
  8
A-2_蓋
  6
Continuous
 62
     3
370
     9
100
AcDbLine
 10
-111.9472194362331
 20
340.4159051018794
 30
0.0
 11
-42.14741474873307
 21
362.415284852724
 31
0.0
  0
LINE
  5
178
330
1F
100
AcDbEntity
  8
A-2_蓋
  6
Continuous
 62
     3
370
     9
100
AcDbLine
 10
-41.3476892419763
 20
340.4159051018794
 30
0.0
 11
28.4521154455237
 21
362.415284852724
 31
0.0
  0
LINE
  5
179
330
1F
100
AcDbEntity
  8
A-2_蓋
  6
Continuous
 62
     3
370
     9
100
AcDbLine
 10
29.25233583192579
 20
340.4159051018794
 30
0.0
 11
99.05214051942579
 21
362.415284852724
 31
0.0
  0
LINE
  5
17A
330
1F
100
AcDbEntity
  8
A-2_蓋
  6
Continuous
 62
     3
370
     9
100
AcDbLine
 10
99.8528557854732
 20
340.4159051018794
 30
0.0
 11
169.6524130331505
 21
362.415284852724
 31
0.0
  0
LINE
  5
17B
330
1F
100
AcDbEntity
  8
A-2_蓋
  6
Continuous
 62
     3
370
     9
100
AcDbLine
 10
170.452880859375
 20
340.4159051018794
 30
0.0
 11
240.2524381070526
 21
362.415284852724
 31
0.0
  0
LINE
  5
17C
330
1F
100
AcDbEntity
  8
A-2_蓋
  6
Continuous
 62
     3
370
     9
100
AcDbLine
 10
241.0521636138091
 20
340.4159051018794
 30
0.0
 11
310.8522157411318
 21
362.415284852724
 31
0.0
  0
LINE
  5
17D
330
1F
100
AcDbEntity
  8
A-2_蓋
  6
Continuous
 62
     3
370
     9
100
AcDbLine
 10
311.6521886877112
 20
340.4159051018794
 30
0.0
 11
381.4522408150339
 21
362.415284852724
 31
0.0
  0
LINE
  5
17E
330
1F
100
AcDbEntity
  8
A-2_蓋
  6
Continuous
 62
     3
370
     9
100
AcDbLine
 10
-1608.547891152872
 20
358.2548316749367
 30
0.0
 11
-1595.34722405511
 21
362.415284852724
 31
0.0
  0
LINE
  5
17F
330
1F
100
AcDbEntity
  8
A-4_寸法
  6
Continuous
 62
     7
370
     9
100
AcDbLine
 10
1207.500395903716
 20
-168.5846359665328
 30
0.0
 11
1039.500386006123
 21
-168.5846359665328
 31
0.0
  0
LINE
  5
180
330
1F
100
AcDbEntity
  8
A-4_寸法
  6
Continuous
 62
     7
370
     9
100
AcDbLine
 10
1207.500395903716
 20
-156.5847943280193
 30
0.0
 11
1119.500402502111
 21
-156.5847943280193
 31
0.0
  0
LINE
  5
181
330
1F
100
AcDbEntity
  8
A-4_寸法
  6
Continuous
 62
     7
370
     9
100
AcDbLine
 10
1207.500395903716
 20
-148.5840751029349
 30
0.0
 11
1119.500402502111
 21
-148.5840751029349
 31
0.0
  0
LINE
  5
182
330
1F
100
AcDbEntity
  8
A-4_寸法
  6
Continuous
 62
     7
370
     9
100
AcDbLine
 10
1207.500395903716
 20
851.4156362172721
 30
0.0
 11
1119.500402502111
 21
851.4156362172721
 31
0.0
  0
LINE
  5
183
330
1F
100
AcDbEntity
  8
A-4_寸法
  6
Continuous
 62
     7
370
     9
100
AcDbLine
 10
1207.500395903716
 20
859.4156131228885
 30
0.0
 11
1119.500402502111
 21
859.4156131228885
 31
0.0
  0
LINE
  5
184
330
1F
100
AcDbEntity
  8
A-4_寸法
  6
Continuous
 62
     7
370
     9
100
AcDbLine
 10
1207.500395903716
 20
871.4154547614021
 30
0.0
 11
1039.500386006123
 21
871.4154547614021
 31
0.0
  0
LINE
  5
185
330
1F
100
AcDbEntity
  8
A-4_寸法
  6
Continuous
 62
     7
370
     9
100
AcDbLine
 10
1042.500346415752
 20
-168.5846359665328
 30
0.0
 11
1042.500346415752
 21
871.4154547614021
 31
0.0
  0
LINE
  5
186
330
1F
100
AcDbEntity
  8
A-4_寸法
  6
Continuous
 62
     7
370
     9
100
AcDbLine
 10
1539.176899677998
 20
-168.5846359665328
 30
0.0
 11
1539.176899677998
 21
871.4154547614021
 31
0.0
  0
LINE
  5
187
330
1F
100
AcDbEntity
  8
A-4_寸法
  6
Continuous
 62
     7
370
     9
100
AcDbLine
 10
1330.176853489232
 20
-168.5846359665328
 30
0.0
 11
1542.176860087627
 21
-168.5846359665328
 31
0.0
  0
LINE
  5
188
330
1F
100
AcDbEntity
  8
A-4_寸法
  6
Continuous
 62
     7
370
     9
100
AcDbLine
 10
1354.177031645904
 20
-48.58498238228464
 30
0.0
 11
1542.176860087627
 21
-48.58498238228464
 31
0.0
  0
LINE
  5
189
330
1F
100
AcDbEntity
  8
A-4_寸法
  6
Continuous
 62
     7
370
     9
100
AcDbLine
 10
1354.177031645904
 20
751.415801177154
 30
0.0
 11
1542.176860087627
 21
751.415801177154
 31
0.0
  0
LINE
  5
18A
330
1F
100
AcDbEntity
  8
A-4_寸法
  6
Continuous
 62
     7
370
     9
100
AcDbLine
 10
1330.176853489232
 20
871.4154547614021
 30
0.0
 11
1542.176860087627
 21
871.4154547614021
 31
0.0
  0
LINE
  5
18B
330
1F
100
AcDbEntity
  8
A-4_寸法
  6
Continuous
 62
     7
370
     9
100
AcDbLine
 10
1219.177081133868
 20
-309.7849335541595
 30
0.0
 11
1319.177658493455
 21
-309.7849335541595
 31
0.0
  0
LINE
  5
18C
330
1F
100
AcDbEntity
  8
A-4_寸法
  6
Continuous
 62
     7
370
     9
100
AcDbLine
 10
1219.177081133868
 20
-183.5846854544974
 30
0.0
 11
1219.177081133868
 21
-392.7850341796875
 31
0.0
  0
LINE
  5
18D
330
1F
100
AcDbEntity
  8
A-4_寸法
  6
Continuous
 62
     7
370
     9
100
AcDbLine
 10
1319.177658493455
 20
-163.5841245908995
 30
0.0
 11
1319.177658493455
 21
-312.7848939637879
 31
0.0
  0
LINE
  5
18E
330
1F
100
AcDbEntity
  8
A-4_寸法
  6
Continuous
 62
     7
370
     9
100
AcDbLine
 10
1219.177081133868
 20
-389.7849500501478
 30
0.0
 11
1331.177005252323
 21
-389.7849500501478
 31
0.0
  0
LINE
  5
18F
330
1F
100
AcDbEntity
  8
A-4_寸法
  6
Continuous
 62
     7
370
     9
100
AcDbLine
 10
1331.177005252323
 20
-159.5851258973818
 30
0.0
 11
1331.177005252323
 21
-392.7850341796875
 31
0.0
  0
LINE
  5
190
330
1F
100
AcDbEntity
  8
A-4_寸法
  6
Continuous
 62
     7
370
     9
100
AcDbLine
 10
1122.50036291174
 20
-226.0068821262668
 30
0.0
 11
1122.50036291174
 21
930.0735391152873
 31
0.0
  0
LINE
  5
191
330
1F
100
AcDbEntity
  8
A-4_寸法
  6
Continuous
 62
     7
370
     9
100
AcDbLine
 10
1434.676876583615
 20
920.3140176309123
 30
0.0
 11
1444.24388988598
 21
943.4110404349665
 31
0.0
  0
LINE
  5
192
330
1F
100
AcDbEntity
  8
A-4_寸法
  6
Continuous
 62
     7
370
     9
100
AcDbLine
 10
1434.676876583615
 20
920.3140176309123
 30
0.0
 11
1449.895910314611
 21
940.1478040540542
 31
0.0
  0
LINE
  5
193
330
1F
100
AcDbEntity
  8
A-4_寸法
  6
Continuous
 62
     7
370
     9
100
AcDbLine
 10
1219.177081133868
 20
871.4154547614021
 30
0.0
 11
1203.958047402872
 21
891.249241184544
 31
0.0
  0
LINE
  5
194
330
1F
100
AcDbEntity
  8
A-4_寸法
  6
Continuous
 62
     7
370
     9
100
AcDbLine
 10
1219.177081133868
 20
871.4154547614021
 30
0.0
 11
1209.610067831504
 21
894.5124775654563
 31
0.0
  0
LINE
  5
195
330
1F
100
AcDbEntity
  8
A-4_寸法
  6
Continuous
 62
     7
370
     9
100
AcDbLine
 10
-748.1474180479307
 20
802.4153755806589
 30
0.0
 11
-744.88430538693
 21
827.2014226140203
 31
0.0
  0
LINE
  5
196
330
1F
100
AcDbEntity
  8
A-4_寸法
  6
Continuous
 62
     7
370
     9
100
AcDbLine
 10
-748.1474180479307
 20
802.4153755806589
 30
0.0
 11
-738.5802810256544
 21
825.512398384713
 31
0.0
  0
LINE
  5
197
330
1F
100
AcDbEntity
  8
A-4_寸法
  6
Continuous
 62
     7
370
     9
100
AcDbLine
 10
-861.0472808013092
 20
762.4152436127533
 30
0.0
 11
-851.4801437790328
 21
785.5122664168075
 31
0.0
  0
LINE
  5
198
330
1F
100
AcDbEntity
  8
A-4_寸法
  6
Continuous
 62
     7
370
     9
100
AcDbLine
 10
-932.4396081872887
 20
851.4153887774495
 30
0.0
 11
-929.1764955262879
 21
876.201435810811
 31
0.0
  0
LINE
  5
199
330
1F
100
AcDbEntity
  8
A-4_寸法
  6
Continuous
 62
     7
370
     9
100
AcDbLine
 10
-932.4396081872887
 20
851.4153887774495
 30
0.0
 11
-922.8724711650126
 21
874.5124115815033
 31
0.0
  0
LINE
  5
19A
330
1F
100
AcDbEntity
  8
A-4_寸法
  6
Continuous
 62
     7
370
     9
100
AcDbLine
 10
-748.1474180479307
 20
802.4153755806589
 30
0.0
 11
-665.0295360668283
 21
1112.615339949325
 31
0.0
  0
LINE
  5
19B
330
1F
100
AcDbEntity
  8
A-4_寸法
  6
Continuous
 62
     7
370
     9
100
AcDbLine
 10
-932.4396081872887
 20
851.4153887774495
 30
0.0
 11
-819.5795832453547
 21
1272.615372941301
 31
0.0
  0
LINE
  5
19C
330
1F
100
AcDbEntity
  8
A-4_寸法
  6
Continuous
 62
     7
370
     9
100
AcDbLine
 10
-819.5795832453547
 20
1272.615372941301
 30
0.0
 11
-340.9661370354729
 21
1272.615372941301
 31
0.0
  0
LINE
  5
19D
330
1F
100
AcDbEntity
  8
A-4_寸法
  6
Continuous
 62
     7
370
     9
100
AcDbLine
 10
-745.7754599081502
 20
1192.615356445312
 30
0.0
 11
-368.4195853568411
 21
1192.615356445312
 31
0.0
  0
LINE
  5
19E
330
1F
100
AcDbEntity
  8
A-4_寸法
  6
Continuous
 62
     7
370
     9
100
AcDbLine
 10
-665.0295360668283
 20
1112.615339949325
 30
0.0
 11
-159.7743678737331
 21
1112.615339949325
 31
0.0
  0
LINE
  5
19F
330
1F
100
AcDbEntity
  8
A-4_寸法
  6
Continuous
 62
     7
370
     9
100
AcDbLine
 10
1434.676876583615
 20
920.3140176309123
 30
0.0
 11
1527.439096811656
 21
1075.025766733531
 31
0.0
  0
LINE
  5
1A0
330
1F
100
AcDbEntity
  8
A-4_寸法
  6
Continuous
 62
     7
370
     9
100
AcDbLine
 10
1527.439096811656
 20
1075.025766733531
 30
0.0
 11
1780.831331820102
 21
1075.025766733531
 31
0.0
  0
LINE
  5
1A1
330
1F
100
AcDbEntity
  8
A-3_受枠
  6
Continuous
 62
     4
370
     9
100
AcDbLine
 10
-1400.446793839738
 20
808.4155438397383
 30
0.0
 11
-1451.247179186022
 21
808.4155438397383
 31
0.0
  0
LINE
  5
1A2
330
1F
100
AcDbEntity
  8
A-3_受枠
  6
Continuous
 62
     4
370
     9
100
AcDbLine
 10
-1409.646853885135
 20
814.2152858424834
 30
0.0
 11
-1442.046871700802
 21
814.2152858424834
 31
0.0
  0
LINE
  5
1A3
330
1F
100
AcDbEntity
  8
A-3_受枠
  6
Continuous
 62
     4
370
     9
100
AcDbLine
 10
-1448.84688918655
 20
814.2152858424834
 30
0.0
 11
-1451.247179186022
 21
814.2152858424834
 31
0.0
  0
LINE
  5
1A4
330
1F
100
AcDbEntity
  8
A-3_受枠
  6
Continuous
 62
     4
370
     9
100
AcDbLine
 10
-1402.846836399387
 20
814.2152858424834
 30
0.0
 11
-1400.446793839738
 21
814.2152858424834
 31
0.0
  0
LINE
  5
1A5
330
1F
100
AcDbEntity
  8
A-3_受枠
  6
Continuous
 62
     4
370
     9
100
AcDbLine
 10
-1447.84686114337
 20
815.2154376055745
 30
0.0
 11
-1447.84686114337
 21
842.4152601087417
 31
0.0
  0
LINE
  5
1A6
330
1F
100
AcDbEntity
  8
A-3_受枠
  6
Continuous
 62
     4
370
     9
100
AcDbLine
 10
-1442.046871700802
 20
811.3152911211995
 30
0.0
 11
-1442.046871700802
 21
842.4152601087417
 31
0.0
  0
LINE
  5
1A7
330
1F
100
AcDbEntity
  8
A-3_受枠
  6
Continuous
 62
     4
370
     9
100
AcDbLine
 10
-1409.646853885135
 20
811.3152911211995
 30
0.0
 11
-1409.646853885135
 21
842.4152601087417
 31
0.0
  0
LINE
  5
1A8
330
1F
100
AcDbEntity
  8
A-3_受枠
  6
Continuous
 62
     4
370
     9
100
AcDbLine
 10
-1403.846740722656
 20
815.2154376055745
 30
0.0
 11
-1403.846740722656
 21
842.4152601087417
 31
0.0
  0
LINE
  5
1A9
330
1F
100
AcDbEntity
  8
A-3_受枠
  6
Continuous
 62
     4
370
     9
100
AcDbLine
 10
-1443.047023463894
 20
830.4151710304054
 30
0.0
 11
-1446.846709380279
 21
830.4151710304054
 31
0.0
  0
LINE
  5
1AA
330
1F
100
AcDbEntity
  8
A-3_受枠
  6
Continuous
 62
     4
370
     9
100
AcDbLine
 10
-1408.647073281778
 20
830.4151710304054
 30
0.0
 11
-1404.846645045925
 21
830.4151710304054
 31
0.0
  0
LINE
  5
1AB
330
1F
100
AcDbEntity
  8
A-3_受枠
  6
Continuous
 62
     4
370
     9
100
AcDbLine
 10
-1447.84686114337
 20
851.4151413376269
 30
0.0
 11
-1447.84686114337
 21
856.5334340688346
 31
0.0
  0
LINE
  5
1AC
330
1F
100
AcDbEntity
  8
A-3_受枠
  6
Continuous
 62
     4
370
     9
100
AcDbLine
 10
-1442.046871700802
 20
851.4151413376269
 30
0.0
 11
-1442.046871700802
 21
856.5334340688346
 31
0.0
  0
LINE
  5
1AD
330
1F
100
AcDbEntity
  8
A-3_受枠
  6
Continuous
 62
     4
370
     9
100
AcDbLine
 10
-1409.646853885135
 20
851.4151413376269
 30
0.0
 11
-1409.646853885135
 21
856.5334340688346
 31
0.0
  0
LINE
  5
1AE
330
1F
100
AcDbEntity
  8
A-3_受枠
  6
Continuous
 62
     4
370
     9
100
AcDbLine
 10
-1403.846740722656
 20
851.4151413376269
 30
0.0
 11
-1403.846740722656
 21
856.5334340688346
 31
0.0
  0
LINE
  5
1AF
330
1F
100
AcDbEntity
  8
A-3_受枠
  6
Continuous
 62
     4
370
     9
100
AcDbLine
 10
222.9541675464529
 20
808.4155438397383
 30
0.0
 11
172.153782200169
 21
808.4155438397383
 31
0.0
  0
LINE
  5
1B0
330
1F
100
AcDbEntity
  8
A-3_受枠
  6
Continuous
 62
     4
370
     9
100
AcDbLine
 10
213.7538600612334
 20
814.2152858424834
 30
0.0
 11
181.3540896853885
 21
814.2152858424834
 31
0.0
  0
LINE
  5
1B1
330
1F
100
AcDbEntity
  8
A-3_受枠
  6
Continuous
 62
     4
370
     9
100
AcDbLine
 10
174.5537010399073
 20
814.2152858424834
 30
0.0
 11
172.153782200169
 21
814.2152858424834
 31
0.0
  0
LINE
  5
1B2
330
1F
100
AcDbEntity
  8
A-3_受枠
  6
Continuous
 62
     4
370
     9
100
AcDbLine
 10
220.5537538270693
 20
814.2152858424834
 30
0.0
 11
222.9541675464529
 21
814.2152858424834
 31
0.0
  0
LINE
  5
1B3
330
1F
100
AcDbEntity
  8
A-3_受枠
  6
Continuous
 62
     4
370
     9
100
AcDbLine
 10
175.5541002428211
 20
815.2154376055745
 30
0.0
 11
175.5541002428211
 21
842.4152601087417
 31
0.0
  0
LINE
  5
1B4
330
1F
100
AcDbEntity
  8
A-3_受枠
  6
Continuous
 62
     4
370
     9
100
AcDbLine
 10
181.3540896853885
 20
811.3152911211995
 30
0.0
 11
181.3540896853885
 21
842.4152601087417
 31
0.0
  0
LINE
  5
1B5
330
1F
100
AcDbEntity
  8
A-3_受枠
  6
Continuous
 62
     4
370
     9
100
AcDbLine
 10
213.7538600612334
 20
811.3152911211995
 30
0.0
 11
213.7538600612334
 21
842.4152601087417
 31
0.0
  0
LINE
  5
1B6
330
1F
100
AcDbEntity
  8
A-3_受枠
  6
Continuous
 62
     4
370
     9
100
AcDbLine
 10
219.5538495038008
 20
815.2154376055745
 30
0.0
 11
219.5538495038008
 21
842.4152601087417
 31
0.0
  0
LINE
  5
1B7
330
1F
100
AcDbEntity
  8
A-3_受枠
  6
Continuous
 62
     4
370
     9
100
AcDbLine
 10
180.3539379222974
 20
830.4151710304054
 30
0.0
 11
176.5535096864443
 21
830.4151710304054
 31
0.0
  0
LINE
  5
1B8
330
1F
100
AcDbEntity
  8
A-3_受枠
  6
Continuous
 62
     4
370
     9
100
AcDbLine
 10
214.7540118243245
 20
830.4151710304054
 30
0.0
 11
218.5536977407097
 21
830.4151710304054
 31
0.0
  0
LINE
  5
1B9
330
1F
100
AcDbEntity
  8
A-3_受枠
  6
Continuous
 62
     4
370
     9
100
AcDbLine
 10
175.5541002428211
 20
851.4151413376269
 30
0.0
 11
175.5541002428211
 21
856.5334340688346
 31
0.0
  0
LINE
  5
1BA
330
1F
100
AcDbEntity
  8
A-3_受枠
  6
Continuous
 62
     4
370
     9
100
AcDbLine
 10
181.3540896853885
 20
851.4151413376269
 30
0.0
 11
181.3540896853885
 21
856.5334340688346
 31
0.0
  0
LINE
  5
1BB
330
1F
100
AcDbEntity
  8
A-3_受枠
  6
Continuous
 62
     4
370
     9
100
AcDbLine
 10
213.7538600612334
 20
851.4151413376269
 30
0.0
 11
213.7538600612334
 21
856.5334340688346
 31
0.0
  0
LINE
  5
1BC
330
1F
100
AcDbEntity
  8
A-3_受枠
  6
Continuous
 62
     4
370
     9
100
AcDbLine
 10
219.5538495038008
 20
851.4151413376269
 30
0.0
 11
219.5538495038008
 21
856.5334340688346
 31
0.0
  0
LINE
  5
1BD
330
1F
100
AcDbEntity
  8
A-3_受枠
  6
Continuous
 62
     4
370
     9
100
AcDbLine
 10
-1400.446793839738
 20
-105.5846013249578
 30
0.0
 11
-1451.247179186022
 21
-105.5846013249578
 31
0.0
  0
LINE
  5
1BE
330
1F
100
AcDbEntity
  8
A-3_受枠
  6
Continuous
 62
     4
370
     9
100
AcDbLine
 10
-1409.646853885135
 20
-111.3843433277026
 30
0.0
 11
-1442.046871700802
 21
-111.3843433277026
 31
0.0
  0
LINE
  5
1BF
330
1F
100
AcDbEntity
  8
A-3_受枠
  6
Continuous
 62
     4
370
     9
100
AcDbLine
 10
-1448.84688918655
 20
-111.3843433277026
 30
0.0
 11
-1451.247179186022
 21
-111.3843433277026
 31
0.0
  0
LINE
  5
1C0
330
1F
100
AcDbEntity
  8
A-3_受枠
  6
Continuous
 62
     4
370
     9
100
AcDbLine
 10
-1402.846836399387
 20
-111.3843433277026
 30
0.0
 11
-1400.446793839738
 21
-111.3843433277026
 31
0.0
  0
LINE
  5
1C1
330
1F
100
AcDbEntity
  8
A-3_受枠
  6
Continuous
 62
     4
370
     9
100
AcDbLine
 10
-1447.84686114337
 20
-112.3844950907937
 30
0.0
 11
-1447.84686114337
 21
-139.5843175939612
 31
0.0
  0
LINE
  5
1C2
330
1F
100
AcDbEntity
  8
A-3_受枠
  6
Continuous
 62
     4
370
     9
100
AcDbLine
 10
-1442.046871700802
 20
-108.4843486064187
 30
0.0
 11
-1442.046871700802
 21
-139.5843175939612
 31
0.0
  0
LINE
  5
1C3
330
1F
100
AcDbEntity
  8
A-3_受枠
  6
Continuous
 62
     4
370
     9
100
AcDbLine
 10
-1409.646853885135
 20
-108.4843486064187
 30
0.0
 11
-1409.646853885135
 21
-139.5843175939612
 31
0.0
  0
LINE
  5
1C4
330
1F
100
AcDbEntity
  8
A-3_受枠
  6
Continuous
 62
     4
370
     9
100
AcDbLine
 10
-1403.846740722656
 20
-112.3844950907937
 30
0.0
 11
-1403.846740722656
 21
-139.5843175939612
 31
0.0
  0
LINE
  5
1C5
330
1F
100
AcDbEntity
  8
A-3_受枠
  6
Continuous
 62
     4
370
     9
100
AcDbLine
 10
-1443.047023463894
 20
-127.584228515625
 30
0.0
 11
-1446.846709380279
 21
-127.584228515625
 31
0.0
  0
LINE
  5
1C6
330
1F
100
AcDbEntity
  8
A-3_受枠
  6
Continuous
 62
     4
370
     9
100
AcDbLine
 10
-1408.647073281778
 20
-127.584228515625
 30
0.0
 11
-1404.846645045925
 21
-127.584228515625
 31
0.0
  0
LINE
  5
1C7
330
1F
100
AcDbEntity
  8
A-3_受枠
  6
Continuous
 62
     4
370
     9
100
AcDbLine
 10
-1447.84686114337
 20
-148.5841988228461
 30
0.0
 11
-1447.84686114337
 21
-153.7024915540539
 31
0.0
  0
LINE
  5
1C8
330
1F
100
AcDbEntity
  8
A-3_受枠
  6
Continuous
 62
     4
370
     9
100
AcDbLine
 10
-1442.046871700802
 20
-148.5841988228461
 30
0.0
 11
-1442.046871700802
 21
-153.7024915540539
 31
0.0
  0
LINE
  5
1C9
330
1F
100
AcDbEntity
  8
A-3_受枠
  6
Continuous
 62
     4
370
     9
100
AcDbLine
 10
-1409.646853885135
 20
-148.5841988228461
 30
0.0
 11
-1409.646853885135
 21
-153.7024915540539
 31
0.0
  0
LINE
  5
1CA
330
1F
100
AcDbEntity
  8
A-3_受枠
  6
Continuous
 62
     4
370
     9
100
AcDbLine
 10
-1403.846740722656
 20
-148.5841988228461
 30
0.0
 11
-1403.846740722656
 21
-153.7024915540539
 31
0.0
  0
LINE
  5
1CB
330
1F
100
AcDbEntity
  8
A-3_受枠
  6
Continuous
 62
     4
370
     9
100
AcDbLine
 10
222.9541675464529
 20
-105.5846013249578
 30
0.0
 11
172.153782200169
 21
-105.5846013249578
 31
0.0
  0
LINE
  5
1CC
330
1F
100
AcDbEntity
  8
A-3_受枠
  6
Continuous
 62
     4
370
     9
100
AcDbLine
 10
213.7538600612334
 20
-111.3843433277026
 30
0.0
 11
181.3540896853885
 21
-111.3843433277026
 31
0.0
  0
LINE
  5
1CD
330
1F
100
AcDbEntity
  8
A-3_受枠
  6
Continuous
 62
     4
370
     9
100
AcDbLine
 10
174.5537010399073
 20
-111.3843433277026
 30
0.0
 11
172.153782200169
 21
-111.3843433277026
 31
0.0
  0
LINE
  5
1CE
330
1F
100
AcDbEntity
  8
A-3_受枠
  6
Continuous
 62
     4
370
     9
100
AcDbLine
 10
220.5537538270693
 20
-111.3843433277026
 30
0.0
 11
222.9541675464529
 21
-111.3843433277026
 31
0.0
  0
LINE
  5
1CF
330
1F
100
AcDbEntity
  8
A-3_受枠
  6
Continuous
 62
     4
370
     9
100
AcDbLine
 10
175.5541002428211
 20
-112.3844950907937
 30
0.0
 11
175.5541002428211
 21
-139.5843175939612
 31
0.0
  0
LINE
  5
1D0
330
1F
100
AcDbEntity
  8
A-3_受枠
  6
Continuous
 62
     4
370
     9
100
AcDbLine
 10
181.3540896853885
 20
-108.4843486064187
 30
0.0
 11
181.3540896853885
 21
-139.5843175939612
 31
0.0
  0
LINE
  5
1D1
330
1F
100
AcDbEntity
  8
A-3_受枠
  6
Continuous
 62
     4
370
     9
100
AcDbLine
 10
213.7538600612334
 20
-108.4843486064187
 30
0.0
 11
213.7538600612334
 21
-139.5843175939612
 31
0.0
  0
LINE
  5
1D2
330
1F
100
AcDbEntity
  8
A-3_受枠
  6
Continuous
 62
     4
370
     9
100
AcDbLine
 10
219.5538495038008
 20
-112.3844950907937
 30
0.0
 11
219.5538495038008
 21
-139.5843175939612
 31
0.0
  0
LINE
  5
1D3
330
1F
100
AcDbEntity
  8
A-3_受枠
  6
Continuous
 62
     4
370
     9
100
AcDbLine
 10
180.3539379222974
 20
-127.584228515625
 30
0.0
 11
176.5535096864443
 21
-127.584228515625
 31
0.0
  0
LINE
  5
1D4
330
1F
100
AcDbEntity
  8
A-3_受枠
  6
Continuous
 62
     4
370
     9
100
AcDbLine
 10
214.7540118243245
 20
-127.584228515625
 30
0.0
 11
218.5536977407097
 21
-127.584228515625
 31
0.0
  0
LINE
  5
1D5
330
1F
100
AcDbEntity
  8
A-3_受枠
  6
Continuous
 62
     4
370
     9
100
AcDbLine
 10
175.5541002428211
 20
-148.5841988228461
 30
0.0
 11
175.5541002428211
 21
-153.7024915540539
 31
0.0
  0
LINE
  5
1D6
330
1F
100
AcDbEntity
  8
A-3_受枠
  6
Continuous
 62
     4
370
     9
100
AcDbLine
 10
181.3540896853885
 20
-148.5841988228461
 30
0.0
 11
181.3540896853885
 21
-153.7024915540539
 31
0.0
  0
LINE
  5
1D7
330
1F
100
AcDbEntity
  8
A-3_受枠
  6
Continuous
 62
     4
370
     9
100
AcDbLine
 10
213.7538600612334
 20
-148.5841988228461
 30
0.0
 11
213.7538600612334
 21
-153.7024915540539
 31
0.0
  0
LINE
  5
1D8
330
1F
100
AcDbEntity
  8
A-3_受枠
  6
Continuous
 62
     4
370
     9
100
AcDbLine
 10
219.5538495038008
 20
-148.5841988228461
 30
0.0
 11
219.5538495038008
 21
-153.7024915540539
 31
0.0
  0
LINE
  5
1D9
330
1F
100
AcDbEntity
  8
A-3_受枠
  6
Continuous
 62
     4
370
     9
100
AcDbLine
 10
1245.076112489443
 20
853.6519973342484
 30
0.0
 11
1245.724652264569
 21
859.4158605627113
 31
0.0
  0
LINE
  5
1DA
330
1F
100
AcDbEntity
  8
A-3_受枠
  6
Continuous
 62
     4
370
     9
100
AcDbLine
 10
1265.138780748522
 20
857.2309669288429
 30
0.0
 11
1245.724652264569
 21
859.4158605627113
 31
0.0
  0
LINE
  5
1DB
330
1F
100
AcDbEntity
  8
A-3_受枠
  6
Continuous
 62
     4
370
     9
100
AcDbLine
 10
1264.950726483319
 20
851.4156362172721
 30
0.0
 11
1245.076112489443
 21
853.6519973342484
 31
0.0
  0
LINE
  5
1DC
330
1F
100
AcDbEntity
  8
A-3_受枠
  6
Continuous
 62
     4
370
     9
100
AcDbLine
 10
1306.129661766259
 20
853.366204339105
 30
0.0
 11
1264.950726483319
 21
851.4156362172721
 31
0.0
  0
LINE
  5
1DD
330
1F
100
AcDbEntity
  8
A-3_受枠
  6
Continuous
 62
     4
370
     9
100
AcDbLine
 10
1305.855498442779
 20
859.1595129064613
 30
0.0
 11
1265.138780748522
 21
857.2309669288429
 31
0.0
  0
LINE
  5
1DE
330
1F
100
AcDbEntity
  8
A-3_受枠
  6
Continuous
 62
     4
370
     9
100
AcDbLine
 10
1312.977311417864
 20
841.4725143845019
 30
0.0
 11
1312.977311417864
 21
852.3672897751269
 31
0.0
  0
LINE
  5
1DF
330
1F
100
AcDbEntity
  8
A-3_受枠
  6
Continuous
 62
     4
370
     9
100
AcDbLine
 10
1251.777030326225
 20
814.2155332823061
 30
0.0
 11
1310.077069256757
 21
814.2155332823061
 31
0.0
  0
LINE
  5
1E0
330
1F
100
AcDbEntity
  8
A-3_受枠
  6
Continuous
 62
     4
370
     9
100
AcDbLine
 10
1251.777030326225
 20
808.415791279561
 30
0.0
 11
1310.077069256757
 21
808.415791279561
 31
0.0
  0
LINE
  5
1E1
330
1F
100
AcDbEntity
  8
A-3_受枠
  6
Continuous
 62
     4
370
     9
100
AcDbLine
 10
1244.977136560389
 20
826.067158467061
 30
0.0
 11
1244.977136560389
 21
815.2156850453971
 31
0.0
  0
LINE
  5
1E2
330
1F
100
AcDbEntity
  8
A-3_受枠
  6
Continuous
 62
     4
370
     9
100
AcDbLine
 10
1250.777126002956
 20
826.067158467061
 30
0.0
 11
1250.777126002956
 21
815.2156850453971
 31
0.0
  0
LINE
  5
1E3
330
1F
100
AcDbEntity
  8
A-3_受枠
  6
Continuous
 62
     4
370
     9
100
AcDbLine
 10
1251.357867266681
 20
826.9750151763092
 30
0.0
 11
1272.068332981419
 21
836.5449977565459
 31
0.0
  0
LINE
  5
1E4
330
1F
100
AcDbEntity
  8
A-3_受枠
  6
Continuous
 62
     4
370
     9
100
AcDbLine
 10
1305.802546320735
 20
834.6827656513938
 30
0.0
 11
1272.068332981419
 21
836.5449977565459
 31
0.0
  0
LINE
  5
1E5
330
1F
100
AcDbEntity
  8
A-3_受枠
  6
Continuous
 62
     4
370
     9
100
AcDbLine
 10
1248.924791490709
 20
832.2397922825169
 30
0.0
 11
1270.946193385769
 21
842.415754988387
 31
0.0
  0
LINE
  5
1E6
330
1F
100
AcDbEntity
  8
A-3_受枠
  6
Continuous
 62
     4
370
     9
100
AcDbLine
 10
1306.121991131757
 20
840.4738472603464
 30
0.0
 11
1270.946193385769
 21
842.415754988387
 31
0.0
  0
LINE
  5
1E7
330
1F
100
AcDbEntity
  8
A-3_受枠
  6
Continuous
 62
     4
370
     9
100
AcDbLine
 10
1307.177321975296
 20
852.3672897751269
 30
0.0
 11
1307.177321975296
 21
841.4725143845019
 31
0.0
  0
LINE
  5
1E8
330
1F
100
AcDbEntity
  8
A-4_寸法
  6
Continuous
 62
     7
370
     9
100
AcDbLine
 10
197.5539748733109
 20
814.2152858424834
 30
0.0
 11
200.8172112542232
 21
839.0013328758448
 31
0.0
  0
LINE
  5
1E9
330
1F
100
AcDbEntity
  8
A-4_寸法
  6
Continuous
 62
     7
370
     9
100
AcDbLine
 10
197.5539748733109
 20
814.2152858424834
 30
0.0
 11
207.1209881756758
 21
837.3123086465373
 31
0.0
  0
LINE
  5
1EA
330
1F
100
AcDbEntity
  8
A-4_寸法
  6
Continuous
 62
     7
370
     9
100
AcDbLine
 10
197.5539748733109
 20
814.2152858424834
 30
0.0
 11
277.5099470808701
 21
1112.615339949325
 31
0.0
  0
LINE
  5
1EB
330
1F
100
AcDbEntity
  8
A-4_寸法
  6
Continuous
 62
     7
370
     9
100
AcDbLine
 10
277.5099470808701
 20
1112.615339949325
 30
0.0
 11
676.040979333826
 21
1112.615339949325
 31
0.0
  0
LINE
  5
1EC
330
1F
100
AcDbEntity
  8
A-2_蓋
  6
JWW_CENTER1
 62
     3
370
     9
100
AcDbLine
 10
1171.668635187923
 20
351.4152238175677
 30
0.0
 11
1370.301447687923
 21
351.4152238175677
 31
0.0
  0
LINE
  5
1ED
330
1F
100
AcDbEntity
  8
A-1_ピット
  6
Continuous
 62
     2
370
     9
100
AcDbLine
 10
-1627.547929093644
 20
871.4152073215794
 30
0.0
 11
-1627.547929093644
 21
-168.5846359665328
 31
0.0
  0
LINE
  5
1EE
330
1F
100
AcDbEntity
  8
A-1_ピット
  6
Continuous
 62
     2
370
     9
100
AcDbLine
 10
-1627.547805373733
 20
871.4152073215794
 30
0.0
 11
400.4528973553633
 21
871.4152073215794
 31
0.0
  0
LINE
  5
1EF
330
1F
100
AcDbEntity
  8
A-1_ピット
  6
Continuous
 62
     2
370
     9
100
AcDbLine
 10
-1615.54796373522
 20
859.4151182432436
 30
0.0
 11
388.4528082770271
 21
859.4151182432436
 31
0.0
  0
LINE
  5
1F0
330
1F
100
AcDbEntity
  8
A-1_ピット
  6
Continuous
 62
     2
370
     9
100
AcDbLine
 10
-1627.547805373733
 20
-168.5846359665328
 30
0.0
 11
400.4528973553633
 21
-168.5846359665328
 31
0.0
  0
LINE
  5
1F1
330
1F
100
AcDbEntity
  8
A-1_ピット
  6
Continuous
 62
     2
370
     9
100
AcDbLine
 10
-1615.54796373522
 20
-156.5842994483739
 30
0.0
 11
388.4528082770271
 21
-156.5842994483739
 31
0.0
  0
LINE
  5
1F2
330
1F
100
AcDbEntity
  8
A-1_ピット
  6
Continuous
 62
     2
370
     9
100
AcDbLine
 10
400.4528973553633
 20
871.4152073215794
 30
0.0
 11
400.4528973553633
 21
-168.5846359665328
 31
0.0
  0
LINE
  5
1F3
330
1F
100
AcDbEntity
  8
A-1_ピット
  6
JWW_DASHED3
 62
     2
370
     9
100
AcDbLine
 10
388.4528082770271
 20
751.415801177154
 30
0.0
 11
-1615.54796373522
 21
751.415801177154
 31
0.0
  0
LINE
  5
1F4
330
1F
100
AcDbEntity
  8
A-1_ピット
  6
JWW_DASHED3
 62
     2
370
     9
100
AcDbLine
 10
-1615.54796373522
 20
-48.58510610219582
 30
0.0
 11
388.4528082770271
 21
-48.58510610219582
 31
0.0
  0
LINE
  5
1F5
330
1F
100
AcDbEntity
  8
A-4_寸法
  6
Continuous
 62
     7
370
     9
100
AcDbLine
 10
-1627.547805373733
 20
1012.615257469384
 30
0.0
 11
400.4528973553633
 21
1012.615257469384
 31
0.0
  0
LINE
  5
1F6
330
1F
100
AcDbEntity
  8
A-4_寸法
  6
Continuous
 62
     7
370
     9
100
AcDbLine
 10
-1627.547805373733
 20
886.415256809544
 30
0.0
 11
-1627.547805373733
 21
1015.615217879012
 31
0.0
  0
LINE
  5
1F7
330
1F
100
AcDbEntity
  8
A-4_寸法
  6
Continuous
 62
     7
370
     9
100
AcDbLine
 10
-1127.547764133763
 20
927.6152244774073
 30
0.0
 11
-1127.547764133763
 21
1015.615217879012
 31
0.0
  0
LINE
  5
1F8
330
1F
100
AcDbEntity
  8
A-4_寸法
  6
Continuous
 62
     7
370
     9
100
AcDbLine
 10
-99.54689644478464
 20
927.6152244774073
 30
0.0
 11
-99.54689644478464
 21
1015.615217879012
 31
0.0
  0
LINE
  5
1F9
330
1F
100
AcDbEntity
  8
A-4_寸法
  6
Continuous
 62
     7
370
     9
100
AcDbLine
 10
400.4528973553633
 20
886.415256809544
 30
0.0
 11
400.4528973553633
 21
1015.615217879012
 31
0.0
  0
LINE
  5
1FA
330
1F
100
AcDbEntity
  8
A-4_寸法
  6
Continuous
 62
     7
370
     9
100
AcDbLine
 10
400.4528973553633
 20
636.8326053103885
 30
0.0
 11
463.309045740076
 21
871.4152073215794
 31
0.0
  0
LINE
  5
1FB
330
1F
100
AcDbEntity
  8
A-4_寸法
  6
Continuous
 62
     7
370
     9
100
AcDbLine
 10
400.4528973553633
 20
636.8326053103885
 30
0.0
 11
403.7161337362755
 21
661.61865234375
 31
0.0
  0
LINE
  5
1FC
330
1F
100
AcDbEntity
  8
A-4_寸法
  6
Continuous
 62
     7
370
     9
100
AcDbLine
 10
400.4528973553633
 20
636.8326053103885
 30
0.0
 11
410.0199106577281
 21
659.9296281144427
 31
0.0
  0
LINE
  5
1FD
330
1F
100
AcDbEntity
  8
A-4_寸法
  6
Continuous
 62
     7
370
     9
100
AcDbLine
 10
463.309045740076
 20
871.4152073215794
 30
0.0
 11
686.0815924567146
 21
871.4152073215794
 31
0.0
  0
LINE
  5
1FE
330
1F
100
AcDbEntity
  8
A-4_寸法
  6
Continuous
 62
     7
370
     9
100
AcDbLine
 10
1219.177081133868
 20
871.4154547614021
 30
0.0
 11
1079.920175913218
 21
1112.615339949325
 31
0.0
  0
LINE
  5
1FF
330
1F
100
AcDbEntity
  8
A-4_寸法
  6
Continuous
 62
     7
370
     9
100
AcDbLine
 10
789.0618401604729
 20
1112.615339949325
 30
0.0
 11
1079.920175913218
 21
1112.615339949325
 31
0.0
  0
LINE
  5
200
330
1F
100
AcDbEntity
  8
D-4_寸法
  6
Continuous
 62
     7
370
     9
100
AcDbLine
 10
-728.3981323242188
 20
-615.7666675464526
 30
0.0
 11
-478.7043803447
 21
-615.7666675464526
 31
0.0
  0
LINE
  5
201
330
1F
100
AcDbEntity
  8
D-2_蓋
  6
Continuous
 62
     3
370
     9
100
AcDbLine
 10
-292.9593472867398
 20
-668.378064954603
 30
0.0
 11
-298.675825789168
 21
-668.378064954603
 31
0.0
  0
LINE
  5
202
330
1F
100
AcDbEntity
  8
D-2_蓋
  6
Continuous
 62
     3
370
     9
100
AcDbLine
 10
-292.9593472867398
 20
-918.3782092944995
 30
0.0
 11
-689.4738687051307
 21
-918.3782092944995
 31
0.0
  0
LINE
  5
203
330
1F
100
AcDbEntity
  8
D-2_蓋
  6
Continuous
 62
     3
370
     9
100
AcDbLine
 10
-167.1814789643159
 20
-668.378064954603
 30
0.0
 11
-132.1818583720437
 21
-668.378064954603
 31
0.0
  0
LINE
  5
204
330
1F
100
AcDbEntity
  8
D-2_蓋
  6
Continuous
 62
     3
370
     9
100
AcDbLine
 10
-132.1818583720437
 20
-918.3782092944995
 30
0.0
 11
-167.1814789643159
 21
-918.3782092944995
 31
0.0
  0
LINE
  5
205
330
1F
100
AcDbEntity
  8
D-2_蓋
  6
Continuous
 62
     3
370
     9
100
AcDbLine
 10
-167.1814789643159
 20
-660.8781020705765
 30
0.0
 11
-132.1818583720437
 21
-660.8781020705765
 31
0.0
  0
LINE
  5
206
330
1F
100
AcDbEntity
  8
D-2_蓋
  6
Continuous
 62
     3
370
     9
100
AcDbLine
 10
-167.1814789643159
 20
-660.8781020705765
 30
0.0
 11
-167.1814789643159
 21
-708.3781969225084
 31
0.0
  0
LINE
  5
207
330
1F
100
AcDbEntity
  8
D-2_蓋
  6
Continuous
 62
     3
370
     9
100
AcDbLine
 10
-132.1818583720437
 20
-660.8781020705765
 30
0.0
 11
-132.1818583720437
 21
-708.3781969225084
 31
0.0
  0
LINE
  5
208
330
1F
100
AcDbEntity
  8
D-4_寸法
  6
Continuous
 62
     7
370
     9
100
AcDbLine
 10
-9.735272381756772
 20
-918.3782092944995
 30
0.0
 11
-9.735272381756772
 21
-668.378064954603
 31
0.0
  0
LINE
  5
209
330
1F
100
AcDbEntity
  8
D-4_寸法
  6
Continuous
 62
     7
370
     9
100
AcDbLine
 10
-113.4071143897802
 20
-918.3782092944995
 30
0.0
 11
-6.735311972128386
 21
-918.3782092944995
 31
0.0
  0
LINE
  5
20A
330
1F
100
AcDbEntity
  8
D-4_寸法
  6
Continuous
 62
     7
370
     9
100
AcDbLine
 10
-113.4071143897802
 20
-668.378064954603
 30
0.0
 11
-6.735311972128386
 21
-668.378064954603
 31
0.0
  0
LINE
  5
20B
330
1F
100
AcDbEntity
  8
D-4_寸法
  6
Continuous
 62
     7
370
     9
100
AcDbLine
 10
-9.735272381756772
 20
-918.3782092944995
 30
0.0
 11
-12.99850876266873
 21
-893.5921004011824
 31
0.0
  0
LINE
  5
20C
330
1F
100
AcDbEntity
  8
D-4_寸法
  6
Continuous
 62
     7
370
     9
100
AcDbLine
 10
-9.735272381756772
 20
-918.3782092944995
 30
0.0
 11
-6.472530880489842
 21
-893.5921004011824
 31
0.0
  0
LINE
  5
20D
330
1F
100
AcDbEntity
  8
D-4_寸法
  6
Continuous
 62
     7
370
     9
100
AcDbLine
 10
-9.735272381756772
 20
-668.378064954603
 30
0.0
 11
-12.99850876266873
 21
-693.1641119879645
 31
0.0
  0
LINE
  5
20E
330
1F
100
AcDbEntity
  8
D-4_寸法
  6
Continuous
 62
     7
370
     9
100
AcDbLine
 10
-9.735272381756772
 20
-668.378064954603
 30
0.0
 11
-6.472530880489842
 21
-693.1641119879645
 31
0.0
  0
LINE
  5
20F
330
1F
100
AcDbEntity
  8
D-2_蓋
  6
Continuous
 62
     3
370
     9
100
AcDbLine
 10
-798.2870153478675
 20
-713.0106415619721
 30
0.0
 11
-790.7602671030404
 21
-720.5367712072423
 31
0.0
  0
LINE
  5
210
330
1F
100
AcDbEntity
  8
D-2_蓋
  6
Continuous
 62
     3
370
     9
100
AcDbLine
 10
-815.7607207427154
 20
-716.7499521616343
 30
0.0
 11
-794.7014885979729
 21
-737.809308026288
 31
0.0
  0
LINE
  5
211
330
1F
100
AcDbEntity
  8
D-2_蓋
  6
Continuous
 62
     3
370
     9
100
AcDbLine
 10
-815.7607207427154
 20
-655.463871311497
 30
0.0
 11
-790.7602671030404
 21
-680.4637682115709
 31
0.0
  0
LINE
  5
212
330
1F
100
AcDbEntity
  8
D-2_蓋
  6
Continuous
 62
     3
370
     9
100
AcDbLine
 10
-802.2663425754856
 20
-658.351679621516
 30
0.0
 11
-790.7602671030404
 21
-669.8572602143158
 31
0.0
  0
LINE
  5
213
330
1F
100
AcDbEntity
  8
D-2_蓋
  6
Continuous
 62
     3
370
     9
100
AcDbLine
 10
-790.7602671030404
 20
-641.1292493665541
 30
0.0
 11
-790.7602671030404
 21
-932.6038339975718
 31
0.0
  0
LINE
  5
214
330
1F
100
AcDbEntity
  8
D-4_寸法
  6
Continuous
 62
     7
370
     9
100
AcDbLine
 10
-832.6972342826224
 20
-860.587710818729
 30
0.0
 11
-886.3921706740921
 21
-860.587710818729
 31
0.0
  0
LINE
  5
215
330
1F
100
AcDbEntity
  8
D-4_寸法
  6
Continuous
 62
     7
370
     9
100
AcDbLine
 10
-832.6972342826224
 20
-885.701058877481
 30
0.0
 11
-886.3921706740921
 21
-885.701058877481
 31
0.0
  0
LINE
  5
216
330
1F
100
AcDbEntity
  8
D-4_寸法
  6
Continuous
 62
     7
370
     9
100
AcDbLine
 10
-883.3924577042862
 20
-860.587710818729
 30
0.0
 11
-886.6555703652871
 21
-835.8016637853673
 31
0.0
  0
LINE
  5
217
330
1F
100
AcDbEntity
  8
D-4_寸法
  6
Continuous
 62
     7
370
     9
100
AcDbLine
 10
-883.3924577042862
 20
-860.587710818729
 30
0.0
 11
-880.1289738835515
 21
-835.8016637853673
 31
0.0
  0
LINE
  5
218
330
1F
100
AcDbEntity
  8
D-4_寸法
  6
Continuous
 62
     7
370
     9
100
AcDbLine
 10
-883.3924577042862
 20
-885.701058877481
 30
0.0
 11
-886.6555703652871
 21
-910.4871059108425
 31
0.0
  0
LINE
  5
219
330
1F
100
AcDbEntity
  8
D-4_寸法
  6
Continuous
 62
     7
370
     9
100
AcDbLine
 10
-883.3924577042862
 20
-885.701058877481
 30
0.0
 11
-880.1289738835515
 21
-910.4871059108425
 31
0.0
  0
LINE
  5
21A
330
1F
100
AcDbEntity
  8
D-4_寸法
  6
Continuous
 62
     7
370
     9
100
AcDbLine
 10
-883.3924577042862
 20
-829.0883120974979
 30
0.0
 11
-883.3924577042862
 21
-924.9612839157517
 31
0.0
  0
LINE
  5
21B
330
1F
100
AcDbEntity
  8
D-4_寸法
  6
Continuous
 62
     7
370
     9
100
AcDbLine
 10
-779.3052879539696
 20
-734.5143993480785
 30
0.0
 11
-747.2895441828547
 21
-727.6633473989125
 31
0.0
  0
LINE
  5
21C
330
1F
100
AcDbEntity
  8
D-4_寸法
  6
Continuous
 62
     7
370
     9
100
AcDbLine
 10
-784.5366606841217
 20
-710.0680253312395
 30
0.0
 11
-752.5210406329179
 21
-703.2166640822952
 31
0.0
  0
LINE
  5
21D
330
1F
100
AcDbEntity
  8
D-4_寸法
  6
Continuous
 62
     7
370
     9
100
AcDbLine
 10
-750.2233144399281
 20
-728.2913496687605
 30
0.0
 11
-741.8453732052365
 21
-751.845703125
 31
0.0
  0
LINE
  5
21E
330
1F
100
AcDbEntity
  8
D-4_寸法
  6
Continuous
 62
     7
370
     9
100
AcDbLine
 10
-750.2233144399281
 20
-728.2913496687605
 30
0.0
 11
-748.2273411106419
 21
-753.211199786212
 31
0.0
  0
LINE
  5
21F
330
1F
100
AcDbEntity
  8
D-4_寸法
  6
Continuous
 62
     7
370
     9
100
AcDbLine
 10
-755.4546871700802
 20
-703.8444189123204
 30
0.0
 11
-757.4504130595437
 21
-678.9243213550463
 31
0.0
  0
LINE
  5
220
330
1F
100
AcDbEntity
  8
D-4_寸法
  6
Continuous
 62
     7
370
     9
100
AcDbLine
 10
-755.4546871700802
 20
-703.8444189123204
 30
0.0
 11
-763.831886085304
 21
-680.290065456081
 31
0.0
  0
LINE
  5
221
330
1F
100
AcDbEntity
  8
D-4_寸法
  6
Continuous
 62
     7
370
     9
100
AcDbLine
 10
-743.9491065772802
 20
-757.6099375131968
 30
0.0
 11
-762.3053060995564
 21
-671.8317062790329
 31
0.0
  0
LINE
  5
222
330
1F
100
AcDbEntity
  8
D-4_寸法
  6
Continuous
 62
     7
370
     9
100
AcDbLine
 10
-132.1818583720437
 20
-649.2940211940456
 30
0.0
 11
-132.1818583720437
 21
-613.123886520798
 31
0.0
  0
LINE
  5
223
330
1F
100
AcDbEntity
  8
D-4_寸法
  6
Continuous
 62
     7
370
     9
100
AcDbLine
 10
-167.1814789643159
 20
-649.2940211940456
 30
0.0
 11
-167.1814789643159
 21
-613.123886520798
 31
0.0
  0
LINE
  5
224
330
1F
100
AcDbEntity
  8
D-4_寸法
  6
Continuous
 62
     7
370
     9
100
AcDbLine
 10
-132.1818583720437
 20
-616.1239706503377
 30
0.0
 11
-107.395316459037
 21
-612.8607342694256
 31
0.0
  0
LINE
  5
225
330
1F
100
AcDbEntity
  8
D-4_寸法
  6
Continuous
 62
     7
370
     9
100
AcDbLine
 10
-132.1818583720437
 20
-616.1239706503377
 30
0.0
 11
-107.395316459037
 21
-619.3870833113386
 31
0.0
  0
LINE
  5
226
330
1F
100
AcDbEntity
  8
D-4_寸法
  6
Continuous
 62
     7
370
     9
100
AcDbLine
 10
-167.1814789643159
 20
-616.1239706503377
 30
0.0
 11
-191.9677734375
 21
-612.8607342694256
 31
0.0
  0
LINE
  5
227
330
1F
100
AcDbEntity
  8
D-4_寸法
  6
Continuous
 62
     7
370
     9
100
AcDbLine
 10
-167.1814789643159
 20
-616.1239706503377
 30
0.0
 11
-191.9677734375
 21
-619.3870833113386
 31
0.0
  0
LINE
  5
228
330
1F
100
AcDbEntity
  8
D-4_寸法
  6
Continuous
 62
     7
370
     9
100
AcDbLine
 10
-104.3088758313976
 20
-616.1239706503377
 30
0.0
 11
-194.864798880912
 21
-616.1239706503377
 31
0.0
  0
LINE
  5
229
330
1F
100
AcDbEntity
  8
D-4_寸法
  6
Continuous
 62
     7
370
     9
100
AcDbLine
 10
-139.6813882363807
 20
-836.4923301902977
 30
0.0
 11
-139.6813882363807
 21
-839.4923524598818
 31
0.0
  0
LINE
  5
22A
330
1F
100
AcDbEntity
  8
D-4_寸法
  6
Continuous
 62
     7
370
     9
100
AcDbLine
 10
-159.6814542203336
 20
-836.4923301902977
 30
0.0
 11
-159.6814542203336
 21
-839.4923524598818
 31
0.0
  0
LINE
  5
22B
330
1F
100
AcDbEntity
  8
D-4_寸法
  6
Continuous
 62
     7
370
     9
100
AcDbLine
 10
-139.6813882363807
 20
-836.4923301902977
 30
0.0
 11
-114.8957123627534
 21
-833.2291556693411
 31
0.0
  0
LINE
  5
22C
330
1F
100
AcDbEntity
  8
D-4_寸法
  6
Continuous
 62
     7
370
     9
100
AcDbLine
 10
-139.6813882363807
 20
-836.4923301902977
 30
0.0
 11
-114.8957123627534
 21
-839.7555047112542
 31
0.0
  0
LINE
  5
22D
330
1F
100
AcDbEntity
  8
D-4_寸法
  6
Continuous
 62
     7
370
     9
100
AcDbLine
 10
-159.6814542203336
 20
-836.4923301902977
 30
0.0
 11
-184.4673775337836
 21
-833.2291556693411
 31
0.0
  0
LINE
  5
22E
330
1F
100
AcDbEntity
  8
D-4_寸法
  6
Continuous
 62
     7
370
     9
100
AcDbLine
 10
-159.6814542203336
 20
-836.4923301902977
 30
0.0
 11
-184.4673775337836
 21
-839.7555047112542
 31
0.0
  0
LINE
  5
22F
330
1F
100
AcDbEntity
  8
D-2_蓋
  6
Continuous
 62
     3
370
     9
100
AcDbLine
 10
-825.7607537346917
 20
-641.1292493665541
 30
0.0
 11
-825.7607537346917
 21
-932.6038339975718
 31
0.0
  0
LINE
  5
230
330
1F
100
AcDbEntity
  8
D-2_蓋
  6
Continuous
 62
     3
370
     9
100
AcDbLine
 10
-825.7607537346917
 20
-678.8901746595228
 30
0.0
 11
-790.7602671030404
 21
-686.3796832110429
 31
0.0
  0
LINE
  5
231
330
1F
100
AcDbEntity
  8
D-2_蓋
  6
Continuous
 62
     3
370
     9
100
AcDbLine
 10
-825.7607537346917
 20
-681.446537327122
 30
0.0
 11
-790.7602671030404
 21
-688.9362314585093
 31
0.0
  0
LINE
  5
232
330
1F
100
AcDbEntity
  8
D-2_蓋
  6
Continuous
 62
     3
370
     9
100
AcDbLine
 10
-790.7602671030404
 20
-658.2573431891363
 30
0.0
 11
-825.7607537346917
 21
-650.7675871977935
 31
0.0
  0
LINE
  5
233
330
1F
100
AcDbEntity
  8
D-2_蓋
  6
Continuous
 62
     3
370
     9
100
AcDbLine
 10
-790.7602671030404
 20
-660.8137058567355
 30
0.0
 11
-825.7607537346917
 21
-653.3239498653927
 31
0.0
  0
LINE
  5
234
330
1F
100
AcDbEntity
  8
D-2_蓋
  6
Continuous
 62
     3
370
     9
100
AcDbLine
 10
-807.0236206054688
 20
-714.8804824416702
 30
0.0
 11
-790.7602671030404
 21
-731.1432792044974
 31
0.0
  0
LINE
  5
235
330
1F
100
AcDbEntity
  8
D-2_蓋
  6
Continuous
 62
     3
370
     9
100
AcDbLine
 10
-825.7607537346917
 20
-718.8898117477829
 30
0.0
 11
-790.7602671030404
 21
-711.40005575644
 31
0.0
  0
LINE
  5
236
330
1F
100
AcDbEntity
  8
D-2_蓋
  6
Continuous
 62
     3
370
     9
100
AcDbLine
 10
-825.7607537346917
 20
-716.333201640361
 30
0.0
 11
-790.7602671030404
 21
-708.8436930888407
 31
0.0
  0
LINE
  5
237
330
1F
100
AcDbEntity
  8
D-2_蓋
  6
Continuous
 62
     3
370
     9
100
AcDbLine
 10
-825.7607537346917
 20
-744.4557891020904
 30
0.0
 11
-790.7602671030404
 21
-736.9660331107474
 31
0.0
  0
LINE
  5
238
330
1F
100
AcDbEntity
  8
D-2_蓋
  6
Continuous
 62
     3
370
     9
100
AcDbLine
 10
-825.7607537346917
 20
-747.0126466493349
 30
0.0
 11
-790.7602671030404
 21
-739.5228906579919
 31
0.0
  0
LINE
  5
239
330
1F
100
AcDbEntity
  8
D-2_蓋
  6
Continuous
 62
     3
370
     9
100
AcDbLine
 10
-825.7607537346917
 20
-656.0705937565983
 30
0.0
 11
-796.728515625
 21
-685.1028318662901
 31
0.0
  0
LINE
  5
23A
330
1F
100
AcDbEntity
  8
D-2_蓋
  6
Continuous
 62
     3
370
     9
100
AcDbLine
 10
-825.7607537346917
 20
-666.6771017538533
 30
0.0
 11
-810.2227700723182
 21
-682.2147761164484
 31
0.0
  0
LINE
  5
23B
330
1F
100
AcDbEntity
  8
D-2_蓋
  6
Continuous
 62
     3
370
     9
100
AcDbLine
 10
-825.7607537346917
 20
-677.2837953309755
 30
0.0
 11
-823.717148239548
 21
-679.3271533862963
 31
0.0
  0
LINE
  5
23C
330
1F
100
AcDbEntity
  8
D-2_蓋
  6
Continuous
 62
     3
370
     9
100
AcDbLine
 10
-824.4976971600506
 20
-718.6195456015096
 30
0.0
 11
-803.4380938555742
 21
-739.678963326119
 31
0.0
  0
LINE
  5
23D
330
1F
100
AcDbEntity
  8
D-2_蓋
  6
Continuous
 62
     3
370
     9
100
AcDbLine
 10
-825.7607537346917
 20
-727.9636156236803
 30
0.0
 11
-812.1751939928208
 21
-741.5486186259501
 31
0.0
  0
LINE
  5
23E
330
1F
100
AcDbEntity
  8
D-2_蓋
  6
Continuous
 62
     3
370
     9
100
AcDbLine
 10
-825.7607537346917
 20
-738.5700617609797
 30
0.0
 11
-820.9122941300675
 21
-743.4182739257812
 31
0.0
  0
LINE
  5
23F
330
1F
100
AcDbEntity
  8
D-4_寸法
  6
Continuous
 62
     7
370
     9
100
AcDbLine
 10
-832.6972342826224
 20
-678.8901746595228
 30
0.0
 11
-886.3921706740921
 21
-678.8901746595228
 31
0.0
  0
LINE
  5
240
330
1F
100
AcDbEntity
  8
D-4_寸法
  6
Continuous
 62
     7
370
     9
100
AcDbLine
 10
-832.6972342826224
 20
-718.8898117477829
 30
0.0
 11
-886.3921706740921
 21
-718.8898117477829
 31
0.0
  0
LINE
  5
241
330
1F
100
AcDbEntity
  8
D-4_寸法
  6
Continuous
 62
     7
370
     9
100
AcDbLine
 10
-883.3924577042862
 20
-678.8901746595228
 30
0.0
 11
-886.6550754856418
 21
-654.1038183263829
 31
0.0
  0
LINE
  5
242
330
1F
100
AcDbEntity
  8
D-4_寸法
  6
Continuous
 62
     7
370
     9
100
AcDbLine
 10
-883.3924577042862
 20
-678.8901746595228
 30
0.0
 11
-880.1289738835515
 21
-654.1038183263829
 31
0.0
  0
LINE
  5
243
330
1F
100
AcDbEntity
  8
D-4_寸法
  6
Continuous
 62
     7
370
     9
100
AcDbLine
 10
-883.3924577042862
 20
-718.8898117477829
 30
0.0
 11
-886.6550754856418
 21
-743.6758587811444
 31
0.0
  0
LINE
  5
244
330
1F
100
AcDbEntity
  8
D-4_寸法
  6
Continuous
 62
     7
370
     9
100
AcDbLine
 10
-883.3924577042862
 20
-718.8898117477829
 30
0.0
 11
-880.1289738835515
 21
-743.6758587811444
 31
0.0
  0
LINE
  5
245
330
1F
100
AcDbEntity
  8
D-4_寸法
  6
Continuous
 62
     7
370
     9
100
AcDbLine
 10
-883.3924577042862
 20
-648.1956358213682
 30
0.0
 11
-883.3924577042862
 21
-747.343659272065
 31
0.0
  0
LINE
  5
246
330
1F
100
AcDbEntity
  8
D-2_蓋
  6
Continuous
 62
     3
370
     9
100
AcDbLine
 10
-825.7607537346917
 20
-835.0217334644215
 30
0.0
 11
-790.7602671030404
 21
-827.5319774730785
 31
0.0
  0
LINE
  5
247
330
1F
100
AcDbEntity
  8
D-2_蓋
  6
Continuous
 62
     3
370
     9
100
AcDbLine
 10
-825.7607537346917
 20
-832.4651852169552
 30
0.0
 11
-790.7602671030404
 21
-824.9754292256123
 31
0.0
  0
LINE
  5
248
330
1F
100
AcDbEntity
  8
D-2_蓋
  6
Continuous
 62
     3
370
     9
100
AcDbLine
 10
-790.7602671030404
 20
-855.6545649348078
 30
0.0
 11
-825.7607537346917
 21
-863.1443209261508
 31
0.0
  0
LINE
  5
249
330
1F
100
AcDbEntity
  8
D-2_蓋
  6
Continuous
 62
     3
370
     9
100
AcDbLine
 10
-790.7602671030404
 20
-853.0979548273859
 30
0.0
 11
-825.7607537346917
 21
-860.587710818729
 31
0.0
  0
LINE
  5
24A
330
1F
100
AcDbEntity
  8
D-2_蓋
  6
Continuous
 62
     3
370
     9
100
AcDbLine
 10
-825.7607537346917
 20
-795.0218489363386
 30
0.0
 11
-790.7602671030404
 21
-802.5116049276814
 31
0.0
  0
LINE
  5
24B
330
1F
100
AcDbEntity
  8
D-2_蓋
  6
Continuous
 62
     3
370
     9
100
AcDbLine
 10
-825.7607537346917
 20
-797.5784590437605
 30
0.0
 11
-790.7602671030404
 21
-805.0682150351033
 31
0.0
  0
LINE
  5
24C
330
1F
100
AcDbEntity
  8
D-2_蓋
  6
Continuous
 62
     3
370
     9
100
AcDbLine
 10
-825.7607537346917
 20
-769.4558715820312
 30
0.0
 11
-790.7602671030404
 21
-776.945627573374
 31
0.0
  0
LINE
  5
24D
330
1F
100
AcDbEntity
  8
D-2_蓋
  6
Continuous
 62
     3
370
     9
100
AcDbLine
 10
-825.7607537346917
 20
-766.8992614746094
 30
0.0
 11
-790.7602671030404
 21
-774.3887700261296
 31
0.0
  0
LINE
  5
24E
330
1F
100
AcDbEntity
  8
D-2_蓋
  6
Continuous
 62
     3
370
     9
100
AcDbLine
 10
-825.7607537346917
 20
-911.2669743718328
 30
0.0
 11
-790.7602671030404
 21
-918.7567303631756
 31
0.0
  0
LINE
  5
24F
330
1F
100
AcDbEntity
  8
D-2_蓋
  6
Continuous
 62
     3
370
     9
100
AcDbLine
 10
-825.7607537346917
 20
-913.8233988993876
 30
0.0
 11
-790.7602671030404
 21
-921.3130930307749
 31
0.0
  0
LINE
  5
250
330
1F
100
AcDbEntity
  8
D-2_蓋
  6
Continuous
 62
     3
370
     9
100
AcDbLine
 10
-825.7607537346917
 20
-885.701058877481
 30
0.0
 11
-790.7602671030404
 21
-893.1907530088682
 31
0.0
  0
LINE
  5
251
330
1F
100
AcDbEntity
  8
D-2_蓋
  6
Continuous
 62
     3
370
     9
100
AcDbLine
 10
-825.7607537346917
 20
-883.1442013302365
 30
0.0
 11
-790.7602671030404
 21
-890.6339573215794
 31
0.0
  0
LINE
  5
252
330
1F
100
AcDbEntity
  8
D-2_蓋
  6
Continuous
 62
     3
370
     9
100
AcDbLine
 10
-815.7607207427154
 20
-887.8407328837626
 30
0.0
 11
-790.7602671030404
 21
-912.8405679238808
 31
0.0
  0
LINE
  5
253
330
1F
100
AcDbEntity
  8
D-2_蓋
  6
Continuous
 62
     3
370
     9
100
AcDbLine
 10
-802.2663425754856
 20
-890.7286030537373
 30
0.0
 11
-790.7602671030404
 21
-902.2341217865815
 31
0.0
  0
LINE
  5
254
330
1F
100
AcDbEntity
  8
D-2_蓋
  6
Continuous
 62
     3
370
     9
100
AcDbLine
 10
-825.7607537346917
 20
-888.4474553288641
 30
0.0
 11
-796.728515625
 21
-917.4796934385557
 31
0.0
  0
LINE
  5
255
330
1F
100
AcDbEntity
  8
D-2_蓋
  6
Continuous
 62
     3
370
     9
100
AcDbLine
 10
-825.7607537346917
 20
-899.0539014661634
 30
0.0
 11
-810.2227700723182
 21
-914.591823268581
 31
0.0
  0
LINE
  5
256
330
1F
100
AcDbEntity
  8
D-2_蓋
  6
Continuous
 62
     3
370
     9
100
AcDbLine
 10
-825.7607537346917
 20
-909.6609043430637
 30
0.0
 11
-823.717148239548
 21
-911.7042623983846
 31
0.0
  0
LINE
  5
257
330
1F
100
AcDbEntity
  8
D-2_蓋
  6
Continuous
 62
     3
370
     9
100
AcDbLine
 10
-815.7607207427154
 20
-771.5958548880911
 30
0.0
 11
-790.7602671030404
 21
-796.5956899282094
 31
0.0
  0
LINE
  5
258
330
1F
100
AcDbEntity
  8
D-2_蓋
  6
Continuous
 62
     3
370
     9
100
AcDbLine
 10
-802.2663425754856
 20
-774.4836631981102
 30
0.0
 11
-790.7602671030404
 21
-785.9891819309543
 31
0.0
  0
LINE
  5
259
330
1F
100
AcDbEntity
  8
D-2_蓋
  6
Continuous
 62
     3
370
     9
100
AcDbLine
 10
-825.7607537346917
 20
-772.2025773331926
 30
0.0
 11
-796.728515625
 21
-801.2347535829286
 31
0.0
  0
LINE
  5
25A
330
1F
100
AcDbEntity
  8
D-2_蓋
  6
Continuous
 62
     3
370
     9
100
AcDbLine
 10
-825.7607537346917
 20
-782.8090234704919
 30
0.0
 11
-810.2227700723182
 21
-798.346697833087
 31
0.0
  0
LINE
  5
25B
330
1F
100
AcDbEntity
  8
D-2_蓋
  6
Continuous
 62
     3
370
     9
100
AcDbLine
 10
-825.7607537346917
 20
-793.4157789075697
 30
0.0
 11
-823.717148239548
 21
-795.4590751029349
 31
0.0
  0
LINE
  5
25C
330
1F
100
AcDbEntity
  8
D-2_蓋
  6
Continuous
 62
     3
370
     9
100
AcDbLine
 10
-798.2870153478675
 20
-829.1425632786105
 30
0.0
 11
-790.7602671030404
 21
-836.6684454840582
 31
0.0
  0
LINE
  5
25D
330
1F
100
AcDbEntity
  8
D-2_蓋
  6
Continuous
 62
     3
370
     9
100
AcDbLine
 10
-815.7607207427154
 20
-832.8818738782728
 30
0.0
 11
-794.7014885979729
 21
-853.9412297429266
 31
0.0
  0
LINE
  5
25E
330
1F
100
AcDbEntity
  8
D-2_蓋
  6
Continuous
 62
     3
370
     9
100
AcDbLine
 10
-807.0236206054688
 20
-831.0122185784417
 30
0.0
 11
-790.7602671030404
 21
-847.2752009211359
 31
0.0
  0
LINE
  5
25F
330
1F
100
AcDbEntity
  8
D-2_蓋
  6
Continuous
 62
     3
370
     9
100
AcDbLine
 10
-824.4976971600506
 20
-834.751529178104
 30
0.0
 11
-803.4380938555742
 21
-855.8108850427575
 31
0.0
  0
LINE
  5
260
330
1F
100
AcDbEntity
  8
D-2_蓋
  6
Continuous
 62
     3
370
     9
100
AcDbLine
 10
-825.7607537346917
 20
-844.0952899004963
 30
0.0
 11
-812.1751939928208
 21
-857.6805403425886
 31
0.0
  0
LINE
  5
261
330
1F
100
AcDbEntity
  8
D-2_蓋
  6
Continuous
 62
     3
370
     9
100
AcDbLine
 10
-825.7607537346917
 20
-854.702045337574
 30
0.0
 11
-820.9122941300675
 21
-859.5501956424198
 31
0.0
  0
LINE
  5
262
330
1F
100
AcDbEntity
  8
D-4_寸法
  6
Continuous
 62
     7
370
     9
100
AcDbLine
 10
-790.7602671030404
 20
-627.9901947846283
 30
0.0
 11
-790.7602671030404
 21
-595.6425104914484
 31
0.0
  0
LINE
  5
263
330
1F
100
AcDbEntity
  8
D-4_寸法
  6
Continuous
 62
     7
370
     9
100
AcDbLine
 10
-825.7607537346917
 20
-627.9901947846283
 30
0.0
 11
-825.7607537346917
 21
-595.6425104914484
 31
0.0
  0
LINE
  5
264
330
1F
100
AcDbEntity
  8
D-4_寸法
  6
Continuous
 62
     7
370
     9
100
AcDbLine
 10
-790.7602671030404
 20
-598.6425327610324
 30
0.0
 11
-765.974220069679
 21
-595.3793582400759
 31
0.0
  0
LINE
  5
265
330
1F
100
AcDbEntity
  8
D-4_寸法
  6
Continuous
 62
     7
370
     9
100
AcDbLine
 10
-790.7602671030404
 20
-598.6425327610324
 30
0.0
 11
-765.974220069679
 21
-601.905707281989
 31
0.0
  0
LINE
  5
266
330
1F
100
AcDbEntity
  8
D-4_寸法
  6
Continuous
 62
     7
370
     9
100
AcDbLine
 10
-825.7607537346917
 20
-598.6425327610324
 30
0.0
 11
-850.5468007680531
 21
-595.3793582400759
 31
0.0
  0
LINE
  5
267
330
1F
100
AcDbEntity
  8
D-4_寸法
  6
Continuous
 62
     7
370
     9
100
AcDbLine
 10
-825.7607537346917
 20
-598.6425327610324
 30
0.0
 11
-850.5468007680531
 21
-601.905707281989
 31
0.0
  0
LINE
  5
268
330
1F
100
AcDbEntity
  8
D-4_寸法
  6
Continuous
 62
     7
370
     9
100
AcDbLine
 10
-759.8180410024281
 20
-598.6425327610324
 30
0.0
 11
-851.2464368665541
 21
-598.6425327610324
 31
0.0
  0
LINE
  5
269
330
1F
100
AcDbEntity
  8
D-2_蓋
  6
Continuous
 62
     3
370
     9
100
AcDbLine
 10
-303.6755948453336
 20
-660.8779164907094
 30
0.0
 11
-318.676015493032
 21
-660.8779164907094
 31
0.0
  0
LINE
  5
26A
330
1F
100
AcDbEntity
  8
D-2_蓋
  6
Continuous
 62
     3
370
     9
100
AcDbLine
 10
-303.6755948453336
 20
-660.8779164907094
 30
0.0
 11
-298.675825789168
 21
-668.378064954603
 31
0.0
  0
LINE
  5
26B
330
1F
100
AcDbEntity
  8
D-2_蓋
  6
Continuous
 62
     3
370
     9
100
AcDbLine
 10
-384.2408876161318
 20
-660.8779164907094
 30
0.0
 11
-389.2406566722971
 21
-668.378064954603
 31
0.0
  0
LINE
  5
26C
330
1F
100
AcDbEntity
  8
D-2_蓋
  6
Continuous
 62
     3
370
     9
100
AcDbLine
 10
-354.2406649202914
 20
-660.8779164907094
 30
0.0
 11
-384.2408876161318
 21
-660.8779164907094
 31
0.0
  0
LINE
  5
26D
330
1F
100
AcDbEntity
  8
D-2_蓋
  6
Continuous
 62
     3
370
     9
100
AcDbLine
 10
-354.2406649202914
 20
-660.8779164907094
 30
0.0
 11
-349.2411433039484
 21
-668.378064954603
 31
0.0
  0
LINE
  5
26E
330
1F
100
AcDbEntity
  8
D-2_蓋
  6
Continuous
 62
     3
370
     9
100
AcDbLine
 10
-323.6757845491977
 20
-668.378064954603
 30
0.0
 11
-349.2411433039484
 21
-668.378064954603
 31
0.0
  0
LINE
  5
26F
330
1F
100
AcDbEntity
  8
D-2_蓋
  6
Continuous
 62
     3
370
     9
100
AcDbLine
 10
-318.676015493032
 20
-660.8779164907094
 30
0.0
 11
-323.6757845491977
 21
-668.378064954603
 31
0.0
  0
LINE
  5
270
330
1F
100
AcDbEntity
  8
D-2_蓋
  6
Continuous
 62
     3
370
     9
100
AcDbLine
 10
-419.8060319230362
 20
-660.8779164907094
 30
0.0
 11
-434.8058339711781
 21
-660.8779164907094
 31
0.0
  0
LINE
  5
271
330
1F
100
AcDbEntity
  8
D-2_蓋
  6
Continuous
 62
     3
370
     9
100
AcDbLine
 10
-419.8060319230362
 20
-660.8779164907094
 30
0.0
 11
-414.8057679872255
 21
-668.378064954603
 31
0.0
  0
LINE
  5
272
330
1F
100
AcDbEntity
  8
D-2_蓋
  6
Continuous
 62
     3
370
     9
100
AcDbLine
 10
-500.3703349345437
 20
-660.8779164907094
 30
0.0
 11
-505.3705988703547
 21
-668.378064954603
 31
0.0
  0
LINE
  5
273
330
1F
100
AcDbEntity
  8
D-2_蓋
  6
Continuous
 62
     3
370
     9
100
AcDbLine
 10
-470.3706071183487
 20
-660.8779164907094
 30
0.0
 11
-500.3703349345437
 21
-660.8779164907094
 31
0.0
  0
LINE
  5
274
330
1F
100
AcDbEntity
  8
D-2_蓋
  6
Continuous
 62
     3
370
     9
100
AcDbLine
 10
-470.3706071183487
 20
-660.8779164907094
 30
0.0
 11
-465.370343182538
 21
-668.378064954603
 31
0.0
  0
LINE
  5
275
330
1F
100
AcDbEntity
  8
D-2_蓋
  6
Continuous
 62
     3
370
     9
100
AcDbLine
 10
-439.8058504671664
 20
-668.378064954603
 30
0.0
 11
-465.370343182538
 21
-668.378064954603
 31
0.0
  0
LINE
  5
276
330
1F
100
AcDbEntity
  8
D-2_蓋
  6
Continuous
 62
     3
370
     9
100
AcDbLine
 10
-434.8058339711781
 20
-660.8779164907094
 30
0.0
 11
-439.8058504671664
 21
-668.378064954603
 31
0.0
  0
LINE
  5
277
330
1F
100
AcDbEntity
  8
D-2_蓋
  6
Continuous
 62
     3
370
     9
100
AcDbLine
 10
-414.8057679872255
 20
-668.378064954603
 30
0.0
 11
-389.2406566722971
 21
-668.378064954603
 31
0.0
  0
LINE
  5
278
330
1F
100
AcDbEntity
  8
D-2_蓋
  6
Continuous
 62
     3
370
     9
100
AcDbLine
 10
-535.9352318016258
 20
-660.8779164907094
 30
0.0
 11
-550.935528729413
 21
-660.8779164907094
 31
0.0
  0
LINE
  5
279
330
1F
100
AcDbEntity
  8
D-2_蓋
  6
Continuous
 62
     3
370
     9
100
AcDbLine
 10
-535.9352318016258
 20
-660.8779164907094
 30
0.0
 11
-530.9357101852828
 21
-668.378064954603
 31
0.0
  0
LINE
  5
27A
330
1F
100
AcDbEntity
  8
D-2_蓋
  6
Continuous
 62
     3
370
     9
100
AcDbLine
 10
-616.5007720122467
 20
-660.8779164907094
 30
0.0
 11
-621.500541068412
 21
-668.378064954603
 31
0.0
  0
LINE
  5
27B
330
1F
100
AcDbEntity
  8
D-2_蓋
  6
Continuous
 62
     3
370
     9
100
AcDbLine
 10
-586.5005493164062
 20
-660.8779164907094
 30
0.0
 11
-616.5007720122467
 21
-660.8779164907094
 31
0.0
  0
LINE
  5
27C
330
1F
100
AcDbEntity
  8
D-2_蓋
  6
Continuous
 62
     3
370
     9
100
AcDbLine
 10
-586.5005493164062
 20
-660.8779164907094
 30
0.0
 11
-581.5007802602406
 21
-668.378064954603
 31
0.0
  0
LINE
  5
27D
330
1F
100
AcDbEntity
  8
D-2_蓋
  6
Continuous
 62
     3
370
     9
100
AcDbLine
 10
-555.9352977855783
 20
-668.378064954603
 30
0.0
 11
-581.5007802602406
 21
-668.378064954603
 31
0.0
  0
LINE
  5
27E
330
1F
100
AcDbEntity
  8
D-2_蓋
  6
Continuous
 62
     3
370
     9
100
AcDbLine
 10
-550.935528729413
 20
-660.8779164907094
 30
0.0
 11
-555.9352977855783
 21
-668.378064954603
 31
0.0
  0
LINE
  5
27F
330
1F
100
AcDbEntity
  8
D-2_蓋
  6
Continuous
 62
     3
370
     9
100
AcDbLine
 10
-530.9357101852828
 20
-668.378064954603
 30
0.0
 11
-505.3705988703547
 21
-668.378064954603
 31
0.0
  0
LINE
  5
280
330
1F
100
AcDbEntity
  8
D-2_蓋
  6
Continuous
 62
     3
370
     9
100
AcDbLine
 10
-652.0651739996833
 20
-660.8779164907094
 30
0.0
 11
-667.0655946473818
 21
-660.8779164907094
 31
0.0
  0
LINE
  5
281
330
1F
100
AcDbEntity
  8
D-2_蓋
  6
Continuous
 62
     3
370
     9
100
AcDbLine
 10
-652.0651739996833
 20
-660.8779164907094
 30
0.0
 11
-647.0654049435177
 21
-668.378064954603
 31
0.0
  0
LINE
  5
282
330
1F
100
AcDbEntity
  8
D-2_蓋
  6
Continuous
 62
     3
370
     9
100
AcDbLine
 10
-667.0655946473818
 20
-660.8779164907094
 30
0.0
 11
-672.0658585831925
 21
-668.378064954603
 31
0.0
  0
LINE
  5
283
330
1F
100
AcDbEntity
  8
D-2_蓋
  6
Continuous
 62
     3
370
     9
100
AcDbLine
 10
-647.0654049435177
 20
-668.378064954603
 30
0.0
 11
-621.500541068412
 21
-668.378064954603
 31
0.0
  0
LINE
  5
284
330
1F
100
AcDbEntity
  8
D-2_蓋
  6
Continuous
 62
     3
370
     9
100
AcDbLine
 10
-672.0658585831925
 20
-668.378064954603
 30
0.0
 11
-689.4738687051307
 21
-668.378064954603
 31
0.0
  0
LINE
  5
285
330
1F
100
AcDbEntity
  8
D-2_蓋
  6
Continuous
 62
     3
370
     9
100
AcDbLine
 10
-159.6814542203336
 20
-715.878159806535
 30
0.0
 11
-167.1814789643159
 21
-708.3781969225084
 31
0.0
  0
LINE
  5
286
330
1F
100
AcDbEntity
  8
D-2_蓋
  6
Continuous
 62
     3
370
     9
100
AcDbLine
 10
-139.6813882363807
 20
-715.878159806535
 30
0.0
 11
-132.1818583720437
 21
-708.3781969225084
 31
0.0
  0
LINE
  5
287
330
1F
100
AcDbEntity
  8
D-2_蓋
  6
Continuous
 62
     3
370
     9
100
AcDbLine
 10
-167.1814789643159
 20
-918.3782092944995
 30
0.0
 11
-167.1814789643159
 21
-878.3782629064613
 31
0.0
  0
LINE
  5
288
330
1F
100
AcDbEntity
  8
D-2_蓋
  6
Continuous
 62
     3
370
     9
100
AcDbLine
 10
-167.1814789643159
 20
-878.3782629064613
 30
0.0
 11
-159.6814542203336
 21
-870.8783618823901
 31
0.0
  0
LINE
  5
289
330
1F
100
AcDbEntity
  8
D-2_蓋
  6
Continuous
 62
     3
370
     9
100
AcDbLine
 10
-159.6814542203336
 20
-715.878159806535
 30
0.0
 11
-159.6814542203336
 21
-870.8783618823901
 31
0.0
  0
LINE
  5
28A
330
1F
100
AcDbEntity
  8
D-2_蓋
  6
Continuous
 62
     3
370
     9
100
AcDbLine
 10
-139.6813882363807
 20
-715.878159806535
 30
0.0
 11
-139.6813882363807
 21
-870.8783618823901
 31
0.0
  0
LINE
  5
28B
330
1F
100
AcDbEntity
  8
D-2_蓋
  6
Continuous
 62
     3
370
     9
100
AcDbLine
 10
-139.6813882363807
 20
-870.8783618823901
 30
0.0
 11
-132.1818583720437
 21
-878.3782629064613
 31
0.0
  0
LINE
  5
28C
330
1F
100
AcDbEntity
  8
D-2_蓋
  6
Continuous
 62
     3
370
     9
100
AcDbLine
 10
-132.1818583720437
 20
-878.3782629064613
 30
0.0
 11
-132.1818583720437
 21
-918.3782092944995
 31
0.0
  0
LINE
  5
28D
330
1F
100
AcDbEntity
  8
D-2_蓋
  6
Continuous
 62
     3
370
     9
100
AcDbLine
 10
-292.9593472867398
 20
-878.3782629064613
 30
0.0
 11
-689.4738687051307
 21
-878.3782629064613
 31
0.0
  0
LINE
  5
28E
330
1F
100
AcDbEntity
  8
D-2_蓋
  6
Continuous
 62
     3
370
     9
100
AcDbLine
 10
-292.9593472867398
 20
-870.8783618823901
 30
0.0
 11
-689.4738687051307
 21
-870.8783618823901
 31
0.0
  0
LINE
  5
28F
330
1F
100
AcDbEntity
  8
D-2_蓋
  6
Continuous
 62
     3
370
     9
100
AcDbLine
 10
-292.9593472867398
 20
-708.3779494826858
 30
0.0
 11
-689.4738687051307
 21
-708.3779494826858
 31
0.0
  0
LINE
  5
290
330
1F
100
AcDbEntity
  8
D-2_蓋
  6
Continuous
 62
     3
370
     9
100
AcDbLine
 10
-292.9593472867398
 20
-715.8778505067568
 30
0.0
 11
-689.4738687051307
 21
-715.8778505067568
 31
0.0
  0
LINE
  5
291
330
1F
100
AcDbEntity
  8
D-4_寸法
  6
Continuous
 62
     7
370
     9
100
AcDbLine
 10
-728.3981323242188
 20
-615.7666675464526
 30
0.0
 11
-795.9441313872467
 21
-700.0456608952702
 31
0.0
  0
LINE
  5
292
330
1F
100
AcDbEntity
  8
D-4_寸法
  6
Continuous
 62
     7
370
     9
100
AcDbLine
 10
-795.9441313872467
 20
-700.0456608952702
 30
0.0
 11
-782.9896669130068
 21
-678.663705361856
 31
0.0
  0
LINE
  5
293
330
1F
100
AcDbEntity
  8
D-4_寸法
  6
Continuous
 62
     7
370
     9
100
AcDbLine
 10
-795.9441313872467
 20
-700.0456608952702
 30
0.0
 11
-777.8969842034417
 21
-682.7454108160895
 31
0.0
  0
LINE
  5
294
330
1F
100
AcDbEntity
  8
D-4_寸法
  6
Continuous
 62
     7
370
     9
100
AcDbLine
 10
-916.2162162162161
 20
-993.3782711544552
 30
0.0
 11
-916.2162162162161
 21
-1063.378378378378
 31
0.0
  0
LINE
  5
295
330
1F
100
AcDbEntity
  8
D-4_寸法
  6
Continuous
 62
     7
370
     9
100
AcDbLine
 10
-66.21613373627525
 20
-993.3782711544552
 30
0.0
 11
-916.2162162162161
 21
-993.3782711544552
 31
0.0
  0
LINE
  5
296
330
1F
100
AcDbEntity
  8
D-4_寸法
  6
Continuous
 62
     7
370
     9
100
AcDbLine
 10
-66.21613373627525
 20
-993.3782711544552
 30
0.0
 11
-66.21613373627525
 21
-1063.378378378378
 31
0.0
  0
LINE
  5
297
330
1F
100
AcDbEntity
  8
D-4_寸法
  6
Continuous
 62
     7
370
     9
100
AcDbLine
 10
-66.21613373627525
 20
-1063.378378378378
 30
0.0
 11
-916.2162162162161
 21
-1063.378378378378
 31
0.0
  0
LINE
  5
298
330
1F
100
AcDbEntity
  8
D-4_寸法
  6
Continuous
 62
     7
370
     9
100
AcDbLine
 10
-91.16722313133437
 20
-836.4923301902977
 30
0.0
 11
-199.9244483741552
 21
-836.4923301902977
 31
0.0
  0
LINE
  5
299
330
1F
100
AcDbEntity
  8
D-2_蓋
  6
Continuous
 62
     3
370
     9
100
AcDbLine
 10
-825.7607537346917
 20
-858.9816407899599
 30
0.0
 11
-824.4375692831502
 21
-860.3045159417229
 31
0.0
  0
LINE
  5
29A
330
1F
100
AcDbEntity
  8
A-1_ピット
  6
Continuous
 62
     2
370
     9
100
AcDbLine
 10
1219.177081133868
 20
864.4156296188769
 30
0.0
 11
1219.177081133868
 21
871.4154547614021
 31
0.0
  0
LINE
  5
29B
330
1F
100
AcDbEntity
  8
A-1_ピット
  6
Continuous
 62
     2
370
     9
100
AcDbLine
 10
1324.177180109798
 20
751.415801177154
 30
0.0
 11
1331.177005252323
 21
751.415801177154
 31
0.0
  0
LINE
  5
29C
330
1F
100
AcDbEntity
  8
A-1_ピット
  6
Continuous
 62
     2
370
     9
100
AcDbLine
 10
1319.177163613809
 20
851.4156362172721
 30
0.0
 11
1319.177163613809
 21
756.4155702333193
 31
0.0
  0
LINE
  5
29D
330
1F
100
AcDbEntity
  8
A-1_ピット
  6
Continuous
 62
     2
370
     9
100
AcDbLine
 10
1311.177186708193
 20
859.4156131228885
 30
0.0
 11
1224.177097629857
 21
859.4156131228885
 31
0.0
  0
LINE
  5
29E
330
1F
100
AcDbEntity
  8
A-1_ピット
  6
Continuous
 62
     2
370
     9
100
AcDbLine
 10
1331.177005252323
 20
871.4154547614021
 30
0.0
 11
1219.177081133868
 21
871.4154547614021
 31
0.0
  0
LINE
  5
29F
330
1F
100
AcDbEntity
  8
A-1_ピット
  6
Continuous
 62
     2
370
     9
100
AcDbLine
 10
1331.177005252323
 20
871.4154547614021
 30
0.0
 11
1331.177005252323
 21
751.415801177154
 31
0.0
  0
LINE
  5
2A0
330
1F
100
AcDbEntity
  8
A-1_ピット
  6
Continuous
 62
     2
370
     9
100
AcDbLine
 10
1281.177087732264
 20
871.4154547614021
 30
0.0
 11
1281.177087732264
 21
889.4157120988177
 31
0.0
  0
LINE
  5
2A1
330
1F
100
AcDbEntity
  8
A-1_ピット
  6
Continuous
 62
     2
370
     9
100
AcDbLine
 10
1308.807208086993
 20
871.4154547614021
 30
0.0
 11
1281.177087732264
 21
871.4154547614021
 31
0.0
  0
LINE
  5
2A2
330
1F
100
AcDbEntity
  8
A-1_ピット
  6
Continuous
 62
     2
370
     9
100
AcDbLine
 10
1308.807455526816
 20
889.4157120988177
 30
0.0
 11
1281.177087732264
 21
889.4157120988177
 31
0.0
  0
LINE
  5
2A3
330
1F
100
AcDbEntity
  8
A-1_ピット
  6
Continuous
 62
     2
370
     9
100
AcDbLine
 10
1318.124802048142
 20
872.6422614020271
 30
0.0
 11
1434.506390545819
 21
903.826607369088
 31
0.0
  0
LINE
  5
2A4
330
1F
100
AcDbEntity
  8
A-1_ピット
  6
Continuous
 62
     2
370
     9
100
AcDbLine
 10
1313.466252507391
 20
890.0288679793075
 30
0.0
 11
1429.847593565245
 21
921.2132139463686
 31
0.0
  0
LINE
  5
2A5
330
1F
100
AcDbEntity
  8
A-1_ピット
  6
JWW_CENTER2
 62
     2
370
     9
100
AcDbLine
 10
1308.807208086993
 20
880.4155834301099
 30
0.0
 11
1273.567323426943
 21
880.4155834301099
 31
0.0
  0
LINE
  5
2A6
330
1F
100
AcDbEntity
  8
A-1_ピット
  6
JWW_CENTER2
 62
     2
370
     9
100
AcDbLine
 10
1315.795156118032
 20
881.3355646906675
 30
0.0
 11
1446.128639014992
 21
916.2582314980998
 31
0.0
  0
LINE
  5
2A7
330
1F
100
AcDbEntity
  8
A-2_蓋
  6
Continuous
 62
     3
370
     9
100
AcDbLine
 10
1307.177074535473
 20
851.4156362172721
 30
0.0
 11
1307.177074535473
 21
842.415754988387
 31
0.0
  0
LINE
  5
2A8
330
1F
100
AcDbEntity
  8
A-2_蓋
  6
Continuous
 62
     3
370
     9
100
AcDbLine
 10
1241.804463154561
 20
751.4155537373313
 30
0.0
 11
1230.490772144215
 21
740.1018627269849
 31
0.0
  0
LINE
  5
2A9
330
1F
100
AcDbEntity
  8
A-2_蓋
  6
Continuous
 62
     3
370
     9
100
AcDbLine
 10
1230.490772144215
 20
740.1018627269849
 30
0.0
 11
1219.177081133868
 21
751.4155537373313
 31
0.0
  0
LINE
  5
2AA
330
1F
100
AcDbEntity
  8
A-2_蓋
  6
Continuous
 62
     3
370
     9
100
AcDbLine
 10
1219.177081133868
 20
751.4155537373313
 30
0.0
 11
1230.490772144215
 21
762.7292447476776
 31
0.0
  0
LINE
  5
2AB
330
1F
100
AcDbEntity
  8
A-2_蓋
  6
Continuous
 62
     3
370
     9
100
AcDbLine
 10
1230.490772144215
 20
762.7292447476776
 30
0.0
 11
1241.804463154561
 21
751.4155537373313
 31
0.0
  0
LINE
  5
2AC
330
1F
100
AcDbEntity
  8
A-A
  6
Continuous
 62
     3
370
     9
100
AcDbLine
 10
1216.176873284417
 20
838.1293549408783
 30
0.0
 11
1216.176873284417
 21
832.1291866817992
 31
0.0
  0
LINE
  5
2AD
330
1F
100
AcDbEntity
  8
A-A
  6
Continuous
 62
     3
370
     9
100
AcDbLine
 10
1216.176873284417
 20
838.1293549408783
 30
0.0
 11
1219.177081133868
 21
840.1291635874156
 31
0.0
  0
LINE
  5
2AE
330
1F
100
AcDbEntity
  8
A-A
  6
Continuous
 62
     3
370
     9
100
AcDbLine
 10
1216.176873284417
 20
805.9032873205238
 30
0.0
 11
1219.177081133868
 21
803.9032312341641
 31
0.0
  0
LINE
  5
2AF
330
1F
100
AcDbEntity
  8
A-A
  6
Continuous
 62
     3
370
     9
100
AcDbLine
 10
1216.176873284417
 20
817.9031289590373
 30
0.0
 11
1216.176873284417
 21
805.9032873205238
 31
0.0
  0
LINE
  5
2B0
330
1F
100
AcDbEntity
  8
A-A
  6
Continuous
 62
     3
370
     9
100
AcDbLine
 10
1216.176873284417
 20
817.9031289590373
 30
0.0
 11
1219.177081133868
 21
819.9031850453971
 31
0.0
  0
LINE
  5
2B1
330
1F
100
AcDbEntity
  8
A-A
  6
Continuous
 62
     3
370
     9
100
AcDbLine
 10
1219.177081133868
 20
830.129378035262
 30
0.0
 11
1219.177081133868
 21
819.9031850453971
 31
0.0
  0
LINE
  5
2B2
330
1F
100
AcDbEntity
  8
A-A
  6
Continuous
 62
     3
370
     9
100
AcDbLine
 10
1216.176873284417
 20
832.1291866817992
 30
0.0
 11
1219.177081133868
 21
830.129378035262
 31
0.0
  0
LINE
  5
2B3
330
1F
100
AcDbEntity
  8
A-A
  6
Continuous
 62
     3
370
     9
100
AcDbLine
 10
1216.176873284417
 20
791.6774770375846
 30
0.0
 11
1216.176873284417
 21
785.6773087785052
 31
0.0
  0
LINE
  5
2B4
330
1F
100
AcDbEntity
  8
A-A
  6
Continuous
 62
     3
370
     9
100
AcDbLine
 10
1216.176873284417
 20
791.6774770375846
 30
0.0
 11
1219.177081133868
 21
793.6772856841217
 31
0.0
  0
LINE
  5
2B5
330
1F
100
AcDbEntity
  8
A-A
  6
Continuous
 62
     3
370
     9
100
AcDbLine
 10
1216.176873284417
 20
759.4511619774073
 30
0.0
 11
1219.177081133868
 21
757.45135333087
 31
0.0
  0
LINE
  5
2B6
330
1F
100
AcDbEntity
  8
A-A
  6
Continuous
 62
     3
370
     9
100
AcDbLine
 10
1216.176873284417
 20
771.4512510557432
 30
0.0
 11
1216.176873284417
 21
759.4511619774073
 31
0.0
  0
LINE
  5
2B7
330
1F
100
AcDbEntity
  8
A-A
  6
Continuous
 62
     3
370
     9
100
AcDbLine
 10
1216.176873284417
 20
771.4512510557432
 30
0.0
 11
1219.177081133868
 21
773.4513071421031
 31
0.0
  0
LINE
  5
2B8
330
1F
100
AcDbEntity
  8
A-A
  6
Continuous
 62
     3
370
     9
100
AcDbLine
 10
1219.177081133868
 20
783.6772526921453
 30
0.0
 11
1219.177081133868
 21
773.4513071421031
 31
0.0
  0
LINE
  5
2B9
330
1F
100
AcDbEntity
  8
A-A
  6
Continuous
 62
     3
370
     9
100
AcDbLine
 10
1216.176873284417
 20
785.6773087785052
 30
0.0
 11
1219.177081133868
 21
783.6772526921453
 31
0.0
  0
LINE
  5
2BA
330
1F
100
AcDbEntity
  8
A-A
  6
Continuous
 62
     3
370
     9
100
AcDbLine
 10
1219.177081133868
 20
793.6772856841217
 30
0.0
 11
1219.177081133868
 21
803.9032312341641
 31
0.0
  0
LINE
  5
2BB
330
1F
100
AcDbEntity
  8
A-A
  6
Continuous
 62
     3
370
     9
100
AcDbLine
 10
1216.176873284417
 20
745.2253516944679
 30
0.0
 11
1216.176873284417
 21
739.2251834353885
 31
0.0
  0
LINE
  5
2BC
330
1F
100
AcDbEntity
  8
A-A
  6
Continuous
 62
     3
370
     9
100
AcDbLine
 10
1216.176873284417
 20
745.2253516944679
 30
0.0
 11
1219.177081133868
 21
747.2254077808279
 31
0.0
  0
LINE
  5
2BD
330
1F
100
AcDbEntity
  8
A-A
  6
Continuous
 62
     3
370
     9
100
AcDbLine
 10
1216.176873284417
 20
712.9992840741133
 30
0.0
 11
1219.177081133868
 21
710.9992279877533
 31
0.0
  0
LINE
  5
2BE
330
1F
100
AcDbEntity
  8
A-A
  6
Continuous
 62
     3
370
     9
100
AcDbLine
 10
1216.176873284417
 20
724.9991257126269
 30
0.0
 11
1216.176873284417
 21
712.9992840741133
 31
0.0
  0
LINE
  5
2BF
330
1F
100
AcDbEntity
  8
A-A
  6
Continuous
 62
     3
370
     9
100
AcDbLine
 10
1216.176873284417
 20
724.9991257126269
 30
0.0
 11
1219.177081133868
 21
726.9991817989867
 31
0.0
  0
LINE
  5
2C0
330
1F
100
AcDbEntity
  8
A-A
  6
Continuous
 62
     3
370
     9
100
AcDbLine
 10
1219.177081133868
 20
737.2253747888516
 30
0.0
 11
1219.177081133868
 21
726.9991817989867
 31
0.0
  0
LINE
  5
2C1
330
1F
100
AcDbEntity
  8
A-A
  6
Continuous
 62
     3
370
     9
100
AcDbLine
 10
1216.176873284417
 20
739.2251834353885
 30
0.0
 11
1219.177081133868
 21
737.2253747888516
 31
0.0
  0
LINE
  5
2C2
330
1F
100
AcDbEntity
  8
A-A
  6
Continuous
 62
     3
370
     9
100
AcDbLine
 10
1219.177081133868
 20
747.2254077808279
 30
0.0
 11
1219.177081133868
 21
757.45135333087
 31
0.0
  0
LINE
  5
2C3
330
1F
100
AcDbEntity
  8
A-A
  6
Continuous
 62
     3
370
     9
100
AcDbLine
 10
1216.176873284417
 20
698.7732263513516
 30
0.0
 11
1216.176873284417
 21
692.7733055320948
 31
0.0
  0
LINE
  5
2C4
330
1F
100
AcDbEntity
  8
A-A
  6
Continuous
 62
     3
370
     9
100
AcDbLine
 10
1216.176873284417
 20
698.7732263513516
 30
0.0
 11
1219.177081133868
 21
700.7732824377113
 31
0.0
  0
LINE
  5
2C5
330
1F
100
AcDbEntity
  8
A-A
  6
Continuous
 62
     3
370
     9
100
AcDbLine
 10
1216.176873284417
 20
692.7733055320948
 30
0.0
 11
1219.177081133868
 21
690.7732494457349
 31
0.0
  0
LINE
  5
2C6
330
1F
100
AcDbEntity
  8
A-A
  6
Continuous
 62
     3
370
     9
100
AcDbLine
 10
1219.177081133868
 20
700.7732824377113
 30
0.0
 11
1219.177081133868
 21
710.9992279877533
 31
0.0
  0
LINE
  5
2C7
330
1F
100
AcDbEntity
  8
A-A
  6
Continuous
 62
     3
370
     9
100
AcDbLine
 10
1219.177081133868
 20
851.4156362172721
 30
0.0
 11
1219.177081133868
 21
840.1291635874156
 31
0.0
  0
LINE
  5
2C8
330
1F
100
AcDbEntity
  8
A-2_蓋
  6
Continuous
 62
     3
370
     9
100
AcDbLine
 10
1219.177081133868
 20
851.4156362172721
 30
0.0
 11
1307.177074535473
 21
851.4156362172721
 31
0.0
  0
LINE
  5
2C9
330
1F
100
AcDbEntity
  8
A-A
  6
Continuous
 62
     3
370
     9
100
AcDbLine
 10
1216.176873284417
 20
666.5471587309967
 30
0.0
 11
1219.177081133868
 21
664.547102644637
 31
0.0
  0
LINE
  5
2CA
330
1F
100
AcDbEntity
  8
A-A
  6
Continuous
 62
     3
370
     9
100
AcDbLine
 10
1216.176873284417
 20
678.5470003695102
 30
0.0
 11
1216.176873284417
 21
666.5471587309967
 31
0.0
  0
LINE
  5
2CB
330
1F
100
AcDbEntity
  8
A-A
  6
Continuous
 62
     3
370
     9
100
AcDbLine
 10
1216.176873284417
 20
678.5470003695102
 30
0.0
 11
1219.177081133868
 21
680.54705645587
 31
0.0
  0
LINE
  5
2CC
330
1F
100
AcDbEntity
  8
A-A
  6
Continuous
 62
     3
370
     9
100
AcDbLine
 10
1219.177081133868
 20
690.7732494457349
 30
0.0
 11
1219.177081133868
 21
680.54705645587
 31
0.0
  0
LINE
  5
2CD
330
1F
100
AcDbEntity
  8
A-A
  6
Continuous
 62
     3
370
     9
100
AcDbLine
 10
1216.176873284417
 20
652.3211010082349
 30
0.0
 11
1216.176873284417
 21
646.3211801889781
 31
0.0
  0
LINE
  5
2CE
330
1F
100
AcDbEntity
  8
A-A
  6
Continuous
 62
     3
370
     9
100
AcDbLine
 10
1216.176873284417
 20
652.3211010082349
 30
0.0
 11
1219.177081133868
 21
654.3211570945948
 31
0.0
  0
LINE
  5
2CF
330
1F
100
AcDbEntity
  8
A-A
  6
Continuous
 62
     3
370
     9
100
AcDbLine
 10
1216.176873284417
 20
646.3211801889781
 30
0.0
 11
1219.177081133868
 21
644.3211241026182
 31
0.0
  0
LINE
  5
2D0
330
1F
100
AcDbEntity
  8
A-A
  6
Continuous
 62
     3
370
     9
100
AcDbLine
 10
1219.177081133868
 20
654.3211570945948
 30
0.0
 11
1219.177081133868
 21
664.547102644637
 31
0.0
  0
LINE
  5
2D1
330
1F
100
AcDbEntity
  8
A-A
  6
Continuous
 62
     3
370
     9
100
AcDbLine
 10
1216.176873284417
 20
632.0948750263938
 30
0.0
 11
1216.176873284417
 21
620.0950333878802
 31
0.0
  0
LINE
  5
2D2
330
1F
100
AcDbEntity
  8
A-A
  6
Continuous
 62
     3
370
     9
100
AcDbLine
 10
1216.176873284417
 20
632.0948750263938
 30
0.0
 11
1219.177081133868
 21
634.095178552576
 31
0.0
  0
LINE
  5
2D3
330
1F
100
AcDbEntity
  8
A-A
  6
Continuous
 62
     3
370
     9
100
AcDbLine
 10
1219.177081133868
 20
644.3211241026182
 30
0.0
 11
1219.177081133868
 21
634.095178552576
 31
0.0
  0
LINE
  5
2D4
330
1F
100
AcDbEntity
  8
A-2_蓋
  6
Continuous
 62
     3
370
     9
100
AcDbLine
 10
1319.176916173986
 20
842.415754988387
 30
0.0
 11
1319.176916173986
 21
622.3484678526182
 31
0.0
  0
LINE
  5
2D5
330
1F
100
AcDbEntity
  8
A-2_蓋
  6
Continuous
 62
     3
370
     9
100
AcDbLine
 10
1300.177001953125
 20
842.415754988387
 30
0.0
 11
1300.177001953125
 21
840.8019524651606
 31
0.0
  0
LINE
  5
2D6
330
1F
100
AcDbEntity
  8
A-2_蓋
  6
Continuous
 62
     3
370
     9
100
AcDbLine
 10
1303.176962362754
 20
842.415754988387
 30
0.0
 11
1303.176962362754
 21
840.6364152238177
 31
0.0
  0
LINE
  5
2D7
330
1F
100
AcDbEntity
  8
A-2_蓋
  6
Continuous
 62
     3
370
     9
100
AcDbLine
 10
1300.177001953125
 20
834.9933026288008
 30
0.0
 11
1300.177001953125
 21
814.2155332823061
 31
0.0
  0
LINE
  5
2D8
330
1F
100
AcDbEntity
  8
A-2_蓋
  6
Continuous
 62
     3
370
     9
100
AcDbLine
 10
1300.177001953125
 20
808.415791279561
 30
0.0
 11
1300.177001953125
 21
622.3484678526182
 31
0.0
  0
LINE
  5
2D9
330
1F
100
AcDbEntity
  8
A-2_蓋
  6
Continuous
 62
     3
370
     9
100
AcDbLine
 10
1303.176962362754
 20
834.8277653874578
 30
0.0
 11
1303.176962362754
 21
814.2155332823061
 31
0.0
  0
LINE
  5
2DA
330
1F
100
AcDbEntity
  8
A-2_蓋
  6
Continuous
 62
     3
370
     9
100
AcDbLine
 10
1303.176962362754
 20
808.415791279561
 30
0.0
 11
1303.176962362754
 21
622.3484678526182
 31
0.0
  0
LINE
  5
2DB
330
1F
100
AcDbEntity
  8
A-2_蓋
  6
Continuous
 62
     3
370
     9
100
AcDbLine
 10
1219.177081133868
 20
842.415754988387
 30
0.0
 11
1307.177074535473
 21
842.415754988387
 31
0.0
  0
LINE
  5
2DC
330
1F
100
AcDbEntity
  8
A-2_蓋
  6
Continuous
 62
     3
370
     9
100
AcDbLine
 10
1312.977311417864
 20
842.415754988387
 30
0.0
 11
1319.176916173986
 21
842.415754988387
 31
0.0
  0
LINE
  5
2DD
330
1F
100
AcDbEntity
  8
A-3_受枠
  6
Continuous
 62
     4
370
     9
100
AcDbLine
 10
1245.076112489443
 20
-150.8211785393792
 30
0.0
 11
1245.724652264569
 21
-156.5850417678419
 31
0.0
  0
LINE
  5
2DE
330
1F
100
AcDbEntity
  8
A-3_受枠
  6
Continuous
 62
     4
370
     9
100
AcDbLine
 10
1265.138780748522
 20
-154.4001481339737
 30
0.0
 11
1245.724652264569
 21
-156.5850417678419
 31
0.0
  0
LINE
  5
2DF
330
1F
100
AcDbEntity
  8
A-3_受枠
  6
Continuous
 62
     4
370
     9
100
AcDbLine
 10
1264.950726483319
 20
-148.5848174224029
 30
0.0
 11
1245.076112489443
 21
-150.8211785393792
 31
0.0
  0
LINE
  5
2E0
330
1F
100
AcDbEntity
  8
A-3_受枠
  6
Continuous
 62
     4
370
     9
100
AcDbLine
 10
1306.129661766259
 20
-150.5353855442357
 30
0.0
 11
1264.950726483319
 21
-148.5848174224029
 31
0.0
  0
LINE
  5
2E1
330
1F
100
AcDbEntity
  8
A-3_受枠
  6
Continuous
 62
     4
370
     9
100
AcDbLine
 10
1305.855498442779
 20
-156.3286941115919
 30
0.0
 11
1265.138780748522
 21
-154.4001481339737
 31
0.0
  0
LINE
  5
2E2
330
1F
100
AcDbEntity
  8
A-3_受枠
  6
Continuous
 62
     4
370
     9
100
AcDbLine
 10
1312.977311417864
 20
-138.6416955896325
 30
0.0
 11
1312.977311417864
 21
-149.5364709802575
 31
0.0
  0
LINE
  5
2E3
330
1F
100
AcDbEntity
  8
A-3_受枠
  6
Continuous
 62
     4
370
     9
100
AcDbLine
 10
1251.777030326225
 20
-111.3847144874364
 30
0.0
 11
1310.077069256757
 21
-111.3847144874364
 31
0.0
  0
LINE
  5
2E4
330
1F
100
AcDbEntity
  8
A-3_受枠
  6
Continuous
 62
     4
370
     9
100
AcDbLine
 10
1251.777030326225
 20
-105.5849724846917
 30
0.0
 11
1310.077069256757
 21
-105.5849724846917
 31
0.0
  0
LINE
  5
2E5
330
1F
100
AcDbEntity
  8
A-3_受枠
  6
Continuous
 62
     4
370
     9
100
AcDbLine
 10
1244.977136560389
 20
-123.2363396721917
 30
0.0
 11
1244.977136560389
 21
-112.3848662505279
 31
0.0
  0
LINE
  5
2E6
330
1F
100
AcDbEntity
  8
A-3_受枠
  6
Continuous
 62
     4
370
     9
100
AcDbLine
 10
1250.777126002956
 20
-123.2363396721917
 30
0.0
 11
1250.777126002956
 21
-112.3848662505279
 31
0.0
  0
LINE
  5
2E7
330
1F
100
AcDbEntity
  8
A-3_受枠
  6
Continuous
 62
     4
370
     9
100
AcDbLine
 10
1251.357867266681
 20
-124.1441963814398
 30
0.0
 11
1272.068332981419
 21
-133.7141789616766
 31
0.0
  0
LINE
  5
2E8
330
1F
100
AcDbEntity
  8
A-3_受枠
  6
Continuous
 62
     4
370
     9
100
AcDbLine
 10
1305.802546320735
 20
-131.8519468565245
 30
0.0
 11
1272.068332981419
 21
-133.7141789616766
 31
0.0
  0
LINE
  5
2E9
330
1F
100
AcDbEntity
  8
A-3_受枠
  6
Continuous
 62
     4
370
     9
100
AcDbLine
 10
1248.924791490709
 20
-129.4089734876476
 30
0.0
 11
1270.946193385769
 21
-139.5849361935177
 31
0.0
  0
LINE
  5
2EA
330
1F
100
AcDbEntity
  8
A-3_受枠
  6
Continuous
 62
     4
370
     9
100
AcDbLine
 10
1306.121991131757
 20
-137.6430284654771
 30
0.0
 11
1270.946193385769
 21
-139.5849361935177
 31
0.0
  0
LINE
  5
2EB
330
1F
100
AcDbEntity
  8
A-3_受枠
  6
Continuous
 62
     4
370
     9
100
AcDbLine
 10
1307.177321975296
 20
-149.5364709802575
 30
0.0
 11
1307.177321975296
 21
-138.6416955896325
 31
0.0
  0
LINE
  5
2EC
330
1F
100
AcDbEntity
  8
A-1_ピット
  6
Continuous
 62
     2
370
     9
100
AcDbLine
 10
1219.177081133868
 20
-161.5848108240075
 30
0.0
 11
1219.177081133868
 21
-168.5846359665328
 31
0.0
  0
LINE
  5
2ED
330
1F
100
AcDbEntity
  8
A-1_ピット
  6
Continuous
 62
     2
370
     9
100
AcDbLine
 10
1324.177180109798
 20
-48.58498238228464
 30
0.0
 11
1331.177005252323
 21
-48.58498238228464
 31
0.0
  0
LINE
  5
2EE
330
1F
100
AcDbEntity
  8
A-1_ピット
  6
Continuous
 62
     2
370
     9
100
AcDbLine
 10
1319.177163613809
 20
-148.5848174224029
 30
0.0
 11
1319.177163613809
 21
-53.58475143844998
 31
0.0
  0
LINE
  5
2EF
330
1F
100
AcDbEntity
  8
A-1_ピット
  6
Continuous
 62
     2
370
     9
100
AcDbLine
 10
1311.177186708193
 20
-156.5847943280193
 30
0.0
 11
1224.177097629857
 21
-156.5847943280193
 31
0.0
  0
LINE
  5
2F0
330
1F
100
AcDbEntity
  8
A-1_ピット
  6
Continuous
 62
     2
370
     9
100
AcDbLine
 10
1331.177005252323
 20
-168.5846359665328
 30
0.0
 11
1219.177081133868
 21
-168.5846359665328
 31
0.0
  0
LINE
  5
2F1
330
1F
100
AcDbEntity
  8
A-1_ピット
  6
Continuous
 62
     2
370
     9
100
AcDbLine
 10
1331.177005252323
 20
-168.5846359665328
 30
0.0
 11
1331.177005252323
 21
-48.58498238228464
 31
0.0
  0
LINE
  5
2F2
330
1F
100
AcDbEntity
  8
A-1_ピット
  6
Continuous
 62
     2
370
     9
100
AcDbLine
 10
1281.177087732264
 20
-168.5846359665328
 30
0.0
 11
1281.177087732264
 21
-186.5848933039484
 31
0.0
  0
LINE
  5
2F3
330
1F
100
AcDbEntity
  8
A-1_ピット
  6
Continuous
 62
     2
370
     9
100
AcDbLine
 10
1308.807208086993
 20
-168.5846359665328
 30
0.0
 11
1281.177087732264
 21
-168.5846359665328
 31
0.0
  0
LINE
  5
2F4
330
1F
100
AcDbEntity
  8
A-1_ピット
  6
Continuous
 62
     2
370
     9
100
AcDbLine
 10
1308.807455526816
 20
-186.5848933039484
 30
0.0
 11
1281.177087732264
 21
-186.5848933039484
 31
0.0
  0
LINE
  5
2F5
330
1F
100
AcDbEntity
  8
A-1_ピット
  6
Continuous
 62
     2
370
     9
100
AcDbLine
 10
1318.124802048142
 20
-169.8114426071578
 30
0.0
 11
1434.506390545819
 21
-200.9957885742188
 31
0.0
  0
LINE
  5
2F6
330
1F
100
AcDbEntity
  8
A-1_ピット
  6
Continuous
 62
     2
370
     9
100
AcDbLine
 10
1313.466252507391
 20
-187.1980491844383
 30
0.0
 11
1429.847593565245
 21
-218.3823951514991
 31
0.0
  0
LINE
  5
2F7
330
1F
100
AcDbEntity
  8
A-1_ピット
  6
JWW_CENTER2
 62
     2
370
     9
100
AcDbLine
 10
1308.807208086993
 20
-177.5847646352406
 30
0.0
 11
1273.567323426943
 21
-177.5847646352406
 31
0.0
  0
LINE
  5
2F8
330
1F
100
AcDbEntity
  8
A-1_ピット
  6
JWW_CENTER2
 62
     2
370
     9
100
AcDbLine
 10
1315.795156118032
 20
-178.5047458957982
 30
0.0
 11
1446.128639014992
 21
-213.4274127032305
 31
0.0
  0
LINE
  5
2F9
330
1F
100
AcDbEntity
  8
A-2_蓋
  6
Continuous
 62
     3
370
     9
100
AcDbLine
 10
1307.177074535473
 20
-148.5848174224029
 30
0.0
 11
1307.177074535473
 21
-139.5849361935177
 31
0.0
  0
LINE
  5
2FA
330
1F
100
AcDbEntity
  8
A-2_蓋
  6
Continuous
 62
     3
370
     9
100
AcDbLine
 10
1219.177081133868
 20
-148.5848174224029
 30
0.0
 11
1219.177081133868
 21
-139.5849361935177
 31
0.0
  0
LINE
  5
2FB
330
1F
100
AcDbEntity
  8
A-2_蓋
  6
Continuous
 62
     3
370
     9
100
AcDbLine
 10
1219.177081133868
 20
-148.5848174224029
 30
0.0
 11
1307.177074535473
 21
-148.5848174224029
 31
0.0
  0
LINE
  5
2FC
330
1F
100
AcDbEntity
  8
A-2_蓋
  6
Continuous
 62
     3
370
     9
100
AcDbLine
 10
1319.176916173986
 20
-139.5849361935177
 30
0.0
 11
1319.176916173986
 21
622.3484678526182
 31
0.0
  0
LINE
  5
2FD
330
1F
100
AcDbEntity
  8
A-2_蓋
  6
Continuous
 62
     3
370
     9
100
AcDbLine
 10
1300.177001953125
 20
-139.5849361935177
 30
0.0
 11
1300.177001953125
 21
-137.9711336702914
 31
0.0
  0
LINE
  5
2FE
330
1F
100
AcDbEntity
  8
A-2_蓋
  6
Continuous
 62
     3
370
     9
100
AcDbLine
 10
1303.176962362754
 20
-139.5849361935177
 30
0.0
 11
1303.176962362754
 21
-137.8055964289484
 31
0.0
  0
LINE
  5
2FF
330
1F
100
AcDbEntity
  8
A-2_蓋
  6
Continuous
 62
     3
370
     9
100
AcDbLine
 10
1300.177001953125
 20
-132.1624838339315
 30
0.0
 11
1300.177001953125
 21
-111.3847144874364
 31
0.0
  0
LINE
  5
300
330
1F
100
AcDbEntity
  8
A-2_蓋
  6
Continuous
 62
     3
370
     9
100
AcDbLine
 10
1300.177001953125
 20
-105.5849724846917
 30
0.0
 11
1300.177001953125
 21
622.3484678526182
 31
0.0
  0
LINE
  5
301
330
1F
100
AcDbEntity
  8
A-2_蓋
  6
Continuous
 62
     3
370
     9
100
AcDbLine
 10
1303.176962362754
 20
-131.9969465925885
 30
0.0
 11
1303.176962362754
 21
-111.3847144874364
 31
0.0
  0
LINE
  5
302
330
1F
100
AcDbEntity
  8
A-2_蓋
  6
Continuous
 62
     3
370
     9
100
AcDbLine
 10
1303.176962362754
 20
-105.5849724846917
 30
0.0
 11
1303.176962362754
 21
622.3484678526182
 31
0.0
  0
LINE
  5
303
330
1F
100
AcDbEntity
  8
A-2_蓋
  6
Continuous
 62
     3
370
     9
100
AcDbLine
 10
1312.977311417864
 20
-139.5849361935177
 30
0.0
 11
1319.176916173986
 21
-139.5849361935177
 31
0.0
  0
LINE
  5
304
330
1F
100
AcDbEntity
  8
A-A
  6
Continuous
 62
     3
370
     9
100
AcDbLine
 10
1216.176873284417
 20
620.0950333878802
 30
0.0
 11
1219.177081133868
 21
618.0949773015203
 31
0.0
  0
LINE
  5
305
330
1F
100
AcDbEntity
  8
A-A
  6
Continuous
 62
     3
370
     9
100
AcDbLine
 10
1216.176873284417
 20
605.8689756651182
 30
0.0
 11
1216.176873284417
 21
599.8690548458617
 31
0.0
  0
LINE
  5
306
330
1F
100
AcDbEntity
  8
A-A
  6
Continuous
 62
     3
370
     9
100
AcDbLine
 10
1216.176873284417
 20
605.8689756651182
 30
0.0
 11
1219.177081133868
 21
607.8690317514781
 31
0.0
  0
LINE
  5
307
330
1F
100
AcDbEntity
  8
A-A
  6
Continuous
 62
     3
370
     9
100
AcDbLine
 10
1216.176873284417
 20
599.8690548458617
 30
0.0
 11
1219.177081133868
 21
597.8689987595019
 31
0.0
  0
LINE
  5
308
330
1F
100
AcDbEntity
  8
A-A
  6
Continuous
 62
     3
370
     9
100
AcDbLine
 10
1219.177081133868
 20
607.8690317514781
 30
0.0
 11
1219.177081133868
 21
618.0949773015203
 31
0.0
  0
LINE
  5
309
330
1F
100
AcDbEntity
  8
A-A
  6
Continuous
 62
     3
370
     9
100
AcDbLine
 10
1216.176873284417
 20
585.6427496832771
 30
0.0
 11
1216.176873284417
 21
573.6429080447635
 31
0.0
  0
LINE
  5
30A
330
1F
100
AcDbEntity
  8
A-A
  6
Continuous
 62
     3
370
     9
100
AcDbLine
 10
1216.176873284417
 20
585.6427496832771
 30
0.0
 11
1219.177081133868
 21
587.6430532094596
 31
0.0
  0
LINE
  5
30B
330
1F
100
AcDbEntity
  8
A-A
  6
Continuous
 62
     3
370
     9
100
AcDbLine
 10
1219.177081133868
 20
597.8689987595019
 30
0.0
 11
1219.177081133868
 21
587.6430532094596
 31
0.0
  0
LINE
  5
30C
330
1F
100
AcDbEntity
  8
A-A
  6
Continuous
 62
     3
370
     9
100
AcDbLine
 10
1216.176873284417
 20
573.6429080447635
 30
0.0
 11
1219.177081133868
 21
571.642851958404
 31
0.0
  0
LINE
  5
30D
330
1F
100
AcDbEntity
  8
A-A
  6
Continuous
 62
     3
370
     9
100
AcDbLine
 10
1216.176873284417
 20
559.4168503220019
 30
0.0
 11
1216.176873284417
 21
553.416929502745
 31
0.0
  0
LINE
  5
30E
330
1F
100
AcDbEntity
  8
A-A
  6
Continuous
 62
     3
370
     9
100
AcDbLine
 10
1216.176873284417
 20
559.4168503220019
 30
0.0
 11
1219.177081133868
 21
561.4169064083617
 31
0.0
  0
LINE
  5
30F
330
1F
100
AcDbEntity
  8
A-A
  6
Continuous
 62
     3
370
     9
100
AcDbLine
 10
1216.176873284417
 20
553.416929502745
 30
0.0
 11
1219.177081133868
 21
551.4168734163852
 31
0.0
  0
LINE
  5
310
330
1F
100
AcDbEntity
  8
A-A
  6
Continuous
 62
     3
370
     9
100
AcDbLine
 10
1219.177081133868
 20
561.4169064083617
 30
0.0
 11
1219.177081133868
 21
571.642851958404
 31
0.0
  0
LINE
  5
311
330
1F
100
AcDbEntity
  8
A-A
  6
Continuous
 62
     3
370
     9
100
AcDbLine
 10
1216.176873284417
 20
539.1906243401606
 30
0.0
 11
1216.176873284417
 21
527.1907827016471
 31
0.0
  0
LINE
  5
312
330
1F
100
AcDbEntity
  8
A-A
  6
Continuous
 62
     3
370
     9
100
AcDbLine
 10
1216.176873284417
 20
539.1906243401606
 30
0.0
 11
1219.177081133868
 21
541.1909278663429
 31
0.0
  0
LINE
  5
313
330
1F
100
AcDbEntity
  8
A-A
  6
Continuous
 62
     3
370
     9
100
AcDbLine
 10
1219.177081133868
 20
551.4168734163852
 30
0.0
 11
1219.177081133868
 21
541.1909278663429
 31
0.0
  0
LINE
  5
314
330
1F
100
AcDbEntity
  8
A-A
  6
Continuous
 62
     3
370
     9
100
AcDbLine
 10
1216.176873284417
 20
527.1907827016471
 30
0.0
 11
1219.177081133868
 21
525.1907266152873
 31
0.0
  0
LINE
  5
315
330
1F
100
AcDbEntity
  8
A-A
  6
Continuous
 62
     3
370
     9
100
AcDbLine
 10
1216.176873284417
 20
512.9647249788852
 30
0.0
 11
1216.176873284417
 21
506.9648041596284
 31
0.0
  0
LINE
  5
316
330
1F
100
AcDbEntity
  8
A-A
  6
Continuous
 62
     3
370
     9
100
AcDbLine
 10
1216.176873284417
 20
512.9647249788852
 30
0.0
 11
1219.177081133868
 21
514.964781065245
 31
0.0
  0
LINE
  5
317
330
1F
100
AcDbEntity
  8
A-A
  6
Continuous
 62
     3
370
     9
100
AcDbLine
 10
1216.176873284417
 20
506.9648041596284
 30
0.0
 11
1219.177081133868
 21
504.9647480732688
 31
0.0
  0
LINE
  5
318
330
1F
100
AcDbEntity
  8
A-A
  6
Continuous
 62
     3
370
     9
100
AcDbLine
 10
1219.177081133868
 20
514.964781065245
 30
0.0
 11
1219.177081133868
 21
525.1907266152873
 31
0.0
  0
LINE
  5
319
330
1F
100
AcDbEntity
  8
A-A
  6
Continuous
 62
     3
370
     9
100
AcDbLine
 10
1216.176873284417
 20
492.738498997044
 30
0.0
 11
1216.176873284417
 21
480.7386573585305
 31
0.0
  0
LINE
  5
31A
330
1F
100
AcDbEntity
  8
A-A
  6
Continuous
 62
     3
370
     9
100
AcDbLine
 10
1216.176873284417
 20
492.738498997044
 30
0.0
 11
1219.177081133868
 21
494.7388025232266
 31
0.0
  0
LINE
  5
31B
330
1F
100
AcDbEntity
  8
A-A
  6
Continuous
 62
     3
370
     9
100
AcDbLine
 10
1219.177081133868
 20
504.9647480732688
 30
0.0
 11
1219.177081133868
 21
494.7388025232266
 31
0.0
  0
LINE
  5
31C
330
1F
100
AcDbEntity
  8
A-A
  6
Continuous
 62
     3
370
     9
100
AcDbLine
 10
1216.176873284417
 20
480.7386573585305
 30
0.0
 11
1219.177081133868
 21
478.7386012721709
 31
0.0
  0
LINE
  5
31D
330
1F
100
AcDbEntity
  8
A-A
  6
Continuous
 62
     3
370
     9
100
AcDbLine
 10
1216.176873284417
 20
466.5125996357688
 30
0.0
 11
1216.176873284417
 21
460.512678816512
 31
0.0
  0
LINE
  5
31E
330
1F
100
AcDbEntity
  8
A-A
  6
Continuous
 62
     3
370
     9
100
AcDbLine
 10
1216.176873284417
 20
466.5125996357688
 30
0.0
 11
1219.177081133868
 21
468.5126557221284
 31
0.0
  0
LINE
  5
31F
330
1F
100
AcDbEntity
  8
A-A
  6
Continuous
 62
     3
370
     9
100
AcDbLine
 10
1216.176873284417
 20
460.512678816512
 30
0.0
 11
1219.177081133868
 21
458.5126227301521
 31
0.0
  0
LINE
  5
320
330
1F
100
AcDbEntity
  8
A-A
  6
Continuous
 62
     3
370
     9
100
AcDbLine
 10
1219.177081133868
 20
468.5126557221284
 30
0.0
 11
1219.177081133868
 21
478.7386012721709
 31
0.0
  0
LINE
  5
321
330
1F
100
AcDbEntity
  8
A-A
  6
Continuous
 62
     3
370
     9
100
AcDbLine
 10
1216.176873284417
 20
446.2863736539273
 30
0.0
 11
1216.176873284417
 21
434.2865320154141
 31
0.0
  0
LINE
  5
322
330
1F
100
AcDbEntity
  8
A-A
  6
Continuous
 62
     3
370
     9
100
AcDbLine
 10
1216.176873284417
 20
446.2863736539273
 30
0.0
 11
1219.177081133868
 21
448.2866771801099
 31
0.0
  0
LINE
  5
323
330
1F
100
AcDbEntity
  8
A-A
  6
Continuous
 62
     3
370
     9
100
AcDbLine
 10
1219.177081133868
 20
458.5126227301521
 30
0.0
 11
1219.177081133868
 21
448.2866771801099
 31
0.0
  0
LINE
  5
324
330
1F
100
AcDbEntity
  8
A-A
  6
Continuous
 62
     3
370
     9
100
AcDbLine
 10
1216.176873284417
 20
434.2865320154141
 30
0.0
 11
1219.177081133868
 21
432.2864759290542
 31
0.0
  0
LINE
  5
325
330
1F
100
AcDbEntity
  8
A-A
  6
Continuous
 62
     3
370
     9
100
AcDbLine
 10
1216.176873284417
 20
420.0604742926521
 30
0.0
 11
1216.176873284417
 21
414.0605534733953
 31
0.0
  0
LINE
  5
326
330
1F
100
AcDbEntity
  8
A-A
  6
Continuous
 62
     3
370
     9
100
AcDbLine
 10
1216.176873284417
 20
420.0604742926521
 30
0.0
 11
1219.177081133868
 21
422.060530379012
 31
0.0
  0
LINE
  5
327
330
1F
100
AcDbEntity
  8
A-A
  6
Continuous
 62
     3
370
     9
100
AcDbLine
 10
1216.176873284417
 20
414.0605534733953
 30
0.0
 11
1219.177081133868
 21
412.0604973870357
 31
0.0
  0
LINE
  5
328
330
1F
100
AcDbEntity
  8
A-A
  6
Continuous
 62
     3
370
     9
100
AcDbLine
 10
1219.177081133868
 20
422.060530379012
 30
0.0
 11
1219.177081133868
 21
432.2864759290542
 31
0.0
  0
LINE
  5
329
330
1F
100
AcDbEntity
  8
A-A
  6
Continuous
 62
     3
370
     9
100
AcDbLine
 10
1216.176873284417
 20
399.8342483108109
 30
0.0
 11
1216.176873284417
 21
387.8344066722974
 31
0.0
  0
LINE
  5
32A
330
1F
100
AcDbEntity
  8
A-A
  6
Continuous
 62
     3
370
     9
100
AcDbLine
 10
1216.176873284417
 20
399.8342483108109
 30
0.0
 11
1219.177081133868
 21
401.8345518369932
 31
0.0
  0
LINE
  5
32B
330
1F
100
AcDbEntity
  8
A-A
  6
Continuous
 62
     3
370
     9
100
AcDbLine
 10
1219.177081133868
 20
412.0604973870357
 30
0.0
 11
1219.177081133868
 21
401.8345518369932
 31
0.0
  0
LINE
  5
32C
330
1F
100
AcDbEntity
  8
A-A
  6
Continuous
 62
     3
370
     9
100
AcDbLine
 10
1216.176873284417
 20
387.8344066722974
 30
0.0
 11
1219.177081133868
 21
385.8343505859375
 31
0.0
  0
LINE
  5
32D
330
1F
100
AcDbEntity
  8
A-A
  6
Continuous
 62
     3
370
     9
100
AcDbLine
 10
1216.176873284417
 20
373.6083489495357
 30
0.0
 11
1216.176873284417
 21
367.6084281302789
 31
0.0
  0
LINE
  5
32E
330
1F
100
AcDbEntity
  8
A-A
  6
Continuous
 62
     3
370
     9
100
AcDbLine
 10
1216.176873284417
 20
373.6083489495357
 30
0.0
 11
1219.177081133868
 21
375.6084050358953
 31
0.0
  0
LINE
  5
32F
330
1F
100
AcDbEntity
  8
A-A
  6
Continuous
 62
     3
370
     9
100
AcDbLine
 10
1216.176873284417
 20
367.6084281302789
 30
0.0
 11
1219.177081133868
 21
365.608372043919
 31
0.0
  0
LINE
  5
330
330
1F
100
AcDbEntity
  8
A-A
  6
Continuous
 62
     3
370
     9
100
AcDbLine
 10
1219.177081133868
 20
375.6084050358953
 30
0.0
 11
1219.177081133868
 21
385.8343505859375
 31
0.0
  0
LINE
  5
331
330
1F
100
AcDbEntity
  8
A-A
  6
Continuous
 62
     3
370
     9
100
AcDbLine
 10
1216.176873284417
 20
353.3821229676943
 30
0.0
 11
1216.176873284417
 21
341.3822813291807
 31
0.0
  0
LINE
  5
332
330
1F
100
AcDbEntity
  8
A-A
  6
Continuous
 62
     3
370
     9
100
AcDbLine
 10
1216.176873284417
 20
353.3821229676943
 30
0.0
 11
1219.177081133868
 21
355.3824264938768
 31
0.0
  0
LINE
  5
333
330
1F
100
AcDbEntity
  8
A-A
  6
Continuous
 62
     3
370
     9
100
AcDbLine
 10
1219.177081133868
 20
365.608372043919
 30
0.0
 11
1219.177081133868
 21
355.3824264938768
 31
0.0
  0
LINE
  5
334
330
1F
100
AcDbEntity
  8
A-A
  6
Continuous
 62
     3
370
     9
100
AcDbLine
 10
1216.176873284417
 20
341.3822813291807
 30
0.0
 11
1219.177081133868
 21
339.3822252428211
 31
0.0
  0
LINE
  5
335
330
1F
100
AcDbEntity
  8
A-A
  6
Continuous
 62
     3
370
     9
100
AcDbLine
 10
1216.176873284417
 20
327.156223606419
 30
0.0
 11
1216.176873284417
 21
321.1563027871622
 31
0.0
  0
LINE
  5
336
330
1F
100
AcDbEntity
  8
A-A
  6
Continuous
 62
     3
370
     9
100
AcDbLine
 10
1216.176873284417
 20
327.156223606419
 30
0.0
 11
1219.177081133868
 21
329.1562796927789
 31
0.0
  0
LINE
  5
337
330
1F
100
AcDbEntity
  8
A-A
  6
Continuous
 62
     3
370
     9
100
AcDbLine
 10
1216.176873284417
 20
321.1563027871622
 30
0.0
 11
1219.177081133868
 21
319.1562467008023
 31
0.0
  0
LINE
  5
338
330
1F
100
AcDbEntity
  8
A-A
  6
Continuous
 62
     3
370
     9
100
AcDbLine
 10
1219.177081133868
 20
329.1562796927789
 30
0.0
 11
1219.177081133868
 21
339.3822252428211
 31
0.0
  0
LINE
  5
339
330
1F
100
AcDbEntity
  8
A-A
  6
Continuous
 62
     3
370
     9
100
AcDbLine
 10
1216.176873284417
 20
306.9299976245779
 30
0.0
 11
1216.176873284417
 21
294.9301559860643
 31
0.0
  0
LINE
  5
33A
330
1F
100
AcDbEntity
  8
A-A
  6
Continuous
 62
     3
370
     9
100
AcDbLine
 10
1216.176873284417
 20
306.9299976245779
 30
0.0
 11
1219.177081133868
 21
308.9303011507602
 31
0.0
  0
LINE
  5
33B
330
1F
100
AcDbEntity
  8
A-A
  6
Continuous
 62
     3
370
     9
100
AcDbLine
 10
1219.177081133868
 20
319.1562467008023
 30
0.0
 11
1219.177081133868
 21
308.9303011507602
 31
0.0
  0
LINE
  5
33C
330
1F
100
AcDbEntity
  8
A-A
  6
Continuous
 62
     3
370
     9
100
AcDbLine
 10
1216.176873284417
 20
294.9301559860643
 30
0.0
 11
1219.177081133868
 21
292.9300998997044
 31
0.0
  0
LINE
  5
33D
330
1F
100
AcDbEntity
  8
A-A
  6
Continuous
 62
     3
370
     9
100
AcDbLine
 10
1216.176873284417
 20
280.7040982633023
 30
0.0
 11
1216.176873284417
 21
274.7041774440456
 31
0.0
  0
LINE
  5
33E
330
1F
100
AcDbEntity
  8
A-A
  6
Continuous
 62
     3
370
     9
100
AcDbLine
 10
1216.176873284417
 20
280.7040982633023
 30
0.0
 11
1219.177081133868
 21
282.7041543496622
 31
0.0
  0
LINE
  5
33F
330
1F
100
AcDbEntity
  8
A-A
  6
Continuous
 62
     3
370
     9
100
AcDbLine
 10
1216.176873284417
 20
274.7041774440456
 30
0.0
 11
1219.177081133868
 21
272.7041213576859
 31
0.0
  0
LINE
  5
340
330
1F
100
AcDbEntity
  8
A-A
  6
Continuous
 62
     3
370
     9
100
AcDbLine
 10
1219.177081133868
 20
282.7041543496622
 30
0.0
 11
1219.177081133868
 21
292.9300998997044
 31
0.0
  0
LINE
  5
341
330
1F
100
AcDbEntity
  8
A-A
  6
Continuous
 62
     3
370
     9
100
AcDbLine
 10
1216.176873284417
 20
260.4778722814612
 30
0.0
 11
1216.176873284417
 21
248.4780306429477
 31
0.0
  0
LINE
  5
342
330
1F
100
AcDbEntity
  8
A-A
  6
Continuous
 62
     3
370
     9
100
AcDbLine
 10
1216.176873284417
 20
260.4778722814612
 30
0.0
 11
1219.177081133868
 21
262.4781758076438
 31
0.0
  0
LINE
  5
343
330
1F
100
AcDbEntity
  8
A-A
  6
Continuous
 62
     3
370
     9
100
AcDbLine
 10
1219.177081133868
 20
272.7041213576859
 30
0.0
 11
1219.177081133868
 21
262.4781758076438
 31
0.0
  0
LINE
  5
344
330
1F
100
AcDbEntity
  8
A-A
  6
Continuous
 62
     3
370
     9
100
AcDbLine
 10
1216.176873284417
 20
248.4780306429477
 30
0.0
 11
1219.177081133868
 21
246.477974556588
 31
0.0
  0
LINE
  5
345
330
1F
100
AcDbEntity
  8
A-A
  6
Continuous
 62
     3
370
     9
100
AcDbLine
 10
1216.176873284417
 20
234.2519729201859
 30
0.0
 11
1216.176873284417
 21
228.2520521009292
 31
0.0
  0
LINE
  5
346
330
1F
100
AcDbEntity
  8
A-A
  6
Continuous
 62
     3
370
     9
100
AcDbLine
 10
1216.176873284417
 20
234.2519729201859
 30
0.0
 11
1219.177081133868
 21
236.2520290065456
 31
0.0
  0
LINE
  5
347
330
1F
100
AcDbEntity
  8
A-A
  6
Continuous
 62
     3
370
     9
100
AcDbLine
 10
1216.176873284417
 20
228.2520521009292
 30
0.0
 11
1219.177081133868
 21
226.2519960145693
 31
0.0
  0
LINE
  5
348
330
1F
100
AcDbEntity
  8
A-A
  6
Continuous
 62
     3
370
     9
100
AcDbLine
 10
1219.177081133868
 20
236.2520290065456
 30
0.0
 11
1219.177081133868
 21
246.477974556588
 31
0.0
  0
LINE
  5
349
330
1F
100
AcDbEntity
  8
A-A
  6
Continuous
 62
     3
370
     9
100
AcDbLine
 10
1216.176873284417
 20
214.0257469383448
 30
0.0
 11
1216.176873284417
 21
202.0259052998313
 31
0.0
  0
LINE
  5
34A
330
1F
100
AcDbEntity
  8
A-A
  6
Continuous
 62
     3
370
     9
100
AcDbLine
 10
1216.176873284417
 20
214.0257469383448
 30
0.0
 11
1219.177081133868
 21
216.0260504645271
 31
0.0
  0
LINE
  5
34B
330
1F
100
AcDbEntity
  8
A-A
  6
Continuous
 62
     3
370
     9
100
AcDbLine
 10
1219.177081133868
 20
226.2519960145693
 30
0.0
 11
1219.177081133868
 21
216.0260504645271
 31
0.0
  0
LINE
  5
34C
330
1F
100
AcDbEntity
  8
A-2_蓋
  6
Continuous
 62
     3
370
     9
100
AcDbLine
 10
1235.177034945102
 20
572.3484266126479
 30
0.0
 11
1235.177034945102
 21
744.7881255278717
 31
0.0
  0
LINE
  5
34D
330
1F
100
AcDbEntity
  8
A-2_蓋
  6
Continuous
 62
     3
370
     9
100
AcDbLine
 10
1235.177034945102
 20
758.0429819467906
 30
0.0
 11
1235.177034945102
 21
842.415754988387
 31
0.0
  0
LINE
  5
34E
330
1F
100
AcDbEntity
  8
A-2_蓋
  6
Continuous
 62
     3
370
     9
100
AcDbLine
 10
1238.17699535473
 20
572.3484266126479
 30
0.0
 11
1238.17699535473
 21
747.7880859375
 31
0.0
  0
LINE
  5
34F
330
1F
100
AcDbEntity
  8
A-2_蓋
  6
Continuous
 62
     3
370
     9
100
AcDbLine
 10
1238.17699535473
 20
755.0430215371623
 30
0.0
 11
1238.17699535473
 21
842.415754988387
 31
0.0
  0
LINE
  5
350
330
1F
100
AcDbEntity
  8
A-2_蓋
  6
Continuous
 62
     3
370
     9
100
AcDbLine
 10
1241.804463154561
 20
551.4156362172721
 30
0.0
 11
1230.490772144215
 21
540.1019452069258
 31
0.0
  0
LINE
  5
351
330
1F
100
AcDbEntity
  8
A-2_蓋
  6
Continuous
 62
     3
370
     9
100
AcDbLine
 10
1230.490772144215
 20
540.1019452069258
 30
0.0
 11
1219.177081133868
 21
551.4156362172721
 31
0.0
  0
LINE
  5
352
330
1F
100
AcDbEntity
  8
A-2_蓋
  6
Continuous
 62
     3
370
     9
100
AcDbLine
 10
1219.177081133868
 20
551.4156362172721
 30
0.0
 11
1230.490772144215
 21
562.7294509475297
 31
0.0
  0
LINE
  5
353
330
1F
100
AcDbEntity
  8
A-2_蓋
  6
Continuous
 62
     3
370
     9
100
AcDbLine
 10
1230.490772144215
 20
562.7294509475297
 30
0.0
 11
1241.804463154561
 21
551.4156362172721
 31
0.0
  0
LINE
  5
354
330
1F
100
AcDbEntity
  8
A-2_蓋
  6
Continuous
 62
     3
370
     9
100
AcDbLine
 10
1241.804463154561
 20
351.415718697213
 30
0.0
 11
1230.490772144215
 21
340.1020276868667
 31
0.0
  0
LINE
  5
355
330
1F
100
AcDbEntity
  8
A-2_蓋
  6
Continuous
 62
     3
370
     9
100
AcDbLine
 10
1230.490772144215
 20
340.1020276868667
 30
0.0
 11
1219.177081133868
 21
351.415718697213
 31
0.0
  0
LINE
  5
356
330
1F
100
AcDbEntity
  8
A-2_蓋
  6
Continuous
 62
     3
370
     9
100
AcDbLine
 10
1219.177081133868
 20
351.415718697213
 30
0.0
 11
1230.490772144215
 21
362.7294097075591
 31
0.0
  0
LINE
  5
357
330
1F
100
AcDbEntity
  8
A-2_蓋
  6
Continuous
 62
     3
370
     9
100
AcDbLine
 10
1230.490772144215
 20
362.7294097075591
 30
0.0
 11
1241.804463154561
 21
351.415718697213
 31
0.0
  0
LINE
  5
358
330
1F
100
AcDbEntity
  8
A-2_蓋
  6
Continuous
 62
     3
370
     9
100
AcDbLine
 10
1235.177034945102
 20
572.3484266126479
 30
0.0
 11
1235.177034945102
 21
558.0431881466429
 31
0.0
  0
LINE
  5
359
330
1F
100
AcDbEntity
  8
A-2_蓋
  6
Continuous
 62
     3
370
     9
100
AcDbLine
 10
1238.17699535473
 20
572.3484266126479
 30
0.0
 11
1238.17699535473
 21
555.0431040171031
 31
0.0
  0
LINE
  5
35A
330
1F
100
AcDbEntity
  8
A-2_蓋
  6
Continuous
 62
     3
370
     9
100
AcDbLine
 10
1235.177034945102
 20
544.7882080078125
 30
0.0
 11
1235.177034945102
 21
358.0431469066724
 31
0.0
  0
LINE
  5
35B
330
1F
100
AcDbEntity
  8
A-2_蓋
  6
Continuous
 62
     3
370
     9
100
AcDbLine
 10
1238.17699535473
 20
547.7881684174408
 30
0.0
 11
1238.17699535473
 21
355.043186497044
 31
0.0
  0
LINE
  5
35C
330
1F
100
AcDbEntity
  8
A-4_寸法
  6
Continuous
 62
     7
370
     9
100
AcDbLine
 10
-472.7471428948479
 20
920.1027040223818
 30
0.0
 11
-402.1477364205023
 21
920.1027040223818
 31
0.0
  0
LINE
  5
35D
330
1F
100
AcDbEntity
  8
A-4_寸法
  6
Continuous
 62
     7
370
     9
100
AcDbLine
 10
-472.7471428948479
 20
920.1027040223818
 30
0.0
 11
-472.7471428948479
 21
798.4734117662586
 31
0.0
  0
LINE
  5
35E
330
1F
100
AcDbEntity
  8
A-4_寸法
  6
Continuous
 62
     7
370
     9
100
AcDbLine
 10
-402.1477364205023
 20
920.1027040223818
 30
0.0
 11
-402.1477364205023
 21
798.4734117662586
 31
0.0
  0
LINE
  5
35F
330
1F
100
AcDbEntity
  8
A-4_寸法
  6
Continuous
 62
     7
370
     9
100
AcDbLine
 10
-1627.547929093644
 20
-422.8378378378378
 30
0.0
 11
400.4528973553633
 21
-422.8378378378378
 31
0.0
  0
LINE
  5
360
330
1F
100
AcDbEntity
  8
A-4_寸法
  6
Continuous
 62
     7
370
     9
100
AcDbLine
 10
-1627.547929093644
 20
-183.5846854544974
 30
0.0
 11
-1627.547929093644
 21
-425.8377982474661
 31
0.0
  0
LINE
  5
361
330
1F
100
AcDbEntity
  8
A-4_寸法
  6
Continuous
 62
     7
370
     9
100
AcDbLine
 10
400.4528973553633
 20
-183.5846854544974
 30
0.0
 11
400.4528973553633
 21
-425.8377982474661
 31
0.0
  0
LINE
  5
362
330
1F
100
AcDbEntity
  8
A-4_寸法
  6
Continuous
 62
     7
370
     9
100
AcDbLine
 10
-1627.547929093644
 20
-317.4324324324324
 30
0.0
 11
-1615.54796373522
 21
-317.4324324324324
 31
0.0
  0
LINE
  5
363
330
1F
100
AcDbEntity
  8
A-4_寸法
  6
Continuous
 62
     7
370
     9
100
AcDbLine
 10
-1627.547929093644
 20
-332.4324819203969
 30
0.0
 11
-1627.547929093644
 21
-320.4323928420608
 31
0.0
  0
LINE
  5
364
330
1F
100
AcDbEntity
  8
A-4_寸法
  6
Continuous
 62
     7
370
     9
100
AcDbLine
 10
-1615.54796373522
 20
-171.5843489363385
 30
0.0
 11
-1615.54796373522
 21
-320.4323928420608
 31
0.0
  0
LINE
  5
365
330
1F
100
AcDbEntity
  8
A-4_寸法
  6
Continuous
 62
     7
370
     9
100
AcDbLine
 10
-1615.54796373522
 20
-317.4324324324324
 30
0.0
 11
-1608.547891152872
 21
-317.4324324324324
 31
0.0
  0
LINE
  5
366
330
1F
100
AcDbEntity
  8
A-4_寸法
  6
Continuous
 62
     7
370
     9
100
AcDbLine
 10
-1608.547891152872
 20
-163.5844957506333
 30
0.0
 11
-1608.547891152872
 21
-320.4323928420608
 31
0.0
  0
LINE
  5
367
330
1F
100
AcDbEntity
  8
A-4_寸法
  6
Continuous
 62
     7
370
     9
100
AcDbLine
 10
-1682.54204827386
 20
-317.4324324324324
 30
0.0
 11
463.6960416226776
 21
-317.4324324324324
 31
0.0
  0
LINE
  5
368
330
1F
100
AcDbEntity
  8
A-4_寸法
  6
Continuous
 62
     7
370
     9
100
AcDbLine
 10
381.4527356946792
 20
-163.5844957506333
 30
0.0
 11
381.4527356946792
 21
-320.4323928420608
 31
0.0
  0
LINE
  5
369
330
1F
100
AcDbEntity
  8
A-4_寸法
  6
Continuous
 62
     7
370
     9
100
AcDbLine
 10
381.4527356946792
 20
-317.4324324324324
 30
0.0
 11
388.4528082770271
 21
-317.4324324324324
 31
0.0
  0
LINE
  5
36A
330
1F
100
AcDbEntity
  8
A-4_寸法
  6
Continuous
 62
     7
370
     9
100
AcDbLine
 10
388.4528082770271
 20
-171.5843489363385
 30
0.0
 11
388.4528082770271
 21
-320.4323928420608
 31
0.0
  0
LINE
  5
36B
330
1F
100
AcDbEntity
  8
A-4_寸法
  6
Continuous
 62
     7
370
     9
100
AcDbLine
 10
388.4528082770271
 20
-317.4324324324324
 30
0.0
 11
400.4528973553633
 21
-317.4324324324324
 31
0.0
  0
LINE
  5
36C
330
1F
100
AcDbEntity
  8
A-4_寸法
  6
Continuous
 62
     7
370
     9
100
AcDbLine
 10
400.4528973553633
 20
-183.5846854544974
 30
0.0
 11
400.4528973553633
 21
-320.4323928420608
 31
0.0
  0
LINE
  5
36D
330
1F
100
AcDbEntity
  8
A-4_寸法
  6
Continuous
 62
     7
370
     9
100
AcDbLine
 10
-861.0472808013092
 20
762.4152436127533
 30
0.0
 11
-857.7841681403082
 21
787.2012906461151
 31
0.0
  0
LINE
  5
36E
330
1F
100
AcDbEntity
  8
A-2_蓋
  6
Continuous
 62
     3
370
     9
100
AcDbLine
 10
-1608.547891152872
 20
-37.58479762721691
 30
0.0
 11
381.4527356946792
 21
-37.58479762721691
 31
0.0
  0
LINE
  5
36F
330
1F
100
AcDbEntity
  8
A-2_蓋
  6
Continuous
 62
     3
370
     9
100
AcDbLine
 10
-1608.547891152872
 20
-59.58417737806144
 30
0.0
 11
381.4527356946792
 21
-59.58417737806144
 31
0.0
  0
LINE
  5
370
330
1F
100
AcDbEntity
  8
A-2_蓋
  6
Continuous
 62
     3
370
     9
100
AcDbLine
 10
-1594.547003668708
 20
-59.58417737806144
 30
0.0
 11
-1524.747198981208
 21
-37.58479762721691
 31
0.0
  0
LINE
  5
371
330
1F
100
AcDbEntity
  8
A-2_蓋
  6
Continuous
 62
     3
370
     9
100
AcDbLine
 10
-1523.947226034628
 20
-59.58417737806144
 30
0.0
 11
-1454.14754506704
 21
-37.58479762721691
 31
0.0
  0
LINE
  5
372
330
1F
100
AcDbEntity
  8
A-2_蓋
  6
Continuous
 62
     3
370
     9
100
AcDbLine
 10
-1453.346829800992
 20
-59.58417737806144
 30
0.0
 11
-1383.547396273226
 21
-37.58479762721691
 31
0.0
  0
LINE
  5
373
330
1F
100
AcDbEntity
  8
A-2_蓋
  6
Continuous
 62
     3
370
     9
100
AcDbLine
 10
-1382.746928447002
 20
-59.58417737806144
 30
0.0
 11
-1312.947371199325
 21
-37.58479762721691
 31
0.0
  0
LINE
  5
374
330
1F
100
AcDbEntity
  8
A-2_蓋
  6
Continuous
 62
     3
370
     9
100
AcDbLine
 10
-1312.147150812923
 20
-59.58417737806144
 30
0.0
 11
-1242.347346125422
 21
-37.58479762721691
 31
0.0
  0
LINE
  5
375
330
1F
100
AcDbEntity
  8
A-2_蓋
  6
Continuous
 62
     3
370
     9
100
AcDbLine
 10
-1241.54712573902
 20
-59.58417737806144
 30
0.0
 11
-1171.74732105152
 21
-37.58479762721691
 31
0.0
  0
LINE
  5
376
330
1F
100
AcDbEntity
  8
A-2_蓋
  6
Continuous
 62
     3
370
     9
100
AcDbLine
 10
-1170.946976945207
 20
-59.58417737806144
 30
0.0
 11
-1101.147295977618
 21
-37.58479762721691
 31
0.0
  0
LINE
  5
377
330
1F
100
AcDbEntity
  8
A-2_蓋
  6
Continuous
 62
     3
370
     9
100
AcDbLine
 10
-1100.347075591216
 20
-59.58417737806144
 30
0.0
 11
-1030.547270903716
 21
-37.58479762721691
 31
0.0
  0
LINE
  5
378
330
1F
100
AcDbEntity
  8
A-2_蓋
  6
Continuous
 62
     3
370
     9
100
AcDbLine
 10
-1029.747050517314
 20
-59.58417737806144
 30
0.0
 11
-959.9473695497254
 21
-37.58479762721691
 31
0.0
  0
LINE
  5
379
330
1F
100
AcDbEntity
  8
A-2_蓋
  6
Continuous
 62
     3
370
     9
100
AcDbLine
 10
-959.1467780035895
 20
-59.58417737806144
 30
0.0
 11
-889.3470970360008
 21
-37.58479762721691
 31
0.0
  0
LINE
  5
37A
330
1F
100
AcDbEntity
  8
A-2_蓋
  6
Continuous
 62
     3
370
     9
100
AcDbLine
 10
-888.5468766495987
 20
-59.58417737806144
 30
0.0
 11
-818.7474431218328
 21
-37.58479762721691
 31
0.0
  0
LINE
  5
37B
330
1F
100
AcDbEntity
  8
A-2_蓋
  6
Continuous
 62
     3
370
     9
100
AcDbLine
 10
-817.9472227354307
 20
-59.58417737806144
 30
0.0
 11
-748.1475417678419
 21
-37.58479762721691
 31
0.0
  0
LINE
  5
37C
330
1F
100
AcDbEntity
  8
A-2_蓋
  6
Continuous
 62
     3
370
     9
100
AcDbLine
 10
-747.3470739416175
 20
-59.58417737806144
 30
0.0
 11
-677.5473929740286
 21
-37.58479762721691
 31
0.0
  0
LINE
  5
37D
330
1F
100
AcDbEntity
  8
A-2_蓋
  6
Continuous
 62
     3
370
     9
100
AcDbLine
 10
-676.7471725876266
 20
-59.58417737806144
 30
0.0
 11
-606.9473679001266
 21
-37.58479762721691
 31
0.0
  0
LINE
  5
37E
330
1F
100
AcDbEntity
  8
A-2_蓋
  6
Continuous
 62
     3
370
     9
100
AcDbLine
 10
-606.1471475137245
 20
-59.58417737806144
 30
0.0
 11
-536.3474665461359
 21
-37.58479762721691
 31
0.0
  0
LINE
  5
37F
330
1F
100
AcDbEntity
  8
A-2_蓋
  6
Continuous
 62
     3
370
     9
100
AcDbLine
 10
-535.5472461597338
 20
-59.58417737806144
 30
0.0
 11
-465.7475651921453
 21
-37.58479762721691
 31
0.0
  0
LINE
  5
380
330
1F
100
AcDbEntity
  8
A-2_蓋
  6
Continuous
 62
     3
370
     9
100
AcDbLine
 10
-464.9473448057432
 20
-59.58417737806144
 30
0.0
 11
-395.1476638381544
 21
-37.58479762721691
 31
0.0
  0
LINE
  5
381
330
1F
100
AcDbEntity
  8
A-2_蓋
  6
Continuous
 62
     3
370
     9
100
AcDbLine
 10
-394.3470722920185
 20
-59.58417737806144
 30
0.0
 11
-324.5475150443411
 21
-37.58479762721691
 31
0.0
  0
LINE
  5
382
330
1F
100
AcDbEntity
  8
A-2_蓋
  6
Continuous
 62
     3
370
     9
100
AcDbLine
 10
-323.7472946579391
 20
-59.58417737806144
 30
0.0
 11
-253.9476136903505
 21
-37.58479762721691
 31
0.0
  0
LINE
  5
383
330
1F
100
AcDbEntity
  8
A-2_蓋
  6
Continuous
 62
     3
370
     9
100
AcDbLine
 10
-253.1473933039484
 20
-59.58417737806144
 30
0.0
 11
-183.3477123363596
 21
-37.58479762721691
 31
0.0
  0
LINE
  5
384
330
1F
100
AcDbEntity
  8
A-2_蓋
  6
Continuous
 62
     3
370
     9
100
AcDbLine
 10
-182.5474919499575
 20
-59.58417737806144
 30
0.0
 11
-112.7480584221917
 21
-37.58479762721691
 31
0.0
  0
LINE
  5
385
330
1F
100
AcDbEntity
  8
A-2_蓋
  6
Continuous
 62
     3
370
     9
100
AcDbLine
 10
-111.9472194362331
 20
-59.58417737806144
 30
0.0
 11
-42.14741474873307
 21
-37.58479762721691
 31
0.0
  0
LINE
  5
386
330
1F
100
AcDbEntity
  8
A-2_蓋
  6
Continuous
 62
     3
370
     9
100
AcDbLine
 10
-41.3476892419763
 20
-59.58417737806144
 30
0.0
 11
28.4521154455237
 21
-37.58479762721691
 31
0.0
  0
LINE
  5
387
330
1F
100
AcDbEntity
  8
A-2_蓋
  6
Continuous
 62
     3
370
     9
100
AcDbLine
 10
29.25233583192579
 20
-59.58417737806144
 30
0.0
 11
99.05214051942579
 21
-37.58479762721691
 31
0.0
  0
LINE
  5
388
330
1F
100
AcDbEntity
  8
A-2_蓋
  6
Continuous
 62
     3
370
     9
100
AcDbLine
 10
99.8528557854732
 20
-59.58417737806144
 30
0.0
 11
169.6524130331505
 21
-37.58479762721691
 31
0.0
  0
LINE
  5
389
330
1F
100
AcDbEntity
  8
A-2_蓋
  6
Continuous
 62
     3
370
     9
100
AcDbLine
 10
170.452880859375
 20
-59.58417737806144
 30
0.0
 11
240.2524381070526
 21
-37.58479762721691
 31
0.0
  0
LINE
  5
38A
330
1F
100
AcDbEntity
  8
A-2_蓋
  6
Continuous
 62
     3
370
     9
100
AcDbLine
 10
241.0521636138091
 20
-59.58417737806144
 30
0.0
 11
310.8522157411318
 21
-37.58479762721691
 31
0.0
  0
LINE
  5
38B
330
1F
100
AcDbEntity
  8
A-2_蓋
  6
Continuous
 62
     3
370
     9
100
AcDbLine
 10
311.6521886877112
 20
-59.58417737806144
 30
0.0
 11
381.4522408150339
 21
-37.58479762721691
 31
0.0
  0
LINE
  5
38C
330
1F
100
AcDbEntity
  8
A-2_蓋
  6
Continuous
 62
     3
370
     9
100
AcDbLine
 10
-1608.547891152872
 20
-41.74525080500416
 30
0.0
 11
-1595.34722405511
 21
-37.58479762721691
 31
0.0
  0
LINE
  5
38D
330
1F
100
AcDbEntity
  8
A-2_蓋
  6
Continuous
 62
     3
370
     9
100
AcDbLine
 10
1241.804463154561
 20
-48.58436378272785
 30
0.0
 11
1230.490772144215
 21
-59.89805479307421
 31
0.0
  0
LINE
  5
38E
330
1F
100
AcDbEntity
  8
A-2_蓋
  6
Continuous
 62
     3
370
     9
100
AcDbLine
 10
1230.490772144215
 20
-59.89805479307421
 30
0.0
 11
1219.177081133868
 21
-48.58436378272785
 31
0.0
  0
LINE
  5
38F
330
1F
100
AcDbEntity
  8
A-2_蓋
  6
Continuous
 62
     3
370
     9
100
AcDbLine
 10
1219.177081133868
 20
-48.58436378272785
 30
0.0
 11
1230.490772144215
 21
-37.27067277238177
 31
0.0
  0
LINE
  5
390
330
1F
100
AcDbEntity
  8
A-2_蓋
  6
Continuous
 62
     3
370
     9
100
AcDbLine
 10
1230.490772144215
 20
-37.27067277238177
 30
0.0
 11
1241.804463154561
 21
-48.58436378272785
 31
0.0
  0
LINE
  5
391
330
1F
100
AcDbEntity
  8
A-2_蓋
  6
Continuous
 62
     3
370
     9
100
AcDbLine
 10
-1594.547003668708
 20
-139.5849361935177
 30
0.0
 11
-1594.547003668708
 21
-59.58417737806144
 31
0.0
  0
LINE
  5
392
330
1F
100
AcDbEntity
  8
A-2_蓋
  6
Continuous
 62
     3
370
     9
100
AcDbLine
 10
-1468.146947912268
 20
-59.58417737806144
 30
0.0
 11
-1468.146947912268
 21
-139.5849361935177
 31
0.0
  0
LINE
  5
393
330
1F
100
AcDbEntity
  8
A-2_蓋
  6
Continuous
 62
     3
370
     9
100
AcDbLine
 10
-1538.747344145904
 20
-59.58417737806144
 30
0.0
 11
-1538.747344145904
 21
-139.5849361935177
 31
0.0
  0
LINE
  5
394
330
1F
100
AcDbEntity
  8
A-2_蓋
  6
Continuous
 62
     3
370
     9
100
AcDbLine
 10
-1524.747198981208
 20
-59.58417737806144
 30
0.0
 11
-1524.747198981208
 21
-139.5849361935177
 31
0.0
  0
LINE
  5
395
330
1F
100
AcDbEntity
  8
A-2_蓋
  6
Continuous
 62
     3
370
     9
100
AcDbLine
 10
-1256.346996410473
 20
-59.58417737806144
 30
0.0
 11
-1256.346996410473
 21
-139.5849361935177
 31
0.0
  0
LINE
  5
396
330
1F
100
AcDbEntity
  8
A-2_蓋
  6
Continuous
 62
     3
370
     9
100
AcDbLine
 10
-1326.947268924198
 20
-59.58417737806144
 30
0.0
 11
-1326.947268924198
 21
-139.5849361935177
 31
0.0
  0
LINE
  5
397
330
1F
100
AcDbEntity
  8
A-2_蓋
  6
Continuous
 62
     3
370
     9
100
AcDbLine
 10
-1312.947371199325
 20
-59.58417737806144
 30
0.0
 11
-1312.947371199325
 21
-139.5849361935177
 31
0.0
  0
LINE
  5
398
330
1F
100
AcDbEntity
  8
A-2_蓋
  6
Continuous
 62
     3
370
     9
100
AcDbLine
 10
-1397.546551678632
 20
-59.58417737806144
 30
0.0
 11
-1397.546551678632
 21
-139.5849361935177
 31
0.0
  0
LINE
  5
399
330
1F
100
AcDbEntity
  8
A-2_蓋
  6
Continuous
 62
     3
370
     9
100
AcDbLine
 10
-1383.546653953758
 20
-59.58417737806144
 30
0.0
 11
-1383.546653953758
 21
-139.5849361935177
 31
0.0
  0
LINE
  5
39A
330
1F
100
AcDbEntity
  8
A-2_蓋
  6
Continuous
 62
     3
370
     9
100
AcDbLine
 10
-1454.146926467483
 20
-59.58417737806144
 30
0.0
 11
-1454.146926467483
 21
-139.5849361935177
 31
0.0
  0
LINE
  5
39B
330
1F
100
AcDbEntity
  8
A-2_蓋
  6
Continuous
 62
     3
370
     9
100
AcDbLine
 10
-1044.546797468855
 20
-59.58417737806144
 30
0.0
 11
-1044.546797468855
 21
-139.5849361935177
 31
0.0
  0
LINE
  5
39C
330
1F
100
AcDbEntity
  8
A-2_蓋
  6
Continuous
 62
     3
370
     9
100
AcDbLine
 10
-1030.547023463894
 20
-59.58417737806144
 30
0.0
 11
-1030.547023463894
 21
-139.5849361935177
 31
0.0
  0
LINE
  5
39D
330
1F
100
AcDbEntity
  8
A-2_蓋
  6
Continuous
 62
     3
370
     9
100
AcDbLine
 10
-1115.147193702491
 20
-59.58417737806144
 30
0.0
 11
-1115.147193702491
 21
-139.5849361935177
 31
0.0
  0
LINE
  5
39E
330
1F
100
AcDbEntity
  8
A-2_蓋
  6
Continuous
 62
     3
370
     9
100
AcDbLine
 10
-1101.147295977618
 20
-59.58417737806144
 30
0.0
 11
-1101.147295977618
 21
-139.5849361935177
 31
0.0
  0
LINE
  5
39F
330
1F
100
AcDbEntity
  8
A-2_蓋
  6
Continuous
 62
     3
370
     9
100
AcDbLine
 10
-1185.746600176837
 20
-59.58417737806144
 30
0.0
 11
-1185.746600176837
 21
-139.5849361935177
 31
0.0
  0
LINE
  5
3A0
330
1F
100
AcDbEntity
  8
A-2_蓋
  6
Continuous
 62
     3
370
     9
100
AcDbLine
 10
-1171.746578732052
 20
-59.58417737806144
 30
0.0
 11
-1171.746578732052
 21
-139.5849361935177
 31
0.0
  0
LINE
  5
3A1
330
1F
100
AcDbEntity
  8
A-2_蓋
  6
Continuous
 62
     3
370
     9
100
AcDbLine
 10
-1242.346974965688
 20
-59.58417737806144
 30
0.0
 11
-1242.346974965688
 21
-139.5849361935177
 31
0.0
  0
LINE
  5
3A2
330
1F
100
AcDbEntity
  8
A-2_蓋
  6
Continuous
 62
     3
370
     9
100
AcDbLine
 10
-762.1474394927154
 20
-59.58417737806144
 30
0.0
 11
-762.1474394927154
 21
-139.5849361935177
 31
0.0
  0
LINE
  5
3A3
330
1F
100
AcDbEntity
  8
A-2_蓋
  6
Continuous
 62
     3
370
     9
100
AcDbLine
 10
-748.1475417678419
 20
-59.58417737806144
 30
0.0
 11
-748.1475417678419
 21
-139.5849361935177
 31
0.0
  0
LINE
  5
3A4
330
1F
100
AcDbEntity
  8
A-2_蓋
  6
Continuous
 62
     3
370
     9
100
AcDbLine
 10
-832.7467222471495
 20
-59.58417737806144
 30
0.0
 11
-832.7467222471495
 21
-139.5849361935177
 31
0.0
  0
LINE
  5
3A5
330
1F
100
AcDbEntity
  8
A-2_蓋
  6
Continuous
 62
     3
370
     9
100
AcDbLine
 10
-818.7469482421875
 20
-59.58417737806144
 30
0.0
 11
-818.7469482421875
 21
-139.5849361935177
 31
0.0
  0
LINE
  5
3A6
330
1F
100
AcDbEntity
  8
A-2_蓋
  6
Continuous
 62
     3
370
     9
100
AcDbLine
 10
-903.3472422006968
 20
-59.58417737806144
 30
0.0
 11
-903.3472422006968
 21
-139.5849361935177
 31
0.0
  0
LINE
  5
3A7
330
1F
100
AcDbEntity
  8
A-2_蓋
  6
Continuous
 62
     3
370
     9
100
AcDbLine
 10
-889.3470970360008
 20
-59.58417737806144
 30
0.0
 11
-889.3470970360008
 21
-139.5849361935177
 31
0.0
  0
LINE
  5
3A8
330
1F
100
AcDbEntity
  8
A-2_蓋
  6
Continuous
 62
     3
370
     9
100
AcDbLine
 10
-973.9466486750422
 20
-59.58417737806144
 30
0.0
 11
-973.9466486750422
 21
-139.5849361935177
 31
0.0
  0
LINE
  5
3A9
330
1F
100
AcDbEntity
  8
A-2_蓋
  6
Continuous
 62
     3
370
     9
100
AcDbLine
 10
-959.9465035103462
 20
-59.58417737806144
 30
0.0
 11
-959.9465035103462
 21
-139.5849361935177
 31
0.0
  0
LINE
  5
3AA
330
1F
100
AcDbEntity
  8
A-2_蓋
  6
Continuous
 62
     3
370
     9
100
AcDbLine
 10
-479.7470917572846
 20
-59.58417737806144
 30
0.0
 11
-479.7470917572846
 21
-139.5849361935177
 31
0.0
  0
LINE
  5
3AB
330
1F
100
AcDbEntity
  8
A-2_蓋
  6
Continuous
 62
     3
370
     9
100
AcDbLine
 10
-465.7471940324112
 20
-59.58417737806144
 30
0.0
 11
-465.7471940324112
 21
-139.5849361935177
 31
0.0
  0
LINE
  5
3AC
330
1F
100
AcDbEntity
  8
A-2_蓋
  6
Continuous
 62
     3
370
     9
100
AcDbLine
 10
-550.3473642710092
 20
-59.58417737806144
 30
0.0
 11
-550.3473642710092
 21
-139.5849361935177
 31
0.0
  0
LINE
  5
3AD
330
1F
100
AcDbEntity
  8
A-2_蓋
  6
Continuous
 62
     3
370
     9
100
AcDbLine
 10
-536.3474665461359
 20
-59.58417737806144
 30
0.0
 11
-536.3474665461359
 21
-139.5849361935177
 31
0.0
  0
LINE
  5
3AE
330
1F
100
AcDbEntity
  8
A-2_蓋
  6
Continuous
 62
     3
370
     9
100
AcDbLine
 10
-620.9466470254432
 20
-59.58417737806144
 30
0.0
 11
-620.9466470254432
 21
-139.5849361935177
 31
0.0
  0
LINE
  5
3AF
330
1F
100
AcDbEntity
  8
A-2_蓋
  6
Continuous
 62
     3
370
     9
100
AcDbLine
 10
-606.9468730204812
 20
-59.58417737806144
 30
0.0
 11
-606.9468730204812
 21
-139.5849361935177
 31
0.0
  0
LINE
  5
3B0
330
1F
100
AcDbEntity
  8
A-2_蓋
  6
Continuous
 62
     3
370
     9
100
AcDbLine
 10
-691.5471669789906
 20
-59.58417737806144
 30
0.0
 11
-691.5471669789906
 21
-139.5849361935177
 31
0.0
  0
LINE
  5
3B1
330
1F
100
AcDbEntity
  8
A-2_蓋
  6
Continuous
 62
     3
370
     9
100
AcDbLine
 10
-677.5470218142948
 20
-59.58417737806144
 30
0.0
 11
-677.5470218142948
 21
-139.5849361935177
 31
0.0
  0
LINE
  5
3B2
330
1F
100
AcDbEntity
  8
A-2_蓋
  6
Continuous
 62
     3
370
     9
100
AcDbLine
 10
-197.3478575010557
 20
-59.58417737806144
 30
0.0
 11
-197.3478575010557
 21
-139.5849361935177
 31
0.0
  0
LINE
  5
3B3
330
1F
100
AcDbEntity
  8
A-2_蓋
  6
Continuous
 62
     3
370
     9
100
AcDbLine
 10
-183.3477123363596
 20
-59.58417737806144
 30
0.0
 11
-183.3477123363596
 21
-139.5849361935177
 31
0.0
  0
LINE
  5
3B4
330
1F
100
AcDbEntity
  8
A-2_蓋
  6
Continuous
 62
     3
370
     9
100
AcDbLine
 10
-267.9471402554898
 20
-59.58417737806144
 30
0.0
 11
-267.9471402554898
 21
-139.5849361935177
 31
0.0
  0
LINE
  5
3B5
330
1F
100
AcDbEntity
  8
A-2_蓋
  6
Continuous
 62
     3
370
     9
100
AcDbLine
 10
-253.9469950907937
 20
-59.58417737806144
 30
0.0
 11
-253.9469950907937
 21
-139.5849361935177
 31
0.0
  0
LINE
  5
3B6
330
1F
100
AcDbEntity
  8
A-2_蓋
  6
Continuous
 62
     3
370
     9
100
AcDbLine
 10
-338.5474127692143
 20
-59.58417737806144
 30
0.0
 11
-338.5474127692143
 21
-139.5849361935177
 31
0.0
  0
LINE
  5
3B7
330
1F
100
AcDbEntity
  8
A-2_蓋
  6
Continuous
 62
     3
370
     9
100
AcDbLine
 10
-324.5475150443411
 20
-59.58417737806144
 30
0.0
 11
-324.5475150443411
 21
-139.5849361935177
 31
0.0
  0
LINE
  5
3B8
330
1F
100
AcDbEntity
  8
A-2_蓋
  6
Continuous
 62
     3
370
     9
100
AcDbLine
 10
-409.1478090028505
 20
-59.58417737806144
 30
0.0
 11
-409.1478090028505
 21
-139.5849361935177
 31
0.0
  0
LINE
  5
3B9
330
1F
100
AcDbEntity
  8
A-2_蓋
  6
Continuous
 62
     3
370
     9
100
AcDbLine
 10
-395.1476638381544
 20
-59.58417737806144
 30
0.0
 11
-395.1476638381544
 21
-139.5849361935177
 31
0.0
  0
LINE
  5
3BA
330
1F
100
AcDbEntity
  8
A-2_蓋
  6
Continuous
 62
     3
370
     9
100
AcDbLine
 10
14.45221772065054
 20
-59.58417737806144
 30
0.0
 11
14.45221772065054
 21
-139.5849361935177
 31
0.0
  0
LINE
  5
3BB
330
1F
100
AcDbEntity
  8
A-2_蓋
  6
Continuous
 62
     3
370
     9
100
AcDbLine
 10
-56.14706503378358
 20
-59.58417737806144
 30
0.0
 11
-56.14706503378358
 21
-139.5849361935177
 31
0.0
  0
LINE
  5
3BC
330
1F
100
AcDbEntity
  8
A-2_蓋
  6
Continuous
 62
     3
370
     9
100
AcDbLine
 10
-42.14741474873307
 20
-59.58417737806144
 30
0.0
 11
-42.14741474873307
 21
-139.5849361935177
 31
0.0
  0
LINE
  5
3BD
330
1F
100
AcDbEntity
  8
A-2_蓋
  6
Continuous
 62
     3
370
     9
100
AcDbLine
 10
-126.747584987331
 20
-59.58417737806144
 30
0.0
 11
-126.747584987331
 21
-139.5849361935177
 31
0.0
  0
LINE
  5
3BE
330
1F
100
AcDbEntity
  8
A-2_蓋
  6
Continuous
 62
     3
370
     9
100
AcDbLine
 10
-112.7474398226352
 20
-59.58417737806144
 30
0.0
 11
-112.7474398226352
 21
-139.5849361935177
 31
0.0
  0
LINE
  5
3BF
330
1F
100
AcDbEntity
  8
A-2_蓋
  6
Continuous
 62
     3
370
     9
100
AcDbLine
 10
85.052490234375
 20
-59.58417737806144
 30
0.0
 11
85.052490234375
 21
-139.5849361935177
 31
0.0
  0
LINE
  5
3C0
330
1F
100
AcDbEntity
  8
A-2_蓋
  6
Continuous
 62
     3
370
     9
100
AcDbLine
 10
99.05238795924845
 20
-59.58417737806144
 30
0.0
 11
99.05238795924845
 21
-139.5849361935177
 31
0.0
  0
LINE
  5
3C1
330
1F
100
AcDbEntity
  8
A-2_蓋
  6
Continuous
 62
     3
370
     9
100
AcDbLine
 10
28.4521154455237
 20
-59.58417737806144
 30
0.0
 11
28.4521154455237
 21
-139.5849361935177
 31
0.0
  0
LINE
  5
3C2
330
1F
100
AcDbEntity
  8
A-2_蓋
  6
Continuous
 62
     3
370
     9
100
AcDbLine
 10
226.2522929423565
 20
-59.58417737806144
 30
0.0
 11
226.2522929423565
 21
-139.5849361935177
 31
0.0
  0
LINE
  5
3C3
330
1F
100
AcDbEntity
  8
A-2_蓋
  6
Continuous
 62
     3
370
     9
100
AcDbLine
 10
155.6527627480997
 20
-59.58417737806144
 30
0.0
 11
155.6527627480997
 21
-139.5849361935177
 31
0.0
  0
LINE
  5
3C4
330
1F
100
AcDbEntity
  8
A-2_蓋
  6
Continuous
 62
     3
370
     9
100
AcDbLine
 10
169.6529079127959
 20
-59.58417737806144
 30
0.0
 11
169.6529079127959
 21
-139.5849361935177
 31
0.0
  0
LINE
  5
3C5
330
1F
100
AcDbEntity
  8
A-2_蓋
  6
Continuous
 62
     3
370
     9
100
AcDbLine
 10
240.2524381070526
 20
-59.58417737806144
 30
0.0
 11
240.2524381070526
 21
-139.5849361935177
 31
0.0
  0
LINE
  5
3C6
330
1F
100
AcDbEntity
  8
A-2_蓋
  6
Continuous
 62
     3
370
     9
100
AcDbLine
 10
367.453332849451
 20
-59.58417737806144
 30
0.0
 11
367.453332849451
 21
-139.5849361935177
 31
0.0
  0
LINE
  5
3C7
330
1F
100
AcDbEntity
  8
A-2_蓋
  6
Continuous
 62
     3
370
     9
100
AcDbLine
 10
310.8529580605997
 20
-59.58417737806144
 30
0.0
 11
310.8529580605997
 21
-139.5849361935177
 31
0.0
  0
LINE
  5
3C8
330
1F
100
AcDbEntity
  8
A-2_蓋
  6
Continuous
 62
     3
370
     9
100
AcDbLine
 10
296.8528128959039
 20
-59.58417737806144
 30
0.0
 11
296.8528128959039
 21
-139.5849361935177
 31
0.0
  0
LINE
  5
3C9
330
1F
100
AcDbEntity
  8
A-2_蓋
  6
Continuous
 62
     3
370
     9
100
AcDbLine
 10
1235.177034945102
 20
-55.2117919921875
 30
0.0
 11
1235.177034945102
 21
-139.5849361935177
 31
0.0
  0
LINE
  5
3CA
330
1F
100
AcDbEntity
  8
A-2_蓋
  6
Continuous
 62
     3
370
     9
100
AcDbLine
 10
1238.17699535473
 20
-52.21183158255911
 30
0.0
 11
1238.17699535473
 21
-139.5849361935177
 31
0.0
  0
LINE
  5
3CB
330
1F
100
AcDbEntity
  8
A-A
  6
Continuous
 62
     3
370
     9
100
AcDbLine
 10
1216.176873284417
 20
202.0259052998313
 30
0.0
 11
1219.177081133868
 21
200.0258492134714
 31
0.0
  0
LINE
  5
3CC
330
1F
100
AcDbEntity
  8
A-A
  6
Continuous
 62
     3
370
     9
100
AcDbLine
 10
1216.176873284417
 20
187.7998475770693
 30
0.0
 11
1216.176873284417
 21
181.7999267578125
 31
0.0
  0
LINE
  5
3CD
330
1F
100
AcDbEntity
  8
A-A
  6
Continuous
 62
     3
370
     9
100
AcDbLine
 10
1216.176873284417
 20
187.7998475770693
 30
0.0
 11
1219.177081133868
 21
189.7999036634292
 31
0.0
  0
LINE
  5
3CE
330
1F
100
AcDbEntity
  8
A-A
  6
Continuous
 62
     3
370
     9
100
AcDbLine
 10
1216.176873284417
 20
181.7999267578125
 30
0.0
 11
1219.177081133868
 21
179.7998706714529
 31
0.0
  0
LINE
  5
3CF
330
1F
100
AcDbEntity
  8
A-A
  6
Continuous
 62
     3
370
     9
100
AcDbLine
 10
1219.177081133868
 20
189.7999036634292
 30
0.0
 11
1219.177081133868
 21
200.0258492134714
 31
0.0
  0
LINE
  5
3D0
330
1F
100
AcDbEntity
  8
A-A
  6
Continuous
 62
     3
370
     9
100
AcDbLine
 10
1216.176873284417
 20
167.5736215952281
 30
0.0
 11
1216.176873284417
 21
155.5737799567146
 31
0.0
  0
LINE
  5
3D1
330
1F
100
AcDbEntity
  8
A-A
  6
Continuous
 62
     3
370
     9
100
AcDbLine
 10
1216.176873284417
 20
167.5736215952281
 30
0.0
 11
1219.177081133868
 21
169.5739251214107
 31
0.0
  0
LINE
  5
3D2
330
1F
100
AcDbEntity
  8
A-A
  6
Continuous
 62
     3
370
     9
100
AcDbLine
 10
1219.177081133868
 20
179.7998706714529
 30
0.0
 11
1219.177081133868
 21
169.5739251214107
 31
0.0
  0
LINE
  5
3D3
330
1F
100
AcDbEntity
  8
A-A
  6
Continuous
 62
     3
370
     9
100
AcDbLine
 10
1216.176873284417
 20
155.5737799567146
 30
0.0
 11
1219.177081133868
 21
153.5737238703547
 31
0.0
  0
LINE
  5
3D4
330
1F
100
AcDbEntity
  8
A-A
  6
Continuous
 62
     3
370
     9
100
AcDbLine
 10
1216.176873284417
 20
141.3477222339529
 30
0.0
 11
1216.176873284417
 21
135.3478014146961
 31
0.0
  0
LINE
  5
3D5
330
1F
100
AcDbEntity
  8
A-A
  6
Continuous
 62
     3
370
     9
100
AcDbLine
 10
1216.176873284417
 20
141.3477222339529
 30
0.0
 11
1219.177081133868
 21
143.3477783203125
 31
0.0
  0
LINE
  5
3D6
330
1F
100
AcDbEntity
  8
A-A
  6
Continuous
 62
     3
370
     9
100
AcDbLine
 10
1216.176873284417
 20
135.3478014146961
 30
0.0
 11
1219.177081133868
 21
133.3477453283362
 31
0.0
  0
LINE
  5
3D7
330
1F
100
AcDbEntity
  8
A-A
  6
Continuous
 62
     3
370
     9
100
AcDbLine
 10
1219.177081133868
 20
143.3477783203125
 30
0.0
 11
1219.177081133868
 21
153.5737238703547
 31
0.0
  0
LINE
  5
3D8
330
1F
100
AcDbEntity
  8
A-A
  6
Continuous
 62
     3
370
     9
100
AcDbLine
 10
1216.176873284417
 20
121.1214962521115
 30
0.0
 11
1216.176873284417
 21
109.1216546135982
 31
0.0
  0
LINE
  5
3D9
330
1F
100
AcDbEntity
  8
A-A
  6
Continuous
 62
     3
370
     9
100
AcDbLine
 10
1216.176873284417
 20
121.1214962521115
 30
0.0
 11
1219.177081133868
 21
123.121799778294
 31
0.0
  0
LINE
  5
3DA
330
1F
100
AcDbEntity
  8
A-A
  6
Continuous
 62
     3
370
     9
100
AcDbLine
 10
1219.177081133868
 20
133.3477453283362
 30
0.0
 11
1219.177081133868
 21
123.121799778294
 31
0.0
  0
LINE
  5
3DB
330
1F
100
AcDbEntity
  8
A-2_蓋
  6
Continuous
 62
     3
370
     9
100
AcDbLine
 10
-1608.547891152872
 20
162.4152436127534
 30
0.0
 11
381.4527356946792
 21
162.4152436127534
 31
0.0
  0
LINE
  5
3DC
330
1F
100
AcDbEntity
  8
A-2_蓋
  6
Continuous
 62
     3
370
     9
100
AcDbLine
 10
-1608.547891152872
 20
140.4158638619089
 30
0.0
 11
381.4527356946792
 21
140.4158638619089
 31
0.0
  0
LINE
  5
3DD
330
1F
100
AcDbEntity
  8
A-2_蓋
  6
Continuous
 62
     3
370
     9
100
AcDbLine
 10
-1594.547003668708
 20
140.4158638619089
 30
0.0
 11
-1524.747198981208
 21
162.4152436127534
 31
0.0
  0
LINE
  5
3DE
330
1F
100
AcDbEntity
  8
A-2_蓋
  6
Continuous
 62
     3
370
     9
100
AcDbLine
 10
-1523.947226034628
 20
140.4158638619089
 30
0.0
 11
-1454.14754506704
 21
162.4152436127534
 31
0.0
  0
LINE
  5
3DF
330
1F
100
AcDbEntity
  8
A-2_蓋
  6
Continuous
 62
     3
370
     9
100
AcDbLine
 10
-1453.346829800992
 20
140.4158638619089
 30
0.0
 11
-1383.547396273226
 21
162.4152436127534
 31
0.0
  0
LINE
  5
3E0
330
1F
100
AcDbEntity
  8
A-2_蓋
  6
Continuous
 62
     3
370
     9
100
AcDbLine
 10
-1382.746928447002
 20
140.4158638619089
 30
0.0
 11
-1312.947371199325
 21
162.4152436127534
 31
0.0
  0
LINE
  5
3E1
330
1F
100
AcDbEntity
  8
A-2_蓋
  6
Continuous
 62
     3
370
     9
100
AcDbLine
 10
-1312.147150812923
 20
140.4158638619089
 30
0.0
 11
-1242.347346125422
 21
162.4152436127534
 31
0.0
  0
LINE
  5
3E2
330
1F
100
AcDbEntity
  8
A-2_蓋
  6
Continuous
 62
     3
370
     9
100
AcDbLine
 10
-1241.54712573902
 20
140.4158638619089
 30
0.0
 11
-1171.74732105152
 21
162.4152436127534
 31
0.0
  0
LINE
  5
3E3
330
1F
100
AcDbEntity
  8
A-2_蓋
  6
Continuous
 62
     3
370
     9
100
AcDbLine
 10
-1170.946976945207
 20
140.4158638619089
 30
0.0
 11
-1101.147295977618
 21
162.4152436127534
 31
0.0
  0
LINE
  5
3E4
330
1F
100
AcDbEntity
  8
A-2_蓋
  6
Continuous
 62
     3
370
     9
100
AcDbLine
 10
-1100.347075591216
 20
140.4158638619089
 30
0.0
 11
-1030.547270903716
 21
162.4152436127534
 31
0.0
  0
LINE
  5
3E5
330
1F
100
AcDbEntity
  8
A-2_蓋
  6
Continuous
 62
     3
370
     9
100
AcDbLine
 10
-1029.747050517314
 20
140.4158638619089
 30
0.0
 11
-959.9473695497254
 21
162.4152436127534
 31
0.0
  0
LINE
  5
3E6
330
1F
100
AcDbEntity
  8
A-2_蓋
  6
Continuous
 62
     3
370
     9
100
AcDbLine
 10
-959.1467780035895
 20
140.4158638619089
 30
0.0
 11
-889.3470970360008
 21
162.4152436127534
 31
0.0
  0
LINE
  5
3E7
330
1F
100
AcDbEntity
  8
A-2_蓋
  6
Continuous
 62
     3
370
     9
100
AcDbLine
 10
-888.5468766495987
 20
140.4158638619089
 30
0.0
 11
-818.7474431218328
 21
162.4152436127534
 31
0.0
  0
LINE
  5
3E8
330
1F
100
AcDbEntity
  8
A-2_蓋
  6
Continuous
 62
     3
370
     9
100
AcDbLine
 10
-817.9472227354307
 20
140.4158638619089
 30
0.0
 11
-748.1475417678419
 21
162.4152436127534
 31
0.0
  0
LINE
  5
3E9
330
1F
100
AcDbEntity
  8
A-2_蓋
  6
Continuous
 62
     3
370
     9
100
AcDbLine
 10
-747.3470739416175
 20
140.4158638619089
 30
0.0
 11
-677.5473929740286
 21
162.4152436127534
 31
0.0
  0
LINE
  5
3EA
330
1F
100
AcDbEntity
  8
A-2_蓋
  6
Continuous
 62
     3
370
     9
100
AcDbLine
 10
-676.7471725876266
 20
140.4158638619089
 30
0.0
 11
-606.9473679001266
 21
162.4152436127534
 31
0.0
  0
LINE
  5
3EB
330
1F
100
AcDbEntity
  8
A-2_蓋
  6
Continuous
 62
     3
370
     9
100
AcDbLine
 10
-606.1471475137245
 20
140.4158638619089
 30
0.0
 11
-536.3474665461359
 21
162.4152436127534
 31
0.0
  0
LINE
  5
3EC
330
1F
100
AcDbEntity
  8
A-2_蓋
  6
Continuous
 62
     3
370
     9
100
AcDbLine
 10
-535.5472461597338
 20
140.4158638619089
 30
0.0
 11
-465.7475651921453
 21
162.4152436127534
 31
0.0
  0
LINE
  5
3ED
330
1F
100
AcDbEntity
  8
A-2_蓋
  6
Continuous
 62
     3
370
     9
100
AcDbLine
 10
-464.9473448057432
 20
140.4158638619089
 30
0.0
 11
-395.1476638381544
 21
162.4152436127534
 31
0.0
  0
LINE
  5
3EE
330
1F
100
AcDbEntity
  8
A-2_蓋
  6
Continuous
 62
     3
370
     9
100
AcDbLine
 10
-394.3470722920185
 20
140.4158638619089
 30
0.0
 11
-324.5475150443411
 21
162.4152436127534
 31
0.0
  0
LINE
  5
3EF
330
1F
100
AcDbEntity
  8
A-2_蓋
  6
Continuous
 62
     3
370
     9
100
AcDbLine
 10
-323.7472946579391
 20
140.4158638619089
 30
0.0
 11
-253.9476136903505
 21
162.4152436127534
 31
0.0
  0
LINE
  5
3F0
330
1F
100
AcDbEntity
  8
A-2_蓋
  6
Continuous
 62
     3
370
     9
100
AcDbLine
 10
-253.1473933039484
 20
140.4158638619089
 30
0.0
 11
-183.3477123363596
 21
162.4152436127534
 31
0.0
  0
LINE
  5
3F1
330
1F
100
AcDbEntity
  8
A-2_蓋
  6
Continuous
 62
     3
370
     9
100
AcDbLine
 10
-182.5474919499575
 20
140.4158638619089
 30
0.0
 11
-112.7480584221917
 21
162.4152436127534
 31
0.0
  0
LINE
  5
3F2
330
1F
100
AcDbEntity
  8
A-2_蓋
  6
Continuous
 62
     3
370
     9
100
AcDbLine
 10
-111.9472194362331
 20
140.4158638619089
 30
0.0
 11
-42.14741474873307
 21
162.4152436127534
 31
0.0
  0
LINE
  5
3F3
330
1F
100
AcDbEntity
  8
A-2_蓋
  6
Continuous
 62
     3
370
     9
100
AcDbLine
 10
-41.3476892419763
 20
140.4158638619089
 30
0.0
 11
28.4521154455237
 21
162.4152436127534
 31
0.0
  0
LINE
  5
3F4
330
1F
100
AcDbEntity
  8
A-2_蓋
  6
Continuous
 62
     3
370
     9
100
AcDbLine
 10
29.25233583192579
 20
140.4158638619089
 30
0.0
 11
99.05214051942579
 21
162.4152436127534
 31
0.0
  0
LINE
  5
3F5
330
1F
100
AcDbEntity
  8
A-2_蓋
  6
Continuous
 62
     3
370
     9
100
AcDbLine
 10
99.8528557854732
 20
140.4158638619089
 30
0.0
 11
169.6524130331505
 21
162.4152436127534
 31
0.0
  0
LINE
  5
3F6
330
1F
100
AcDbEntity
  8
A-2_蓋
  6
Continuous
 62
     3
370
     9
100
AcDbLine
 10
170.452880859375
 20
140.4158638619089
 30
0.0
 11
240.2524381070526
 21
162.4152436127534
 31
0.0
  0
LINE
  5
3F7
330
1F
100
AcDbEntity
  8
A-2_蓋
  6
Continuous
 62
     3
370
     9
100
AcDbLine
 10
241.0521636138091
 20
140.4158638619089
 30
0.0
 11
310.8522157411318
 21
162.4152436127534
 31
0.0
  0
LINE
  5
3F8
330
1F
100
AcDbEntity
  8
A-2_蓋
  6
Continuous
 62
     3
370
     9
100
AcDbLine
 10
311.6521886877112
 20
140.4158638619089
 30
0.0
 11
381.4522408150339
 21
162.4152436127534
 31
0.0
  0
LINE
  5
3F9
330
1F
100
AcDbEntity
  8
A-2_蓋
  6
Continuous
 62
     3
370
     9
100
AcDbLine
 10
-1608.547891152872
 20
158.2547904349664
 30
0.0
 11
-1595.34722405511
 21
162.4152436127534
 31
0.0
  0
LINE
  5
3FA
330
1F
100
AcDbEntity
  8
A-2_蓋
  6
Continuous
 62
     3
370
     9
100
AcDbLine
 10
1241.804463154561
 20
151.4156774572425
 30
0.0
 11
1230.490772144215
 21
140.1019864468961
 31
0.0
  0
LINE
  5
3FB
330
1F
100
AcDbEntity
  8
A-2_蓋
  6
Continuous
 62
     3
370
     9
100
AcDbLine
 10
1230.490772144215
 20
140.1019864468961
 30
0.0
 11
1219.177081133868
 21
151.4156774572425
 31
0.0
  0
LINE
  5
3FC
330
1F
100
AcDbEntity
  8
A-2_蓋
  6
Continuous
 62
     3
370
     9
100
AcDbLine
 10
1219.177081133868
 20
151.4156774572425
 30
0.0
 11
1230.490772144215
 21
162.7293684675888
 31
0.0
  0
LINE
  5
3FD
330
1F
100
AcDbEntity
  8
A-2_蓋
  6
Continuous
 62
     3
370
     9
100
AcDbLine
 10
1230.490772144215
 20
162.7293684675888
 30
0.0
 11
1241.804463154561
 21
151.4156774572425
 31
0.0
  0
LINE
  5
3FE
330
1F
100
AcDbEntity
  8
A-2_蓋
  6
Continuous
 62
     3
370
     9
100
AcDbLine
 10
1235.177034945102
 20
344.7882904877534
 30
0.0
 11
1235.177034945102
 21
158.0431056667018
 31
0.0
  0
LINE
  5
3FF
330
1F
100
AcDbEntity
  8
A-2_蓋
  6
Continuous
 62
     3
370
     9
100
AcDbLine
 10
1235.177034945102
 20
144.7882492477831
 30
0.0
 11
1235.177034945102
 21
-41.95693557326848
 31
0.0
  0
LINE
  5
400
330
1F
100
AcDbEntity
  8
A-2_蓋
  6
Continuous
 62
     3
370
     9
100
AcDbLine
 10
1238.17699535473
 20
347.7882508973818
 30
0.0
 11
1238.17699535473
 21
155.0431452570734
 31
0.0
  0
LINE
  5
401
330
1F
100
AcDbEntity
  8
A-2_蓋
  6
Continuous
 62
     3
370
     9
100
AcDbLine
 10
1238.17699535473
 20
147.7882096574115
 30
0.0
 11
1238.17699535473
 21
-44.95689598289687
 31
0.0
  0
LINE
  5
402
330
1F
100
AcDbEntity
  8
A-A
  6
Continuous
 62
     3
370
     9
100
AcDbLine
 10
1216.176873284417
 20
109.1216546135982
 30
0.0
 11
1219.177081133868
 21
107.1215985272383
 31
0.0
  0
LINE
  5
403
330
1F
100
AcDbEntity
  8
A-A
  6
Continuous
 62
     3
370
     9
100
AcDbLine
 10
1216.176873284417
 20
94.8955968908362
 30
0.0
 11
1216.176873284417
 21
88.89567607157943
 31
0.0
  0
LINE
  5
404
330
1F
100
AcDbEntity
  8
A-A
  6
Continuous
 62
     3
370
     9
100
AcDbLine
 10
1216.176873284417
 20
94.8955968908362
 30
0.0
 11
1219.177081133868
 21
96.89565297719611
 31
0.0
  0
LINE
  5
405
330
1F
100
AcDbEntity
  8
A-A
  6
Continuous
 62
     3
370
     9
100
AcDbLine
 10
1216.176873284417
 20
88.89567607157943
 30
0.0
 11
1219.177081133868
 21
86.89561998521981
 31
0.0
  0
LINE
  5
406
330
1F
100
AcDbEntity
  8
A-A
  6
Continuous
 62
     3
370
     9
100
AcDbLine
 10
1219.177081133868
 20
96.89565297719611
 30
0.0
 11
1219.177081133868
 21
107.1215985272383
 31
0.0
  0
LINE
  5
407
330
1F
100
AcDbEntity
  8
A-A
  6
Continuous
 62
     3
370
     9
100
AcDbLine
 10
1216.176873284417
 20
74.66937090899506
 30
0.0
 11
1216.176873284417
 21
62.66952927048152
 31
0.0
  0
LINE
  5
408
330
1F
100
AcDbEntity
  8
A-A
  6
Continuous
 62
     3
370
     9
100
AcDbLine
 10
1216.176873284417
 20
74.66937090899506
 30
0.0
 11
1219.177081133868
 21
76.66967443517734
 31
0.0
  0
LINE
  5
409
330
1F
100
AcDbEntity
  8
A-A
  6
Continuous
 62
     3
370
     9
100
AcDbLine
 10
1219.177081133868
 20
86.89561998521981
 30
0.0
 11
1219.177081133868
 21
76.66967443517734
 31
0.0
  0
LINE
  5
40A
330
1F
100
AcDbEntity
  8
A-A
  6
Continuous
 62
     3
370
     9
100
AcDbLine
 10
1216.176873284417
 20
62.66952927048152
 30
0.0
 11
1219.177081133868
 21
60.66947318412161
 31
0.0
  0
LINE
  5
40B
330
1F
100
AcDbEntity
  8
A-A
  6
Continuous
 62
     3
370
     9
100
AcDbLine
 10
1216.176873284417
 20
48.44347154771981
 30
0.0
 11
1216.176873284417
 21
42.44355072846304
 31
0.0
  0
LINE
  5
40C
330
1F
100
AcDbEntity
  8
A-A
  6
Continuous
 62
     3
370
     9
100
AcDbLine
 10
1216.176873284417
 20
48.44347154771981
 30
0.0
 11
1219.177081133868
 21
50.44352763407943
 31
0.0
  0
LINE
  5
40D
330
1F
100
AcDbEntity
  8
A-A
  6
Continuous
 62
     3
370
     9
100
AcDbLine
 10
1216.176873284417
 20
42.44355072846304
 30
0.0
 11
1219.177081133868
 21
40.44349464210313
 31
0.0
  0
LINE
  5
40E
330
1F
100
AcDbEntity
  8
A-A
  6
Continuous
 62
     3
370
     9
100
AcDbLine
 10
1219.177081133868
 20
50.44352763407943
 30
0.0
 11
1219.177081133868
 21
60.66947318412161
 31
0.0
  0
LINE
  5
40F
330
1F
100
AcDbEntity
  8
A-A
  6
Continuous
 62
     3
370
     9
100
AcDbLine
 10
1216.176873284417
 20
28.21724556587839
 30
0.0
 11
1216.176873284417
 21
16.21740392736484
 31
0.0
  0
LINE
  5
410
330
1F
100
AcDbEntity
  8
A-A
  6
Continuous
 62
     3
370
     9
100
AcDbLine
 10
1216.176873284417
 20
28.21724556587839
 30
0.0
 11
1219.177081133868
 21
30.21754909206095
 31
0.0
  0
LINE
  5
411
330
1F
100
AcDbEntity
  8
A-A
  6
Continuous
 62
     3
370
     9
100
AcDbLine
 10
1219.177081133868
 20
40.44349464210313
 30
0.0
 11
1219.177081133868
 21
30.21754909206095
 31
0.0
  0
LINE
  5
412
330
1F
100
AcDbEntity
  8
A-A
  6
Continuous
 62
     3
370
     9
100
AcDbLine
 10
1216.176873284417
 20
16.21740392736484
 30
0.0
 11
1219.177081133868
 21
14.21734784100522
 31
0.0
  0
LINE
  5
413
330
1F
100
AcDbEntity
  8
A-A
  6
Continuous
 62
     3
370
     9
100
AcDbLine
 10
1216.176873284417
 20
1.991346204603133
 30
0.0
 11
1216.176873284417
 21
-4.008574614653639
 31
0.0
  0
LINE
  5
414
330
1F
100
AcDbEntity
  8
A-A
  6
Continuous
 62
     3
370
     9
100
AcDbLine
 10
1216.176873284417
 20
1.991346204603133
 30
0.0
 11
1219.177081133868
 21
3.991402290963038
 31
0.0
  0
LINE
  5
415
330
1F
100
AcDbEntity
  8
A-A
  6
Continuous
 62
     3
370
     9
100
AcDbLine
 10
1216.176873284417
 20
-4.008574614653639
 30
0.0
 11
1219.177081133868
 21
-6.008630701013544
 31
0.0
  0
LINE
  5
416
330
1F
100
AcDbEntity
  8
A-A
  6
Continuous
 62
     3
370
     9
100
AcDbLine
 10
1219.177081133868
 20
3.991402290963038
 30
0.0
 11
1219.177081133868
 21
14.21734784100522
 31
0.0
  0
LINE
  5
417
330
1F
100
AcDbEntity
  8
A-A
  6
Continuous
 62
     3
370
     9
100
AcDbLine
 10
1216.176873284417
 20
-18.23487977723801
 30
0.0
 11
1216.176873284417
 21
-30.23472141575155
 31
0.0
  0
LINE
  5
418
330
1F
100
AcDbEntity
  8
A-A
  6
Continuous
 62
     3
370
     9
100
AcDbLine
 10
1216.176873284417
 20
-18.23487977723801
 30
0.0
 11
1219.177081133868
 21
-16.23457625105573
 31
0.0
  0
LINE
  5
419
330
1F
100
AcDbEntity
  8
A-A
  6
Continuous
 62
     3
370
     9
100
AcDbLine
 10
1219.177081133868
 20
-6.008630701013544
 30
0.0
 11
1219.177081133868
 21
-16.23457625105573
 31
0.0
  0
LINE
  5
41A
330
1F
100
AcDbEntity
  8
A-A
  6
Continuous
 62
     3
370
     9
100
AcDbLine
 10
1216.176873284417
 20
-30.23472141575155
 30
0.0
 11
1219.177081133868
 21
-32.23477750211146
 31
0.0
  0
LINE
  5
41B
330
1F
100
AcDbEntity
  8
A-A
  6
Continuous
 62
     3
370
     9
100
AcDbLine
 10
1216.176873284417
 20
-44.46077913851354
 30
0.0
 11
1216.176873284417
 21
-50.46069995777032
 31
0.0
  0
LINE
  5
41C
330
1F
100
AcDbEntity
  8
A-A
  6
Continuous
 62
     3
370
     9
100
AcDbLine
 10
1216.176873284417
 20
-44.46077913851354
 30
0.0
 11
1219.177081133868
 21
-42.46072305215364
 31
0.0
  0
LINE
  5
41D
330
1F
100
AcDbEntity
  8
A-A
  6
Continuous
 62
     3
370
     9
100
AcDbLine
 10
1216.176873284417
 20
-50.46069995777032
 30
0.0
 11
1219.177081133868
 21
-52.46075604412994
 31
0.0
  0
LINE
  5
41E
330
1F
100
AcDbEntity
  8
A-A
  6
Continuous
 62
     3
370
     9
100
AcDbLine
 10
1219.177081133868
 20
-42.46072305215364
 30
0.0
 11
1219.177081133868
 21
-32.23477750211146
 31
0.0
  0
LINE
  5
41F
330
1F
100
AcDbEntity
  8
A-A
  6
Continuous
 62
     3
370
     9
100
AcDbLine
 10
1216.176873284417
 20
-64.68700512035468
 30
0.0
 11
1216.176873284417
 21
-76.68684675886823
 31
0.0
  0
LINE
  5
420
330
1F
100
AcDbEntity
  8
A-A
  6
Continuous
 62
     3
370
     9
100
AcDbLine
 10
1216.176873284417
 20
-64.68700512035468
 30
0.0
 11
1219.177081133868
 21
-62.68670159417212
 31
0.0
  0
LINE
  5
421
330
1F
100
AcDbEntity
  8
A-A
  6
Continuous
 62
     3
370
     9
100
AcDbLine
 10
1219.177081133868
 20
-52.46075604412994
 30
0.0
 11
1219.177081133868
 21
-62.68670159417212
 31
0.0
  0
LINE
  5
422
330
1F
100
AcDbEntity
  8
A-A
  6
Continuous
 62
     3
370
     9
100
AcDbLine
 10
1216.176873284417
 20
-76.68684675886823
 30
0.0
 11
1219.177081133868
 21
-78.68690284522785
 31
0.0
  0
LINE
  5
423
330
1F
100
AcDbEntity
  8
A-A
  6
Continuous
 62
     3
370
     9
100
AcDbLine
 10
1216.176873284417
 20
-90.91290448162994
 30
0.0
 11
1216.176873284417
 21
-96.91282530088671
 31
0.0
  0
LINE
  5
424
330
1F
100
AcDbEntity
  8
A-A
  6
Continuous
 62
     3
370
     9
100
AcDbLine
 10
1216.176873284417
 20
-90.91290448162994
 30
0.0
 11
1219.177081133868
 21
-88.91284839527032
 31
0.0
  0
LINE
  5
425
330
1F
100
AcDbEntity
  8
A-A
  6
Continuous
 62
     3
370
     9
100
AcDbLine
 10
1216.176873284417
 20
-96.91282530088671
 30
0.0
 11
1219.177081133868
 21
-98.91288138724661
 31
0.0
  0
LINE
  5
426
330
1F
100
AcDbEntity
  8
A-A
  6
Continuous
 62
     3
370
     9
100
AcDbLine
 10
1219.177081133868
 20
-88.91284839527032
 30
0.0
 11
1219.177081133868
 21
-78.68690284522785
 31
0.0
  0
LINE
  5
427
330
1F
100
AcDbEntity
  8
A-A
  6
Continuous
 62
     3
370
     9
100
AcDbLine
 10
1216.176873284417
 20
-111.1391304634711
 30
0.0
 11
1216.176873284417
 21
-123.1389721019846
 31
0.0
  0
LINE
  5
428
330
1F
100
AcDbEntity
  8
A-A
  6
Continuous
 62
     3
370
     9
100
AcDbLine
 10
1216.176873284417
 20
-111.1391304634711
 30
0.0
 11
1219.177081133868
 21
-109.1388269372888
 31
0.0
  0
LINE
  5
429
330
1F
100
AcDbEntity
  8
A-A
  6
Continuous
 62
     3
370
     9
100
AcDbLine
 10
1219.177081133868
 20
-98.91288138724661
 30
0.0
 11
1219.177081133868
 21
-109.1388269372888
 31
0.0
  0
LINE
  5
42A
330
1F
100
AcDbEntity
  8
A-A
  6
Continuous
 62
     3
370
     9
100
AcDbLine
 10
1216.176873284417
 20
-123.1389721019846
 30
0.0
 11
1219.177081133868
 21
-125.1390281883445
 31
0.0
  0
LINE
  5
42B
330
1F
100
AcDbEntity
  8
A-A
  6
Continuous
 62
     3
370
     9
100
AcDbLine
 10
1216.176873284417
 20
-137.3650298247466
 30
0.0
 11
1219.177081133868
 21
-135.3649737383867
 31
0.0
  0
LINE
  5
42C
330
1F
100
AcDbEntity
  8
A-A
  6
Continuous
 62
     3
370
     9
100
AcDbLine
 10
1219.177081133868
 20
-135.3649737383867
 30
0.0
 11
1219.177081133868
 21
-125.1390281883445
 31
0.0
  0
LINE
  5
42D
330
1F
100
AcDbEntity
  8
A-A
  6
Continuous
 62
     3
370
     9
100
AcDbLine
 10
1216.176873284417
 20
-137.3650298247466
 30
0.0
 11
1216.176873284417
 21
-139.5849361935177
 31
0.0
  0
LINE
  5
42E
330
1F
100
AcDbEntity
  8
A-2_蓋
  6
Continuous
 62
     3
370
     9
100
AcDbLine
 10
1216.176873284417
 20
-139.5849361935177
 30
0.0
 11
1307.177074535473
 21
-139.5849361935177
 31
0.0
  0
LINE
  5
42F
330
1F
100
AcDbEntity
  8
A-4_寸法
  6
Continuous
 62
     7
370
     9
100
AcDbLine
 10
-861.0472808013092
 20
762.4152436127533
 30
0.0
 11
-745.7754599081502
 21
1192.615356445312
 31
0.0
  0
LINE
  5
430
330
1F
100
AcDbEntity
  8
A-1_ピット
  6
Continuous
 62
     2
370
     9
100
AcDbLine
 10
-1615.54796373522
 20
871.4152073215794
 30
0.0
 11
-1615.54796373522
 21
-168.5846359665328
 31
0.0
  0
LINE
  5
431
330
1F
100
AcDbEntity
  8
A-1_ピット
  6
Continuous
 62
     2
370
     9
100
AcDbLine
 10
388.4528082770271
 20
871.4152073215794
 30
0.0
 11
388.4528082770271
 21
-168.5846359665328
 31
0.0
  0
LINE
  5
432
330
1F
100
AcDbEntity
  8
A-2_蓋
  6
Continuous
 62
     3
370
     9
100
AcDbLine
 10
-1594.547003668708
 20
-37.58479762721691
 30
0.0
 11
-1594.547003668708
 21
140.4158638619089
 31
0.0
  0
LINE
  5
433
330
1F
100
AcDbEntity
  8
A-2_蓋
  6
Continuous
 62
     3
370
     9
100
AcDbLine
 10
-1594.547003668708
 20
162.4152436127534
 30
0.0
 11
-1594.547003668708
 21
340.4159051018794
 31
0.0
  0
LINE
  5
434
330
1F
100
AcDbEntity
  8
A-2_蓋
  6
Continuous
 62
     3
370
     9
100
AcDbLine
 10
-1468.146947912268
 20
340.4159051018794
 30
0.0
 11
-1468.146947912268
 21
162.4152436127534
 31
0.0
  0
LINE
  5
435
330
1F
100
AcDbEntity
  8
A-2_蓋
  6
Continuous
 62
     3
370
     9
100
AcDbLine
 10
-1468.146947912268
 20
140.4158638619089
 30
0.0
 11
-1468.146947912268
 21
-37.58479762721691
 31
0.0
  0
LINE
  5
436
330
1F
100
AcDbEntity
  8
A-2_蓋
  6
Continuous
 62
     3
370
     9
100
AcDbLine
 10
-1538.747344145904
 20
340.4159051018794
 30
0.0
 11
-1538.747344145904
 21
162.4152436127534
 31
0.0
  0
LINE
  5
437
330
1F
100
AcDbEntity
  8
A-2_蓋
  6
Continuous
 62
     3
370
     9
100
AcDbLine
 10
-1538.747344145904
 20
140.4158638619089
 30
0.0
 11
-1538.747344145904
 21
-37.58479762721691
 31
0.0
  0
LINE
  5
438
330
1F
100
AcDbEntity
  8
A-2_蓋
  6
Continuous
 62
     3
370
     9
100
AcDbLine
 10
-1524.747198981208
 20
340.4159051018794
 30
0.0
 11
-1524.747198981208
 21
162.4152436127534
 31
0.0
  0
LINE
  5
439
330
1F
100
AcDbEntity
  8
A-2_蓋
  6
Continuous
 62
     3
370
     9
100
AcDbLine
 10
-1524.747198981208
 20
140.4158638619089
 30
0.0
 11
-1524.747198981208
 21
-37.58479762721691
 31
0.0
  0
LINE
  5
43A
330
1F
100
AcDbEntity
  8
A-2_蓋
  6
Continuous
 62
     3
370
     9
100
AcDbLine
 10
-1256.346996410473
 20
340.4159051018794
 30
0.0
 11
-1256.346996410473
 21
162.4152436127534
 31
0.0
  0
LINE
  5
43B
330
1F
100
AcDbEntity
  8
A-2_蓋
  6
Continuous
 62
     3
370
     9
100
AcDbLine
 10
-1256.346996410473
 20
140.4158638619089
 30
0.0
 11
-1256.346996410473
 21
-37.58479762721691
 31
0.0
  0
LINE
  5
43C
330
1F
100
AcDbEntity
  8
A-2_蓋
  6
Continuous
 62
     3
370
     9
100
AcDbLine
 10
-1326.947268924198
 20
340.4159051018794
 30
0.0
 11
-1326.947268924198
 21
162.4152436127534
 31
0.0
  0
LINE
  5
43D
330
1F
100
AcDbEntity
  8
A-2_蓋
  6
Continuous
 62
     3
370
     9
100
AcDbLine
 10
-1326.947268924198
 20
140.4158638619089
 30
0.0
 11
-1326.947268924198
 21
-37.58479762721691
 31
0.0
  0
LINE
  5
43E
330
1F
100
AcDbEntity
  8
A-2_蓋
  6
Continuous
 62
     3
370
     9
100
AcDbLine
 10
-1312.947371199325
 20
340.4159051018794
 30
0.0
 11
-1312.947371199325
 21
162.4152436127534
 31
0.0
  0
LINE
  5
43F
330
1F
100
AcDbEntity
  8
A-2_蓋
  6
Continuous
 62
     3
370
     9
100
AcDbLine
 10
-1312.947371199325
 20
140.4158638619089
 30
0.0
 11
-1312.947371199325
 21
-37.58479762721691
 31
0.0
  0
LINE
  5
440
330
1F
100
AcDbEntity
  8
A-2_蓋
  6
Continuous
 62
     3
370
     9
100
AcDbLine
 10
-1397.546551678632
 20
340.4159051018794
 30
0.0
 11
-1397.546551678632
 21
162.4152436127534
 31
0.0
  0
LINE
  5
441
330
1F
100
AcDbEntity
  8
A-2_蓋
  6
Continuous
 62
     3
370
     9
100
AcDbLine
 10
-1397.546551678632
 20
140.4158638619089
 30
0.0
 11
-1397.546551678632
 21
-37.58479762721691
 31
0.0
  0
LINE
  5
442
330
1F
100
AcDbEntity
  8
A-2_蓋
  6
Continuous
 62
     3
370
     9
100
AcDbLine
 10
-1383.546653953758
 20
340.4159051018794
 30
0.0
 11
-1383.546653953758
 21
162.4152436127534
 31
0.0
  0
LINE
  5
443
330
1F
100
AcDbEntity
  8
A-2_蓋
  6
Continuous
 62
     3
370
     9
100
AcDbLine
 10
-1383.546653953758
 20
140.4158638619089
 30
0.0
 11
-1383.546653953758
 21
-37.58479762721691
 31
0.0
  0
LINE
  5
444
330
1F
100
AcDbEntity
  8
A-2_蓋
  6
Continuous
 62
     3
370
     9
100
AcDbLine
 10
-1454.146926467483
 20
340.4159051018794
 30
0.0
 11
-1454.146926467483
 21
162.4152436127534
 31
0.0
  0
LINE
  5
445
330
1F
100
AcDbEntity
  8
A-2_蓋
  6
Continuous
 62
     3
370
     9
100
AcDbLine
 10
-1454.146926467483
 20
140.4158638619089
 30
0.0
 11
-1454.146926467483
 21
-37.58479762721691
 31
0.0
  0
LINE
  5
446
330
1F
100
AcDbEntity
  8
A-2_蓋
  6
Continuous
 62
     3
370
     9
100
AcDbLine
 10
-1044.546797468855
 20
340.4159051018794
 30
0.0
 11
-1044.546797468855
 21
162.4152436127534
 31
0.0
  0
LINE
  5
447
330
1F
100
AcDbEntity
  8
A-2_蓋
  6
Continuous
 62
     3
370
     9
100
AcDbLine
 10
-1044.546797468855
 20
140.4158638619089
 30
0.0
 11
-1044.546797468855
 21
-37.58479762721691
 31
0.0
  0
LINE
  5
448
330
1F
100
AcDbEntity
  8
A-2_蓋
  6
Continuous
 62
     3
370
     9
100
AcDbLine
 10
-1030.547023463894
 20
340.4159051018794
 30
0.0
 11
-1030.547023463894
 21
162.4152436127534
 31
0.0
  0
LINE
  5
449
330
1F
100
AcDbEntity
  8
A-2_蓋
  6
Continuous
 62
     3
370
     9
100
AcDbLine
 10
-1030.547023463894
 20
140.4158638619089
 30
0.0
 11
-1030.547023463894
 21
-37.58479762721691
 31
0.0
  0
LINE
  5
44A
330
1F
100
AcDbEntity
  8
A-2_蓋
  6
Continuous
 62
     3
370
     9
100
AcDbLine
 10
-1115.147193702491
 20
340.4159051018794
 30
0.0
 11
-1115.147193702491
 21
162.4152436127534
 31
0.0
  0
LINE
  5
44B
330
1F
100
AcDbEntity
  8
A-2_蓋
  6
Continuous
 62
     3
370
     9
100
AcDbLine
 10
-1115.147193702491
 20
140.4158638619089
 30
0.0
 11
-1115.147193702491
 21
-37.58479762721691
 31
0.0
  0
LINE
  5
44C
330
1F
100
AcDbEntity
  8
A-2_蓋
  6
Continuous
 62
     3
370
     9
100
AcDbLine
 10
-1101.147295977618
 20
340.4159051018794
 30
0.0
 11
-1101.147295977618
 21
162.4152436127534
 31
0.0
  0
LINE
  5
44D
330
1F
100
AcDbEntity
  8
A-2_蓋
  6
Continuous
 62
     3
370
     9
100
AcDbLine
 10
-1101.147295977618
 20
140.4158638619089
 30
0.0
 11
-1101.147295977618
 21
-37.58479762721691
 31
0.0
  0
LINE
  5
44E
330
1F
100
AcDbEntity
  8
A-2_蓋
  6
Continuous
 62
     3
370
     9
100
AcDbLine
 10
-1185.746600176837
 20
340.4159051018794
 30
0.0
 11
-1185.746600176837
 21
162.4152436127534
 31
0.0
  0
LINE
  5
44F
330
1F
100
AcDbEntity
  8
A-2_蓋
  6
Continuous
 62
     3
370
     9
100
AcDbLine
 10
-1185.746600176837
 20
140.4158638619089
 30
0.0
 11
-1185.746600176837
 21
-37.58479762721691
 31
0.0
  0
LINE
  5
450
330
1F
100
AcDbEntity
  8
A-2_蓋
  6
Continuous
 62
     3
370
     9
100
AcDbLine
 10
-1171.746578732052
 20
340.4159051018794
 30
0.0
 11
-1171.746578732052
 21
162.4152436127534
 31
0.0
  0
LINE
  5
451
330
1F
100
AcDbEntity
  8
A-2_蓋
  6
Continuous
 62
     3
370
     9
100
AcDbLine
 10
-1171.746578732052
 20
140.4158638619089
 30
0.0
 11
-1171.746578732052
 21
-37.58479762721691
 31
0.0
  0
LINE
  5
452
330
1F
100
AcDbEntity
  8
A-2_蓋
  6
Continuous
 62
     3
370
     9
100
AcDbLine
 10
-1242.346974965688
 20
340.4159051018794
 30
0.0
 11
-1242.346974965688
 21
162.4152436127534
 31
0.0
  0
LINE
  5
453
330
1F
100
AcDbEntity
  8
A-2_蓋
  6
Continuous
 62
     3
370
     9
100
AcDbLine
 10
-1242.346974965688
 20
140.4158638619089
 30
0.0
 11
-1242.346974965688
 21
-37.58479762721691
 31
0.0
  0
LINE
  5
454
330
1F
100
AcDbEntity
  8
A-2_蓋
  6
Continuous
 62
     3
370
     9
100
AcDbLine
 10
-762.1474394927154
 20
340.4159051018794
 30
0.0
 11
-762.1474394927154
 21
162.4152436127534
 31
0.0
  0
LINE
  5
455
330
1F
100
AcDbEntity
  8
A-2_蓋
  6
Continuous
 62
     3
370
     9
100
AcDbLine
 10
-762.1474394927154
 20
140.4158638619089
 30
0.0
 11
-762.1474394927154
 21
-37.58479762721691
 31
0.0
  0
LINE
  5
456
330
1F
100
AcDbEntity
  8
A-2_蓋
  6
Continuous
 62
     3
370
     9
100
AcDbLine
 10
-748.1475417678419
 20
340.4159051018794
 30
0.0
 11
-748.1475417678419
 21
162.4152436127534
 31
0.0
  0
LINE
  5
457
330
1F
100
AcDbEntity
  8
A-2_蓋
  6
Continuous
 62
     3
370
     9
100
AcDbLine
 10
-748.1475417678419
 20
140.4158638619089
 30
0.0
 11
-748.1475417678419
 21
-37.58479762721691
 31
0.0
  0
LINE
  5
458
330
1F
100
AcDbEntity
  8
A-2_蓋
  6
Continuous
 62
     3
370
     9
100
AcDbLine
 10
-832.7467222471495
 20
340.4159051018794
 30
0.0
 11
-832.7467222471495
 21
162.4152436127534
 31
0.0
  0
LINE
  5
459
330
1F
100
AcDbEntity
  8
A-2_蓋
  6
Continuous
 62
     3
370
     9
100
AcDbLine
 10
-832.7467222471495
 20
140.4158638619089
 30
0.0
 11
-832.7467222471495
 21
-37.58479762721691
 31
0.0
  0
LINE
  5
45A
330
1F
100
AcDbEntity
  8
A-2_蓋
  6
Continuous
 62
     3
370
     9
100
AcDbLine
 10
-818.7469482421875
 20
340.4159051018794
 30
0.0
 11
-818.7469482421875
 21
162.4152436127534
 31
0.0
  0
LINE
  5
45B
330
1F
100
AcDbEntity
  8
A-2_蓋
  6
Continuous
 62
     3
370
     9
100
AcDbLine
 10
-818.7469482421875
 20
140.4158638619089
 30
0.0
 11
-818.7469482421875
 21
-37.58479762721691
 31
0.0
  0
LINE
  5
45C
330
1F
100
AcDbEntity
  8
A-2_蓋
  6
Continuous
 62
     3
370
     9
100
AcDbLine
 10
-903.3472422006968
 20
340.4159051018794
 30
0.0
 11
-903.3472422006968
 21
162.4152436127534
 31
0.0
  0
LINE
  5
45D
330
1F
100
AcDbEntity
  8
A-2_蓋
  6
Continuous
 62
     3
370
     9
100
AcDbLine
 10
-903.3472422006968
 20
140.4158638619089
 30
0.0
 11
-903.3472422006968
 21
-37.58479762721691
 31
0.0
  0
LINE
  5
45E
330
1F
100
AcDbEntity
  8
A-2_蓋
  6
Continuous
 62
     3
370
     9
100
AcDbLine
 10
-889.3470970360008
 20
340.4159051018794
 30
0.0
 11
-889.3470970360008
 21
162.4152436127534
 31
0.0
  0
LINE
  5
45F
330
1F
100
AcDbEntity
  8
A-2_蓋
  6
Continuous
 62
     3
370
     9
100
AcDbLine
 10
-889.3470970360008
 20
140.4158638619089
 30
0.0
 11
-889.3470970360008
 21
-37.58479762721691
 31
0.0
  0
LINE
  5
460
330
1F
100
AcDbEntity
  8
A-2_蓋
  6
Continuous
 62
     3
370
     9
100
AcDbLine
 10
-973.9466486750422
 20
340.4159051018794
 30
0.0
 11
-973.9466486750422
 21
162.4152436127534
 31
0.0
  0
LINE
  5
461
330
1F
100
AcDbEntity
  8
A-2_蓋
  6
Continuous
 62
     3
370
     9
100
AcDbLine
 10
-973.9466486750422
 20
140.4158638619089
 30
0.0
 11
-973.9466486750422
 21
-37.58479762721691
 31
0.0
  0
LINE
  5
462
330
1F
100
AcDbEntity
  8
A-2_蓋
  6
Continuous
 62
     3
370
     9
100
AcDbLine
 10
-959.9465035103462
 20
340.4159051018794
 30
0.0
 11
-959.9465035103462
 21
162.4152436127534
 31
0.0
  0
LINE
  5
463
330
1F
100
AcDbEntity
  8
A-2_蓋
  6
Continuous
 62
     3
370
     9
100
AcDbLine
 10
-959.9465035103462
 20
140.4158638619089
 30
0.0
 11
-959.9465035103462
 21
-37.58479762721691
 31
0.0
  0
LINE
  5
464
330
1F
100
AcDbEntity
  8
A-2_蓋
  6
Continuous
 62
     3
370
     9
100
AcDbLine
 10
-479.7470917572846
 20
340.4159051018794
 30
0.0
 11
-479.7470917572846
 21
162.4152436127534
 31
0.0
  0
LINE
  5
465
330
1F
100
AcDbEntity
  8
A-2_蓋
  6
Continuous
 62
     3
370
     9
100
AcDbLine
 10
-479.7470917572846
 20
140.4158638619089
 30
0.0
 11
-479.7470917572846
 21
-37.58479762721691
 31
0.0
  0
LINE
  5
466
330
1F
100
AcDbEntity
  8
A-2_蓋
  6
Continuous
 62
     3
370
     9
100
AcDbLine
 10
-465.7471940324112
 20
340.4159051018794
 30
0.0
 11
-465.7471940324112
 21
162.4152436127534
 31
0.0
  0
LINE
  5
467
330
1F
100
AcDbEntity
  8
A-2_蓋
  6
Continuous
 62
     3
370
     9
100
AcDbLine
 10
-465.7471940324112
 20
140.4158638619089
 30
0.0
 11
-465.7471940324112
 21
-37.58479762721691
 31
0.0
  0
LINE
  5
468
330
1F
100
AcDbEntity
  8
A-2_蓋
  6
Continuous
 62
     3
370
     9
100
AcDbLine
 10
-550.3473642710092
 20
340.4159051018794
 30
0.0
 11
-550.3473642710092
 21
162.4152436127534
 31
0.0
  0
LINE
  5
469
330
1F
100
AcDbEntity
  8
A-2_蓋
  6
Continuous
 62
     3
370
     9
100
AcDbLine
 10
-550.3473642710092
 20
140.4158638619089
 30
0.0
 11
-550.3473642710092
 21
-37.58479762721691
 31
0.0
  0
LINE
  5
46A
330
1F
100
AcDbEntity
  8
A-2_蓋
  6
Continuous
 62
     3
370
     9
100
AcDbLine
 10
-536.3474665461359
 20
340.4159051018794
 30
0.0
 11
-536.3474665461359
 21
162.4152436127534
 31
0.0
  0
LINE
  5
46B
330
1F
100
AcDbEntity
  8
A-2_蓋
  6
Continuous
 62
     3
370
     9
100
AcDbLine
 10
-536.3474665461359
 20
140.4158638619089
 30
0.0
 11
-536.3474665461359
 21
-37.58479762721691
 31
0.0
  0
LINE
  5
46C
330
1F
100
AcDbEntity
  8
A-2_蓋
  6
Continuous
 62
     3
370
     9
100
AcDbLine
 10
-620.9466470254432
 20
340.4159051018794
 30
0.0
 11
-620.9466470254432
 21
162.4152436127534
 31
0.0
  0
LINE
  5
46D
330
1F
100
AcDbEntity
  8
A-2_蓋
  6
Continuous
 62
     3
370
     9
100
AcDbLine
 10
-620.9466470254432
 20
140.4158638619089
 30
0.0
 11
-620.9466470254432
 21
-37.58479762721691
 31
0.0
  0
LINE
  5
46E
330
1F
100
AcDbEntity
  8
A-2_蓋
  6
Continuous
 62
     3
370
     9
100
AcDbLine
 10
-606.9468730204812
 20
340.4159051018794
 30
0.0
 11
-606.9468730204812
 21
162.4152436127534
 31
0.0
  0
LINE
  5
46F
330
1F
100
AcDbEntity
  8
A-2_蓋
  6
Continuous
 62
     3
370
     9
100
AcDbLine
 10
-606.9468730204812
 20
140.4158638619089
 30
0.0
 11
-606.9468730204812
 21
-37.58479762721691
 31
0.0
  0
LINE
  5
470
330
1F
100
AcDbEntity
  8
A-2_蓋
  6
Continuous
 62
     3
370
     9
100
AcDbLine
 10
-691.5471669789906
 20
340.4159051018794
 30
0.0
 11
-691.5471669789906
 21
162.4152436127534
 31
0.0
  0
LINE
  5
471
330
1F
100
AcDbEntity
  8
A-2_蓋
  6
Continuous
 62
     3
370
     9
100
AcDbLine
 10
-691.5471669789906
 20
140.4158638619089
 30
0.0
 11
-691.5471669789906
 21
-37.58479762721691
 31
0.0
  0
LINE
  5
472
330
1F
100
AcDbEntity
  8
A-2_蓋
  6
Continuous
 62
     3
370
     9
100
AcDbLine
 10
-677.5470218142948
 20
340.4159051018794
 30
0.0
 11
-677.5470218142948
 21
162.4152436127534
 31
0.0
  0
LINE
  5
473
330
1F
100
AcDbEntity
  8
A-2_蓋
  6
Continuous
 62
     3
370
     9
100
AcDbLine
 10
-677.5470218142948
 20
140.4158638619089
 30
0.0
 11
-677.5470218142948
 21
-37.58479762721691
 31
0.0
  0
LINE
  5
474
330
1F
100
AcDbEntity
  8
A-2_蓋
  6
Continuous
 62
     3
370
     9
100
AcDbLine
 10
-197.3478575010557
 20
340.4159051018794
 30
0.0
 11
-197.3478575010557
 21
162.4152436127534
 31
0.0
  0
LINE
  5
475
330
1F
100
AcDbEntity
  8
A-2_蓋
  6
Continuous
 62
     3
370
     9
100
AcDbLine
 10
-197.3478575010557
 20
140.4158638619089
 30
0.0
 11
-197.3478575010557
 21
-37.58479762721691
 31
0.0
  0
LINE
  5
476
330
1F
100
AcDbEntity
  8
A-2_蓋
  6
Continuous
 62
     3
370
     9
100
AcDbLine
 10
-183.3477123363596
 20
340.4159051018794
 30
0.0
 11
-183.3477123363596
 21
162.4152436127534
 31
0.0
  0
LINE
  5
477
330
1F
100
AcDbEntity
  8
A-2_蓋
  6
Continuous
 62
     3
370
     9
100
AcDbLine
 10
-183.3477123363596
 20
140.4158638619089
 30
0.0
 11
-183.3477123363596
 21
-37.58479762721691
 31
0.0
  0
LINE
  5
478
330
1F
100
AcDbEntity
  8
A-2_蓋
  6
Continuous
 62
     3
370
     9
100
AcDbLine
 10
-267.9471402554898
 20
340.4159051018794
 30
0.0
 11
-267.9471402554898
 21
162.4152436127534
 31
0.0
  0
LINE
  5
479
330
1F
100
AcDbEntity
  8
A-2_蓋
  6
Continuous
 62
     3
370
     9
100
AcDbLine
 10
-267.9471402554898
 20
140.4158638619089
 30
0.0
 11
-267.9471402554898
 21
-37.58479762721691
 31
0.0
  0
LINE
  5
47A
330
1F
100
AcDbEntity
  8
A-2_蓋
  6
Continuous
 62
     3
370
     9
100
AcDbLine
 10
-253.9469950907937
 20
340.4159051018794
 30
0.0
 11
-253.9469950907937
 21
162.4152436127534
 31
0.0
  0
LINE
  5
47B
330
1F
100
AcDbEntity
  8
A-2_蓋
  6
Continuous
 62
     3
370
     9
100
AcDbLine
 10
-253.9469950907937
 20
140.4158638619089
 30
0.0
 11
-253.9469950907937
 21
-37.58479762721691
 31
0.0
  0
LINE
  5
47C
330
1F
100
AcDbEntity
  8
A-2_蓋
  6
Continuous
 62
     3
370
     9
100
AcDbLine
 10
-338.5474127692143
 20
340.4159051018794
 30
0.0
 11
-338.5474127692143
 21
162.4152436127534
 31
0.0
  0
LINE
  5
47D
330
1F
100
AcDbEntity
  8
A-2_蓋
  6
Continuous
 62
     3
370
     9
100
AcDbLine
 10
-338.5474127692143
 20
140.4158638619089
 30
0.0
 11
-338.5474127692143
 21
-37.58479762721691
 31
0.0
  0
LINE
  5
47E
330
1F
100
AcDbEntity
  8
A-2_蓋
  6
Continuous
 62
     3
370
     9
100
AcDbLine
 10
-324.5475150443411
 20
340.4159051018794
 30
0.0
 11
-324.5475150443411
 21
162.4152436127534
 31
0.0
  0
LINE
  5
47F
330
1F
100
AcDbEntity
  8
A-2_蓋
  6
Continuous
 62
     3
370
     9
100
AcDbLine
 10
-324.5475150443411
 20
140.4158638619089
 30
0.0
 11
-324.5475150443411
 21
-37.58479762721691
 31
0.0
  0
LINE
  5
480
330
1F
100
AcDbEntity
  8
A-2_蓋
  6
Continuous
 62
     3
370
     9
100
AcDbLine
 10
-409.1478090028505
 20
340.4159051018794
 30
0.0
 11
-409.1478090028505
 21
162.4152436127534
 31
0.0
  0
LINE
  5
481
330
1F
100
AcDbEntity
  8
A-2_蓋
  6
Continuous
 62
     3
370
     9
100
AcDbLine
 10
-409.1478090028505
 20
140.4158638619089
 30
0.0
 11
-409.1478090028505
 21
-37.58479762721691
 31
0.0
  0
LINE
  5
482
330
1F
100
AcDbEntity
  8
A-2_蓋
  6
Continuous
 62
     3
370
     9
100
AcDbLine
 10
-395.1476638381544
 20
340.4159051018794
 30
0.0
 11
-395.1476638381544
 21
162.4152436127534
 31
0.0
  0
LINE
  5
483
330
1F
100
AcDbEntity
  8
A-2_蓋
  6
Continuous
 62
     3
370
     9
100
AcDbLine
 10
-395.1476638381544
 20
140.4158638619089
 30
0.0
 11
-395.1476638381544
 21
-37.58479762721691
 31
0.0
  0
LINE
  5
484
330
1F
100
AcDbEntity
  8
A-2_蓋
  6
Continuous
 62
     3
370
     9
100
AcDbLine
 10
14.45221772065054
 20
340.4159051018794
 30
0.0
 11
14.45221772065054
 21
162.4152436127534
 31
0.0
  0
LINE
  5
485
330
1F
100
AcDbEntity
  8
A-2_蓋
  6
Continuous
 62
     3
370
     9
100
AcDbLine
 10
14.45221772065054
 20
140.4158638619089
 30
0.0
 11
14.45221772065054
 21
-37.58479762721691
 31
0.0
  0
LINE
  5
486
330
1F
100
AcDbEntity
  8
A-2_蓋
  6
Continuous
 62
     3
370
     9
100
AcDbLine
 10
-56.14706503378358
 20
340.4159051018794
 30
0.0
 11
-56.14706503378358
 21
162.4152436127534
 31
0.0
  0
LINE
  5
487
330
1F
100
AcDbEntity
  8
A-2_蓋
  6
Continuous
 62
     3
370
     9
100
AcDbLine
 10
-56.14706503378358
 20
140.4158638619089
 30
0.0
 11
-56.14706503378358
 21
-37.58479762721691
 31
0.0
  0
LINE
  5
488
330
1F
100
AcDbEntity
  8
A-2_蓋
  6
Continuous
 62
     3
370
     9
100
AcDbLine
 10
-42.14741474873307
 20
340.4159051018794
 30
0.0
 11
-42.14741474873307
 21
162.4152436127534
 31
0.0
  0
LINE
  5
489
330
1F
100
AcDbEntity
  8
A-2_蓋
  6
Continuous
 62
     3
370
     9
100
AcDbLine
 10
-42.14741474873307
 20
140.4158638619089
 30
0.0
 11
-42.14741474873307
 21
-37.58479762721691
 31
0.0
  0
LINE
  5
48A
330
1F
100
AcDbEntity
  8
A-2_蓋
  6
Continuous
 62
     3
370
     9
100
AcDbLine
 10
-126.747584987331
 20
340.4159051018794
 30
0.0
 11
-126.747584987331
 21
162.4152436127534
 31
0.0
  0
LINE
  5
48B
330
1F
100
AcDbEntity
  8
A-2_蓋
  6
Continuous
 62
     3
370
     9
100
AcDbLine
 10
-126.747584987331
 20
140.4158638619089
 30
0.0
 11
-126.747584987331
 21
-37.58479762721691
 31
0.0
  0
LINE
  5
48C
330
1F
100
AcDbEntity
  8
A-2_蓋
  6
Continuous
 62
     3
370
     9
100
AcDbLine
 10
-112.7474398226352
 20
340.4159051018794
 30
0.0
 11
-112.7474398226352
 21
162.4152436127534
 31
0.0
  0
LINE
  5
48D
330
1F
100
AcDbEntity
  8
A-2_蓋
  6
Continuous
 62
     3
370
     9
100
AcDbLine
 10
-112.7474398226352
 20
140.4158638619089
 30
0.0
 11
-112.7474398226352
 21
-37.58479762721691
 31
0.0
  0
LINE
  5
48E
330
1F
100
AcDbEntity
  8
A-2_蓋
  6
Continuous
 62
     3
370
     9
100
AcDbLine
 10
85.052490234375
 20
340.4159051018794
 30
0.0
 11
85.052490234375
 21
162.4152436127534
 31
0.0
  0
LINE
  5
48F
330
1F
100
AcDbEntity
  8
A-2_蓋
  6
Continuous
 62
     3
370
     9
100
AcDbLine
 10
85.052490234375
 20
140.4158638619089
 30
0.0
 11
85.052490234375
 21
-37.58479762721691
 31
0.0
  0
LINE
  5
490
330
1F
100
AcDbEntity
  8
A-2_蓋
  6
Continuous
 62
     3
370
     9
100
AcDbLine
 10
99.05238795924845
 20
340.4159051018794
 30
0.0
 11
99.05238795924845
 21
162.4152436127534
 31
0.0
  0
LINE
  5
491
330
1F
100
AcDbEntity
  8
A-2_蓋
  6
Continuous
 62
     3
370
     9
100
AcDbLine
 10
99.05238795924845
 20
140.4158638619089
 30
0.0
 11
99.05238795924845
 21
-37.58479762721691
 31
0.0
  0
LINE
  5
492
330
1F
100
AcDbEntity
  8
A-2_蓋
  6
Continuous
 62
     3
370
     9
100
AcDbLine
 10
28.4521154455237
 20
340.4159051018794
 30
0.0
 11
28.4521154455237
 21
162.4152436127534
 31
0.0
  0
LINE
  5
493
330
1F
100
AcDbEntity
  8
A-2_蓋
  6
Continuous
 62
     3
370
     9
100
AcDbLine
 10
28.4521154455237
 20
140.4158638619089
 30
0.0
 11
28.4521154455237
 21
-37.58479762721691
 31
0.0
  0
LINE
  5
494
330
1F
100
AcDbEntity
  8
A-2_蓋
  6
Continuous
 62
     3
370
     9
100
AcDbLine
 10
226.2522929423565
 20
340.4159051018794
 30
0.0
 11
226.2522929423565
 21
162.4152436127534
 31
0.0
  0
LINE
  5
495
330
1F
100
AcDbEntity
  8
A-2_蓋
  6
Continuous
 62
     3
370
     9
100
AcDbLine
 10
226.2522929423565
 20
140.4158638619089
 30
0.0
 11
226.2522929423565
 21
-37.58479762721691
 31
0.0
  0
LINE
  5
496
330
1F
100
AcDbEntity
  8
A-2_蓋
  6
Continuous
 62
     3
370
     9
100
AcDbLine
 10
155.6527627480997
 20
340.4159051018794
 30
0.0
 11
155.6527627480997
 21
162.4152436127534
 31
0.0
  0
LINE
  5
497
330
1F
100
AcDbEntity
  8
A-2_蓋
  6
Continuous
 62
     3
370
     9
100
AcDbLine
 10
155.6527627480997
 20
140.4158638619089
 30
0.0
 11
155.6527627480997
 21
-37.58479762721691
 31
0.0
  0
LINE
  5
498
330
1F
100
AcDbEntity
  8
A-2_蓋
  6
Continuous
 62
     3
370
     9
100
AcDbLine
 10
169.6529079127959
 20
340.4159051018794
 30
0.0
 11
169.6529079127959
 21
162.4152436127534
 31
0.0
  0
LINE
  5
499
330
1F
100
AcDbEntity
  8
A-2_蓋
  6
Continuous
 62
     3
370
     9
100
AcDbLine
 10
169.6529079127959
 20
140.4158638619089
 30
0.0
 11
169.6529079127959
 21
-37.58479762721691
 31
0.0
  0
LINE
  5
49A
330
1F
100
AcDbEntity
  8
A-2_蓋
  6
Continuous
 62
     3
370
     9
100
AcDbLine
 10
240.2524381070526
 20
340.4159051018794
 30
0.0
 11
240.2524381070526
 21
162.4152436127534
 31
0.0
  0
LINE
  5
49B
330
1F
100
AcDbEntity
  8
A-2_蓋
  6
Continuous
 62
     3
370
     9
100
AcDbLine
 10
240.2524381070526
 20
140.4158638619089
 30
0.0
 11
240.2524381070526
 21
-37.58479762721691
 31
0.0
  0
LINE
  5
49C
330
1F
100
AcDbEntity
  8
A-2_蓋
  6
Continuous
 62
     3
370
     9
100
AcDbLine
 10
367.453332849451
 20
340.4159051018794
 30
0.0
 11
367.453332849451
 21
162.4152436127534
 31
0.0
  0
LINE
  5
49D
330
1F
100
AcDbEntity
  8
A-2_蓋
  6
Continuous
 62
     3
370
     9
100
AcDbLine
 10
367.453332849451
 20
140.4158638619089
 30
0.0
 11
367.453332849451
 21
-37.58479762721691
 31
0.0
  0
LINE
  5
49E
330
1F
100
AcDbEntity
  8
A-2_蓋
  6
Continuous
 62
     3
370
     9
100
AcDbLine
 10
310.8529580605997
 20
340.4159051018794
 30
0.0
 11
310.8529580605997
 21
162.4152436127534
 31
0.0
  0
LINE
  5
49F
330
1F
100
AcDbEntity
  8
A-2_蓋
  6
Continuous
 62
     3
370
     9
100
AcDbLine
 10
310.8529580605997
 20
140.4158638619089
 30
0.0
 11
310.8529580605997
 21
-37.58479762721691
 31
0.0
  0
LINE
  5
4A0
330
1F
100
AcDbEntity
  8
A-2_蓋
  6
Continuous
 62
     3
370
     9
100
AcDbLine
 10
296.8528128959039
 20
340.4159051018794
 30
0.0
 11
296.8528128959039
 21
162.4152436127534
 31
0.0
  0
LINE
  5
4A1
330
1F
100
AcDbEntity
  8
A-2_蓋
  6
Continuous
 62
     3
370
     9
100
AcDbLine
 10
296.8528128959039
 20
140.4158638619089
 30
0.0
 11
296.8528128959039
 21
-37.58479762721691
 31
0.0
  0
CIRCLE
  5
4A2
330
1F
100
AcDbEntity
  8
A-1_ピット
  6
Continuous
 62
     2
370
     9
100
AcDbCircle
 10
-1228.547750936972
 20
-177.5853832347971
 30
0.0
 40
9.000002049111032
  0
CIRCLE
  5
4A3
330
1F
100
AcDbEntity
  8
A-1_ピット
  6
Continuous
 62
     2
370
     9
100
AcDbCircle
 10
-1026.547653610642
 20
-177.5853832347971
 30
0.0
 40
9.000002049111032
  0
ARC
  5
4A4
330
1F
100
AcDbEntity
  8
A-1_ピット
  6
Continuous
 62
     2
370
     9
100
AcDbCircle
 10
-1217.547566181905
 20
-189.7861460092903
 30
0.0
 40
20.00000025774982
100
AcDbArc
 50
180.0
 51
270.0
  0
ARC
  5
4A5
330
1F
100
AcDbEntity
  8
A-1_ピット
  6
Continuous
 62
     2
370
     9
100
AcDbCircle
 10
-1037.547714645798
 20
-189.7861460092903
 30
0.0
 40
20.00000025774982
100
AcDbArc
 50
270.0
 51
0.0
  0
ARC
  5
4A6
330
1F
100
AcDbEntity
  8
A-1_ピット
  6
Continuous
 62
     2
370
     9
100
AcDbCircle
 10
-1037.547343486064
 20
-189.7861460092903
 30
0.0
 40
2.000000146595208
100
AcDbArc
 50
270.0
 51
0.0
  0
ARC
  5
4A7
330
1F
100
AcDbEntity
  8
A-1_ピット
  6
Continuous
 62
     2
370
     9
100
AcDbCircle
 10
-1217.547566181905
 20
-189.7861460092903
 30
0.0
 40
2.000000146595208
100
AcDbArc
 50
180.0
 51
270.0
  0
CIRCLE
  5
4A8
330
1F
100
AcDbEntity
  8
A-1_ピット
  6
Continuous
 62
     2
370
     9
100
AcDbCircle
 10
-200.5472544077278
 20
-177.5853832347971
 30
0.0
 40
9.000002049111032
  0
CIRCLE
  5
4A9
330
1F
100
AcDbEntity
  8
A-1_ピット
  6
Continuous
 62
     2
370
     9
100
AcDbCircle
 10
1.451976879223196
 20
-177.5853832347971
 30
0.0
 40
9.000002049111032
  0
ARC
  5
4AA
330
1F
100
AcDbEntity
  8
A-1_ピット
  6
Continuous
 62
     2
370
     9
100
AcDbCircle
 10
-189.5471933725716
 20
-189.7861460092903
 30
0.0
 40
20.00000025774982
100
AcDbArc
 50
180.0
 51
270.0
  0
ARC
  5
4AB
330
1F
100
AcDbEntity
  8
A-1_ピット
  6
Continuous
 62
     2
370
     9
100
AcDbCircle
 10
-9.546723236908576
 20
-189.7861460092903
 30
0.0
 40
20.00000025774982
100
AcDbArc
 50
270.0
 51
0.0
  0
ARC
  5
4AC
330
1F
100
AcDbEntity
  8
A-1_ピット
  6
Continuous
 62
     2
370
     9
100
AcDbCircle
 10
-9.546723236908576
 20
-189.7861460092903
 30
0.0
 40
2.000000146595208
100
AcDbArc
 50
270.0
 51
0.0
  0
ARC
  5
4AD
330
1F
100
AcDbEntity
  8
A-1_ピット
  6
Continuous
 62
     2
370
     9
100
AcDbCircle
 10
-189.5478119721284
 20
-189.7861460092903
 30
0.0
 40
2.000000146595208
100
AcDbArc
 50
180.0
 51
270.0
  0
CIRCLE
  5
4AE
330
1F
100
AcDbEntity
  8
A-1_ピット
  6
Continuous
 62
     2
370
     9
100
AcDbCircle
 10
-1228.547750936972
 20
880.4158308699325
 30
0.0
 40
9.000002049111032
  0
CIRCLE
  5
4AF
330
1F
100
AcDbEntity
  8
A-1_ピット
  6
Continuous
 62
     2
370
     9
100
AcDbCircle
 10
-1026.547653610642
 20
880.4158308699325
 30
0.0
 40
9.000002049111032
  0
ARC
  5
4B0
330
1F
100
AcDbEntity
  8
A-1_ピット
  6
Continuous
 62
     2
370
     9
100
AcDbCircle
 10
-1217.547566181905
 20
892.6156038851352
 30
0.0
 40
20.00000025774982
100
AcDbArc
 50
90.0
 51
180.0
  0
ARC
  5
4B1
330
1F
100
AcDbEntity
  8
A-1_ピット
  6
Continuous
 62
     2
370
     9
100
AcDbCircle
 10
-1037.547714645798
 20
892.6156038851352
 30
0.0
 40
20.00000025774982
100
AcDbArc
 50
0.0
 51
90.0
  0
ARC
  5
4B2
330
1F
100
AcDbEntity
  8
A-1_ピット
  6
Continuous
 62
     2
370
     9
100
AcDbCircle
 10
-1037.547343486064
 20
892.6156038851352
 30
0.0
 40
2.000000146595208
100
AcDbArc
 50
0.0
 51
90.0
  0
ARC
  5
4B3
330
1F
100
AcDbEntity
  8
A-1_ピット
  6
Continuous
 62
     2
370
     9
100
AcDbCircle
 10
-1217.547566181905
 20
892.6156038851352
 30
0.0
 40
2.000000146595208
100
AcDbArc
 50
90.0
 51
180.0
  0
CIRCLE
  5
4B4
330
1F
100
AcDbEntity
  8
A-1_ピット
  6
Continuous
 62
     2
370
     9
100
AcDbCircle
 10
-200.5472544077278
 20
880.4158308699325
 30
0.0
 40
9.000002049111032
  0
CIRCLE
  5
4B5
330
1F
100
AcDbEntity
  8
A-1_ピット
  6
Continuous
 62
     2
370
     9
100
AcDbCircle
 10
1.451976879223196
 20
880.4158308699325
 30
0.0
 40
9.000002049111032
  0
ARC
  5
4B6
330
1F
100
AcDbEntity
  8
A-1_ピット
  6
Continuous
 62
     2
370
     9
100
AcDbCircle
 10
-189.5471933725716
 20
892.6156038851352
 30
0.0
 40
20.00000025774982
100
AcDbArc
 50
90.0
 51
180.0
  0
ARC
  5
4B7
330
1F
100
AcDbEntity
  8
A-1_ピット
  6
Continuous
 62
     2
370
     9
100
AcDbCircle
 10
-9.546723236908576
 20
892.6156038851352
 30
0.0
 40
20.00000025774982
100
AcDbArc
 50
0.0
 51
90.0
  0
ARC
  5
4B8
330
1F
100
AcDbEntity
  8
A-1_ピット
  6
Continuous
 62
     2
370
     9
100
AcDbCircle
 10
-9.546723236908576
 20
892.6156038851352
 30
0.0
 40
2.000000146595208
100
AcDbArc
 50
0.0
 51
90.0
  0
ARC
  5
4B9
330
1F
100
AcDbEntity
  8
A-1_ピット
  6
Continuous
 62
     2
370
     9
100
AcDbCircle
 10
-189.5478119721284
 20
892.6156038851352
 30
0.0
 40
2.000000146595208
100
AcDbArc
 50
90.0
 51
180.0
  0
ARC
  5
4BA
330
1F
100
AcDbEntity
  8
A-3_受枠
  6
Continuous
 62
     4
370
     9
100
AcDbCircle
 10
-1400.446793839738
 20
811.3152911211995
 30
0.0
 40
2.899994479643332
100
AcDbArc
 50
270.0
 51
90.0
  0
ARC
  5
4BB
330
1F
100
AcDbEntity
  8
A-3_受枠
  6
Continuous
 62
     4
370
     9
100
AcDbCircle
 10
-1451.247179186022
 20
811.3152911211995
 30
0.0
 40
2.899994479643332
100
AcDbArc
 50
90.0
 51
270.0
  0
ARC
  5
4BC
330
1F
100
AcDbEntity
  8
A-3_受枠
  6
Continuous
 62
     4
370
     9
100
AcDbCircle
 10
-1444.946742702175
 20
811.3152911211995
 30
0.0
 40
2.900000762295079
100
AcDbArc
 50
270.0
 51
0.0
  0
ARC
  5
4BD
330
1F
100
AcDbEntity
  8
A-3_受枠
  6
Continuous
 62
     4
370
     9
100
AcDbCircle
 10
-1406.746859163851
 20
811.3152911211995
 30
0.0
 40
2.900000762295079
100
AcDbArc
 50
180.0
 51
270.0
  0
ARC
  5
4BE
330
1F
100
AcDbEntity
  8
A-3_受枠
  6
Continuous
 62
     4
370
     9
100
AcDbCircle
 10
-1448.84688918655
 20
815.2154376055745
 30
0.0
 40
0.9999999524773778
100
AcDbArc
 50
270.0
 51
0.0
  0
ARC
  5
4BF
330
1F
100
AcDbEntity
  8
A-3_受枠
  6
Continuous
 62
     4
370
     9
100
AcDbCircle
 10
-1402.846836399387
 20
815.2154376055745
 30
0.0
 40
0.9999999524773778
100
AcDbArc
 50
180.0
 51
270.0
  0
ARC
  5
4C0
330
1F
100
AcDbEntity
  8
A-3_受枠
  6
JWW_HOJO
 62
     4
370
     9
100
AcDbCircle
 10
-1444.946742702175
 20
839.5150179476352
 30
0.0
 40
2.899988196991586
100
AcDbArc
 50
0.0
 51
180.0
  0
ARC
  5
4C1
330
1F
100
AcDbEntity
  8
A-3_受枠
  6
JWW_HOJO
 62
     4
370
     9
100
AcDbCircle
 10
-1406.746859163851
 20
839.5150179476352
 30
0.0
 40
2.899988196991586
100
AcDbArc
 50
0.0
 51
180.0
  0
ELLIPSE
  5
4C2
330
1F
100
AcDbEntity
  8
A-3_受枠
  6
Continuous
 62
     4
370
     9
100
AcDbEllipse
 10
-1444.946742702175
 20
856.5334340688346
 30
0.0
 11
2.899994479643332
 21
0.0
 31
0.0
210
0.0
220
0.0
230
1.0
 40
0.9937
 41
0.0
 42
6.283185307179586
  0
ELLIPSE
  5
4C3
330
1F
100
AcDbEntity
  8
A-3_受枠
  6
Continuous
 62
     4
370
     9
100
AcDbEllipse
 10
-1406.746859163851
 20
856.5334340688346
 30
0.0
 11
-2.899994479643332
 21
3.551351665821042E-16
 31
0.0
210
0.0
220
0.0
230
1.0
 40
0.9937
 41
0.0
 42
6.283185307179586
  0
ARC
  5
4C4
330
1F
100
AcDbEntity
  8
A-3_受枠
  6
JWW_HOJO
 62
     4
370
     9
100
AcDbCircle
 10
-1444.946742702175
 20
854.314888619088
 30
0.0
 40
2.899988196991586
100
AcDbArc
 50
180.0
 51
0.0
  0
ARC
  5
4C5
330
1F
100
AcDbEntity
  8
A-3_受枠
  6
JWW_HOJO
 62
     4
370
     9
100
AcDbCircle
 10
-1406.746859163851
 20
854.314888619088
 30
0.0
 40
2.899988196991586
100
AcDbArc
 50
180.0
 51
0.0
  0
ARC
  5
4C6
330
1F
100
AcDbEntity
  8
A-3_受枠
  6
Continuous
 62
     4
370
     9
100
AcDbCircle
 10
222.9541675464529
 20
811.3152911211995
 30
0.0
 40
2.899994479643332
100
AcDbArc
 50
270.0
 51
90.0
  0
ARC
  5
4C7
330
1F
100
AcDbEntity
  8
A-3_受枠
  6
Continuous
 62
     4
370
     9
100
AcDbCircle
 10
172.153782200169
 20
811.3152911211995
 30
0.0
 40
2.899994479643332
100
AcDbArc
 50
90.0
 51
270.0
  0
ARC
  5
4C8
330
1F
100
AcDbEntity
  8
A-3_受枠
  6
Continuous
 62
     4
370
     9
100
AcDbCircle
 10
178.4538475242823
 20
811.3152911211995
 30
0.0
 40
2.900000762295079
100
AcDbArc
 50
270.0
 51
0.0
  0
ARC
  5
4C9
330
1F
100
AcDbEntity
  8
A-3_受枠
  6
Continuous
 62
     4
370
     9
100
AcDbCircle
 10
216.6536073426943
 20
811.3152911211995
 30
0.0
 40
2.900000762295079
100
AcDbArc
 50
180.0
 51
270.0
  0
ARC
  5
4CA
330
1F
100
AcDbEntity
  8
A-3_受枠
  6
Continuous
 62
     4
370
     9
100
AcDbCircle
 10
174.5537010399073
 20
815.2154376055745
 30
0.0
 40
0.9999999524773778
100
AcDbArc
 50
270.0
 51
0.0
  0
ARC
  5
4CB
330
1F
100
AcDbEntity
  8
A-3_受枠
  6
Continuous
 62
     4
370
     9
100
AcDbCircle
 10
220.5537538270693
 20
815.2154376055745
 30
0.0
 40
0.9999999524773778
100
AcDbArc
 50
180.0
 51
270.0
  0
ARC
  5
4CC
330
1F
100
AcDbEntity
  8
A-3_受枠
  6
JWW_HOJO
 62
     4
370
     9
100
AcDbCircle
 10
178.4538475242823
 20
839.5150179476352
 30
0.0
 40
2.899988196991586
100
AcDbArc
 50
0.0
 51
180.0
  0
ARC
  5
4CD
330
1F
100
AcDbEntity
  8
A-3_受枠
  6
JWW_HOJO
 62
     4
370
     9
100
AcDbCircle
 10
216.6536073426943
 20
839.5150179476352
 30
0.0
 40
2.899988196991586
100
AcDbArc
 50
0.0
 51
180.0
  0
ELLIPSE
  5
4CE
330
1F
100
AcDbEntity
  8
A-3_受枠
  6
Continuous
 62
     4
370
     9
100
AcDbEllipse
 10
178.4538475242823
 20
856.5334340688346
 30
0.0
 11
2.899994479643332
 21
0.0
 31
0.0
210
0.0
220
0.0
230
1.0
 40
0.9937
 41
0.0
 42
6.283185307179586
  0
ELLIPSE
  5
4CF
330
1F
100
AcDbEntity
  8
A-3_受枠
  6
Continuous
 62
     4
370
     9
100
AcDbEllipse
 10
216.6536073426943
 20
856.5334340688346
 30
0.0
 11
-2.899994479643332
 21
3.551351665821042E-16
 31
0.0
210
0.0
220
0.0
230
1.0
 40
0.9937
 41
0.0
 42
6.283185307179586
  0
ARC
  5
4D0
330
1F
100
AcDbEntity
  8
A-3_受枠
  6
JWW_HOJO
 62
     4
370
     9
100
AcDbCircle
 10
178.4538475242823
 20
854.314888619088
 30
0.0
 40
2.899988196991586
100
AcDbArc
 50
180.0
 51
0.0
  0
ARC
  5
4D1
330
1F
100
AcDbEntity
  8
A-3_受枠
  6
JWW_HOJO
 62
     4
370
     9
100
AcDbCircle
 10
216.6536073426943
 20
854.314888619088
 30
0.0
 40
2.899988196991586
100
AcDbArc
 50
180.0
 51
0.0
  0
ARC
  5
4D2
330
1F
100
AcDbEntity
  8
A-3_受枠
  6
Continuous
 62
     4
370
     9
100
AcDbCircle
 10
-1400.446793839738
 20
-108.4843486064187
 30
0.0
 40
2.899994479643332
100
AcDbArc
 50
270.0
 51
90.0
  0
ARC
  5
4D3
330
1F
100
AcDbEntity
  8
A-3_受枠
  6
Continuous
 62
     4
370
     9
100
AcDbCircle
 10
-1451.247179186022
 20
-108.4843486064187
 30
0.0
 40
2.899994479643332
100
AcDbArc
 50
90.0
 51
270.0
  0
ARC
  5
4D4
330
1F
100
AcDbEntity
  8
A-3_受枠
  6
Continuous
 62
     4
370
     9
100
AcDbCircle
 10
-1444.946742702175
 20
-108.4843486064187
 30
0.0
 40
2.900000762295079
100
AcDbArc
 50
0.0
 51
90.0
  0
ARC
  5
4D5
330
1F
100
AcDbEntity
  8
A-3_受枠
  6
Continuous
 62
     4
370
     9
100
AcDbCircle
 10
-1406.746859163851
 20
-108.4843486064187
 30
0.0
 40
2.900000762295079
100
AcDbArc
 50
90.0
 51
180.0
  0
ARC
  5
4D6
330
1F
100
AcDbEntity
  8
A-3_受枠
  6
Continuous
 62
     4
370
     9
100
AcDbCircle
 10
-1448.84688918655
 20
-112.3844950907937
 30
0.0
 40
0.9999999524773778
100
AcDbArc
 50
0.0
 51
90.0
  0
ARC
  5
4D7
330
1F
100
AcDbEntity
  8
A-3_受枠
  6
Continuous
 62
     4
370
     9
100
AcDbCircle
 10
-1402.846836399387
 20
-112.3844950907937
 30
0.0
 40
0.9999999524773778
100
AcDbArc
 50
90.0
 51
180.0
  0
ARC
  5
4D8
330
1F
100
AcDbEntity
  8
A-3_受枠
  6
JWW_HOJO
 62
     4
370
     9
100
AcDbCircle
 10
-1444.946742702175
 20
-136.6840754328547
 30
0.0
 40
2.899988196991586
100
AcDbArc
 50
180.0
 51
0.0
  0
ARC
  5
4D9
330
1F
100
AcDbEntity
  8
A-3_受枠
  6
JWW_HOJO
 62
     4
370
     9
100
AcDbCircle
 10
-1406.746859163851
 20
-136.6840754328547
 30
0.0
 40
2.899988196991586
100
AcDbArc
 50
180.0
 51
0.0
  0
ELLIPSE
  5
4DA
330
1F
100
AcDbEntity
  8
A-3_受枠
  6
Continuous
 62
     4
370
     9
100
AcDbEllipse
 10
-1444.946742702175
 20
-153.7024915540539
 30
0.0
 11
2.899994479643332
 21
0.0
 31
0.0
210
0.0
220
0.0
230
1.0
 40
0.9937
 41
0.0
 42
6.283185307179586
  0
ELLIPSE
  5
4DB
330
1F
100
AcDbEntity
  8
A-3_受枠
  6
Continuous
 62
     4
370
     9
100
AcDbEllipse
 10
-1406.746859163851
 20
-153.7024915540539
 30
0.0
 11
-2.899994479643332
 21
3.551351665821042E-16
 31
0.0
210
0.0
220
0.0
230
1.0
 40
0.9937
 41
0.0
 42
6.283185307179586
  0
ARC
  5
4DC
330
1F
100
AcDbEntity
  8
A-3_受枠
  6
JWW_HOJO
 62
     4
370
     9
100
AcDbCircle
 10
-1444.946742702175
 20
-151.4839461043073
 30
0.0
 40
2.899988196991586
100
AcDbArc
 50
0.0
 51
180.0
  0
ARC
  5
4DD
330
1F
100
AcDbEntity
  8
A-3_受枠
  6
JWW_HOJO
 62
     4
370
     9
100
AcDbCircle
 10
-1406.746859163851
 20
-151.4839461043073
 30
0.0
 40
2.899988196991586
100
AcDbArc
 50
0.0
 51
180.0
  0
ARC
  5
4DE
330
1F
100
AcDbEntity
  8
A-3_受枠
  6
Continuous
 62
     4
370
     9
100
AcDbCircle
 10
222.9541675464529
 20
-108.4843486064187
 30
0.0
 40
2.899994479643332
100
AcDbArc
 50
270.0
 51
90.0
  0
ARC
  5
4DF
330
1F
100
AcDbEntity
  8
A-3_受枠
  6
Continuous
 62
     4
370
     9
100
AcDbCircle
 10
172.153782200169
 20
-108.4843486064187
 30
0.0
 40
2.899994479643332
100
AcDbArc
 50
90.0
 51
270.0
  0
ARC
  5
4E0
330
1F
100
AcDbEntity
  8
A-3_受枠
  6
Continuous
 62
     4
370
     9
100
AcDbCircle
 10
178.4538475242823
 20
-108.4843486064187
 30
0.0
 40
2.900000762295079
100
AcDbArc
 50
0.0
 51
90.0
  0
ARC
  5
4E1
330
1F
100
AcDbEntity
  8
A-3_受枠
  6
Continuous
 62
     4
370
     9
100
AcDbCircle
 10
216.6536073426943
 20
-108.4843486064187
 30
0.0
 40
2.900000762295079
100
AcDbArc
 50
90.0
 51
180.0
  0
ARC
  5
4E2
330
1F
100
AcDbEntity
  8
A-3_受枠
  6
Continuous
 62
     4
370
     9
100
AcDbCircle
 10
174.5537010399073
 20
-112.3844950907937
 30
0.0
 40
0.9999999524773778
100
AcDbArc
 50
0.0
 51
90.0
  0
ARC
  5
4E3
330
1F
100
AcDbEntity
  8
A-3_受枠
  6
Continuous
 62
     4
370
     9
100
AcDbCircle
 10
220.5537538270693
 20
-112.3844950907937
 30
0.0
 40
0.9999999524773778
100
AcDbArc
 50
90.0
 51
180.0
  0
ARC
  5
4E4
330
1F
100
AcDbEntity
  8
A-3_受枠
  6
JWW_HOJO
 62
     4
370
     9
100
AcDbCircle
 10
178.4538475242823
 20
-136.6840754328547
 30
0.0
 40
2.899988196991586
100
AcDbArc
 50
180.0
 51
0.0
  0
ARC
  5
4E5
330
1F
100
AcDbEntity
  8
A-3_受枠
  6
JWW_HOJO
 62
     4
370
     9
100
AcDbCircle
 10
216.6536073426943
 20
-136.6840754328547
 30
0.0
 40
2.899988196991586
100
AcDbArc
 50
180.0
 51
0.0
  0
ELLIPSE
  5
4E6
330
1F
100
AcDbEntity
  8
A-3_受枠
  6
Continuous
 62
     4
370
     9
100
AcDbEllipse
 10
178.4538475242823
 20
-153.7024915540539
 30
0.0
 11
2.899994479643332
 21
0.0
 31
0.0
210
0.0
220
0.0
230
1.0
 40
0.9937
 41
0.0
 42
6.283185307179586
  0
ELLIPSE
  5
4E7
330
1F
100
AcDbEntity
  8
A-3_受枠
  6
Continuous
 62
     4
370
     9
100
AcDbEllipse
 10
216.6536073426943
 20
-153.7024915540539
 30
0.0
 11
-2.899994479643332
 21
3.551351665821042E-16
 31
0.0
210
0.0
220
0.0
230
1.0
 40
0.9937
 41
0.0
 42
6.283185307179586
  0
ARC
  5
4E8
330
1F
100
AcDbEntity
  8
A-3_受枠
  6
JWW_HOJO
 62
     4
370
     9
100
AcDbCircle
 10
178.4538475242823
 20
-151.4839461043073
 30
0.0
 40
2.899988196991586
100
AcDbArc
 50
0.0
 51
180.0
  0
ARC
  5
4E9
330
1F
100
AcDbEntity
  8
A-3_受枠
  6
JWW_HOJO
 62
     4
370
     9
100
AcDbCircle
 10
216.6536073426943
 20
-151.4839461043073
 30
0.0
 40
2.899988196991586
100
AcDbArc
 50
0.0
 51
180.0
  0
ARC
  5
4EA
330
1F
100
AcDbEntity
  8
A-3_受枠
  6
Continuous
 62
     4
370
     9
100
AcDbCircle
 10
1306.177170212205
 20
852.3672897751269
 30
0.0
 40
0.9999999524773778
100
AcDbArc
 50
0.0
 51
92.71160888671875
  0
ARC
  5
4EB
330
1F
100
AcDbEntity
  8
A-3_受枠
  6
Continuous
 62
     4
370
     9
100
AcDbCircle
 10
1306.177170212205
 20
852.3672897751269
 30
0.0
 40
6.800000570915841
100
AcDbArc
 50
0.0
 51
92.71179199218751
  0
ARC
  5
4EC
330
1F
100
AcDbEntity
  8
A-3_受枠
  6
Continuous
 62
     4
370
     9
100
AcDbCircle
 10
1306.177170212205
 20
841.4725143845019
 30
0.0
 40
6.800000570915841
100
AcDbArc
 50
266.8402252197266
 51
0.0000000000000568
  0
ARC
  5
4ED
330
1F
100
AcDbEntity
  8
A-3_受枠
  6
Continuous
 62
     4
370
     9
100
AcDbCircle
 10
1306.177170212205
 20
841.4725143845019
 30
0.0
 40
0.9999999524773778
100
AcDbArc
 50
266.8396759033203
 51
0.0
  0
ARC
  5
4EE
330
1F
100
AcDbEntity
  8
A-3_受枠
  6
Continuous
 62
     4
370
     9
100
AcDbCircle
 10
1310.077069256757
 20
811.3157860008448
 30
0.0
 40
2.899994479643332
100
AcDbArc
 50
270.0
 51
90.0
  0
ARC
  5
4EF
330
1F
100
AcDbEntity
  8
A-3_受枠
  6
Continuous
 62
     4
370
     9
100
AcDbCircle
 10
1251.777030326225
 20
815.2156850453971
 30
0.0
 40
0.9999999524773778
100
AcDbArc
 50
180.0
 51
270.0
  0
ARC
  5
4F0
330
1F
100
AcDbEntity
  8
A-3_受枠
  6
Continuous
 62
     4
370
     9
100
AcDbCircle
 10
1251.777030326225
 20
815.2156850453971
 30
0.0
 40
6.800000570915841
100
AcDbArc
 50
180.0
 51
270.0
  0
ARC
  5
4F1
330
1F
100
AcDbEntity
  8
A-3_受枠
  6
Continuous
 62
     4
370
     9
100
AcDbCircle
 10
1251.777030326225
 20
826.067158467061
 30
0.0
 40
6.800000570915841
100
AcDbArc
 50
114.8012390136719
 51
180.0
  0
ARC
  5
4F2
330
1F
100
AcDbEntity
  8
A-3_受枠
  6
Continuous
 62
     4
370
     9
100
AcDbCircle
 10
1251.777030326225
 20
826.067158467061
 30
0.0
 40
0.9999999524773778
100
AcDbArc
 50
114.8008880615234
 51
180.0
  0
ARC
  5
4F3
330
1F
100
AcDbEntity
  8
A-1_ピット
  6
Continuous
 62
     2
370
     9
100
AcDbCircle
 10
1224.177097629857
 20
864.4156296188769
 30
0.0
 40
4.99999958115655
100
AcDbArc
 50
180.0
 51
270.0
  0
ARC
  5
4F4
330
1F
100
AcDbEntity
  8
A-1_ピット
  6
Continuous
 62
     2
370
     9
100
AcDbCircle
 10
1324.177180109798
 20
756.4155702333193
 30
0.0
 40
4.99999958115655
100
AcDbArc
 50
180.0
 51
270.0
  0
ARC
  5
4F5
330
1F
100
AcDbEntity
  8
A-1_ピット
  6
Continuous
 62
     2
370
     9
100
AcDbCircle
 10
1311.177186708193
 20
851.4156362172721
 30
0.0
 40
7.999999619819023
100
AcDbArc
 50
0.0
 51
90.0
  0
ARC
  5
4F6
330
1F
100
AcDbEntity
  8
A-1_ピット
  6
Continuous
 62
     2
370
     9
100
AcDbCircle
 10
1308.807208086993
 20
907.415474556588
 30
0.0
 40
35.99999659770244
100
AcDbArc
 50
270.0
 51
285.0
  0
ARC
  5
4F7
330
1F
100
AcDbEntity
  8
A-1_ピット
  6
Continuous
 62
     2
370
     9
100
AcDbCircle
 10
1432.177239495355
 20
912.5199106577281
 30
0.0
 40
8.99999914942561
100
AcDbArc
 50
285.0001373291016
 51
104.9999084472656
  0
ARC
  5
4F8
330
1F
100
AcDbEntity
  8
A-1_ピット
  6
JWW_CENTER2
 62
     2
370
     9
100
AcDbCircle
 10
1308.807208086993
 20
907.415474556588
 30
0.0
 40
27.00000131452406
100
AcDbArc
 50
270.0
 51
284.9999542236328
  0
ARC
  5
4F9
330
1F
100
AcDbEntity
  8
A-1_ピット
  6
Continuous
 62
     2
370
     9
100
AcDbCircle
 10
1308.807455526816
 20
907.415474556588
 30
0.0
 40
17.99999829885122
100
AcDbArc
 50
270.0
 51
285.0000152587891
  0
ARC
  5
4FA
330
1F
100
AcDbEntity
  8
A-3_受枠
  6
Continuous
 62
     4
370
     9
100
AcDbCircle
 10
1306.177170212205
 20
-149.5364709802575
 30
0.0
 40
0.9999999524773778
100
AcDbArc
 50
267.2883911132812
 51
0.0000000000000254
  0
ARC
  5
4FB
330
1F
100
AcDbEntity
  8
A-3_受枠
  6
Continuous
 62
     4
370
     9
100
AcDbCircle
 10
1306.177170212205
 20
-149.5364709802575
 30
0.0
 40
6.800000570915841
100
AcDbArc
 50
267.2882080078125
 51
0.0000000000000254
  0
ARC
  5
4FC
330
1F
100
AcDbEntity
  8
A-3_受枠
  6
Continuous
 62
     4
370
     9
100
AcDbCircle
 10
1306.177170212205
 20
-138.6416955896325
 30
0.0
 40
6.800000570915841
100
AcDbArc
 50
0.0
 51
93.15977478027344
  0
ARC
  5
4FD
330
1F
100
AcDbEntity
  8
A-3_受枠
  6
Continuous
 62
     4
370
     9
100
AcDbCircle
 10
1306.177170212205
 20
-138.6416955896325
 30
0.0
 40
0.9999999524773778
100
AcDbArc
 50
0.0
 51
93.16032409667969
  0
ARC
  5
4FE
330
1F
100
AcDbEntity
  8
A-3_受枠
  6
Continuous
 62
     4
370
     9
100
AcDbCircle
 10
1310.077069256757
 20
-108.4849672059755
 30
0.0
 40
2.899994479643332
100
AcDbArc
 50
270.0
 51
90.0
  0
ARC
  5
4FF
330
1F
100
AcDbEntity
  8
A-3_受枠
  6
Continuous
 62
     4
370
     9
100
AcDbCircle
 10
1251.777030326225
 20
-112.3848662505279
 30
0.0
 40
0.9999999524773778
100
AcDbArc
 50
90.0
 51
180.0
  0
ARC
  5
500
330
1F
100
AcDbEntity
  8
A-3_受枠
  6
Continuous
 62
     4
370
     9
100
AcDbCircle
 10
1251.777030326225
 20
-112.3848662505279
 30
0.0
 40
6.800000570915841
100
AcDbArc
 50
90.0
 51
180.0
  0
ARC
  5
501
330
1F
100
AcDbEntity
  8
A-3_受枠
  6
Continuous
 62
     4
370
     9
100
AcDbCircle
 10
1251.777030326225
 20
-123.2363396721917
 30
0.0
 40
6.800000570915841
100
AcDbArc
 50
180.0
 51
245.1987609863281
  0
ARC
  5
502
330
1F
100
AcDbEntity
  8
A-3_受枠
  6
Continuous
 62
     4
370
     9
100
AcDbCircle
 10
1251.777030326225
 20
-123.2363396721917
 30
0.0
 40
0.9999999524773778
100
AcDbArc
 50
180.0
 51
245.1991119384766
  0
ARC
  5
503
330
1F
100
AcDbEntity
  8
A-1_ピット
  6
Continuous
 62
     2
370
     9
100
AcDbCircle
 10
1224.177097629857
 20
-161.5848108240075
 30
0.0
 40
4.99999958115655
100
AcDbArc
 50
90.0
 51
180.0
  0
ARC
  5
504
330
1F
100
AcDbEntity
  8
A-1_ピット
  6
Continuous
 62
     2
370
     9
100
AcDbCircle
 10
1324.177180109798
 20
-53.58475143844998
 30
0.0
 40
4.99999958115655
100
AcDbArc
 50
90.0
 51
180.0
  0
ARC
  5
505
330
1F
100
AcDbEntity
  8
A-1_ピット
  6
Continuous
 62
     2
370
     9
100
AcDbCircle
 10
1311.177186708193
 20
-148.5848174224029
 30
0.0
 40
7.999999619819023
100
AcDbArc
 50
270.0
 51
0.0
  0
ARC
  5
506
330
1F
100
AcDbEntity
  8
A-1_ピット
  6
Continuous
 62
     2
370
     9
100
AcDbCircle
 10
1308.807208086993
 20
-204.5846557617188
 30
0.0
 40
35.99999659770244
100
AcDbArc
 50
74.99999999999999
 51
89.99999999999999
  0
ARC
  5
507
330
1F
100
AcDbEntity
  8
A-1_ピット
  6
Continuous
 62
     2
370
     9
100
AcDbCircle
 10
1432.177239495355
 20
-209.6890918628588
 30
0.0
 40
8.99999914942561
100
AcDbArc
 50
255.0000915527343
 51
74.9998626708984
  0
ARC
  5
508
330
1F
100
AcDbEntity
  8
A-1_ピット
  6
JWW_CENTER2
 62
     2
370
     9
100
AcDbCircle
 10
1308.807208086993
 20
-204.5846557617188
 30
0.0
 40
27.00000131452406
100
AcDbArc
 50
75.00004577636717
 51
90.0
  0
ARC
  5
509
330
1F
100
AcDbEntity
  8
A-1_ピット
  6
Continuous
 62
     2
370
     9
100
AcDbCircle
 10
1308.807455526816
 20
-204.5846557617188
 30
0.0
 40
17.99999829885122
100
AcDbArc
 50
74.99998474121095
 51
90.0
  0
TEXT
  5
50A
330
1F
100
AcDbEntity
  8
D-4_寸法
  6
Continuous
 62
     2
370
     9
100
AcDbText
 10
882.5020125105575
 20
-1045.352901776288
 30
0.0
 40
30.48
  1
材質：ＳＳ４００
 41
1.109375
  7
ＭＳ ゴシック
100
AcDbText
  0
TEXT
  5
50B
330
1F
100
AcDbEntity
  8
D-4_寸法
  6
Continuous
 62
     2
370
     9
100
AcDbText
 10
882.5020372545398
 20
-1100.352835792335
 30
0.0
 40
30.48
  1
処理：樹脂系塗料塗装
 41
1.1125
  7
ＭＳ ゴシック
100
AcDbText
  0
TEXT
  5
50C
330
1F
100
AcDbEntity
  8
D-4_寸法
  6
Continuous
 62
     2
370
     9
100
AcDbText
 10
768.2004031619513
 20
-642.4327819494298
 30
0.0
 40
30.48
  1
仕　様
 41
1.083333333333333
  7
ＭＳ ゴシック
100
AcDbText
  0
TEXT
  5
50D
330
1F
100
AcDbEntity
  8
D-4_寸法
  6
Continuous
 62
     2
370
     9
100
AcDbText
 10
882.5020372545398
 20
-870.3523244167019
 30
0.0
 40
30.48
  1
処理：溶融亜鉛めっき
 41
1.1125
  7
ＭＳ ゴシック
100
AcDbText
  0
TEXT
  5
50E
330
1F
100
AcDbEntity
  8
D-4_寸法
  6
Continuous
 62
     2
370
     9
100
AcDbText
 10
882.5021114864867
 20
-925.3533719119511
 30
0.0
 40
30.48
  1
定尺：９９５
 41
1.104166666666667
  7
ＭＳ ゴシック
100
AcDbText
  0
TEXT
  5
50F
330
1F
100
AcDbEntity
  8
D-4_寸法
  6
Continuous
 62
     2
370
     9
100
AcDbText
 10
822.7896613043708
 20
-705.3533884079392
 30
0.0
 40
30.48
  1
ノンスリップタイプ
 41
1.111111111111111
  7
ＭＳ ゴシック
100
AcDbText
  0
TEXT
  5
510
330
1F
100
AcDbEntity
  8
D-4_寸法
  6
Continuous
 62
     2
370
     9
100
AcDbText
 10
882.5020125105575
 20
-815.3512769214526
 30
0.0
 40
30.48
  1
材質：ＳＳ４００
 41
1.109375
  7
ＭＳ ゴシック
100
AcDbText
  0
TEXT
  5
511
330
1F
100
AcDbEntity
  8
A-4_寸法
  6
Continuous
 62
     7
370
     9
100
AcDbText
 10
1537.183054331187
 20
1091.712877164274
 30
0.0
 40
22.86
  1
アンカー：φ９
 41
1.142857142857143
  7
ＭＳ ゴシック
100
AcDbText
  0
TEXT
  5
512
330
1F
100
AcDbEntity
  8
A-4_寸法
  6
Continuous
 62
     2
370
     9
100
AcDbText
 10
1106.860330356877
 20
-209.2155211568468
 30
0.0
 40
30.48
  1
6
 50
90.00000250447816
 41
0.9999999999999989
  7
ＭＳ ゴシック
100
AcDbText
  0
TEXT
  5
513
330
1F
100
AcDbEntity
  8
A-4_寸法
  6
Continuous
 62
     2
370
     9
100
AcDbText
 10
1106.860330356877
 20
-141.7929945653138
 30
0.0
 40
30.48
  1
4
 50
90.00000250447816
 41
0.9999999999999998
  7
ＭＳ ゴシック
100
AcDbText
  0
TEXT
  5
514
330
1F
100
AcDbEntity
  8
A-4_寸法
  6
Continuous
 62
     2
370
     9
100
AcDbText
 10
1106.860330356877
 20
820.5047439996672
 30
0.0
 40
30.48
  1
4
 50
90.00000250447816
 41
1.000000000000001
  7
ＭＳ ゴシック
100
AcDbText
  0
TEXT
  5
515
330
1F
100
AcDbEntity
  8
A-4_寸法
  6
Continuous
 62
     2
370
     9
100
AcDbText
 10
1106.860330356877
 20
893.6143037547348
 30
0.0
 40
30.48
  1
6
 50
90.00000250447816
 41
1.000000000000001
  7
ＭＳ ゴシック
100
AcDbText
  0
TEXT
  5
516
330
1F
100
AcDbEntity
  8
A-4_寸法
  6
Continuous
 62
     2
370
     9
100
AcDbText
 10
1523.536867614889
 20
-129.8348094209409
 30
0.0
 40
30.48
  1
60
 50
90.00000250447816
 41
1.0625
  7
ＭＳ ゴシック
100
AcDbText
  0
TEXT
  5
517
330
1F
100
AcDbEntity
  8
A-4_寸法
  6
Continuous
 62
     2
370
     9
100
AcDbText
 10
1523.536867614889
 20
790.1656277227457
 30
0.0
 40
30.48
  1
60
 50
90.00000250447816
 41
1.062500000000001
  7
ＭＳ ゴシック
100
AcDbText
  0
TEXT
  5
518
330
1F
100
AcDbEntity
  8
A-4_寸法
  6
Continuous
 62
     7
370
     9
100
AcDbText
 10
-741.7843986524936
 20
1206.845636877097
 30
0.0
 40
22.86
  1
クロスバー □８ ＠100
 50
0.0000388418058018
 41
1.158730158730159
  7
ＭＳ ゴシック
100
AcDbText
  0
TEXT
  5
519
330
1F
100
AcDbEntity
  8
A-4_寸法
  6
Continuous
 62
     7
370
     9
100
AcDbText
 10
289.4813413877746
 20
1126.844630621833
 30
0.0
 40
22.86
  1
ＵＳクリップ：ＵＳ－２
 41
1.151515151515152
  7
ＭＳ ゴシック
100
AcDbText
  0
TEXT
  5
51A
330
1F
100
AcDbEntity
  8
A-4_寸法
  6
Continuous
 62
     7
370
     9
100
AcDbText
 10
793.5228914827917
 20
1070.23188384185
 30
0.0
 40
22.86
  1
（二方受四方枠）
 41
1.145833333333333
  7
ＭＳ ゴシック
100
AcDbText
  0
TEXT
  5
51B
330
1F
100
AcDbEntity
  8
D-4_寸法
  6
Continuous
 62
     7
370
     9
100
AcDbText
 10
-873.7161763444225
 20
-1119.148390750364
 30
0.0
 40
22.86
  1
※デルタパターンの配列は一定ではありません。
 50
0.0000185323619753
 41
1.159090909090909
  7
ＭＳ ゴシック
100
AcDbText
  0
TEXT
  5
51C
330
1F
100
AcDbEntity
  8
D-4_寸法
  6
Continuous
 62
     7
370
     9
100
AcDbText
 10
-726.1530860694678
 20
-604.8864748733108
 30
0.0
 40
22.86
  1
デルタパターン
 41
1.142857142857143
  7
ＭＳ ゴシック
100
AcDbText
  0
TEXT
  5
51D
330
1F
100
AcDbEntity
  8
D-4_寸法
  6
Continuous
 62
     2
370
     9
100
AcDbText
 10
-899.0324902591486
 20
-708.890024380163
 30
0.0
 40
30.48
  1
8
 50
90.00000250447816
 41
1.000000000000001
  7
ＭＳ ゴシック
100
AcDbText
  0
TEXT
  5
51E
330
1F
100
AcDbEntity
  8
D-4_寸法
  6
Continuous
 62
     2
370
     9
100
AcDbText
 10
-899.0324902591486
 20
-883.1444469545928
 30
0.0
 40
30.48
  1
5
 50
90.00000250447816
 41
1.000000000000001
  7
ＭＳ ゴシック
100
AcDbText
  0
TEXT
  5
51F
330
1F
100
AcDbEntity
  8
D-4_寸法
  6
Continuous
 62
     2
370
     9
100
AcDbText
 10
-818.2603866989548
 20
-583.0024997690562
 30
0.0
 40
30.48
  1
7
 41
0.9999999999999998
  7
ＭＳ ゴシック
100
AcDbText
  0
TEXT
  5
520
330
1F
100
AcDbEntity
  8
D-4_寸法
  6
Continuous
 62
     2
370
     9
100
AcDbText
 10
-739.6375218954553
 20
-703.0162432995044
 30
0.0
 40
30.48
  1
5
 50
282.0789753068251
 41
0.999999999999997
  7
ＭＳ ゴシック
100
AcDbText
  0
TEXT
  5
521
330
1F
100
AcDbEntity
  8
D-4_寸法
  6
Continuous
 62
     2
370
     9
100
AcDbText
 10
-159.6814830883129
 20
-600.4838139384501
 30
0.0
 40
30.48
  1
7
 41
0.9999999999999998
  7
ＭＳ ゴシック
100
AcDbText
  0
TEXT
  5
522
330
1F
100
AcDbEntity
  8
D-4_寸法
  6
Continuous
 62
     2
370
     9
100
AcDbText
 10
-110.7481549237225
 20
-820.852544638144
 30
0.0
 40
30.48
  1
4
 41
0.9999999999999998
  7
ＭＳ ゴシック
100
AcDbText
  0
TEXT
  5
523
330
1F
100
AcDbEntity
  8
D-4_寸法
  6
Continuous
 62
     2
370
     9
100
AcDbText
 10
-25.37530444486602
 20
-814.62804458115
 30
0.0
 40
30.48
  1
50
 50
90.00000250447816
 41
1.062500000000001
  7
ＭＳ ゴシック
100
AcDbText
  0
TEXT
  5
524
330
1F
100
AcDbEntity
  8
D-4_寸法
  6
Continuous
 62
     2
370
     9
100
AcDbText
 10
-893.7165461359797
 20
-1042.738328890414
 30
0.0
 40
30.48
  1
ＤⅠ－５０　バー形状詳細　Ｓ＝１：２
 41
1.118055555555555
  7
ＭＳ ゴシック
100
AcDbText
  0
TEXT
  5
525
330
1F
100
AcDbEntity
  8
A-4_寸法
  6
Continuous
 62
     7
370
     9
100
AcDbText
 10
811.3670802760771
 20
1126.7382314981
 30
0.0
 40
22.86
  1
受枠：Ｌ－５０
 41
1.142857142857143
  7
ＭＳ ゴシック
100
AcDbText
  0
TEXT
  5
526
330
1F
100
AcDbEntity
  8
A-4_寸法
  6
Continuous
 62
     7
370
     9
100
AcDbText
 10
-657.5942103951338
 20
1126.845372941299
 30
0.0
 40
22.86
  1
メインバー ＤⅠ－５０ ＠35.3
 50
359.9999127553377
 41
1.160714285714286
  7
ＭＳ ゴシック
100
AcDbText
  0
TEXT
  5
527
330
1F
100
AcDbEntity
  8
A-4_寸法
  6
Continuous
 62
     2
370
     9
100
AcDbText
 10
-481.1974396576751
 20
931.7426248416385
 30
0.0
 40
30.48
  1
35.3
 41
1.09375
  7
ＭＳ ゴシック
100
AcDbText
  0
TEXT
  5
528
330
1F
100
AcDbEntity
  8
A-4_寸法
  6
Continuous
 62
     2
370
     9
100
AcDbText
 10
-657.2975158691405
 20
-411.1977932986697
 30
0.0
 40
30.48
  1
1014
 41
1.09375
  7
ＭＳ ゴシック
100
AcDbText
  0
TEXT
  5
529
330
1F
100
AcDbEntity
  8
A-4_寸法
  6
Continuous
 62
     2
370
     9
100
AcDbText
 10
-1669.644121737094
 20
-305.7923878932643
 30
0.0
 40
30.48
  1
6
 41
0.9999999999999998
  7
ＭＳ ゴシック
100
AcDbText
  0
TEXT
  5
52A
330
1F
100
AcDbEntity
  8
A-4_寸法
  6
Continuous
 62
     2
370
     9
100
AcDbText
 10
-1593.86925156052
 20
-305.7923878932643
 30
0.0
 40
30.48
  1
3.5
 41
1.083333333333333
  7
ＭＳ ゴシック
100
AcDbText
  0
TEXT
  5
52B
330
1F
100
AcDbEntity
  8
A-4_寸法
  6
Continuous
 62
     2
370
     9
100
AcDbText
 10
-646.0475777290962
 20
-305.7923878932643
 30
0.0
 40
30.48
  1
995
 41
1.083333333333333
  7
ＭＳ ゴシック
100
AcDbText
  0
TEXT
  5
52C
330
1F
100
AcDbEntity
  8
A-4_寸法
  6
Continuous
 62
     2
370
     9
100
AcDbText
 10
294.9598817567569
 20
-305.7923878932643
 30
0.0
 40
30.48
  1
3.5
 41
1.083333333333333
  7
ＭＳ ゴシック
100
AcDbText
  0
TEXT
  5
52D
330
1F
100
AcDbEntity
  8
A-4_寸法
  6
Continuous
 62
     2
370
     9
100
AcDbText
 10
422.2791022223396
 20
-305.7923878932643
 30
0.0
 40
30.48
  1
6
 41
0.9999999999999998
  7
ＭＳ ゴシック
100
AcDbText
  0
TEXT
  5
52E
330
1F
100
AcDbEntity
  8
A-4_寸法
  6
Continuous
 62
     2
370
     9
100
AcDbText
 10
1247.927369813661
 20
-298.1448890149916
 30
0.0
 40
30.48
  1
50
 41
1.0625
  7
ＭＳ ゴシック
100
AcDbText
  0
TEXT
  5
52F
330
1F
100
AcDbEntity
  8
A-4_寸法
  6
Continuous
 62
     2
370
     9
100
AcDbText
 10
1253.927043193096
 20
-378.1449055109797
 30
0.0
 40
30.48
  1
56
 41
1.0625
  7
ＭＳ ゴシック
100
AcDbText
  0
TEXT
  5
530
330
1F
100
AcDbEntity
  8
D-4_寸法
  6
Continuous
 62
     2
370
     9
100
AcDbText
 10
822.7910964553422
 20
-990.3528440403294
 30
0.0
 40
30.48
  1
スチール製受枠　Ｌ－５０（二方受四方枠）
 41
1.11875
  7
ＭＳ ゴシック
100
AcDbText
  0
TEXT
  5
531
330
1F
100
AcDbEntity
  8
A-4_寸法
  6
Continuous
 62
     7
370
     9
100
AcDbText
 10
474.5323882231841
 20
889.7336885029563
 30
0.0
 40
22.86
  1
ＦＢ５０×６
 41
1.138888888888889
  7
ＭＳ ゴシック
100
AcDbText
  0
TEXT
  5
532
330
1F
100
AcDbEntity
  8
A-4_寸法
  6
Continuous
 62
     2
370
     9
100
AcDbText
 10
1110.860443513104
 20
318.9157184506807
 30
0.0
 40
30.48
  1
500
 50
90.00000250447816
 41
1.083333333333334
  7
ＭＳ ゴシック
100
AcDbText
  0
TEXT
  5
533
330
1F
100
AcDbEntity
  8
A-4_寸法
  6
Continuous
 62
     2
370
     9
100
AcDbText
 10
1030.860427017115
 20
318.9153472909468
 30
0.0
 40
30.48
  1
520
 50
90.00000250447816
 41
1.083333333333334
  7
ＭＳ ゴシック
100
AcDbText
  0
TEXT
  5
534
330
1F
100
AcDbEntity
  8
A-4_寸法
  6
Continuous
 62
     2
370
     9
100
AcDbText
 10
1527.536980279362
 20
318.9153472909468
 30
0.0
 40
30.48
  1
400
 50
90.00000250447816
 41
1.083333333333334
  7
ＭＳ ゴシック
100
AcDbText
  0
TEXT
  5
535
330
1F
100
AcDbEntity
  8
D-4_寸法
  6
Continuous
 62
     2
370
     9
100
AcDbText
 10
822.7896118164065
 20
-760.3544359031883
 30
0.0
 40
30.48
  1
圧接式グレーチング　ＨＸＢＣ　１５０５０
 41
1.11875
  7
ＭＳ ゴシック
100
AcDbText
  0
TEXT
  5
536
330
1F
100
AcDbEntity
  8
A-4_寸法
  6
Continuous
 62
     2
370
     9
100
AcDbText
 10
-646.0473302892735
 20
1024.255178288641
 30
0.0
 40
30.48
  1
514
 41
1.083333333333333
  7
ＭＳ ゴシック
100
AcDbText
  0
TEXT
  5
537
330
1F
100
AcDbEntity
  8
A-4_寸法
  6
Continuous
 62
     2
370
     9
100
AcDbText
 10
117.9530623152451
 20
1024.255178288641
 30
0.0
 40
30.48
  1
250
 41
1.083333333333333
  7
ＭＳ ゴシック
100
AcDbText
  0
TEXT
  5
538
330
1F
100
AcDbEntity
  8
A-4_寸法
  6
Continuous
 62
     2
370
     9
100
AcDbText
 10
-1410.04775382377
 20
1024.255178288641
 30
0.0
 40
30.48
  1
250
 41
1.083333333333333
  7
ＭＳ ゴシック
100
AcDbText
  0
LWPOLYLINE
  5
539
330
1F
100
AcDbEntity
  8
A-4_寸法
  6
Continuous
 62
     7
370
     9
100
AcDbPolyline
 90
        4
 70
     1
 43
1.0
 10
1123.00036291174
 20
-168.5846359665328
 42
0.4142135623731
 10
1122.50036291174
 20
-168.0846359665328
 42
0.4142135623731
 10
1122.00036291174
 20
-168.5846359665328
 42
0.4142135623731
 10
1122.50036291174
 20
-169.0846359665328
 42
0.4142135623731
  0
LWPOLYLINE
  5
53A
330
1F
100
AcDbEntity
  8
A-4_寸法
  6
Continuous
 62
     7
370
     9
100
AcDbPolyline
 90
        4
 70
     1
 43
1.0
 10
1123.00036291174
 20
-156.5847943280193
 42
0.4142135623731
 10
1122.50036291174
 20
-156.0847943280193
 42
0.4142135623731
 10
1122.00036291174
 20
-156.5847943280193
 42
0.4142135623731
 10
1122.50036291174
 20
-157.0847943280193
 42
0.4142135623731
  0
LWPOLYLINE
  5
53B
330
1F
100
AcDbEntity
  8
A-4_寸法
  6
Continuous
 62
     7
370
     9
100
AcDbPolyline
 90
        4
 70
     1
 43
1.0
 10
1123.00036291174
 20
-148.5840751029349
 42
0.4142135623731
 10
1122.50036291174
 20
-148.0840751029349
 42
0.4142135623731
 10
1122.00036291174
 20
-148.5840751029349
 42
0.4142135623731
 10
1122.50036291174
 20
-149.0840751029349
 42
0.4142135623731
  0
LWPOLYLINE
  5
53C
330
1F
100
AcDbEntity
  8
A-4_寸法
  6
Continuous
 62
     7
370
     9
100
AcDbPolyline
 90
        4
 70
     1
 43
1.0
 10
1123.00036291174
 20
851.4156362172721
 42
0.4142135623731
 10
1122.50036291174
 20
851.9156362172721
 42
0.4142135623731
 10
1122.00036291174
 20
851.4156362172721
 42
0.4142135623731
 10
1122.50036291174
 20
850.9156362172722
 42
0.4142135623731
  0
LWPOLYLINE
  5
53D
330
1F
100
AcDbEntity
  8
A-4_寸法
  6
Continuous
 62
     7
370
     9
100
AcDbPolyline
 90
        4
 70
     1
 43
1.0
 10
1123.00036291174
 20
859.4156131228885
 42
0.4142135623731
 10
1122.50036291174
 20
859.9156131228885
 42
0.4142135623731
 10
1122.00036291174
 20
859.4156131228885
 42
0.4142135623731
 10
1122.50036291174
 20
858.9156131228885
 42
0.4142135623731
  0
LWPOLYLINE
  5
53E
330
1F
100
AcDbEntity
  8
A-4_寸法
  6
Continuous
 62
     7
370
     9
100
AcDbPolyline
 90
        4
 70
     1
 43
1.0
 10
1123.00036291174
 20
871.4154547614021
 42
0.4142135623731
 10
1122.50036291174
 20
871.9154547614021
 42
0.4142135623731
 10
1122.00036291174
 20
871.4154547614021
 42
0.4142135623731
 10
1122.50036291174
 20
870.9154547614021
 42
0.4142135623731
  0
LWPOLYLINE
  5
53F
330
1F
100
AcDbEntity
  8
A-4_寸法
  6
Continuous
 62
     7
370
     9
100
AcDbPolyline
 90
        4
 70
     1
 43
1.0
 10
1043.000346415752
 20
-168.5846359665328
 42
0.4142135623731
 10
1042.500346415752
 20
-168.0846359665328
 42
0.4142135623731
 10
1042.000346415752
 20
-168.5846359665328
 42
0.4142135623731
 10
1042.500346415752
 20
-169.0846359665328
 42
0.4142135623731
  0
LWPOLYLINE
  5
540
330
1F
100
AcDbEntity
  8
A-4_寸法
  6
Continuous
 62
     7
370
     9
100
AcDbPolyline
 90
        4
 70
     1
 43
1.0
 10
1043.000346415752
 20
871.4154547614021
 42
0.4142135623731
 10
1042.500346415752
 20
871.9154547614021
 42
0.4142135623731
 10
1042.000346415752
 20
871.4154547614021
 42
0.4142135623731
 10
1042.500346415752
 20
870.9154547614021
 42
0.4142135623731
  0
LWPOLYLINE
  5
541
330
1F
100
AcDbEntity
  8
A-4_寸法
  6
Continuous
 62
     7
370
     9
100
AcDbPolyline
 90
        4
 70
     1
 43
1.0
 10
1539.676899677999
 20
-168.5846359665328
 42
0.4142135623731
 10
1539.176899677998
 20
-168.0846359665328
 42
0.4142135623731
 10
1538.676899677998
 20
-168.5846359665328
 42
0.4142135623731
 10
1539.176899677998
 20
-169.0846359665328
 42
0.4142135623731
  0
LWPOLYLINE
  5
542
330
1F
100
AcDbEntity
  8
A-4_寸法
  6
Continuous
 62
     7
370
     9
100
AcDbPolyline
 90
        4
 70
     1
 43
1.0
 10
1539.676899677999
 20
-48.58498238228464
 42
0.4142135623731
 10
1539.176899677998
 20
-48.08498238228464
 42
0.4142135623731
 10
1538.676899677998
 20
-48.58498238228464
 42
0.4142135623731
 10
1539.176899677998
 20
-49.08498238228464
 42
0.4142135623731
  0
LWPOLYLINE
  5
543
330
1F
100
AcDbEntity
  8
A-4_寸法
  6
Continuous
 62
     7
370
     9
100
AcDbPolyline
 90
        4
 70
     1
 43
1.0
 10
1539.676899677999
 20
751.415801177154
 42
0.4142135623731
 10
1539.176899677998
 20
751.9158011771539
 42
0.4142135623731
 10
1538.676899677998
 20
751.415801177154
 42
0.4142135623731
 10
1539.176899677998
 20
750.915801177154
 42
0.4142135623731
  0
LWPOLYLINE
  5
544
330
1F
100
AcDbEntity
  8
A-4_寸法
  6
Continuous
 62
     7
370
     9
100
AcDbPolyline
 90
        4
 70
     1
 43
1.0
 10
1539.676899677999
 20
871.4154547614021
 42
0.4142135623731
 10
1539.176899677998
 20
871.9154547614021
 42
0.4142135623731
 10
1538.676899677998
 20
871.4154547614021
 42
0.4142135623731
 10
1539.176899677998
 20
870.9154547614021
 42
0.4142135623731
  0
LWPOLYLINE
  5
545
330
1F
100
AcDbEntity
  8
A-4_寸法
  6
Continuous
 62
     7
370
     9
100
AcDbPolyline
 90
        4
 70
     1
 43
1.0
 10
1219.677081133868
 20
-309.7849335541595
 42
0.4142135623731
 10
1219.177081133868
 20
-309.2849335541595
 42
0.4142135623731
 10
1218.677081133868
 20
-309.7849335541595
 42
0.4142135623731
 10
1219.177081133868
 20
-310.2849335541595
 42
0.4142135623731
  0
LWPOLYLINE
  5
546
330
1F
100
AcDbEntity
  8
A-4_寸法
  6
Continuous
 62
     7
370
     9
100
AcDbPolyline
 90
        4
 70
     1
 43
1.0
 10
1319.677658493455
 20
-309.7849335541595
 42
0.4142135623731
 10
1319.177658493455
 20
-309.2849335541595
 42
0.4142135623731
 10
1318.677658493455
 20
-309.7849335541595
 42
0.4142135623731
 10
1319.177658493455
 20
-310.2849335541595
 42
0.4142135623731
  0
LWPOLYLINE
  5
547
330
1F
100
AcDbEntity
  8
A-4_寸法
  6
Continuous
 62
     7
370
     9
100
AcDbPolyline
 90
        4
 70
     1
 43
1.0
 10
1219.677081133868
 20
-389.7849500501478
 42
0.4142135623731
 10
1219.177081133868
 20
-389.2849500501478
 42
0.4142135623731
 10
1218.677081133868
 20
-389.7849500501478
 42
0.4142135623731
 10
1219.177081133868
 20
-390.2849500501478
 42
0.4142135623731
  0
LWPOLYLINE
  5
548
330
1F
100
AcDbEntity
  8
A-4_寸法
  6
Continuous
 62
     7
370
     9
100
AcDbPolyline
 90
        4
 70
     1
 43
1.0
 10
1331.677005252323
 20
-389.7849500501478
 42
0.4142135623731
 10
1331.177005252323
 20
-389.2849500501478
 42
0.4142135623731
 10
1330.677005252323
 20
-389.7849500501478
 42
0.4142135623731
 10
1331.177005252323
 20
-390.2849500501478
 42
0.4142135623731
  0
LWPOLYLINE
  5
549
330
1F
100
AcDbEntity
  8
A-4_寸法
  6
Continuous
 62
     7
370
     9
100
AcDbPolyline
 90
        4
 70
     1
 43
1.0
 10
-1627.047805373733
 20
1012.615257469384
 42
0.4142135623731
 10
-1627.547805373733
 20
1013.115257469384
 42
0.4142135623731
 10
-1628.047805373733
 20
1012.615257469384
 42
0.4142135623731
 10
-1627.547805373733
 20
1012.115257469384
 42
0.4142135623731
  0
LWPOLYLINE
  5
54A
330
1F
100
AcDbEntity
  8
A-4_寸法
  6
Continuous
 62
     7
370
     9
100
AcDbPolyline
 90
        4
 70
     1
 43
1.0
 10
-1127.047764133763
 20
1012.615257469384
 42
0.4142135623731
 10
-1127.547764133763
 20
1013.115257469384
 42
0.4142135623731
 10
-1128.047764133762
 20
1012.615257469384
 42
0.4142135623731
 10
-1127.547764133763
 20
1012.115257469384
 42
0.4142135623731
  0
LWPOLYLINE
  5
54B
330
1F
100
AcDbEntity
  8
A-4_寸法
  6
Continuous
 62
     7
370
     9
100
AcDbPolyline
 90
        4
 70
     1
 43
1.0
 10
-99.04689644478464
 20
1012.615257469384
 42
0.4142135623731
 10
-99.54689644478464
 20
1013.115257469384
 42
0.4142135623731
 10
-100.0468964447846
 20
1012.615257469384
 42
0.4142135623731
 10
-99.54689644478464
 20
1012.115257469384
 42
0.4142135623731
  0
LWPOLYLINE
  5
54C
330
1F
100
AcDbEntity
  8
A-4_寸法
  6
Continuous
 62
     7
370
     9
100
AcDbPolyline
 90
        4
 70
     1
 43
1.0
 10
400.9528973553632
 20
1012.615257469384
 42
0.4142135623731
 10
400.4528973553633
 20
1013.115257469384
 42
0.4142135623731
 10
399.9528973553633
 20
1012.615257469384
 42
0.4142135623731
 10
400.4528973553633
 20
1012.115257469384
 42
0.4142135623731
  0
LWPOLYLINE
  5
54D
330
1F
100
AcDbEntity
  8
A-4_寸法
  6
Continuous
 62
     7
370
     9
100
AcDbPolyline
 90
        4
 70
     1
 43
1.0
 10
-472.2471428948479
 20
920.1027040223818
 42
0.4142135623731
 10
-472.7471428948479
 20
920.6027040223818
 42
0.4142135623731
 10
-473.2471428948479
 20
920.1027040223818
 42
0.4142135623731
 10
-472.7471428948479
 20
919.6027040223818
 42
0.4142135623731
  0
LWPOLYLINE
  5
54E
330
1F
100
AcDbEntity
  8
A-4_寸法
  6
Continuous
 62
     7
370
     9
100
AcDbPolyline
 90
        4
 70
     1
 43
1.0
 10
-401.6477364205024
 20
920.1027040223818
 42
0.4142135623731
 10
-402.1477364205023
 20
920.6027040223818
 42
0.4142135623731
 10
-402.6477364205023
 20
920.1027040223818
 42
0.4142135623731
 10
-402.1477364205023
 20
919.6027040223818
 42
0.4142135623731
  0
LWPOLYLINE
  5
54F
330
1F
100
AcDbEntity
  8
A-4_寸法
  6
Continuous
 62
     7
370
     9
100
AcDbPolyline
 90
        4
 70
     1
 43
1.0
 10
-1627.047929093644
 20
-422.8378378378378
 42
0.4142135623731
 10
-1627.547929093644
 20
-422.3378378378378
 42
0.4142135623731
 10
-1628.047929093644
 20
-422.8378378378378
 42
0.4142135623731
 10
-1627.547929093644
 20
-423.3378378378377
 42
0.4142135623731
  0
LWPOLYLINE
  5
550
330
1F
100
AcDbEntity
  8
A-4_寸法
  6
Continuous
 62
     7
370
     9
100
AcDbPolyline
 90
        4
 70
     1
 43
1.0
 10
400.9528973553632
 20
-422.8378378378378
 42
0.4142135623731
 10
400.4528973553633
 20
-422.3378378378378
 42
0.4142135623731
 10
399.9528973553633
 20
-422.8378378378378
 42
0.4142135623731
 10
400.4528973553633
 20
-423.3378378378377
 42
0.4142135623731
  0
LWPOLYLINE
  5
551
330
1F
100
AcDbEntity
  8
A-4_寸法
  6
Continuous
 62
     7
370
     9
100
AcDbPolyline
 90
        4
 70
     1
 43
1.0
 10
-1627.047929093644
 20
-317.4324324324324
 42
0.4142135623731
 10
-1627.547929093644
 20
-316.9324324324324
 42
0.4142135623731
 10
-1628.047929093644
 20
-317.4324324324324
 42
0.4142135623731
 10
-1627.547929093644
 20
-317.9324324324324
 42
0.4142135623731
  0
LWPOLYLINE
  5
552
330
1F
100
AcDbEntity
  8
A-4_寸法
  6
Continuous
 62
     7
370
     9
100
AcDbPolyline
 90
        4
 70
     1
 43
1.0
 10
-1615.047963735219
 20
-317.4324324324324
 42
0.4142135623731
 10
-1615.54796373522
 20
-316.9324324324324
 42
0.4142135623731
 10
-1616.04796373522
 20
-317.4324324324324
 42
0.4142135623731
 10
-1615.54796373522
 20
-317.9324324324324
 42
0.4142135623731
  0
LWPOLYLINE
  5
553
330
1F
100
AcDbEntity
  8
A-4_寸法
  6
Continuous
 62
     7
370
     9
100
AcDbPolyline
 90
        4
 70
     1
 43
1.0
 10
-1608.047891152871
 20
-317.4324324324324
 42
0.4142135623731
 10
-1608.547891152872
 20
-316.9324324324324
 42
0.4142135623731
 10
-1609.047891152872
 20
-317.4324324324324
 42
0.4142135623731
 10
-1608.547891152872
 20
-317.9324324324324
 42
0.4142135623731
  0
LWPOLYLINE
  5
554
330
1F
100
AcDbEntity
  8
A-4_寸法
  6
Continuous
 62
     7
370
     9
100
AcDbPolyline
 90
        4
 70
     1
 43
1.0
 10
381.9527356946792
 20
-317.4324324324324
 42
0.4142135623731
 10
381.4527356946792
 20
-316.9324324324324
 42
0.4142135623731
 10
380.9527356946792
 20
-317.4324324324324
 42
0.4142135623731
 10
381.4527356946792
 20
-317.9324324324324
 42
0.4142135623731
  0
LWPOLYLINE
  5
555
330
1F
100
AcDbEntity
  8
A-4_寸法
  6
Continuous
 62
     7
370
     9
100
AcDbPolyline
 90
        4
 70
     1
 43
1.0
 10
388.9528082770271
 20
-317.4324324324324
 42
0.4142135623731
 10
388.4528082770271
 20
-316.9324324324324
 42
0.4142135623731
 10
387.9528082770271
 20
-317.4324324324324
 42
0.4142135623731
 10
388.4528082770271
 20
-317.9324324324324
 42
0.4142135623731
  0
LWPOLYLINE
  5
556
330
1F
100
AcDbEntity
  8
A-4_寸法
  6
Continuous
 62
     7
370
     9
100
AcDbPolyline
 90
        4
 70
     1
 43
1.0
 10
400.9528973553632
 20
-317.4324324324324
 42
0.4142135623731
 10
400.4528973553633
 20
-316.9324324324324
 42
0.4142135623731
 10
399.9528973553633
 20
-317.4324324324324
 42
0.4142135623731
 10
400.4528973553633
 20
-317.9324324324324
 42
0.4142135623731
  0
TEXT
  5
557
330
1F
100
AcDbEntity
  8
F-5
  6
Continuous
 62
     2
370
     9
100
AcDbText
 10
-904.6689560348923
 20
-1362.093442976668
 30
0.0
 40
30.48
  1
騒音防止型　ノンスリップタイプ　横断溝用　スチール製グレーチング　　ＨＸＢＣ　１５０５０
 41
0.7238636363636365
  7
ＭＳ ゴシック
100
AcDbText
  0
TEXT
  5
558
330
1F
100
AcDbEntity
  8
A-4_寸法
  6
Continuous
 62
     7
370
     9
100
AcDbText
 10
-807.6722799765096
 20
1286.845405933277
 30
0.0
 40
22.86
  1
エンドプレート ＦＢ4.5×44
 41
1.16025641025641
  7
ＭＳ ゴシック
100
AcDbText
  0
ENDSEC
  0
SECTION
  2
OBJECTS
  0
DICTIONARY
  5
C
330
0
100
AcDbDictionary
281
     1
  3
ACAD_GROUP
350
D
  3
ACAD_LAYOUT
350
1A
  3
ACAD_MLEADERSTYLE
350
55A
  3
ACAD_MLINESTYLE
350
17
  3
ACAD_PLOTSETTINGS
350
19
  3
ACAD_PLOTSTYLENAME
350
E
  3
ACAD_TABLESTYLE
350
559
  3
ACAD_VISUALSTYLE
350
2A
  0
DICTIONARY
  5
D
102
{ACAD_REACTORS
330
C
102
}
330
C
100
AcDbDictionary
281
     1
  0
DICTIONARY
  5
1A
102
{ACAD_REACTORS
330
C
102
}
330
C
100
AcDbDictionary
281
     1
  3
Layout1
350
1E
  3
Layout2
350
26
  3
Model
350
22
  0
DICTIONARY
  5
55A
102
{ACAD_REACTORS
330
C
102
}
330
C
100
AcDbDictionary
281
     1
  0
DICTIONARY
  5
17
102
{ACAD_REACTORS
330
C
102
}
330
C
100
AcDbDictionary
281
     1
  3
Standard
350
18
  0
DICTIONARY
  5
19
102
{ACAD_REACTORS
330
C
102
}
330
C
100
AcDbDictionary
281
     1
  0
ACDBDICTIONARYWDFLT
  5
E
102
{ACAD_REACTORS
330
C
102
}
330
C
100
AcDbDictionary
281
     1
  3
Normal
350
F
100
AcDbDictionaryWithDefault
340
F
  0
DICTIONARY
  5
559
102
{ACAD_REACTORS
330
C
102
}
330
C
100
AcDbDictionary
281
     1
  0
DICTIONARY
  5
2A
102
{ACAD_REACTORS
330
C
102
}
330
C
100
AcDbDictionary
281
     1
  3
2dWireframe
350
2F
  3
3D Hidden
350
31
  3
3dWireframe
350
30
  3
Basic
350
32
  3
Brighten
350
36
  3
ColorChange
350
3A
  3
Conceptual
350
34
  3
Dim
350
35
  3
Facepattern
350
39
  3
Flat
350
2B
  3
FlatWithEdges
350
2C
  3
Gouraud
350
2D
  3
GouraudWithEdges
350
2E
  3
Linepattern
350
38
  3
Realistic
350
33
  3
Thicken
350
37
  0
LAYOUT
  5
1E
102
{ACAD_REACTORS
330
1A
102
}
330
1A
100
AcDbPlotSettings
  1

  2
none_device
  4

  6

 40
0.0
 41
0.0
 42
0.0
 43
0.0
 44
0.0
 45
0.0
 46
0.0
 47
0.0
 48
0.0
 49
0.0
140
0.0
141
0.0
142
1.0
143
1.0
 70
   688
 72
     0
 73
     0
 74
     5
  7

 75
    16
 76
     0
 77
     5
 78
   300
147
1.0
148
0.0
149
0.0
100
AcDbLayout
  1
Layout1
 70
     1
 71
     1
 10
0.0
 20
0.0
 11
420.0
 21
297.0
 12
0.0
 22
0.0
 32
0.0
 14
1.000000000000000E+20
 24
1.000000000000000E+20
 34
1.000000000000000E+20
 15
-1.000000000000000E+20
 25
-1.000000000000000E+20
 35
-1.000000000000000E+20
146
0.0
 13
0.0
 23
0.0
 33
0.0
 16
1.0
 26
0.0
 36
0.0
 17
0.0
 27
1.0
 37
0.0
 76
     0
330
1B
  0
LAYOUT
  5
26
102
{ACAD_REACTORS
330
1A
102
}
330
1A
100
AcDbPlotSettings
  1

  2
none_device
  4

  6

 40
0.0
 41
0.0
 42
0.0
 43
0.0
 44
0.0
 45
0.0
 46
0.0
 47
0.0
 48
0.0
 49
0.0
140
0.0
141
0.0
142
1.0
143
1.0
 70
   688
 72
     0
 73
     0
 74
     5
  7

 75
    16
 76
     0
 77
     5
 78
   300
147
1.0
148
0.0
149
0.0
100
AcDbLayout
  1
Layout2
 70
     1
 71
     2
 10
0.0
 20
0.0
 11
0.0
 21
0.0
 12
0.0
 22
0.0
 32
0.0
 14
0.0
 24
0.0
 34
0.0
 15
0.0
 25
0.0
 35
0.0
146
0.0
 13
0.0
 23
0.0
 33
0.0
 16
1.0
 26
0.0
 36
0.0
 17
0.0
 27
1.0
 37
0.0
 76
     0
330
23
  0
LAYOUT
  5
22
102
{ACAD_REACTORS
330
1A
102
}
330
1A
100
AcDbPlotSettings
  1

  2
none_device
  4

  6

 40
0.0
 41
0.0
 42
0.0
 43
0.0
 44
0.0
 45
0.0
 46
0.0
 47
0.0
 48
0.0
 49
0.0
140
0.0
141
0.0
142
1.0
143
1.0
 70
  1712
 72
     0
 73
     0
 74
     0
  7

 75
     0
 76
     0
 77
     5
 78
   300
147
1.0
148
0.0
149
0.0
100
AcDbLayout
  1
Model
 70
     1
 71
     0
 10
-2100.0
 20
-1485.0
 11
2100.0
 21
1485.0
 12
0.0
 22
0.0
 32
0.0
 14
-2100.0
 24
-1485.0
 34
0.0
 15
2100.0
 25
1485.0
 35
0.0
146
0.0
 13
0.0
 23
0.0
 33
0.0
 16
1.0
 26
0.0
 36
0.0
 17
0.0
 27
1.0
 37
0.0
 76
     0
330
1F
331
29
  0
MLINESTYLE
  5
18
102
{ACAD_REACTORS
330
17
102
}
330
17
100
AcDbMlineStyle
  2
Standard
 70
     0
  3

 62
   256
 51
90.0
 52
90.0
 71
     2
 49
0.5
 62
   256
  6
BYLAYER
 49
-0.5
 62
   256
  6
BYLAYER
  0
ACDBPLACEHOLDER
  5
F
102
{ACAD_REACTORS
330
E
102
}
330
E
  0
VISUALSTYLE
  5
2F
102
{ACAD_REACTORS
330
2A
102
}
330
2A
100
AcDbVisualStyle
  2
2dWireframe
 70
     4
 71
     0
 72
     2
 73
     0
 90
        0
 40
-0.6
 41
-30.0
 62
     5
 63
     7
421
 16777215
 74
     1
 91
        4
 64
     7
 65
   257
 75
     1
175
     1
 42
1.0
 92
        0
 66
   257
 43
1.0
 76
     1
 77
     6
 78
     2
 67
     7
 79
     5
170
     0
171
     0
290
     0
174
     0
 93
        1
 44
0.0
173
     0
291
     0
 45
0.0
1001
ACAD
1000
AcDbSavedByObjectVersion
1070
     0
  0
VISUALSTYLE
  5
31
102
{ACAD_REACTORS
330
2A
102
}
330
2A
100
AcDbVisualStyle
  2
3D Hidden
 70
     6
 71
     1
 72
     2
 73
     2
 90
        0
 40
-0.6
 41
-30.0
 62
     5
 63
     7
421
 16777215
 74
     2
 91
        2
 64
     7
 65
   257
 75
     2
175
     1
 42
40.0
 92
        0
 66
   257
 43
1.0
 76
     1
 77
     6
 78
     2
 67
     7
 79
     3
170
     0
171
     0
290
     0
174
     0
 93
        1
 44
0.0
173
     0
291
     0
 45
0.0
1001
ACAD
1000
AcDbSavedByObjectVersion
1070
     0
  0
VISUALSTYLE
  5
30
102
{ACAD_REACTORS
330
2A
102
}
330
2A
100
AcDbVisualStyle
  2
3dWireframe
 70
     5
 71
     0
 72
     2
 73
     0
 90
        0
 40
-0.6
 41
-30.0
 62
     5
 63
     7
421
 16777215
 74
     1
 91
        4
 64
     7
 65
   257
 75
     1
175
     1
 42
1.0
 92
        0
 66
   257
 43
1.0
 76
     1
 77
     6
 78
     2
 67
     7
 79
     5
170
     0
171
     0
290
     0
174
     0
 93
        1
 44
0.0
173
     0
291
     0
 45
0.0
1001
ACAD
1000
AcDbSavedByObjectVersion
1070
     0
  0
VISUALSTYLE
  5
32
102
{ACAD_REACTORS
330
2A
102
}
330
2A
100
AcDbVisualStyle
  2
Basic
 70
     7
 71
     1
 72
     0
 73
     1
 90
        0
 40
-0.6
 41
-30.0
 62
     5
 63
     7
421
 16777215
 74
     0
 91
        4
 64
     7
 65
   257
 75
     1
175
     1
 42
1.0
 92
        8
 66
     7
 43
1.0
 76
     1
 77
     6
 78
     2
 67
     7
 79
     5
170
     0
171
     0
290
     0
174
     0
 93
        1
 44
0.0
173
     0
291
     1
 45
0.0
1001
ACAD
1000
AcDbSavedByObjectVersion
1070
     0
  0
VISUALSTYLE
  5
36
102
{ACAD_REACTORS
330
2A
102
}
330
2A
100
AcDbVisualStyle
  2
Brighten
 70
    12
 71
     2
 72
     2
 73
     0
 90
        0
 40
-0.6
 41
-30.0
 62
     5
 63
     7
421
 16777215
 74
     1
 91
        4
 64
     7
 65
   257
 75
     1
175
     1
 42
1.0
 92
        8
 66
     7
 43
1.0
 76
     1
 77
     6
 78
     2
 67
     7
 79
     5
170
     0
171
     0
290
     0
174
     0
 93
        1
 44
50.0
173
     0
291
     1
 45
0.0
1001
ACAD
1000
AcDbSavedByObjectVersion
1070
     0
  0
VISUALSTYLE
  5
3A
102
{ACAD_REACTORS
330
2A
102
}
330
2A
100
AcDbVisualStyle
  2
ColorChange
 70
    16
 71
     2
 72
     2
 73
     3
 90
        0
 40
-0.6
 41
-30.0
 62
     5
 63
     8
421
  8421504
 74
     1
 91
        4
 64
     7
 65
   257
 75
     1
175
     1
 42
1.0
 92
        8
 66
     8
424
  8421504
 43
1.0
 76
     1
 77
     6
 78
     2
 67
     7
 79
     5
170
     0
171
     0
290
     0
174
     0
 93
        1
 44
0.0
173
     0
291
     1
 45
0.0
1001
ACAD
1000
AcDbSavedByObjectVersion
1070
     0
  0
VISUALSTYLE
  5
34
102
{ACAD_REACTORS
330
2A
102
}
330
2A
100
AcDbVisualStyle
  2
Conceptual
 70
     9
 71
     3
 72
     2
 73
     0
 90
        0
 40
-0.6
 41
-30.0
 62
     5
 63
     7
421
 16777215
 74
     2
 91
        2
 64
     7
 65
   257
 75
     1
175
     1
 42
40.0
 92
        8
 66
     7
 43
1.0
 76
     1
 77
     6
 78
     2
 67
     7
 79
     3
170
     0
171
     0
290
     0
174
     0
 93
        1
 44
0.0
173
     0
291
     0
 45
0.0
1001
ACAD
1000
AcDbSavedByObjectVersion
1070
     0
  0
VISUALSTYLE
  5
35
102
{ACAD_REACTORS
330
2A
102
}
330
2A
100
AcDbVisualStyle
  2
Dim
 70
    11
 71
     2
 72
     2
 73
     0
 90
        0
 40
-0.6
 41
-30.0
 62
     5
 63
     7
421
 16777215
 74
     1
 91
        4
 64
     7
 65
   257
 75
     1
175
     1
 42
1.0
 92
        8
 66
     7
 43
1.0
 76
     1
 77
     6
 78
     2
 67
     7
 79
     5
170
     0
171
     0
290
     0
174
     0
 93
        1
 44
-50.0
173
     0
291
     1
 45
0.0
1001
ACAD
1000
AcDbSavedByObjectVersion
1070
     0
  0
VISUALSTYLE
  5
39
102
{ACAD_REACTORS
330
2A
102
}
330
2A
100
AcDbVisualStyle
  2
Facepattern
 70
    15
 71
     2
 72
     2
 73
     0
 90
        0
 40
-0.6
 41
-30.0
 62
     5
 63
     7
421
 16777215
 74
     1
 91
        4
 64
     7
 65
   257
 75
     1
175
     1
 42
1.0
 92
        8
 66
     7
 43
1.0
 76
     1
 77
     6
 78
     2
 67
     7
 79
     5
170
     0
171
     0
290
     0
174
     0
 93
        1
 44
0.0
173
     0
291
     1
 45
0.0
1001
ACAD
1000
AcDbSavedByObjectVersion
1070
     0
  0
VISUALSTYLE
  5
2B
102
{ACAD_REACTORS
330
2A
102
}
330
2A
100
AcDbVisualStyle
  2
Flat
 70
     0
 71
     2
 72
     1
 73
     1
 90
        2
 40
-0.6
 41
30.0
 62
     5
 63
     7
421
 16777215
 74
     0
 91
        4
 64
     7
 65
   257
 75
     1
175
     1
 42
1.0
 92
        8
 66
     7
 43
1.0
 76
     1
 77
     6
 78
     2
 67
     7
 79
     5
170
     0
171
     0
290
     0
174
     0
 93
       13
 44
0.0
173
     0
291
     1
 45
0.0
1001
ACAD
1000
AcDbSavedByObjectVersion
1070
     0
  0
VISUALSTYLE
  5
2C
102
{ACAD_REACTORS
330
2A
102
}
330
2A
100
AcDbVisualStyle
  2
FlatWithEdges
 70
     1
 71
     2
 72
     1
 73
     1
 90
        2
 40
-0.6
 41
30.0
 62
     5
 63
     7
421
 16777215
 74
     1
 91
        4
 64
     7
 65
   257
 75
     1
175
     1
 42
1.0
 92
        0
 66
   257
 43
1.0
 76
     1
 77
     6
 78
     2
 67
     7
 79
     5
170
     0
171
     0
290
     0
174
     0
 93
       13
 44
0.0
173
     0
291
     1
 45
0.0
1001
ACAD
1000
AcDbSavedByObjectVersion
1070
     0
  0
VISUALSTYLE
  5
2D
102
{ACAD_REACTORS
330
2A
102
}
330
2A
100
AcDbVisualStyle
  2
Gouraud
 70
     2
 71
     2
 72
     2
 73
     1
 90
        2
 40
-0.6
 41
30.0
 62
     5
 63
     7
421
 16777215
 74
     0
 91
        4
 64
     7
 65
   257
 75
     1
175
     1
 42
1.0
 92
        0
 66
     7
 43
1.0
 76
     1
 77
     6
 78
     2
 67
     7
 79
     5
170
     0
171
     0
290
     0
174
     0
 93
       13
 44
0.0
173
     0
291
     1
 45
0.0
1001
ACAD
1000
AcDbSavedByObjectVersion
1070
     0
  0
VISUALSTYLE
  5
2E
102
{ACAD_REACTORS
330
2A
102
}
330
2A
100
AcDbVisualStyle
  2
GouraudWithEdges
 70
     3
 71
     2
 72
     2
 73
     1
 90
        2
 40
-0.6
 41
30.0
 62
     5
 63
     7
421
 16777215
 74
     1
 91
        4
 64
     7
 65
   257
 75
     1
175
     1
 42
1.0
 92
        0
 66
   257
 43
1.0
 76
     1
 77
     6
 78
     2
 67
     7
 79
     5
170
     0
171
     0
290
     0
174
     0
 93
       13
 44
0.0
173
     0
291
     1
 45
0.0
1001
ACAD
1000
AcDbSavedByObjectVersion
1070
     0
  0
VISUALSTYLE
  5
38
102
{ACAD_REACTORS
330
2A
102
}
330
2A
100
AcDbVisualStyle
  2
Linepattern
 70
    14
 71
     2
 72
     2
 73
     0
 90
        0
 40
-0.6
 41
-30.0
 62
     5
 63
     7
421
 16777215
 74
     1
 91
        4
 64
     7
 65
   257
 75
     7
175
     7
 42
1.0
 92
        8
 66
     7
 43
1.0
 76
     1
 77
     6
 78
     2
 67
     7
 79
     5
170
     0
171
     0
290
     0
174
     0
 93
        1
 44
0.0
173
     0
291
     1
 45
0.0
1001
ACAD
1000
AcDbSavedByObjectVersion
1070
     0
  0
VISUALSTYLE
  5
33
102
{ACAD_REACTORS
330
2A
102
}
330
2A
100
AcDbVisualStyle
  2
Realistic
 70
     8
 71
     2
 72
     2
 73
     0
 90
        0
 40
-0.6
 41
-30.0
 62
     5
 63
     7
421
 16777215
 74
     1
 91
        0
 64
     7
 65
   257
 75
     1
175
     1
 42
1.0
 92
        8
 66
     8
424
  7895160
 43
1.0
 76
     1
 77
     6
 78
     2
 67
     7
 79
     5
170
     0
171
     0
290
     0
174
     0
 93
       13
 44
0.0
173
     0
291
     0
 45
0.0
1001
ACAD
1000
AcDbSavedByObjectVersion
1070
     0
  0
VISUALSTYLE
  5
37
102
{ACAD_REACTORS
330
2A
102
}
330
2A
100
AcDbVisualStyle
  2
Thicken
 70
    13
 71
     2
 72
     2
 73
     0
 90
        0
 40
-0.6
 41
-30.0
 62
     5
 63
     7
421
 16777215
 74
     1
 91
        4
 64
     7
 65
   257
 75
     1
175
     1
 42
1.0
 92
       12
 66
     7
 43
1.0
 76
     1
 77
     6
 78
     2
 67
     7
 79
     5
170
     0
171
     0
290
     0
174
     0
 93
        1
 44
0.0
173
     0
291
     1
 45
0.0
1001
ACAD
1000
AcDbSavedByObjectVersion
1070
     0
  0
ENDSEC
  0
EOF
