  0
SECTION
  2
HEADER
  9
$ACADVER
  1
AC1018
  9
$ACADMAINTVER
 70
     0
  9
$DWGCODEPAGE
  3
ANSI_932
  9
$INSBASE
 10
0.0
 20
0.0
 30
0.0
  9
$EXTMIN
 10
-2100.0
 20
-1485.0
 30
0.0
  9
$EXTMAX
 10
2100.0
 20
1485.0
 30
0.0
  9
$LIMMIN
 10
-2100.0
 20
-1485.0
  9
$LIMMAX
 10
2100.0
 20
1485.0
  9
$ORTHOMODE
 70
     0
  9
$REGENMODE
 70
     1
  9
$FILLMODE
 70
     1
  9
$QTEXTMODE
 70
     0
  9
$MIRRTEXT
 70
     1
  9
$LTSCALE
 40
10.0
  9
$ATTMODE
 70
     1
  9
$TEXTSIZE
 40
2.5
  9
$TRACEWID
 40
1.0
  9
$TEXTSTYLE
  7
Standard
  9
$CLAYER
  8
0
  9
$CELTYPE
  6
ByLayer
  9
$CECOLOR
 62
   256
  9
$CELTSCALE
 40
1.0
  9
$DISPSILH
 70
     0
  9
$DIMSCALE
 40
1.0
  9
$DIMASZ
 40
2.5
  9
$DIMEXO
 40
0.625
  9
$DIMDLI
 40
3.75
  9
$DIMRND
 40
0.0
  9
$DIMDLE
 40
0.0
  9
$DIMEXE
 40
1.25
  9
$DIMTP
 40
0.0
  9
$DIMTM
 40
0.0
  9
$DIMTXT
 40
2.5
  9
$DIMCEN
 40
2.5
  9
$DIMTSZ
 40
0.0
  9
$DIMTOL
 70
     0
  9
$DIMLIM
 70
     0
  9
$DIMTIH
 70
     0
  9
$DIMTOH
 70
     0
  9
$DIMSE1
 70
     0
  9
$DIMSE2
 70
     0
  9
$DIMTAD
 70
     1
  9
$DIMZIN
 70
     8
  9
$DIMBLK
  1

  9
$DIMASO
 70
     1
  9
$DIMSHO
 70
     1
  9
$DIMPOST
  1

  9
$DIMAPOST
  1

  9
$DIMALT
 70
     0
  9
$DIMALTD
 70
     3
  9
$DIMALTF
 40
0.03937007874016
  9
$DIMLFAC
 40
1.0
  9
$DIMTOFL
 70
     1
  9
$DIMTVP
 40
0.0
  9
$DIMTIX
 70
     0
  9
$DIMSOXD
 70
     0
  9
$DIMSAH
 70
     0
  9
$DIMBLK1
  1

  9
$DIMBLK2
  1

  9
$DIMSTYLE
  2
ISO-25
  9
$DIMCLRD
 70
     0
  9
$DIMCLRE
 70
     0
  9
$DIMCLRT
 70
     0
  9
$DIMTFAC
 40
1.0
  9
$DIMGAP
 40
0.625
  9
$DIMJUST
 70
     0
  9
$DIMSD1
 70
     0
  9
$DIMSD2
 70
     0
  9
$DIMTOLJ
 70
     0
  9
$DIMTZIN
 70
     8
  9
$DIMALTZ
 70
     0
  9
$DIMALTTZ
 70
     0
  9
$DIMUPT
 70
     0
  9
$DIMDEC
 70
     2
  9
$DIMTDEC
 70
     2
  9
$DIMALTU
 70
     2
  9
$DIMALTTD
 70
     3
  9
$DIMTXSTY
  7
Standard
  9
$DIMAUNIT
 70
     0
  9
$DIMADEC
 70
     0
  9
$DIMALTRND
 40
0.0
  9
$DIMAZIN
 70
     0
  9
$DIMDSEP
 70
    44
  9
$DIMATFIT
 70
     3
  9
$DIMFRAC
 70
     0
  9
$DIMLDRBLK
  1

  9
$DIMLUNIT
 70
     2
  9
$DIMLWD
 70
    -2
  9
$DIMLWE
 70
    -2
  9
$DIMTMOVE
 70
     0
  9
$LUNITS
 70
     2
  9
$LUPREC
 70
     4
  9
$SKETCHINC
 40
1.0
  9
$FILLETRAD
 40
10.0
  9
$AUNITS
 70
     0
  9
$AUPREC
 70
     0
  9
$MENU
  1
.
  9
$ELEVATION
 40
0.0
  9
$PELEVATION
 40
0.0
  9
$THICKNESS
 40
0.0
  9
$LIMCHECK
 70
     0
  9
$CHAMFERA
 40
10.0
  9
$CHAMFERB
 40
10.0
  9
$CHAMFERC
 40
20.0
  9
$CHAMFERD
 40
0.0
  9
$SKPOLY
 70
     0
  9
$TDCREATE
 40
2458268.579539398
  9
$TDUCREATE
 40
2458268.204539398
  9
$TDUPDATE
 40
2458268.57953941
  9
$TDUUPDATE
 40
2458268.20453941
  9
$TDINDWG
 40
0.0000000116
  9
$TDUSRTIMER
 40
0.0000000116
  9
$USRTIMER
 70
     1
  9
$ANGBASE
 50
0.0
  9
$ANGDIR
 70
     0
  9
$PDMODE
 70
     0
  9
$PDSIZE
 40
0.0
  9
$PLINEWID
 40
0.0
  9
$SPLFRAME
 70
     0
  9
$SPLINETYPE
 70
     6
  9
$SPLINESEGS
 70
     8
  9
$HANDSEED
  5
602
  9
$SURFTAB1
 70
     6
  9
$SURFTAB2
 70
     6
  9
$SURFTYPE
 70
     6
  9
$SURFU
 70
     6
  9
$SURFV
 70
     6
  9
$UCSBASE
  2

  9
$UCSNAME
  2

  9
$UCSORG
 10
0.0
 20
0.0
 30
0.0
  9
$UCSXDIR
 10
1.0
 20
0.0
 30
0.0
  9
$UCSYDIR
 10
0.0
 20
1.0
 30
0.0
  9
$UCSORTHOREF
  2

  9
$UCSORTHOVIEW
 70
     0
  9
$UCSORGTOP
 10
0.0
 20
0.0
 30
0.0
  9
$UCSORGBOTTOM
 10
0.0
 20
0.0
 30
0.0
  9
$UCSORGLEFT
 10
0.0
 20
0.0
 30
0.0
  9
$UCSORGRIGHT
 10
0.0
 20
0.0
 30
0.0
  9
$UCSORGFRONT
 10
0.0
 20
0.0
 30
0.0
  9
$UCSORGBACK
 10
0.0
 20
0.0
 30
0.0
  9
$PUCSBASE
  2

  9
$PUCSNAME
  2

  9
$PUCSORG
 10
0.0
 20
0.0
 30
0.0
  9
$PUCSXDIR
 10
1.0
 20
0.0
 30
0.0
  9
$PUCSYDIR
 10
0.0
 20
1.0
 30
0.0
  9
$PUCSORTHOREF
  2

  9
$PUCSORTHOVIEW
 70
     0
  9
$PUCSORGTOP
 10
0.0
 20
0.0
 30
0.0
  9
$PUCSORGBOTTOM
 10
0.0
 20
0.0
 30
0.0
  9
$PUCSORGLEFT
 10
0.0
 20
0.0
 30
0.0
  9
$PUCSORGRIGHT
 10
0.0
 20
0.0
 30
0.0
  9
$PUCSORGFRONT
 10
0.0
 20
0.0
 30
0.0
  9
$PUCSORGBACK
 10
0.0
 20
0.0
 30
0.0
  9
$USERI1
 70
     0
  9
$USERI2
 70
     0
  9
$USERI3
 70
     0
  9
$USERI4
 70
     0
  9
$USERI5
 70
     0
  9
$USERR1
 40
0.0
  9
$USERR2
 40
0.0
  9
$USERR3
 40
0.0
  9
$USERR4
 40
0.0
  9
$USERR5
 40
0.0
  9
$WORLDVIEW
 70
     1
  9
$SHADEDGE
 70
     3
  9
$SHADEDIF
 70
    70
  9
$TILEMODE
 70
     1
  9
$MAXACTVP
 70
    64
  9
$PINSBASE
 10
0.0
 20
0.0
 30
0.0
  9
$PLIMCHECK
 70
     0
  9
$PEXTMIN
 10
1.000000000000000E+20
 20
1.000000000000000E+20
 30
1.000000000000000E+20
  9
$PEXTMAX
 10
-1.000000000000000E+20
 20
-1.000000000000000E+20
 30
-1.000000000000000E+20
  9
$PLIMMIN
 10
0.0
 20
0.0
  9
$PLIMMAX
 10
420.0
 20
297.0
  9
$UNITMODE
 70
     0
  9
$VISRETAIN
 70
     1
  9
$PLINEGEN
 70
     0
  9
$PSLTSCALE
 70
     1
  9
$TREEDEPTH
 70
  3020
  9
$CMLSTYLE
  2
Standard
  9
$CMLJUST
 70
     0
  9
$CMLSCALE
 40
20.0
  9
$PROXYGRAPHICS
 70
     1
  9
$MEASUREMENT
 70
     1
  9
$CELWEIGHT
370
    -1
  9
$ENDCAPS
280
     0
  9
$JOINSTYLE
280
     0
  9
$LWDISPLAY
290
     0
  9
$INSUNITS
 70
     4
  9
$HYPERLINKBASE
  1

  9
$STYLESHEET
  1

  9
$XEDIT
290
     1
  9
$CEPSNTYPE
380
     0
  9
$PSTYLEMODE
290
     1
  9
$FINGERPRINTGUID
  2
{0BE35429-B312-43E2-AF78-287D069E315D}
  9
$VERSIONGUID
  2
{FAEB1C32-E019-11D5-929B-00C0DF256EC4}
  9
$EXTNAMES
290
     1
  9
$PSVPSCALE
 40
0.0
  9
$OLESTARTUP
290
     0
  9
$SORTENTS
280
   127
  9
$INDEXCTL
280
     0
  9
$HIDETEXT
280
     1
  9
$XCLIPFRAME
290
     0
  9
$HALOGAP
280
     0
  9
$OBSCOLOR
 70
   257
  9
$OBSLTYPE
280
     0
  9
$INTERSECTIONDISPLAY
280
     0
  9
$INTERSECTIONCOLOR
 70
   257
  9
$DIMASSOC
280
     2
  9
$PROJECTNAME
  1

  0
ENDSEC
  0
SECTION
  2
CLASSES
  0
CLASS
  1
ACDBDICTIONARYWDFLT
  2
AcDbDictionaryWithDefault
  3
ObjectDBX Classes
 90
        0
 91
        4
280
     0
281
     0
  0
CLASS
  1
VISUALSTYLE
  2
AcDbVisualStyle
  3
ObjectDBX Classes
 90
     4095
 91
        4
280
     0
281
     0
  0
ENDSEC
  0
SECTION
  2
TABLES
  0
TABLE
  2
VPORT
  5
8
330
0
100
AcDbSymbolTable
 70
     1
  0
VPORT
  5
29
330
8
100
AcDbSymbolTableRecord
100
AcDbViewportTableRecord
  2
*Active
 70
     0
 10
0.0
 20
0.0
 11
1.0
 21
1.0
 12
0.0
 22
0.0
 13
0.0
 23
0.0
 14
10.0
 24
10.0
 15
10.0
 25
10.0
 16
0.0
 26
0.0
 36
1.0
 17
0.0
 27
0.0
 37
0.0
 40
3267.0
 41
1.414141414141414
 42
50.0
 43
0.0
 44
0.0
 50
0.0
 51
0.0
 71
     0
 72
 10000
 73
     1
 74
     3
 75
     0
 76
     0
 77
     0
 78
     0
281
     0
 65
     1
110
0.0
120
0.0
130
0.0
111
1.0
121
0.0
131
0.0
112
0.0
122
1.0
132
0.0
 79
     0
146
0.0
  0
ENDTAB
  0
TABLE
  2
LTYPE
  5
5
330
0
100
AcDbSymbolTable
 70
     5
  0
LTYPE
  5
14
330
5
100
AcDbSymbolTableRecord
100
AcDbLinetypeTableRecord
  2
ByBlock
 70
     0
  3

 72
    65
 73
     0
 40
0.0
  0
LTYPE
  5
15
330
5
100
AcDbSymbolTableRecord
100
AcDbLinetypeTableRecord
  2
ByLayer
 70
     0
  3

 72
    65
 73
     0
 40
0.0
  0
LTYPE
  5
16
330
5
100
AcDbSymbolTableRecord
100
AcDbLinetypeTableRecord
  2
Continuous
 70
     0
  3
Solid line
 72
    65
 73
     0
 40
0.0
  0
LTYPE
  5
3C
330
5
100
AcDbSymbolTableRecord
100
AcDbLinetypeTableRecord
  2
JWW_CENTER1
 70
     0
  3
-----  --  ----------  --  -----
 72
    65
 73
     4
 40
6.773333333333333
 49
4.233333333333333
 74
     0
 49
-0.8466666666666667
 74
     0
 49
0.8466666666666667
 74
     0
 49
-0.8466666666666667
 74
     0
  0
LTYPE
  5
3D
330
5
100
AcDbSymbolTableRecord
100
AcDbLinetypeTableRecord
  2
JWW_DASHED3
 70
     0
  3
---  ------  ------  ------  ---
 72
    65
 73
     2
 40
3.386666666666667
 49
2.54
 74
     0
 49
-0.8466666666666667
 74
     0
  0
LTYPE
  5
3E
330
5
100
AcDbSymbolTableRecord
100
AcDbLinetypeTableRecord
  2
JWW_CENTER2
 70
     0
  3
-------------  --  -------------
 72
    65
 73
     4
 40
13.54666666666667
 49
11.00666666666667
 74
     0
 49
-0.8466666666666667
 74
     0
 49
0.8466666666666667
 74
     0
 49
-0.8466666666666667
 74
     0
  0
LTYPE
  5
3F
330
5
100
AcDbSymbolTableRecord
100
AcDbLinetypeTableRecord
  2
JWW_HOJO
 70
     0
  3
  -   -   -   -   -   -   -   - 
 72
    65
 73
     2
 40
1.693333333333333
 49
-1.27
 74
     0
 49
0.4233333333333333
 74
     0
  0
ENDTAB
  0
TABLE
  2
LAYER
  5
2
330
0
100
AcDbSymbolTable
 70
     9
  0
LAYER
  5
10
330
2
100
AcDbSymbolTableRecord
100
AcDbLayerTableRecord
  2
0
 70
     0
 62
     7
  6
Continuous
370
    -3
390
F
  0
LAYER
  5
40
330
2
100
AcDbSymbolTableRecord
100
AcDbLayerTableRecord
  2
D-4_寸法
 70
     0
 62
     7
  6
Continuous
370
    -3
390
F
  0
LAYER
  5
41
330
2
100
AcDbSymbolTableRecord
100
AcDbLayerTableRecord
  2
A-1_ピット
 70
     0
 62
     7
  6
Continuous
370
    -3
390
F
  0
LAYER
  5
42
330
2
100
AcDbSymbolTableRecord
100
AcDbLayerTableRecord
  2
A-2_蓋
 70
     0
 62
     7
  6
Continuous
370
    -3
390
F
  0
LAYER
  5
43
330
2
100
AcDbSymbolTableRecord
100
AcDbLayerTableRecord
  2
A-4_寸法
 70
     0
 62
     7
  6
Continuous
370
    -3
390
F
  0
LAYER
  5
44
330
2
100
AcDbSymbolTableRecord
100
AcDbLayerTableRecord
  2
A-3_受枠
 70
     0
 62
     7
  6
Continuous
370
    -3
390
F
  0
LAYER
  5
45
330
2
100
AcDbSymbolTableRecord
100
AcDbLayerTableRecord
  2
A-A
 70
     0
 62
     7
  6
Continuous
370
    -3
390
F
  0
LAYER
  5
46
330
2
100
AcDbSymbolTableRecord
100
AcDbLayerTableRecord
  2
D-2_蓋
 70
     0
 62
     7
  6
Continuous
370
    -3
390
F
  0
LAYER
  5
47
330
2
100
AcDbSymbolTableRecord
100
AcDbLayerTableRecord
  2
F-5
 70
     0
 62
     7
  6
Continuous
370
    -3
390
F
  0
ENDTAB
  0
TABLE
  2
STYLE
  5
3
330
0
100
AcDbSymbolTable
 70
     2
  0
STYLE
  5
11
330
3
100
AcDbSymbolTableRecord
100
AcDbTextStyleTableRecord
  2
Standard
 70
     0
 40
0.0
 41
1.0
 50
0.0
 71
     0
 42
2.5
  3
txt
  4

1001
ACAD
1000

1071
        0
  0
STYLE
  5
3B
330
3
100
AcDbSymbolTableRecord
100
AcDbTextStyleTableRecord
  2
ＭＳ ゴシック
 70
     0
 40
1.0
 41
1.0
 50
0.0
 71
     0
 42
10.0
  3

  4

1001
ACAD
1000
MS Gothic
1071
    32817
  0
ENDTAB
  0
TABLE
  2
VIEW
  5
6
330
0
100
AcDbSymbolTable
 70
     0
  0
ENDTAB
  0
TABLE
  2
UCS
  5
7
330
0
100
AcDbSymbolTable
 70
     0
  0
ENDTAB
  0
TABLE
  2
APPID
  5
9
330
0
100
AcDbSymbolTable
 70
     1
  0
APPID
  5
12
330
9
100
AcDbSymbolTableRecord
100
AcDbRegAppTableRecord
  2
ACAD
 70
     0
  0
ENDTAB
  0
TABLE
  2
DIMSTYLE
  5
A
330
0
100
AcDbSymbolTable
 70
     1
100
AcDbDimStyleTable
  0
DIMSTYLE
105
27
330
A
100
AcDbSymbolTableRecord
100
AcDbDimStyleTableRecord
  2
ISO-25
 70
     0
 41
2.5
 42
0.625
 43
3.75
 44
1.25
 73
     0
 74
     0
 77
     1
 78
     8
140
2.5
141
2.5
143
0.03937007874016
147
0.625
171
     3
172
     1
271
     2
272
     2
274
     3
278
    44
283
     0
284
     8
340
11
  0
ENDTAB
  0
TABLE
  2
BLOCK_RECORD
  5
1
330
0
100
AcDbSymbolTable
 70
     1
  0
BLOCK_RECORD
  5
1F
330
1
100
AcDbSymbolTableRecord
100
AcDbBlockTableRecord
  2
*Model_Space
340
22
  0
BLOCK_RECORD
  5
1B
330
1
100
AcDbSymbolTableRecord
100
AcDbBlockTableRecord
  2
*Paper_Space
340
1E
  0
BLOCK_RECORD
  5
23
330
1
100
AcDbSymbolTableRecord
100
AcDbBlockTableRecord
  2
*Paper_Space0
340
26
  0
ENDTAB
  0
ENDSEC
  0
SECTION
  2
BLOCKS
  0
BLOCK
  5
20
330
1F
100
AcDbEntity
  8
0
100
AcDbBlockBegin
  2
*Model_Space
 70
     0
 10
0.0
 20
0.0
 30
0.0
  3
*Model_Space
  1

  0
ENDBLK
  5
21
330
1F
100
AcDbEntity
  8
0
100
AcDbBlockEnd
  0
BLOCK
  5
1C
330
1B
100
AcDbEntity
 67
     1
  8
0
100
AcDbBlockBegin
  2
*Paper_Space
 70
     0
 10
0.0
 20
0.0
 30
0.0
  3
*Paper_Space
  1

  0
ENDBLK
  5
1D
330
1B
100
AcDbEntity
 67
     1
  8
0
100
AcDbBlockEnd
  0
BLOCK
  5
24
330
23
100
AcDbEntity
  8
0
100
AcDbBlockBegin
  2
*Paper_Space0
 70
     0
 10
0.0
 20
0.0
 30
0.0
  3
*Paper_Space0
  1

  0
ENDBLK
  5
25
330
23
100
AcDbEntity
  8
0
100
AcDbBlockEnd
  0
ENDSEC
  0
SECTION
  2
ENTITIES
  0
LINE
  5
48
330
1F
100
AcDbEntity
  8
D-4_寸法
  6
Continuous
 62
     2
370
     9
100
AcDbLine
 10
692.503645613387
 20
-606.9451904296875
 30
0.0
 11
692.503645613387
 21
-556.9442831503377
 31
0.0
  0
LINE
  5
49
330
1F
100
AcDbEntity
  8
D-4_寸法
  6
Continuous
 62
     2
370
     9
100
AcDbLine
 10
692.503645613387
 20
-556.9442831503377
 30
0.0
 11
917.503645613387
 21
-556.9442831503377
 31
0.0
  0
LINE
  5
4A
330
1F
100
AcDbEntity
  8
D-4_寸法
  6
Continuous
 62
     2
370
     9
100
AcDbLine
 10
917.503645613387
 20
-556.9442831503377
 30
0.0
 11
917.503645613387
 21
-606.9451904296875
 31
0.0
  0
LINE
  5
4B
330
1F
100
AcDbEntity
  8
D-4_寸法
  6
Continuous
 62
     2
370
     9
100
AcDbLine
 10
917.503645613387
 20
-606.9451904296875
 30
0.0
 11
692.503645613387
 21
-606.9451904296875
 31
0.0
  0
LINE
  5
4C
330
1F
100
AcDbEntity
  8
A-1_ピット
  6
Continuous
 62
     2
370
     9
100
AcDbLine
 10
-1178.586928908889
 20
-212.4119196711359
 30
0.0
 11
-1178.586928908889
 21
-202.2446173590583
 31
0.0
  0
LINE
  5
4D
330
1F
100
AcDbEntity
  8
A-1_ピット
  6
Continuous
 62
     2
370
     9
100
AcDbLine
 10
-1011.920372215477
 20
-229.0782289247254
 30
0.0
 11
-1161.920248495566
 21
-229.0782289247254
 31
0.0
  0
LINE
  5
4E
330
1F
100
AcDbEntity
  8
A-1_ピット
  6
Continuous
 62
     2
370
     9
100
AcDbLine
 10
-995.2535680822423
 20
-212.4119196711359
 30
0.0
 11
-995.2535680822423
 21
-202.2446173590583
 31
0.0
  0
LINE
  5
4F
330
1F
100
AcDbEntity
  8
A-1_ピット
  6
Continuous
 62
     2
370
     9
100
AcDbLine
 10
-1010.253617570207
 20
-212.4119196711359
 30
0.0
 11
-1010.253617570207
 21
-202.2446173590583
 31
0.0
  0
LINE
  5
50
330
1F
100
AcDbEntity
  8
A-1_ピット
  6
Continuous
 62
     2
370
     9
100
AcDbLine
 10
-1161.920248495566
 20
-214.0784268765836
 30
0.0
 11
-1011.920124775655
 21
-214.0784268765836
 31
0.0
  0
LINE
  5
51
330
1F
100
AcDbEntity
  8
A-1_ピット
  6
Continuous
 62
     2
370
     9
100
AcDbLine
 10
-1163.587126860748
 20
-212.4119196711359
 30
0.0
 11
-1163.587126860748
 21
-202.2446173590583
 31
0.0
  0
LINE
  5
52
330
1F
100
AcDbEntity
  8
A-1_ピット
  6
JWW_CENTER1
 62
     2
370
     9
100
AcDbLine
 10
-1171.087027884818
 20
-188.7327946843328
 30
0.0
 11
-1171.087027884818
 21
-214.7279564110008
 31
0.0
  0
LINE
  5
53
330
1F
100
AcDbEntity
  8
A-1_ピット
  6
JWW_CENTER1
 62
     2
370
     9
100
AcDbLine
 10
-1157.482044116871
 20
-202.2446173590583
 30
0.0
 11
-1184.827237515836
 21
-202.2446173590583
 31
0.0
  0
LINE
  5
54
330
1F
100
AcDbEntity
  8
A-1_ピット
  6
JWW_CENTER1
 62
     2
370
     9
100
AcDbLine
 10
-1002.753345386402
 20
-188.7327946843328
 30
0.0
 11
-1002.753345386402
 21
-214.7279564110008
 31
0.0
  0
LINE
  5
55
330
1F
100
AcDbEntity
  8
A-1_ピット
  6
JWW_CENTER1
 62
     2
370
     9
100
AcDbLine
 10
-989.1487327781883
 20
-202.2446173590583
 30
0.0
 11
-1016.493678737331
 21
-202.2446173590583
 31
0.0
  0
LINE
  5
56
330
1F
100
AcDbEntity
  8
A-1_ピット
  6
Continuous
 62
     2
370
     9
100
AcDbLine
 10
-321.9203227275125
 20
-212.4119196711359
 30
0.0
 11
-321.9203227275125
 21
-202.2446173590583
 31
0.0
  0
LINE
  5
57
330
1F
100
AcDbEntity
  8
A-1_ピット
  6
Continuous
 62
     2
370
     9
100
AcDbLine
 10
-155.2527762748099
 20
-229.0782289247254
 30
0.0
 11
-305.2533948743664
 21
-229.0782289247254
 31
0.0
  0
LINE
  5
58
330
1F
100
AcDbEntity
  8
A-1_ピット
  6
Continuous
 62
     2
370
     9
100
AcDbLine
 10
-138.586714461043
 20
-212.4119196711359
 30
0.0
 11
-138.586714461043
 21
-202.2446173590583
 31
0.0
  0
LINE
  5
59
330
1F
100
AcDbEntity
  8
A-1_ピット
  6
Continuous
 62
     2
370
     9
100
AcDbLine
 10
-153.5865165091849
 20
-212.4119196711359
 30
0.0
 11
-153.5865165091849
 21
-202.2446173590583
 31
0.0
  0
LINE
  5
5A
330
1F
100
AcDbEntity
  8
A-1_ピット
  6
Continuous
 62
     2
370
     9
100
AcDbLine
 10
-305.2538897540117
 20
-214.0784268765836
 30
0.0
 11
-155.2527762748099
 21
-214.0784268765836
 31
0.0
  0
LINE
  5
5B
330
1F
100
AcDbEntity
  8
A-1_ピット
  6
Continuous
 62
     2
370
     9
100
AcDbLine
 10
-306.9201495196367
 20
-212.4119196711359
 30
0.0
 11
-306.9201495196367
 21
-202.2446173590583
 31
0.0
  0
LINE
  5
5C
330
1F
100
AcDbEntity
  8
A-1_ピット
  6
JWW_CENTER1
 62
     2
370
     9
100
AcDbLine
 10
-314.4200505437075
 20
-188.7327946843328
 30
0.0
 11
-314.4200505437075
 21
-214.7279564110008
 31
0.0
  0
LINE
  5
5D
330
1F
100
AcDbEntity
  8
A-1_ピット
  6
JWW_CENTER1
 62
     2
370
     9
100
AcDbLine
 10
-300.8153142155825
 20
-202.2446173590583
 30
0.0
 11
-328.1606313344594
 21
-202.2446173590583
 31
0.0
  0
LINE
  5
5E
330
1F
100
AcDbEntity
  8
A-1_ピット
  6
JWW_CENTER1
 62
     2
370
     9
100
AcDbLine
 10
-146.0871103647591
 20
-188.7327946843328
 30
0.0
 11
-146.0871103647591
 21
-214.7279564110008
 31
0.0
  0
LINE
  5
5F
330
1F
100
AcDbEntity
  8
A-1_ピット
  6
JWW_CENTER1
 62
     2
370
     9
100
AcDbLine
 10
-132.4813842773438
 20
-202.2446173590583
 30
0.0
 11
-159.8271962758656
 21
-202.2446173590583
 31
0.0
  0
LINE
  5
60
330
1F
100
AcDbEntity
  8
A-1_ピット
  6
Continuous
 62
     2
370
     9
100
AcDbLine
 10
-1178.586928908889
 20
939.5895798141894
 30
0.0
 11
-1178.586928908889
 21
929.4230198215794
 31
0.0
  0
LINE
  5
61
330
1F
100
AcDbEntity
  8
A-1_ピット
  6
Continuous
 62
     2
370
     9
100
AcDbLine
 10
-1011.920372215477
 20
956.255889067779
 30
0.0
 11
-1161.920248495566
 21
956.255889067779
 31
0.0
  0
LINE
  5
62
330
1F
100
AcDbEntity
  8
A-1_ピット
  6
Continuous
 62
     2
370
     9
100
AcDbLine
 10
-995.2535680822423
 20
939.5895798141894
 30
0.0
 11
-995.2535680822423
 21
929.4230198215794
 31
0.0
  0
LINE
  5
63
330
1F
100
AcDbEntity
  8
A-1_ピット
  6
Continuous
 62
     2
370
     9
100
AcDbLine
 10
-1010.253617570207
 20
939.5895798141894
 30
0.0
 11
-1010.253617570207
 21
929.4230198215794
 31
0.0
  0
LINE
  5
64
330
1F
100
AcDbEntity
  8
A-1_ピット
  6
Continuous
 62
     2
370
     9
100
AcDbLine
 10
-1161.920248495566
 20
941.256087019637
 30
0.0
 11
-1011.920124775655
 21
941.256087019637
 31
0.0
  0
LINE
  5
65
330
1F
100
AcDbEntity
  8
A-1_ピット
  6
Continuous
 62
     2
370
     9
100
AcDbLine
 10
-1163.587126860748
 20
939.5895798141894
 30
0.0
 11
-1163.587126860748
 21
929.4230198215794
 31
0.0
  0
LINE
  5
66
330
1F
100
AcDbEntity
  8
A-1_ピット
  6
JWW_CENTER1
 62
     2
370
     9
100
AcDbLine
 10
-1171.087027884818
 20
915.9103311074748
 30
0.0
 11
-1171.087027884818
 21
941.9063588735221
 31
0.0
  0
LINE
  5
67
330
1F
100
AcDbEntity
  8
A-1_ピット
  6
JWW_CENTER1
 62
     2
370
     9
100
AcDbLine
 10
-1157.482044116871
 20
929.4230198215794
 30
0.0
 11
-1184.827237515836
 21
929.4230198215794
 31
0.0
  0
LINE
  5
68
330
1F
100
AcDbEntity
  8
A-1_ピット
  6
JWW_CENTER1
 62
     2
370
     9
100
AcDbLine
 10
-1002.753345386402
 20
915.9103311074748
 30
0.0
 11
-1002.753345386402
 21
941.9063588735221
 31
0.0
  0
LINE
  5
69
330
1F
100
AcDbEntity
  8
A-1_ピット
  6
JWW_CENTER1
 62
     2
370
     9
100
AcDbLine
 10
-989.1487327781883
 20
929.4230198215794
 30
0.0
 11
-1016.493678737331
 21
929.4230198215794
 31
0.0
  0
LINE
  5
6A
330
1F
100
AcDbEntity
  8
A-1_ピット
  6
Continuous
 62
     2
370
     9
100
AcDbLine
 10
-321.9203227275125
 20
939.5895798141894
 30
0.0
 11
-321.9203227275125
 21
929.4230198215794
 31
0.0
  0
LINE
  5
6B
330
1F
100
AcDbEntity
  8
A-1_ピット
  6
Continuous
 62
     2
370
     9
100
AcDbLine
 10
-155.2527762748099
 20
956.255889067779
 30
0.0
 11
-305.2533948743664
 21
956.255889067779
 31
0.0
  0
LINE
  5
6C
330
1F
100
AcDbEntity
  8
A-1_ピット
  6
Continuous
 62
     2
370
     9
100
AcDbLine
 10
-138.586714461043
 20
939.5895798141894
 30
0.0
 11
-138.586714461043
 21
929.4230198215794
 31
0.0
  0
LINE
  5
6D
330
1F
100
AcDbEntity
  8
A-1_ピット
  6
Continuous
 62
     2
370
     9
100
AcDbLine
 10
-153.5865165091849
 20
939.5895798141894
 30
0.0
 11
-153.5865165091849
 21
929.4230198215794
 31
0.0
  0
LINE
  5
6E
330
1F
100
AcDbEntity
  8
A-1_ピット
  6
Continuous
 62
     2
370
     9
100
AcDbLine
 10
-305.2538897540117
 20
941.256087019637
 30
0.0
 11
-155.2527762748099
 21
941.256087019637
 31
0.0
  0
LINE
  5
6F
330
1F
100
AcDbEntity
  8
A-1_ピット
  6
Continuous
 62
     2
370
     9
100
AcDbLine
 10
-306.9201495196367
 20
939.5895798141894
 30
0.0
 11
-306.9201495196367
 21
929.4230198215794
 31
0.0
  0
LINE
  5
70
330
1F
100
AcDbEntity
  8
A-1_ピット
  6
JWW_CENTER1
 62
     2
370
     9
100
AcDbLine
 10
-314.4200505437075
 20
915.9103311074748
 30
0.0
 11
-314.4200505437075
 21
941.9063588735221
 31
0.0
  0
LINE
  5
71
330
1F
100
AcDbEntity
  8
A-1_ピット
  6
JWW_CENTER1
 62
     2
370
     9
100
AcDbLine
 10
-300.8153142155825
 20
929.4230198215794
 30
0.0
 11
-328.1606313344594
 21
929.4230198215794
 31
0.0
  0
LINE
  5
72
330
1F
100
AcDbEntity
  8
A-1_ピット
  6
JWW_CENTER1
 62
     2
370
     9
100
AcDbLine
 10
-146.0871103647591
 20
915.9103311074748
 30
0.0
 11
-146.0871103647591
 21
941.9063588735221
 31
0.0
  0
LINE
  5
73
330
1F
100
AcDbEntity
  8
A-1_ピット
  6
JWW_CENTER1
 62
     2
370
     9
100
AcDbLine
 10
-132.4813842773438
 20
929.4230198215794
 30
0.0
 11
-159.8271962758656
 21
929.4230198215794
 31
0.0
  0
LINE
  5
74
330
1F
100
AcDbEntity
  8
A-2_蓋
  6
Continuous
 62
     3
370
     9
100
AcDbLine
 10
170.579817488387
 20
-178.0771698822846
 30
0.0
 11
-1487.753955737965
 21
-178.0771698822846
 31
0.0
  0
LINE
  5
75
330
1F
100
AcDbEntity
  8
A-2_蓋
  6
Continuous
 62
     3
370
     9
100
AcDbLine
 10
170.579817488387
 20
-170.5776400179477
 30
0.0
 11
-1487.753955737965
 21
-170.5776400179477
 31
0.0
  0
LINE
  5
76
330
1F
100
AcDbEntity
  8
A-2_蓋
  6
Continuous
 62
     3
370
     9
100
AcDbLine
 10
-1487.753955737965
 20
771.089988914696
 30
0.0
 11
170.579817488387
 21
771.089988914696
 31
0.0
  0
LINE
  5
77
330
1F
100
AcDbEntity
  8
A-2_蓋
  6
Continuous
 62
     3
370
     9
100
AcDbLine
 10
-1487.753955737965
 20
897.7561662003802
 30
0.0
 11
170.579817488387
 21
897.7561662003802
 31
0.0
  0
LINE
  5
78
330
1F
100
AcDbEntity
  8
A-2_蓋
  6
Continuous
 62
     3
370
     9
100
AcDbLine
 10
-1487.753955737965
 20
905.256067224451
 30
0.0
 11
170.579817488387
 21
905.256067224451
 31
0.0
  0
LINE
  5
79
330
1F
100
AcDbEntity
  8
A-2_蓋
  6
Continuous
 62
     3
370
     9
100
AcDbLine
 10
-1487.753955737965
 20
-178.0771698822846
 30
0.0
 11
-1487.753955737965
 21
905.256067224451
 31
0.0
  0
LINE
  5
7A
330
1F
100
AcDbEntity
  8
A-2_蓋
  6
Continuous
 62
     3
370
     9
100
AcDbLine
 10
170.579817488387
 20
905.256067224451
 30
0.0
 11
170.579817488387
 21
-178.0771698822846
 31
0.0
  0
LINE
  5
7B
330
1F
100
AcDbEntity
  8
A-2_蓋
  6
Continuous
 62
     3
370
     9
100
AcDbLine
 10
-1476.08642578125
 20
622.7552589210304
 30
0.0
 11
-1476.08642578125
 21
771.089988914696
 31
0.0
  0
LINE
  5
7C
330
1F
100
AcDbEntity
  8
A-2_蓋
  6
Continuous
 62
     3
370
     9
100
AcDbLine
 10
-1476.08642578125
 20
789.4228053737334
 30
0.0
 11
-1476.08642578125
 21
897.7561662003802
 31
0.0
  0
LINE
  5
7D
330
1F
100
AcDbEntity
  8
A-2_蓋
  6
Continuous
 62
     3
370
     9
100
AcDbLine
 10
158.9137721706084
 20
897.7561662003802
 30
0.0
 11
158.9137721706084
 21
789.4228053737334
 31
0.0
  0
LINE
  5
7E
330
1F
100
AcDbEntity
  8
A-2_蓋
  6
Continuous
 62
     3
370
     9
100
AcDbLine
 10
158.9137721706084
 20
771.089988914696
 30
0.0
 11
158.9137721706084
 21
622.7552589210304
 31
0.0
  0
LINE
  5
7F
330
1F
100
AcDbEntity
  8
A-2_蓋
  6
Continuous
 62
     3
370
     9
100
AcDbLine
 10
100.0800055426521
 20
897.7561662003802
 30
0.0
 11
100.0800055426521
 21
789.4228053737334
 31
0.0
  0
LINE
  5
80
330
1F
100
AcDbEntity
  8
A-2_蓋
  6
Continuous
 62
     3
370
     9
100
AcDbLine
 10
111.7467931798987
 20
897.7561662003802
 30
0.0
 11
111.7467931798987
 21
789.4228053737334
 31
0.0
  0
LINE
  5
81
330
1F
100
AcDbEntity
  8
A-2_蓋
  6
Continuous
 62
     3
370
     9
100
AcDbLine
 10
100.0800055426521
 20
771.089988914696
 30
0.0
 11
100.0800055426521
 21
622.7552589210304
 31
0.0
  0
LINE
  5
82
330
1F
100
AcDbEntity
  8
A-2_蓋
  6
Continuous
 62
     3
370
     9
100
AcDbLine
 10
111.7467931798987
 20
771.089988914696
 30
0.0
 11
111.7467931798987
 21
622.7552589210304
 31
0.0
  0
LINE
  5
83
330
1F
100
AcDbEntity
  8
A-2_蓋
  6
Continuous
 62
     3
370
     9
100
AcDbLine
 10
41.24623891469611
 20
897.7561662003802
 30
0.0
 11
41.24623891469611
 21
789.4228053737334
 31
0.0
  0
LINE
  5
84
330
1F
100
AcDbEntity
  8
A-2_蓋
  6
Continuous
 62
     3
370
     9
100
AcDbLine
 10
52.91302655194272
 20
897.7561662003802
 30
0.0
 11
52.91302655194272
 21
789.4228053737334
 31
0.0
  0
LINE
  5
85
330
1F
100
AcDbEntity
  8
A-2_蓋
  6
Continuous
 62
     3
370
     9
100
AcDbLine
 10
41.24623891469611
 20
771.089988914696
 30
0.0
 11
41.24623891469611
 21
622.7552589210304
 31
0.0
  0
LINE
  5
86
330
1F
100
AcDbEntity
  8
A-2_蓋
  6
Continuous
 62
     3
370
     9
100
AcDbLine
 10
52.91302655194272
 20
771.089988914696
 30
0.0
 11
52.91302655194272
 21
622.7552589210304
 31
0.0
  0
LINE
  5
87
330
1F
100
AcDbEntity
  8
A-2_蓋
  6
Continuous
 62
     3
370
     9
100
AcDbLine
 10
-17.58653795396953
 20
897.7561662003802
 30
0.0
 11
-17.58653795396953
 21
789.4228053737334
 31
0.0
  0
LINE
  5
88
330
1F
100
AcDbEntity
  8
A-2_蓋
  6
Continuous
 62
     3
370
     9
100
AcDbLine
 10
-5.919750316722912
 20
897.7561662003802
 30
0.0
 11
-5.919750316722912
 21
789.4228053737334
 31
0.0
  0
LINE
  5
89
330
1F
100
AcDbEntity
  8
A-2_蓋
  6
Continuous
 62
     3
370
     9
100
AcDbLine
 10
-17.58653795396953
 20
771.089988914696
 30
0.0
 11
-17.58653795396953
 21
622.7552589210304
 31
0.0
  0
LINE
  5
8A
330
1F
100
AcDbEntity
  8
A-2_蓋
  6
Continuous
 62
     3
370
     9
100
AcDbLine
 10
-5.919750316722912
 20
771.089988914696
 30
0.0
 11
-5.919750316722912
 21
622.7552589210304
 31
0.0
  0
LINE
  5
8B
330
1F
100
AcDbEntity
  8
A-2_蓋
  6
Continuous
 62
     3
370
     9
100
AcDbLine
 10
-76.4203045819255
 20
897.7561662003802
 30
0.0
 11
-76.4203045819255
 21
789.4228053737334
 31
0.0
  0
LINE
  5
8C
330
1F
100
AcDbEntity
  8
A-2_蓋
  6
Continuous
 62
     3
370
     9
100
AcDbLine
 10
-64.75351694467889
 20
897.7561662003802
 30
0.0
 11
-64.75351694467889
 21
789.4228053737334
 31
0.0
  0
LINE
  5
8D
330
1F
100
AcDbEntity
  8
A-2_蓋
  6
Continuous
 62
     3
370
     9
100
AcDbLine
 10
-76.4203045819255
 20
771.089988914696
 30
0.0
 11
-76.4203045819255
 21
622.7552589210304
 31
0.0
  0
LINE
  5
8E
330
1F
100
AcDbEntity
  8
A-2_蓋
  6
Continuous
 62
     3
370
     9
100
AcDbLine
 10
-64.75351694467889
 20
771.089988914696
 30
0.0
 11
-64.75351694467889
 21
622.7552589210304
 31
0.0
  0
LINE
  5
8F
330
1F
100
AcDbEntity
  8
A-2_蓋
  6
Continuous
 62
     3
370
     9
100
AcDbLine
 10
-135.2538237700591
 20
897.7561662003802
 30
0.0
 11
-135.2538237700591
 21
789.4228053737334
 31
0.0
  0
LINE
  5
90
330
1F
100
AcDbEntity
  8
A-2_蓋
  6
Continuous
 62
     3
370
     9
100
AcDbLine
 10
-123.5872835726352
 20
897.7561662003802
 30
0.0
 11
-123.5872835726352
 21
789.4228053737334
 31
0.0
  0
LINE
  5
91
330
1F
100
AcDbEntity
  8
A-2_蓋
  6
Continuous
 62
     3
370
     9
100
AcDbLine
 10
-135.2538237700591
 20
771.089988914696
 30
0.0
 11
-135.2538237700591
 21
622.7552589210304
 31
0.0
  0
LINE
  5
92
330
1F
100
AcDbEntity
  8
A-2_蓋
  6
Continuous
 62
     3
370
     9
100
AcDbLine
 10
-123.5872835726352
 20
771.089988914696
 30
0.0
 11
-123.5872835726352
 21
622.7552589210304
 31
0.0
  0
LINE
  5
93
330
1F
100
AcDbEntity
  8
A-2_蓋
  6
Continuous
 62
     3
370
     9
100
AcDbLine
 10
-194.0866006387245
 20
897.7561662003802
 30
0.0
 11
-194.0866006387245
 21
789.4228053737334
 31
0.0
  0
LINE
  5
94
330
1F
100
AcDbEntity
  8
A-2_蓋
  6
Continuous
 62
     3
370
     9
100
AcDbLine
 10
-182.4200604413005
 20
897.7561662003802
 30
0.0
 11
-182.4200604413005
 21
789.4228053737334
 31
0.0
  0
LINE
  5
95
330
1F
100
AcDbEntity
  8
A-2_蓋
  6
Continuous
 62
     3
370
     9
100
AcDbLine
 10
-194.0866006387245
 20
771.089988914696
 30
0.0
 11
-194.0866006387245
 21
622.7552589210304
 31
0.0
  0
LINE
  5
96
330
1F
100
AcDbEntity
  8
A-2_蓋
  6
Continuous
 62
     3
370
     9
100
AcDbLine
 10
-182.4200604413005
 20
771.089988914696
 30
0.0
 11
-182.4200604413005
 21
622.7552589210304
 31
0.0
  0
LINE
  5
97
330
1F
100
AcDbEntity
  8
A-2_蓋
  6
Continuous
 62
     3
370
     9
100
AcDbLine
 10
-252.9203672666807
 20
897.7561662003802
 30
0.0
 11
-252.9203672666807
 21
789.4228053737334
 31
0.0
  0
LINE
  5
98
330
1F
100
AcDbEntity
  8
A-2_蓋
  6
Continuous
 62
     3
370
     9
100
AcDbLine
 10
-241.2535796294341
 20
897.7561662003802
 30
0.0
 11
-241.2535796294341
 21
789.4228053737334
 31
0.0
  0
LINE
  5
99
330
1F
100
AcDbEntity
  8
A-2_蓋
  6
Continuous
 62
     3
370
     9
100
AcDbLine
 10
-252.9203672666807
 20
771.089988914696
 30
0.0
 11
-252.9203672666807
 21
622.7552589210304
 31
0.0
  0
LINE
  5
9A
330
1F
100
AcDbEntity
  8
A-2_蓋
  6
Continuous
 62
     3
370
     9
100
AcDbLine
 10
-241.2535796294341
 20
771.089988914696
 30
0.0
 11
-241.2535796294341
 21
622.7552589210304
 31
0.0
  0
LINE
  5
9B
330
1F
100
AcDbEntity
  8
A-2_蓋
  6
Continuous
 62
     3
370
     9
100
AcDbLine
 10
-311.7538864548141
 20
897.7561662003802
 30
0.0
 11
-311.7538864548141
 21
789.4228053737334
 31
0.0
  0
LINE
  5
9C
330
1F
100
AcDbEntity
  8
A-2_蓋
  6
Continuous
 62
     3
370
     9
100
AcDbLine
 10
-300.0870988175674
 20
897.7561662003802
 30
0.0
 11
-300.0870988175674
 21
789.4228053737334
 31
0.0
  0
LINE
  5
9D
330
1F
100
AcDbEntity
  8
A-2_蓋
  6
Continuous
 62
     3
370
     9
100
AcDbLine
 10
-311.7538864548141
 20
771.089988914696
 30
0.0
 11
-311.7538864548141
 21
622.7552589210304
 31
0.0
  0
LINE
  5
9E
330
1F
100
AcDbEntity
  8
A-2_蓋
  6
Continuous
 62
     3
370
     9
100
AcDbLine
 10
-300.0870988175674
 20
771.089988914696
 30
0.0
 11
-300.0870988175674
 21
622.7552589210304
 31
0.0
  0
LINE
  5
9F
330
1F
100
AcDbEntity
  8
A-2_蓋
  6
Continuous
 62
     3
370
     9
100
AcDbLine
 10
-370.5866633234797
 20
897.7561662003802
 30
0.0
 11
-370.5866633234797
 21
789.4228053737334
 31
0.0
  0
LINE
  5
A0
330
1F
100
AcDbEntity
  8
A-2_蓋
  6
Continuous
 62
     3
370
     9
100
AcDbLine
 10
-358.9198756862331
 20
897.7561662003802
 30
0.0
 11
-358.9198756862331
 21
789.4228053737334
 31
0.0
  0
LINE
  5
A1
330
1F
100
AcDbEntity
  8
A-2_蓋
  6
Continuous
 62
     3
370
     9
100
AcDbLine
 10
-370.5866633234797
 20
771.089988914696
 30
0.0
 11
-370.5866633234797
 21
622.7552589210304
 31
0.0
  0
LINE
  5
A2
330
1F
100
AcDbEntity
  8
A-2_蓋
  6
Continuous
 62
     3
370
     9
100
AcDbLine
 10
-358.9198756862331
 20
771.089988914696
 30
0.0
 11
-358.9198756862331
 21
622.7552589210304
 31
0.0
  0
LINE
  5
A3
330
1F
100
AcDbEntity
  8
A-2_蓋
  6
Continuous
 62
     3
370
     9
100
AcDbLine
 10
-429.420182511613
 20
897.7561662003802
 30
0.0
 11
-429.420182511613
 21
789.4228053737334
 31
0.0
  0
LINE
  5
A4
330
1F
100
AcDbEntity
  8
A-2_蓋
  6
Continuous
 62
     3
370
     9
100
AcDbLine
 10
-417.7536423141891
 20
897.7561662003802
 30
0.0
 11
-417.7536423141891
 21
789.4228053737334
 31
0.0
  0
LINE
  5
A5
330
1F
100
AcDbEntity
  8
A-2_蓋
  6
Continuous
 62
     3
370
     9
100
AcDbLine
 10
-429.420182511613
 20
771.089988914696
 30
0.0
 11
-429.420182511613
 21
622.7552589210304
 31
0.0
  0
LINE
  5
A6
330
1F
100
AcDbEntity
  8
A-2_蓋
  6
Continuous
 62
     3
370
     9
100
AcDbLine
 10
-417.7536423141891
 20
771.089988914696
 30
0.0
 11
-417.7536423141891
 21
622.7552589210304
 31
0.0
  0
LINE
  5
A7
330
1F
100
AcDbEntity
  8
A-2_蓋
  6
Continuous
 62
     3
370
     9
100
AcDbLine
 10
-488.2538254196578
 20
897.7561662003802
 30
0.0
 11
-488.2538254196578
 21
789.4228053737334
 31
0.0
  0
LINE
  5
A8
330
1F
100
AcDbEntity
  8
A-2_蓋
  6
Continuous
 62
     3
370
     9
100
AcDbLine
 10
-476.5870377824112
 20
897.7561662003802
 30
0.0
 11
-476.5870377824112
 21
789.4228053737334
 31
0.0
  0
LINE
  5
A9
330
1F
100
AcDbEntity
  8
A-2_蓋
  6
Continuous
 62
     3
370
     9
100
AcDbLine
 10
-488.2538254196578
 20
771.089988914696
 30
0.0
 11
-488.2538254196578
 21
622.7552589210304
 31
0.0
  0
LINE
  5
AA
330
1F
100
AcDbEntity
  8
A-2_蓋
  6
Continuous
 62
     3
370
     9
100
AcDbLine
 10
-476.5870377824112
 20
771.089988914696
 30
0.0
 11
-476.5870377824112
 21
622.7552589210304
 31
0.0
  0
LINE
  5
AB
330
1F
100
AcDbEntity
  8
A-2_蓋
  6
Continuous
 62
     3
370
     9
100
AcDbLine
 10
-547.0866022883234
 20
897.7561662003802
 30
0.0
 11
-547.0866022883234
 21
789.4228053737334
 31
0.0
  0
LINE
  5
AC
330
1F
100
AcDbEntity
  8
A-2_蓋
  6
Continuous
 62
     3
370
     9
100
AcDbLine
 10
-535.419938370988
 20
897.7561662003802
 30
0.0
 11
-535.419938370988
 21
789.4228053737334
 31
0.0
  0
LINE
  5
AD
330
1F
100
AcDbEntity
  8
A-2_蓋
  6
Continuous
 62
     3
370
     9
100
AcDbLine
 10
-547.0866022883234
 20
771.089988914696
 30
0.0
 11
-547.0866022883234
 21
622.7552589210304
 31
0.0
  0
LINE
  5
AE
330
1F
100
AcDbEntity
  8
A-2_蓋
  6
Continuous
 62
     3
370
     9
100
AcDbLine
 10
-535.419938370988
 20
771.089988914696
 30
0.0
 11
-535.419938370988
 21
622.7552589210304
 31
0.0
  0
LINE
  5
AF
330
1F
100
AcDbEntity
  8
A-2_蓋
  6
Continuous
 62
     3
370
     9
100
AcDbLine
 10
-605.9201214764568
 20
897.7561662003802
 30
0.0
 11
-605.9201214764568
 21
789.4228053737334
 31
0.0
  0
LINE
  5
B0
330
1F
100
AcDbEntity
  8
A-2_蓋
  6
Continuous
 62
     3
370
     9
100
AcDbLine
 10
-594.2535812790328
 20
897.7561662003802
 30
0.0
 11
-594.2535812790328
 21
789.4228053737334
 31
0.0
  0
LINE
  5
B1
330
1F
100
AcDbEntity
  8
A-2_蓋
  6
Continuous
 62
     3
370
     9
100
AcDbLine
 10
-605.9201214764568
 20
771.089988914696
 30
0.0
 11
-605.9201214764568
 21
622.7552589210304
 31
0.0
  0
LINE
  5
B2
330
1F
100
AcDbEntity
  8
A-2_蓋
  6
Continuous
 62
     3
370
     9
100
AcDbLine
 10
-594.2535812790328
 20
771.089988914696
 30
0.0
 11
-594.2535812790328
 21
622.7552589210304
 31
0.0
  0
LINE
  5
B3
330
1F
100
AcDbEntity
  8
A-2_蓋
  6
Continuous
 62
     3
370
     9
100
AcDbLine
 10
-664.7528983451224
 20
897.7561662003802
 30
0.0
 11
-664.7528983451224
 21
789.4228053737334
 31
0.0
  0
LINE
  5
B4
330
1F
100
AcDbEntity
  8
A-2_蓋
  6
Continuous
 62
     3
370
     9
100
AcDbLine
 10
-653.0863581476984
 20
897.7561662003802
 30
0.0
 11
-653.0863581476984
 21
789.4228053737334
 31
0.0
  0
LINE
  5
B5
330
1F
100
AcDbEntity
  8
A-2_蓋
  6
Continuous
 62
     3
370
     9
100
AcDbLine
 10
-664.7528983451224
 20
771.089988914696
 30
0.0
 11
-664.7528983451224
 21
622.7552589210304
 31
0.0
  0
LINE
  5
B6
330
1F
100
AcDbEntity
  8
A-2_蓋
  6
Continuous
 62
     3
370
     9
100
AcDbLine
 10
-653.0863581476984
 20
771.089988914696
 30
0.0
 11
-653.0863581476984
 21
622.7552589210304
 31
0.0
  0
LINE
  5
B7
330
1F
100
AcDbEntity
  8
A-2_蓋
  6
Continuous
 62
     3
370
     9
100
AcDbLine
 10
-723.5866649730783
 20
897.7561662003802
 30
0.0
 11
-723.5866649730783
 21
789.4228053737334
 31
0.0
  0
LINE
  5
B8
330
1F
100
AcDbEntity
  8
A-2_蓋
  6
Continuous
 62
     3
370
     9
100
AcDbLine
 10
-711.9198773358318
 20
897.7561662003802
 30
0.0
 11
-711.9198773358318
 21
789.4228053737334
 31
0.0
  0
LINE
  5
B9
330
1F
100
AcDbEntity
  8
A-2_蓋
  6
Continuous
 62
     3
370
     9
100
AcDbLine
 10
-723.5866649730783
 20
771.089988914696
 30
0.0
 11
-723.5866649730783
 21
622.7552589210304
 31
0.0
  0
LINE
  5
BA
330
1F
100
AcDbEntity
  8
A-2_蓋
  6
Continuous
 62
     3
370
     9
100
AcDbLine
 10
-711.9198773358318
 20
771.089988914696
 30
0.0
 11
-711.9198773358318
 21
622.7552589210304
 31
0.0
  0
LINE
  5
BB
330
1F
100
AcDbEntity
  8
A-2_蓋
  6
Continuous
 62
     3
370
     9
100
AcDbLine
 10
-782.420184161212
 20
897.7561662003802
 30
0.0
 11
-782.420184161212
 21
789.4228053737334
 31
0.0
  0
LINE
  5
BC
330
1F
100
AcDbEntity
  8
A-2_蓋
  6
Continuous
 62
     3
370
     9
100
AcDbLine
 10
-770.753643963788
 20
897.7561662003802
 30
0.0
 11
-770.753643963788
 21
789.4228053737334
 31
0.0
  0
LINE
  5
BD
330
1F
100
AcDbEntity
  8
A-2_蓋
  6
Continuous
 62
     3
370
     9
100
AcDbLine
 10
-782.420184161212
 20
771.089988914696
 30
0.0
 11
-782.420184161212
 21
622.7552589210304
 31
0.0
  0
LINE
  5
BE
330
1F
100
AcDbEntity
  8
A-2_蓋
  6
Continuous
 62
     3
370
     9
100
AcDbLine
 10
-770.753643963788
 20
771.089988914696
 30
0.0
 11
-770.753643963788
 21
622.7552589210304
 31
0.0
  0
LINE
  5
BF
330
1F
100
AcDbEntity
  8
A-2_蓋
  6
Continuous
 62
     3
370
     9
100
AcDbLine
 10
-841.2529610298775
 20
897.7561662003802
 30
0.0
 11
-841.2529610298775
 21
789.4228053737334
 31
0.0
  0
LINE
  5
C0
330
1F
100
AcDbEntity
  8
A-2_蓋
  6
Continuous
 62
     3
370
     9
100
AcDbLine
 10
-829.5864208324535
 20
897.7561662003802
 30
0.0
 11
-829.5864208324535
 21
789.4228053737334
 31
0.0
  0
LINE
  5
C1
330
1F
100
AcDbEntity
  8
A-2_蓋
  6
Continuous
 62
     3
370
     9
100
AcDbLine
 10
-841.2529610298775
 20
771.089988914696
 30
0.0
 11
-841.2529610298775
 21
622.7552589210304
 31
0.0
  0
LINE
  5
C2
330
1F
100
AcDbEntity
  8
A-2_蓋
  6
Continuous
 62
     3
370
     9
100
AcDbLine
 10
-829.5864208324535
 20
771.089988914696
 30
0.0
 11
-829.5864208324535
 21
622.7552589210304
 31
0.0
  0
LINE
  5
C3
330
1F
100
AcDbEntity
  8
A-2_蓋
  6
Continuous
 62
     3
370
     9
100
AcDbLine
 10
-900.0867276578335
 20
897.7561662003802
 30
0.0
 11
-900.0867276578335
 21
789.4228053737334
 31
0.0
  0
LINE
  5
C4
330
1F
100
AcDbEntity
  8
A-2_蓋
  6
Continuous
 62
     3
370
     9
100
AcDbLine
 10
-888.419940020587
 20
897.7561662003802
 30
0.0
 11
-888.419940020587
 21
789.4228053737334
 31
0.0
  0
LINE
  5
C5
330
1F
100
AcDbEntity
  8
A-2_蓋
  6
Continuous
 62
     3
370
     9
100
AcDbLine
 10
-900.0867276578335
 20
771.089988914696
 30
0.0
 11
-900.0867276578335
 21
622.7552589210304
 31
0.0
  0
LINE
  5
C6
330
1F
100
AcDbEntity
  8
A-2_蓋
  6
Continuous
 62
     3
370
     9
100
AcDbLine
 10
-888.419940020587
 20
771.089988914696
 30
0.0
 11
-888.419940020587
 21
622.7552589210304
 31
0.0
  0
LINE
  5
C7
330
1F
100
AcDbEntity
  8
A-2_蓋
  6
Continuous
 62
     3
370
     9
100
AcDbLine
 10
-958.919504526499
 20
897.7561662003802
 30
0.0
 11
-958.919504526499
 21
789.4228053737334
 31
0.0
  0
LINE
  5
C8
330
1F
100
AcDbEntity
  8
A-2_蓋
  6
Continuous
 62
     3
370
     9
100
AcDbLine
 10
-947.2527168892525
 20
897.7561662003802
 30
0.0
 11
-947.2527168892525
 21
789.4228053737334
 31
0.0
  0
LINE
  5
C9
330
1F
100
AcDbEntity
  8
A-2_蓋
  6
Continuous
 62
     3
370
     9
100
AcDbLine
 10
-958.919504526499
 20
771.089988914696
 30
0.0
 11
-958.919504526499
 21
622.7552589210304
 31
0.0
  0
LINE
  5
CA
330
1F
100
AcDbEntity
  8
A-2_蓋
  6
Continuous
 62
     3
370
     9
100
AcDbLine
 10
-947.2527168892525
 20
771.089988914696
 30
0.0
 11
-947.2527168892525
 21
622.7552589210304
 31
0.0
  0
LINE
  5
CB
330
1F
100
AcDbEntity
  8
A-2_蓋
  6
Continuous
 62
     3
370
     9
100
AcDbLine
 10
-1017.752899994721
 20
897.7561662003802
 30
0.0
 11
-1017.752899994721
 21
789.4228053737334
 31
0.0
  0
LINE
  5
CC
330
1F
100
AcDbEntity
  8
A-2_蓋
  6
Continuous
 62
     3
370
     9
100
AcDbLine
 10
-1006.086483517209
 20
897.7561662003802
 30
0.0
 11
-1006.086483517209
 21
789.4228053737334
 31
0.0
  0
LINE
  5
CD
330
1F
100
AcDbEntity
  8
A-2_蓋
  6
Continuous
 62
     3
370
     9
100
AcDbLine
 10
-1017.752899994721
 20
771.089988914696
 30
0.0
 11
-1017.752899994721
 21
622.7552589210304
 31
0.0
  0
LINE
  5
CE
330
1F
100
AcDbEntity
  8
A-2_蓋
  6
Continuous
 62
     3
370
     9
100
AcDbLine
 10
-1006.086483517209
 20
771.089988914696
 30
0.0
 11
-1006.086483517209
 21
622.7552589210304
 31
0.0
  0
LINE
  5
CF
330
1F
100
AcDbEntity
  8
A-2_蓋
  6
Continuous
 62
     3
370
     9
100
AcDbLine
 10
-1076.586666622677
 20
897.7561662003802
 30
0.0
 11
-1076.586666622677
 21
789.4228053737334
 31
0.0
  0
LINE
  5
D0
330
1F
100
AcDbEntity
  8
A-2_蓋
  6
Continuous
 62
     3
370
     9
100
AcDbLine
 10
-1064.920126425253
 20
897.7561662003802
 30
0.0
 11
-1064.920126425253
 21
789.4228053737334
 31
0.0
  0
LINE
  5
D1
330
1F
100
AcDbEntity
  8
A-2_蓋
  6
Continuous
 62
     3
370
     9
100
AcDbLine
 10
-1076.586666622677
 20
771.089988914696
 30
0.0
 11
-1076.586666622677
 21
622.7552589210304
 31
0.0
  0
LINE
  5
D2
330
1F
100
AcDbEntity
  8
A-2_蓋
  6
Continuous
 62
     3
370
     9
100
AcDbLine
 10
-1064.920126425253
 20
771.089988914696
 30
0.0
 11
-1064.920126425253
 21
622.7552589210304
 31
0.0
  0
LINE
  5
D3
330
1F
100
AcDbEntity
  8
A-2_蓋
  6
Continuous
 62
     3
370
     9
100
AcDbLine
 10
-1135.419443491343
 20
897.7561662003802
 30
0.0
 11
-1135.419443491343
 21
789.4228053737334
 31
0.0
  0
LINE
  5
D4
330
1F
100
AcDbEntity
  8
A-2_蓋
  6
Continuous
 62
     3
370
     9
100
AcDbLine
 10
-1123.752779574007
 20
897.7561662003802
 30
0.0
 11
-1123.752779574007
 21
789.4228053737334
 31
0.0
  0
LINE
  5
D5
330
1F
100
AcDbEntity
  8
A-2_蓋
  6
Continuous
 62
     3
370
     9
100
AcDbLine
 10
-1135.419443491343
 20
771.089988914696
 30
0.0
 11
-1135.419443491343
 21
622.7552589210304
 31
0.0
  0
LINE
  5
D6
330
1F
100
AcDbEntity
  8
A-2_蓋
  6
Continuous
 62
     3
370
     9
100
AcDbLine
 10
-1123.752779574007
 20
771.089988914696
 30
0.0
 11
-1123.752779574007
 21
622.7552589210304
 31
0.0
  0
LINE
  5
D7
330
1F
100
AcDbEntity
  8
A-2_蓋
  6
Continuous
 62
     3
370
     9
100
AcDbLine
 10
-1194.253210119299
 20
897.7561662003802
 30
0.0
 11
-1194.253210119299
 21
789.4228053737334
 31
0.0
  0
LINE
  5
D8
330
1F
100
AcDbEntity
  8
A-2_蓋
  6
Continuous
 62
     3
370
     9
100
AcDbLine
 10
-1182.586422482052
 20
897.7561662003802
 30
0.0
 11
-1182.586422482052
 21
789.4228053737334
 31
0.0
  0
LINE
  5
D9
330
1F
100
AcDbEntity
  8
A-2_蓋
  6
Continuous
 62
     3
370
     9
100
AcDbLine
 10
-1194.253210119299
 20
771.089988914696
 30
0.0
 11
-1194.253210119299
 21
622.7552589210304
 31
0.0
  0
LINE
  5
DA
330
1F
100
AcDbEntity
  8
A-2_蓋
  6
Continuous
 62
     3
370
     9
100
AcDbLine
 10
-1182.586422482052
 20
771.089988914696
 30
0.0
 11
-1182.586422482052
 21
622.7552589210304
 31
0.0
  0
LINE
  5
DB
330
1F
100
AcDbEntity
  8
A-2_蓋
  6
Continuous
 62
     3
370
     9
100
AcDbLine
 10
-1253.086729307433
 20
897.7561662003802
 30
0.0
 11
-1253.086729307433
 21
789.4228053737334
 31
0.0
  0
LINE
  5
DC
330
1F
100
AcDbEntity
  8
A-2_蓋
  6
Continuous
 62
     3
370
     9
100
AcDbLine
 10
-1241.420189110009
 20
897.7561662003802
 30
0.0
 11
-1241.420189110009
 21
789.4228053737334
 31
0.0
  0
LINE
  5
DD
330
1F
100
AcDbEntity
  8
A-2_蓋
  6
Continuous
 62
     3
370
     9
100
AcDbLine
 10
-1253.086729307433
 20
771.089988914696
 30
0.0
 11
-1253.086729307433
 21
622.7552589210304
 31
0.0
  0
LINE
  5
DE
330
1F
100
AcDbEntity
  8
A-2_蓋
  6
Continuous
 62
     3
370
     9
100
AcDbLine
 10
-1241.420189110009
 20
771.089988914696
 30
0.0
 11
-1241.420189110009
 21
622.7552589210304
 31
0.0
  0
LINE
  5
DF
330
1F
100
AcDbEntity
  8
A-2_蓋
  6
Continuous
 62
     3
370
     9
100
AcDbLine
 10
-1311.919506176098
 20
897.7561662003802
 30
0.0
 11
-1311.919506176098
 21
789.4228053737334
 31
0.0
  0
LINE
  5
E0
330
1F
100
AcDbEntity
  8
A-2_蓋
  6
Continuous
 62
     3
370
     9
100
AcDbLine
 10
-1300.252842258762
 20
897.7561662003802
 30
0.0
 11
-1300.252842258762
 21
789.4228053737334
 31
0.0
  0
LINE
  5
E1
330
1F
100
AcDbEntity
  8
A-2_蓋
  6
Continuous
 62
     3
370
     9
100
AcDbLine
 10
-1311.919506176098
 20
771.089988914696
 30
0.0
 11
-1311.919506176098
 21
622.7552589210304
 31
0.0
  0
LINE
  5
E2
330
1F
100
AcDbEntity
  8
A-2_蓋
  6
Continuous
 62
     3
370
     9
100
AcDbLine
 10
-1300.252842258762
 20
771.089988914696
 30
0.0
 11
-1300.252842258762
 21
622.7552589210304
 31
0.0
  0
LINE
  5
E3
330
1F
100
AcDbEntity
  8
A-2_蓋
  6
Continuous
 62
     3
370
     9
100
AcDbLine
 10
-1370.753025364231
 20
897.7561662003802
 30
0.0
 11
-1370.753025364231
 21
789.4228053737334
 31
0.0
  0
LINE
  5
E4
330
1F
100
AcDbEntity
  8
A-2_蓋
  6
Continuous
 62
     3
370
     9
100
AcDbLine
 10
-1359.086485166807
 20
897.7561662003802
 30
0.0
 11
-1359.086485166807
 21
789.4228053737334
 31
0.0
  0
LINE
  5
E5
330
1F
100
AcDbEntity
  8
A-2_蓋
  6
Continuous
 62
     3
370
     9
100
AcDbLine
 10
-1370.753025364231
 20
771.089988914696
 30
0.0
 11
-1370.753025364231
 21
622.7552589210304
 31
0.0
  0
LINE
  5
E6
330
1F
100
AcDbEntity
  8
A-2_蓋
  6
Continuous
 62
     3
370
     9
100
AcDbLine
 10
-1359.086485166807
 20
771.089988914696
 30
0.0
 11
-1359.086485166807
 21
622.7552589210304
 31
0.0
  0
LINE
  5
E7
330
1F
100
AcDbEntity
  8
A-2_蓋
  6
Continuous
 62
     3
370
     9
100
AcDbLine
 10
-1429.586791992188
 20
897.7561662003802
 30
0.0
 11
-1429.586791992188
 21
789.4228053737334
 31
0.0
  0
LINE
  5
E8
330
1F
100
AcDbEntity
  8
A-2_蓋
  6
Continuous
 62
     3
370
     9
100
AcDbLine
 10
-1417.920004354941
 20
897.7561662003802
 30
0.0
 11
-1417.920004354941
 21
789.4228053737334
 31
0.0
  0
LINE
  5
E9
330
1F
100
AcDbEntity
  8
A-2_蓋
  6
Continuous
 62
     3
370
     9
100
AcDbLine
 10
-1429.586791992188
 20
771.089988914696
 30
0.0
 11
-1429.586791992188
 21
622.7552589210304
 31
0.0
  0
LINE
  5
EA
330
1F
100
AcDbEntity
  8
A-2_蓋
  6
Continuous
 62
     3
370
     9
100
AcDbLine
 10
-1417.920004354941
 20
771.089988914696
 30
0.0
 11
-1417.920004354941
 21
622.7552589210304
 31
0.0
  0
LINE
  5
EB
330
1F
100
AcDbEntity
  8
A-2_蓋
  6
Continuous
 62
     3
370
     9
100
AcDbLine
 10
-1476.08642578125
 20
771.089988914696
 30
0.0
 11
-1417.920004354941
 21
789.4228053737334
 31
0.0
  0
LINE
  5
EC
330
1F
100
AcDbEntity
  8
A-2_蓋
  6
Continuous
 62
     3
370
     9
100
AcDbLine
 10
-1417.253401472762
 20
771.089988914696
 30
0.0
 11
-1359.086980046452
 21
789.4228053737334
 31
0.0
  0
LINE
  5
ED
330
1F
100
AcDbEntity
  8
A-2_蓋
  6
Continuous
 62
     3
370
     9
100
AcDbLine
 10
-1358.419634844806
 20
771.089988914696
 30
0.0
 11
-1300.253460858319
 21
789.4228053737334
 31
0.0
  0
LINE
  5
EE
330
1F
100
AcDbEntity
  8
A-2_蓋
  6
Continuous
 62
     3
370
     9
100
AcDbLine
 10
-1299.586363096495
 20
771.089988914696
 30
0.0
 11
-1241.420189110009
 21
789.4228053737334
 31
0.0
  0
LINE
  5
EF
330
1F
100
AcDbEntity
  8
A-2_蓋
  6
Continuous
 62
     3
370
     9
100
AcDbLine
 10
-1240.753338788007
 20
771.089988914696
 30
0.0
 11
-1182.586793641786
 21
789.4228053737334
 31
0.0
  0
LINE
  5
F0
330
1F
100
AcDbEntity
  8
A-2_蓋
  6
Continuous
 62
     3
370
     9
100
AcDbLine
 10
-1181.919943319785
 20
771.089988914696
 30
0.0
 11
-1123.753398173564
 21
789.4228053737334
 31
0.0
  0
LINE
  5
F1
330
1F
100
AcDbEntity
  8
A-2_蓋
  6
Continuous
 62
     3
370
     9
100
AcDbLine
 10
-1123.086547851562
 20
771.089988914696
 30
0.0
 11
-1064.920126425253
 21
789.4228053737334
 31
0.0
  0
LINE
  5
F2
330
1F
100
AcDbEntity
  8
A-2_蓋
  6
Continuous
 62
     3
370
     9
100
AcDbLine
 10
-1064.253276103252
 20
771.089988914696
 30
0.0
 11
-1006.086730957031
 21
789.4228053737334
 31
0.0
  0
LINE
  5
F3
330
1F
100
AcDbEntity
  8
A-2_蓋
  6
Continuous
 62
     3
370
     9
100
AcDbLine
 10
-1005.41988063503
 20
771.089988914696
 30
0.0
 11
-947.2534592087204
 21
789.4228053737334
 31
0.0
  0
LINE
  5
F4
330
1F
100
AcDbEntity
  8
A-2_蓋
  6
Continuous
 62
     3
370
     9
100
AcDbLine
 10
-946.5862377269848
 20
771.089988914696
 30
0.0
 11
-888.419940020587
 21
789.4228053737334
 31
0.0
  0
LINE
  5
F5
330
1F
100
AcDbEntity
  8
A-2_蓋
  6
Continuous
 62
     3
370
     9
100
AcDbLine
 10
-887.7530896985853
 20
771.089988914696
 30
0.0
 11
-829.5869157120987
 21
789.4228053737334
 31
0.0
  0
LINE
  5
F6
330
1F
100
AcDbEntity
  8
A-2_蓋
  6
Continuous
 62
     3
370
     9
100
AcDbLine
 10
-828.920065390097
 20
771.089988914696
 30
0.0
 11
-770.753643963788
 21
789.4228053737334
 31
0.0
  0
LINE
  5
F7
330
1F
100
AcDbEntity
  8
A-2_蓋
  6
Continuous
 62
     3
370
     9
100
AcDbLine
 10
-770.0865462019635
 20
771.089988914696
 30
0.0
 11
-711.9201247756544
 21
789.4228053737334
 31
0.0
  0
LINE
  5
F8
330
1F
100
AcDbEntity
  8
A-2_蓋
  6
Continuous
 62
     3
370
     9
100
AcDbLine
 10
-711.2532744536529
 20
771.089988914696
 30
0.0
 11
-653.0868530273438
 21
789.4228053737334
 31
0.0
  0
LINE
  5
F9
330
1F
100
AcDbEntity
  8
A-2_蓋
  6
Continuous
 62
     3
370
     9
100
AcDbLine
 10
-652.4200027053419
 20
771.089988914696
 30
0.0
 11
-594.2535812790328
 21
789.4228053737334
 31
0.0
  0
LINE
  5
FA
330
1F
100
AcDbEntity
  8
A-2_蓋
  6
Continuous
 62
     3
370
     9
100
AcDbLine
 10
-593.5867309570312
 20
771.089988914696
 30
0.0
 11
-535.4203095307221
 21
789.4228053737334
 31
0.0
  0
LINE
  5
FB
330
1F
100
AcDbEntity
  8
A-2_蓋
  6
Continuous
 62
     3
370
     9
100
AcDbLine
 10
-534.7534592087203
 20
771.089988914696
 30
0.0
 11
-476.5870377824112
 21
789.4228053737334
 31
0.0
  0
LINE
  5
FC
330
1F
100
AcDbEntity
  8
A-2_蓋
  6
Continuous
 62
     3
370
     9
100
AcDbLine
 10
-475.919940020587
 20
771.089988914696
 30
0.0
 11
-417.7536423141891
 21
789.4228053737334
 31
0.0
  0
LINE
  5
FD
330
1F
100
AcDbEntity
  8
A-2_蓋
  6
Continuous
 62
     3
370
     9
100
AcDbLine
 10
-417.0867919921875
 20
771.089988914696
 30
0.0
 11
-358.9203705658784
 21
789.4228053737334
 31
0.0
  0
LINE
  5
FE
330
1F
100
AcDbEntity
  8
A-2_蓋
  6
Continuous
 62
     3
370
     9
100
AcDbLine
 10
-358.2535202438766
 20
771.089988914696
 30
0.0
 11
-300.0870988175674
 21
789.4228053737334
 31
0.0
  0
LINE
  5
FF
330
1F
100
AcDbEntity
  8
A-2_蓋
  6
Continuous
 62
     3
370
     9
100
AcDbLine
 10
-299.4202484955659
 20
771.089988914696
 30
0.0
 11
-241.253950789168
 21
789.4228053737334
 31
0.0
  0
LINE
  5
100
330
1F
100
AcDbEntity
  8
A-2_蓋
  6
Continuous
 62
     3
370
     9
100
AcDbLine
 10
-240.5867293074323
 20
771.089988914696
 30
0.0
 11
-182.4200604413005
 21
789.4228053737334
 31
0.0
  0
LINE
  5
101
330
1F
100
AcDbEntity
  8
A-2_蓋
  6
Continuous
 62
     3
370
     9
100
AcDbLine
 10
-181.7537049989443
 20
771.089988914696
 30
0.0
 11
-123.5872835726352
 21
789.4228053737334
 31
0.0
  0
LINE
  5
102
330
1F
100
AcDbEntity
  8
A-2_蓋
  6
Continuous
 62
     3
370
     9
100
AcDbLine
 10
-122.9204332506333
 20
771.089988914696
 30
0.0
 11
-64.75401182432421
 21
789.4228053737334
 31
0.0
  0
LINE
  5
103
330
1F
100
AcDbEntity
  8
A-2_蓋
  6
Continuous
 62
     3
370
     9
100
AcDbLine
 10
-64.08666662267734
 20
771.089988914696
 30
0.0
 11
-5.920245196368228
 21
789.4228053737334
 31
0.0
  0
LINE
  5
104
330
1F
100
AcDbEntity
  8
A-2_蓋
  6
Continuous
 62
     3
370
     9
100
AcDbLine
 10
-5.253147434543735
 20
771.089988914696
 30
0.0
 11
52.91302655194272
 21
789.4228053737334
 31
0.0
  0
LINE
  5
105
330
1F
100
AcDbEntity
  8
A-2_蓋
  6
Continuous
 62
     3
370
     9
100
AcDbLine
 10
53.57962943412161
 20
771.089988914696
 30
0.0
 11
111.7460508604307
 21
789.4228053737334
 31
0.0
  0
LINE
  5
106
330
1F
100
AcDbEntity
  8
A-2_蓋
  6
Continuous
 62
     3
370
     9
100
AcDbLine
 10
112.4129011824326
 20
771.089988914696
 30
0.0
 11
170.5795700485643
 21
789.4228053737334
 31
0.0
  0
LINE
  5
107
330
1F
100
AcDbEntity
  8
A-2_蓋
  6
Continuous
 62
     3
370
     9
100
AcDbLine
 10
-1487.753955737965
 20
785.9551836993245
 30
0.0
 11
-1476.753276103252
 21
789.4228053737334
 31
0.0
  0
LINE
  5
108
330
1F
100
AcDbEntity
  8
A-2_蓋
  6
Continuous
 62
     3
370
     9
100
AcDbLine
 10
-1487.753955737965
 20
622.7557538006758
 30
0.0
 11
170.579817488387
 21
622.7557538006758
 31
0.0
  0
LINE
  5
109
330
1F
100
AcDbEntity
  8
A-2_蓋
  6
Continuous
 62
     3
370
     9
100
AcDbLine
 10
-1487.753955737965
 20
604.4234322212839
 30
0.0
 11
170.579817488387
 21
604.4234322212839
 31
0.0
  0
LINE
  5
10A
330
1F
100
AcDbEntity
  8
A-2_蓋
  6
Continuous
 62
     3
370
     9
100
AcDbLine
 10
-1476.08642578125
 20
604.4234322212839
 30
0.0
 11
-1417.920004354941
 21
622.7557538006758
 31
0.0
  0
LINE
  5
10B
330
1F
100
AcDbEntity
  8
A-2_蓋
  6
Continuous
 62
     3
370
     9
100
AcDbLine
 10
-1417.253401472762
 20
604.4234322212839
 30
0.0
 11
-1359.086980046452
 21
622.7557538006758
 31
0.0
  0
LINE
  5
10C
330
1F
100
AcDbEntity
  8
A-2_蓋
  6
Continuous
 62
     3
370
     9
100
AcDbLine
 10
-1358.419634844806
 20
604.4234322212839
 30
0.0
 11
-1300.253460858319
 21
622.7557538006758
 31
0.0
  0
LINE
  5
10D
330
1F
100
AcDbEntity
  8
A-2_蓋
  6
Continuous
 62
     3
370
     9
100
AcDbLine
 10
-1299.586363096495
 20
604.4234322212839
 30
0.0
 11
-1241.420189110009
 21
622.7557538006758
 31
0.0
  0
LINE
  5
10E
330
1F
100
AcDbEntity
  8
A-2_蓋
  6
Continuous
 62
     3
370
     9
100
AcDbLine
 10
-1240.753338788007
 20
604.4234322212839
 30
0.0
 11
-1182.586793641786
 21
622.7557538006758
 31
0.0
  0
LINE
  5
10F
330
1F
100
AcDbEntity
  8
A-2_蓋
  6
Continuous
 62
     3
370
     9
100
AcDbLine
 10
-1181.919943319785
 20
604.4234322212839
 30
0.0
 11
-1123.753398173564
 21
622.7557538006758
 31
0.0
  0
LINE
  5
110
330
1F
100
AcDbEntity
  8
A-2_蓋
  6
Continuous
 62
     3
370
     9
100
AcDbLine
 10
-1123.086547851562
 20
604.4234322212839
 30
0.0
 11
-1064.920126425253
 21
622.7557538006758
 31
0.0
  0
LINE
  5
111
330
1F
100
AcDbEntity
  8
A-2_蓋
  6
Continuous
 62
     3
370
     9
100
AcDbLine
 10
-1064.253276103252
 20
604.4234322212839
 30
0.0
 11
-1006.086730957031
 21
622.7557538006758
 31
0.0
  0
LINE
  5
112
330
1F
100
AcDbEntity
  8
A-2_蓋
  6
Continuous
 62
     3
370
     9
100
AcDbLine
 10
-1005.41988063503
 20
604.4234322212839
 30
0.0
 11
-947.2534592087204
 21
622.7557538006758
 31
0.0
  0
LINE
  5
113
330
1F
100
AcDbEntity
  8
A-2_蓋
  6
Continuous
 62
     3
370
     9
100
AcDbLine
 10
-946.5862377269848
 20
604.4234322212839
 30
0.0
 11
-888.419940020587
 21
622.7557538006758
 31
0.0
  0
LINE
  5
114
330
1F
100
AcDbEntity
  8
A-2_蓋
  6
Continuous
 62
     3
370
     9
100
AcDbLine
 10
-887.7530896985853
 20
604.4234322212839
 30
0.0
 11
-829.5869157120987
 21
622.7557538006758
 31
0.0
  0
LINE
  5
115
330
1F
100
AcDbEntity
  8
A-2_蓋
  6
Continuous
 62
     3
370
     9
100
AcDbLine
 10
-828.920065390097
 20
604.4234322212839
 30
0.0
 11
-770.753643963788
 21
622.7557538006758
 31
0.0
  0
LINE
  5
116
330
1F
100
AcDbEntity
  8
A-2_蓋
  6
Continuous
 62
     3
370
     9
100
AcDbLine
 10
-770.0865462019635
 20
604.4234322212839
 30
0.0
 11
-711.9201247756544
 21
622.7557538006758
 31
0.0
  0
LINE
  5
117
330
1F
100
AcDbEntity
  8
A-2_蓋
  6
Continuous
 62
     3
370
     9
100
AcDbLine
 10
-711.2532744536529
 20
604.4234322212839
 30
0.0
 11
-653.0868530273438
 21
622.7557538006758
 31
0.0
  0
LINE
  5
118
330
1F
100
AcDbEntity
  8
A-2_蓋
  6
Continuous
 62
     3
370
     9
100
AcDbLine
 10
-652.4200027053419
 20
604.4234322212839
 30
0.0
 11
-594.2535812790328
 21
622.7557538006758
 31
0.0
  0
LINE
  5
119
330
1F
100
AcDbEntity
  8
A-2_蓋
  6
Continuous
 62
     3
370
     9
100
AcDbLine
 10
-593.5867309570312
 20
604.4234322212839
 30
0.0
 11
-535.4203095307221
 21
622.7557538006758
 31
0.0
  0
LINE
  5
11A
330
1F
100
AcDbEntity
  8
A-2_蓋
  6
Continuous
 62
     3
370
     9
100
AcDbLine
 10
-534.7534592087203
 20
604.4234322212839
 30
0.0
 11
-476.5870377824112
 21
622.7557538006758
 31
0.0
  0
LINE
  5
11B
330
1F
100
AcDbEntity
  8
A-2_蓋
  6
Continuous
 62
     3
370
     9
100
AcDbLine
 10
-475.919940020587
 20
604.4234322212839
 30
0.0
 11
-417.7536423141891
 21
622.7557538006758
 31
0.0
  0
LINE
  5
11C
330
1F
100
AcDbEntity
  8
A-2_蓋
  6
Continuous
 62
     3
370
     9
100
AcDbLine
 10
-417.0867919921875
 20
604.4234322212839
 30
0.0
 11
-358.9203705658784
 21
622.7557538006758
 31
0.0
  0
LINE
  5
11D
330
1F
100
AcDbEntity
  8
A-2_蓋
  6
Continuous
 62
     3
370
     9
100
AcDbLine
 10
-358.2535202438766
 20
604.4234322212839
 30
0.0
 11
-300.0870988175674
 21
622.7557538006758
 31
0.0
  0
LINE
  5
11E
330
1F
100
AcDbEntity
  8
A-2_蓋
  6
Continuous
 62
     3
370
     9
100
AcDbLine
 10
-299.4202484955659
 20
604.4234322212839
 30
0.0
 11
-241.253950789168
 21
622.7557538006758
 31
0.0
  0
LINE
  5
11F
330
1F
100
AcDbEntity
  8
A-2_蓋
  6
Continuous
 62
     3
370
     9
100
AcDbLine
 10
-240.5867293074323
 20
604.4234322212839
 30
0.0
 11
-182.4200604413005
 21
622.7557538006758
 31
0.0
  0
LINE
  5
120
330
1F
100
AcDbEntity
  8
A-2_蓋
  6
Continuous
 62
     3
370
     9
100
AcDbLine
 10
-181.7537049989443
 20
604.4234322212839
 30
0.0
 11
-123.5872835726352
 21
622.7557538006758
 31
0.0
  0
LINE
  5
121
330
1F
100
AcDbEntity
  8
A-2_蓋
  6
Continuous
 62
     3
370
     9
100
AcDbLine
 10
-122.9204332506333
 20
604.4234322212839
 30
0.0
 11
-64.75401182432421
 21
622.7557538006758
 31
0.0
  0
LINE
  5
122
330
1F
100
AcDbEntity
  8
A-2_蓋
  6
Continuous
 62
     3
370
     9
100
AcDbLine
 10
-64.08666662267734
 20
604.4234322212839
 30
0.0
 11
-5.920245196368228
 21
622.7557538006758
 31
0.0
  0
LINE
  5
123
330
1F
100
AcDbEntity
  8
A-2_蓋
  6
Continuous
 62
     3
370
     9
100
AcDbLine
 10
-5.253147434543735
 20
604.4234322212839
 30
0.0
 11
52.91302655194272
 21
622.7557538006758
 31
0.0
  0
LINE
  5
124
330
1F
100
AcDbEntity
  8
A-2_蓋
  6
Continuous
 62
     3
370
     9
100
AcDbLine
 10
53.57962943412161
 20
604.4234322212839
 30
0.0
 11
111.7460508604307
 21
622.7557538006758
 31
0.0
  0
LINE
  5
125
330
1F
100
AcDbEntity
  8
A-2_蓋
  6
Continuous
 62
     3
370
     9
100
AcDbLine
 10
112.4129011824326
 20
604.4234322212839
 30
0.0
 11
170.5795700485643
 21
622.7557538006758
 31
0.0
  0
LINE
  5
126
330
1F
100
AcDbEntity
  8
A-2_蓋
  6
Continuous
 62
     3
370
     9
100
AcDbLine
 10
-1487.753955737965
 20
619.2891218855575
 30
0.0
 11
-1476.753276103252
 21
622.7557538006758
 31
0.0
  0
LINE
  5
127
330
1F
100
AcDbEntity
  8
A-2_蓋
  6
Continuous
 62
     3
370
     9
100
AcDbLine
 10
-1487.753955737965
 20
-43.91084413270676
 30
0.0
 11
170.579817488387
 21
-43.91084413270676
 31
0.0
  0
LINE
  5
128
330
1F
100
AcDbEntity
  8
A-2_蓋
  6
Continuous
 62
     3
370
     9
100
AcDbLine
 10
-1487.753955737965
 20
-62.243660591744
 30
0.0
 11
170.579817488387
 21
-62.243660591744
 31
0.0
  0
LINE
  5
129
330
1F
100
AcDbEntity
  8
A-2_蓋
  6
Continuous
 62
     3
370
     9
100
AcDbLine
 10
-1476.08642578125
 20
-62.243660591744
 30
0.0
 11
-1417.920004354941
 21
-43.91084413270676
 31
0.0
  0
LINE
  5
12A
330
1F
100
AcDbEntity
  8
A-2_蓋
  6
Continuous
 62
     3
370
     9
100
AcDbLine
 10
-1417.253401472762
 20
-62.243660591744
 30
0.0
 11
-1359.086980046452
 21
-43.91084413270676
 31
0.0
  0
LINE
  5
12B
330
1F
100
AcDbEntity
  8
A-2_蓋
  6
Continuous
 62
     3
370
     9
100
AcDbLine
 10
-1358.419634844806
 20
-62.243660591744
 30
0.0
 11
-1300.253460858319
 21
-43.91084413270676
 31
0.0
  0
LINE
  5
12C
330
1F
100
AcDbEntity
  8
A-2_蓋
  6
Continuous
 62
     3
370
     9
100
AcDbLine
 10
-1299.586363096495
 20
-62.243660591744
 30
0.0
 11
-1241.420189110009
 21
-43.91084413270676
 31
0.0
  0
LINE
  5
12D
330
1F
100
AcDbEntity
  8
A-2_蓋
  6
Continuous
 62
     3
370
     9
100
AcDbLine
 10
-1240.753338788007
 20
-62.243660591744
 30
0.0
 11
-1182.586793641786
 21
-43.91084413270676
 31
0.0
  0
LINE
  5
12E
330
1F
100
AcDbEntity
  8
A-2_蓋
  6
Continuous
 62
     3
370
     9
100
AcDbLine
 10
-1181.919943319785
 20
-62.243660591744
 30
0.0
 11
-1123.753398173564
 21
-43.91084413270676
 31
0.0
  0
LINE
  5
12F
330
1F
100
AcDbEntity
  8
A-2_蓋
  6
Continuous
 62
     3
370
     9
100
AcDbLine
 10
-1123.086547851562
 20
-62.243660591744
 30
0.0
 11
-1064.920126425253
 21
-43.91084413270676
 31
0.0
  0
LINE
  5
130
330
1F
100
AcDbEntity
  8
A-2_蓋
  6
Continuous
 62
     3
370
     9
100
AcDbLine
 10
-1064.253276103252
 20
-62.243660591744
 30
0.0
 11
-1006.086730957031
 21
-43.91084413270676
 31
0.0
  0
LINE
  5
131
330
1F
100
AcDbEntity
  8
A-2_蓋
  6
Continuous
 62
     3
370
     9
100
AcDbLine
 10
-1005.41988063503
 20
-62.243660591744
 30
0.0
 11
-947.2534592087204
 21
-43.91084413270676
 31
0.0
  0
LINE
  5
132
330
1F
100
AcDbEntity
  8
A-2_蓋
  6
Continuous
 62
     3
370
     9
100
AcDbLine
 10
-946.5862377269848
 20
-62.243660591744
 30
0.0
 11
-888.419940020587
 21
-43.91084413270676
 31
0.0
  0
LINE
  5
133
330
1F
100
AcDbEntity
  8
A-2_蓋
  6
Continuous
 62
     3
370
     9
100
AcDbLine
 10
-887.7530896985853
 20
-62.243660591744
 30
0.0
 11
-829.5869157120987
 21
-43.91084413270676
 31
0.0
  0
LINE
  5
134
330
1F
100
AcDbEntity
  8
A-2_蓋
  6
Continuous
 62
     3
370
     9
100
AcDbLine
 10
-828.920065390097
 20
-62.243660591744
 30
0.0
 11
-770.753643963788
 21
-43.91084413270676
 31
0.0
  0
LINE
  5
135
330
1F
100
AcDbEntity
  8
A-2_蓋
  6
Continuous
 62
     3
370
     9
100
AcDbLine
 10
-770.0865462019635
 20
-62.243660591744
 30
0.0
 11
-711.9201247756544
 21
-43.91084413270676
 31
0.0
  0
LINE
  5
136
330
1F
100
AcDbEntity
  8
A-2_蓋
  6
Continuous
 62
     3
370
     9
100
AcDbLine
 10
-711.2532744536529
 20
-62.243660591744
 30
0.0
 11
-653.0868530273438
 21
-43.91084413270676
 31
0.0
  0
LINE
  5
137
330
1F
100
AcDbEntity
  8
A-2_蓋
  6
Continuous
 62
     3
370
     9
100
AcDbLine
 10
-652.4200027053419
 20
-62.243660591744
 30
0.0
 11
-594.2535812790328
 21
-43.91084413270676
 31
0.0
  0
LINE
  5
138
330
1F
100
AcDbEntity
  8
A-2_蓋
  6
Continuous
 62
     3
370
     9
100
AcDbLine
 10
-593.5867309570312
 20
-62.243660591744
 30
0.0
 11
-535.4203095307221
 21
-43.91084413270676
 31
0.0
  0
LINE
  5
139
330
1F
100
AcDbEntity
  8
A-2_蓋
  6
Continuous
 62
     3
370
     9
100
AcDbLine
 10
-534.7534592087203
 20
-62.243660591744
 30
0.0
 11
-476.5870377824112
 21
-43.91084413270676
 31
0.0
  0
LINE
  5
13A
330
1F
100
AcDbEntity
  8
A-2_蓋
  6
Continuous
 62
     3
370
     9
100
AcDbLine
 10
-475.919940020587
 20
-62.243660591744
 30
0.0
 11
-417.7536423141891
 21
-43.91084413270676
 31
0.0
  0
LINE
  5
13B
330
1F
100
AcDbEntity
  8
A-2_蓋
  6
Continuous
 62
     3
370
     9
100
AcDbLine
 10
-417.0867919921875
 20
-62.243660591744
 30
0.0
 11
-358.9203705658784
 21
-43.91084413270676
 31
0.0
  0
LINE
  5
13C
330
1F
100
AcDbEntity
  8
A-2_蓋
  6
Continuous
 62
     3
370
     9
100
AcDbLine
 10
-358.2535202438766
 20
-62.243660591744
 30
0.0
 11
-300.0870988175674
 21
-43.91084413270676
 31
0.0
  0
LINE
  5
13D
330
1F
100
AcDbEntity
  8
A-2_蓋
  6
Continuous
 62
     3
370
     9
100
AcDbLine
 10
-299.4202484955659
 20
-62.243660591744
 30
0.0
 11
-241.253950789168
 21
-43.91084413270676
 31
0.0
  0
LINE
  5
13E
330
1F
100
AcDbEntity
  8
A-2_蓋
  6
Continuous
 62
     3
370
     9
100
AcDbLine
 10
-240.5867293074323
 20
-62.243660591744
 30
0.0
 11
-182.4200604413005
 21
-43.91084413270676
 31
0.0
  0
LINE
  5
13F
330
1F
100
AcDbEntity
  8
A-2_蓋
  6
Continuous
 62
     3
370
     9
100
AcDbLine
 10
-181.7537049989443
 20
-62.243660591744
 30
0.0
 11
-123.5872835726352
 21
-43.91084413270676
 31
0.0
  0
LINE
  5
140
330
1F
100
AcDbEntity
  8
A-2_蓋
  6
Continuous
 62
     3
370
     9
100
AcDbLine
 10
-122.9204332506333
 20
-62.243660591744
 30
0.0
 11
-64.75401182432421
 21
-43.91084413270676
 31
0.0
  0
LINE
  5
141
330
1F
100
AcDbEntity
  8
A-2_蓋
  6
Continuous
 62
     3
370
     9
100
AcDbLine
 10
-64.08666662267734
 20
-62.243660591744
 30
0.0
 11
-5.920245196368228
 21
-43.91084413270676
 31
0.0
  0
LINE
  5
142
330
1F
100
AcDbEntity
  8
A-2_蓋
  6
Continuous
 62
     3
370
     9
100
AcDbLine
 10
-5.253147434543735
 20
-62.243660591744
 30
0.0
 11
52.91302655194272
 21
-43.91084413270676
 31
0.0
  0
LINE
  5
143
330
1F
100
AcDbEntity
  8
A-2_蓋
  6
Continuous
 62
     3
370
     9
100
AcDbLine
 10
53.57962943412161
 20
-62.243660591744
 30
0.0
 11
111.7460508604307
 21
-43.91084413270676
 31
0.0
  0
LINE
  5
144
330
1F
100
AcDbEntity
  8
A-2_蓋
  6
Continuous
 62
     3
370
     9
100
AcDbLine
 10
112.4129011824326
 20
-62.243660591744
 30
0.0
 11
170.5795700485643
 21
-43.91084413270676
 31
0.0
  0
LINE
  5
145
330
1F
100
AcDbEntity
  8
A-2_蓋
  6
Continuous
 62
     3
370
     9
100
AcDbLine
 10
-1487.753955737965
 20
-47.37784720755911
 30
0.0
 11
-1476.753276103252
 21
-43.91084413270676
 31
0.0
  0
LINE
  5
146
330
1F
100
AcDbEntity
  8
A-4_寸法
  6
Continuous
 62
     7
370
     9
100
AcDbLine
 10
1205.710168786951
 20
-194.7439740155193
 30
0.0
 11
1065.709954339105
 21
-194.7439740155193
 31
0.0
  0
LINE
  5
147
330
1F
100
AcDbEntity
  8
A-4_寸法
  6
Continuous
 62
     7
370
     9
100
AcDbLine
 10
1205.710168786951
 20
-184.7441884633656
 30
0.0
 11
1132.376675992399
 21
-184.7441884633656
 31
0.0
  0
LINE
  5
148
330
1F
100
AcDbEntity
  8
A-4_寸法
  6
Continuous
 62
     7
370
     9
100
AcDbLine
 10
1205.710168786951
 20
-178.076922442462
 30
0.0
 11
1132.376675992399
 21
-178.076922442462
 31
0.0
  0
LINE
  5
149
330
1F
100
AcDbEntity
  8
A-4_寸法
  6
Continuous
 62
     7
370
     9
100
AcDbLine
 10
1205.710168786951
 20
905.2563146642738
 30
0.0
 11
1132.376675992399
 21
905.2563146642738
 31
0.0
  0
LINE
  5
14A
330
1F
100
AcDbEntity
  8
A-4_寸法
  6
Continuous
 62
     7
370
     9
100
AcDbLine
 10
1205.710168786951
 20
911.9228383657096
 30
0.0
 11
1132.376675992399
 21
911.9228383657096
 31
0.0
  0
LINE
  5
14B
330
1F
100
AcDbEntity
  8
A-4_寸法
  6
Continuous
 62
     7
370
     9
100
AcDbLine
 10
1205.710168786951
 20
921.922871357686
 30
0.0
 11
1065.709954339105
 21
921.922871357686
 31
0.0
  0
LINE
  5
14C
330
1F
100
AcDbEntity
  8
A-4_寸法
  6
Continuous
 62
     7
370
     9
100
AcDbLine
 10
1068.21008630701
 20
-194.7439740155193
 30
0.0
 11
1068.21008630701
 21
921.922871357686
 31
0.0
  0
LINE
  5
14D
330
1F
100
AcDbEntity
  8
A-4_寸法
  6
Continuous
 62
     7
370
     9
100
AcDbLine
 10
1492.106917097762
 20
-194.7439740155193
 30
0.0
 11
1492.106917097762
 21
921.922871357686
 31
0.0
  0
LINE
  5
14E
330
1F
100
AcDbEntity
  8
A-4_寸法
  6
Continuous
 62
     7
370
     9
100
AcDbLine
 10
1317.940211940456
 20
-194.7439740155193
 30
0.0
 11
1494.606801625845
 21
-194.7439740155193
 31
0.0
  0
LINE
  5
14F
330
1F
100
AcDbEntity
  8
A-4_寸法
  6
Continuous
 62
     7
370
     9
100
AcDbLine
 10
1337.940277924409
 20
-94.7442626953125
 30
0.0
 11
1494.606801625845
 21
-94.7442626953125
 31
0.0
  0
LINE
  5
150
330
1F
100
AcDbEntity
  8
A-4_寸法
  6
Continuous
 62
     7
370
     9
100
AcDbLine
 10
1337.940277924409
 20
821.9230363175677
 30
0.0
 11
1494.606801625845
 21
821.9230363175677
 31
0.0
  0
LINE
  5
151
330
1F
100
AcDbEntity
  8
A-4_寸法
  6
Continuous
 62
     7
370
     9
100
AcDbLine
 10
1317.940211940456
 20
921.922871357686
 30
0.0
 11
1494.606801625845
 21
921.922871357686
 31
0.0
  0
LINE
  5
152
330
1F
100
AcDbEntity
  8
A-4_寸法
  6
Continuous
 62
     7
370
     9
100
AcDbLine
 10
1215.440739812078
 20
-312.410888671875
 30
0.0
 11
1307.107791385135
 21
-312.410888671875
 31
0.0
  0
LINE
  5
153
330
1F
100
AcDbEntity
  8
A-4_寸法
  6
Continuous
 62
     7
370
     9
100
AcDbLine
 10
1215.440739812078
 20
-207.2440152554898
 30
0.0
 11
1215.440739812078
 21
-381.5777422930742
 31
0.0
  0
LINE
  5
154
330
1F
100
AcDbEntity
  8
A-4_寸法
  6
Continuous
 62
     7
370
     9
100
AcDbLine
 10
1307.107791385135
 20
-190.5769636824323
 30
0.0
 11
1307.107791385135
 21
-314.910896919869
 31
0.0
  0
LINE
  5
155
330
1F
100
AcDbEntity
  8
A-4_寸法
  6
Continuous
 62
     7
370
     9
100
AcDbLine
 10
1215.440739812078
 20
-379.0776103251688
 30
0.0
 11
1317.107329497466
 21
-379.0776103251688
 31
0.0
  0
LINE
  5
156
330
1F
100
AcDbEntity
  8
A-4_寸法
  6
Continuous
 62
     7
370
     9
100
AcDbLine
 10
1317.107329497466
 20
-187.2444441511823
 30
0.0
 11
1317.107329497466
 21
-381.5777422930742
 31
0.0
  0
LINE
  5
157
330
1F
100
AcDbEntity
  8
A-4_寸法
  6
Continuous
 62
     7
370
     9
100
AcDbLine
 10
1134.876807960304
 20
-242.5958664352828
 30
0.0
 11
1134.876807960304
 21
970.8046083192568
 31
0.0
  0
LINE
  5
158
330
1F
100
AcDbEntity
  8
A-4_寸法
  6
Continuous
 62
     7
370
     9
100
AcDbLine
 10
1405.023440799198
 20
962.6715087890625
 30
0.0
 11
1412.995951884502
 21
981.9191102723818
 31
0.0
  0
LINE
  5
159
330
1F
100
AcDbEntity
  8
A-4_寸法
  6
Continuous
 62
     7
370
     9
100
AcDbLine
 10
1405.023440799198
 20
962.6715087890625
 30
0.0
 11
1417.705968908361
 21
979.1997466216219
 31
0.0
  0
LINE
  5
15A
330
1F
100
AcDbEntity
  8
A-4_寸法
  6
Continuous
 62
     7
370
     9
100
AcDbLine
 10
1215.440739812078
 20
921.922871357686
 30
0.0
 11
1202.758211702914
 21
938.4508617504224
 31
0.0
  0
LINE
  5
15B
330
1F
100
AcDbEntity
  8
A-4_寸法
  6
Continuous
 62
     7
370
     9
100
AcDbLine
 10
1215.440739812078
 20
921.922871357686
 30
0.0
 11
1207.468228726774
 21
941.1702254011825
 31
0.0
  0
LINE
  5
15C
330
1F
100
AcDbEntity
  8
A-4_寸法
  6
Continuous
 62
     7
370
     9
100
AcDbLine
 10
-770.7535202438766
 20
864.4228053737334
 30
0.0
 11
-768.0342803130279
 21
885.0775971283783
 31
0.0
  0
LINE
  5
15D
330
1F
100
AcDbEntity
  8
A-4_寸法
  6
Continuous
 62
     7
370
     9
100
AcDbLine
 10
-770.7535202438766
 20
864.4228053737334
 30
0.0
 11
-762.7808854386612
 21
883.67015941723
 31
0.0
  0
LINE
  5
15E
330
1F
100
AcDbEntity
  8
A-4_寸法
  6
Continuous
 62
     7
370
     9
100
AcDbLine
 10
-876.0011827623521
 20
789.4228053737334
 30
0.0
 11
-868.0285479571367
 21
808.6704068570526
 31
0.0
  0
LINE
  5
15F
330
1F
100
AcDbEntity
  8
A-4_寸法
  6
Continuous
 62
     7
370
     9
100
AcDbLine
 10
-924.3303865999787
 20
905.256067224451
 30
0.0
 11
-921.6110229492188
 21
925.911106418919
 31
0.0
  0
LINE
  5
160
330
1F
100
AcDbEntity
  8
A-4_寸法
  6
Continuous
 62
     7
370
     9
100
AcDbLine
 10
-924.3303865999787
 20
905.256067224451
 30
0.0
 11
-916.3577517947634
 21
924.5036687077703
 31
0.0
  0
LINE
  5
161
330
1F
100
AcDbEntity
  8
A-4_寸法
  6
Continuous
 62
     7
370
     9
100
AcDbLine
 10
-770.7535202438766
 20
864.4228053737334
 30
0.0
 11
-701.4885567330023
 21
1122.922693201014
 31
0.0
  0
LINE
  5
162
330
1F
100
AcDbEntity
  8
A-4_寸法
  6
Continuous
 62
     7
370
     9
100
AcDbLine
 10
-924.3303865999787
 20
905.256067224451
 30
0.0
 11
-830.2803658150337
 21
1256.255889067779
 31
0.0
  0
LINE
  5
163
330
1F
100
AcDbEntity
  8
A-4_寸法
  6
Continuous
 62
     7
370
     9
100
AcDbLine
 10
-830.2803658150337
 20
1256.255889067779
 30
0.0
 11
-358.8228792757602
 21
1256.255889067779
 31
0.0
  0
LINE
  5
164
330
1F
100
AcDbEntity
  8
A-4_寸法
  6
Continuous
 62
     7
370
     9
100
AcDbLine
 10
-768.7768472207557
 20
1189.589414854308
 30
0.0
 11
-395.4345703125
 21
1189.589414854308
 31
0.0
  0
LINE
  5
165
330
1F
100
AcDbEntity
  8
A-4_寸法
  6
Continuous
 62
     7
370
     9
100
AcDbLine
 10
-701.4885567330023
 20
1122.922693201014
 30
0.0
 11
-189.3978634396115
 21
1122.922693201014
 31
0.0
  0
LINE
  5
166
330
1F
100
AcDbEntity
  8
A-4_寸法
  6
Continuous
 62
     7
370
     9
100
AcDbLine
 10
1405.023440799198
 20
962.6715087890625
 30
0.0
 11
1482.325373469173
 21
1091.598048854519
 31
0.0
  0
LINE
  5
167
330
1F
100
AcDbEntity
  8
A-4_寸法
  6
Continuous
 62
     7
370
     9
100
AcDbLine
 10
1482.325373469173
 20
1091.598048854519
 30
0.0
 11
1740.065621040963
 21
1091.598048854519
 31
0.0
  0
LINE
  5
168
330
1F
100
AcDbEntity
  8
A-3_受枠
  6
Continuous
 62
     4
370
     9
100
AcDbLine
 10
-1314.336250923775
 20
869.4228218697214
 30
0.0
 11
-1356.669987858952
 21
869.4228218697214
 31
0.0
  0
LINE
  5
169
330
1F
100
AcDbEntity
  8
A-3_受枠
  6
Continuous
 62
     4
370
     9
100
AcDbLine
 10
-1322.003050108214
 20
874.2560639252533
 30
0.0
 11
-1349.003064954603
 21
874.2560639252533
 31
0.0
  0
LINE
  5
16A
330
1F
100
AcDbEntity
  8
A-3_受枠
  6
Continuous
 62
     4
370
     9
100
AcDbLine
 10
-1354.66968433277
 20
874.2560639252533
 30
0.0
 11
-1356.669987858952
 21
874.2560639252533
 31
0.0
  0
LINE
  5
16B
330
1F
100
AcDbEntity
  8
A-3_受枠
  6
Continuous
 62
     4
370
     9
100
AcDbLine
 10
-1316.336307010135
 20
874.2560639252533
 30
0.0
 11
-1314.336250923775
 21
874.2560639252533
 31
0.0
  0
LINE
  5
16C
330
1F
100
AcDbEntity
  8
A-3_受枠
  6
Continuous
 62
     4
370
     9
100
AcDbLine
 10
-1353.836307010135
 20
875.0894412478885
 30
0.0
 11
-1353.836307010135
 21
897.7559187605575
 31
0.0
  0
LINE
  5
16D
330
1F
100
AcDbEntity
  8
A-3_受枠
  6
Continuous
 62
     4
370
     9
100
AcDbLine
 10
-1349.003064954603
 20
871.839319177576
 30
0.0
 11
-1349.003064954603
 21
897.7559187605575
 31
0.0
  0
LINE
  5
16E
330
1F
100
AcDbEntity
  8
A-3_受枠
  6
Continuous
 62
     4
370
     9
100
AcDbLine
 10
-1322.003050108214
 20
871.839319177576
 30
0.0
 11
-1322.003050108214
 21
897.7559187605575
 31
0.0
  0
LINE
  5
16F
330
1F
100
AcDbEntity
  8
A-3_受枠
  6
Continuous
 62
     4
370
     9
100
AcDbLine
 10
-1317.16968433277
 20
875.0894412478885
 30
0.0
 11
-1317.16968433277
 21
897.7559187605575
 31
0.0
  0
LINE
  5
170
330
1F
100
AcDbEntity
  8
A-3_受枠
  6
Continuous
 62
     4
370
     9
100
AcDbLine
 10
-1349.836442277238
 20
887.7558857685813
 30
0.0
 11
-1353.0029296875
 21
887.7558857685813
 31
0.0
  0
LINE
  5
171
330
1F
100
AcDbEntity
  8
A-3_受枠
  6
Continuous
 62
     4
370
     9
100
AcDbLine
 10
-1321.16979650549
 20
887.7558857685813
 30
0.0
 11
-1318.002814215583
 21
887.7558857685813
 31
0.0
  0
LINE
  5
172
330
1F
100
AcDbEntity
  8
A-3_受枠
  6
Continuous
 62
     4
370
     9
100
AcDbLine
 10
-1353.836307010135
 20
905.2558197846283
 30
0.0
 11
-1353.836307010135
 21
909.521187447213
 31
0.0
  0
LINE
  5
173
330
1F
100
AcDbEntity
  8
A-3_受枠
  6
Continuous
 62
     4
370
     9
100
AcDbLine
 10
-1349.003064954603
 20
905.2558197846283
 30
0.0
 11
-1349.003064954603
 21
909.521187447213
 31
0.0
  0
LINE
  5
174
330
1F
100
AcDbEntity
  8
A-3_受枠
  6
Continuous
 62
     4
370
     9
100
AcDbLine
 10
-1322.003050108214
 20
905.2558197846283
 30
0.0
 11
-1322.003050108214
 21
909.521187447213
 31
0.0
  0
LINE
  5
175
330
1F
100
AcDbEntity
  8
A-3_受枠
  6
Continuous
 62
     4
370
     9
100
AcDbLine
 10
-1317.16968433277
 20
905.2558197846283
 30
0.0
 11
-1317.16968433277
 21
909.521187447213
 31
0.0
  0
LINE
  5
176
330
1F
100
AcDbEntity
  8
A-3_受枠
  6
Continuous
 62
     4
370
     9
100
AcDbLine
 10
38.49767736486484
 20
869.4228218697214
 30
0.0
 11
-3.835812130489842
 21
869.4228218697214
 31
0.0
  0
LINE
  5
177
330
1F
100
AcDbEntity
  8
A-3_受枠
  6
Continuous
 62
     4
370
     9
100
AcDbLine
 10
30.83100190033804
 20
874.2560639252533
 30
0.0
 11
3.831110773859905
 21
874.2560639252533
 31
0.0
  0
LINE
  5
178
330
1F
100
AcDbEntity
  8
A-3_受枠
  6
Continuous
 62
     4
370
     9
100
AcDbLine
 10
-1.836003483952595
 20
874.2560639252533
 30
0.0
 11
-3.835812130489842
 21
874.2560639252533
 31
0.0
  0
LINE
  5
179
330
1F
100
AcDbEntity
  8
A-3_受枠
  6
Continuous
 62
     4
370
     9
100
AcDbLine
 10
36.49737383868256
 20
874.2560639252533
 30
0.0
 11
38.49767736486484
 21
874.2560639252533
 31
0.0
  0
LINE
  5
17A
330
1F
100
AcDbEntity
  8
A-3_受枠
  6
Continuous
 62
     4
370
     9
100
AcDbLine
 10
-1.002131281672121
 20
875.0894412478885
 30
0.0
 11
-1.002131281672121
 21
897.7559187605575
 31
0.0
  0
LINE
  5
17B
330
1F
100
AcDbEntity
  8
A-3_受枠
  6
Continuous
 62
     4
370
     9
100
AcDbLine
 10
3.831110773859905
 20
871.839319177576
 30
0.0
 11
3.831110773859905
 21
897.7559187605575
 31
0.0
  0
LINE
  5
17C
330
1F
100
AcDbEntity
  8
A-3_受枠
  6
Continuous
 62
     4
370
     9
100
AcDbLine
 10
30.83100190033804
 20
871.839319177576
 30
0.0
 11
30.83100190033804
 21
897.7559187605575
 31
0.0
  0
LINE
  5
17D
330
1F
100
AcDbEntity
  8
A-3_受枠
  6
Continuous
 62
     4
370
     9
100
AcDbLine
 10
35.66424395587006
 20
875.0894412478885
 30
0.0
 11
35.66424395587006
 21
897.7559187605575
 31
0.0
  0
LINE
  5
17E
330
1F
100
AcDbEntity
  8
A-3_受枠
  6
Continuous
 62
     4
370
     9
100
AcDbLine
 10
2.997486011402088
 20
887.7558857685813
 30
0.0
 11
-0.1692488386822788
 21
887.7558857685813
 31
0.0
  0
LINE
  5
17F
330
1F
100
AcDbEntity
  8
A-3_受枠
  6
Continuous
 62
     4
370
     9
100
AcDbLine
 10
31.6643792229732
 20
887.7558857685813
 30
0.0
 11
34.83061919341225
 21
887.7558857685813
 31
0.0
  0
LINE
  5
180
330
1F
100
AcDbEntity
  8
A-3_受枠
  6
Continuous
 62
     4
370
     9
100
AcDbLine
 10
-1.002131281672121
 20
905.2558197846283
 30
0.0
 11
-1.002131281672121
 21
909.521187447213
 31
0.0
  0
LINE
  5
181
330
1F
100
AcDbEntity
  8
A-3_受枠
  6
Continuous
 62
     4
370
     9
100
AcDbLine
 10
3.831110773859905
 20
905.2558197846283
 30
0.0
 11
3.831110773859905
 21
909.521187447213
 31
0.0
  0
LINE
  5
182
330
1F
100
AcDbEntity
  8
A-3_受枠
  6
Continuous
 62
     4
370
     9
100
AcDbLine
 10
30.83100190033804
 20
905.2558197846283
 30
0.0
 11
30.83100190033804
 21
909.521187447213
 31
0.0
  0
LINE
  5
183
330
1F
100
AcDbEntity
  8
A-3_受枠
  6
Continuous
 62
     4
370
     9
100
AcDbLine
 10
35.66424395587006
 20
905.2558197846283
 30
0.0
 11
35.66424395587006
 21
909.521187447213
 31
0.0
  0
LINE
  5
184
330
1F
100
AcDbEntity
  8
A-3_受枠
  6
Continuous
 62
     4
370
     9
100
AcDbLine
 10
-1314.336250923775
 20
-142.2440482474661
 30
0.0
 11
-1356.669987858952
 21
-142.2440482474661
 31
0.0
  0
LINE
  5
185
330
1F
100
AcDbEntity
  8
A-3_受枠
  6
Continuous
 62
     4
370
     9
100
AcDbLine
 10
-1322.003050108214
 20
-147.077166583087
 30
0.0
 11
-1349.003064954603
 21
-147.077166583087
 31
0.0
  0
LINE
  5
186
330
1F
100
AcDbEntity
  8
A-3_受枠
  6
Continuous
 62
     4
370
     9
100
AcDbLine
 10
-1354.66968433277
 20
-147.077166583087
 30
0.0
 11
-1356.669987858952
 21
-147.077166583087
 31
0.0
  0
LINE
  5
187
330
1F
100
AcDbEntity
  8
A-3_受枠
  6
Continuous
 62
     4
370
     9
100
AcDbLine
 10
-1316.336307010135
 20
-147.077166583087
 30
0.0
 11
-1314.336250923775
 21
-147.077166583087
 31
0.0
  0
LINE
  5
188
330
1F
100
AcDbEntity
  8
A-3_受枠
  6
Continuous
 62
     4
370
     9
100
AcDbLine
 10
-1353.836307010135
 20
-147.9105439057221
 30
0.0
 11
-1353.836307010135
 21
-170.5771451383023
 31
0.0
  0
LINE
  5
189
330
1F
100
AcDbEntity
  8
A-3_受枠
  6
Continuous
 62
     4
370
     9
100
AcDbLine
 10
-1349.003064954603
 20
-144.6604218354096
 30
0.0
 11
-1349.003064954603
 21
-170.5771451383023
 31
0.0
  0
LINE
  5
18A
330
1F
100
AcDbEntity
  8
A-3_受枠
  6
Continuous
 62
     4
370
     9
100
AcDbLine
 10
-1322.003050108214
 20
-144.6604218354096
 30
0.0
 11
-1322.003050108214
 21
-170.5771451383023
 31
0.0
  0
LINE
  5
18B
330
1F
100
AcDbEntity
  8
A-3_受枠
  6
Continuous
 62
     4
370
     9
100
AcDbLine
 10
-1317.16968433277
 20
-147.9105439057221
 30
0.0
 11
-1317.16968433277
 21
-170.5771451383023
 31
0.0
  0
LINE
  5
18C
330
1F
100
AcDbEntity
  8
A-3_受枠
  6
Continuous
 62
     4
370
     9
100
AcDbLine
 10
-1349.836442277238
 20
-160.5769884264146
 30
0.0
 11
-1353.0029296875
 21
-160.5769884264146
 31
0.0
  0
LINE
  5
18D
330
1F
100
AcDbEntity
  8
A-3_受枠
  6
Continuous
 62
     4
370
     9
100
AcDbLine
 10
-1321.16979650549
 20
-160.5769884264146
 30
0.0
 11
-1318.002814215583
 21
-160.5769884264146
 31
0.0
  0
LINE
  5
18E
330
1F
100
AcDbEntity
  8
A-3_受枠
  6
Continuous
 62
     4
370
     9
100
AcDbLine
 10
-1353.836307010135
 20
-178.0770461623732
 30
0.0
 11
-1353.836307010135
 21
-182.3422901050463
 31
0.0
  0
LINE
  5
18F
330
1F
100
AcDbEntity
  8
A-3_受枠
  6
Continuous
 62
     4
370
     9
100
AcDbLine
 10
-1349.003064954603
 20
-178.0770461623732
 30
0.0
 11
-1349.003064954603
 21
-182.3422901050463
 31
0.0
  0
LINE
  5
190
330
1F
100
AcDbEntity
  8
A-3_受枠
  6
Continuous
 62
     4
370
     9
100
AcDbLine
 10
-1322.003050108214
 20
-178.0770461623732
 30
0.0
 11
-1322.003050108214
 21
-182.3422901050463
 31
0.0
  0
LINE
  5
191
330
1F
100
AcDbEntity
  8
A-3_受枠
  6
Continuous
 62
     4
370
     9
100
AcDbLine
 10
-1317.16968433277
 20
-178.0770461623732
 30
0.0
 11
-1317.16968433277
 21
-182.3422901050463
 31
0.0
  0
LINE
  5
192
330
1F
100
AcDbEntity
  8
A-3_受枠
  6
Continuous
 62
     4
370
     9
100
AcDbLine
 10
38.49767736486484
 20
-142.2440482474661
 30
0.0
 11
-3.835812130489842
 21
-142.2440482474661
 31
0.0
  0
LINE
  5
193
330
1F
100
AcDbEntity
  8
A-3_受枠
  6
Continuous
 62
     4
370
     9
100
AcDbLine
 10
30.83100190033804
 20
-147.077166583087
 30
0.0
 11
3.831110773859905
 21
-147.077166583087
 31
0.0
  0
LINE
  5
194
330
1F
100
AcDbEntity
  8
A-3_受枠
  6
Continuous
 62
     4
370
     9
100
AcDbLine
 10
-1.836003483952595
 20
-147.077166583087
 30
0.0
 11
-3.835812130489842
 21
-147.077166583087
 31
0.0
  0
LINE
  5
195
330
1F
100
AcDbEntity
  8
A-3_受枠
  6
Continuous
 62
     4
370
     9
100
AcDbLine
 10
36.49737383868256
 20
-147.077166583087
 30
0.0
 11
38.49767736486484
 21
-147.077166583087
 31
0.0
  0
LINE
  5
196
330
1F
100
AcDbEntity
  8
A-3_受枠
  6
Continuous
 62
     4
370
     9
100
AcDbLine
 10
-1.002131281672121
 20
-147.9105439057221
 30
0.0
 11
-1.002131281672121
 21
-170.5771451383023
 31
0.0
  0
LINE
  5
197
330
1F
100
AcDbEntity
  8
A-3_受枠
  6
Continuous
 62
     4
370
     9
100
AcDbLine
 10
3.831110773859905
 20
-144.6604218354096
 30
0.0
 11
3.831110773859905
 21
-170.5771451383023
 31
0.0
  0
LINE
  5
198
330
1F
100
AcDbEntity
  8
A-3_受枠
  6
Continuous
 62
     4
370
     9
100
AcDbLine
 10
30.83100190033804
 20
-144.6604218354096
 30
0.0
 11
30.83100190033804
 21
-170.5771451383023
 31
0.0
  0
LINE
  5
199
330
1F
100
AcDbEntity
  8
A-3_受枠
  6
Continuous
 62
     4
370
     9
100
AcDbLine
 10
35.66424395587006
 20
-147.9105439057221
 30
0.0
 11
35.66424395587006
 21
-170.5771451383023
 31
0.0
  0
LINE
  5
19A
330
1F
100
AcDbEntity
  8
A-3_受枠
  6
Continuous
 62
     4
370
     9
100
AcDbLine
 10
2.997486011402088
 20
-160.5769884264146
 30
0.0
 11
-0.1692488386822788
 21
-160.5769884264146
 31
0.0
  0
LINE
  5
19B
330
1F
100
AcDbEntity
  8
A-3_受枠
  6
Continuous
 62
     4
370
     9
100
AcDbLine
 10
31.6643792229732
 20
-160.5769884264146
 30
0.0
 11
34.83061919341225
 21
-160.5769884264146
 31
0.0
  0
LINE
  5
19C
330
1F
100
AcDbEntity
  8
A-3_受枠
  6
Continuous
 62
     4
370
     9
100
AcDbLine
 10
-1.002131281672121
 20
-178.0770461623732
 30
0.0
 11
-1.002131281672121
 21
-182.3422901050463
 31
0.0
  0
LINE
  5
19D
330
1F
100
AcDbEntity
  8
A-3_受枠
  6
Continuous
 62
     4
370
     9
100
AcDbLine
 10
3.831110773859905
 20
-178.0770461623732
 30
0.0
 11
3.831110773859905
 21
-182.3422901050463
 31
0.0
  0
LINE
  5
19E
330
1F
100
AcDbEntity
  8
A-3_受枠
  6
Continuous
 62
     4
370
     9
100
AcDbLine
 10
30.83100190033804
 20
-178.0770461623732
 30
0.0
 11
30.83100190033804
 21
-182.3422901050463
 31
0.0
  0
LINE
  5
19F
330
1F
100
AcDbEntity
  8
A-3_受枠
  6
Continuous
 62
     4
370
     9
100
AcDbLine
 10
35.66424395587006
 20
-178.0770461623732
 30
0.0
 11
35.66424395587006
 21
-182.3422901050463
 31
0.0
  0
LINE
  5
1A0
330
1F
100
AcDbEntity
  8
A-4_寸法
  6
Continuous
 62
     7
370
     9
100
AcDbLine
 10
17.3309326171875
 20
874.2560639252533
 30
0.0
 11
20.05029626794766
 21
894.9108556798988
 31
0.0
  0
LINE
  5
1A1
330
1F
100
AcDbEntity
  8
A-4_寸法
  6
Continuous
 62
     7
370
     9
100
AcDbLine
 10
17.3309326171875
 20
874.2560639252533
 30
0.0
 11
25.30344370249168
 21
893.50341796875
 31
0.0
  0
LINE
  5
1A2
330
1F
100
AcDbEntity
  8
A-4_寸法
  6
Continuous
 62
     7
370
     9
100
AcDbLine
 10
17.3309326171875
 20
874.2560639252533
 30
0.0
 11
83.96078573690886
 21
1122.922693201014
 31
0.0
  0
LINE
  5
1A3
330
1F
100
AcDbEntity
  8
A-4_寸法
  6
Continuous
 62
     7
370
     9
100
AcDbLine
 10
83.96078573690886
 20
1122.922693201014
 30
0.0
 11
491.7458199165964
 21
1122.922693201014
 31
0.0
  0
LINE
  5
1A4
330
1F
100
AcDbEntity
  8
A-2_蓋
  6
JWW_CENTER1
 62
     3
370
     9
100
AcDbLine
 10
1185.849906302788
 20
363.5893868111276
 30
0.0
 11
1351.377250052788
 21
363.5893868111276
 31
0.0
  0
LINE
  5
1A5
330
1F
100
AcDbEntity
  8
A-1_ピット
  6
Continuous
 62
     2
370
     9
100
AcDbLine
 10
-1503.587258828653
 20
921.9223764780406
 30
0.0
 11
-1503.587258828653
 21
-194.7439740155193
 31
0.0
  0
LINE
  5
1A6
330
1F
100
AcDbEntity
  8
A-1_ピット
  6
Continuous
 62
     2
370
     9
100
AcDbLine
 10
-1503.587135108742
 20
921.9223764780406
 30
0.0
 11
186.4134917388091
 21
921.9223764780406
 31
0.0
  0
LINE
  5
1A7
330
1F
100
AcDbEntity
  8
A-1_ピット
  6
Continuous
 62
     2
370
     9
100
AcDbLine
 10
-1493.587349556588
 20
911.9223434860644
 30
0.0
 11
176.4132113070102
 21
911.9223434860644
 31
0.0
  0
LINE
  5
1A8
330
1F
100
AcDbEntity
  8
A-1_ピット
  6
Continuous
 62
     2
370
     9
100
AcDbLine
 10
-1503.587135108742
 20
-194.7439740155193
 30
0.0
 11
186.4134917388091
 21
-194.7439740155193
 31
0.0
  0
LINE
  5
1A9
330
1F
100
AcDbEntity
  8
A-1_ピット
  6
Continuous
 62
     2
370
     9
100
AcDbLine
 10
-1493.587349556588
 20
-184.7436935837203
 30
0.0
 11
176.4132113070102
 21
-184.7436935837203
 31
0.0
  0
LINE
  5
1AA
330
1F
100
AcDbEntity
  8
A-1_ピット
  6
Continuous
 62
     2
370
     9
100
AcDbLine
 10
186.4134917388091
 20
921.9223764780406
 30
0.0
 11
186.4134917388091
 21
-194.7439740155193
 31
0.0
  0
LINE
  5
1AB
330
1F
100
AcDbEntity
  8
A-1_ピット
  6
JWW_DASHED3
 62
     2
370
     9
100
AcDbLine
 10
176.4132113070102
 20
821.9230363175677
 30
0.0
 11
-1493.587349556588
 21
821.9230363175677
 31
0.0
  0
LINE
  5
1AC
330
1F
100
AcDbEntity
  8
A-1_ピット
  6
JWW_DASHED3
 62
     2
370
     9
100
AcDbLine
 10
-1493.587349556588
 20
-94.74438641522369
 30
0.0
 11
176.4132113070102
 21
-94.74438641522369
 31
0.0
  0
LINE
  5
1AD
330
1F
100
AcDbEntity
  8
A-4_寸法
  6
Continuous
 62
     7
370
     9
100
AcDbLine
 10
-1503.587135108742
 20
1039.589414854308
 30
0.0
 11
186.4134917388091
 21
1039.589414854308
 31
0.0
  0
LINE
  5
1AE
330
1F
100
AcDbEntity
  8
A-4_寸法
  6
Continuous
 62
     7
370
     9
100
AcDbLine
 10
-1503.587135108742
 20
934.4225414379224
 30
0.0
 11
-1503.587135108742
 21
1042.089051942568
 31
0.0
  0
LINE
  5
1AF
330
1F
100
AcDbEntity
  8
A-4_寸法
  6
Continuous
 62
     7
370
     9
100
AcDbLine
 10
-1086.920372215477
 20
968.755806587838
 30
0.0
 11
-1086.920372215477
 21
1042.089051942568
 31
0.0
  0
LINE
  5
1B0
330
1F
100
AcDbEntity
  8
A-4_寸法
  6
Continuous
 62
     7
370
     9
100
AcDbLine
 10
-230.2531474345437
 20
968.755806587838
 30
0.0
 11
-230.2531474345437
 21
1042.089051942568
 31
0.0
  0
LINE
  5
1B1
330
1F
100
AcDbEntity
  8
A-4_寸法
  6
Continuous
 62
     7
370
     9
100
AcDbLine
 10
186.4134917388091
 20
934.4225414379224
 30
0.0
 11
186.4134917388091
 21
1042.089051942568
 31
0.0
  0
LINE
  5
1B2
330
1F
100
AcDbEntity
  8
A-4_寸法
  6
Continuous
 62
     7
370
     9
100
AcDbLine
 10
186.4134917388091
 20
726.4369985219596
 30
0.0
 11
238.7935329127959
 21
921.9223764780406
 31
0.0
  0
LINE
  5
1B3
330
1F
100
AcDbEntity
  8
A-4_寸法
  6
Continuous
 62
     7
370
     9
100
AcDbLine
 10
186.4134917388091
 20
726.4369985219596
 30
0.0
 11
189.1328553895693
 21
747.0920377164276
 31
0.0
  0
LINE
  5
1B4
330
1F
100
AcDbEntity
  8
A-4_寸法
  6
Continuous
 62
     7
370
     9
100
AcDbLine
 10
186.4134917388091
 20
726.4369985219596
 30
0.0
 11
194.3860028241133
 21
745.684600005279
 31
0.0
  0
LINE
  5
1B5
330
1F
100
AcDbEntity
  8
A-4_寸法
  6
Continuous
 62
     7
370
     9
100
AcDbLine
 10
238.7935329127959
 20
921.9223764780406
 30
0.0
 11
517.165807775549
 21
921.9223764780406
 31
0.0
  0
LINE
  5
1B6
330
1F
100
AcDbEntity
  8
A-4_寸法
  6
Continuous
 62
     7
370
     9
100
AcDbLine
 10
1215.440739812078
 20
921.922871357686
 30
0.0
 11
1099.393195074958
 21
1122.922693201014
 31
0.0
  0
LINE
  5
1B7
330
1F
100
AcDbEntity
  8
A-4_寸法
  6
Continuous
 62
     7
370
     9
100
AcDbLine
 10
824.960904508024
 20
1122.922693201014
 30
0.0
 11
1099.393195074958
 21
1122.922693201014
 31
0.0
  0
LINE
  5
1B8
330
1F
100
AcDbEntity
  8
A-3_受枠
  6
Continuous
 62
     4
370
     9
100
AcDbLine
 10
1247.022721574114
 20
-179.941134066195
 30
0.0
 11
1247.563377586571
 21
-184.7443121832771
 31
0.0
  0
LINE
  5
1B9
330
1F
100
AcDbEntity
  8
A-3_受枠
  6
Continuous
 62
     4
370
     9
100
AcDbLine
 10
1263.741735509924
 20
-182.9236499683276
 30
0.0
 11
1247.563377586571
 21
-184.7443121832771
 31
0.0
  0
LINE
  5
1BA
330
1F
100
AcDbEntity
  8
A-3_受枠
  6
Continuous
 62
     4
370
     9
100
AcDbLine
 10
1263.585106102196
 20
-178.0775410420185
 30
0.0
 11
1247.022721574114
 21
-179.941134066195
 31
0.0
  0
LINE
  5
1BB
330
1F
100
AcDbEntity
  8
A-3_受枠
  6
Continuous
 62
     4
370
     9
100
AcDbLine
 10
1297.900803024705
 20
-179.7029732369086
 30
0.0
 11
1263.585106102196
 21
-178.0775410420185
 31
0.0
  0
LINE
  5
1BC
330
1F
100
AcDbEntity
  8
A-3_受枠
  6
Continuous
 62
     4
370
     9
100
AcDbLine
 10
1297.672416068413
 20
-184.530771616343
 30
0.0
 11
1263.741735509924
 21
-182.9236499683276
 31
0.0
  0
LINE
  5
1BD
330
1F
100
AcDbEntity
  8
A-3_受枠
  6
Continuous
 62
     4
370
     9
100
AcDbLine
 10
1303.607260214316
 20
-169.7915237014357
 30
0.0
 11
1303.607260214316
 21
-178.8705856735641
 31
0.0
  0
LINE
  5
1BE
330
1F
100
AcDbEntity
  8
A-3_受枠
  6
Continuous
 62
     4
370
     9
100
AcDbLine
 10
1252.606943491343
 20
-147.0774140229096
 30
0.0
 11
1301.190268026816
 21
-147.0774140229096
 31
0.0
  0
LINE
  5
1BF
330
1F
100
AcDbEntity
  8
A-3_受枠
  6
Continuous
 62
     4
370
     9
100
AcDbLine
 10
1252.606943491343
 20
-142.2442956872888
 30
0.0
 11
1301.190268026816
 21
-142.2442956872888
 31
0.0
  0
LINE
  5
1C0
330
1F
100
AcDbEntity
  8
A-3_受枠
  6
Continuous
 62
     4
370
     9
100
AcDbLine
 10
1246.940324113176
 20
-156.9537271035682
 30
0.0
 11
1246.940324113176
 21
-147.910915065456
 31
0.0
  0
LINE
  5
1C1
330
1F
100
AcDbEntity
  8
A-3_受枠
  6
Continuous
 62
     4
370
     9
100
AcDbLine
 10
1251.773566168708
 20
-156.9537271035682
 30
0.0
 11
1251.773566168708
 21
-147.910915065456
 31
0.0
  0
LINE
  5
1C2
330
1F
100
AcDbEntity
  8
A-3_受枠
  6
Continuous
 62
     4
370
     9
100
AcDbLine
 10
1252.257558461782
 20
-157.7102743612753
 30
0.0
 11
1269.51623865076
 21
-165.6852598448057
 31
0.0
  0
LINE
  5
1C3
330
1F
100
AcDbEntity
  8
A-3_受枠
  6
Continuous
 62
     4
370
     9
100
AcDbLine
 10
1297.62812434016
 20
-164.1334409971495
 30
0.0
 11
1269.51623865076
 21
-165.6852598448057
 31
0.0
  0
LINE
  5
1C4
330
1F
100
AcDbEntity
  8
A-3_受枠
  6
Continuous
 62
     4
370
     9
100
AcDbLine
 10
1250.23003655511
 20
-162.0976298564187
 30
0.0
 11
1268.581163561022
 21
-170.5776400179477
 31
0.0
  0
LINE
  5
1C5
330
1F
100
AcDbEntity
  8
A-3_受枠
  6
Continuous
 62
     4
370
     9
100
AcDbLine
 10
1297.894369589316
 20
-168.9593835779138
 30
0.0
 11
1268.581163561022
 21
-170.5776400179477
 31
0.0
  0
LINE
  5
1C6
330
1F
100
AcDbEntity
  8
A-3_受枠
  6
Continuous
 62
     4
370
     9
100
AcDbLine
 10
1298.773770718961
 20
-178.8705856735641
 30
0.0
 11
1298.773770718961
 21
-169.7915237014357
 31
0.0
  0
LINE
  5
1C7
330
1F
100
AcDbEntity
  8
A-2_蓋
  6
Continuous
 62
     3
370
     9
100
AcDbLine
 10
-1476.08642578125
 20
-170.5776400179477
 30
0.0
 11
-1476.08642578125
 21
-62.243660591744
 31
0.0
  0
LINE
  5
1C8
330
1F
100
AcDbEntity
  8
A-2_蓋
  6
Continuous
 62
     3
370
     9
100
AcDbLine
 10
-1370.753025364231
 20
-62.243660591744
 30
0.0
 11
-1370.753025364231
 21
-170.5776400179477
 31
0.0
  0
LINE
  5
1C9
330
1F
100
AcDbEntity
  8
A-2_蓋
  6
Continuous
 62
     3
370
     9
100
AcDbLine
 10
-1429.586791992188
 20
-62.243660591744
 30
0.0
 11
-1429.586791992188
 21
-170.5776400179477
 31
0.0
  0
LINE
  5
1CA
330
1F
100
AcDbEntity
  8
A-2_蓋
  6
Continuous
 62
     3
370
     9
100
AcDbLine
 10
-1417.920004354941
 20
-62.243660591744
 30
0.0
 11
-1417.920004354941
 21
-170.5776400179477
 31
0.0
  0
LINE
  5
1CB
330
1F
100
AcDbEntity
  8
A-2_蓋
  6
Continuous
 62
     3
370
     9
100
AcDbLine
 10
-1194.253210119299
 20
-62.243660591744
 30
0.0
 11
-1194.253210119299
 21
-170.5776400179477
 31
0.0
  0
LINE
  5
1CC
330
1F
100
AcDbEntity
  8
A-2_蓋
  6
Continuous
 62
     3
370
     9
100
AcDbLine
 10
-1253.086729307433
 20
-62.243660591744
 30
0.0
 11
-1253.086729307433
 21
-170.5776400179477
 31
0.0
  0
LINE
  5
1CD
330
1F
100
AcDbEntity
  8
A-2_蓋
  6
Continuous
 62
     3
370
     9
100
AcDbLine
 10
-1241.420189110009
 20
-62.243660591744
 30
0.0
 11
-1241.420189110009
 21
-170.5776400179477
 31
0.0
  0
LINE
  5
1CE
330
1F
100
AcDbEntity
  8
A-2_蓋
  6
Continuous
 62
     3
370
     9
100
AcDbLine
 10
-1311.919506176098
 20
-62.243660591744
 30
0.0
 11
-1311.919506176098
 21
-170.5776400179477
 31
0.0
  0
LINE
  5
1CF
330
1F
100
AcDbEntity
  8
A-2_蓋
  6
Continuous
 62
     3
370
     9
100
AcDbLine
 10
-1300.252842258762
 20
-62.243660591744
 30
0.0
 11
-1300.252842258762
 21
-170.5776400179477
 31
0.0
  0
LINE
  5
1D0
330
1F
100
AcDbEntity
  8
A-2_蓋
  6
Continuous
 62
     3
370
     9
100
AcDbLine
 10
-1359.086485166807
 20
-62.243660591744
 30
0.0
 11
-1359.086485166807
 21
-170.5776400179477
 31
0.0
  0
LINE
  5
1D1
330
1F
100
AcDbEntity
  8
A-2_蓋
  6
Continuous
 62
     3
370
     9
100
AcDbLine
 10
-1017.752899994721
 20
-62.243660591744
 30
0.0
 11
-1017.752899994721
 21
-170.5776400179477
 31
0.0
  0
LINE
  5
1D2
330
1F
100
AcDbEntity
  8
A-2_蓋
  6
Continuous
 62
     3
370
     9
100
AcDbLine
 10
-1006.086483517209
 20
-62.243660591744
 30
0.0
 11
-1006.086483517209
 21
-170.5776400179477
 31
0.0
  0
LINE
  5
1D3
330
1F
100
AcDbEntity
  8
A-2_蓋
  6
Continuous
 62
     3
370
     9
100
AcDbLine
 10
-1076.586666622677
 20
-62.243660591744
 30
0.0
 11
-1076.586666622677
 21
-170.5776400179477
 31
0.0
  0
LINE
  5
1D4
330
1F
100
AcDbEntity
  8
A-2_蓋
  6
Continuous
 62
     3
370
     9
100
AcDbLine
 10
-1064.920126425253
 20
-62.243660591744
 30
0.0
 11
-1064.920126425253
 21
-170.5776400179477
 31
0.0
  0
LINE
  5
1D5
330
1F
100
AcDbEntity
  8
A-2_蓋
  6
Continuous
 62
     3
370
     9
100
AcDbLine
 10
-1135.419443491343
 20
-62.243660591744
 30
0.0
 11
-1135.419443491343
 21
-170.5776400179477
 31
0.0
  0
LINE
  5
1D6
330
1F
100
AcDbEntity
  8
A-2_蓋
  6
Continuous
 62
     3
370
     9
100
AcDbLine
 10
-1123.752779574007
 20
-62.243660591744
 30
0.0
 11
-1123.752779574007
 21
-170.5776400179477
 31
0.0
  0
LINE
  5
1D7
330
1F
100
AcDbEntity
  8
A-2_蓋
  6
Continuous
 62
     3
370
     9
100
AcDbLine
 10
-1182.586422482052
 20
-62.243660591744
 30
0.0
 11
-1182.586422482052
 21
-170.5776400179477
 31
0.0
  0
LINE
  5
1D8
330
1F
100
AcDbEntity
  8
A-2_蓋
  6
Continuous
 62
     3
370
     9
100
AcDbLine
 10
-782.420184161212
 20
-62.243660591744
 30
0.0
 11
-782.420184161212
 21
-170.5776400179477
 31
0.0
  0
LINE
  5
1D9
330
1F
100
AcDbEntity
  8
A-2_蓋
  6
Continuous
 62
     3
370
     9
100
AcDbLine
 10
-770.753643963788
 20
-62.243660591744
 30
0.0
 11
-770.753643963788
 21
-170.5776400179477
 31
0.0
  0
LINE
  5
1DA
330
1F
100
AcDbEntity
  8
A-2_蓋
  6
Continuous
 62
     3
370
     9
100
AcDbLine
 10
-841.2529610298775
 20
-62.243660591744
 30
0.0
 11
-841.2529610298775
 21
-170.5776400179477
 31
0.0
  0
LINE
  5
1DB
330
1F
100
AcDbEntity
  8
A-2_蓋
  6
Continuous
 62
     3
370
     9
100
AcDbLine
 10
-829.5864208324535
 20
-62.243660591744
 30
0.0
 11
-829.5864208324535
 21
-170.5776400179477
 31
0.0
  0
LINE
  5
1DC
330
1F
100
AcDbEntity
  8
A-2_蓋
  6
Continuous
 62
     3
370
     9
100
AcDbLine
 10
-900.0867276578335
 20
-62.243660591744
 30
0.0
 11
-900.0867276578335
 21
-170.5776400179477
 31
0.0
  0
LINE
  5
1DD
330
1F
100
AcDbEntity
  8
A-2_蓋
  6
Continuous
 62
     3
370
     9
100
AcDbLine
 10
-888.419940020587
 20
-62.243660591744
 30
0.0
 11
-888.419940020587
 21
-170.5776400179477
 31
0.0
  0
LINE
  5
1DE
330
1F
100
AcDbEntity
  8
A-2_蓋
  6
Continuous
 62
     3
370
     9
100
AcDbLine
 10
-958.919504526499
 20
-62.243660591744
 30
0.0
 11
-958.919504526499
 21
-170.5776400179477
 31
0.0
  0
LINE
  5
1DF
330
1F
100
AcDbEntity
  8
A-2_蓋
  6
Continuous
 62
     3
370
     9
100
AcDbLine
 10
-947.2527168892525
 20
-62.243660591744
 30
0.0
 11
-947.2527168892525
 21
-170.5776400179477
 31
0.0
  0
LINE
  5
1E0
330
1F
100
AcDbEntity
  8
A-2_蓋
  6
Continuous
 62
     3
370
     9
100
AcDbLine
 10
-547.0866022883234
 20
-62.243660591744
 30
0.0
 11
-547.0866022883234
 21
-170.5776400179477
 31
0.0
  0
LINE
  5
1E1
330
1F
100
AcDbEntity
  8
A-2_蓋
  6
Continuous
 62
     3
370
     9
100
AcDbLine
 10
-535.419938370988
 20
-62.243660591744
 30
0.0
 11
-535.419938370988
 21
-170.5776400179477
 31
0.0
  0
LINE
  5
1E2
330
1F
100
AcDbEntity
  8
A-2_蓋
  6
Continuous
 62
     3
370
     9
100
AcDbLine
 10
-605.9201214764568
 20
-62.243660591744
 30
0.0
 11
-605.9201214764568
 21
-170.5776400179477
 31
0.0
  0
LINE
  5
1E3
330
1F
100
AcDbEntity
  8
A-2_蓋
  6
Continuous
 62
     3
370
     9
100
AcDbLine
 10
-594.2535812790328
 20
-62.243660591744
 30
0.0
 11
-594.2535812790328
 21
-170.5776400179477
 31
0.0
  0
LINE
  5
1E4
330
1F
100
AcDbEntity
  8
A-2_蓋
  6
Continuous
 62
     3
370
     9
100
AcDbLine
 10
-664.7528983451224
 20
-62.243660591744
 30
0.0
 11
-664.7528983451224
 21
-170.5776400179477
 31
0.0
  0
LINE
  5
1E5
330
1F
100
AcDbEntity
  8
A-2_蓋
  6
Continuous
 62
     3
370
     9
100
AcDbLine
 10
-653.0863581476984
 20
-62.243660591744
 30
0.0
 11
-653.0863581476984
 21
-170.5776400179477
 31
0.0
  0
LINE
  5
1E6
330
1F
100
AcDbEntity
  8
A-2_蓋
  6
Continuous
 62
     3
370
     9
100
AcDbLine
 10
-723.5866649730783
 20
-62.243660591744
 30
0.0
 11
-723.5866649730783
 21
-170.5776400179477
 31
0.0
  0
LINE
  5
1E7
330
1F
100
AcDbEntity
  8
A-2_蓋
  6
Continuous
 62
     3
370
     9
100
AcDbLine
 10
-711.9198773358318
 20
-62.243660591744
 30
0.0
 11
-711.9198773358318
 21
-170.5776400179477
 31
0.0
  0
LINE
  5
1E8
330
1F
100
AcDbEntity
  8
A-2_蓋
  6
Continuous
 62
     3
370
     9
100
AcDbLine
 10
-311.7538864548141
 20
-62.243660591744
 30
0.0
 11
-311.7538864548141
 21
-170.5776400179477
 31
0.0
  0
LINE
  5
1E9
330
1F
100
AcDbEntity
  8
A-2_蓋
  6
Continuous
 62
     3
370
     9
100
AcDbLine
 10
-300.0870988175674
 20
-62.243660591744
 30
0.0
 11
-300.0870988175674
 21
-170.5776400179477
 31
0.0
  0
LINE
  5
1EA
330
1F
100
AcDbEntity
  8
A-2_蓋
  6
Continuous
 62
     3
370
     9
100
AcDbLine
 10
-370.5866633234797
 20
-62.243660591744
 30
0.0
 11
-370.5866633234797
 21
-170.5776400179477
 31
0.0
  0
LINE
  5
1EB
330
1F
100
AcDbEntity
  8
A-2_蓋
  6
Continuous
 62
     3
370
     9
100
AcDbLine
 10
-358.9198756862331
 20
-62.243660591744
 30
0.0
 11
-358.9198756862331
 21
-170.5776400179477
 31
0.0
  0
LINE
  5
1EC
330
1F
100
AcDbEntity
  8
A-2_蓋
  6
Continuous
 62
     3
370
     9
100
AcDbLine
 10
-429.420182511613
 20
-62.243660591744
 30
0.0
 11
-429.420182511613
 21
-170.5776400179477
 31
0.0
  0
LINE
  5
1ED
330
1F
100
AcDbEntity
  8
A-2_蓋
  6
Continuous
 62
     3
370
     9
100
AcDbLine
 10
-417.7536423141891
 20
-62.243660591744
 30
0.0
 11
-417.7536423141891
 21
-170.5776400179477
 31
0.0
  0
LINE
  5
1EE
330
1F
100
AcDbEntity
  8
A-2_蓋
  6
Continuous
 62
     3
370
     9
100
AcDbLine
 10
-488.2538254196578
 20
-62.243660591744
 30
0.0
 11
-488.2538254196578
 21
-170.5776400179477
 31
0.0
  0
LINE
  5
1EF
330
1F
100
AcDbEntity
  8
A-2_蓋
  6
Continuous
 62
     3
370
     9
100
AcDbLine
 10
-476.5870377824112
 20
-62.243660591744
 30
0.0
 11
-476.5870377824112
 21
-170.5776400179477
 31
0.0
  0
LINE
  5
1F0
330
1F
100
AcDbEntity
  8
A-2_蓋
  6
Continuous
 62
     3
370
     9
100
AcDbLine
 10
-135.2538237700591
 20
-62.243660591744
 30
0.0
 11
-135.2538237700591
 21
-170.5776400179477
 31
0.0
  0
LINE
  5
1F1
330
1F
100
AcDbEntity
  8
A-2_蓋
  6
Continuous
 62
     3
370
     9
100
AcDbLine
 10
-194.0866006387245
 20
-62.243660591744
 30
0.0
 11
-194.0866006387245
 21
-170.5776400179477
 31
0.0
  0
LINE
  5
1F2
330
1F
100
AcDbEntity
  8
A-2_蓋
  6
Continuous
 62
     3
370
     9
100
AcDbLine
 10
-182.4200604413005
 20
-62.243660591744
 30
0.0
 11
-182.4200604413005
 21
-170.5776400179477
 31
0.0
  0
LINE
  5
1F3
330
1F
100
AcDbEntity
  8
A-2_蓋
  6
Continuous
 62
     3
370
     9
100
AcDbLine
 10
-252.9203672666807
 20
-62.243660591744
 30
0.0
 11
-252.9203672666807
 21
-170.5776400179477
 31
0.0
  0
LINE
  5
1F4
330
1F
100
AcDbEntity
  8
A-2_蓋
  6
Continuous
 62
     3
370
     9
100
AcDbLine
 10
-241.2535796294341
 20
-62.243660591744
 30
0.0
 11
-241.2535796294341
 21
-170.5776400179477
 31
0.0
  0
LINE
  5
1F5
330
1F
100
AcDbEntity
  8
A-2_蓋
  6
Continuous
 62
     3
370
     9
100
AcDbLine
 10
-76.4203045819255
 20
-62.243660591744
 30
0.0
 11
-76.4203045819255
 21
-170.5776400179477
 31
0.0
  0
LINE
  5
1F6
330
1F
100
AcDbEntity
  8
A-2_蓋
  6
Continuous
 62
     3
370
     9
100
AcDbLine
 10
-64.75351694467889
 20
-62.243660591744
 30
0.0
 11
-64.75351694467889
 21
-170.5776400179477
 31
0.0
  0
LINE
  5
1F7
330
1F
100
AcDbEntity
  8
A-2_蓋
  6
Continuous
 62
     3
370
     9
100
AcDbLine
 10
-123.5872835726352
 20
-62.243660591744
 30
0.0
 11
-123.5872835726352
 21
-170.5776400179477
 31
0.0
  0
LINE
  5
1F8
330
1F
100
AcDbEntity
  8
A-2_蓋
  6
Continuous
 62
     3
370
     9
100
AcDbLine
 10
41.24623891469611
 20
-62.243660591744
 30
0.0
 11
41.24623891469611
 21
-170.5776400179477
 31
0.0
  0
LINE
  5
1F9
330
1F
100
AcDbEntity
  8
A-2_蓋
  6
Continuous
 62
     3
370
     9
100
AcDbLine
 10
-17.58653795396953
 20
-62.243660591744
 30
0.0
 11
-17.58653795396953
 21
-170.5776400179477
 31
0.0
  0
LINE
  5
1FA
330
1F
100
AcDbEntity
  8
A-2_蓋
  6
Continuous
 62
     3
370
     9
100
AcDbLine
 10
-5.919750316722912
 20
-62.243660591744
 30
0.0
 11
-5.919750316722912
 21
-170.5776400179477
 31
0.0
  0
LINE
  5
1FB
330
1F
100
AcDbEntity
  8
A-2_蓋
  6
Continuous
 62
     3
370
     9
100
AcDbLine
 10
52.91302655194272
 20
-62.243660591744
 30
0.0
 11
52.91302655194272
 21
-170.5776400179477
 31
0.0
  0
LINE
  5
1FC
330
1F
100
AcDbEntity
  8
A-2_蓋
  6
Continuous
 62
     3
370
     9
100
AcDbLine
 10
158.9137721706084
 20
-62.243660591744
 30
0.0
 11
158.9137721706084
 21
-170.5776400179477
 31
0.0
  0
LINE
  5
1FD
330
1F
100
AcDbEntity
  8
A-2_蓋
  6
Continuous
 62
     3
370
     9
100
AcDbLine
 10
111.7467931798987
 20
-62.243660591744
 30
0.0
 11
111.7467931798987
 21
-170.5776400179477
 31
0.0
  0
LINE
  5
1FE
330
1F
100
AcDbEntity
  8
A-2_蓋
  6
Continuous
 62
     3
370
     9
100
AcDbLine
 10
100.0800055426521
 20
-62.243660591744
 30
0.0
 11
100.0800055426521
 21
-170.5776400179477
 31
0.0
  0
LINE
  5
1FF
330
1F
100
AcDbEntity
  8
A-4_寸法
  6
Continuous
 62
     7
370
     9
100
AcDbLine
 10
-541.2533321896115
 20
962.495579075169
 30
0.0
 11
-482.4204316010346
 21
962.495579075169
 31
0.0
  0
LINE
  5
200
330
1F
100
AcDbEntity
  8
A-4_寸法
  6
Continuous
 62
     7
370
     9
100
AcDbLine
 10
-541.2533321896115
 20
962.495579075169
 30
0.0
 11
-541.2533321896115
 21
861.1377942884292
 31
0.0
  0
LINE
  5
201
330
1F
100
AcDbEntity
  8
A-4_寸法
  6
Continuous
 62
     7
370
     9
100
AcDbLine
 10
-482.4204316010346
 20
962.495579075169
 30
0.0
 11
-482.4204316010346
 21
861.1377942884292
 31
0.0
  0
LINE
  5
202
330
1F
100
AcDbEntity
  8
A-4_寸法
  6
Continuous
 62
     7
370
     9
100
AcDbLine
 10
-1503.587258828653
 20
-406.6216216216216
 30
0.0
 11
186.4134917388091
 21
-406.6216216216216
 31
0.0
  0
LINE
  5
203
330
1F
100
AcDbEntity
  8
A-4_寸法
  6
Continuous
 62
     7
370
     9
100
AcDbLine
 10
-1503.587258828653
 20
-207.2440152554898
 30
0.0
 11
-1503.587258828653
 21
-409.1216298696156
 31
0.0
  0
LINE
  5
204
330
1F
100
AcDbEntity
  8
A-4_寸法
  6
Continuous
 62
     7
370
     9
100
AcDbLine
 10
186.4134917388091
 20
-207.2440152554898
 30
0.0
 11
186.4134917388091
 21
-409.1216298696156
 31
0.0
  0
LINE
  5
205
330
1F
100
AcDbEntity
  8
A-4_寸法
  6
Continuous
 62
     7
370
     9
100
AcDbLine
 10
-1503.587258828653
 20
-318.7838250237542
 30
0.0
 11
-1493.587349556588
 21
-318.7838250237542
 31
0.0
  0
LINE
  5
206
330
1F
100
AcDbEntity
  8
A-4_寸法
  6
Continuous
 62
     7
370
     9
100
AcDbLine
 10
-1503.587258828653
 20
-331.2838662637246
 30
0.0
 11
-1503.587258828653
 21
-321.2838332717483
 31
0.0
  0
LINE
  5
207
330
1F
100
AcDbEntity
  8
A-4_寸法
  6
Continuous
 62
     7
370
     9
100
AcDbLine
 10
-1493.587349556588
 20
-197.2437348236909
 30
0.0
 11
-1493.587349556588
 21
-321.2838332717483
 31
0.0
  0
LINE
  5
208
330
1F
100
AcDbEntity
  8
A-4_寸法
  6
Continuous
 62
     7
370
     9
100
AcDbLine
 10
-1493.587349556588
 20
-318.7838250237542
 30
0.0
 11
-1487.753955737965
 21
-318.7838250237542
 31
0.0
  0
LINE
  5
209
330
1F
100
AcDbEntity
  8
A-4_寸法
  6
Continuous
 62
     7
370
     9
100
AcDbLine
 10
-1487.753955737965
 20
-190.5772111222549
 30
0.0
 11
-1487.753955737965
 21
-321.2838332717483
 31
0.0
  0
LINE
  5
20A
330
1F
100
AcDbEntity
  8
A-4_寸法
  6
Continuous
 62
     7
370
     9
100
AcDbLine
 10
-1549.415712098817
 20
-318.7838250237542
 30
0.0
 11
239.1159470016893
 21
-318.7838250237542
 31
0.0
  0
LINE
  5
20B
330
1F
100
AcDbEntity
  8
A-4_寸法
  6
Continuous
 62
     7
370
     9
100
AcDbLine
 10
170.579817488387
 20
-190.5772111222549
 30
0.0
 11
170.579817488387
 21
-321.2838332717483
 31
0.0
  0
LINE
  5
20C
330
1F
100
AcDbEntity
  8
A-4_寸法
  6
Continuous
 62
     7
370
     9
100
AcDbLine
 10
170.579817488387
 20
-318.7838250237542
 30
0.0
 11
176.4132113070102
 21
-318.7838250237542
 31
0.0
  0
LINE
  5
20D
330
1F
100
AcDbEntity
  8
A-4_寸法
  6
Continuous
 62
     7
370
     9
100
AcDbLine
 10
176.4132113070102
 20
-197.2437348236909
 30
0.0
 11
176.4132113070102
 21
-321.2838332717483
 31
0.0
  0
LINE
  5
20E
330
1F
100
AcDbEntity
  8
A-4_寸法
  6
Continuous
 62
     7
370
     9
100
AcDbLine
 10
176.4132113070102
 20
-318.7838250237542
 30
0.0
 11
186.4134917388091
 21
-318.7838250237542
 31
0.0
  0
LINE
  5
20F
330
1F
100
AcDbEntity
  8
A-4_寸法
  6
Continuous
 62
     7
370
     9
100
AcDbLine
 10
186.4134917388091
 20
-207.2440152554898
 30
0.0
 11
186.4134917388091
 21
-321.2838332717483
 31
0.0
  0
LINE
  5
210
330
1F
100
AcDbEntity
  8
A-2_蓋
  6
Continuous
 62
     3
370
     9
100
AcDbLine
 10
-1487.753955737965
 20
456.089320827175
 30
0.0
 11
170.579817488387
 21
456.089320827175
 31
0.0
  0
LINE
  5
211
330
1F
100
AcDbEntity
  8
A-2_蓋
  6
Continuous
 62
     3
370
     9
100
AcDbLine
 10
-1487.753955737965
 20
437.7565043681378
 30
0.0
 11
170.579817488387
 21
437.7565043681378
 31
0.0
  0
LINE
  5
212
330
1F
100
AcDbEntity
  8
A-2_蓋
  6
Continuous
 62
     3
370
     9
100
AcDbLine
 10
-1476.08642578125
 20
437.7565043681378
 30
0.0
 11
-1417.920004354941
 21
456.089320827175
 31
0.0
  0
LINE
  5
213
330
1F
100
AcDbEntity
  8
A-2_蓋
  6
Continuous
 62
     3
370
     9
100
AcDbLine
 10
-1417.253401472762
 20
437.7565043681378
 30
0.0
 11
-1359.086980046452
 21
456.089320827175
 31
0.0
  0
LINE
  5
214
330
1F
100
AcDbEntity
  8
A-2_蓋
  6
Continuous
 62
     3
370
     9
100
AcDbLine
 10
-1358.419634844806
 20
437.7565043681378
 30
0.0
 11
-1300.253460858319
 21
456.089320827175
 31
0.0
  0
LINE
  5
215
330
1F
100
AcDbEntity
  8
A-2_蓋
  6
Continuous
 62
     3
370
     9
100
AcDbLine
 10
-1299.586363096495
 20
437.7565043681378
 30
0.0
 11
-1241.420189110009
 21
456.089320827175
 31
0.0
  0
LINE
  5
216
330
1F
100
AcDbEntity
  8
A-2_蓋
  6
Continuous
 62
     3
370
     9
100
AcDbLine
 10
-1240.753338788007
 20
437.7565043681378
 30
0.0
 11
-1182.586793641786
 21
456.089320827175
 31
0.0
  0
LINE
  5
217
330
1F
100
AcDbEntity
  8
A-2_蓋
  6
Continuous
 62
     3
370
     9
100
AcDbLine
 10
-1181.919943319785
 20
437.7565043681378
 30
0.0
 11
-1123.753398173564
 21
456.089320827175
 31
0.0
  0
LINE
  5
218
330
1F
100
AcDbEntity
  8
A-2_蓋
  6
Continuous
 62
     3
370
     9
100
AcDbLine
 10
-1123.086547851562
 20
437.7565043681378
 30
0.0
 11
-1064.920126425253
 21
456.089320827175
 31
0.0
  0
LINE
  5
219
330
1F
100
AcDbEntity
  8
A-2_蓋
  6
Continuous
 62
     3
370
     9
100
AcDbLine
 10
-1064.253276103252
 20
437.7565043681378
 30
0.0
 11
-1006.086730957031
 21
456.089320827175
 31
0.0
  0
LINE
  5
21A
330
1F
100
AcDbEntity
  8
A-2_蓋
  6
Continuous
 62
     3
370
     9
100
AcDbLine
 10
-1005.41988063503
 20
437.7565043681378
 30
0.0
 11
-947.2534592087204
 21
456.089320827175
 31
0.0
  0
LINE
  5
21B
330
1F
100
AcDbEntity
  8
A-2_蓋
  6
Continuous
 62
     3
370
     9
100
AcDbLine
 10
-946.5862377269848
 20
437.7565043681378
 30
0.0
 11
-888.419940020587
 21
456.089320827175
 31
0.0
  0
LINE
  5
21C
330
1F
100
AcDbEntity
  8
A-2_蓋
  6
Continuous
 62
     3
370
     9
100
AcDbLine
 10
-887.7530896985853
 20
437.7565043681378
 30
0.0
 11
-829.5869157120987
 21
456.089320827175
 31
0.0
  0
LINE
  5
21D
330
1F
100
AcDbEntity
  8
A-2_蓋
  6
Continuous
 62
     3
370
     9
100
AcDbLine
 10
-828.920065390097
 20
437.7565043681378
 30
0.0
 11
-770.753643963788
 21
456.089320827175
 31
0.0
  0
LINE
  5
21E
330
1F
100
AcDbEntity
  8
A-2_蓋
  6
Continuous
 62
     3
370
     9
100
AcDbLine
 10
-770.0865462019635
 20
437.7565043681378
 30
0.0
 11
-711.9201247756544
 21
456.089320827175
 31
0.0
  0
LINE
  5
21F
330
1F
100
AcDbEntity
  8
A-2_蓋
  6
Continuous
 62
     3
370
     9
100
AcDbLine
 10
-711.2532744536529
 20
437.7565043681378
 30
0.0
 11
-653.0868530273438
 21
456.089320827175
 31
0.0
  0
LINE
  5
220
330
1F
100
AcDbEntity
  8
A-2_蓋
  6
Continuous
 62
     3
370
     9
100
AcDbLine
 10
-652.4200027053419
 20
437.7565043681378
 30
0.0
 11
-594.2535812790328
 21
456.089320827175
 31
0.0
  0
LINE
  5
221
330
1F
100
AcDbEntity
  8
A-2_蓋
  6
Continuous
 62
     3
370
     9
100
AcDbLine
 10
-593.5867309570312
 20
437.7565043681378
 30
0.0
 11
-535.4203095307221
 21
456.089320827175
 31
0.0
  0
LINE
  5
222
330
1F
100
AcDbEntity
  8
A-2_蓋
  6
Continuous
 62
     3
370
     9
100
AcDbLine
 10
-534.7534592087203
 20
437.7565043681378
 30
0.0
 11
-476.5870377824112
 21
456.089320827175
 31
0.0
  0
LINE
  5
223
330
1F
100
AcDbEntity
  8
A-2_蓋
  6
Continuous
 62
     3
370
     9
100
AcDbLine
 10
-475.919940020587
 20
437.7565043681378
 30
0.0
 11
-417.7536423141891
 21
456.089320827175
 31
0.0
  0
LINE
  5
224
330
1F
100
AcDbEntity
  8
A-2_蓋
  6
Continuous
 62
     3
370
     9
100
AcDbLine
 10
-417.0867919921875
 20
437.7565043681378
 30
0.0
 11
-358.9203705658784
 21
456.089320827175
 31
0.0
  0
LINE
  5
225
330
1F
100
AcDbEntity
  8
A-2_蓋
  6
Continuous
 62
     3
370
     9
100
AcDbLine
 10
-358.2535202438766
 20
437.7565043681378
 30
0.0
 11
-300.0870988175674
 21
456.089320827175
 31
0.0
  0
LINE
  5
226
330
1F
100
AcDbEntity
  8
A-2_蓋
  6
Continuous
 62
     3
370
     9
100
AcDbLine
 10
-299.4202484955659
 20
437.7565043681378
 30
0.0
 11
-241.253950789168
 21
456.089320827175
 31
0.0
  0
LINE
  5
227
330
1F
100
AcDbEntity
  8
A-2_蓋
  6
Continuous
 62
     3
370
     9
100
AcDbLine
 10
-240.5867293074323
 20
437.7565043681378
 30
0.0
 11
-182.4200604413005
 21
456.089320827175
 31
0.0
  0
LINE
  5
228
330
1F
100
AcDbEntity
  8
A-2_蓋
  6
Continuous
 62
     3
370
     9
100
AcDbLine
 10
-181.7537049989443
 20
437.7565043681378
 30
0.0
 11
-123.5872835726352
 21
456.089320827175
 31
0.0
  0
LINE
  5
229
330
1F
100
AcDbEntity
  8
A-2_蓋
  6
Continuous
 62
     3
370
     9
100
AcDbLine
 10
-122.9204332506333
 20
437.7565043681378
 30
0.0
 11
-64.75401182432421
 21
456.089320827175
 31
0.0
  0
LINE
  5
22A
330
1F
100
AcDbEntity
  8
A-2_蓋
  6
Continuous
 62
     3
370
     9
100
AcDbLine
 10
-64.08666662267734
 20
437.7565043681378
 30
0.0
 11
-5.920245196368228
 21
456.089320827175
 31
0.0
  0
LINE
  5
22B
330
1F
100
AcDbEntity
  8
A-2_蓋
  6
Continuous
 62
     3
370
     9
100
AcDbLine
 10
-5.253147434543735
 20
437.7565043681378
 30
0.0
 11
52.91302655194272
 21
456.089320827175
 31
0.0
  0
LINE
  5
22C
330
1F
100
AcDbEntity
  8
A-2_蓋
  6
Continuous
 62
     3
370
     9
100
AcDbLine
 10
53.57962943412161
 20
437.7565043681378
 30
0.0
 11
111.7460508604307
 21
456.089320827175
 31
0.0
  0
LINE
  5
22D
330
1F
100
AcDbEntity
  8
A-2_蓋
  6
Continuous
 62
     3
370
     9
100
AcDbLine
 10
112.4129011824326
 20
437.7565043681378
 30
0.0
 11
170.5795700485643
 21
456.089320827175
 31
0.0
  0
LINE
  5
22E
330
1F
100
AcDbEntity
  8
A-2_蓋
  6
Continuous
 62
     3
370
     9
100
AcDbLine
 10
-1487.753955737965
 20
452.6223177523227
 30
0.0
 11
-1476.753276103252
 21
456.089320827175
 31
0.0
  0
LINE
  5
22F
330
1F
100
AcDbEntity
  8
A-2_蓋
  6
Continuous
 62
     3
370
     9
100
AcDbLine
 10
-1476.08642578125
 20
456.089320827175
 30
0.0
 11
-1476.08642578125
 21
604.4234322212839
 31
0.0
  0
LINE
  5
230
330
1F
100
AcDbEntity
  8
A-2_蓋
  6
Continuous
 62
     3
370
     9
100
AcDbLine
 10
158.9137721706084
 20
604.4234322212839
 30
0.0
 11
158.9137721706084
 21
456.089320827175
 31
0.0
  0
LINE
  5
231
330
1F
100
AcDbEntity
  8
A-2_蓋
  6
Continuous
 62
     3
370
     9
100
AcDbLine
 10
100.0800055426521
 20
604.4234322212839
 30
0.0
 11
100.0800055426521
 21
456.089320827175
 31
0.0
  0
LINE
  5
232
330
1F
100
AcDbEntity
  8
A-2_蓋
  6
Continuous
 62
     3
370
     9
100
AcDbLine
 10
111.7467931798987
 20
604.4234322212839
 30
0.0
 11
111.7467931798987
 21
456.089320827175
 31
0.0
  0
LINE
  5
233
330
1F
100
AcDbEntity
  8
A-2_蓋
  6
Continuous
 62
     3
370
     9
100
AcDbLine
 10
41.24623891469611
 20
604.4234322212839
 30
0.0
 11
41.24623891469611
 21
456.089320827175
 31
0.0
  0
LINE
  5
234
330
1F
100
AcDbEntity
  8
A-2_蓋
  6
Continuous
 62
     3
370
     9
100
AcDbLine
 10
52.91302655194272
 20
604.4234322212839
 30
0.0
 11
52.91302655194272
 21
456.089320827175
 31
0.0
  0
LINE
  5
235
330
1F
100
AcDbEntity
  8
A-2_蓋
  6
Continuous
 62
     3
370
     9
100
AcDbLine
 10
-17.58653795396953
 20
604.4234322212839
 30
0.0
 11
-17.58653795396953
 21
456.089320827175
 31
0.0
  0
LINE
  5
236
330
1F
100
AcDbEntity
  8
A-2_蓋
  6
Continuous
 62
     3
370
     9
100
AcDbLine
 10
-5.919750316722912
 20
604.4234322212839
 30
0.0
 11
-5.919750316722912
 21
456.089320827175
 31
0.0
  0
LINE
  5
237
330
1F
100
AcDbEntity
  8
A-2_蓋
  6
Continuous
 62
     3
370
     9
100
AcDbLine
 10
-76.4203045819255
 20
604.4234322212839
 30
0.0
 11
-76.4203045819255
 21
456.089320827175
 31
0.0
  0
LINE
  5
238
330
1F
100
AcDbEntity
  8
A-2_蓋
  6
Continuous
 62
     3
370
     9
100
AcDbLine
 10
-64.75351694467889
 20
604.4234322212839
 30
0.0
 11
-64.75351694467889
 21
456.089320827175
 31
0.0
  0
LINE
  5
239
330
1F
100
AcDbEntity
  8
A-2_蓋
  6
Continuous
 62
     3
370
     9
100
AcDbLine
 10
-135.2538237700591
 20
604.4234322212839
 30
0.0
 11
-135.2538237700591
 21
456.089320827175
 31
0.0
  0
LINE
  5
23A
330
1F
100
AcDbEntity
  8
A-2_蓋
  6
Continuous
 62
     3
370
     9
100
AcDbLine
 10
-123.5872835726352
 20
604.4234322212839
 30
0.0
 11
-123.5872835726352
 21
456.089320827175
 31
0.0
  0
LINE
  5
23B
330
1F
100
AcDbEntity
  8
A-2_蓋
  6
Continuous
 62
     3
370
     9
100
AcDbLine
 10
-194.0866006387245
 20
604.4234322212839
 30
0.0
 11
-194.0866006387245
 21
456.089320827175
 31
0.0
  0
LINE
  5
23C
330
1F
100
AcDbEntity
  8
A-2_蓋
  6
Continuous
 62
     3
370
     9
100
AcDbLine
 10
-182.4200604413005
 20
604.4234322212839
 30
0.0
 11
-182.4200604413005
 21
456.089320827175
 31
0.0
  0
LINE
  5
23D
330
1F
100
AcDbEntity
  8
A-2_蓋
  6
Continuous
 62
     3
370
     9
100
AcDbLine
 10
-252.9203672666807
 20
604.4234322212839
 30
0.0
 11
-252.9203672666807
 21
456.089320827175
 31
0.0
  0
LINE
  5
23E
330
1F
100
AcDbEntity
  8
A-2_蓋
  6
Continuous
 62
     3
370
     9
100
AcDbLine
 10
-241.2535796294341
 20
604.4234322212839
 30
0.0
 11
-241.2535796294341
 21
456.089320827175
 31
0.0
  0
LINE
  5
23F
330
1F
100
AcDbEntity
  8
A-2_蓋
  6
Continuous
 62
     3
370
     9
100
AcDbLine
 10
-311.7538864548141
 20
604.4234322212839
 30
0.0
 11
-311.7538864548141
 21
456.089320827175
 31
0.0
  0
LINE
  5
240
330
1F
100
AcDbEntity
  8
A-2_蓋
  6
Continuous
 62
     3
370
     9
100
AcDbLine
 10
-300.0870988175674
 20
604.4234322212839
 30
0.0
 11
-300.0870988175674
 21
456.089320827175
 31
0.0
  0
LINE
  5
241
330
1F
100
AcDbEntity
  8
A-2_蓋
  6
Continuous
 62
     3
370
     9
100
AcDbLine
 10
-370.5866633234797
 20
604.4234322212839
 30
0.0
 11
-370.5866633234797
 21
456.089320827175
 31
0.0
  0
LINE
  5
242
330
1F
100
AcDbEntity
  8
A-2_蓋
  6
Continuous
 62
     3
370
     9
100
AcDbLine
 10
-358.9198756862331
 20
604.4234322212839
 30
0.0
 11
-358.9198756862331
 21
456.089320827175
 31
0.0
  0
LINE
  5
243
330
1F
100
AcDbEntity
  8
A-2_蓋
  6
Continuous
 62
     3
370
     9
100
AcDbLine
 10
-429.420182511613
 20
604.4234322212839
 30
0.0
 11
-429.420182511613
 21
456.089320827175
 31
0.0
  0
LINE
  5
244
330
1F
100
AcDbEntity
  8
A-2_蓋
  6
Continuous
 62
     3
370
     9
100
AcDbLine
 10
-417.7536423141891
 20
604.4234322212839
 30
0.0
 11
-417.7536423141891
 21
456.089320827175
 31
0.0
  0
LINE
  5
245
330
1F
100
AcDbEntity
  8
A-2_蓋
  6
Continuous
 62
     3
370
     9
100
AcDbLine
 10
-488.2538254196578
 20
604.4234322212839
 30
0.0
 11
-488.2538254196578
 21
456.089320827175
 31
0.0
  0
LINE
  5
246
330
1F
100
AcDbEntity
  8
A-2_蓋
  6
Continuous
 62
     3
370
     9
100
AcDbLine
 10
-476.5870377824112
 20
604.4234322212839
 30
0.0
 11
-476.5870377824112
 21
456.089320827175
 31
0.0
  0
LINE
  5
247
330
1F
100
AcDbEntity
  8
A-2_蓋
  6
Continuous
 62
     3
370
     9
100
AcDbLine
 10
-547.0866022883234
 20
604.4234322212839
 30
0.0
 11
-547.0866022883234
 21
456.089320827175
 31
0.0
  0
LINE
  5
248
330
1F
100
AcDbEntity
  8
A-2_蓋
  6
Continuous
 62
     3
370
     9
100
AcDbLine
 10
-535.419938370988
 20
604.4234322212839
 30
0.0
 11
-535.419938370988
 21
456.089320827175
 31
0.0
  0
LINE
  5
249
330
1F
100
AcDbEntity
  8
A-2_蓋
  6
Continuous
 62
     3
370
     9
100
AcDbLine
 10
-605.9201214764568
 20
604.4234322212839
 30
0.0
 11
-605.9201214764568
 21
456.089320827175
 31
0.0
  0
LINE
  5
24A
330
1F
100
AcDbEntity
  8
A-2_蓋
  6
Continuous
 62
     3
370
     9
100
AcDbLine
 10
-594.2535812790328
 20
604.4234322212839
 30
0.0
 11
-594.2535812790328
 21
456.089320827175
 31
0.0
  0
LINE
  5
24B
330
1F
100
AcDbEntity
  8
A-2_蓋
  6
Continuous
 62
     3
370
     9
100
AcDbLine
 10
-664.7528983451224
 20
604.4234322212839
 30
0.0
 11
-664.7528983451224
 21
456.089320827175
 31
0.0
  0
LINE
  5
24C
330
1F
100
AcDbEntity
  8
A-2_蓋
  6
Continuous
 62
     3
370
     9
100
AcDbLine
 10
-653.0863581476984
 20
604.4234322212839
 30
0.0
 11
-653.0863581476984
 21
456.089320827175
 31
0.0
  0
LINE
  5
24D
330
1F
100
AcDbEntity
  8
A-2_蓋
  6
Continuous
 62
     3
370
     9
100
AcDbLine
 10
-723.5866649730783
 20
604.4234322212839
 30
0.0
 11
-723.5866649730783
 21
456.089320827175
 31
0.0
  0
LINE
  5
24E
330
1F
100
AcDbEntity
  8
A-2_蓋
  6
Continuous
 62
     3
370
     9
100
AcDbLine
 10
-711.9198773358318
 20
604.4234322212839
 30
0.0
 11
-711.9198773358318
 21
456.089320827175
 31
0.0
  0
LINE
  5
24F
330
1F
100
AcDbEntity
  8
A-2_蓋
  6
Continuous
 62
     3
370
     9
100
AcDbLine
 10
-782.420184161212
 20
604.4234322212839
 30
0.0
 11
-782.420184161212
 21
456.089320827175
 31
0.0
  0
LINE
  5
250
330
1F
100
AcDbEntity
  8
A-2_蓋
  6
Continuous
 62
     3
370
     9
100
AcDbLine
 10
-770.753643963788
 20
604.4234322212839
 30
0.0
 11
-770.753643963788
 21
456.089320827175
 31
0.0
  0
LINE
  5
251
330
1F
100
AcDbEntity
  8
A-2_蓋
  6
Continuous
 62
     3
370
     9
100
AcDbLine
 10
-841.2529610298775
 20
604.4234322212839
 30
0.0
 11
-841.2529610298775
 21
456.089320827175
 31
0.0
  0
LINE
  5
252
330
1F
100
AcDbEntity
  8
A-2_蓋
  6
Continuous
 62
     3
370
     9
100
AcDbLine
 10
-829.5864208324535
 20
604.4234322212839
 30
0.0
 11
-829.5864208324535
 21
456.089320827175
 31
0.0
  0
LINE
  5
253
330
1F
100
AcDbEntity
  8
A-2_蓋
  6
Continuous
 62
     3
370
     9
100
AcDbLine
 10
-900.0867276578335
 20
604.4234322212839
 30
0.0
 11
-900.0867276578335
 21
456.089320827175
 31
0.0
  0
LINE
  5
254
330
1F
100
AcDbEntity
  8
A-2_蓋
  6
Continuous
 62
     3
370
     9
100
AcDbLine
 10
-888.419940020587
 20
604.4234322212839
 30
0.0
 11
-888.419940020587
 21
456.089320827175
 31
0.0
  0
LINE
  5
255
330
1F
100
AcDbEntity
  8
A-2_蓋
  6
Continuous
 62
     3
370
     9
100
AcDbLine
 10
-958.919504526499
 20
604.4234322212839
 30
0.0
 11
-958.919504526499
 21
456.089320827175
 31
0.0
  0
LINE
  5
256
330
1F
100
AcDbEntity
  8
A-2_蓋
  6
Continuous
 62
     3
370
     9
100
AcDbLine
 10
-947.2527168892525
 20
604.4234322212839
 30
0.0
 11
-947.2527168892525
 21
456.089320827175
 31
0.0
  0
LINE
  5
257
330
1F
100
AcDbEntity
  8
A-2_蓋
  6
Continuous
 62
     3
370
     9
100
AcDbLine
 10
-1017.752899994721
 20
604.4234322212839
 30
0.0
 11
-1017.752899994721
 21
456.089320827175
 31
0.0
  0
LINE
  5
258
330
1F
100
AcDbEntity
  8
A-2_蓋
  6
Continuous
 62
     3
370
     9
100
AcDbLine
 10
-1006.086483517209
 20
604.4234322212839
 30
0.0
 11
-1006.086483517209
 21
456.089320827175
 31
0.0
  0
LINE
  5
259
330
1F
100
AcDbEntity
  8
A-2_蓋
  6
Continuous
 62
     3
370
     9
100
AcDbLine
 10
-1076.586666622677
 20
604.4234322212839
 30
0.0
 11
-1076.586666622677
 21
456.089320827175
 31
0.0
  0
LINE
  5
25A
330
1F
100
AcDbEntity
  8
A-2_蓋
  6
Continuous
 62
     3
370
     9
100
AcDbLine
 10
-1064.920126425253
 20
604.4234322212839
 30
0.0
 11
-1064.920126425253
 21
456.089320827175
 31
0.0
  0
LINE
  5
25B
330
1F
100
AcDbEntity
  8
A-2_蓋
  6
Continuous
 62
     3
370
     9
100
AcDbLine
 10
-1135.419443491343
 20
604.4234322212839
 30
0.0
 11
-1135.419443491343
 21
456.089320827175
 31
0.0
  0
LINE
  5
25C
330
1F
100
AcDbEntity
  8
A-2_蓋
  6
Continuous
 62
     3
370
     9
100
AcDbLine
 10
-1123.752779574007
 20
604.4234322212839
 30
0.0
 11
-1123.752779574007
 21
456.089320827175
 31
0.0
  0
LINE
  5
25D
330
1F
100
AcDbEntity
  8
A-2_蓋
  6
Continuous
 62
     3
370
     9
100
AcDbLine
 10
-1194.253210119299
 20
604.4234322212839
 30
0.0
 11
-1194.253210119299
 21
456.089320827175
 31
0.0
  0
LINE
  5
25E
330
1F
100
AcDbEntity
  8
A-2_蓋
  6
Continuous
 62
     3
370
     9
100
AcDbLine
 10
-1182.586422482052
 20
604.4234322212839
 30
0.0
 11
-1182.586422482052
 21
456.089320827175
 31
0.0
  0
LINE
  5
25F
330
1F
100
AcDbEntity
  8
A-2_蓋
  6
Continuous
 62
     3
370
     9
100
AcDbLine
 10
-1253.086729307433
 20
604.4234322212839
 30
0.0
 11
-1253.086729307433
 21
456.089320827175
 31
0.0
  0
LINE
  5
260
330
1F
100
AcDbEntity
  8
A-2_蓋
  6
Continuous
 62
     3
370
     9
100
AcDbLine
 10
-1241.420189110009
 20
604.4234322212839
 30
0.0
 11
-1241.420189110009
 21
456.089320827175
 31
0.0
  0
LINE
  5
261
330
1F
100
AcDbEntity
  8
A-2_蓋
  6
Continuous
 62
     3
370
     9
100
AcDbLine
 10
-1311.919506176098
 20
604.4234322212839
 30
0.0
 11
-1311.919506176098
 21
456.089320827175
 31
0.0
  0
LINE
  5
262
330
1F
100
AcDbEntity
  8
A-2_蓋
  6
Continuous
 62
     3
370
     9
100
AcDbLine
 10
-1300.252842258762
 20
604.4234322212839
 30
0.0
 11
-1300.252842258762
 21
456.089320827175
 31
0.0
  0
LINE
  5
263
330
1F
100
AcDbEntity
  8
A-2_蓋
  6
Continuous
 62
     3
370
     9
100
AcDbLine
 10
-1370.753025364231
 20
604.4234322212839
 30
0.0
 11
-1370.753025364231
 21
456.089320827175
 31
0.0
  0
LINE
  5
264
330
1F
100
AcDbEntity
  8
A-2_蓋
  6
Continuous
 62
     3
370
     9
100
AcDbLine
 10
-1359.086485166807
 20
604.4234322212839
 30
0.0
 11
-1359.086485166807
 21
456.089320827175
 31
0.0
  0
LINE
  5
265
330
1F
100
AcDbEntity
  8
A-2_蓋
  6
Continuous
 62
     3
370
     9
100
AcDbLine
 10
-1429.586791992188
 20
604.4234322212839
 30
0.0
 11
-1429.586791992188
 21
456.089320827175
 31
0.0
  0
LINE
  5
266
330
1F
100
AcDbEntity
  8
A-2_蓋
  6
Continuous
 62
     3
370
     9
100
AcDbLine
 10
-1417.920004354941
 20
604.4234322212839
 30
0.0
 11
-1417.920004354941
 21
456.089320827175
 31
0.0
  0
LINE
  5
267
330
1F
100
AcDbEntity
  8
A-1_ピット
  6
Continuous
 62
     2
370
     9
100
AcDbLine
 10
1215.440739812078
 20
916.0897249788852
 30
0.0
 11
1215.440739812078
 21
921.922871357686
 31
0.0
  0
LINE
  5
268
330
1F
100
AcDbEntity
  8
A-1_ピット
  6
Continuous
 62
     2
370
     9
100
AcDbLine
 10
1311.273935678843
 20
821.9230363175677
 30
0.0
 11
1317.107329497466
 21
821.9230363175677
 31
0.0
  0
LINE
  5
269
330
1F
100
AcDbEntity
  8
A-1_ピット
  6
Continuous
 62
     2
370
     9
100
AcDbLine
 10
1307.10729650549
 20
905.2563146642738
 30
0.0
 11
1307.10729650549
 21
826.0894280510981
 31
0.0
  0
LINE
  5
26A
330
1F
100
AcDbEntity
  8
A-1_ピット
  6
Continuous
 62
     2
370
     9
100
AcDbLine
 10
1300.440525364232
 20
911.9228383657096
 30
0.0
 11
1219.607378985431
 21
911.9228383657096
 31
0.0
  0
LINE
  5
26B
330
1F
100
AcDbEntity
  8
A-1_ピット
  6
Continuous
 62
     2
370
     9
100
AcDbLine
 10
1317.107329497466
 20
921.922871357686
 30
0.0
 11
1215.440739812078
 21
921.922871357686
 31
0.0
  0
LINE
  5
26C
330
1F
100
AcDbEntity
  8
A-1_ピット
  6
Continuous
 62
     2
370
     9
100
AcDbLine
 10
1317.107329497466
 20
921.922871357686
 30
0.0
 11
1317.107329497466
 21
821.9230363175677
 31
0.0
  0
LINE
  5
26D
330
1F
100
AcDbEntity
  8
A-1_ピット
  6
Continuous
 62
     2
370
     9
100
AcDbLine
 10
1275.440690324114
 20
921.922871357686
 30
0.0
 11
1275.440690324114
 21
936.9229208456505
 31
0.0
  0
LINE
  5
26E
330
1F
100
AcDbEntity
  8
A-1_ピット
  6
Continuous
 62
     2
370
     9
100
AcDbLine
 10
1298.465708139781
 20
921.922871357686
 30
0.0
 11
1275.440690324114
 21
921.922871357686
 31
0.0
  0
LINE
  5
26F
330
1F
100
AcDbEntity
  8
A-1_ピット
  6
Continuous
 62
     2
370
     9
100
AcDbLine
 10
1298.465955579603
 20
936.9229208456505
 30
0.0
 11
1275.440690324114
 21
936.9229208456505
 31
0.0
  0
LINE
  5
270
330
1F
100
AcDbEntity
  8
A-1_ピット
  6
Continuous
 62
     2
370
     9
100
AcDbLine
 10
1306.230369774071
 20
922.9450452649917
 30
0.0
 11
1403.21515057538
 21
948.9319177576016
 31
0.0
  0
LINE
  5
271
330
1F
100
AcDbEntity
  8
A-1_ピット
  6
Continuous
 62
     2
370
     9
100
AcDbLine
 10
1302.348286396748
 20
937.4338840793919
 30
0.0
 11
1399.332819758235
 21
963.4210040118245
 31
0.0
  0
LINE
  5
272
330
1F
100
AcDbEntity
  8
A-1_ピット
  6
JWW_CENTER2
 62
     2
370
     9
100
AcDbLine
 10
1298.465708139781
 20
929.4227723817568
 30
0.0
 11
1269.09930254962
 21
929.4227723817568
 31
0.0
  0
LINE
  5
273
330
1F
100
AcDbEntity
  8
A-1_ピット
  6
JWW_CENTER2
 62
     2
370
     9
100
AcDbLine
 10
1304.289204365498
 20
930.1893409522804
 30
0.0
 11
1412.900192673142
 21
959.2917282516894
 31
0.0
  0
LINE
  5
274
330
1F
100
AcDbEntity
  8
A-2_蓋
  6
Continuous
 62
     3
370
     9
100
AcDbLine
 10
1298.773770718961
 20
905.2563146642738
 30
0.0
 11
1298.773770718961
 21
897.7564136402029
 31
0.0
  0
LINE
  5
275
330
1F
100
AcDbEntity
  8
A-2_蓋
  6
Continuous
 62
     3
370
     9
100
AcDbLine
 10
1234.296891495989
 20
780.2561497043919
 30
0.0
 11
1224.868691934122
 21
770.8281975823481
 31
0.0
  0
LINE
  5
276
330
1F
100
AcDbEntity
  8
A-2_蓋
  6
Continuous
 62
     3
370
     9
100
AcDbLine
 10
1224.868691934122
 20
770.8281975823481
 30
0.0
 11
1215.440739812078
 21
780.2561497043919
 31
0.0
  0
LINE
  5
277
330
1F
100
AcDbEntity
  8
A-2_蓋
  6
Continuous
 62
     3
370
     9
100
AcDbLine
 10
1215.440739812078
 20
780.2561497043919
 30
0.0
 11
1224.868691934122
 21
789.684101826436
 31
0.0
  0
LINE
  5
278
330
1F
100
AcDbEntity
  8
A-2_蓋
  6
Continuous
 62
     3
370
     9
100
AcDbLine
 10
1224.868691934122
 20
789.684101826436
 30
0.0
 11
1234.296891495989
 21
780.2561497043919
 31
0.0
  0
LINE
  5
279
330
1F
100
AcDbEntity
  8
A-2_蓋
  6
Continuous
 62
     3
370
     9
100
AcDbLine
 10
1215.440739812078
 20
905.2563146642738
 30
0.0
 11
1298.773770718961
 21
905.2563146642738
 31
0.0
  0
LINE
  5
27A
330
1F
100
AcDbEntity
  8
A-A
  6
Continuous
 62
     3
370
     9
100
AcDbLine
 10
1212.94036040435
 20
894.1843723606419
 30
0.0
 11
1212.94036040435
 21
889.1841084248313
 31
0.0
  0
LINE
  5
27B
330
1F
100
AcDbEntity
  8
A-A
  6
Continuous
 62
     3
370
     9
100
AcDbLine
 10
1212.94036040435
 20
894.1843723606419
 30
0.0
 11
1215.440739812078
 21
895.8508795660896
 31
0.0
  0
LINE
  5
27C
330
1F
100
AcDbEntity
  8
A-A
  6
Continuous
 62
     3
370
     9
100
AcDbLine
 10
1212.94036040435
 20
867.3292335304054
 30
0.0
 11
1215.440739812078
 21
865.6624788851352
 31
0.0
  0
LINE
  5
27D
330
1F
100
AcDbEntity
  8
A-A
  6
Continuous
 62
     3
370
     9
100
AcDbLine
 10
1212.94036040435
 20
877.3292665223818
 30
0.0
 11
1212.94036040435
 21
867.3292335304054
 31
0.0
  0
LINE
  5
27E
330
1F
100
AcDbEntity
  8
A-A
  6
Continuous
 62
     3
370
     9
100
AcDbLine
 10
1212.94036040435
 20
877.3292665223818
 30
0.0
 11
1215.440739812078
 21
878.9960211676521
 31
0.0
  0
LINE
  5
27F
330
1F
100
AcDbEntity
  8
A-A
  6
Continuous
 62
     3
370
     9
100
AcDbLine
 10
1215.440739812078
 20
887.5178486592063
 30
0.0
 11
1215.440739812078
 21
878.9960211676521
 31
0.0
  0
LINE
  5
280
330
1F
100
AcDbEntity
  8
A-A
  6
Continuous
 62
     3
370
     9
100
AcDbLine
 10
1212.94036040435
 20
889.1841084248313
 30
0.0
 11
1215.440739812078
 21
887.5178486592063
 31
0.0
  0
LINE
  5
281
330
1F
100
AcDbEntity
  8
A-A
  6
Continuous
 62
     3
370
     9
100
AcDbLine
 10
1212.94036040435
 20
855.4743916279563
 30
0.0
 11
1212.94036040435
 21
850.4741276921453
 31
0.0
  0
LINE
  5
282
330
1F
100
AcDbEntity
  8
A-A
  6
Continuous
 62
     3
370
     9
100
AcDbLine
 10
1212.94036040435
 20
855.4743916279563
 30
0.0
 11
1215.440739812078
 21
857.140898833404
 31
0.0
  0
LINE
  5
283
330
1F
100
AcDbEntity
  8
A-A
  6
Continuous
 62
     3
370
     9
100
AcDbLine
 10
1212.94036040435
 20
828.6192527977198
 30
0.0
 11
1215.440739812078
 21
826.9524981524495
 31
0.0
  0
LINE
  5
284
330
1F
100
AcDbEntity
  8
A-A
  6
Continuous
 62
     3
370
     9
100
AcDbLine
 10
1212.94036040435
 20
838.619285789696
 30
0.0
 11
1212.94036040435
 21
828.6192527977198
 31
0.0
  0
LINE
  5
285
330
1F
100
AcDbEntity
  8
A-A
  6
Continuous
 62
     3
370
     9
100
AcDbLine
 10
1212.94036040435
 20
838.619285789696
 30
0.0
 11
1215.440739812078
 21
840.2860404349665
 31
0.0
  0
LINE
  5
286
330
1F
100
AcDbEntity
  8
A-A
  6
Continuous
 62
     3
370
     9
100
AcDbLine
 10
1215.440739812078
 20
848.8076204866977
 30
0.0
 11
1215.440739812078
 21
840.2860404349665
 31
0.0
  0
LINE
  5
287
330
1F
100
AcDbEntity
  8
A-A
  6
Continuous
 62
     3
370
     9
100
AcDbLine
 10
1212.94036040435
 20
850.4741276921453
 30
0.0
 11
1215.440739812078
 21
848.8076204866977
 31
0.0
  0
LINE
  5
288
330
1F
100
AcDbEntity
  8
A-A
  6
Continuous
 62
     3
370
     9
100
AcDbLine
 10
1215.440739812078
 20
857.140898833404
 30
0.0
 11
1215.440739812078
 21
865.6624788851352
 31
0.0
  0
LINE
  5
289
330
1F
100
AcDbEntity
  8
A-A
  6
Continuous
 62
     3
370
     9
100
AcDbLine
 10
1212.94036040435
 20
816.7644108952703
 30
0.0
 11
1212.94036040435
 21
811.7641469594596
 31
0.0
  0
LINE
  5
28A
330
1F
100
AcDbEntity
  8
A-A
  6
Continuous
 62
     3
370
     9
100
AcDbLine
 10
1212.94036040435
 20
816.7644108952703
 30
0.0
 11
1215.440739812078
 21
818.4311655405406
 31
0.0
  0
LINE
  5
28B
330
1F
100
AcDbEntity
  8
A-A
  6
Continuous
 62
     3
370
     9
100
AcDbLine
 10
1212.94036040435
 20
789.9092720650339
 30
0.0
 11
1215.440739812078
 21
788.2427648595863
 31
0.0
  0
LINE
  5
28C
330
1F
100
AcDbEntity
  8
A-A
  6
Continuous
 62
     3
370
     9
100
AcDbLine
 10
1212.94036040435
 20
799.9093050570102
 30
0.0
 11
1212.94036040435
 21
789.9092720650339
 31
0.0
  0
LINE
  5
28D
330
1F
100
AcDbEntity
  8
A-A
  6
Continuous
 62
     3
370
     9
100
AcDbLine
 10
1212.94036040435
 20
799.9093050570102
 30
0.0
 11
1215.440739812078
 21
801.5758122624578
 31
0.0
  0
LINE
  5
28E
330
1F
100
AcDbEntity
  8
A-A
  6
Continuous
 62
     3
370
     9
100
AcDbLine
 10
1215.440739812078
 20
810.097639754012
 30
0.0
 11
1215.440739812078
 21
801.5758122624578
 31
0.0
  0
LINE
  5
28F
330
1F
100
AcDbEntity
  8
A-A
  6
Continuous
 62
     3
370
     9
100
AcDbLine
 10
1212.94036040435
 20
811.7641469594596
 30
0.0
 11
1215.440739812078
 21
810.097639754012
 31
0.0
  0
LINE
  5
290
330
1F
100
AcDbEntity
  8
A-A
  6
Continuous
 62
     3
370
     9
100
AcDbLine
 10
1215.440739812078
 20
818.4311655405406
 30
0.0
 11
1215.440739812078
 21
826.9524981524495
 31
0.0
  0
LINE
  5
291
330
1F
100
AcDbEntity
  8
A-A
  6
Continuous
 62
     3
370
     9
100
AcDbLine
 10
1212.94036040435
 20
778.054182722762
 30
0.0
 11
1212.94036040435
 21
773.0541662267738
 31
0.0
  0
LINE
  5
292
330
1F
100
AcDbEntity
  8
A-A
  6
Continuous
 62
     3
370
     9
100
AcDbLine
 10
1212.94036040435
 20
778.054182722762
 30
0.0
 11
1215.440739812078
 21
779.7209373680323
 31
0.0
  0
LINE
  5
293
330
1F
100
AcDbEntity
  8
A-A
  6
Continuous
 62
     3
370
     9
100
AcDbLine
 10
1212.94036040435
 20
773.0541662267738
 30
0.0
 11
1215.440739812078
 21
771.3874115815033
 31
0.0
  0
LINE
  5
294
330
1F
100
AcDbEntity
  8
A-A
  6
Continuous
 62
     3
370
     9
100
AcDbLine
 10
1215.440739812078
 20
779.7209373680323
 30
0.0
 11
1215.440739812078
 21
788.2427648595863
 31
0.0
  0
LINE
  5
295
330
1F
100
AcDbEntity
  8
A-A
  6
Continuous
 62
     3
370
     9
100
AcDbLine
 10
1215.440739812078
 20
905.2563146642738
 30
0.0
 11
1215.440739812078
 21
895.8508795660896
 31
0.0
  0
LINE
  5
296
330
1F
100
AcDbEntity
  8
A-A
  6
Continuous
 62
     3
370
     9
100
AcDbLine
 10
1212.94036040435
 20
751.1992913323481
 30
0.0
 11
1215.440739812078
 21
749.5325366870779
 31
0.0
  0
LINE
  5
297
330
1F
100
AcDbEntity
  8
A-A
  6
Continuous
 62
     3
370
     9
100
AcDbLine
 10
1212.94036040435
 20
761.1990768845019
 30
0.0
 11
1212.94036040435
 21
751.1992913323481
 31
0.0
  0
LINE
  5
298
330
1F
100
AcDbEntity
  8
A-A
  6
Continuous
 62
     3
370
     9
100
AcDbLine
 10
1212.94036040435
 20
761.1990768845019
 30
0.0
 11
1215.440739812078
 21
762.8655840899495
 31
0.0
  0
LINE
  5
299
330
1F
100
AcDbEntity
  8
A-A
  6
Continuous
 62
     3
370
     9
100
AcDbLine
 10
1215.440739812078
 20
771.3874115815033
 30
0.0
 11
1215.440739812078
 21
762.8655840899495
 31
0.0
  0
LINE
  5
29A
330
1F
100
AcDbEntity
  8
A-A
  6
Continuous
 62
     3
370
     9
100
AcDbLine
 10
1212.94036040435
 20
739.3439545502533
 30
0.0
 11
1212.94036040435
 21
734.344185494088
 31
0.0
  0
LINE
  5
29B
330
1F
100
AcDbEntity
  8
A-A
  6
Continuous
 62
     3
370
     9
100
AcDbLine
 10
1212.94036040435
 20
739.3439545502533
 30
0.0
 11
1215.440739812078
 21
741.011204075169
 31
0.0
  0
LINE
  5
29C
330
1F
100
AcDbEntity
  8
A-A
  6
Continuous
 62
     3
370
     9
100
AcDbLine
 10
1212.94036040435
 20
734.344185494088
 30
0.0
 11
1215.440739812078
 21
732.6774308488177
 31
0.0
  0
LINE
  5
29D
330
1F
100
AcDbEntity
  8
A-A
  6
Continuous
 62
     3
370
     9
100
AcDbLine
 10
1215.440739812078
 20
741.011204075169
 30
0.0
 11
1215.440739812078
 21
749.5325366870779
 31
0.0
  0
LINE
  5
29E
330
1F
100
AcDbEntity
  8
A-A
  6
Continuous
 62
     3
370
     9
100
AcDbLine
 10
1212.94036040435
 20
722.4888487119932
 30
0.0
 11
1212.94036040435
 21
712.4890631598396
 31
0.0
  0
LINE
  5
29F
330
1F
100
AcDbEntity
  8
A-A
  6
Continuous
 62
     3
370
     9
100
AcDbLine
 10
1212.94036040435
 20
722.4888487119932
 30
0.0
 11
1215.440739812078
 21
724.1558507970863
 31
0.0
  0
LINE
  5
2A0
330
1F
100
AcDbEntity
  8
A-A
  6
Continuous
 62
     3
370
     9
100
AcDbLine
 10
1215.440739812078
 20
732.6774308488177
 30
0.0
 11
1215.440739812078
 21
724.1558507970863
 31
0.0
  0
LINE
  5
2A1
330
1F
100
AcDbEntity
  8
A-2_蓋
  6
Continuous
 62
     3
370
     9
100
AcDbLine
 10
1307.10729650549
 20
897.7564136402029
 30
0.0
 11
1307.10729650549
 21
672.7004922402873
 31
0.0
  0
LINE
  5
2A2
330
1F
100
AcDbEntity
  8
A-3_受枠
  6
Continuous
 62
     4
370
     9
100
AcDbLine
 10
1247.022721574114
 20
907.1195365287165
 30
0.0
 11
1247.563377586571
 21
911.9228383657096
 31
0.0
  0
LINE
  5
2A3
330
1F
100
AcDbEntity
  8
A-3_受枠
  6
Continuous
 62
     4
370
     9
100
AcDbLine
 10
1263.741735509924
 20
910.1021761507602
 30
0.0
 11
1247.563377586571
 21
911.9228383657096
 31
0.0
  0
LINE
  5
2A4
330
1F
100
AcDbEntity
  8
A-3_受枠
  6
Continuous
 62
     4
370
     9
100
AcDbLine
 10
1263.585106102196
 20
905.256067224451
 30
0.0
 11
1247.022721574114
 21
907.1195365287165
 31
0.0
  0
LINE
  5
2A5
330
1F
100
AcDbEntity
  8
A-3_受枠
  6
Continuous
 62
     4
370
     9
100
AcDbLine
 10
1297.900803024705
 20
906.8814994193415
 30
0.0
 11
1263.585106102196
 21
905.256067224451
 31
0.0
  0
LINE
  5
2A6
330
1F
100
AcDbEntity
  8
A-3_受枠
  6
Continuous
 62
     4
370
     9
100
AcDbLine
 10
1297.672416068413
 20
911.7092977987755
 30
0.0
 11
1263.741735509924
 21
910.1021761507602
 31
0.0
  0
LINE
  5
2A7
330
1F
100
AcDbEntity
  8
A-3_受枠
  6
Continuous
 62
     4
370
     9
100
AcDbLine
 10
1303.607260214316
 20
896.9700498838686
 30
0.0
 11
1303.607260214316
 21
906.0491118559967
 31
0.0
  0
LINE
  5
2A8
330
1F
100
AcDbEntity
  8
A-3_受枠
  6
Continuous
 62
     4
370
     9
100
AcDbLine
 10
1252.606943491343
 20
874.2560639252533
 30
0.0
 11
1301.190268026816
 21
874.2560639252533
 31
0.0
  0
LINE
  5
2A9
330
1F
100
AcDbEntity
  8
A-3_受枠
  6
Continuous
 62
     4
370
     9
100
AcDbLine
 10
1252.606943491343
 20
869.4228218697214
 30
0.0
 11
1301.190268026816
 21
869.4228218697214
 31
0.0
  0
LINE
  5
2AA
330
1F
100
AcDbEntity
  8
A-3_受枠
  6
Continuous
 62
     4
370
     9
100
AcDbLine
 10
1246.940324113176
 20
884.1323770059123
 30
0.0
 11
1246.940324113176
 21
875.0894412478885
 31
0.0
  0
LINE
  5
2AB
330
1F
100
AcDbEntity
  8
A-3_受枠
  6
Continuous
 62
     4
370
     9
100
AcDbLine
 10
1251.773566168708
 20
884.1323770059123
 30
0.0
 11
1251.773566168708
 21
875.0894412478885
 31
0.0
  0
LINE
  5
2AC
330
1F
100
AcDbEntity
  8
A-3_受枠
  6
Continuous
 62
     4
370
     9
100
AcDbLine
 10
1252.257558461782
 20
884.8888005437078
 30
0.0
 11
1269.51623865076
 21
892.8637860272383
 31
0.0
  0
LINE
  5
2AD
330
1F
100
AcDbEntity
  8
A-3_受枠
  6
Continuous
 62
     4
370
     9
100
AcDbLine
 10
1297.62812434016
 20
891.3120908994936
 30
0.0
 11
1269.51623865076
 21
892.8637860272383
 31
0.0
  0
LINE
  5
2AE
330
1F
100
AcDbEntity
  8
A-3_受枠
  6
Continuous
 62
     4
370
     9
100
AcDbLine
 10
1250.23003655511
 20
889.2761560388516
 30
0.0
 11
1268.581163561022
 21
897.7561662003802
 31
0.0
  0
LINE
  5
2AF
330
1F
100
AcDbEntity
  8
A-3_受枠
  6
Continuous
 62
     4
370
     9
100
AcDbLine
 10
1297.894369589316
 20
896.1379097603464
 30
0.0
 11
1268.581163561022
 21
897.7561662003802
 31
0.0
  0
LINE
  5
2B0
330
1F
100
AcDbEntity
  8
A-3_受枠
  6
Continuous
 62
     4
370
     9
100
AcDbLine
 10
1298.773770718961
 20
906.0491118559967
 30
0.0
 11
1298.773770718961
 21
896.9700498838686
 31
0.0
  0
LINE
  5
2B1
330
1F
100
AcDbEntity
  8
A-2_蓋
  6
Continuous
 62
     3
370
     9
100
AcDbLine
 10
1290.440739812078
 20
897.7564136402029
 30
0.0
 11
1290.440739812078
 21
896.5494021853885
 31
0.0
  0
LINE
  5
2B2
330
1F
100
AcDbEntity
  8
A-2_蓋
  6
Continuous
 62
     3
370
     9
100
AcDbLine
 10
1292.94062434016
 20
897.7564136402029
 30
0.0
 11
1292.94062434016
 21
896.4113307643584
 31
0.0
  0
LINE
  5
2B3
330
1F
100
AcDbEntity
  8
A-2_蓋
  6
Continuous
 62
     3
370
     9
100
AcDbLine
 10
1215.440739812078
 20
897.7564136402029
 30
0.0
 11
1298.773770718961
 21
897.7564136402029
 31
0.0
  0
LINE
  5
2B4
330
1F
100
AcDbEntity
  8
A-2_蓋
  6
Continuous
 62
     3
370
     9
100
AcDbLine
 10
1303.607260214316
 20
897.7564136402029
 30
0.0
 11
1307.10729650549
 21
897.7564136402029
 31
0.0
  0
LINE
  5
2B5
330
1F
100
AcDbEntity
  8
A-2_蓋
  6
Continuous
 62
     3
370
     9
100
AcDbLine
 10
1290.440739812078
 20
891.7087369351776
 30
0.0
 11
1290.440739812078
 21
874.2560639252533
 31
0.0
  0
LINE
  5
2B6
330
1F
100
AcDbEntity
  8
A-2_蓋
  6
Continuous
 62
     3
370
     9
100
AcDbLine
 10
1290.440739812078
 20
869.4228218697214
 30
0.0
 11
1290.440739812078
 21
672.7004922402873
 31
0.0
  0
LINE
  5
2B7
330
1F
100
AcDbEntity
  8
A-2_蓋
  6
Continuous
 62
     3
370
     9
100
AcDbLine
 10
1292.94062434016
 20
891.7087369351776
 30
0.0
 11
1292.94062434016
 21
874.2560639252533
 31
0.0
  0
LINE
  5
2B8
330
1F
100
AcDbEntity
  8
A-2_蓋
  6
Continuous
 62
     3
370
     9
100
AcDbLine
 10
1292.94062434016
 20
869.4228218697214
 30
0.0
 11
1292.94062434016
 21
672.7004922402873
 31
0.0
  0
LINE
  5
2B9
330
1F
100
AcDbEntity
  8
A-1_ピット
  6
Continuous
 62
     2
370
     9
100
AcDbLine
 10
1215.440739812078
 20
-188.9108276367188
 30
0.0
 11
1215.440739812078
 21
-194.7439740155193
 31
0.0
  0
LINE
  5
2BA
330
1F
100
AcDbEntity
  8
A-1_ピット
  6
Continuous
 62
     2
370
     9
100
AcDbLine
 10
1311.273935678843
 20
-94.7442626953125
 30
0.0
 11
1317.107329497466
 21
-94.7442626953125
 31
0.0
  0
LINE
  5
2BB
330
1F
100
AcDbEntity
  8
A-1_ピット
  6
Continuous
 62
     2
370
     9
100
AcDbLine
 10
1307.10729650549
 20
-178.0775410420185
 30
0.0
 11
1307.10729650549
 21
-98.91077814875416
 31
0.0
  0
LINE
  5
2BC
330
1F
100
AcDbEntity
  8
A-1_ピット
  6
Continuous
 62
     2
370
     9
100
AcDbLine
 10
1300.440525364232
 20
-184.7441884633656
 30
0.0
 11
1219.607378985431
 21
-184.7441884633656
 31
0.0
  0
LINE
  5
2BD
330
1F
100
AcDbEntity
  8
A-1_ピット
  6
Continuous
 62
     2
370
     9
100
AcDbLine
 10
1317.107329497466
 20
-194.7439740155193
 30
0.0
 11
1215.440739812078
 21
-194.7439740155193
 31
0.0
  0
LINE
  5
2BE
330
1F
100
AcDbEntity
  8
A-1_ピット
  6
Continuous
 62
     2
370
     9
100
AcDbLine
 10
1317.107329497466
 20
-194.7439740155193
 30
0.0
 11
1317.107329497466
 21
-94.7442626953125
 31
0.0
  0
LINE
  5
2BF
330
1F
100
AcDbEntity
  8
A-1_ピット
  6
Continuous
 62
     2
370
     9
100
AcDbLine
 10
1275.440690324114
 20
-194.7439740155193
 30
0.0
 11
1275.440690324114
 21
-209.7442709433065
 31
0.0
  0
LINE
  5
2C0
330
1F
100
AcDbEntity
  8
A-1_ピット
  6
Continuous
 62
     2
370
     9
100
AcDbLine
 10
1298.465708139781
 20
-194.7439740155193
 30
0.0
 11
1275.440690324114
 21
-194.7439740155193
 31
0.0
  0
LINE
  5
2C1
330
1F
100
AcDbEntity
  8
A-1_ピット
  6
Continuous
 62
     2
370
     9
100
AcDbLine
 10
1298.465955579603
 20
-209.7442709433065
 30
0.0
 11
1275.440690324114
 21
-209.7442709433065
 31
0.0
  0
LINE
  5
2C2
330
1F
100
AcDbEntity
  8
A-1_ピット
  6
Continuous
 62
     2
370
     9
100
AcDbLine
 10
1306.230369774071
 20
-195.7663953626476
 30
0.0
 11
1403.21515057538
 21
-221.7532678552575
 31
0.0
  0
LINE
  5
2C3
330
1F
100
AcDbEntity
  8
A-1_ピット
  6
Continuous
 62
     2
370
     9
100
AcDbLine
 10
1302.348286396748
 20
-210.255234177048
 30
0.0
 11
1399.332819758235
 21
-236.2421066696578
 31
0.0
  0
LINE
  5
2C4
330
1F
100
AcDbEntity
  8
A-1_ピット
  6
JWW_CENTER2
 62
     2
370
     9
100
AcDbLine
 10
1298.465708139781
 20
-202.244122479413
 30
0.0
 11
1269.09930254962
 21
-202.244122479413
 31
0.0
  0
LINE
  5
2C5
330
1F
100
AcDbEntity
  8
A-1_ピット
  6
JWW_CENTER2
 62
     2
370
     9
100
AcDbLine
 10
1304.289204365498
 20
-203.0108147698479
 30
0.0
 11
1412.900192673142
 21
-232.1129546294341
 31
0.0
  0
LINE
  5
2C6
330
1F
100
AcDbEntity
  8
A-2_蓋
  6
Continuous
 62
     3
370
     9
100
AcDbLine
 10
1298.773770718961
 20
-178.0775410420185
 30
0.0
 11
1298.773770718961
 21
-170.5776400179477
 31
0.0
  0
LINE
  5
2C7
330
1F
100
AcDbEntity
  8
A-2_蓋
  6
Continuous
 62
     3
370
     9
100
AcDbLine
 10
1307.10729650549
 20
-170.5776400179477
 30
0.0
 11
1307.10729650549
 21
672.7004922402873
 31
0.0
  0
LINE
  5
2C8
330
1F
100
AcDbEntity
  8
A-3_受枠
  6
Continuous
 62
     4
370
     9
100
AcDbLine
 10
1247.022721574114
 20
-179.9408866263724
 30
0.0
 11
1247.563377586571
 21
-184.7441884633656
 31
0.0
  0
LINE
  5
2C9
330
1F
100
AcDbEntity
  8
A-3_受枠
  6
Continuous
 62
     4
370
     9
100
AcDbLine
 10
1263.741735509924
 20
-182.9234025285049
 30
0.0
 11
1247.563377586571
 21
-184.7441884633656
 31
0.0
  0
LINE
  5
2CA
330
1F
100
AcDbEntity
  8
A-3_受枠
  6
Continuous
 62
     4
370
     9
100
AcDbLine
 10
1263.585106102196
 20
-178.0772936021958
 30
0.0
 11
1247.022721574114
 21
-179.9408866263724
 31
0.0
  0
LINE
  5
2CB
330
1F
100
AcDbEntity
  8
A-3_受枠
  6
Continuous
 62
     4
370
     9
100
AcDbLine
 10
1297.900803024705
 20
-179.7027257970862
 30
0.0
 11
1263.585106102196
 21
-178.0772936021958
 31
0.0
  0
LINE
  5
2CC
330
1F
100
AcDbEntity
  8
A-3_受枠
  6
Continuous
 62
     4
370
     9
100
AcDbLine
 10
1297.672416068413
 20
-184.5305241765203
 30
0.0
 11
1263.741735509924
 21
-182.9234025285049
 31
0.0
  0
LINE
  5
2CD
330
1F
100
AcDbEntity
  8
A-3_受枠
  6
Continuous
 62
     4
370
     9
100
AcDbLine
 10
1303.607260214316
 20
-169.7913999815245
 30
0.0
 11
1303.607260214316
 21
-178.8703382337414
 31
0.0
  0
LINE
  5
2CE
330
1F
100
AcDbEntity
  8
A-3_受枠
  6
Continuous
 62
     4
370
     9
100
AcDbLine
 10
1252.606943491343
 20
-147.077166583087
 30
0.0
 11
1301.190268026816
 21
-147.077166583087
 31
0.0
  0
LINE
  5
2CF
330
1F
100
AcDbEntity
  8
A-3_受枠
  6
Continuous
 62
     4
370
     9
100
AcDbLine
 10
1252.606943491343
 20
-142.2440482474661
 30
0.0
 11
1301.190268026816
 21
-142.2440482474661
 31
0.0
  0
LINE
  5
2D0
330
1F
100
AcDbEntity
  8
A-3_受枠
  6
Continuous
 62
     4
370
     9
100
AcDbLine
 10
1246.940324113176
 20
-156.953603383657
 30
0.0
 11
1246.940324113176
 21
-147.9106676256333
 31
0.0
  0
LINE
  5
2D1
330
1F
100
AcDbEntity
  8
A-3_受枠
  6
Continuous
 62
     4
370
     9
100
AcDbLine
 10
1251.773566168708
 20
-156.953603383657
 30
0.0
 11
1251.773566168708
 21
-147.9106676256333
 31
0.0
  0
LINE
  5
2D2
330
1F
100
AcDbEntity
  8
A-3_受枠
  6
Continuous
 62
     4
370
     9
100
AcDbLine
 10
1252.257558461782
 20
-157.7101506413641
 30
0.0
 11
1269.51623865076
 21
-165.6851361248943
 31
0.0
  0
LINE
  5
2D3
330
1F
100
AcDbEntity
  8
A-3_受枠
  6
Continuous
 62
     4
370
     9
100
AcDbLine
 10
1297.62812434016
 20
-164.1331935573268
 30
0.0
 11
1269.51623865076
 21
-165.6851361248943
 31
0.0
  0
LINE
  5
2D4
330
1F
100
AcDbEntity
  8
A-3_受枠
  6
Continuous
 62
     4
370
     9
100
AcDbLine
 10
1250.23003655511
 20
-162.0973824165961
 30
0.0
 11
1268.581163561022
 21
-170.577392578125
 31
0.0
  0
LINE
  5
2D5
330
1F
100
AcDbEntity
  8
A-3_受枠
  6
Continuous
 62
     4
370
     9
100
AcDbLine
 10
1297.894369589316
 20
-168.9591361380911
 30
0.0
 11
1268.581163561022
 21
-170.577392578125
 31
0.0
  0
LINE
  5
2D6
330
1F
100
AcDbEntity
  8
A-3_受枠
  6
Continuous
 62
     4
370
     9
100
AcDbLine
 10
1298.773770718961
 20
-178.8703382337414
 30
0.0
 11
1298.773770718961
 21
-169.7913999815245
 31
0.0
  0
LINE
  5
2D7
330
1F
100
AcDbEntity
  8
A-2_蓋
  6
Continuous
 62
     3
370
     9
100
AcDbLine
 10
1290.440739812078
 20
-170.5776400179477
 30
0.0
 11
1290.440739812078
 21
-169.3707522830448
 31
0.0
  0
LINE
  5
2D8
330
1F
100
AcDbEntity
  8
A-2_蓋
  6
Continuous
 62
     3
370
     9
100
AcDbLine
 10
1292.94062434016
 20
-170.5776400179477
 30
0.0
 11
1292.94062434016
 21
-169.2325571421028
 31
0.0
  0
LINE
  5
2D9
330
1F
100
AcDbEntity
  8
A-2_蓋
  6
Continuous
 62
     3
370
     9
100
AcDbLine
 10
1303.607260214316
 20
-170.5776400179477
 30
0.0
 11
1307.10729650549
 21
-170.5776400179477
 31
0.0
  0
LINE
  5
2DA
330
1F
100
AcDbEntity
  8
A-2_蓋
  6
Continuous
 62
     3
370
     9
100
AcDbLine
 10
1229.607164537584
 20
897.7564136402029
 30
0.0
 11
1229.607164537584
 21
784.9456292229731
 31
0.0
  0
LINE
  5
2DB
330
1F
100
AcDbEntity
  8
A-2_蓋
  6
Continuous
 62
     3
370
     9
100
AcDbLine
 10
1229.607164537584
 20
775.566670185811
 30
0.0
 11
1229.607164537584
 21
672.7004922402873
 31
0.0
  0
LINE
  5
2DC
330
1F
100
AcDbEntity
  8
A-2_蓋
  6
Continuous
 62
     3
370
     9
100
AcDbLine
 10
1232.10729650549
 20
897.7564136402029
 30
0.0
 11
1232.10729650549
 21
782.445992134713
 31
0.0
  0
LINE
  5
2DD
330
1F
100
AcDbEntity
  8
A-2_蓋
  6
Continuous
 62
     3
370
     9
100
AcDbLine
 10
1232.10729650549
 20
778.0668021537165
 30
0.0
 11
1232.10729650549
 21
672.7004922402873
 31
0.0
  0
LINE
  5
2DE
330
1F
100
AcDbEntity
  8
A-A
  6
Continuous
 62
     3
370
     9
100
AcDbLine
 10
1212.94036040435
 20
712.4890631598396
 30
0.0
 11
1215.440739812078
 21
710.8220610747467
 31
0.0
  0
LINE
  5
2DF
330
1F
100
AcDbEntity
  8
A-A
  6
Continuous
 62
     3
370
     9
100
AcDbLine
 10
1212.94036040435
 20
700.6339738175677
 30
0.0
 11
1212.94036040435
 21
695.6337098817568
 31
0.0
  0
LINE
  5
2E0
330
1F
100
AcDbEntity
  8
A-A
  6
Continuous
 62
     3
370
     9
100
AcDbLine
 10
1212.94036040435
 20
700.6339738175677
 30
0.0
 11
1215.440739812078
 21
702.300728462838
 31
0.0
  0
LINE
  5
2E1
330
1F
100
AcDbEntity
  8
A-A
  6
Continuous
 62
     3
370
     9
100
AcDbLine
 10
1212.94036040435
 20
695.6337098817568
 30
0.0
 11
1215.440739812078
 21
693.9672026763092
 31
0.0
  0
LINE
  5
2E2
330
1F
100
AcDbEntity
  8
A-A
  6
Continuous
 62
     3
370
     9
100
AcDbLine
 10
1215.440739812078
 20
702.300728462838
 30
0.0
 11
1215.440739812078
 21
710.8220610747467
 31
0.0
  0
LINE
  5
2E3
330
1F
100
AcDbEntity
  8
A-A
  6
Continuous
 62
     3
370
     9
100
AcDbLine
 10
1212.94036040435
 20
683.7786205394849
 30
0.0
 11
1212.94036040435
 21
673.7788349873313
 31
0.0
  0
LINE
  5
2E4
330
1F
100
AcDbEntity
  8
A-A
  6
Continuous
 62
     3
370
     9
100
AcDbLine
 10
1212.94036040435
 20
683.7786205394849
 30
0.0
 11
1215.440739812078
 21
685.4456226245779
 31
0.0
  0
LINE
  5
2E5
330
1F
100
AcDbEntity
  8
A-A
  6
Continuous
 62
     3
370
     9
100
AcDbLine
 10
1215.440739812078
 20
693.9672026763092
 30
0.0
 11
1215.440739812078
 21
685.4456226245779
 31
0.0
  0
LINE
  5
2E6
330
1F
100
AcDbEntity
  8
A-A
  6
Continuous
 62
     3
370
     9
100
AcDbLine
 10
1212.94036040435
 20
673.7788349873313
 30
0.0
 11
1215.440739812078
 21
672.1118329022383
 31
0.0
  0
LINE
  5
2E7
330
1F
100
AcDbEntity
  8
A-A
  6
Continuous
 62
     3
370
     9
100
AcDbLine
 10
1212.94036040435
 20
661.9234982052367
 30
0.0
 11
1212.94036040435
 21
656.923729149071
 31
0.0
  0
LINE
  5
2E8
330
1F
100
AcDbEntity
  8
A-A
  6
Continuous
 62
     3
370
     9
100
AcDbLine
 10
1212.94036040435
 20
661.9234982052367
 30
0.0
 11
1215.440739812078
 21
663.5902528505068
 31
0.0
  0
LINE
  5
2E9
330
1F
100
AcDbEntity
  8
A-A
  6
Continuous
 62
     3
370
     9
100
AcDbLine
 10
1212.94036040435
 20
656.923729149071
 30
0.0
 11
1215.440739812078
 21
655.2569745038008
 31
0.0
  0
LINE
  5
2EA
330
1F
100
AcDbEntity
  8
A-A
  6
Continuous
 62
     3
370
     9
100
AcDbLine
 10
1215.440739812078
 20
663.5902528505068
 30
0.0
 11
1215.440739812078
 21
672.1118329022383
 31
0.0
  0
LINE
  5
2EB
330
1F
100
AcDbEntity
  8
A-A
  6
Continuous
 62
     3
370
     9
100
AcDbLine
 10
1212.94036040435
 20
645.0683923669766
 30
0.0
 11
1212.94036040435
 21
635.068359375
 31
0.0
  0
LINE
  5
2EC
330
1F
100
AcDbEntity
  8
A-A
  6
Continuous
 62
     3
370
     9
100
AcDbLine
 10
1212.94036040435
 20
645.0683923669766
 30
0.0
 11
1215.440739812078
 21
646.7351470122467
 31
0.0
  0
LINE
  5
2ED
330
1F
100
AcDbEntity
  8
A-A
  6
Continuous
 62
     3
370
     9
100
AcDbLine
 10
1215.440739812078
 20
655.2569745038008
 30
0.0
 11
1215.440739812078
 21
646.7351470122467
 31
0.0
  0
LINE
  5
2EE
330
1F
100
AcDbEntity
  8
A-A
  6
Continuous
 62
     3
370
     9
100
AcDbLine
 10
1212.94036040435
 20
635.068359375
 30
0.0
 11
1215.440739812078
 21
633.40160472973
 31
0.0
  0
LINE
  5
2EF
330
1F
100
AcDbEntity
  8
A-A
  6
Continuous
 62
     3
370
     9
100
AcDbLine
 10
1212.94036040435
 20
623.2130225929054
 30
0.0
 11
1212.94036040435
 21
618.2132535367398
 31
0.0
  0
LINE
  5
2F0
330
1F
100
AcDbEntity
  8
A-A
  6
Continuous
 62
     3
370
     9
100
AcDbLine
 10
1212.94036040435
 20
623.2130225929054
 30
0.0
 11
1215.440739812078
 21
624.880272117821
 31
0.0
  0
LINE
  5
2F1
330
1F
100
AcDbEntity
  8
A-A
  6
Continuous
 62
     3
370
     9
100
AcDbLine
 10
1212.94036040435
 20
618.2132535367398
 30
0.0
 11
1215.440739812078
 21
616.5464988914698
 31
0.0
  0
LINE
  5
2F2
330
1F
100
AcDbEntity
  8
A-A
  6
Continuous
 62
     3
370
     9
100
AcDbLine
 10
1215.440739812078
 20
624.880272117821
 30
0.0
 11
1215.440739812078
 21
633.40160472973
 31
0.0
  0
LINE
  5
2F3
330
1F
100
AcDbEntity
  8
A-A
  6
Continuous
 62
     3
370
     9
100
AcDbLine
 10
1212.94036040435
 20
606.3579167546453
 30
0.0
 11
1212.94036040435
 21
596.3581312024917
 31
0.0
  0
LINE
  5
2F4
330
1F
100
AcDbEntity
  8
A-A
  6
Continuous
 62
     3
370
     9
100
AcDbLine
 10
1212.94036040435
 20
606.3579167546453
 30
0.0
 11
1215.440739812078
 21
608.0249188397383
 31
0.0
  0
LINE
  5
2F5
330
1F
100
AcDbEntity
  8
A-A
  6
Continuous
 62
     3
370
     9
100
AcDbLine
 10
1215.440739812078
 20
616.5464988914698
 30
0.0
 11
1215.440739812078
 21
608.0249188397383
 31
0.0
  0
LINE
  5
2F6
330
1F
100
AcDbEntity
  8
A-A
  6
Continuous
 62
     3
370
     9
100
AcDbLine
 10
1212.94036040435
 20
596.3581312024917
 30
0.0
 11
1215.440739812078
 21
594.6911291173988
 31
0.0
  0
LINE
  5
2F7
330
1F
100
AcDbEntity
  8
A-A
  6
Continuous
 62
     3
370
     9
100
AcDbLine
 10
1212.94036040435
 20
584.5030418602198
 30
0.0
 11
1212.94036040435
 21
579.5027779244089
 31
0.0
  0
LINE
  5
2F8
330
1F
100
AcDbEntity
  8
A-A
  6
Continuous
 62
     3
370
     9
100
AcDbLine
 10
1212.94036040435
 20
584.5030418602198
 30
0.0
 11
1215.440739812078
 21
586.1697965054898
 31
0.0
  0
LINE
  5
2F9
330
1F
100
AcDbEntity
  8
A-A
  6
Continuous
 62
     3
370
     9
100
AcDbLine
 10
1212.94036040435
 20
579.5027779244089
 30
0.0
 11
1215.440739812078
 21
577.8362707189613
 31
0.0
  0
LINE
  5
2FA
330
1F
100
AcDbEntity
  8
A-A
  6
Continuous
 62
     3
370
     9
100
AcDbLine
 10
1215.440739812078
 20
586.1697965054898
 30
0.0
 11
1215.440739812078
 21
594.6911291173988
 31
0.0
  0
LINE
  5
2FB
330
1F
100
AcDbEntity
  8
A-A
  6
Continuous
 62
     3
370
     9
100
AcDbLine
 10
1212.94036040435
 20
567.647688582137
 30
0.0
 11
1212.94036040435
 21
557.6479030299834
 31
0.0
  0
LINE
  5
2FC
330
1F
100
AcDbEntity
  8
A-A
  6
Continuous
 62
     3
370
     9
100
AcDbLine
 10
1212.94036040435
 20
567.647688582137
 30
0.0
 11
1215.440739812078
 21
569.31469066723
 31
0.0
  0
LINE
  5
2FD
330
1F
100
AcDbEntity
  8
A-A
  6
Continuous
 62
     3
370
     9
100
AcDbLine
 10
1215.440739812078
 20
577.8362707189613
 30
0.0
 11
1215.440739812078
 21
569.31469066723
 31
0.0
  0
LINE
  5
2FE
330
1F
100
AcDbEntity
  8
A-A
  6
Continuous
 62
     3
370
     9
100
AcDbLine
 10
1212.94036040435
 20
557.6479030299834
 30
0.0
 11
1215.440739812078
 21
555.9809009448904
 31
0.0
  0
LINE
  5
2FF
330
1F
100
AcDbEntity
  8
A-A
  6
Continuous
 62
     3
370
     9
100
AcDbLine
 10
1212.94036040435
 20
545.7925662478885
 30
0.0
 11
1212.94036040435
 21
540.7926734718117
 31
0.0
  0
LINE
  5
300
330
1F
100
AcDbEntity
  8
A-A
  6
Continuous
 62
     3
370
     9
100
AcDbLine
 10
1212.94036040435
 20
545.7925662478885
 30
0.0
 11
1215.440739812078
 21
547.4594446130703
 31
0.0
  0
LINE
  5
301
330
1F
100
AcDbEntity
  8
A-A
  6
Continuous
 62
     3
370
     9
100
AcDbLine
 10
1212.94036040435
 20
540.7926734718117
 30
0.0
 11
1215.440739812078
 21
539.1259188265415
 31
0.0
  0
LINE
  5
302
330
1F
100
AcDbEntity
  8
A-A
  6
Continuous
 62
     3
370
     9
100
AcDbLine
 10
1215.440739812078
 20
547.4594446130703
 30
0.0
 11
1215.440739812078
 21
555.9809009448904
 31
0.0
  0
LINE
  5
303
330
1F
100
AcDbEntity
  8
A-A
  6
Continuous
 62
     3
370
     9
100
AcDbLine
 10
1212.94036040435
 20
528.9373366897172
 30
0.0
 11
1212.94036040435
 21
518.9375511375636
 31
0.0
  0
LINE
  5
304
330
1F
100
AcDbEntity
  8
A-A
  6
Continuous
 62
     3
370
     9
100
AcDbLine
 10
1212.94036040435
 20
528.9373366897172
 30
0.0
 11
1215.440739812078
 21
530.6043387748102
 31
0.0
  0
LINE
  5
305
330
1F
100
AcDbEntity
  8
A-A
  6
Continuous
 62
     3
370
     9
100
AcDbLine
 10
1215.440739812078
 20
539.1259188265415
 30
0.0
 11
1215.440739812078
 21
530.6043387748102
 31
0.0
  0
LINE
  5
306
330
1F
100
AcDbEntity
  8
A-A
  6
Continuous
 62
     3
370
     9
100
AcDbLine
 10
1212.94036040435
 20
518.9375511375636
 30
0.0
 11
1215.440739812078
 21
517.2705490524706
 31
0.0
  0
LINE
  5
307
330
1F
100
AcDbEntity
  8
A-A
  6
Continuous
 62
     3
370
     9
100
AcDbLine
 10
1212.94036040435
 20
507.0822143554688
 30
0.0
 11
1212.94036040435
 21
502.0823215793919
 31
0.0
  0
LINE
  5
308
330
1F
100
AcDbEntity
  8
A-A
  6
Continuous
 62
     3
370
     9
100
AcDbLine
 10
1212.94036040435
 20
507.0822143554688
 30
0.0
 11
1215.440739812078
 21
508.7492164405617
 31
0.0
  0
LINE
  5
309
330
1F
100
AcDbEntity
  8
A-A
  6
Continuous
 62
     3
370
     9
100
AcDbLine
 10
1212.94036040435
 20
502.0823215793919
 30
0.0
 11
1215.440739812078
 21
500.4155669341216
 31
0.0
  0
LINE
  5
30A
330
1F
100
AcDbEntity
  8
A-A
  6
Continuous
 62
     3
370
     9
100
AcDbLine
 10
1215.440739812078
 20
508.7492164405617
 30
0.0
 11
1215.440739812078
 21
517.2705490524706
 31
0.0
  0
LINE
  5
30B
330
1F
100
AcDbEntity
  8
A-A
  6
Continuous
 62
     3
370
     9
100
AcDbLine
 10
1212.94036040435
 20
490.2271085172086
 30
0.0
 11
1212.94036040435
 21
480.2271992451438
 31
0.0
  0
LINE
  5
30C
330
1F
100
AcDbEntity
  8
A-A
  6
Continuous
 62
     3
370
     9
100
AcDbLine
 10
1212.94036040435
 20
490.2271085172086
 30
0.0
 11
1215.440739812078
 21
491.8939868823904
 31
0.0
  0
LINE
  5
30D
330
1F
100
AcDbEntity
  8
A-A
  6
Continuous
 62
     3
370
     9
100
AcDbLine
 10
1215.440739812078
 20
500.4155669341216
 30
0.0
 11
1215.440739812078
 21
491.8939868823904
 31
0.0
  0
LINE
  5
30E
330
1F
100
AcDbEntity
  8
A-A
  6
Continuous
 62
     3
370
     9
100
AcDbLine
 10
1212.94036040435
 20
480.2271992451438
 30
0.0
 11
1215.440739812078
 21
478.560320879962
 31
0.0
  0
LINE
  5
30F
330
1F
100
AcDbEntity
  8
A-A
  6
Continuous
 62
     3
370
     9
100
AcDbLine
 10
1212.94036040435
 20
468.3719861829604
 30
0.0
 11
1212.94036040435
 21
463.3719696869721
 31
0.0
  0
LINE
  5
310
330
1F
100
AcDbEntity
  8
A-A
  6
Continuous
 62
     3
370
     9
100
AcDbLine
 10
1212.94036040435
 20
468.3719861829604
 30
0.0
 11
1215.440739812078
 21
470.0388645481419
 31
0.0
  0
LINE
  5
311
330
1F
100
AcDbEntity
  8
A-A
  6
Continuous
 62
     3
370
     9
100
AcDbLine
 10
1212.94036040435
 20
463.3719696869721
 30
0.0
 11
1215.440739812078
 21
461.7053387616133
 31
0.0
  0
LINE
  5
312
330
1F
100
AcDbEntity
  8
A-A
  6
Continuous
 62
     3
370
     9
100
AcDbLine
 10
1215.440739812078
 20
470.0388645481419
 30
0.0
 11
1215.440739812078
 21
478.560320879962
 31
0.0
  0
LINE
  5
313
330
1F
100
AcDbEntity
  8
A-A
  6
Continuous
 62
     3
370
     9
100
AcDbLine
 10
1212.94036040435
 20
451.5167566247891
 30
0.0
 11
1212.94036040435
 21
441.516847352724
 31
0.0
  0
LINE
  5
314
330
1F
100
AcDbEntity
  8
A-A
  6
Continuous
 62
     3
370
     9
100
AcDbLine
 10
1212.94036040435
 20
451.5167566247891
 30
0.0
 11
1215.440739812078
 21
453.1836349899706
 31
0.0
  0
LINE
  5
315
330
1F
100
AcDbEntity
  8
A-A
  6
Continuous
 62
     3
370
     9
100
AcDbLine
 10
1215.440739812078
 20
461.7053387616133
 30
0.0
 11
1215.440739812078
 21
453.1836349899706
 31
0.0
  0
LINE
  5
316
330
1F
100
AcDbEntity
  8
A-A
  6
Continuous
 62
     3
370
     9
100
AcDbLine
 10
1212.94036040435
 20
441.516847352724
 30
0.0
 11
1215.440739812078
 21
439.8499689875425
 31
0.0
  0
LINE
  5
317
330
1F
100
AcDbEntity
  8
A-A
  6
Continuous
 62
     3
370
     9
100
AcDbLine
 10
1212.94036040435
 20
429.6616342905406
 30
0.0
 11
1212.94036040435
 21
424.6617415144638
 31
0.0
  0
LINE
  5
318
330
1F
100
AcDbEntity
  8
A-A
  6
Continuous
 62
     3
370
     9
100
AcDbLine
 10
1212.94036040435
 20
429.6616342905406
 30
0.0
 11
1215.440739812078
 21
431.3285126557221
 31
0.0
  0
LINE
  5
319
330
1F
100
AcDbEntity
  8
A-A
  6
Continuous
 62
     3
370
     9
100
AcDbLine
 10
1212.94036040435
 20
424.6617415144638
 30
0.0
 11
1215.440739812078
 21
422.9949868691935
 31
0.0
  0
LINE
  5
31A
330
1F
100
AcDbEntity
  8
A-A
  6
Continuous
 62
     3
370
     9
100
AcDbLine
 10
1215.440739812078
 20
431.3285126557221
 30
0.0
 11
1215.440739812078
 21
439.8499689875425
 31
0.0
  0
LINE
  5
31B
330
1F
100
AcDbEntity
  8
A-A
  6
Continuous
 62
     3
370
     9
100
AcDbLine
 10
1212.94036040435
 20
412.8064047323693
 30
0.0
 11
1212.94036040435
 21
402.8066191802154
 31
0.0
  0
LINE
  5
31C
330
1F
100
AcDbEntity
  8
A-A
  6
Continuous
 62
     3
370
     9
100
AcDbLine
 10
1212.94036040435
 20
412.8064047323693
 30
0.0
 11
1215.440739812078
 21
414.473406817462
 31
0.0
  0
LINE
  5
31D
330
1F
100
AcDbEntity
  8
A-A
  6
Continuous
 62
     3
370
     9
100
AcDbLine
 10
1215.440739812078
 20
422.9949868691935
 30
0.0
 11
1215.440739812078
 21
414.473406817462
 31
0.0
  0
LINE
  5
31E
330
1F
100
AcDbEntity
  8
A-A
  6
Continuous
 62
     3
370
     9
100
AcDbLine
 10
1212.94036040435
 20
402.8066191802154
 30
0.0
 11
1215.440739812078
 21
401.1396170951227
 31
0.0
  0
LINE
  5
31F
330
1F
100
AcDbEntity
  8
A-A
  6
Continuous
 62
     3
370
     9
100
AcDbLine
 10
1212.94036040435
 20
390.9512823981208
 30
0.0
 11
1212.94036040435
 21
385.951389622044
 31
0.0
  0
LINE
  5
320
330
1F
100
AcDbEntity
  8
A-A
  6
Continuous
 62
     3
370
     9
100
AcDbLine
 10
1212.94036040435
 20
390.9512823981208
 30
0.0
 11
1215.440739812078
 21
392.6182844832138
 31
0.0
  0
LINE
  5
321
330
1F
100
AcDbEntity
  8
A-A
  6
Continuous
 62
     3
370
     9
100
AcDbLine
 10
1212.94036040435
 20
385.951389622044
 30
0.0
 11
1215.440739812078
 21
384.2846349767737
 31
0.0
  0
LINE
  5
322
330
1F
100
AcDbEntity
  8
A-A
  6
Continuous
 62
     3
370
     9
100
AcDbLine
 10
1215.440739812078
 20
392.6182844832138
 30
0.0
 11
1215.440739812078
 21
401.1396170951227
 31
0.0
  0
LINE
  5
323
330
1F
100
AcDbEntity
  8
A-A
  6
Continuous
 62
     3
370
     9
100
AcDbLine
 10
1212.94036040435
 20
374.0961765598607
 30
0.0
 11
1212.94036040435
 21
364.0962672877956
 31
0.0
  0
LINE
  5
324
330
1F
100
AcDbEntity
  8
A-A
  6
Continuous
 62
     3
370
     9
100
AcDbLine
 10
1212.94036040435
 20
374.0961765598607
 30
0.0
 11
1215.440739812078
 21
375.7630549250425
 31
0.0
  0
LINE
  5
325
330
1F
100
AcDbEntity
  8
A-A
  6
Continuous
 62
     3
370
     9
100
AcDbLine
 10
1215.440739812078
 20
384.2846349767737
 30
0.0
 11
1215.440739812078
 21
375.7630549250425
 31
0.0
  0
LINE
  5
326
330
1F
100
AcDbEntity
  8
A-A
  6
Continuous
 62
     3
370
     9
100
AcDbLine
 10
1212.94036040435
 20
364.0962672877956
 30
0.0
 11
1215.440739812078
 21
362.4293889226141
 31
0.0
  0
LINE
  5
327
330
1F
100
AcDbEntity
  8
A-A
  6
Continuous
 62
     3
370
     9
100
AcDbLine
 10
1212.94036040435
 20
352.2410542256125
 30
0.0
 11
1212.94036040435
 21
347.2410377296242
 31
0.0
  0
LINE
  5
328
330
1F
100
AcDbEntity
  8
A-A
  6
Continuous
 62
     3
370
     9
100
AcDbLine
 10
1212.94036040435
 20
352.2410542256125
 30
0.0
 11
1215.440739812078
 21
353.907932590794
 31
0.0
  0
LINE
  5
329
330
1F
100
AcDbEntity
  8
A-A
  6
Continuous
 62
     3
370
     9
100
AcDbLine
 10
1212.94036040435
 20
347.2410377296242
 30
0.0
 11
1215.440739812078
 21
345.5744068042654
 31
0.0
  0
LINE
  5
32A
330
1F
100
AcDbEntity
  8
A-A
  6
Continuous
 62
     3
370
     9
100
AcDbLine
 10
1215.440739812078
 20
353.907932590794
 30
0.0
 11
1215.440739812078
 21
362.4293889226141
 31
0.0
  0
LINE
  5
32B
330
1F
100
AcDbEntity
  8
A-A
  6
Continuous
 62
     3
370
     9
100
AcDbLine
 10
1212.94036040435
 20
335.3858246674409
 30
0.0
 11
1212.94036040435
 21
325.3859153953761
 31
0.0
  0
LINE
  5
32C
330
1F
100
AcDbEntity
  8
A-A
  6
Continuous
 62
     3
370
     9
100
AcDbLine
 10
1212.94036040435
 20
335.3858246674409
 30
0.0
 11
1215.440739812078
 21
337.0527030326227
 31
0.0
  0
LINE
  5
32D
330
1F
100
AcDbEntity
  8
A-A
  6
Continuous
 62
     3
370
     9
100
AcDbLine
 10
1215.440739812078
 20
345.5744068042654
 30
0.0
 11
1215.440739812078
 21
337.0527030326227
 31
0.0
  0
LINE
  5
32E
330
1F
100
AcDbEntity
  8
A-A
  6
Continuous
 62
     3
370
     9
100
AcDbLine
 10
1212.94036040435
 20
325.3859153953761
 30
0.0
 11
1215.440739812078
 21
323.7190370301943
 31
0.0
  0
LINE
  5
32F
330
1F
100
AcDbEntity
  8
A-A
  6
Continuous
 62
     3
370
     9
100
AcDbLine
 10
1212.94036040435
 20
313.5307023331927
 30
0.0
 11
1212.94036040435
 21
308.5308095571159
 31
0.0
  0
LINE
  5
330
330
1F
100
AcDbEntity
  8
A-A
  6
Continuous
 62
     3
370
     9
100
AcDbLine
 10
1212.94036040435
 20
313.5307023331927
 30
0.0
 11
1215.440739812078
 21
315.1975806983742
 31
0.0
  0
LINE
  5
331
330
1F
100
AcDbEntity
  8
A-A
  6
Continuous
 62
     3
370
     9
100
AcDbLine
 10
1212.94036040435
 20
308.5308095571159
 30
0.0
 11
1215.440739812078
 21
306.8640549118456
 31
0.0
  0
LINE
  5
332
330
1F
100
AcDbEntity
  8
A-A
  6
Continuous
 62
     3
370
     9
100
AcDbLine
 10
1215.440739812078
 20
315.1975806983742
 30
0.0
 11
1215.440739812078
 21
323.7190370301943
 31
0.0
  0
LINE
  5
333
330
1F
100
AcDbEntity
  8
A-A
  6
Continuous
 62
     3
370
     9
100
AcDbLine
 10
1212.94036040435
 20
296.6754727750211
 30
0.0
 11
1212.94036040435
 21
286.6756872228675
 31
0.0
  0
LINE
  5
334
330
1F
100
AcDbEntity
  8
A-A
  6
Continuous
 62
     3
370
     9
100
AcDbLine
 10
1212.94036040435
 20
296.6754727750211
 30
0.0
 11
1215.440739812078
 21
298.3424748601141
 31
0.0
  0
LINE
  5
335
330
1F
100
AcDbEntity
  8
A-A
  6
Continuous
 62
     3
370
     9
100
AcDbLine
 10
1215.440739812078
 20
306.8640549118456
 30
0.0
 11
1215.440739812078
 21
298.3424748601141
 31
0.0
  0
LINE
  5
336
330
1F
100
AcDbEntity
  8
A-A
  6
Continuous
 62
     3
370
     9
100
AcDbLine
 10
1212.94036040435
 20
286.6756872228675
 30
0.0
 11
1215.440739812078
 21
285.0086851377745
 31
0.0
  0
LINE
  5
337
330
1F
100
AcDbEntity
  8
A-A
  6
Continuous
 62
     3
370
     9
100
AcDbLine
 10
1212.94036040435
 20
274.8203504407729
 30
0.0
 11
1212.94036040435
 21
269.8204576646961
 31
0.0
  0
LINE
  5
338
330
1F
100
AcDbEntity
  8
A-A
  6
Continuous
 62
     3
370
     9
100
AcDbLine
 10
1212.94036040435
 20
274.8203504407729
 30
0.0
 11
1215.440739812078
 21
276.4873525258659
 31
0.0
  0
LINE
  5
339
330
1F
100
AcDbEntity
  8
A-A
  6
Continuous
 62
     3
370
     9
100
AcDbLine
 10
1212.94036040435
 20
269.8204576646961
 30
0.0
 11
1215.440739812078
 21
268.1537030194258
 31
0.0
  0
LINE
  5
33A
330
1F
100
AcDbEntity
  8
A-A
  6
Continuous
 62
     3
370
     9
100
AcDbLine
 10
1215.440739812078
 20
276.4873525258659
 30
0.0
 11
1215.440739812078
 21
285.0086851377745
 31
0.0
  0
LINE
  5
33B
330
1F
100
AcDbEntity
  8
A-A
  6
Continuous
 62
     3
370
     9
100
AcDbLine
 10
1212.94036040435
 20
257.9652446025128
 30
0.0
 11
1212.94036040435
 21
247.9653353304477
 31
0.0
  0
LINE
  5
33C
330
1F
100
AcDbEntity
  8
A-A
  6
Continuous
 62
     3
370
     9
100
AcDbLine
 10
1212.94036040435
 20
257.9652446025128
 30
0.0
 11
1215.440739812078
 21
259.6321229676943
 31
0.0
  0
LINE
  5
33D
330
1F
100
AcDbEntity
  8
A-A
  6
Continuous
 62
     3
370
     9
100
AcDbLine
 10
1215.440739812078
 20
268.1537030194258
 30
0.0
 11
1215.440739812078
 21
259.6321229676943
 31
0.0
  0
LINE
  5
33E
330
1F
100
AcDbEntity
  8
D-2_蓋
  6
Continuous
 62
     3
370
     9
100
AcDbLine
 10
-402.2369384765625
 20
-621.5743276235219
 30
0.0
 11
-407.953169539168
 21
-621.5743276235219
 31
0.0
  0
LINE
  5
33F
330
1F
100
AcDbEntity
  8
D-2_蓋
  6
Continuous
 62
     3
370
     9
100
AcDbLine
 10
-402.2369384765625
 20
-896.5744925834036
 30
0.0
 11
-798.7512124551307
 21
-896.5744925834036
 31
0.0
  0
LINE
  5
340
330
1F
100
AcDbEntity
  8
D-2_蓋
  6
Continuous
 62
     3
370
     9
100
AcDbLine
 10
-276.4586989944044
 20
-621.5743276235219
 30
0.0
 11
-241.4588309623099
 21
-621.5743276235219
 31
0.0
  0
LINE
  5
341
330
1F
100
AcDbEntity
  8
D-2_蓋
  6
Continuous
 62
     3
370
     9
100
AcDbLine
 10
-241.4588309623099
 20
-896.5744925834036
 30
0.0
 11
-276.4586989944044
 21
-896.5744925834036
 31
0.0
  0
LINE
  5
342
330
1F
100
AcDbEntity
  8
D-2_蓋
  6
Continuous
 62
     3
370
     9
100
AcDbLine
 10
-276.4586989944044
 20
-614.0744265994509
 30
0.0
 11
-241.4588309623099
 21
-614.0744265994509
 31
0.0
  0
LINE
  5
343
330
1F
100
AcDbEntity
  8
D-2_蓋
  6
Continuous
 62
     3
370
     9
100
AcDbLine
 10
-276.4586989944044
 20
-614.0744265994509
 30
0.0
 11
-276.4586989944044
 21
-664.0743441195102
 31
0.0
  0
LINE
  5
344
330
1F
100
AcDbEntity
  8
D-2_蓋
  6
Continuous
 62
     3
370
     9
100
AcDbLine
 10
-241.4588309623099
 20
-614.0744265994509
 30
0.0
 11
-241.4588309623099
 21
-664.0743441195102
 31
0.0
  0
LINE
  5
345
330
1F
100
AcDbEntity
  8
D-4_寸法
  6
Continuous
 62
     7
370
     9
100
AcDbLine
 10
-119.0126161317568
 20
-896.5744925834036
 30
0.0
 11
-119.0126161317568
 21
-621.5743276235219
 31
0.0
  0
LINE
  5
346
330
1F
100
AcDbEntity
  8
D-4_寸法
  6
Continuous
 62
     7
370
     9
100
AcDbLine
 10
-222.6844581397802
 20
-896.5744925834036
 30
0.0
 11
-116.0125320022169
 21
-896.5744925834036
 31
0.0
  0
LINE
  5
347
330
1F
100
AcDbEntity
  8
D-4_寸法
  6
Continuous
 62
     7
370
     9
100
AcDbLine
 10
-222.6844581397802
 20
-621.5743276235219
 30
0.0
 11
-116.0125320022169
 21
-621.5743276235219
 31
0.0
  0
LINE
  5
348
330
1F
100
AcDbEntity
  8
D-4_寸法
  6
Continuous
 62
     7
370
     9
100
AcDbLine
 10
-119.0126161317568
 20
-896.5744925834036
 30
0.0
 11
-122.2758525126687
 21
-871.7884455500422
 31
0.0
  0
LINE
  5
349
330
1F
100
AcDbEntity
  8
D-4_寸法
  6
Continuous
 62
     7
370
     9
100
AcDbLine
 10
-119.0126161317568
 20
-896.5744925834036
 30
0.0
 11
-115.7493797508445
 21
-871.7884455500422
 31
0.0
  0
LINE
  5
34A
330
1F
100
AcDbEntity
  8
D-4_寸法
  6
Continuous
 62
     7
370
     9
100
AcDbLine
 10
-119.0126161317568
 20
-621.5743276235219
 30
0.0
 11
-122.2758525126687
 21
-646.3603746568834
 31
0.0
  0
LINE
  5
34B
330
1F
100
AcDbEntity
  8
D-4_寸法
  6
Continuous
 62
     7
370
     9
100
AcDbLine
 10
-119.0126161317568
 20
-621.5743276235219
 30
0.0
 11
-115.7493797508445
 21
-646.3603746568834
 31
0.0
  0
LINE
  5
34C
330
1F
100
AcDbEntity
  8
D-4_寸法
  6
Continuous
 62
     7
370
     9
100
AcDbLine
 10
-241.4588309623099
 20
-602.4902838629645
 30
0.0
 11
-241.4588309623099
 21
-566.3202729096283
 31
0.0
  0
LINE
  5
34D
330
1F
100
AcDbEntity
  8
D-4_寸法
  6
Continuous
 62
     7
370
     9
100
AcDbLine
 10
-276.4586989944044
 20
-602.4902838629645
 30
0.0
 11
-276.4586989944044
 21
-566.3202729096283
 31
0.0
  0
LINE
  5
34E
330
1F
100
AcDbEntity
  8
D-4_寸法
  6
Continuous
 62
     7
370
     9
100
AcDbLine
 10
-241.4588309623099
 20
-569.3204807590793
 30
0.0
 11
-216.6724127692143
 21
-566.0569969383446
 31
0.0
  0
LINE
  5
34F
330
1F
100
AcDbEntity
  8
D-4_寸法
  6
Continuous
 62
     7
370
     9
100
AcDbLine
 10
-241.4588309623099
 20
-569.3204807590793
 30
0.0
 11
-216.6724127692143
 21
-572.5837171399916
 31
0.0
  0
LINE
  5
350
330
1F
100
AcDbEntity
  8
D-4_寸法
  6
Continuous
 62
     7
370
     9
100
AcDbLine
 10
-276.4586989944044
 20
-569.3204807590793
 30
0.0
 11
-301.2451171875
 21
-566.0569969383446
 31
0.0
  0
LINE
  5
351
330
1F
100
AcDbEntity
  8
D-4_寸法
  6
Continuous
 62
     7
370
     9
100
AcDbLine
 10
-276.4586989944044
 20
-569.3204807590793
 30
0.0
 11
-301.2451171875
 21
-572.5837171399916
 31
0.0
  0
LINE
  5
352
330
1F
100
AcDbEntity
  8
D-4_寸法
  6
Continuous
 62
     7
370
     9
100
AcDbLine
 10
-213.5862195813976
 20
-569.3204807590793
 30
0.0
 11
-304.1420189110008
 21
-569.3204807590793
 31
0.0
  0
LINE
  5
353
330
1F
100
AcDbEntity
  8
D-4_寸法
  6
Continuous
 62
     7
370
     9
100
AcDbLine
 10
-248.9586082664695
 20
-772.3794968063767
 30
0.0
 11
-224.1729323928419
 21
-769.1162604254645
 31
0.0
  0
LINE
  5
354
330
1F
100
AcDbEntity
  8
D-4_寸法
  6
Continuous
 62
     7
370
     9
100
AcDbLine
 10
-248.9586082664695
 20
-772.3794968063767
 30
0.0
 11
-224.1729323928419
 21
-775.6427331872887
 31
0.0
  0
LINE
  5
355
330
1F
100
AcDbEntity
  8
D-4_寸法
  6
Continuous
 62
     7
370
     9
100
AcDbLine
 10
-268.9589216902448
 20
-772.3794968063767
 30
0.0
 11
-293.7452161634289
 21
-769.1162604254645
 31
0.0
  0
LINE
  5
356
330
1F
100
AcDbEntity
  8
D-4_寸法
  6
Continuous
 62
     7
370
     9
100
AcDbLine
 10
-268.9589216902448
 20
-772.3794968063767
 30
0.0
 11
-293.7452161634289
 21
-775.6427331872887
 31
0.0
  0
LINE
  5
357
330
1F
100
AcDbEntity
  8
D-2_蓋
  6
Continuous
 62
     3
370
     9
100
AcDbLine
 10
-412.9529385953336
 20
-614.0741791596283
 30
0.0
 11
-427.9532355231206
 21
-614.0741791596283
 31
0.0
  0
LINE
  5
358
330
1F
100
AcDbEntity
  8
D-2_蓋
  6
Continuous
 62
     3
370
     9
100
AcDbLine
 10
-412.9529385953336
 20
-614.0741791596283
 30
0.0
 11
-407.953169539168
 21
-621.5743276235219
 31
0.0
  0
LINE
  5
359
330
1F
100
AcDbEntity
  8
D-2_蓋
  6
Continuous
 62
     3
370
     9
100
AcDbLine
 10
-493.5181076462203
 20
-614.0741791596283
 30
0.0
 11
-498.5178767023859
 21
-621.5743276235219
 31
0.0
  0
LINE
  5
35A
330
1F
100
AcDbEntity
  8
D-2_蓋
  6
Continuous
 62
     3
370
     9
100
AcDbLine
 10
-463.5180086702914
 20
-614.0741791596283
 30
0.0
 11
-493.5181076462203
 21
-614.0741791596283
 31
0.0
  0
LINE
  5
35B
330
1F
100
AcDbEntity
  8
D-2_蓋
  6
Continuous
 62
     3
370
     9
100
AcDbLine
 10
-463.5180086702914
 20
-614.0741791596283
 30
0.0
 11
-458.5182396141258
 21
-621.5743276235219
 31
0.0
  0
LINE
  5
35C
330
1F
100
AcDbEntity
  8
D-2_蓋
  6
Continuous
 62
     3
370
     9
100
AcDbLine
 10
-432.9530045792862
 20
-621.5743276235219
 30
0.0
 11
-458.5182396141258
 21
-621.5743276235219
 31
0.0
  0
LINE
  5
35D
330
1F
100
AcDbEntity
  8
D-2_蓋
  6
Continuous
 62
     3
370
     9
100
AcDbLine
 10
-427.9532355231206
 20
-614.0741791596283
 30
0.0
 11
-432.9530045792862
 21
-621.5743276235219
 31
0.0
  0
LINE
  5
35E
330
1F
100
AcDbEntity
  8
D-2_蓋
  6
Continuous
 62
     3
370
     9
100
AcDbLine
 10
-529.0828807933908
 20
-614.0741791596283
 30
0.0
 11
-544.0831777211781
 21
-614.0741791596283
 31
0.0
  0
LINE
  5
35F
330
1F
100
AcDbEntity
  8
D-2_蓋
  6
Continuous
 62
     3
370
     9
100
AcDbLine
 10
-529.0828807933908
 20
-614.0741791596283
 30
0.0
 11
-524.0831117372255
 21
-621.5743276235219
 31
0.0
  0
LINE
  5
360
330
1F
100
AcDbEntity
  8
D-2_蓋
  6
Continuous
 62
     3
370
     9
100
AcDbLine
 10
-609.6480498442779
 20
-614.0741791596283
 30
0.0
 11
-614.6478189004432
 21
-621.5743276235219
 31
0.0
  0
LINE
  5
361
330
1F
100
AcDbEntity
  8
D-2_蓋
  6
Continuous
 62
     3
370
     9
100
AcDbLine
 10
-579.6479508683487
 20
-614.0741791596283
 30
0.0
 11
-609.6480498442779
 21
-614.0741791596283
 31
0.0
  0
LINE
  5
362
330
1F
100
AcDbEntity
  8
D-2_蓋
  6
Continuous
 62
     3
370
     9
100
AcDbLine
 10
-579.6479508683487
 20
-614.0741791596283
 30
0.0
 11
-574.6481818121831
 21
-621.5743276235219
 31
0.0
  0
LINE
  5
363
330
1F
100
AcDbEntity
  8
D-2_蓋
  6
Continuous
 62
     3
370
     9
100
AcDbLine
 10
-549.0829467773438
 20
-621.5743276235219
 30
0.0
 11
-574.6481818121831
 21
-621.5743276235219
 31
0.0
  0
LINE
  5
364
330
1F
100
AcDbEntity
  8
D-2_蓋
  6
Continuous
 62
     3
370
     9
100
AcDbLine
 10
-544.0831777211781
 20
-614.0741791596283
 30
0.0
 11
-549.0829467773438
 21
-621.5743276235219
 31
0.0
  0
LINE
  5
365
330
1F
100
AcDbEntity
  8
D-2_蓋
  6
Continuous
 62
     3
370
     9
100
AcDbLine
 10
-524.0831117372255
 20
-621.5743276235219
 30
0.0
 11
-498.5178767023859
 21
-621.5743276235219
 31
0.0
  0
LINE
  5
366
330
1F
100
AcDbEntity
  8
D-2_蓋
  6
Continuous
 62
     3
370
     9
100
AcDbLine
 10
-645.2128229914484
 20
-614.0741791596283
 30
0.0
 11
-660.2131199192356
 21
-614.0741791596283
 31
0.0
  0
LINE
  5
367
330
1F
100
AcDbEntity
  8
D-2_蓋
  6
Continuous
 62
     3
370
     9
100
AcDbLine
 10
-645.2128229914484
 20
-614.0741791596283
 30
0.0
 11
-640.2130539352828
 21
-621.5743276235219
 31
0.0
  0
LINE
  5
368
330
1F
100
AcDbEntity
  8
D-2_蓋
  6
Continuous
 62
     3
370
     9
100
AcDbLine
 10
-725.7781157622467
 20
-614.0741791596283
 30
0.0
 11
-730.777884818412
 21
-621.5743276235219
 31
0.0
  0
LINE
  5
369
330
1F
100
AcDbEntity
  8
D-2_蓋
  6
Continuous
 62
     3
370
     9
100
AcDbLine
 10
-695.7778930664062
 20
-614.0741791596283
 30
0.0
 11
-725.7781157622467
 21
-614.0741791596283
 31
0.0
  0
LINE
  5
36A
330
1F
100
AcDbEntity
  8
D-2_蓋
  6
Continuous
 62
     3
370
     9
100
AcDbLine
 10
-695.7778930664062
 20
-614.0741791596283
 30
0.0
 11
-690.7781240102406
 21
-621.5743276235219
 31
0.0
  0
LINE
  5
36B
330
1F
100
AcDbEntity
  8
D-2_蓋
  6
Continuous
 62
     3
370
     9
100
AcDbLine
 10
-665.212888975401
 20
-621.5743276235219
 30
0.0
 11
-690.7781240102406
 21
-621.5743276235219
 31
0.0
  0
LINE
  5
36C
330
1F
100
AcDbEntity
  8
D-2_蓋
  6
Continuous
 62
     3
370
     9
100
AcDbLine
 10
-660.2131199192356
 20
-614.0741791596283
 30
0.0
 11
-665.212888975401
 21
-621.5743276235219
 31
0.0
  0
LINE
  5
36D
330
1F
100
AcDbEntity
  8
D-2_蓋
  6
Continuous
 62
     3
370
     9
100
AcDbLine
 10
-640.2130539352828
 20
-621.5743276235219
 30
0.0
 11
-614.6478189004432
 21
-621.5743276235219
 31
0.0
  0
LINE
  5
36E
330
1F
100
AcDbEntity
  8
D-2_蓋
  6
Continuous
 62
     3
370
     9
100
AcDbLine
 10
-761.3427651895057
 20
-614.0741791596283
 30
0.0
 11
-776.3431858372044
 21
-614.0741791596283
 31
0.0
  0
LINE
  5
36F
330
1F
100
AcDbEntity
  8
D-2_蓋
  6
Continuous
 62
     3
370
     9
100
AcDbLine
 10
-761.3427651895057
 20
-614.0741791596283
 30
0.0
 11
-756.3429961333404
 21
-621.5743276235219
 31
0.0
  0
LINE
  5
370
330
1F
100
AcDbEntity
  8
D-2_蓋
  6
Continuous
 62
     3
370
     9
100
AcDbLine
 10
-776.3431858372044
 20
-614.0741791596283
 30
0.0
 11
-781.3429548933698
 21
-621.5743276235219
 31
0.0
  0
LINE
  5
371
330
1F
100
AcDbEntity
  8
D-2_蓋
  6
Continuous
 62
     3
370
     9
100
AcDbLine
 10
-756.3429961333404
 20
-621.5743276235219
 30
0.0
 11
-730.777884818412
 21
-621.5743276235219
 31
0.0
  0
LINE
  5
372
330
1F
100
AcDbEntity
  8
D-2_蓋
  6
Continuous
 62
     3
370
     9
100
AcDbLine
 10
-781.3429548933698
 20
-621.5743276235219
 30
0.0
 11
-798.7512124551307
 21
-621.5743276235219
 31
0.0
  0
LINE
  5
373
330
1F
100
AcDbEntity
  8
D-2_蓋
  6
Continuous
 62
     3
370
     9
100
AcDbLine
 10
-268.9589216902448
 20
-671.574245143581
 30
0.0
 11
-276.4586989944044
 21
-664.0743441195102
 31
0.0
  0
LINE
  5
374
330
1F
100
AcDbEntity
  8
D-2_蓋
  6
Continuous
 62
     3
370
     9
100
AcDbLine
 10
-248.9586082664695
 20
-671.574245143581
 30
0.0
 11
-241.4588309623099
 21
-664.0743441195102
 31
0.0
  0
LINE
  5
375
330
1F
100
AcDbEntity
  8
D-2_蓋
  6
Continuous
 62
     3
370
     9
100
AcDbLine
 10
-276.4586989944044
 20
-896.5744925834036
 30
0.0
 11
-276.4586989944044
 21
-854.0747235272381
 31
0.0
  0
LINE
  5
376
330
1F
100
AcDbEntity
  8
D-2_蓋
  6
Continuous
 62
     3
370
     9
100
AcDbLine
 10
-276.4586989944044
 20
-854.0747235272381
 30
0.0
 11
-268.9589216902448
 21
-846.5748225031672
 31
0.0
  0
LINE
  5
377
330
1F
100
AcDbEntity
  8
D-2_蓋
  6
Continuous
 62
     3
370
     9
100
AcDbLine
 10
-268.9589216902448
 20
-671.574245143581
 30
0.0
 11
-268.9589216902448
 21
-846.5748225031672
 31
0.0
  0
LINE
  5
378
330
1F
100
AcDbEntity
  8
D-2_蓋
  6
Continuous
 62
     3
370
     9
100
AcDbLine
 10
-248.9586082664695
 20
-671.574245143581
 30
0.0
 11
-248.9586082664695
 21
-846.5748225031672
 31
0.0
  0
LINE
  5
379
330
1F
100
AcDbEntity
  8
D-2_蓋
  6
Continuous
 62
     3
370
     9
100
AcDbLine
 10
-248.9586082664695
 20
-846.5748225031672
 30
0.0
 11
-241.4588309623099
 21
-854.0747235272381
 31
0.0
  0
LINE
  5
37A
330
1F
100
AcDbEntity
  8
D-2_蓋
  6
Continuous
 62
     3
370
     9
100
AcDbLine
 10
-241.4588309623099
 20
-854.0747235272381
 30
0.0
 11
-241.4588309623099
 21
-896.5744925834036
 31
0.0
  0
LINE
  5
37B
330
1F
100
AcDbEntity
  8
D-2_蓋
  6
Continuous
 62
     3
370
     9
100
AcDbLine
 10
-402.2369384765625
 20
-854.0747235272381
 30
0.0
 11
-798.7512124551307
 21
-854.0747235272381
 31
0.0
  0
LINE
  5
37C
330
1F
100
AcDbEntity
  8
D-2_蓋
  6
Continuous
 62
     3
370
     9
100
AcDbLine
 10
-402.2369384765625
 20
-846.5748225031672
 30
0.0
 11
-798.7512124551307
 21
-846.5748225031672
 31
0.0
  0
LINE
  5
37D
330
1F
100
AcDbEntity
  8
D-2_蓋
  6
Continuous
 62
     3
370
     9
100
AcDbLine
 10
-402.2369384765625
 20
-664.0740966796875
 30
0.0
 11
-798.7512124551307
 21
-664.0740966796875
 31
0.0
  0
LINE
  5
37E
330
1F
100
AcDbEntity
  8
D-2_蓋
  6
Continuous
 62
     3
370
     9
100
AcDbLine
 10
-402.2369384765625
 20
-671.5739977037584
 30
0.0
 11
-798.7512124551307
 21
-671.5739977037584
 31
0.0
  0
LINE
  5
37F
330
1F
100
AcDbEntity
  8
D-4_寸法
  6
Continuous
 62
     7
370
     9
100
AcDbLine
 10
-1025.493807406039
 20
-971.5744925834036
 30
0.0
 11
-1025.493807406039
 21
-1041.574723527238
 31
0.0
  0
LINE
  5
380
330
1F
100
AcDbEntity
  8
D-4_寸法
  6
Continuous
 62
     7
370
     9
100
AcDbLine
 10
-175.4937249260979
 20
-971.5744925834036
 30
0.0
 11
-1025.493807406039
 21
-971.5744925834036
 31
0.0
  0
LINE
  5
381
330
1F
100
AcDbEntity
  8
D-4_寸法
  6
Continuous
 62
     7
370
     9
100
AcDbLine
 10
-175.4937249260979
 20
-971.5744925834036
 30
0.0
 11
-175.4937249260979
 21
-1041.574723527238
 31
0.0
  0
LINE
  5
382
330
1F
100
AcDbEntity
  8
D-4_寸法
  6
Continuous
 62
     7
370
     9
100
AcDbLine
 10
-175.4937249260979
 20
-1041.574723527238
 30
0.0
 11
-1025.493807406039
 21
-1041.574723527238
 31
0.0
  0
LINE
  5
383
330
1F
100
AcDbEntity
  8
D-2_蓋
  6
Continuous
 62
     3
370
     9
100
AcDbLine
 10
-907.56460653769
 20
-691.2068629909206
 30
0.0
 11
-900.0378582928631
 21
-698.7329926361908
 31
0.0
  0
LINE
  5
384
330
1F
100
AcDbEntity
  8
D-2_蓋
  6
Continuous
 62
     3
370
     9
100
AcDbLine
 10
-925.0383119325379
 20
-694.9461735905827
 30
0.0
 11
-903.9790797877956
 21
-716.0057768950592
 31
0.0
  0
LINE
  5
385
330
1F
100
AcDbEntity
  8
D-2_蓋
  6
Continuous
 62
     3
370
     9
100
AcDbLine
 10
-925.0383119325379
 20
-633.6602783203125
 30
0.0
 11
-900.0378582928631
 21
-658.6601133604307
 31
0.0
  0
LINE
  5
386
330
1F
100
AcDbEntity
  8
D-2_蓋
  6
Continuous
 62
     3
370
     9
100
AcDbLine
 10
-911.5439337653082
 20
-636.5479010504645
 30
0.0
 11
-900.0378582928631
 21
-648.0536053631756
 31
0.0
  0
LINE
  5
387
330
1F
100
AcDbEntity
  8
D-2_蓋
  6
Continuous
 62
     3
370
     9
100
AcDbLine
 10
-900.0378582928631
 20
-619.3255945154137
 30
0.0
 11
-900.0378582928631
 21
-910.8003028663429
 31
0.0
  0
LINE
  5
388
330
1F
100
AcDbEntity
  8
D-4_寸法
  6
Continuous
 62
     7
370
     9
100
AcDbLine
 10
-941.974825472445
 20
-838.7839322476773
 30
0.0
 11
-995.6698855838259
 21
-838.7839322476773
 31
0.0
  0
LINE
  5
389
330
1F
100
AcDbEntity
  8
D-4_寸法
  6
Continuous
 62
     7
370
     9
100
AcDbLine
 10
-941.974825472445
 20
-863.8973421663852
 30
0.0
 11
-995.6698855838259
 21
-863.8973421663852
 31
0.0
  0
LINE
  5
38A
330
1F
100
AcDbEntity
  8
D-4_寸法
  6
Continuous
 62
     7
370
     9
100
AcDbLine
 10
-992.6699251741975
 20
-838.7839322476773
 30
0.0
 11
-995.9331615551098
 21
-813.9978852143158
 31
0.0
  0
LINE
  5
38B
330
1F
100
AcDbEntity
  8
D-4_寸法
  6
Continuous
 62
     7
370
     9
100
AcDbLine
 10
-992.6699251741975
 20
-838.7839322476773
 30
0.0
 11
-989.4066887932854
 21
-813.9978852143158
 31
0.0
  0
LINE
  5
38C
330
1F
100
AcDbEntity
  8
D-4_寸法
  6
Continuous
 62
     7
370
     9
100
AcDbLine
 10
-992.6699251741975
 20
-863.8973421663852
 30
0.0
 11
-995.9331615551098
 21
-888.6833891997467
 31
0.0
  0
LINE
  5
38D
330
1F
100
AcDbEntity
  8
D-4_寸法
  6
Continuous
 62
     7
370
     9
100
AcDbLine
 10
-992.6699251741975
 20
-863.8973421663852
 30
0.0
 11
-989.4066887932854
 21
-888.6833891997467
 31
0.0
  0
LINE
  5
38E
330
1F
100
AcDbEntity
  8
D-4_寸法
  6
Continuous
 62
     7
370
     9
100
AcDbLine
 10
-992.6699251741975
 20
-807.284595386402
 30
0.0
 11
-992.6699251741975
 21
-903.1576290646115
 31
0.0
  0
LINE
  5
38F
330
1F
100
AcDbEntity
  8
D-4_寸法
  6
Continuous
 62
     7
370
     9
100
AcDbLine
 10
-888.5828791437922
 20
-712.7108682168496
 30
0.0
 11
-856.5671353726773
 21
-705.859754407728
 31
0.0
  0
LINE
  5
390
330
1F
100
AcDbEntity
  8
D-4_寸法
  6
Continuous
 62
     7
370
     9
100
AcDbLine
 10
-893.8142518739442
 20
-688.2643086201435
 30
0.0
 11
-861.7986318227406
 21
-681.4129473711992
 31
0.0
  0
LINE
  5
391
330
1F
100
AcDbEntity
  8
D-4_寸法
  6
Continuous
 62
     7
370
     9
100
AcDbLine
 10
-859.5009056297508
 20
-706.4877566775759
 30
0.0
 11
-851.1229643950592
 21
-730.0420482738598
 31
0.0
  0
LINE
  5
392
330
1F
100
AcDbEntity
  8
D-4_寸法
  6
Continuous
 62
     7
370
     9
100
AcDbLine
 10
-859.5009056297508
 20
-706.4877566775759
 30
0.0
 11
-857.5049323004645
 21
-731.4074212151604
 31
0.0
  0
LINE
  5
393
330
1F
100
AcDbEntity
  8
D-4_寸法
  6
Continuous
 62
     7
370
     9
100
AcDbLine
 10
-864.7322783599029
 20
-682.0407022012246
 30
0.0
 11
-866.7280042493666
 21
-657.1205427839949
 31
0.0
  0
LINE
  5
394
330
1F
100
AcDbEntity
  8
D-4_寸法
  6
Continuous
 62
     7
370
     9
100
AcDbLine
 10
-864.7322783599029
 20
-682.0407022012246
 30
0.0
 11
-873.1094772751266
 21
-658.4864106049408
 31
0.0
  0
LINE
  5
395
330
1F
100
AcDbEntity
  8
D-4_寸法
  6
Continuous
 62
     7
370
     9
100
AcDbLine
 10
-853.226697767103
 20
-735.8064063819678
 30
0.0
 11
-871.5828972893792
 21
-650.0279277079813
 31
0.0
  0
LINE
  5
396
330
1F
100
AcDbEntity
  8
D-2_蓋
  6
Continuous
 62
     3
370
     9
100
AcDbLine
 10
-935.0383449245144
 20
-619.3255945154137
 30
0.0
 11
-935.0383449245144
 21
-910.8003028663429
 31
0.0
  0
LINE
  5
397
330
1F
100
AcDbEntity
  8
D-2_蓋
  6
Continuous
 62
     3
370
     9
100
AcDbLine
 10
-935.0383449245144
 20
-657.0863960884712
 30
0.0
 11
-900.0378582928631
 21
-664.5759046399916
 31
0.0
  0
LINE
  5
398
330
1F
100
AcDbEntity
  8
D-2_蓋
  6
Continuous
 62
     3
370
     9
100
AcDbLine
 10
-935.0383449245144
 20
-659.6429443359375
 30
0.0
 11
-900.0378582928631
 21
-667.1324528874577
 31
0.0
  0
LINE
  5
399
330
1F
100
AcDbEntity
  8
D-2_蓋
  6
Continuous
 62
     3
370
     9
100
AcDbLine
 10
-900.0378582928631
 20
-636.4536264780405
 30
0.0
 11
-935.0383449245144
 21
-628.9638704866977
 31
0.0
  0
LINE
  5
39A
330
1F
100
AcDbEntity
  8
D-2_蓋
  6
Continuous
 62
     3
370
     9
100
AcDbLine
 10
-900.0378582928631
 20
-639.0099272856842
 30
0.0
 11
-935.0383449245144
 21
-631.5204187341637
 31
0.0
  0
LINE
  5
39B
330
1F
100
AcDbEntity
  8
D-2_蓋
  6
Continuous
 62
     3
370
     9
100
AcDbLine
 10
-916.3012117952912
 20
-693.0767657305744
 30
0.0
 11
-900.0378582928631
 21
-709.3397480732685
 31
0.0
  0
LINE
  5
39C
330
1F
100
AcDbEntity
  8
D-2_蓋
  6
Continuous
 62
     3
370
     9
100
AcDbLine
 10
-935.0383449245144
 20
-697.0860331767313
 30
0.0
 11
-900.0378582928631
 21
-689.596524625211
 31
0.0
  0
LINE
  5
39D
330
1F
100
AcDbEntity
  8
D-2_蓋
  6
Continuous
 62
     3
370
     9
100
AcDbLine
 10
-935.0383449245144
 20
-694.5294849292651
 30
0.0
 11
-900.0378582928631
 21
-687.0399763777449
 31
0.0
  0
LINE
  5
39E
330
1F
100
AcDbEntity
  8
D-2_蓋
  6
Continuous
 62
     3
370
     9
100
AcDbLine
 10
-935.0383449245144
 20
-722.6520105310387
 30
0.0
 11
-900.0378582928631
 21
-715.1625019795185
 31
0.0
  0
LINE
  5
39F
330
1F
100
AcDbEntity
  8
D-2_蓋
  6
Continuous
 62
     3
370
     9
100
AcDbLine
 10
-935.0383449245144
 20
-725.2090536581502
 30
0.0
 11
-900.0378582928631
 21
-717.7192976668074
 31
0.0
  0
LINE
  5
3A0
330
1F
100
AcDbEntity
  8
D-2_蓋
  6
Continuous
 62
     3
370
     9
100
AcDbLine
 10
-935.0383449245144
 20
-634.2670007654137
 30
0.0
 11
-906.0061068148225
 21
-663.2991151551943
 31
0.0
  0
LINE
  5
3A1
330
1F
100
AcDbEntity
  8
D-2_蓋
  6
Continuous
 62
     3
370
     9
100
AcDbLine
 10
-935.0383449245144
 20
-644.8735087626688
 30
0.0
 11
-919.500361262141
 21
-660.4109975453969
 31
0.0
  0
LINE
  5
3A2
330
1F
100
AcDbEntity
  8
D-2_蓋
  6
Continuous
 62
     3
370
     9
100
AcDbLine
 10
-935.0383449245144
 20
-655.480016759924
 30
0.0
 11
-932.9947394293707
 21
-657.5233748152449
 31
0.0
  0
LINE
  5
3A3
330
1F
100
AcDbEntity
  8
D-2_蓋
  6
Continuous
 62
     3
370
     9
100
AcDbLine
 10
-933.7752883498733
 20
-696.8158288904137
 30
0.0
 11
-912.7156850453969
 21
-717.8754321948901
 31
0.0
  0
LINE
  5
3A4
330
1F
100
AcDbEntity
  8
D-2_蓋
  6
Continuous
 62
     3
370
     9
100
AcDbLine
 10
-935.0383449245144
 20
-706.1598989125844
 30
0.0
 11
-921.4527851826435
 21
-719.7450874947212
 31
0.0
  0
LINE
  5
3A5
330
1F
100
AcDbEntity
  8
D-2_蓋
  6
Continuous
 62
     3
370
     9
100
AcDbLine
 10
-935.0383449245144
 20
-716.7664069098395
 30
0.0
 11
-930.1898853198901
 21
-721.6147427945523
 31
0.0
  0
LINE
  5
3A6
330
1F
100
AcDbEntity
  8
D-4_寸法
  6
Continuous
 62
     7
370
     9
100
AcDbLine
 10
-941.974825472445
 20
-657.0863960884712
 30
0.0
 11
-995.6698855838259
 21
-657.0863960884712
 31
0.0
  0
LINE
  5
3A7
330
1F
100
AcDbEntity
  8
D-4_寸法
  6
Continuous
 62
     7
370
     9
100
AcDbLine
 10
-941.974825472445
 20
-697.0860331767313
 30
0.0
 11
-995.6698855838259
 21
-697.0860331767313
 31
0.0
  0
LINE
  5
3A8
330
1F
100
AcDbEntity
  8
D-4_寸法
  6
Continuous
 62
     7
370
     9
100
AcDbLine
 10
-992.6699251741975
 20
-657.0863960884712
 30
0.0
 11
-995.9326666754645
 21
-632.3001016152871
 31
0.0
  0
LINE
  5
3A9
330
1F
100
AcDbEntity
  8
D-4_寸法
  6
Continuous
 62
     7
370
     9
100
AcDbLine
 10
-992.6699251741975
 20
-657.0863960884712
 30
0.0
 11
-989.4066887932854
 21
-632.3001016152871
 31
0.0
  0
LINE
  5
3AA
330
1F
100
AcDbEntity
  8
D-4_寸法
  6
Continuous
 62
     7
370
     9
100
AcDbLine
 10
-992.6699251741975
 20
-697.0860331767313
 30
0.0
 11
-995.9326666754645
 21
-721.8720802100928
 31
0.0
  0
LINE
  5
3AB
330
1F
100
AcDbEntity
  8
D-4_寸法
  6
Continuous
 62
     7
370
     9
100
AcDbLine
 10
-992.6699251741975
 20
-697.0860331767313
 30
0.0
 11
-989.4066887932854
 21
-721.8720802100928
 31
0.0
  0
LINE
  5
3AC
330
1F
100
AcDbEntity
  8
D-4_寸法
  6
Continuous
 62
     7
370
     9
100
AcDbLine
 10
-992.6699251741975
 20
-626.391980970228
 30
0.0
 11
-992.6699251741975
 21
-725.540128140836
 31
0.0
  0
LINE
  5
3AD
330
1F
100
AcDbEntity
  8
D-2_蓋
  6
Continuous
 62
     3
370
     9
100
AcDbLine
 10
-935.0383449245144
 20
-813.2179548933699
 30
0.0
 11
-900.0378582928631
 21
-805.7284463418496
 31
0.0
  0
LINE
  5
3AE
330
1F
100
AcDbEntity
  8
D-2_蓋
  6
Continuous
 62
     3
370
     9
100
AcDbLine
 10
-935.0383449245144
 20
-810.6614066459036
 30
0.0
 11
-900.0378582928631
 21
-803.1718980943834
 31
0.0
  0
LINE
  5
3AF
330
1F
100
AcDbEntity
  8
D-2_蓋
  6
Continuous
 62
     3
370
     9
100
AcDbLine
 10
-900.0378582928631
 20
-833.8509719436233
 30
0.0
 11
-935.0383449245144
 21
-841.3407279349661
 31
0.0
  0
LINE
  5
3B0
330
1F
100
AcDbEntity
  8
D-2_蓋
  6
Continuous
 62
     3
370
     9
100
AcDbLine
 10
-900.0378582928631
 20
-831.2944236961571
 30
0.0
 11
-935.0383449245144
 21
-838.7839322476773
 31
0.0
  0
LINE
  5
3B1
330
1F
100
AcDbEntity
  8
D-2_蓋
  6
Continuous
 62
     3
370
     9
100
AcDbLine
 10
-935.0383449245144
 20
-773.2183178051098
 30
0.0
 11
-900.0378582928631
 21
-780.7078263566301
 31
0.0
  0
LINE
  5
3B2
330
1F
100
AcDbEntity
  8
D-2_蓋
  6
Continuous
 62
     3
370
     9
100
AcDbLine
 10
-935.0383449245144
 20
-775.774866052576
 30
0.0
 11
-900.0378582928631
 21
-783.2646220439188
 31
0.0
  0
LINE
  5
3B3
330
1F
100
AcDbEntity
  8
D-2_蓋
  6
Continuous
 62
     3
370
     9
100
AcDbLine
 10
-935.0383449245144
 20
-747.6523404508023
 30
0.0
 11
-900.0378582928631
 21
-755.1418490023227
 31
0.0
  0
LINE
  5
3B4
330
1F
100
AcDbEntity
  8
D-2_蓋
  6
Continuous
 62
     3
370
     9
100
AcDbLine
 10
-935.0383449245144
 20
-745.0955447635134
 30
0.0
 11
-900.0378582928631
 21
-752.5850533150337
 31
0.0
  0
LINE
  5
3B5
330
1F
100
AcDbEntity
  8
D-2_蓋
  6
Continuous
 62
     3
370
     9
100
AcDbLine
 10
-935.0383449245144
 20
-889.4633195206925
 30
0.0
 11
-900.0378582928631
 21
-896.9530755120354
 31
0.0
  0
LINE
  5
3B6
330
1F
100
AcDbEntity
  8
D-2_蓋
  6
Continuous
 62
     3
370
     9
100
AcDbLine
 10
-935.0383449245144
 20
-892.0196203283363
 30
0.0
 11
-900.0378582928631
 21
-899.5093763196791
 31
0.0
  0
LINE
  5
3B7
330
1F
100
AcDbEntity
  8
D-2_蓋
  6
Continuous
 62
     3
370
     9
100
AcDbLine
 10
-935.0383449245144
 20
-863.8973421663852
 30
0.0
 11
-900.0378582928631
 21
-871.387098157728
 31
0.0
  0
LINE
  5
3B8
330
1F
100
AcDbEntity
  8
D-2_蓋
  6
Continuous
 62
     3
370
     9
100
AcDbLine
 10
-935.0383449245144
 20
-861.3405464790962
 30
0.0
 11
-900.0378582928631
 21
-868.830302470439
 31
0.0
  0
LINE
  5
3B9
330
1F
100
AcDbEntity
  8
D-2_蓋
  6
Continuous
 62
     3
370
     9
100
AcDbLine
 10
-925.0383119325379
 20
-866.0369543127113
 30
0.0
 11
-900.0378582928631
 21
-891.0367893528294
 31
0.0
  0
LINE
  5
3BA
330
1F
100
AcDbEntity
  8
D-2_蓋
  6
Continuous
 62
     3
370
     9
100
AcDbLine
 10
-911.5439337653082
 20
-868.9250719225083
 30
0.0
 11
-900.0378582928631
 21
-880.4305287953969
 31
0.0
  0
LINE
  5
3BB
330
1F
100
AcDbEntity
  8
D-2_蓋
  6
Continuous
 62
     3
370
     9
100
AcDbLine
 10
-935.0383449245144
 20
-866.6436767578125
 30
0.0
 11
-906.0061068148225
 21
-895.6760385874155
 31
0.0
  0
LINE
  5
3BC
330
1F
100
AcDbEntity
  8
D-2_蓋
  6
Continuous
 62
     3
370
     9
100
AcDbLine
 10
-935.0383449245144
 20
-877.2501847550675
 30
0.0
 11
-919.500361262141
 21
-892.7881684174408
 31
0.0
  0
LINE
  5
3BD
330
1F
100
AcDbEntity
  8
D-2_蓋
  6
Continuous
 62
     3
370
     9
100
AcDbLine
 10
-935.0383449245144
 20
-887.8571876319679
 30
0.0
 11
-932.9947394293707
 21
-889.9005456872887
 31
0.0
  0
LINE
  5
3BE
330
1F
100
AcDbEntity
  8
D-2_蓋
  6
Continuous
 62
     3
370
     9
100
AcDbLine
 10
-925.0383119325379
 20
-749.7922000369509
 30
0.0
 11
-900.0378582928631
 21
-774.7920350770693
 31
0.0
  0
LINE
  5
3BF
330
1F
100
AcDbEntity
  8
D-2_蓋
  6
Continuous
 62
     3
370
     9
100
AcDbLine
 10
-911.5439337653082
 20
-752.6800702069256
 30
0.0
 11
-900.0378582928631
 21
-764.1855270798142
 31
0.0
  0
LINE
  5
3C0
330
1F
100
AcDbEntity
  8
D-2_蓋
  6
Continuous
 62
     3
370
     9
100
AcDbLine
 10
-935.0383449245144
 20
-750.3989224820523
 30
0.0
 11
-906.0061068148225
 21
-779.4310368718327
 31
0.0
  0
LINE
  5
3C1
330
1F
100
AcDbEntity
  8
D-2_蓋
  6
Continuous
 62
     3
370
     9
100
AcDbLine
 10
-935.0383449245144
 20
-761.0054304793074
 30
0.0
 11
-919.500361262141
 21
-776.5429192620354
 31
0.0
  0
LINE
  5
3C2
330
1F
100
AcDbEntity
  8
D-2_蓋
  6
Continuous
 62
     3
370
     9
100
AcDbLine
 10
-935.0383449245144
 20
-771.6121859163852
 30
0.0
 11
-932.9947394293707
 21
-773.6552965318834
 31
0.0
  0
LINE
  5
3C3
330
1F
100
AcDbEntity
  8
D-2_蓋
  6
Continuous
 62
     3
370
     9
100
AcDbLine
 10
-907.56460653769
 20
-807.3387847075592
 30
0.0
 11
-900.0378582928631
 21
-814.8649143528293
 31
0.0
  0
LINE
  5
3C4
330
1F
100
AcDbEntity
  8
D-2_蓋
  6
Continuous
 62
     3
370
     9
100
AcDbLine
 10
-925.0383119325379
 20
-811.0780953072212
 30
0.0
 11
-903.9790797877956
 21
-832.1376986116977
 31
0.0
  0
LINE
  5
3C5
330
1F
100
AcDbEntity
  8
D-2_蓋
  6
Continuous
 62
     3
370
     9
100
AcDbLine
 10
-916.3012117952912
 20
-809.2084400073901
 30
0.0
 11
-900.0378582928631
 21
-825.4716697899071
 31
0.0
  0
LINE
  5
3C6
330
1F
100
AcDbEntity
  8
D-2_蓋
  6
Continuous
 62
     3
370
     9
100
AcDbLine
 10
-933.7752883498733
 20
-812.9477506070523
 30
0.0
 11
-912.7156850453969
 21
-834.0073539115286
 31
0.0
  0
LINE
  5
3C7
330
1F
100
AcDbEntity
  8
D-2_蓋
  6
Continuous
 62
     3
370
     9
100
AcDbLine
 10
-935.0383449245144
 20
-822.2915731894002
 30
0.0
 11
-921.4527851826435
 21
-835.8770092113598
 31
0.0
  0
LINE
  5
3C8
330
1F
100
AcDbEntity
  8
D-2_蓋
  6
Continuous
 62
     3
370
     9
100
AcDbLine
 10
-935.0383449245144
 20
-832.898328626478
 30
0.0
 11
-930.1898853198901
 21
-837.7466645111908
 31
0.0
  0
LINE
  5
3C9
330
1F
100
AcDbEntity
  8
D-4_寸法
  6
Continuous
 62
     7
370
     9
100
AcDbLine
 10
-900.0378582928631
 20
-606.1865399334881
 30
0.0
 11
-900.0378582928631
 21
-573.8387319203969
 31
0.0
  0
LINE
  5
3CA
330
1F
100
AcDbEntity
  8
D-4_寸法
  6
Continuous
 62
     7
370
     9
100
AcDbLine
 10
-935.0383449245144
 20
-606.1865399334881
 30
0.0
 11
-935.0383449245144
 21
-573.8387319203969
 31
0.0
  0
LINE
  5
3CB
330
1F
100
AcDbEntity
  8
D-4_寸法
  6
Continuous
 62
     7
370
     9
100
AcDbLine
 10
-900.0378582928631
 20
-576.8389397698479
 30
0.0
 11
-875.2518112595016
 21
-573.5757033889358
 31
0.0
  0
LINE
  5
3CC
330
1F
100
AcDbEntity
  8
D-4_寸法
  6
Continuous
 62
     7
370
     9
100
AcDbLine
 10
-900.0378582928631
 20
-576.8389397698479
 30
0.0
 11
-875.2518112595016
 21
-580.1019287109375
 31
0.0
  0
LINE
  5
3CD
330
1F
100
AcDbEntity
  8
D-4_寸法
  6
Continuous
 62
     7
370
     9
100
AcDbLine
 10
-935.0383449245144
 20
-576.8389397698479
 30
0.0
 11
-959.8242682379645
 21
-573.5757033889358
 31
0.0
  0
LINE
  5
3CE
330
1F
100
AcDbEntity
  8
D-4_寸法
  6
Continuous
 62
     7
370
     9
100
AcDbLine
 10
-935.0383449245144
 20
-576.8389397698479
 30
0.0
 11
-959.8242682379645
 21
-580.1019287109375
 31
0.0
  0
LINE
  5
3CF
330
1F
100
AcDbEntity
  8
D-4_寸法
  6
Continuous
 62
     7
370
     9
100
AcDbLine
 10
-869.0956321922508
 20
-576.8389397698479
 30
0.0
 11
-960.5240280563767
 21
-576.8389397698479
 31
0.0
  0
LINE
  5
3D0
330
1F
100
AcDbEntity
  8
D-4_寸法
  6
Continuous
 62
     7
370
     9
100
AcDbLine
 10
-905.2217225770692
 20
-678.2420060441301
 30
0.0
 11
-892.2672581028293
 21
-656.8599886507602
 31
0.0
  0
LINE
  5
3D1
330
1F
100
AcDbEntity
  8
D-4_寸法
  6
Continuous
 62
     7
370
     9
100
AcDbLine
 10
-905.2217225770692
 20
-678.2420060441301
 30
0.0
 11
-887.1745753932644
 21
-660.9417559649492
 31
0.0
  0
LINE
  5
3D2
330
1F
100
AcDbEntity
  8
D-2_蓋
  6
Continuous
 62
     3
370
     9
100
AcDbLine
 10
-935.0383449245144
 20
-837.1780477987752
 30
0.0
 11
-933.7151604729729
 21
-838.5008610905827
 31
0.0
  0
LINE
  5
3D3
330
1F
100
AcDbEntity
  8
D-4_寸法
  6
Continuous
 62
     7
370
     9
100
AcDbLine
 10
-200.15308277027
 20
-772.3794968063767
 30
0.0
 11
-298.6719904719172
 21
-772.3794968063767
 31
0.0
  0
LINE
  5
3D4
330
1F
100
AcDbEntity
  8
D-4_寸法
  6
Continuous
 62
     7
370
     9
100
AcDbLine
 10
-823.9514737515835
 20
-576.8389397698479
 30
0.0
 11
-905.2217225770692
 21
-678.2420060441301
 31
0.0
  0
LINE
  5
3D5
330
1F
100
AcDbEntity
  8
D-4_寸法
  6
Continuous
 62
     7
370
     9
100
AcDbLine
 10
-823.9514737515835
 20
-576.8389397698479
 30
0.0
 11
-570.1034545898438
 21
-576.8389397698479
 31
0.0
  0
LINE
  5
3D6
330
1F
100
AcDbEntity
  8
A-2_蓋
  6
Continuous
 62
     3
370
     9
100
AcDbLine
 10
1234.296891495989
 20
613.58959301098
 30
0.0
 11
1224.868691934122
 21
604.161640888936
 31
0.0
  0
LINE
  5
3D7
330
1F
100
AcDbEntity
  8
A-2_蓋
  6
Continuous
 62
     3
370
     9
100
AcDbLine
 10
1224.868691934122
 20
604.161640888936
 30
0.0
 11
1215.440739812078
 21
613.58959301098
 31
0.0
  0
LINE
  5
3D8
330
1F
100
AcDbEntity
  8
A-2_蓋
  6
Continuous
 62
     3
370
     9
100
AcDbLine
 10
1215.440739812078
 20
613.58959301098
 30
0.0
 11
1224.868691934122
 21
623.0175451330238
 31
0.0
  0
LINE
  5
3D9
330
1F
100
AcDbEntity
  8
A-2_蓋
  6
Continuous
 62
     3
370
     9
100
AcDbLine
 10
1224.868691934122
 20
623.0175451330238
 30
0.0
 11
1234.296891495989
 21
613.58959301098
 31
0.0
  0
LINE
  5
3DA
330
1F
100
AcDbEntity
  8
A-2_蓋
  6
Continuous
 62
     3
370
     9
100
AcDbLine
 10
1234.296891495989
 20
446.9229125976562
 30
0.0
 11
1224.868691934122
 21
437.494836755701
 31
0.0
  0
LINE
  5
3DB
330
1F
100
AcDbEntity
  8
A-2_蓋
  6
Continuous
 62
     3
370
     9
100
AcDbLine
 10
1224.868691934122
 20
437.494836755701
 30
0.0
 11
1215.440739812078
 21
446.9229125976562
 31
0.0
  0
LINE
  5
3DC
330
1F
100
AcDbEntity
  8
A-2_蓋
  6
Continuous
 62
     3
370
     9
100
AcDbLine
 10
1215.440739812078
 20
446.9229125976562
 30
0.0
 11
1224.868691934122
 21
456.3507409997891
 31
0.0
  0
LINE
  5
3DD
330
1F
100
AcDbEntity
  8
A-2_蓋
  6
Continuous
 62
     3
370
     9
100
AcDbLine
 10
1224.868691934122
 20
456.3507409997891
 30
0.0
 11
1234.296891495989
 21
446.9229125976562
 31
0.0
  0
LINE
  5
3DE
330
1F
100
AcDbEntity
  8
A-2_蓋
  6
Continuous
 62
     3
370
     9
100
AcDbLine
 10
1234.296891495989
 20
-53.07712864231405
 30
0.0
 11
1224.868691934122
 21
-62.50520448426926
 31
0.0
  0
LINE
  5
3DF
330
1F
100
AcDbEntity
  8
A-2_蓋
  6
Continuous
 62
     3
370
     9
100
AcDbLine
 10
1224.868691934122
 20
-62.50520448426926
 30
0.0
 11
1215.440739812078
 21
-53.07712864231405
 31
0.0
  0
LINE
  5
3E0
330
1F
100
AcDbEntity
  8
A-2_蓋
  6
Continuous
 62
     3
370
     9
100
AcDbLine
 10
1215.440739812078
 20
-53.07712864231405
 30
0.0
 11
1224.868691934122
 21
-43.6493002401815
 31
0.0
  0
LINE
  5
3E1
330
1F
100
AcDbEntity
  8
A-2_蓋
  6
Continuous
 62
     3
370
     9
100
AcDbLine
 10
1224.868691934122
 20
-43.6493002401815
 30
0.0
 11
1234.296891495989
 21
-53.07712864231405
 31
0.0
  0
LINE
  5
3E2
330
1F
100
AcDbEntity
  8
A-2_蓋
  6
Continuous
 62
     3
370
     9
100
AcDbLine
 10
1229.607164537584
 20
618.279072529561
 30
0.0
 11
1229.607164537584
 21
672.7004922402873
 31
0.0
  0
LINE
  5
3E3
330
1F
100
AcDbEntity
  8
A-2_蓋
  6
Continuous
 62
     3
370
     9
100
AcDbLine
 10
1232.10729650549
 20
615.7789405616554
 30
0.0
 11
1232.10729650549
 21
672.7004922402873
 31
0.0
  0
LINE
  5
3E4
330
1F
100
AcDbEntity
  8
A-2_蓋
  6
Continuous
 62
     3
370
     9
100
AcDbLine
 10
1229.607164537584
 20
451.6123921162375
 30
0.0
 11
1229.607164537584
 21
608.9001134923988
 31
0.0
  0
LINE
  5
3E5
330
1F
100
AcDbEntity
  8
A-2_蓋
  6
Continuous
 62
     3
370
     9
100
AcDbLine
 10
1232.10729650549
 20
449.1123838682432
 30
0.0
 11
1232.10729650549
 21
611.4002454603042
 31
0.0
  0
LINE
  5
3E6
330
1F
100
AcDbEntity
  8
A-2_蓋
  6
Continuous
 62
     3
370
     9
100
AcDbLine
 10
1229.607164537584
 20
-170.5776400179477
 30
0.0
 11
1229.607164537584
 21
-57.7667318808065
 31
0.0
  0
LINE
  5
3E7
330
1F
100
AcDbEntity
  8
A-2_蓋
  6
Continuous
 62
     3
370
     9
100
AcDbLine
 10
1232.10729650549
 20
-170.5776400179477
 30
0.0
 11
1232.10729650549
 21
-55.26659991290103
 31
0.0
  0
LINE
  5
3E8
330
1F
100
AcDbEntity
  8
A-2_蓋
  6
Continuous
 62
     3
370
     9
100
AcDbLine
 10
1290.440739812078
 20
-164.5299633129221
 30
0.0
 11
1290.440739812078
 21
-147.0774140229096
 31
0.0
  0
LINE
  5
3E9
330
1F
100
AcDbEntity
  8
A-2_蓋
  6
Continuous
 62
     3
370
     9
100
AcDbLine
 10
1290.440739812078
 20
-142.2442956872888
 30
0.0
 11
1290.440739812078
 21
672.7004922402873
 31
0.0
  0
LINE
  5
3EA
330
1F
100
AcDbEntity
  8
A-2_蓋
  6
Continuous
 62
     3
370
     9
100
AcDbLine
 10
1292.94062434016
 20
-164.5299633129221
 30
0.0
 11
1292.94062434016
 21
-147.0774140229096
 31
0.0
  0
LINE
  5
3EB
330
1F
100
AcDbEntity
  8
A-2_蓋
  6
Continuous
 62
     3
370
     9
100
AcDbLine
 10
1292.94062434016
 20
-142.2440482474661
 30
0.0
 11
1292.94062434016
 21
672.7004922402873
 31
0.0
  0
LINE
  5
3EC
330
1F
100
AcDbEntity
  8
A-2_蓋
  6
Continuous
 62
     3
370
     9
100
AcDbLine
 10
-1487.753955737965
 20
289.4226404138516
 30
0.0
 11
170.579817488387
 21
289.4226404138516
 31
0.0
  0
LINE
  5
3ED
330
1F
100
AcDbEntity
  8
A-2_蓋
  6
Continuous
 62
     3
370
     9
100
AcDbLine
 10
-1487.753955737965
 20
271.0898239548143
 30
0.0
 11
170.579817488387
 21
271.0898239548143
 31
0.0
  0
LINE
  5
3EE
330
1F
100
AcDbEntity
  8
A-2_蓋
  6
Continuous
 62
     3
370
     9
100
AcDbLine
 10
-1476.08642578125
 20
271.0898239548143
 30
0.0
 11
-1417.920004354941
 21
289.4226404138516
 31
0.0
  0
LINE
  5
3EF
330
1F
100
AcDbEntity
  8
A-2_蓋
  6
Continuous
 62
     3
370
     9
100
AcDbLine
 10
-1417.253401472762
 20
271.0898239548143
 30
0.0
 11
-1359.086980046452
 21
289.4226404138516
 31
0.0
  0
LINE
  5
3F0
330
1F
100
AcDbEntity
  8
A-2_蓋
  6
Continuous
 62
     3
370
     9
100
AcDbLine
 10
-1358.419634844806
 20
271.0898239548143
 30
0.0
 11
-1300.253460858319
 21
289.4226404138516
 31
0.0
  0
LINE
  5
3F1
330
1F
100
AcDbEntity
  8
A-2_蓋
  6
Continuous
 62
     3
370
     9
100
AcDbLine
 10
-1299.586363096495
 20
271.0898239548143
 30
0.0
 11
-1241.420189110009
 21
289.4226404138516
 31
0.0
  0
LINE
  5
3F2
330
1F
100
AcDbEntity
  8
A-2_蓋
  6
Continuous
 62
     3
370
     9
100
AcDbLine
 10
-1240.753338788007
 20
271.0898239548143
 30
0.0
 11
-1182.586793641786
 21
289.4226404138516
 31
0.0
  0
LINE
  5
3F3
330
1F
100
AcDbEntity
  8
A-2_蓋
  6
Continuous
 62
     3
370
     9
100
AcDbLine
 10
-1181.919943319785
 20
271.0898239548143
 30
0.0
 11
-1123.753398173564
 21
289.4226404138516
 31
0.0
  0
LINE
  5
3F4
330
1F
100
AcDbEntity
  8
A-2_蓋
  6
Continuous
 62
     3
370
     9
100
AcDbLine
 10
-1123.086547851562
 20
271.0898239548143
 30
0.0
 11
-1064.920126425253
 21
289.4226404138516
 31
0.0
  0
LINE
  5
3F5
330
1F
100
AcDbEntity
  8
A-2_蓋
  6
Continuous
 62
     3
370
     9
100
AcDbLine
 10
-1064.253276103252
 20
271.0898239548143
 30
0.0
 11
-1006.086730957031
 21
289.4226404138516
 31
0.0
  0
LINE
  5
3F6
330
1F
100
AcDbEntity
  8
A-2_蓋
  6
Continuous
 62
     3
370
     9
100
AcDbLine
 10
-1005.41988063503
 20
271.0898239548143
 30
0.0
 11
-947.2534592087204
 21
289.4226404138516
 31
0.0
  0
LINE
  5
3F7
330
1F
100
AcDbEntity
  8
A-2_蓋
  6
Continuous
 62
     3
370
     9
100
AcDbLine
 10
-946.5862377269848
 20
271.0898239548143
 30
0.0
 11
-888.419940020587
 21
289.4226404138516
 31
0.0
  0
LINE
  5
3F8
330
1F
100
AcDbEntity
  8
A-2_蓋
  6
Continuous
 62
     3
370
     9
100
AcDbLine
 10
-887.7530896985853
 20
271.0898239548143
 30
0.0
 11
-829.5869157120987
 21
289.4226404138516
 31
0.0
  0
LINE
  5
3F9
330
1F
100
AcDbEntity
  8
A-2_蓋
  6
Continuous
 62
     3
370
     9
100
AcDbLine
 10
-828.920065390097
 20
271.0898239548143
 30
0.0
 11
-770.753643963788
 21
289.4226404138516
 31
0.0
  0
LINE
  5
3FA
330
1F
100
AcDbEntity
  8
A-2_蓋
  6
Continuous
 62
     3
370
     9
100
AcDbLine
 10
-770.0865462019635
 20
271.0898239548143
 30
0.0
 11
-711.9201247756544
 21
289.4226404138516
 31
0.0
  0
LINE
  5
3FB
330
1F
100
AcDbEntity
  8
A-2_蓋
  6
Continuous
 62
     3
370
     9
100
AcDbLine
 10
-711.2532744536529
 20
271.0898239548143
 30
0.0
 11
-653.0868530273438
 21
289.4226404138516
 31
0.0
  0
LINE
  5
3FC
330
1F
100
AcDbEntity
  8
A-2_蓋
  6
Continuous
 62
     3
370
     9
100
AcDbLine
 10
-652.4200027053419
 20
271.0898239548143
 30
0.0
 11
-594.2535812790328
 21
289.4226404138516
 31
0.0
  0
LINE
  5
3FD
330
1F
100
AcDbEntity
  8
A-2_蓋
  6
Continuous
 62
     3
370
     9
100
AcDbLine
 10
-593.5867309570312
 20
271.0898239548143
 30
0.0
 11
-535.4203095307221
 21
289.4226404138516
 31
0.0
  0
LINE
  5
3FE
330
1F
100
AcDbEntity
  8
A-2_蓋
  6
Continuous
 62
     3
370
     9
100
AcDbLine
 10
-534.7534592087203
 20
271.0898239548143
 30
0.0
 11
-476.5870377824112
 21
289.4226404138516
 31
0.0
  0
LINE
  5
3FF
330
1F
100
AcDbEntity
  8
A-2_蓋
  6
Continuous
 62
     3
370
     9
100
AcDbLine
 10
-475.919940020587
 20
271.0898239548143
 30
0.0
 11
-417.7536423141891
 21
289.4226404138516
 31
0.0
  0
LINE
  5
400
330
1F
100
AcDbEntity
  8
A-2_蓋
  6
Continuous
 62
     3
370
     9
100
AcDbLine
 10
-417.0867919921875
 20
271.0898239548143
 30
0.0
 11
-358.9203705658784
 21
289.4226404138516
 31
0.0
  0
LINE
  5
401
330
1F
100
AcDbEntity
  8
A-2_蓋
  6
Continuous
 62
     3
370
     9
100
AcDbLine
 10
-358.2535202438766
 20
271.0898239548143
 30
0.0
 11
-300.0870988175674
 21
289.4226404138516
 31
0.0
  0
LINE
  5
402
330
1F
100
AcDbEntity
  8
A-2_蓋
  6
Continuous
 62
     3
370
     9
100
AcDbLine
 10
-299.4202484955659
 20
271.0898239548143
 30
0.0
 11
-241.253950789168
 21
289.4226404138516
 31
0.0
  0
LINE
  5
403
330
1F
100
AcDbEntity
  8
A-2_蓋
  6
Continuous
 62
     3
370
     9
100
AcDbLine
 10
-240.5867293074323
 20
271.0898239548143
 30
0.0
 11
-182.4200604413005
 21
289.4226404138516
 31
0.0
  0
LINE
  5
404
330
1F
100
AcDbEntity
  8
A-2_蓋
  6
Continuous
 62
     3
370
     9
100
AcDbLine
 10
-181.7537049989443
 20
271.0898239548143
 30
0.0
 11
-123.5872835726352
 21
289.4226404138516
 31
0.0
  0
LINE
  5
405
330
1F
100
AcDbEntity
  8
A-2_蓋
  6
Continuous
 62
     3
370
     9
100
AcDbLine
 10
-122.9204332506333
 20
271.0898239548143
 30
0.0
 11
-64.75401182432421
 21
289.4226404138516
 31
0.0
  0
LINE
  5
406
330
1F
100
AcDbEntity
  8
A-2_蓋
  6
Continuous
 62
     3
370
     9
100
AcDbLine
 10
-64.08666662267734
 20
271.0898239548143
 30
0.0
 11
-5.920245196368228
 21
289.4226404138516
 31
0.0
  0
LINE
  5
407
330
1F
100
AcDbEntity
  8
A-2_蓋
  6
Continuous
 62
     3
370
     9
100
AcDbLine
 10
-5.253147434543735
 20
271.0898239548143
 30
0.0
 11
52.91302655194272
 21
289.4226404138516
 31
0.0
  0
LINE
  5
408
330
1F
100
AcDbEntity
  8
A-2_蓋
  6
Continuous
 62
     3
370
     9
100
AcDbLine
 10
53.57962943412161
 20
271.0898239548143
 30
0.0
 11
111.7460508604307
 21
289.4226404138516
 31
0.0
  0
LINE
  5
409
330
1F
100
AcDbEntity
  8
A-2_蓋
  6
Continuous
 62
     3
370
     9
100
AcDbLine
 10
112.4129011824326
 20
271.0898239548143
 30
0.0
 11
170.5795700485643
 21
289.4226404138516
 31
0.0
  0
LINE
  5
40A
330
1F
100
AcDbEntity
  8
A-2_蓋
  6
Continuous
 62
     3
370
     9
100
AcDbLine
 10
-1487.753955737965
 20
285.9556373389992
 30
0.0
 11
-1476.753276103252
 21
289.4226404138516
 31
0.0
  0
LINE
  5
40B
330
1F
100
AcDbEntity
  8
A-2_蓋
  6
Continuous
 62
     3
370
     9
100
AcDbLine
 10
1234.296891495989
 20
280.2562321843328
 30
0.0
 11
1224.868691934122
 21
270.8281563423776
 31
0.0
  0
LINE
  5
40C
330
1F
100
AcDbEntity
  8
A-2_蓋
  6
Continuous
 62
     3
370
     9
100
AcDbLine
 10
1224.868691934122
 20
270.8281563423776
 30
0.0
 11
1215.440739812078
 21
280.2562321843328
 31
0.0
  0
LINE
  5
40D
330
1F
100
AcDbEntity
  8
A-2_蓋
  6
Continuous
 62
     3
370
     9
100
AcDbLine
 10
1215.440739812078
 20
280.2562321843328
 30
0.0
 11
1224.868691934122
 21
289.6840605864654
 31
0.0
  0
LINE
  5
40E
330
1F
100
AcDbEntity
  8
A-2_蓋
  6
Continuous
 62
     3
370
     9
100
AcDbLine
 10
1224.868691934122
 20
289.6840605864654
 30
0.0
 11
1234.296891495989
 21
280.2562321843328
 31
0.0
  0
LINE
  5
40F
330
1F
100
AcDbEntity
  8
A-2_蓋
  6
Continuous
 62
     3
370
     9
100
AcDbLine
 10
-1487.753955737965
 20
122.7559600005279
 30
0.0
 11
170.579817488387
 21
122.7559600005279
 31
0.0
  0
LINE
  5
410
330
1F
100
AcDbEntity
  8
A-2_蓋
  6
Continuous
 62
     3
370
     9
100
AcDbLine
 10
-1487.753955737965
 20
104.4231435414909
 30
0.0
 11
170.579817488387
 21
104.4231435414909
 31
0.0
  0
LINE
  5
411
330
1F
100
AcDbEntity
  8
A-2_蓋
  6
Continuous
 62
     3
370
     9
100
AcDbLine
 10
-1476.08642578125
 20
104.4231435414909
 30
0.0
 11
-1417.920004354941
 21
122.7559600005279
 31
0.0
  0
LINE
  5
412
330
1F
100
AcDbEntity
  8
A-2_蓋
  6
Continuous
 62
     3
370
     9
100
AcDbLine
 10
-1417.253401472762
 20
104.4231435414909
 30
0.0
 11
-1359.086980046452
 21
122.7559600005279
 31
0.0
  0
LINE
  5
413
330
1F
100
AcDbEntity
  8
A-2_蓋
  6
Continuous
 62
     3
370
     9
100
AcDbLine
 10
-1358.419634844806
 20
104.4231435414909
 30
0.0
 11
-1300.253460858319
 21
122.7559600005279
 31
0.0
  0
LINE
  5
414
330
1F
100
AcDbEntity
  8
A-2_蓋
  6
Continuous
 62
     3
370
     9
100
AcDbLine
 10
-1299.586363096495
 20
104.4231435414909
 30
0.0
 11
-1241.420189110009
 21
122.7559600005279
 31
0.0
  0
LINE
  5
415
330
1F
100
AcDbEntity
  8
A-2_蓋
  6
Continuous
 62
     3
370
     9
100
AcDbLine
 10
-1240.753338788007
 20
104.4231435414909
 30
0.0
 11
-1182.586793641786
 21
122.7559600005279
 31
0.0
  0
LINE
  5
416
330
1F
100
AcDbEntity
  8
A-2_蓋
  6
Continuous
 62
     3
370
     9
100
AcDbLine
 10
-1181.919943319785
 20
104.4231435414909
 30
0.0
 11
-1123.753398173564
 21
122.7559600005279
 31
0.0
  0
LINE
  5
417
330
1F
100
AcDbEntity
  8
A-2_蓋
  6
Continuous
 62
     3
370
     9
100
AcDbLine
 10
-1123.086547851562
 20
104.4231435414909
 30
0.0
 11
-1064.920126425253
 21
122.7559600005279
 31
0.0
  0
LINE
  5
418
330
1F
100
AcDbEntity
  8
A-2_蓋
  6
Continuous
 62
     3
370
     9
100
AcDbLine
 10
-1064.253276103252
 20
104.4231435414909
 30
0.0
 11
-1006.086730957031
 21
122.7559600005279
 31
0.0
  0
LINE
  5
419
330
1F
100
AcDbEntity
  8
A-2_蓋
  6
Continuous
 62
     3
370
     9
100
AcDbLine
 10
-1005.41988063503
 20
104.4231435414909
 30
0.0
 11
-947.2534592087204
 21
122.7559600005279
 31
0.0
  0
LINE
  5
41A
330
1F
100
AcDbEntity
  8
A-2_蓋
  6
Continuous
 62
     3
370
     9
100
AcDbLine
 10
-946.5862377269848
 20
104.4231435414909
 30
0.0
 11
-888.419940020587
 21
122.7559600005279
 31
0.0
  0
LINE
  5
41B
330
1F
100
AcDbEntity
  8
A-2_蓋
  6
Continuous
 62
     3
370
     9
100
AcDbLine
 10
-887.7530896985853
 20
104.4231435414909
 30
0.0
 11
-829.5869157120987
 21
122.7559600005279
 31
0.0
  0
LINE
  5
41C
330
1F
100
AcDbEntity
  8
A-2_蓋
  6
Continuous
 62
     3
370
     9
100
AcDbLine
 10
-828.920065390097
 20
104.4231435414909
 30
0.0
 11
-770.753643963788
 21
122.7559600005279
 31
0.0
  0
LINE
  5
41D
330
1F
100
AcDbEntity
  8
A-2_蓋
  6
Continuous
 62
     3
370
     9
100
AcDbLine
 10
-770.0865462019635
 20
104.4231435414909
 30
0.0
 11
-711.9201247756544
 21
122.7559600005279
 31
0.0
  0
LINE
  5
41E
330
1F
100
AcDbEntity
  8
A-2_蓋
  6
Continuous
 62
     3
370
     9
100
AcDbLine
 10
-711.2532744536529
 20
104.4231435414909
 30
0.0
 11
-653.0868530273438
 21
122.7559600005279
 31
0.0
  0
LINE
  5
41F
330
1F
100
AcDbEntity
  8
A-2_蓋
  6
Continuous
 62
     3
370
     9
100
AcDbLine
 10
-652.4200027053419
 20
104.4231435414909
 30
0.0
 11
-594.2535812790328
 21
122.7559600005279
 31
0.0
  0
LINE
  5
420
330
1F
100
AcDbEntity
  8
A-2_蓋
  6
Continuous
 62
     3
370
     9
100
AcDbLine
 10
-593.5867309570312
 20
104.4231435414909
 30
0.0
 11
-535.4203095307221
 21
122.7559600005279
 31
0.0
  0
LINE
  5
421
330
1F
100
AcDbEntity
  8
A-2_蓋
  6
Continuous
 62
     3
370
     9
100
AcDbLine
 10
-534.7534592087203
 20
104.4231435414909
 30
0.0
 11
-476.5870377824112
 21
122.7559600005279
 31
0.0
  0
LINE
  5
422
330
1F
100
AcDbEntity
  8
A-2_蓋
  6
Continuous
 62
     3
370
     9
100
AcDbLine
 10
-475.919940020587
 20
104.4231435414909
 30
0.0
 11
-417.7536423141891
 21
122.7559600005279
 31
0.0
  0
LINE
  5
423
330
1F
100
AcDbEntity
  8
A-2_蓋
  6
Continuous
 62
     3
370
     9
100
AcDbLine
 10
-417.0867919921875
 20
104.4231435414909
 30
0.0
 11
-358.9203705658784
 21
122.7559600005279
 31
0.0
  0
LINE
  5
424
330
1F
100
AcDbEntity
  8
A-2_蓋
  6
Continuous
 62
     3
370
     9
100
AcDbLine
 10
-358.2535202438766
 20
104.4231435414909
 30
0.0
 11
-300.0870988175674
 21
122.7559600005279
 31
0.0
  0
LINE
  5
425
330
1F
100
AcDbEntity
  8
A-2_蓋
  6
Continuous
 62
     3
370
     9
100
AcDbLine
 10
-299.4202484955659
 20
104.4231435414909
 30
0.0
 11
-241.253950789168
 21
122.7559600005279
 31
0.0
  0
LINE
  5
426
330
1F
100
AcDbEntity
  8
A-2_蓋
  6
Continuous
 62
     3
370
     9
100
AcDbLine
 10
-240.5867293074323
 20
104.4231435414909
 30
0.0
 11
-182.4200604413005
 21
122.7559600005279
 31
0.0
  0
LINE
  5
427
330
1F
100
AcDbEntity
  8
A-2_蓋
  6
Continuous
 62
     3
370
     9
100
AcDbLine
 10
-181.7537049989443
 20
104.4231435414909
 30
0.0
 11
-123.5872835726352
 21
122.7559600005279
 31
0.0
  0
LINE
  5
428
330
1F
100
AcDbEntity
  8
A-2_蓋
  6
Continuous
 62
     3
370
     9
100
AcDbLine
 10
-122.9204332506333
 20
104.4231435414909
 30
0.0
 11
-64.75401182432421
 21
122.7559600005279
 31
0.0
  0
LINE
  5
429
330
1F
100
AcDbEntity
  8
A-2_蓋
  6
Continuous
 62
     3
370
     9
100
AcDbLine
 10
-64.08666662267734
 20
104.4231435414909
 30
0.0
 11
-5.920245196368228
 21
122.7559600005279
 31
0.0
  0
LINE
  5
42A
330
1F
100
AcDbEntity
  8
A-2_蓋
  6
Continuous
 62
     3
370
     9
100
AcDbLine
 10
-5.253147434543735
 20
104.4231435414909
 30
0.0
 11
52.91302655194272
 21
122.7559600005279
 31
0.0
  0
LINE
  5
42B
330
1F
100
AcDbEntity
  8
A-2_蓋
  6
Continuous
 62
     3
370
     9
100
AcDbLine
 10
53.57962943412161
 20
104.4231435414909
 30
0.0
 11
111.7460508604307
 21
122.7559600005279
 31
0.0
  0
LINE
  5
42C
330
1F
100
AcDbEntity
  8
A-2_蓋
  6
Continuous
 62
     3
370
     9
100
AcDbLine
 10
112.4129011824326
 20
104.4231435414909
 30
0.0
 11
170.5795700485643
 21
122.7559600005279
 31
0.0
  0
LINE
  5
42D
330
1F
100
AcDbEntity
  8
A-2_蓋
  6
Continuous
 62
     3
370
     9
100
AcDbLine
 10
-1487.753955737965
 20
119.2889569256758
 30
0.0
 11
-1476.753276103252
 21
122.7559600005279
 31
0.0
  0
LINE
  5
42E
330
1F
100
AcDbEntity
  8
A-2_蓋
  6
Continuous
 62
     3
370
     9
100
AcDbLine
 10
1234.296891495989
 20
113.5895517710094
 30
0.0
 11
1224.868691934122
 21
104.1614759290542
 31
0.0
  0
LINE
  5
42F
330
1F
100
AcDbEntity
  8
A-2_蓋
  6
Continuous
 62
     3
370
     9
100
AcDbLine
 10
1224.868691934122
 20
104.1614759290542
 30
0.0
 11
1215.440739812078
 21
113.5895517710094
 31
0.0
  0
LINE
  5
430
330
1F
100
AcDbEntity
  8
A-2_蓋
  6
Continuous
 62
     3
370
     9
100
AcDbLine
 10
1215.440739812078
 20
113.5895517710094
 30
0.0
 11
1224.868691934122
 21
123.0173801731419
 31
0.0
  0
LINE
  5
431
330
1F
100
AcDbEntity
  8
A-2_蓋
  6
Continuous
 62
     3
370
     9
100
AcDbLine
 10
1224.868691934122
 20
123.0173801731419
 30
0.0
 11
1234.296891495989
 21
113.5895517710094
 31
0.0
  0
LINE
  5
432
330
1F
100
AcDbEntity
  8
A-2_蓋
  6
Continuous
 62
     3
370
     9
100
AcDbLine
 10
-1476.08642578125
 20
289.4226404138516
 30
0.0
 11
-1476.08642578125
 21
437.7565043681378
 31
0.0
  0
LINE
  5
433
330
1F
100
AcDbEntity
  8
A-2_蓋
  6
Continuous
 62
     3
370
     9
100
AcDbLine
 10
158.9137721706084
 20
437.7565043681378
 30
0.0
 11
158.9137721706084
 21
289.4226404138516
 31
0.0
  0
LINE
  5
434
330
1F
100
AcDbEntity
  8
A-2_蓋
  6
Continuous
 62
     3
370
     9
100
AcDbLine
 10
100.0800055426521
 20
437.7565043681378
 30
0.0
 11
100.0800055426521
 21
289.4226404138516
 31
0.0
  0
LINE
  5
435
330
1F
100
AcDbEntity
  8
A-2_蓋
  6
Continuous
 62
     3
370
     9
100
AcDbLine
 10
111.7467931798987
 20
437.7565043681378
 30
0.0
 11
111.7467931798987
 21
289.4226404138516
 31
0.0
  0
LINE
  5
436
330
1F
100
AcDbEntity
  8
A-2_蓋
  6
Continuous
 62
     3
370
     9
100
AcDbLine
 10
41.24623891469611
 20
437.7565043681378
 30
0.0
 11
41.24623891469611
 21
289.4226404138516
 31
0.0
  0
LINE
  5
437
330
1F
100
AcDbEntity
  8
A-2_蓋
  6
Continuous
 62
     3
370
     9
100
AcDbLine
 10
52.91302655194272
 20
437.7565043681378
 30
0.0
 11
52.91302655194272
 21
289.4226404138516
 31
0.0
  0
LINE
  5
438
330
1F
100
AcDbEntity
  8
A-2_蓋
  6
Continuous
 62
     3
370
     9
100
AcDbLine
 10
-17.58653795396953
 20
437.7565043681378
 30
0.0
 11
-17.58653795396953
 21
289.4226404138516
 31
0.0
  0
LINE
  5
439
330
1F
100
AcDbEntity
  8
A-2_蓋
  6
Continuous
 62
     3
370
     9
100
AcDbLine
 10
-5.919750316722912
 20
437.7565043681378
 30
0.0
 11
-5.919750316722912
 21
289.4226404138516
 31
0.0
  0
LINE
  5
43A
330
1F
100
AcDbEntity
  8
A-2_蓋
  6
Continuous
 62
     3
370
     9
100
AcDbLine
 10
-76.4203045819255
 20
437.7565043681378
 30
0.0
 11
-76.4203045819255
 21
289.4226404138516
 31
0.0
  0
LINE
  5
43B
330
1F
100
AcDbEntity
  8
A-2_蓋
  6
Continuous
 62
     3
370
     9
100
AcDbLine
 10
-64.75351694467889
 20
437.7565043681378
 30
0.0
 11
-64.75351694467889
 21
289.4226404138516
 31
0.0
  0
LINE
  5
43C
330
1F
100
AcDbEntity
  8
A-2_蓋
  6
Continuous
 62
     3
370
     9
100
AcDbLine
 10
-135.2538237700591
 20
437.7565043681378
 30
0.0
 11
-135.2538237700591
 21
289.4226404138516
 31
0.0
  0
LINE
  5
43D
330
1F
100
AcDbEntity
  8
A-2_蓋
  6
Continuous
 62
     3
370
     9
100
AcDbLine
 10
-123.5872835726352
 20
437.7565043681378
 30
0.0
 11
-123.5872835726352
 21
289.4226404138516
 31
0.0
  0
LINE
  5
43E
330
1F
100
AcDbEntity
  8
A-2_蓋
  6
Continuous
 62
     3
370
     9
100
AcDbLine
 10
-194.0866006387245
 20
437.7565043681378
 30
0.0
 11
-194.0866006387245
 21
289.4226404138516
 31
0.0
  0
LINE
  5
43F
330
1F
100
AcDbEntity
  8
A-2_蓋
  6
Continuous
 62
     3
370
     9
100
AcDbLine
 10
-182.4200604413005
 20
437.7565043681378
 30
0.0
 11
-182.4200604413005
 21
289.4226404138516
 31
0.0
  0
LINE
  5
440
330
1F
100
AcDbEntity
  8
A-2_蓋
  6
Continuous
 62
     3
370
     9
100
AcDbLine
 10
-252.9203672666807
 20
437.7565043681378
 30
0.0
 11
-252.9203672666807
 21
289.4226404138516
 31
0.0
  0
LINE
  5
441
330
1F
100
AcDbEntity
  8
A-2_蓋
  6
Continuous
 62
     3
370
     9
100
AcDbLine
 10
-241.2535796294341
 20
437.7565043681378
 30
0.0
 11
-241.2535796294341
 21
289.4226404138516
 31
0.0
  0
LINE
  5
442
330
1F
100
AcDbEntity
  8
A-2_蓋
  6
Continuous
 62
     3
370
     9
100
AcDbLine
 10
-311.7538864548141
 20
437.7565043681378
 30
0.0
 11
-311.7538864548141
 21
289.4226404138516
 31
0.0
  0
LINE
  5
443
330
1F
100
AcDbEntity
  8
A-2_蓋
  6
Continuous
 62
     3
370
     9
100
AcDbLine
 10
-300.0870988175674
 20
437.7565043681378
 30
0.0
 11
-300.0870988175674
 21
289.4226404138516
 31
0.0
  0
LINE
  5
444
330
1F
100
AcDbEntity
  8
A-2_蓋
  6
Continuous
 62
     3
370
     9
100
AcDbLine
 10
-370.5866633234797
 20
437.7565043681378
 30
0.0
 11
-370.5866633234797
 21
289.4226404138516
 31
0.0
  0
LINE
  5
445
330
1F
100
AcDbEntity
  8
A-2_蓋
  6
Continuous
 62
     3
370
     9
100
AcDbLine
 10
-358.9198756862331
 20
437.7565043681378
 30
0.0
 11
-358.9198756862331
 21
289.4226404138516
 31
0.0
  0
LINE
  5
446
330
1F
100
AcDbEntity
  8
A-2_蓋
  6
Continuous
 62
     3
370
     9
100
AcDbLine
 10
-429.420182511613
 20
437.7565043681378
 30
0.0
 11
-429.420182511613
 21
289.4226404138516
 31
0.0
  0
LINE
  5
447
330
1F
100
AcDbEntity
  8
A-2_蓋
  6
Continuous
 62
     3
370
     9
100
AcDbLine
 10
-417.7536423141891
 20
437.7565043681378
 30
0.0
 11
-417.7536423141891
 21
289.4226404138516
 31
0.0
  0
LINE
  5
448
330
1F
100
AcDbEntity
  8
A-2_蓋
  6
Continuous
 62
     3
370
     9
100
AcDbLine
 10
-488.2538254196578
 20
437.7565043681378
 30
0.0
 11
-488.2538254196578
 21
289.4226404138516
 31
0.0
  0
LINE
  5
449
330
1F
100
AcDbEntity
  8
A-2_蓋
  6
Continuous
 62
     3
370
     9
100
AcDbLine
 10
-476.5870377824112
 20
437.7565043681378
 30
0.0
 11
-476.5870377824112
 21
289.4226404138516
 31
0.0
  0
LINE
  5
44A
330
1F
100
AcDbEntity
  8
A-2_蓋
  6
Continuous
 62
     3
370
     9
100
AcDbLine
 10
-547.0866022883234
 20
437.7565043681378
 30
0.0
 11
-547.0866022883234
 21
289.4226404138516
 31
0.0
  0
LINE
  5
44B
330
1F
100
AcDbEntity
  8
A-2_蓋
  6
Continuous
 62
     3
370
     9
100
AcDbLine
 10
-535.419938370988
 20
437.7565043681378
 30
0.0
 11
-535.419938370988
 21
289.4226404138516
 31
0.0
  0
LINE
  5
44C
330
1F
100
AcDbEntity
  8
A-2_蓋
  6
Continuous
 62
     3
370
     9
100
AcDbLine
 10
-605.9201214764568
 20
437.7565043681378
 30
0.0
 11
-605.9201214764568
 21
289.4226404138516
 31
0.0
  0
LINE
  5
44D
330
1F
100
AcDbEntity
  8
A-2_蓋
  6
Continuous
 62
     3
370
     9
100
AcDbLine
 10
-594.2535812790328
 20
437.7565043681378
 30
0.0
 11
-594.2535812790328
 21
289.4226404138516
 31
0.0
  0
LINE
  5
44E
330
1F
100
AcDbEntity
  8
A-2_蓋
  6
Continuous
 62
     3
370
     9
100
AcDbLine
 10
-664.7528983451224
 20
437.7565043681378
 30
0.0
 11
-664.7528983451224
 21
289.4226404138516
 31
0.0
  0
LINE
  5
44F
330
1F
100
AcDbEntity
  8
A-2_蓋
  6
Continuous
 62
     3
370
     9
100
AcDbLine
 10
-653.0863581476984
 20
437.7565043681378
 30
0.0
 11
-653.0863581476984
 21
289.4226404138516
 31
0.0
  0
LINE
  5
450
330
1F
100
AcDbEntity
  8
A-2_蓋
  6
Continuous
 62
     3
370
     9
100
AcDbLine
 10
-723.5866649730783
 20
437.7565043681378
 30
0.0
 11
-723.5866649730783
 21
289.4226404138516
 31
0.0
  0
LINE
  5
451
330
1F
100
AcDbEntity
  8
A-2_蓋
  6
Continuous
 62
     3
370
     9
100
AcDbLine
 10
-711.9198773358318
 20
437.7565043681378
 30
0.0
 11
-711.9198773358318
 21
289.4226404138516
 31
0.0
  0
LINE
  5
452
330
1F
100
AcDbEntity
  8
A-2_蓋
  6
Continuous
 62
     3
370
     9
100
AcDbLine
 10
-782.420184161212
 20
437.7565043681378
 30
0.0
 11
-782.420184161212
 21
289.4226404138516
 31
0.0
  0
LINE
  5
453
330
1F
100
AcDbEntity
  8
A-2_蓋
  6
Continuous
 62
     3
370
     9
100
AcDbLine
 10
-770.753643963788
 20
437.7565043681378
 30
0.0
 11
-770.753643963788
 21
289.4226404138516
 31
0.0
  0
LINE
  5
454
330
1F
100
AcDbEntity
  8
A-2_蓋
  6
Continuous
 62
     3
370
     9
100
AcDbLine
 10
-841.2529610298775
 20
437.7565043681378
 30
0.0
 11
-841.2529610298775
 21
289.4226404138516
 31
0.0
  0
LINE
  5
455
330
1F
100
AcDbEntity
  8
A-2_蓋
  6
Continuous
 62
     3
370
     9
100
AcDbLine
 10
-829.5864208324535
 20
437.7565043681378
 30
0.0
 11
-829.5864208324535
 21
289.4226404138516
 31
0.0
  0
LINE
  5
456
330
1F
100
AcDbEntity
  8
A-2_蓋
  6
Continuous
 62
     3
370
     9
100
AcDbLine
 10
-900.0867276578335
 20
437.7565043681378
 30
0.0
 11
-900.0867276578335
 21
289.4226404138516
 31
0.0
  0
LINE
  5
457
330
1F
100
AcDbEntity
  8
A-2_蓋
  6
Continuous
 62
     3
370
     9
100
AcDbLine
 10
-888.419940020587
 20
437.7565043681378
 30
0.0
 11
-888.419940020587
 21
289.4226404138516
 31
0.0
  0
LINE
  5
458
330
1F
100
AcDbEntity
  8
A-2_蓋
  6
Continuous
 62
     3
370
     9
100
AcDbLine
 10
-958.919504526499
 20
437.7565043681378
 30
0.0
 11
-958.919504526499
 21
289.4226404138516
 31
0.0
  0
LINE
  5
459
330
1F
100
AcDbEntity
  8
A-2_蓋
  6
Continuous
 62
     3
370
     9
100
AcDbLine
 10
-947.2527168892525
 20
437.7565043681378
 30
0.0
 11
-947.2527168892525
 21
289.4226404138516
 31
0.0
  0
LINE
  5
45A
330
1F
100
AcDbEntity
  8
A-2_蓋
  6
Continuous
 62
     3
370
     9
100
AcDbLine
 10
-1017.752899994721
 20
437.7565043681378
 30
0.0
 11
-1017.752899994721
 21
289.4226404138516
 31
0.0
  0
LINE
  5
45B
330
1F
100
AcDbEntity
  8
A-2_蓋
  6
Continuous
 62
     3
370
     9
100
AcDbLine
 10
-1006.086483517209
 20
437.7565043681378
 30
0.0
 11
-1006.086483517209
 21
289.4226404138516
 31
0.0
  0
LINE
  5
45C
330
1F
100
AcDbEntity
  8
A-2_蓋
  6
Continuous
 62
     3
370
     9
100
AcDbLine
 10
-1076.586666622677
 20
437.7565043681378
 30
0.0
 11
-1076.586666622677
 21
289.4226404138516
 31
0.0
  0
LINE
  5
45D
330
1F
100
AcDbEntity
  8
A-2_蓋
  6
Continuous
 62
     3
370
     9
100
AcDbLine
 10
-1064.920126425253
 20
437.7565043681378
 30
0.0
 11
-1064.920126425253
 21
289.4226404138516
 31
0.0
  0
LINE
  5
45E
330
1F
100
AcDbEntity
  8
A-2_蓋
  6
Continuous
 62
     3
370
     9
100
AcDbLine
 10
-1135.419443491343
 20
437.7565043681378
 30
0.0
 11
-1135.419443491343
 21
289.4226404138516
 31
0.0
  0
LINE
  5
45F
330
1F
100
AcDbEntity
  8
A-2_蓋
  6
Continuous
 62
     3
370
     9
100
AcDbLine
 10
-1123.752779574007
 20
437.7565043681378
 30
0.0
 11
-1123.752779574007
 21
289.4226404138516
 31
0.0
  0
LINE
  5
460
330
1F
100
AcDbEntity
  8
A-2_蓋
  6
Continuous
 62
     3
370
     9
100
AcDbLine
 10
-1194.253210119299
 20
437.7565043681378
 30
0.0
 11
-1194.253210119299
 21
289.4226404138516
 31
0.0
  0
LINE
  5
461
330
1F
100
AcDbEntity
  8
A-2_蓋
  6
Continuous
 62
     3
370
     9
100
AcDbLine
 10
-1182.586422482052
 20
437.7565043681378
 30
0.0
 11
-1182.586422482052
 21
289.4226404138516
 31
0.0
  0
LINE
  5
462
330
1F
100
AcDbEntity
  8
A-2_蓋
  6
Continuous
 62
     3
370
     9
100
AcDbLine
 10
-1253.086729307433
 20
437.7565043681378
 30
0.0
 11
-1253.086729307433
 21
289.4226404138516
 31
0.0
  0
LINE
  5
463
330
1F
100
AcDbEntity
  8
A-2_蓋
  6
Continuous
 62
     3
370
     9
100
AcDbLine
 10
-1241.420189110009
 20
437.7565043681378
 30
0.0
 11
-1241.420189110009
 21
289.4226404138516
 31
0.0
  0
LINE
  5
464
330
1F
100
AcDbEntity
  8
A-2_蓋
  6
Continuous
 62
     3
370
     9
100
AcDbLine
 10
-1311.919506176098
 20
437.7565043681378
 30
0.0
 11
-1311.919506176098
 21
289.4226404138516
 31
0.0
  0
LINE
  5
465
330
1F
100
AcDbEntity
  8
A-2_蓋
  6
Continuous
 62
     3
370
     9
100
AcDbLine
 10
-1300.252842258762
 20
437.7565043681378
 30
0.0
 11
-1300.252842258762
 21
289.4226404138516
 31
0.0
  0
LINE
  5
466
330
1F
100
AcDbEntity
  8
A-2_蓋
  6
Continuous
 62
     3
370
     9
100
AcDbLine
 10
-1370.753025364231
 20
437.7565043681378
 30
0.0
 11
-1370.753025364231
 21
289.4226404138516
 31
0.0
  0
LINE
  5
467
330
1F
100
AcDbEntity
  8
A-2_蓋
  6
Continuous
 62
     3
370
     9
100
AcDbLine
 10
-1359.086485166807
 20
437.7565043681378
 30
0.0
 11
-1359.086485166807
 21
289.4226404138516
 31
0.0
  0
LINE
  5
468
330
1F
100
AcDbEntity
  8
A-2_蓋
  6
Continuous
 62
     3
370
     9
100
AcDbLine
 10
-1429.586791992188
 20
437.7565043681378
 30
0.0
 11
-1429.586791992188
 21
289.4226404138516
 31
0.0
  0
LINE
  5
469
330
1F
100
AcDbEntity
  8
A-2_蓋
  6
Continuous
 62
     3
370
     9
100
AcDbLine
 10
-1417.920004354941
 20
437.7565043681378
 30
0.0
 11
-1417.920004354941
 21
289.4226404138516
 31
0.0
  0
LINE
  5
46A
330
1F
100
AcDbEntity
  8
A-2_蓋
  6
Continuous
 62
     3
370
     9
100
AcDbLine
 10
-1476.08642578125
 20
-43.91158645217473
 30
0.0
 11
-1476.08642578125
 21
104.4231435414909
 31
0.0
  0
LINE
  5
46B
330
1F
100
AcDbEntity
  8
A-2_蓋
  6
Continuous
 62
     3
370
     9
100
AcDbLine
 10
-1476.08642578125
 20
122.7559600005279
 30
0.0
 11
-1476.08642578125
 21
271.0898239548143
 31
0.0
  0
LINE
  5
46C
330
1F
100
AcDbEntity
  8
A-2_蓋
  6
Continuous
 62
     3
370
     9
100
AcDbLine
 10
158.9137721706084
 20
271.0898239548143
 30
0.0
 11
158.9137721706084
 21
122.7559600005279
 31
0.0
  0
LINE
  5
46D
330
1F
100
AcDbEntity
  8
A-2_蓋
  6
Continuous
 62
     3
370
     9
100
AcDbLine
 10
158.9137721706084
 20
104.4231435414909
 30
0.0
 11
158.9137721706084
 21
-43.91158645217473
 31
0.0
  0
LINE
  5
46E
330
1F
100
AcDbEntity
  8
A-2_蓋
  6
Continuous
 62
     3
370
     9
100
AcDbLine
 10
100.0800055426521
 20
271.0898239548143
 30
0.0
 11
100.0800055426521
 21
122.7559600005279
 31
0.0
  0
LINE
  5
46F
330
1F
100
AcDbEntity
  8
A-2_蓋
  6
Continuous
 62
     3
370
     9
100
AcDbLine
 10
100.0800055426521
 20
104.4231435414909
 30
0.0
 11
100.0800055426521
 21
-43.91158645217473
 31
0.0
  0
LINE
  5
470
330
1F
100
AcDbEntity
  8
A-2_蓋
  6
Continuous
 62
     3
370
     9
100
AcDbLine
 10
111.7467931798987
 20
271.0898239548143
 30
0.0
 11
111.7467931798987
 21
122.7559600005279
 31
0.0
  0
LINE
  5
471
330
1F
100
AcDbEntity
  8
A-2_蓋
  6
Continuous
 62
     3
370
     9
100
AcDbLine
 10
111.7467931798987
 20
104.4231435414909
 30
0.0
 11
111.7467931798987
 21
-43.91158645217473
 31
0.0
  0
LINE
  5
472
330
1F
100
AcDbEntity
  8
A-2_蓋
  6
Continuous
 62
     3
370
     9
100
AcDbLine
 10
41.24623891469611
 20
271.0898239548143
 30
0.0
 11
41.24623891469611
 21
122.7559600005279
 31
0.0
  0
LINE
  5
473
330
1F
100
AcDbEntity
  8
A-2_蓋
  6
Continuous
 62
     3
370
     9
100
AcDbLine
 10
41.24623891469611
 20
104.4231435414909
 30
0.0
 11
41.24623891469611
 21
-43.91158645217473
 31
0.0
  0
LINE
  5
474
330
1F
100
AcDbEntity
  8
A-2_蓋
  6
Continuous
 62
     3
370
     9
100
AcDbLine
 10
52.91302655194272
 20
271.0898239548143
 30
0.0
 11
52.91302655194272
 21
122.7559600005279
 31
0.0
  0
LINE
  5
475
330
1F
100
AcDbEntity
  8
A-2_蓋
  6
Continuous
 62
     3
370
     9
100
AcDbLine
 10
52.91302655194272
 20
104.4231435414909
 30
0.0
 11
52.91302655194272
 21
-43.91158645217473
 31
0.0
  0
LINE
  5
476
330
1F
100
AcDbEntity
  8
A-2_蓋
  6
Continuous
 62
     3
370
     9
100
AcDbLine
 10
-17.58653795396953
 20
271.0898239548143
 30
0.0
 11
-17.58653795396953
 21
122.7559600005279
 31
0.0
  0
LINE
  5
477
330
1F
100
AcDbEntity
  8
A-2_蓋
  6
Continuous
 62
     3
370
     9
100
AcDbLine
 10
-17.58653795396953
 20
104.4231435414909
 30
0.0
 11
-17.58653795396953
 21
-43.91158645217473
 31
0.0
  0
LINE
  5
478
330
1F
100
AcDbEntity
  8
A-2_蓋
  6
Continuous
 62
     3
370
     9
100
AcDbLine
 10
-5.919750316722912
 20
271.0898239548143
 30
0.0
 11
-5.919750316722912
 21
122.7559600005279
 31
0.0
  0
LINE
  5
479
330
1F
100
AcDbEntity
  8
A-2_蓋
  6
Continuous
 62
     3
370
     9
100
AcDbLine
 10
-5.919750316722912
 20
104.4231435414909
 30
0.0
 11
-5.919750316722912
 21
-43.91158645217473
 31
0.0
  0
LINE
  5
47A
330
1F
100
AcDbEntity
  8
A-2_蓋
  6
Continuous
 62
     3
370
     9
100
AcDbLine
 10
-76.4203045819255
 20
271.0898239548143
 30
0.0
 11
-76.4203045819255
 21
122.7559600005279
 31
0.0
  0
LINE
  5
47B
330
1F
100
AcDbEntity
  8
A-2_蓋
  6
Continuous
 62
     3
370
     9
100
AcDbLine
 10
-76.4203045819255
 20
104.4231435414909
 30
0.0
 11
-76.4203045819255
 21
-43.91158645217473
 31
0.0
  0
LINE
  5
47C
330
1F
100
AcDbEntity
  8
A-2_蓋
  6
Continuous
 62
     3
370
     9
100
AcDbLine
 10
-64.75351694467889
 20
271.0898239548143
 30
0.0
 11
-64.75351694467889
 21
122.7559600005279
 31
0.0
  0
LINE
  5
47D
330
1F
100
AcDbEntity
  8
A-2_蓋
  6
Continuous
 62
     3
370
     9
100
AcDbLine
 10
-64.75351694467889
 20
104.4231435414909
 30
0.0
 11
-64.75351694467889
 21
-43.91158645217473
 31
0.0
  0
LINE
  5
47E
330
1F
100
AcDbEntity
  8
A-2_蓋
  6
Continuous
 62
     3
370
     9
100
AcDbLine
 10
-135.2538237700591
 20
271.0898239548143
 30
0.0
 11
-135.2538237700591
 21
122.7559600005279
 31
0.0
  0
LINE
  5
47F
330
1F
100
AcDbEntity
  8
A-2_蓋
  6
Continuous
 62
     3
370
     9
100
AcDbLine
 10
-135.2538237700591
 20
104.4231435414909
 30
0.0
 11
-135.2538237700591
 21
-43.91158645217473
 31
0.0
  0
LINE
  5
480
330
1F
100
AcDbEntity
  8
A-2_蓋
  6
Continuous
 62
     3
370
     9
100
AcDbLine
 10
-123.5872835726352
 20
271.0898239548143
 30
0.0
 11
-123.5872835726352
 21
122.7559600005279
 31
0.0
  0
LINE
  5
481
330
1F
100
AcDbEntity
  8
A-2_蓋
  6
Continuous
 62
     3
370
     9
100
AcDbLine
 10
-123.5872835726352
 20
104.4231435414909
 30
0.0
 11
-123.5872835726352
 21
-43.91158645217473
 31
0.0
  0
LINE
  5
482
330
1F
100
AcDbEntity
  8
A-2_蓋
  6
Continuous
 62
     3
370
     9
100
AcDbLine
 10
-194.0866006387245
 20
271.0898239548143
 30
0.0
 11
-194.0866006387245
 21
122.7559600005279
 31
0.0
  0
LINE
  5
483
330
1F
100
AcDbEntity
  8
A-2_蓋
  6
Continuous
 62
     3
370
     9
100
AcDbLine
 10
-194.0866006387245
 20
104.4231435414909
 30
0.0
 11
-194.0866006387245
 21
-43.91158645217473
 31
0.0
  0
LINE
  5
484
330
1F
100
AcDbEntity
  8
A-2_蓋
  6
Continuous
 62
     3
370
     9
100
AcDbLine
 10
-182.4200604413005
 20
271.0898239548143
 30
0.0
 11
-182.4200604413005
 21
122.7559600005279
 31
0.0
  0
LINE
  5
485
330
1F
100
AcDbEntity
  8
A-2_蓋
  6
Continuous
 62
     3
370
     9
100
AcDbLine
 10
-182.4200604413005
 20
104.4231435414909
 30
0.0
 11
-182.4200604413005
 21
-43.91158645217473
 31
0.0
  0
LINE
  5
486
330
1F
100
AcDbEntity
  8
A-2_蓋
  6
Continuous
 62
     3
370
     9
100
AcDbLine
 10
-252.9203672666807
 20
271.0898239548143
 30
0.0
 11
-252.9203672666807
 21
122.7559600005279
 31
0.0
  0
LINE
  5
487
330
1F
100
AcDbEntity
  8
A-2_蓋
  6
Continuous
 62
     3
370
     9
100
AcDbLine
 10
-252.9203672666807
 20
104.4231435414909
 30
0.0
 11
-252.9203672666807
 21
-43.91158645217473
 31
0.0
  0
LINE
  5
488
330
1F
100
AcDbEntity
  8
A-2_蓋
  6
Continuous
 62
     3
370
     9
100
AcDbLine
 10
-241.2535796294341
 20
271.0898239548143
 30
0.0
 11
-241.2535796294341
 21
122.7559600005279
 31
0.0
  0
LINE
  5
489
330
1F
100
AcDbEntity
  8
A-2_蓋
  6
Continuous
 62
     3
370
     9
100
AcDbLine
 10
-241.2535796294341
 20
104.4231435414909
 30
0.0
 11
-241.2535796294341
 21
-43.91158645217473
 31
0.0
  0
LINE
  5
48A
330
1F
100
AcDbEntity
  8
A-2_蓋
  6
Continuous
 62
     3
370
     9
100
AcDbLine
 10
-311.7538864548141
 20
271.0898239548143
 30
0.0
 11
-311.7538864548141
 21
122.7559600005279
 31
0.0
  0
LINE
  5
48B
330
1F
100
AcDbEntity
  8
A-2_蓋
  6
Continuous
 62
     3
370
     9
100
AcDbLine
 10
-311.7538864548141
 20
104.4231435414909
 30
0.0
 11
-311.7538864548141
 21
-43.91158645217473
 31
0.0
  0
LINE
  5
48C
330
1F
100
AcDbEntity
  8
A-2_蓋
  6
Continuous
 62
     3
370
     9
100
AcDbLine
 10
-300.0870988175674
 20
271.0898239548143
 30
0.0
 11
-300.0870988175674
 21
122.7559600005279
 31
0.0
  0
LINE
  5
48D
330
1F
100
AcDbEntity
  8
A-2_蓋
  6
Continuous
 62
     3
370
     9
100
AcDbLine
 10
-300.0870988175674
 20
104.4231435414909
 30
0.0
 11
-300.0870988175674
 21
-43.91158645217473
 31
0.0
  0
LINE
  5
48E
330
1F
100
AcDbEntity
  8
A-2_蓋
  6
Continuous
 62
     3
370
     9
100
AcDbLine
 10
-370.5866633234797
 20
271.0898239548143
 30
0.0
 11
-370.5866633234797
 21
122.7559600005279
 31
0.0
  0
LINE
  5
48F
330
1F
100
AcDbEntity
  8
A-2_蓋
  6
Continuous
 62
     3
370
     9
100
AcDbLine
 10
-370.5866633234797
 20
104.4231435414909
 30
0.0
 11
-370.5866633234797
 21
-43.91158645217473
 31
0.0
  0
LINE
  5
490
330
1F
100
AcDbEntity
  8
A-2_蓋
  6
Continuous
 62
     3
370
     9
100
AcDbLine
 10
-358.9198756862331
 20
271.0898239548143
 30
0.0
 11
-358.9198756862331
 21
122.7559600005279
 31
0.0
  0
LINE
  5
491
330
1F
100
AcDbEntity
  8
A-2_蓋
  6
Continuous
 62
     3
370
     9
100
AcDbLine
 10
-358.9198756862331
 20
104.4231435414909
 30
0.0
 11
-358.9198756862331
 21
-43.91158645217473
 31
0.0
  0
LINE
  5
492
330
1F
100
AcDbEntity
  8
A-2_蓋
  6
Continuous
 62
     3
370
     9
100
AcDbLine
 10
-429.420182511613
 20
271.0898239548143
 30
0.0
 11
-429.420182511613
 21
122.7559600005279
 31
0.0
  0
LINE
  5
493
330
1F
100
AcDbEntity
  8
A-2_蓋
  6
Continuous
 62
     3
370
     9
100
AcDbLine
 10
-429.420182511613
 20
104.4231435414909
 30
0.0
 11
-429.420182511613
 21
-43.91158645217473
 31
0.0
  0
LINE
  5
494
330
1F
100
AcDbEntity
  8
A-2_蓋
  6
Continuous
 62
     3
370
     9
100
AcDbLine
 10
-417.7536423141891
 20
271.0898239548143
 30
0.0
 11
-417.7536423141891
 21
122.7559600005279
 31
0.0
  0
LINE
  5
495
330
1F
100
AcDbEntity
  8
A-2_蓋
  6
Continuous
 62
     3
370
     9
100
AcDbLine
 10
-417.7536423141891
 20
104.4231435414909
 30
0.0
 11
-417.7536423141891
 21
-43.91158645217473
 31
0.0
  0
LINE
  5
496
330
1F
100
AcDbEntity
  8
A-2_蓋
  6
Continuous
 62
     3
370
     9
100
AcDbLine
 10
-488.2538254196578
 20
271.0898239548143
 30
0.0
 11
-488.2538254196578
 21
122.7559600005279
 31
0.0
  0
LINE
  5
497
330
1F
100
AcDbEntity
  8
A-2_蓋
  6
Continuous
 62
     3
370
     9
100
AcDbLine
 10
-488.2538254196578
 20
104.4231435414909
 30
0.0
 11
-488.2538254196578
 21
-43.91158645217473
 31
0.0
  0
LINE
  5
498
330
1F
100
AcDbEntity
  8
A-2_蓋
  6
Continuous
 62
     3
370
     9
100
AcDbLine
 10
-476.5870377824112
 20
271.0898239548143
 30
0.0
 11
-476.5870377824112
 21
122.7559600005279
 31
0.0
  0
LINE
  5
499
330
1F
100
AcDbEntity
  8
A-2_蓋
  6
Continuous
 62
     3
370
     9
100
AcDbLine
 10
-476.5870377824112
 20
104.4231435414909
 30
0.0
 11
-476.5870377824112
 21
-43.91158645217473
 31
0.0
  0
LINE
  5
49A
330
1F
100
AcDbEntity
  8
A-2_蓋
  6
Continuous
 62
     3
370
     9
100
AcDbLine
 10
-547.0866022883234
 20
271.0898239548143
 30
0.0
 11
-547.0866022883234
 21
122.7559600005279
 31
0.0
  0
LINE
  5
49B
330
1F
100
AcDbEntity
  8
A-2_蓋
  6
Continuous
 62
     3
370
     9
100
AcDbLine
 10
-547.0866022883234
 20
104.4231435414909
 30
0.0
 11
-547.0866022883234
 21
-43.91158645217473
 31
0.0
  0
LINE
  5
49C
330
1F
100
AcDbEntity
  8
A-2_蓋
  6
Continuous
 62
     3
370
     9
100
AcDbLine
 10
-535.419938370988
 20
271.0898239548143
 30
0.0
 11
-535.419938370988
 21
122.7559600005279
 31
0.0
  0
LINE
  5
49D
330
1F
100
AcDbEntity
  8
A-2_蓋
  6
Continuous
 62
     3
370
     9
100
AcDbLine
 10
-535.419938370988
 20
104.4231435414909
 30
0.0
 11
-535.419938370988
 21
-43.91158645217473
 31
0.0
  0
LINE
  5
49E
330
1F
100
AcDbEntity
  8
A-2_蓋
  6
Continuous
 62
     3
370
     9
100
AcDbLine
 10
-605.9201214764568
 20
271.0898239548143
 30
0.0
 11
-605.9201214764568
 21
122.7559600005279
 31
0.0
  0
LINE
  5
49F
330
1F
100
AcDbEntity
  8
A-2_蓋
  6
Continuous
 62
     3
370
     9
100
AcDbLine
 10
-605.9201214764568
 20
104.4231435414909
 30
0.0
 11
-605.9201214764568
 21
-43.91158645217473
 31
0.0
  0
LINE
  5
4A0
330
1F
100
AcDbEntity
  8
A-2_蓋
  6
Continuous
 62
     3
370
     9
100
AcDbLine
 10
-594.2535812790328
 20
271.0898239548143
 30
0.0
 11
-594.2535812790328
 21
122.7559600005279
 31
0.0
  0
LINE
  5
4A1
330
1F
100
AcDbEntity
  8
A-2_蓋
  6
Continuous
 62
     3
370
     9
100
AcDbLine
 10
-594.2535812790328
 20
104.4231435414909
 30
0.0
 11
-594.2535812790328
 21
-43.91158645217473
 31
0.0
  0
LINE
  5
4A2
330
1F
100
AcDbEntity
  8
A-2_蓋
  6
Continuous
 62
     3
370
     9
100
AcDbLine
 10
-664.7528983451224
 20
271.0898239548143
 30
0.0
 11
-664.7528983451224
 21
122.7559600005279
 31
0.0
  0
LINE
  5
4A3
330
1F
100
AcDbEntity
  8
A-2_蓋
  6
Continuous
 62
     3
370
     9
100
AcDbLine
 10
-664.7528983451224
 20
104.4231435414909
 30
0.0
 11
-664.7528983451224
 21
-43.91158645217473
 31
0.0
  0
LINE
  5
4A4
330
1F
100
AcDbEntity
  8
A-2_蓋
  6
Continuous
 62
     3
370
     9
100
AcDbLine
 10
-653.0863581476984
 20
271.0898239548143
 30
0.0
 11
-653.0863581476984
 21
122.7559600005279
 31
0.0
  0
LINE
  5
4A5
330
1F
100
AcDbEntity
  8
A-2_蓋
  6
Continuous
 62
     3
370
     9
100
AcDbLine
 10
-653.0863581476984
 20
104.4231435414909
 30
0.0
 11
-653.0863581476984
 21
-43.91158645217473
 31
0.0
  0
LINE
  5
4A6
330
1F
100
AcDbEntity
  8
A-2_蓋
  6
Continuous
 62
     3
370
     9
100
AcDbLine
 10
-723.5866649730783
 20
271.0898239548143
 30
0.0
 11
-723.5866649730783
 21
122.7559600005279
 31
0.0
  0
LINE
  5
4A7
330
1F
100
AcDbEntity
  8
A-2_蓋
  6
Continuous
 62
     3
370
     9
100
AcDbLine
 10
-723.5866649730783
 20
104.4231435414909
 30
0.0
 11
-723.5866649730783
 21
-43.91158645217473
 31
0.0
  0
LINE
  5
4A8
330
1F
100
AcDbEntity
  8
A-2_蓋
  6
Continuous
 62
     3
370
     9
100
AcDbLine
 10
-711.9198773358318
 20
271.0898239548143
 30
0.0
 11
-711.9198773358318
 21
122.7559600005279
 31
0.0
  0
LINE
  5
4A9
330
1F
100
AcDbEntity
  8
A-2_蓋
  6
Continuous
 62
     3
370
     9
100
AcDbLine
 10
-711.9198773358318
 20
104.4231435414909
 30
0.0
 11
-711.9198773358318
 21
-43.91158645217473
 31
0.0
  0
LINE
  5
4AA
330
1F
100
AcDbEntity
  8
A-2_蓋
  6
Continuous
 62
     3
370
     9
100
AcDbLine
 10
-782.420184161212
 20
271.0898239548143
 30
0.0
 11
-782.420184161212
 21
122.7559600005279
 31
0.0
  0
LINE
  5
4AB
330
1F
100
AcDbEntity
  8
A-2_蓋
  6
Continuous
 62
     3
370
     9
100
AcDbLine
 10
-782.420184161212
 20
104.4231435414909
 30
0.0
 11
-782.420184161212
 21
-43.91158645217473
 31
0.0
  0
LINE
  5
4AC
330
1F
100
AcDbEntity
  8
A-2_蓋
  6
Continuous
 62
     3
370
     9
100
AcDbLine
 10
-770.753643963788
 20
271.0898239548143
 30
0.0
 11
-770.753643963788
 21
122.7559600005279
 31
0.0
  0
LINE
  5
4AD
330
1F
100
AcDbEntity
  8
A-2_蓋
  6
Continuous
 62
     3
370
     9
100
AcDbLine
 10
-770.753643963788
 20
104.4231435414909
 30
0.0
 11
-770.753643963788
 21
-43.91158645217473
 31
0.0
  0
LINE
  5
4AE
330
1F
100
AcDbEntity
  8
A-2_蓋
  6
Continuous
 62
     3
370
     9
100
AcDbLine
 10
-841.2529610298775
 20
271.0898239548143
 30
0.0
 11
-841.2529610298775
 21
122.7559600005279
 31
0.0
  0
LINE
  5
4AF
330
1F
100
AcDbEntity
  8
A-2_蓋
  6
Continuous
 62
     3
370
     9
100
AcDbLine
 10
-841.2529610298775
 20
104.4231435414909
 30
0.0
 11
-841.2529610298775
 21
-43.91158645217473
 31
0.0
  0
LINE
  5
4B0
330
1F
100
AcDbEntity
  8
A-2_蓋
  6
Continuous
 62
     3
370
     9
100
AcDbLine
 10
-829.5864208324535
 20
271.0898239548143
 30
0.0
 11
-829.5864208324535
 21
122.7559600005279
 31
0.0
  0
LINE
  5
4B1
330
1F
100
AcDbEntity
  8
A-2_蓋
  6
Continuous
 62
     3
370
     9
100
AcDbLine
 10
-829.5864208324535
 20
104.4231435414909
 30
0.0
 11
-829.5864208324535
 21
-43.91158645217473
 31
0.0
  0
LINE
  5
4B2
330
1F
100
AcDbEntity
  8
A-2_蓋
  6
Continuous
 62
     3
370
     9
100
AcDbLine
 10
-900.0867276578335
 20
271.0898239548143
 30
0.0
 11
-900.0867276578335
 21
122.7559600005279
 31
0.0
  0
LINE
  5
4B3
330
1F
100
AcDbEntity
  8
A-2_蓋
  6
Continuous
 62
     3
370
     9
100
AcDbLine
 10
-900.0867276578335
 20
104.4231435414909
 30
0.0
 11
-900.0867276578335
 21
-43.91158645217473
 31
0.0
  0
LINE
  5
4B4
330
1F
100
AcDbEntity
  8
A-2_蓋
  6
Continuous
 62
     3
370
     9
100
AcDbLine
 10
-888.419940020587
 20
271.0898239548143
 30
0.0
 11
-888.419940020587
 21
122.7559600005279
 31
0.0
  0
LINE
  5
4B5
330
1F
100
AcDbEntity
  8
A-2_蓋
  6
Continuous
 62
     3
370
     9
100
AcDbLine
 10
-888.419940020587
 20
104.4231435414909
 30
0.0
 11
-888.419940020587
 21
-43.91158645217473
 31
0.0
  0
LINE
  5
4B6
330
1F
100
AcDbEntity
  8
A-2_蓋
  6
Continuous
 62
     3
370
     9
100
AcDbLine
 10
-958.919504526499
 20
271.0898239548143
 30
0.0
 11
-958.919504526499
 21
122.7559600005279
 31
0.0
  0
LINE
  5
4B7
330
1F
100
AcDbEntity
  8
A-2_蓋
  6
Continuous
 62
     3
370
     9
100
AcDbLine
 10
-958.919504526499
 20
104.4231435414909
 30
0.0
 11
-958.919504526499
 21
-43.91158645217473
 31
0.0
  0
LINE
  5
4B8
330
1F
100
AcDbEntity
  8
A-2_蓋
  6
Continuous
 62
     3
370
     9
100
AcDbLine
 10
-947.2527168892525
 20
271.0898239548143
 30
0.0
 11
-947.2527168892525
 21
122.7559600005279
 31
0.0
  0
LINE
  5
4B9
330
1F
100
AcDbEntity
  8
A-2_蓋
  6
Continuous
 62
     3
370
     9
100
AcDbLine
 10
-947.2527168892525
 20
104.4231435414909
 30
0.0
 11
-947.2527168892525
 21
-43.91158645217473
 31
0.0
  0
LINE
  5
4BA
330
1F
100
AcDbEntity
  8
A-2_蓋
  6
Continuous
 62
     3
370
     9
100
AcDbLine
 10
-1017.752899994721
 20
271.0898239548143
 30
0.0
 11
-1017.752899994721
 21
122.7559600005279
 31
0.0
  0
LINE
  5
4BB
330
1F
100
AcDbEntity
  8
A-2_蓋
  6
Continuous
 62
     3
370
     9
100
AcDbLine
 10
-1017.752899994721
 20
104.4231435414909
 30
0.0
 11
-1017.752899994721
 21
-43.91158645217473
 31
0.0
  0
LINE
  5
4BC
330
1F
100
AcDbEntity
  8
A-2_蓋
  6
Continuous
 62
     3
370
     9
100
AcDbLine
 10
-1006.086483517209
 20
271.0898239548143
 30
0.0
 11
-1006.086483517209
 21
122.7559600005279
 31
0.0
  0
LINE
  5
4BD
330
1F
100
AcDbEntity
  8
A-2_蓋
  6
Continuous
 62
     3
370
     9
100
AcDbLine
 10
-1006.086483517209
 20
104.4231435414909
 30
0.0
 11
-1006.086483517209
 21
-43.91158645217473
 31
0.0
  0
LINE
  5
4BE
330
1F
100
AcDbEntity
  8
A-2_蓋
  6
Continuous
 62
     3
370
     9
100
AcDbLine
 10
-1076.586666622677
 20
271.0898239548143
 30
0.0
 11
-1076.586666622677
 21
122.7559600005279
 31
0.0
  0
LINE
  5
4BF
330
1F
100
AcDbEntity
  8
A-2_蓋
  6
Continuous
 62
     3
370
     9
100
AcDbLine
 10
-1076.586666622677
 20
104.4231435414909
 30
0.0
 11
-1076.586666622677
 21
-43.91158645217473
 31
0.0
  0
LINE
  5
4C0
330
1F
100
AcDbEntity
  8
A-2_蓋
  6
Continuous
 62
     3
370
     9
100
AcDbLine
 10
-1064.920126425253
 20
271.0898239548143
 30
0.0
 11
-1064.920126425253
 21
122.7559600005279
 31
0.0
  0
LINE
  5
4C1
330
1F
100
AcDbEntity
  8
A-2_蓋
  6
Continuous
 62
     3
370
     9
100
AcDbLine
 10
-1064.920126425253
 20
104.4231435414909
 30
0.0
 11
-1064.920126425253
 21
-43.91158645217473
 31
0.0
  0
LINE
  5
4C2
330
1F
100
AcDbEntity
  8
A-2_蓋
  6
Continuous
 62
     3
370
     9
100
AcDbLine
 10
-1135.419443491343
 20
271.0898239548143
 30
0.0
 11
-1135.419443491343
 21
122.7559600005279
 31
0.0
  0
LINE
  5
4C3
330
1F
100
AcDbEntity
  8
A-2_蓋
  6
Continuous
 62
     3
370
     9
100
AcDbLine
 10
-1135.419443491343
 20
104.4231435414909
 30
0.0
 11
-1135.419443491343
 21
-43.91158645217473
 31
0.0
  0
LINE
  5
4C4
330
1F
100
AcDbEntity
  8
A-2_蓋
  6
Continuous
 62
     3
370
     9
100
AcDbLine
 10
-1123.752779574007
 20
271.0898239548143
 30
0.0
 11
-1123.752779574007
 21
122.7559600005279
 31
0.0
  0
LINE
  5
4C5
330
1F
100
AcDbEntity
  8
A-2_蓋
  6
Continuous
 62
     3
370
     9
100
AcDbLine
 10
-1123.752779574007
 20
104.4231435414909
 30
0.0
 11
-1123.752779574007
 21
-43.91158645217473
 31
0.0
  0
LINE
  5
4C6
330
1F
100
AcDbEntity
  8
A-2_蓋
  6
Continuous
 62
     3
370
     9
100
AcDbLine
 10
-1194.253210119299
 20
271.0898239548143
 30
0.0
 11
-1194.253210119299
 21
122.7559600005279
 31
0.0
  0
LINE
  5
4C7
330
1F
100
AcDbEntity
  8
A-2_蓋
  6
Continuous
 62
     3
370
     9
100
AcDbLine
 10
-1194.253210119299
 20
104.4231435414909
 30
0.0
 11
-1194.253210119299
 21
-43.91158645217473
 31
0.0
  0
LINE
  5
4C8
330
1F
100
AcDbEntity
  8
A-2_蓋
  6
Continuous
 62
     3
370
     9
100
AcDbLine
 10
-1182.586422482052
 20
271.0898239548143
 30
0.0
 11
-1182.586422482052
 21
122.7559600005279
 31
0.0
  0
LINE
  5
4C9
330
1F
100
AcDbEntity
  8
A-2_蓋
  6
Continuous
 62
     3
370
     9
100
AcDbLine
 10
-1182.586422482052
 20
104.4231435414909
 30
0.0
 11
-1182.586422482052
 21
-43.91158645217473
 31
0.0
  0
LINE
  5
4CA
330
1F
100
AcDbEntity
  8
A-2_蓋
  6
Continuous
 62
     3
370
     9
100
AcDbLine
 10
-1253.086729307433
 20
271.0898239548143
 30
0.0
 11
-1253.086729307433
 21
122.7559600005279
 31
0.0
  0
LINE
  5
4CB
330
1F
100
AcDbEntity
  8
A-2_蓋
  6
Continuous
 62
     3
370
     9
100
AcDbLine
 10
-1253.086729307433
 20
104.4231435414909
 30
0.0
 11
-1253.086729307433
 21
-43.91158645217473
 31
0.0
  0
LINE
  5
4CC
330
1F
100
AcDbEntity
  8
A-2_蓋
  6
Continuous
 62
     3
370
     9
100
AcDbLine
 10
-1241.420189110009
 20
271.0898239548143
 30
0.0
 11
-1241.420189110009
 21
122.7559600005279
 31
0.0
  0
LINE
  5
4CD
330
1F
100
AcDbEntity
  8
A-2_蓋
  6
Continuous
 62
     3
370
     9
100
AcDbLine
 10
-1241.420189110009
 20
104.4231435414909
 30
0.0
 11
-1241.420189110009
 21
-43.91158645217473
 31
0.0
  0
LINE
  5
4CE
330
1F
100
AcDbEntity
  8
A-2_蓋
  6
Continuous
 62
     3
370
     9
100
AcDbLine
 10
-1311.919506176098
 20
271.0898239548143
 30
0.0
 11
-1311.919506176098
 21
122.7559600005279
 31
0.0
  0
LINE
  5
4CF
330
1F
100
AcDbEntity
  8
A-2_蓋
  6
Continuous
 62
     3
370
     9
100
AcDbLine
 10
-1311.919506176098
 20
104.4231435414909
 30
0.0
 11
-1311.919506176098
 21
-43.91158645217473
 31
0.0
  0
LINE
  5
4D0
330
1F
100
AcDbEntity
  8
A-2_蓋
  6
Continuous
 62
     3
370
     9
100
AcDbLine
 10
-1300.252842258762
 20
271.0898239548143
 30
0.0
 11
-1300.252842258762
 21
122.7559600005279
 31
0.0
  0
LINE
  5
4D1
330
1F
100
AcDbEntity
  8
A-2_蓋
  6
Continuous
 62
     3
370
     9
100
AcDbLine
 10
-1300.252842258762
 20
104.4231435414909
 30
0.0
 11
-1300.252842258762
 21
-43.91158645217473
 31
0.0
  0
LINE
  5
4D2
330
1F
100
AcDbEntity
  8
A-2_蓋
  6
Continuous
 62
     3
370
     9
100
AcDbLine
 10
-1370.753025364231
 20
271.0898239548143
 30
0.0
 11
-1370.753025364231
 21
122.7559600005279
 31
0.0
  0
LINE
  5
4D3
330
1F
100
AcDbEntity
  8
A-2_蓋
  6
Continuous
 62
     3
370
     9
100
AcDbLine
 10
-1370.753025364231
 20
104.4231435414909
 30
0.0
 11
-1370.753025364231
 21
-43.91158645217473
 31
0.0
  0
LINE
  5
4D4
330
1F
100
AcDbEntity
  8
A-2_蓋
  6
Continuous
 62
     3
370
     9
100
AcDbLine
 10
-1359.086485166807
 20
271.0898239548143
 30
0.0
 11
-1359.086485166807
 21
122.7559600005279
 31
0.0
  0
LINE
  5
4D5
330
1F
100
AcDbEntity
  8
A-2_蓋
  6
Continuous
 62
     3
370
     9
100
AcDbLine
 10
-1359.086485166807
 20
104.4231435414909
 30
0.0
 11
-1359.086485166807
 21
-43.91158645217473
 31
0.0
  0
LINE
  5
4D6
330
1F
100
AcDbEntity
  8
A-2_蓋
  6
Continuous
 62
     3
370
     9
100
AcDbLine
 10
-1429.586791992188
 20
271.0898239548143
 30
0.0
 11
-1429.586791992188
 21
122.7559600005279
 31
0.0
  0
LINE
  5
4D7
330
1F
100
AcDbEntity
  8
A-2_蓋
  6
Continuous
 62
     3
370
     9
100
AcDbLine
 10
-1429.586791992188
 20
104.4231435414909
 30
0.0
 11
-1429.586791992188
 21
-43.91158645217473
 31
0.0
  0
LINE
  5
4D8
330
1F
100
AcDbEntity
  8
A-2_蓋
  6
Continuous
 62
     3
370
     9
100
AcDbLine
 10
-1417.920004354941
 20
271.0898239548143
 30
0.0
 11
-1417.920004354941
 21
122.7559600005279
 31
0.0
  0
LINE
  5
4D9
330
1F
100
AcDbEntity
  8
A-2_蓋
  6
Continuous
 62
     3
370
     9
100
AcDbLine
 10
-1417.920004354941
 20
104.4231435414909
 30
0.0
 11
-1417.920004354941
 21
-43.91158645217473
 31
0.0
  0
LINE
  5
4DA
330
1F
100
AcDbEntity
  8
A-2_蓋
  6
Continuous
 62
     3
370
     9
100
AcDbLine
 10
1229.607164537584
 20
284.9458354228253
 30
0.0
 11
1229.607164537584
 21
442.2333093591641
 31
0.0
  0
LINE
  5
4DB
330
1F
100
AcDbEntity
  8
A-2_蓋
  6
Continuous
 62
     3
370
     9
100
AcDbLine
 10
1232.10729650549
 20
282.4457034549198
 30
0.0
 11
1232.10729650549
 21
444.7334413270693
 31
0.0
  0
LINE
  5
4DC
330
1F
100
AcDbEntity
  8
A-2_蓋
  6
Continuous
 62
     3
370
     9
100
AcDbLine
 10
1229.607164537584
 20
-48.38764912373307
 30
0.0
 11
1229.607164537584
 21
108.8998248126057
 31
0.0
  0
LINE
  5
4DD
330
1F
100
AcDbEntity
  8
A-2_蓋
  6
Continuous
 62
     3
370
     9
100
AcDbLine
 10
1229.607164537584
 20
118.2791550095018
 30
0.0
 11
1229.607164537584
 21
275.5666289458404
 31
0.0
  0
LINE
  5
4DE
330
1F
100
AcDbEntity
  8
A-2_蓋
  6
Continuous
 62
     3
370
     9
100
AcDbLine
 10
1232.10729650549
 20
-50.88765737172707
 30
0.0
 11
1232.10729650549
 21
111.3999567805109
 31
0.0
  0
LINE
  5
4DF
330
1F
100
AcDbEntity
  8
A-2_蓋
  6
Continuous
 62
     3
370
     9
100
AcDbLine
 10
1232.10729650549
 20
115.7790230415964
 30
0.0
 11
1232.10729650549
 21
278.0666371938347
 31
0.0
  0
LINE
  5
4E0
330
1F
100
AcDbEntity
  8
A-A
  6
Continuous
 62
     3
370
     9
100
AcDbLine
 10
1212.94036040435
 20
247.9653353304477
 30
0.0
 11
1215.440739812078
 21
246.298333245355
 31
0.0
  0
LINE
  5
4E1
330
1F
100
AcDbEntity
  8
A-A
  6
Continuous
 62
     3
370
     9
100
AcDbLine
 10
1212.94036040435
 20
236.1099985483531
 30
0.0
 11
1212.94036040435
 21
231.1101057722763
 31
0.0
  0
LINE
  5
4E2
330
1F
100
AcDbEntity
  8
A-A
  6
Continuous
 62
     3
370
     9
100
AcDbLine
 10
1212.94036040435
 20
236.1099985483531
 30
0.0
 11
1215.440739812078
 21
237.7770006334461
 31
0.0
  0
LINE
  5
4E3
330
1F
100
AcDbEntity
  8
A-A
  6
Continuous
 62
     3
370
     9
100
AcDbLine
 10
1212.94036040435
 20
231.1101057722763
 30
0.0
 11
1215.440739812078
 21
229.443351127006
 31
0.0
  0
LINE
  5
4E4
330
1F
100
AcDbEntity
  8
A-A
  6
Continuous
 62
     3
370
     9
100
AcDbLine
 10
1215.440739812078
 20
237.7770006334461
 30
0.0
 11
1215.440739812078
 21
246.298333245355
 31
0.0
  0
LINE
  5
4E5
330
1F
100
AcDbEntity
  8
A-A
  6
Continuous
 62
     3
370
     9
100
AcDbLine
 10
1212.94036040435
 20
219.254892710093
 30
0.0
 11
1212.94036040435
 21
209.2549834380279
 31
0.0
  0
LINE
  5
4E6
330
1F
100
AcDbEntity
  8
A-A
  6
Continuous
 62
     3
370
     9
100
AcDbLine
 10
1212.94036040435
 20
219.254892710093
 30
0.0
 11
1215.440739812078
 21
220.9217710752745
 31
0.0
  0
LINE
  5
4E7
330
1F
100
AcDbEntity
  8
A-A
  6
Continuous
 62
     3
370
     9
100
AcDbLine
 10
1215.440739812078
 20
229.443351127006
 30
0.0
 11
1215.440739812078
 21
220.9217710752745
 31
0.0
  0
LINE
  5
4E8
330
1F
100
AcDbEntity
  8
A-A
  6
Continuous
 62
     3
370
     9
100
AcDbLine
 10
1212.94036040435
 20
209.2549834380279
 30
0.0
 11
1215.440739812078
 21
207.5879813529352
 31
0.0
  0
LINE
  5
4E9
330
1F
100
AcDbEntity
  8
A-A
  6
Continuous
 62
     3
370
     9
100
AcDbLine
 10
1212.94036040435
 20
197.3996466559333
 30
0.0
 11
1212.94036040435
 21
192.3997538798565
 31
0.0
  0
LINE
  5
4EA
330
1F
100
AcDbEntity
  8
A-A
  6
Continuous
 62
     3
370
     9
100
AcDbLine
 10
1212.94036040435
 20
197.3996466559333
 30
0.0
 11
1215.440739812078
 21
199.0666487410263
 31
0.0
  0
LINE
  5
4EB
330
1F
100
AcDbEntity
  8
A-A
  6
Continuous
 62
     3
370
     9
100
AcDbLine
 10
1212.94036040435
 20
192.3997538798565
 30
0.0
 11
1215.440739812078
 21
190.7329992345862
 31
0.0
  0
LINE
  5
4EC
330
1F
100
AcDbEntity
  8
A-A
  6
Continuous
 62
     3
370
     9
100
AcDbLine
 10
1215.440739812078
 20
199.0666487410263
 30
0.0
 11
1215.440739812078
 21
207.5879813529352
 31
0.0
  0
LINE
  5
4ED
330
1F
100
AcDbEntity
  8
A-A
  6
Continuous
 62
     3
370
     9
100
AcDbLine
 10
1212.94036040435
 20
180.5445408176732
 30
0.0
 11
1212.94036040435
 21
170.5446315456081
 31
0.0
  0
LINE
  5
4EE
330
1F
100
AcDbEntity
  8
A-A
  6
Continuous
 62
     3
370
     9
100
AcDbLine
 10
1212.94036040435
 20
180.5445408176732
 30
0.0
 11
1215.440739812078
 21
182.2114191828547
 31
0.0
  0
LINE
  5
4EF
330
1F
100
AcDbEntity
  8
A-A
  6
Continuous
 62
     3
370
     9
100
AcDbLine
 10
1215.440739812078
 20
190.7329992345862
 30
0.0
 11
1215.440739812078
 21
182.2114191828547
 31
0.0
  0
LINE
  5
4F0
330
1F
100
AcDbEntity
  8
A-A
  6
Continuous
 62
     3
370
     9
100
AcDbLine
 10
1212.94036040435
 20
170.5446315456081
 30
0.0
 11
1215.440739812078
 21
168.8776294605154
 31
0.0
  0
LINE
  5
4F1
330
1F
100
AcDbEntity
  8
A-A
  6
Continuous
 62
     3
370
     9
100
AcDbLine
 10
1212.94036040435
 20
158.6892947635135
 30
0.0
 11
1212.94036040435
 21
153.6894019874367
 31
0.0
  0
LINE
  5
4F2
330
1F
100
AcDbEntity
  8
A-A
  6
Continuous
 62
     3
370
     9
100
AcDbLine
 10
1212.94036040435
 20
158.6892947635135
 30
0.0
 11
1215.440739812078
 21
160.3562968486065
 31
0.0
  0
LINE
  5
4F3
330
1F
100
AcDbEntity
  8
A-A
  6
Continuous
 62
     3
370
     9
100
AcDbLine
 10
1212.94036040435
 20
153.6894019874367
 30
0.0
 11
1215.440739812078
 21
152.0226473421664
 31
0.0
  0
LINE
  5
4F4
330
1F
100
AcDbEntity
  8
A-A
  6
Continuous
 62
     3
370
     9
100
AcDbLine
 10
1215.440739812078
 20
160.3562968486065
 30
0.0
 11
1215.440739812078
 21
168.8776294605154
 31
0.0
  0
LINE
  5
4F5
330
1F
100
AcDbEntity
  8
A-A
  6
Continuous
 62
     3
370
     9
100
AcDbLine
 10
1212.94036040435
 20
141.8341889252534
 30
0.0
 11
1212.94036040435
 21
131.8342796531886
 31
0.0
  0
LINE
  5
4F6
330
1F
100
AcDbEntity
  8
A-A
  6
Continuous
 62
     3
370
     9
100
AcDbLine
 10
1212.94036040435
 20
141.8341889252534
 30
0.0
 11
1215.440739812078
 21
143.5010672904352
 31
0.0
  0
LINE
  5
4F7
330
1F
100
AcDbEntity
  8
A-A
  6
Continuous
 62
     3
370
     9
100
AcDbLine
 10
1215.440739812078
 20
152.0226473421664
 30
0.0
 11
1215.440739812078
 21
143.5010672904352
 31
0.0
  0
LINE
  5
4F8
330
1F
100
AcDbEntity
  8
A-A
  6
Continuous
 62
     3
370
     9
100
AcDbLine
 10
1212.94036040435
 20
131.8342796531886
 30
0.0
 11
1215.440739812078
 21
130.1672775680956
 31
0.0
  0
LINE
  5
4F9
330
1F
100
AcDbEntity
  8
A-A
  6
Continuous
 62
     3
370
     9
100
AcDbLine
 10
1212.94036040435
 20
119.9789428710938
 30
0.0
 11
1212.94036040435
 21
114.9790500950169
 31
0.0
  0
LINE
  5
4FA
330
1F
100
AcDbEntity
  8
A-A
  6
Continuous
 62
     3
370
     9
100
AcDbLine
 10
1212.94036040435
 20
119.9789428710938
 30
0.0
 11
1215.440739812078
 21
121.6459449561867
 31
0.0
  0
LINE
  5
4FB
330
1F
100
AcDbEntity
  8
A-A
  6
Continuous
 62
     3
370
     9
100
AcDbLine
 10
1212.94036040435
 20
114.9790500950169
 30
0.0
 11
1215.440739812078
 21
113.3122954497466
 31
0.0
  0
LINE
  5
4FC
330
1F
100
AcDbEntity
  8
A-A
  6
Continuous
 62
     3
370
     9
100
AcDbLine
 10
1215.440739812078
 20
121.6459449561867
 30
0.0
 11
1215.440739812078
 21
130.1672775680956
 31
0.0
  0
LINE
  5
4FD
330
1F
100
AcDbEntity
  8
A-A
  6
Continuous
 62
     3
370
     9
100
AcDbLine
 10
1212.94036040435
 20
103.1238370328336
 30
0.0
 11
1212.94036040435
 21
93.12392776076877
 31
0.0
  0
LINE
  5
4FE
330
1F
100
AcDbEntity
  8
A-A
  6
Continuous
 62
     3
370
     9
100
AcDbLine
 10
1212.94036040435
 20
103.1238370328336
 30
0.0
 11
1215.440739812078
 21
104.7907153980154
 31
0.0
  0
LINE
  5
4FF
330
1F
100
AcDbEntity
  8
A-A
  6
Continuous
 62
     3
370
     9
100
AcDbLine
 10
1215.440739812078
 20
113.3122954497466
 30
0.0
 11
1215.440739812078
 21
104.7907153980154
 31
0.0
  0
LINE
  5
500
330
1F
100
AcDbEntity
  8
A-A
  6
Continuous
 62
     3
370
     9
100
AcDbLine
 10
1212.94036040435
 20
93.12392776076877
 30
0.0
 11
1215.440739812078
 21
91.45692567567579
 31
0.0
  0
LINE
  5
501
330
1F
100
AcDbEntity
  8
A-A
  6
Continuous
 62
     3
370
     9
100
AcDbLine
 10
1212.94036040435
 20
81.26859097867396
 30
0.0
 11
1212.94036040435
 21
76.26869820259714
 31
0.0
  0
LINE
  5
502
330
1F
100
AcDbEntity
  8
A-A
  6
Continuous
 62
     3
370
     9
100
AcDbLine
 10
1212.94036040435
 20
81.26859097867396
 30
0.0
 11
1215.440739812078
 21
82.93559306376693
 31
0.0
  0
LINE
  5
503
330
1F
100
AcDbEntity
  8
A-A
  6
Continuous
 62
     3
370
     9
100
AcDbLine
 10
1212.94036040435
 20
76.26869820259714
 30
0.0
 11
1215.440739812078
 21
74.60194355732682
 31
0.0
  0
LINE
  5
504
330
1F
100
AcDbEntity
  8
A-A
  6
Continuous
 62
     3
370
     9
100
AcDbLine
 10
1215.440739812078
 20
82.93559306376693
 30
0.0
 11
1215.440739812078
 21
91.45692567567579
 31
0.0
  0
LINE
  5
505
330
1F
100
AcDbEntity
  8
A-A
  6
Continuous
 62
     3
370
     9
100
AcDbLine
 10
1212.94036040435
 20
64.4134851404138
 30
0.0
 11
1212.94036040435
 21
54.41357586834897
 31
0.0
  0
LINE
  5
506
330
1F
100
AcDbEntity
  8
A-A
  6
Continuous
 62
     3
370
     9
100
AcDbLine
 10
1212.94036040435
 20
64.4134851404138
 30
0.0
 11
1215.440739812078
 21
66.08036350559559
 31
0.0
  0
LINE
  5
507
330
1F
100
AcDbEntity
  8
A-A
  6
Continuous
 62
     3
370
     9
100
AcDbLine
 10
1215.440739812078
 20
74.60194355732682
 30
0.0
 11
1215.440739812078
 21
66.08036350559559
 31
0.0
  0
LINE
  5
508
330
1F
100
AcDbEntity
  8
A-A
  6
Continuous
 62
     3
370
     9
100
AcDbLine
 10
1212.94036040435
 20
54.41357586834897
 30
0.0
 11
1215.440739812078
 21
52.746573783256
 31
0.0
  0
LINE
  5
509
330
1F
100
AcDbEntity
  8
A-A
  6
Continuous
 62
     3
370
     9
100
AcDbLine
 10
1212.94036040435
 20
42.55823908625445
 30
0.0
 11
1212.94036040435
 21
37.55834631017734
 31
0.0
  0
LINE
  5
50A
330
1F
100
AcDbEntity
  8
A-A
  6
Continuous
 62
     3
370
     9
100
AcDbLine
 10
1212.94036040435
 20
42.55823908625445
 30
0.0
 11
1215.440739812078
 21
44.22524117134714
 31
0.0
  0
LINE
  5
50B
330
1F
100
AcDbEntity
  8
A-A
  6
Continuous
 62
     3
370
     9
100
AcDbLine
 10
1212.94036040435
 20
37.55834631017734
 30
0.0
 11
1215.440739812078
 21
35.89159166490731
 31
0.0
  0
LINE
  5
50C
330
1F
100
AcDbEntity
  8
A-A
  6
Continuous
 62
     3
370
     9
100
AcDbLine
 10
1215.440739812078
 20
44.22524117134714
 30
0.0
 11
1215.440739812078
 21
52.746573783256
 31
0.0
  0
LINE
  5
50D
330
1F
100
AcDbEntity
  8
A-A
  6
Continuous
 62
     3
370
     9
100
AcDbLine
 10
1212.94036040435
 20
25.70313324799429
 30
0.0
 11
1212.94036040435
 21
15.70322397592918
 31
0.0
  0
LINE
  5
50E
330
1F
100
AcDbEntity
  8
A-A
  6
Continuous
 62
     3
370
     9
100
AcDbLine
 10
1212.94036040435
 20
25.70313324799429
 30
0.0
 11
1215.440739812078
 21
27.37001161317579
 31
0.0
  0
LINE
  5
50F
330
1F
100
AcDbEntity
  8
A-A
  6
Continuous
 62
     3
370
     9
100
AcDbLine
 10
1215.440739812078
 20
35.89159166490731
 30
0.0
 11
1215.440739812078
 21
27.37001161317579
 31
0.0
  0
LINE
  5
510
330
1F
100
AcDbEntity
  8
A-A
  6
Continuous
 62
     3
370
     9
100
AcDbLine
 10
1212.94036040435
 20
15.70322397592918
 30
0.0
 11
1215.440739812078
 21
14.0362218908362
 31
0.0
  0
LINE
  5
511
330
1F
100
AcDbEntity
  8
A-A
  6
Continuous
 62
     3
370
     9
100
AcDbLine
 10
1212.94036040435
 20
3.847887193834651
 30
0.0
 11
1212.94036040435
 21
-1.152005582242452
 31
0.0
  0
LINE
  5
512
330
1F
100
AcDbEntity
  8
A-A
  6
Continuous
 62
     3
370
     9
100
AcDbLine
 10
1212.94036040435
 20
3.847887193834651
 30
0.0
 11
1215.440739812078
 21
5.514889278927342
 31
0.0
  0
LINE
  5
513
330
1F
100
AcDbEntity
  8
A-A
  6
Continuous
 62
     3
370
     9
100
AcDbLine
 10
1212.94036040435
 20
-1.152005582242452
 30
0.0
 11
1215.440739812078
 21
-2.818760227512485
 31
0.0
  0
LINE
  5
514
330
1F
100
AcDbEntity
  8
A-A
  6
Continuous
 62
     3
370
     9
100
AcDbLine
 10
1215.440739812078
 20
5.514889278927342
 30
0.0
 11
1215.440739812078
 21
14.0362218908362
 31
0.0
  0
LINE
  5
515
330
1F
100
AcDbEntity
  8
A-A
  6
Continuous
 62
     3
370
     9
100
AcDbLine
 10
1212.94036040435
 20
-13.00721864442551
 30
0.0
 11
1212.94036040435
 21
-23.00712791649062
 31
0.0
  0
LINE
  5
516
330
1F
100
AcDbEntity
  8
A-A
  6
Continuous
 62
     3
370
     9
100
AcDbLine
 10
1212.94036040435
 20
-13.00721864442551
 30
0.0
 11
1215.440739812078
 21
-11.340340279244
 31
0.0
  0
LINE
  5
517
330
1F
100
AcDbEntity
  8
A-A
  6
Continuous
 62
     3
370
     9
100
AcDbLine
 10
1215.440739812078
 20
-2.818760227512485
 30
0.0
 11
1215.440739812078
 21
-11.340340279244
 31
0.0
  0
LINE
  5
518
330
1F
100
AcDbEntity
  8
A-A
  6
Continuous
 62
     3
370
     9
100
AcDbLine
 10
1212.94036040435
 20
-23.00712791649062
 30
0.0
 11
1215.440739812078
 21
-24.67413000158359
 31
0.0
  0
LINE
  5
519
330
1F
100
AcDbEntity
  8
A-A
  6
Continuous
 62
     3
370
     9
100
AcDbLine
 10
1212.94036040435
 20
-34.86246469858514
 30
0.0
 11
1212.94036040435
 21
-39.86235747466196
 31
0.0
  0
LINE
  5
51A
330
1F
100
AcDbEntity
  8
A-A
  6
Continuous
 62
     3
370
     9
100
AcDbLine
 10
1212.94036040435
 20
-34.86246469858514
 30
0.0
 11
1215.440739812078
 21
-33.19546261349245
 31
0.0
  0
LINE
  5
51B
330
1F
100
AcDbEntity
  8
A-A
  6
Continuous
 62
     3
370
     9
100
AcDbLine
 10
1212.94036040435
 20
-39.86235747466196
 30
0.0
 11
1215.440739812078
 21
-41.52911211993228
 31
0.0
  0
LINE
  5
51C
330
1F
100
AcDbEntity
  8
A-A
  6
Continuous
 62
     3
370
     9
100
AcDbLine
 10
1215.440739812078
 20
-33.19546261349245
 30
0.0
 11
1215.440739812078
 21
-24.67413000158359
 31
0.0
  0
LINE
  5
51D
330
1F
100
AcDbEntity
  8
A-A
  6
Continuous
 62
     3
370
     9
100
AcDbLine
 10
1212.94036040435
 20
-51.7175705368453
 30
0.0
 11
1212.94036040435
 21
-61.71747980891041
 31
0.0
  0
LINE
  5
51E
330
1F
100
AcDbEntity
  8
A-A
  6
Continuous
 62
     3
370
     9
100
AcDbLine
 10
1212.94036040435
 20
-51.7175705368453
 30
0.0
 11
1215.440739812078
 21
-50.0506921716638
 31
0.0
  0
LINE
  5
51F
330
1F
100
AcDbEntity
  8
A-A
  6
Continuous
 62
     3
370
     9
100
AcDbLine
 10
1215.440739812078
 20
-41.52911211993228
 30
0.0
 11
1215.440739812078
 21
-50.0506921716638
 31
0.0
  0
LINE
  5
520
330
1F
100
AcDbEntity
  8
A-2_蓋
  6
Continuous
 62
     3
370
     9
100
AcDbLine
 10
1215.440739812078
 20
-178.0775410420185
 30
0.0
 11
1298.773770718961
 21
-178.0775410420185
 31
0.0
  0
LINE
  5
521
330
1F
100
AcDbEntity
  8
A-A
  6
Continuous
 62
     3
370
     9
100
AcDbLine
 10
1212.94036040435
 20
-61.71747980891041
 30
0.0
 11
1215.440739812078
 21
-63.38448189400339
 31
0.0
  0
LINE
  5
522
330
1F
100
AcDbEntity
  8
A-A
  6
Continuous
 62
     3
370
     9
100
AcDbLine
 10
1212.94036040435
 20
-73.57281659100494
 30
0.0
 11
1212.94036040435
 21
-78.57270936708176
 31
0.0
  0
LINE
  5
523
330
1F
100
AcDbEntity
  8
A-A
  6
Continuous
 62
     3
370
     9
100
AcDbLine
 10
1212.94036040435
 20
-73.57281659100494
 30
0.0
 11
1215.440739812078
 21
-71.90581450591196
 31
0.0
  0
LINE
  5
524
330
1F
100
AcDbEntity
  8
A-A
  6
Continuous
 62
     3
370
     9
100
AcDbLine
 10
1212.94036040435
 20
-78.57270936708176
 30
0.0
 11
1215.440739812078
 21
-80.23946401235207
 31
0.0
  0
LINE
  5
525
330
1F
100
AcDbEntity
  8
A-A
  6
Continuous
 62
     3
370
     9
100
AcDbLine
 10
1215.440739812078
 20
-71.90581450591196
 30
0.0
 11
1215.440739812078
 21
-63.38448189400339
 31
0.0
  0
LINE
  5
526
330
1F
100
AcDbEntity
  8
A-A
  6
Continuous
 62
     3
370
     9
100
AcDbLine
 10
1212.94036040435
 20
-90.4279224292651
 30
0.0
 11
1212.94036040435
 21
-100.4278317013302
 31
0.0
  0
LINE
  5
527
330
1F
100
AcDbEntity
  8
A-A
  6
Continuous
 62
     3
370
     9
100
AcDbLine
 10
1212.94036040435
 20
-90.4279224292651
 30
0.0
 11
1215.440739812078
 21
-88.76104406408359
 31
0.0
  0
LINE
  5
528
330
1F
100
AcDbEntity
  8
A-A
  6
Continuous
 62
     3
370
     9
100
AcDbLine
 10
1215.440739812078
 20
-80.23946401235207
 30
0.0
 11
1215.440739812078
 21
-88.76104406408359
 31
0.0
  0
LINE
  5
529
330
1F
100
AcDbEntity
  8
A-A
  6
Continuous
 62
     3
370
     9
100
AcDbLine
 10
1212.94036040435
 20
-100.4278317013302
 30
0.0
 11
1215.440739812078
 21
-102.0948337864232
 31
0.0
  0
LINE
  5
52A
330
1F
100
AcDbEntity
  8
A-A
  6
Continuous
 62
     3
370
     9
100
AcDbLine
 10
1212.94036040435
 20
-112.2831684834247
 30
0.0
 11
1212.94036040435
 21
-117.2830612595016
 31
0.0
  0
LINE
  5
52B
330
1F
100
AcDbEntity
  8
A-A
  6
Continuous
 62
     3
370
     9
100
AcDbLine
 10
1212.94036040435
 20
-112.2831684834247
 30
0.0
 11
1215.440739812078
 21
-110.6161663983318
 31
0.0
  0
LINE
  5
52C
330
1F
100
AcDbEntity
  8
A-A
  6
Continuous
 62
     3
370
     9
100
AcDbLine
 10
1212.94036040435
 20
-117.2830612595016
 30
0.0
 11
1215.440739812078
 21
-118.9498159047719
 31
0.0
  0
LINE
  5
52D
330
1F
100
AcDbEntity
  8
A-A
  6
Continuous
 62
     3
370
     9
100
AcDbLine
 10
1215.440739812078
 20
-110.6161663983318
 30
0.0
 11
1215.440739812078
 21
-102.0948337864232
 31
0.0
  0
LINE
  5
52E
330
1F
100
AcDbEntity
  8
A-A
  6
Continuous
 62
     3
370
     9
100
AcDbLine
 10
1212.94036040435
 20
-129.1382743216849
 30
0.0
 11
1212.94036040435
 21
-139.13818359375
 31
0.0
  0
LINE
  5
52F
330
1F
100
AcDbEntity
  8
A-A
  6
Continuous
 62
     3
370
     9
100
AcDbLine
 10
1212.94036040435
 20
-129.1382743216849
 30
0.0
 11
1215.440739812078
 21
-127.4713959565034
 31
0.0
  0
LINE
  5
530
330
1F
100
AcDbEntity
  8
A-A
  6
Continuous
 62
     3
370
     9
100
AcDbLine
 10
1215.440739812078
 20
-118.9498159047719
 30
0.0
 11
1215.440739812078
 21
-127.4713959565034
 31
0.0
  0
LINE
  5
531
330
1F
100
AcDbEntity
  8
A-A
  6
Continuous
 62
     3
370
     9
100
AcDbLine
 10
1212.94036040435
 20
-139.13818359375
 30
0.0
 11
1215.440739812078
 21
-140.8051856788427
 31
0.0
  0
LINE
  5
532
330
1F
100
AcDbEntity
  8
A-A
  6
Continuous
 62
     3
370
     9
100
AcDbLine
 10
1212.94036040435
 20
-150.9935203758445
 30
0.0
 11
1212.94036040435
 21
-155.9934131519213
 31
0.0
  0
LINE
  5
533
330
1F
100
AcDbEntity
  8
A-A
  6
Continuous
 62
     3
370
     9
100
AcDbLine
 10
1212.94036040435
 20
-150.9935203758445
 30
0.0
 11
1215.440739812078
 21
-149.3265182907516
 31
0.0
  0
LINE
  5
534
330
1F
100
AcDbEntity
  8
A-A
  6
Continuous
 62
     3
370
     9
100
AcDbLine
 10
1212.94036040435
 20
-155.9934131519213
 30
0.0
 11
1215.440739812078
 21
-157.6601677971917
 31
0.0
  0
LINE
  5
535
330
1F
100
AcDbEntity
  8
A-A
  6
Continuous
 62
     3
370
     9
100
AcDbLine
 10
1215.440739812078
 20
-149.3265182907516
 30
0.0
 11
1215.440739812078
 21
-140.8051856788427
 31
0.0
  0
LINE
  5
536
330
1F
100
AcDbEntity
  8
A-A
  6
Continuous
 62
     3
370
     9
100
AcDbLine
 10
1212.94036040435
 20
-167.8486262141047
 30
0.0
 11
1215.440739812078
 21
-166.1817478489232
 31
0.0
  0
LINE
  5
537
330
1F
100
AcDbEntity
  8
A-A
  6
Continuous
 62
     3
370
     9
100
AcDbLine
 10
1215.440739812078
 20
-157.6601677971917
 30
0.0
 11
1215.440739812078
 21
-166.1817478489232
 31
0.0
  0
LINE
  5
538
330
1F
100
AcDbEntity
  8
A-A
  6
Continuous
 62
     3
370
     9
100
AcDbLine
 10
1215.440739812078
 20
-178.0775410420185
 30
0.0
 11
1215.440739812078
 21
-170.5776400179477
 31
0.0
  0
LINE
  5
539
330
1F
100
AcDbEntity
  8
A-A
  6
Continuous
 62
     3
370
     9
100
AcDbLine
 10
1212.94036040435
 20
-167.8486262141047
 30
0.0
 11
1212.94036040435
 21
-170.5776400179477
 31
0.0
  0
LINE
  5
53A
330
1F
100
AcDbEntity
  8
A-2_蓋
  6
Continuous
 62
     3
370
     9
100
AcDbLine
 10
1212.94036040435
 20
-170.5776400179477
 30
0.0
 11
1298.773770718961
 21
-170.5776400179477
 31
0.0
  0
LINE
  5
53B
330
1F
100
AcDbEntity
  8
A-2_蓋
  6
Continuous
 62
     3
370
     9
100
AcDbLine
 10
-1487.753955737965
 20
789.4228053737334
 30
0.0
 11
170.579817488387
 21
789.4228053737334
 31
0.0
  0
LINE
  5
53C
330
1F
100
AcDbEntity
  8
A-4_寸法
  6
Continuous
 62
     7
370
     9
100
AcDbLine
 10
-876.0011827623521
 20
789.4228053737334
 30
0.0
 11
-873.2819428315032
 21
810.077844568201
 31
0.0
  0
LINE
  5
53D
330
1F
100
AcDbEntity
  8
A-4_寸法
  6
Continuous
 62
     7
370
     9
100
AcDbLine
 10
-876.0011827623521
 20
789.4228053737334
 30
0.0
 11
-768.7768472207557
 21
1189.589414854308
 31
0.0
  0
LINE
  5
53E
330
1F
100
AcDbEntity
  8
A-1_ピット
  6
Continuous
 62
     2
370
     9
100
AcDbLine
 10
-1493.587349556588
 20
921.9223764780406
 30
0.0
 11
-1493.587349556588
 21
-194.7439740155193
 31
0.0
  0
LINE
  5
53F
330
1F
100
AcDbEntity
  8
A-1_ピット
  6
Continuous
 62
     2
370
     9
100
AcDbLine
 10
176.4132113070102
 20
921.9223764780406
 30
0.0
 11
176.4132113070102
 21
-194.7439740155193
 31
0.0
  0
CIRCLE
  5
540
330
1F
100
AcDbEntity
  8
A-1_ピット
  6
Continuous
 62
     2
370
     9
100
AcDbCircle
 10
-1171.087027884818
 20
-202.2446173590583
 30
0.0
 40
7.500001546498893
  0
CIRCLE
  5
541
330
1F
100
AcDbEntity
  8
A-1_ピット
  6
Continuous
 62
     2
370
     9
100
AcDbCircle
 10
-1002.753716546136
 20
-202.2446173590583
 30
0.0
 40
7.500001546498893
  0
ARC
  5
542
330
1F
100
AcDbEntity
  8
A-1_ピット
  6
Continuous
 62
     2
370
     9
100
AcDbCircle
 10
-1161.920248495566
 20
-212.4119196711359
 30
0.0
 40
16.66666688145818
100
AcDbArc
 50
180.0
 51
270.0
  0
ARC
  5
543
330
1F
100
AcDbEntity
  8
A-1_ピット
  6
Continuous
 62
     2
370
     9
100
AcDbCircle
 10
-1011.920372215477
 20
-212.4119196711359
 30
0.0
 40
16.66666688145818
100
AcDbArc
 50
270.0
 51
0.0
  0
ARC
  5
544
330
1F
100
AcDbEntity
  8
A-1_ピット
  6
Continuous
 62
     2
370
     9
100
AcDbCircle
 10
-1011.920124775655
 20
-212.4119196711359
 30
0.0
 40
1.666666808966044
100
AcDbArc
 50
270.0
 51
0.0
  0
ARC
  5
545
330
1F
100
AcDbEntity
  8
A-1_ピット
  6
Continuous
 62
     2
370
     9
100
AcDbCircle
 10
-1161.920248495566
 20
-212.4119196711359
 30
0.0
 40
1.666666808966044
100
AcDbArc
 50
180.0
 51
270.0
  0
CIRCLE
  5
546
330
1F
100
AcDbEntity
  8
A-1_ピット
  6
Continuous
 62
     2
370
     9
100
AcDbCircle
 10
-314.4200505437075
 20
-202.2446173590583
 30
0.0
 40
7.500001546498893
  0
CIRCLE
  5
547
330
1F
100
AcDbEntity
  8
A-1_ピット
  6
Continuous
 62
     2
370
     9
100
AcDbCircle
 10
-146.0871103647591
 20
-202.2446173590583
 30
0.0
 40
7.500001546498893
  0
ARC
  5
548
330
1F
100
AcDbEntity
  8
A-1_ピット
  6
Continuous
 62
     2
370
     9
100
AcDbCircle
 10
-305.2533948743664
 20
-212.4119196711359
 30
0.0
 40
16.66666688145818
100
AcDbArc
 50
180.0
 51
270.0
  0
ARC
  5
549
330
1F
100
AcDbEntity
  8
A-1_ピット
  6
Continuous
 62
     2
370
     9
100
AcDbCircle
 10
-155.2527762748099
 20
-212.4119196711359
 30
0.0
 40
16.66666688145818
100
AcDbArc
 50
270.0
 51
0.0
  0
ARC
  5
54A
330
1F
100
AcDbEntity
  8
A-1_ピット
  6
Continuous
 62
     2
370
     9
100
AcDbCircle
 10
-155.2527762748099
 20
-212.4119196711359
 30
0.0
 40
1.666666808966044
100
AcDbArc
 50
270.0
 51
0.0
  0
ARC
  5
54B
330
1F
100
AcDbEntity
  8
A-1_ピット
  6
Continuous
 62
     2
370
     9
100
AcDbCircle
 10
-305.2538897540117
 20
-212.4119196711359
 30
0.0
 40
1.666666808966044
100
AcDbArc
 50
180.0
 51
270.0
  0
CIRCLE
  5
54C
330
1F
100
AcDbEntity
  8
A-1_ピット
  6
Continuous
 62
     2
370
     9
100
AcDbCircle
 10
-1171.087027884818
 20
929.4230198215794
 30
0.0
 40
7.500001546498893
  0
CIRCLE
  5
54D
330
1F
100
AcDbEntity
  8
A-1_ピット
  6
Continuous
 62
     2
370
     9
100
AcDbCircle
 10
-1002.753716546136
 20
929.4230198215794
 30
0.0
 40
7.500001546498893
  0
ARC
  5
54E
330
1F
100
AcDbEntity
  8
A-1_ピット
  6
Continuous
 62
     2
370
     9
100
AcDbCircle
 10
-1161.920248495566
 20
939.5895798141894
 30
0.0
 40
16.66666688145818
100
AcDbArc
 50
90.0
 51
180.0
  0
ARC
  5
54F
330
1F
100
AcDbEntity
  8
A-1_ピット
  6
Continuous
 62
     2
370
     9
100
AcDbCircle
 10
-1011.920372215477
 20
939.5895798141894
 30
0.0
 40
16.66666688145818
100
AcDbArc
 50
0.0
 51
90.0
  0
ARC
  5
550
330
1F
100
AcDbEntity
  8
A-1_ピット
  6
Continuous
 62
     2
370
     9
100
AcDbCircle
 10
-1011.920124775655
 20
939.5895798141894
 30
0.0
 40
1.666666808966044
100
AcDbArc
 50
0.0
 51
90.0
  0
ARC
  5
551
330
1F
100
AcDbEntity
  8
A-1_ピット
  6
Continuous
 62
     2
370
     9
100
AcDbCircle
 10
-1161.920248495566
 20
939.5895798141894
 30
0.0
 40
1.666666808966044
100
AcDbArc
 50
90.0
 51
180.0
  0
CIRCLE
  5
552
330
1F
100
AcDbEntity
  8
A-1_ピット
  6
Continuous
 62
     2
370
     9
100
AcDbCircle
 10
-314.4200505437075
 20
929.4230198215794
 30
0.0
 40
7.500001546498893
  0
CIRCLE
  5
553
330
1F
100
AcDbEntity
  8
A-1_ピット
  6
Continuous
 62
     2
370
     9
100
AcDbCircle
 10
-146.0871103647591
 20
929.4230198215794
 30
0.0
 40
7.500001546498893
  0
ARC
  5
554
330
1F
100
AcDbEntity
  8
A-1_ピット
  6
Continuous
 62
     2
370
     9
100
AcDbCircle
 10
-305.2533948743664
 20
939.5895798141894
 30
0.0
 40
16.66666688145818
100
AcDbArc
 50
90.0
 51
180.0
  0
ARC
  5
555
330
1F
100
AcDbEntity
  8
A-1_ピット
  6
Continuous
 62
     2
370
     9
100
AcDbCircle
 10
-155.2527762748099
 20
939.5895798141894
 30
0.0
 40
16.66666688145818
100
AcDbArc
 50
0.0
 51
90.0
  0
ARC
  5
556
330
1F
100
AcDbEntity
  8
A-1_ピット
  6
Continuous
 62
     2
370
     9
100
AcDbCircle
 10
-155.2527762748099
 20
939.5895798141894
 30
0.0
 40
1.666666808966044
100
AcDbArc
 50
0.0
 51
90.0
  0
ARC
  5
557
330
1F
100
AcDbEntity
  8
A-1_ピット
  6
Continuous
 62
     2
370
     9
100
AcDbCircle
 10
-305.2538897540117
 20
939.5895798141894
 30
0.0
 40
1.666666808966044
100
AcDbArc
 50
90.0
 51
180.0
  0
ARC
  5
558
330
1F
100
AcDbEntity
  8
A-3_受枠
  6
Continuous
 62
     4
370
     9
100
AcDbCircle
 10
-1314.336250923775
 20
871.839319177576
 30
0.0
 40
2.416662106642852
100
AcDbArc
 50
270.0
 51
90.0
  0
ARC
  5
559
330
1F
100
AcDbEntity
  8
A-3_受枠
  6
Continuous
 62
     4
370
     9
100
AcDbCircle
 10
-1356.669987858952
 20
871.839319177576
 30
0.0
 40
2.416662106642852
100
AcDbArc
 50
90.0
 51
270.0
  0
ARC
  5
55A
330
1F
100
AcDbEntity
  8
A-3_受枠
  6
Continuous
 62
     4
370
     9
100
AcDbCircle
 10
-1351.419562262458
 20
871.839319177576
 30
0.0
 40
2.41666718109234
100
AcDbArc
 50
270.0
 51
0.0
  0
ARC
  5
55B
330
1F
100
AcDbEntity
  8
A-3_受枠
  6
Continuous
 62
     4
370
     9
100
AcDbCircle
 10
-1319.586429080448
 20
871.839319177576
 30
0.0
 40
2.41666718109234
100
AcDbArc
 50
180.0
 51
270.0
  0
ARC
  5
55C
330
1F
100
AcDbEntity
  8
A-3_受枠
  6
Continuous
 62
     4
370
     9
100
AcDbCircle
 10
-1354.66968433277
 20
875.0894412478885
 30
0.0
 40
0.833333283662796
100
AcDbArc
 50
270.0
 51
0.0
  0
ARC
  5
55D
330
1F
100
AcDbEntity
  8
A-3_受枠
  6
Continuous
 62
     4
370
     9
100
AcDbCircle
 10
-1316.336307010135
 20
875.0894412478885
 30
0.0
 40
0.833333283662796
100
AcDbArc
 50
180.0
 51
270.0
  0
ARC
  5
55E
330
1F
100
AcDbEntity
  8
A-3_受枠
  6
JWW_HOJO
 62
     4
370
     9
100
AcDbCircle
 10
-1351.419562262458
 20
895.3389265730575
 30
0.0
 40
2.416656790552913
100
AcDbArc
 50
0.0
 51
180.0
  0
ARC
  5
55F
330
1F
100
AcDbEntity
  8
A-3_受枠
  6
JWW_HOJO
 62
     4
370
     9
100
AcDbCircle
 10
-1319.586429080448
 20
895.3389265730575
 30
0.0
 40
2.416656790552913
100
AcDbArc
 50
0.0
 51
180.0
  0
ELLIPSE
  5
560
330
1F
100
AcDbEntity
  8
A-3_受枠
  6
Continuous
 62
     4
370
     9
100
AcDbEllipse
 10
-1351.419562262458
 20
909.521187447213
 30
0.0
 11
2.416662106642852
 21
0.0
 31
0.0
210
0.0
220
0.0
230
1.0
 40
0.9937
 41
0.0
 42
6.283185307179586
  0
ELLIPSE
  5
561
330
1F
100
AcDbEntity
  8
A-3_受枠
  6
Continuous
 62
     4
370
     9
100
AcDbEllipse
 10
-1319.586429080448
 20
909.521187447213
 30
0.0
 11
-2.416662106642852
 21
2.959459770836608E-16
 31
0.0
210
0.0
220
0.0
230
1.0
 40
0.9937
 41
0.0
 42
6.283185307179586
  0
ARC
  5
562
330
1F
100
AcDbEntity
  8
A-3_受枠
  6
JWW_HOJO
 62
     4
370
     9
100
AcDbCircle
 10
-1351.419562262458
 20
907.6723170924834
 30
0.0
 40
2.416656790552913
100
AcDbArc
 50
180.0
 51
0.0
  0
ARC
  5
563
330
1F
100
AcDbEntity
  8
A-3_受枠
  6
JWW_HOJO
 62
     4
370
     9
100
AcDbCircle
 10
-1319.586429080448
 20
907.6723170924834
 30
0.0
 40
2.416656790552913
100
AcDbArc
 50
180.0
 51
0.0
  0
ARC
  5
564
330
1F
100
AcDbEntity
  8
A-3_受枠
  6
Continuous
 62
     4
370
     9
100
AcDbCircle
 10
38.49767736486484
 20
871.839319177576
 30
0.0
 40
2.416662106642852
100
AcDbArc
 50
270.0
 51
90.0
  0
ARC
  5
565
330
1F
100
AcDbEntity
  8
A-3_受枠
  6
Continuous
 62
     4
370
     9
100
AcDbCircle
 10
-3.835812130489842
 20
871.839319177576
 30
0.0
 40
2.416662106642852
100
AcDbArc
 50
90.0
 51
270.0
  0
ARC
  5
566
330
1F
100
AcDbEntity
  8
A-3_受枠
  6
Continuous
 62
     4
370
     9
100
AcDbCircle
 10
1.414366026182563
 20
871.839319177576
 30
0.0
 40
2.41666718109234
100
AcDbArc
 50
270.0
 51
0.0
  0
ARC
  5
567
330
1F
100
AcDbEntity
  8
A-3_受枠
  6
Continuous
 62
     4
370
     9
100
AcDbCircle
 10
33.24749920819272
 20
871.839319177576
 30
0.0
 40
2.41666718109234
100
AcDbArc
 50
180.0
 51
270.0
  0
ARC
  5
568
330
1F
100
AcDbEntity
  8
A-3_受枠
  6
Continuous
 62
     4
370
     9
100
AcDbCircle
 10
-1.836003483952595
 20
875.0894412478885
 30
0.0
 40
0.833333283662796
100
AcDbArc
 50
270.0
 51
0.0
  0
ARC
  5
569
330
1F
100
AcDbEntity
  8
A-3_受枠
  6
Continuous
 62
     4
370
     9
100
AcDbCircle
 10
36.49737383868256
 20
875.0894412478885
 30
0.0
 40
0.833333283662796
100
AcDbArc
 50
180.0
 51
270.0
  0
ARC
  5
56A
330
1F
100
AcDbEntity
  8
A-3_受枠
  6
JWW_HOJO
 62
     4
370
     9
100
AcDbCircle
 10
1.414366026182563
 20
895.3389265730575
 30
0.0
 40
2.416656790552913
100
AcDbArc
 50
0.0
 51
180.0
  0
ARC
  5
56B
330
1F
100
AcDbEntity
  8
A-3_受枠
  6
JWW_HOJO
 62
     4
370
     9
100
AcDbCircle
 10
33.24749920819272
 20
895.3389265730575
 30
0.0
 40
2.416656790552913
100
AcDbArc
 50
0.0
 51
180.0
  0
ELLIPSE
  5
56C
330
1F
100
AcDbEntity
  8
A-3_受枠
  6
Continuous
 62
     4
370
     9
100
AcDbEllipse
 10
1.414366026182563
 20
909.521187447213
 30
0.0
 11
2.416662106642852
 21
0.0
 31
0.0
210
0.0
220
0.0
230
1.0
 40
0.9937
 41
0.0
 42
6.283185307179586
  0
ELLIPSE
  5
56D
330
1F
100
AcDbEntity
  8
A-3_受枠
  6
Continuous
 62
     4
370
     9
100
AcDbEllipse
 10
33.24749920819272
 20
909.521187447213
 30
0.0
 11
-2.416662106642852
 21
2.959459770836608E-16
 31
0.0
210
0.0
220
0.0
230
1.0
 40
0.9937
 41
0.0
 42
6.283185307179586
  0
ARC
  5
56E
330
1F
100
AcDbEntity
  8
A-3_受枠
  6
JWW_HOJO
 62
     4
370
     9
100
AcDbCircle
 10
1.414366026182563
 20
907.6723170924834
 30
0.0
 40
2.416656790552913
100
AcDbArc
 50
180.0
 51
0.0
  0
ARC
  5
56F
330
1F
100
AcDbEntity
  8
A-3_受枠
  6
JWW_HOJO
 62
     4
370
     9
100
AcDbCircle
 10
33.24749920819272
 20
907.6723170924834
 30
0.0
 40
2.416656790552913
100
AcDbArc
 50
180.0
 51
0.0
  0
ARC
  5
570
330
1F
100
AcDbEntity
  8
A-3_受枠
  6
Continuous
 62
     4
370
     9
100
AcDbCircle
 10
-1314.336250923775
 20
-144.6604218354096
 30
0.0
 40
2.416662106642852
100
AcDbArc
 50
270.0
 51
90.0
  0
ARC
  5
571
330
1F
100
AcDbEntity
  8
A-3_受枠
  6
Continuous
 62
     4
370
     9
100
AcDbCircle
 10
-1356.669987858952
 20
-144.6604218354096
 30
0.0
 40
2.416662106642852
100
AcDbArc
 50
90.0
 51
270.0
  0
ARC
  5
572
330
1F
100
AcDbEntity
  8
A-3_受枠
  6
Continuous
 62
     4
370
     9
100
AcDbCircle
 10
-1351.419562262458
 20
-144.6604218354096
 30
0.0
 40
2.41666718109234
100
AcDbArc
 50
0.0
 51
90.0
  0
ARC
  5
573
330
1F
100
AcDbEntity
  8
A-3_受枠
  6
Continuous
 62
     4
370
     9
100
AcDbCircle
 10
-1319.586429080448
 20
-144.6604218354096
 30
0.0
 40
2.41666718109234
100
AcDbArc
 50
90.0
 51
180.0
  0
ARC
  5
574
330
1F
100
AcDbEntity
  8
A-3_受枠
  6
Continuous
 62
     4
370
     9
100
AcDbCircle
 10
-1354.66968433277
 20
-147.9105439057221
 30
0.0
 40
0.833333283662796
100
AcDbArc
 50
0.0
 51
90.0
  0
ARC
  5
575
330
1F
100
AcDbEntity
  8
A-3_受枠
  6
Continuous
 62
     4
370
     9
100
AcDbCircle
 10
-1316.336307010135
 20
-147.9105439057221
 30
0.0
 40
0.833333283662796
100
AcDbArc
 50
90.0
 51
180.0
  0
ARC
  5
576
330
1F
100
AcDbEntity
  8
A-3_受枠
  6
JWW_HOJO
 62
     4
370
     9
100
AcDbCircle
 10
-1351.419562262458
 20
-168.1602766707135
 30
0.0
 40
2.416656790552913
100
AcDbArc
 50
180.0
 51
0.0
  0
ARC
  5
577
330
1F
100
AcDbEntity
  8
A-3_受枠
  6
JWW_HOJO
 62
     4
370
     9
100
AcDbCircle
 10
-1319.586429080448
 20
-168.1602766707135
 30
0.0
 40
2.416656790552913
100
AcDbArc
 50
180.0
 51
0.0
  0
ELLIPSE
  5
578
330
1F
100
AcDbEntity
  8
A-3_受枠
  6
Continuous
 62
     4
370
     9
100
AcDbEllipse
 10
-1351.419562262458
 20
-182.3422901050463
 30
0.0
 11
2.416662106642852
 21
0.0
 31
0.0
210
0.0
220
0.0
230
1.0
 40
0.9937
 41
0.0
 42
6.283185307179586
  0
ELLIPSE
  5
579
330
1F
100
AcDbEntity
  8
A-3_受枠
  6
Continuous
 62
     4
370
     9
100
AcDbEllipse
 10
-1319.586429080448
 20
-182.3422901050463
 30
0.0
 11
-2.416662106642852
 21
2.959459770836608E-16
 31
0.0
210
0.0
220
0.0
230
1.0
 40
0.9937
 41
0.0
 42
6.283185307179586
  0
ARC
  5
57A
330
1F
100
AcDbEntity
  8
A-3_受枠
  6
JWW_HOJO
 62
     4
370
     9
100
AcDbCircle
 10
-1351.419562262458
 20
-180.4934197503167
 30
0.0
 40
2.416656790552913
100
AcDbArc
 50
0.0
 51
180.0
  0
ARC
  5
57B
330
1F
100
AcDbEntity
  8
A-3_受枠
  6
JWW_HOJO
 62
     4
370
     9
100
AcDbCircle
 10
-1319.586429080448
 20
-180.4934197503167
 30
0.0
 40
2.416656790552913
100
AcDbArc
 50
0.0
 51
180.0
  0
ARC
  5
57C
330
1F
100
AcDbEntity
  8
A-3_受枠
  6
Continuous
 62
     4
370
     9
100
AcDbCircle
 10
38.49767736486484
 20
-144.6604218354096
 30
0.0
 40
2.416662106642852
100
AcDbArc
 50
270.0
 51
90.0
  0
ARC
  5
57D
330
1F
100
AcDbEntity
  8
A-3_受枠
  6
Continuous
 62
     4
370
     9
100
AcDbCircle
 10
-3.835812130489842
 20
-144.6604218354096
 30
0.0
 40
2.416662106642852
100
AcDbArc
 50
90.0
 51
270.0
  0
ARC
  5
57E
330
1F
100
AcDbEntity
  8
A-3_受枠
  6
Continuous
 62
     4
370
     9
100
AcDbCircle
 10
1.414366026182563
 20
-144.6604218354096
 30
0.0
 40
2.41666718109234
100
AcDbArc
 50
0.0
 51
90.0
  0
ARC
  5
57F
330
1F
100
AcDbEntity
  8
A-3_受枠
  6
Continuous
 62
     4
370
     9
100
AcDbCircle
 10
33.24749920819272
 20
-144.6604218354096
 30
0.0
 40
2.41666718109234
100
AcDbArc
 50
90.0
 51
180.0
  0
ARC
  5
580
330
1F
100
AcDbEntity
  8
A-3_受枠
  6
Continuous
 62
     4
370
     9
100
AcDbCircle
 10
-1.836003483952595
 20
-147.9105439057221
 30
0.0
 40
0.833333283662796
100
AcDbArc
 50
0.0
 51
90.0
  0
ARC
  5
581
330
1F
100
AcDbEntity
  8
A-3_受枠
  6
Continuous
 62
     4
370
     9
100
AcDbCircle
 10
36.49737383868256
 20
-147.9105439057221
 30
0.0
 40
0.833333283662796
100
AcDbArc
 50
90.0
 51
180.0
  0
ARC
  5
582
330
1F
100
AcDbEntity
  8
A-3_受枠
  6
JWW_HOJO
 62
     4
370
     9
100
AcDbCircle
 10
1.414366026182563
 20
-168.1602766707135
 30
0.0
 40
2.416656790552913
100
AcDbArc
 50
180.0
 51
0.0
  0
ARC
  5
583
330
1F
100
AcDbEntity
  8
A-3_受枠
  6
JWW_HOJO
 62
     4
370
     9
100
AcDbCircle
 10
33.24749920819272
 20
-168.1602766707135
 30
0.0
 40
2.416656790552913
100
AcDbArc
 50
180.0
 51
0.0
  0
ELLIPSE
  5
584
330
1F
100
AcDbEntity
  8
A-3_受枠
  6
Continuous
 62
     4
370
     9
100
AcDbEllipse
 10
1.414366026182563
 20
-182.3422901050463
 30
0.0
 11
2.416662106642852
 21
0.0
 31
0.0
210
0.0
220
0.0
230
1.0
 40
0.9937
 41
0.0
 42
6.283185307179586
  0
ELLIPSE
  5
585
330
1F
100
AcDbEntity
  8
A-3_受枠
  6
Continuous
 62
     4
370
     9
100
AcDbEllipse
 10
33.24749920819272
 20
-182.3422901050463
 30
0.0
 11
-2.416662106642852
 21
2.959459770836608E-16
 31
0.0
210
0.0
220
0.0
230
1.0
 40
0.9937
 41
0.0
 42
6.283185307179586
  0
ARC
  5
586
330
1F
100
AcDbEntity
  8
A-3_受枠
  6
JWW_HOJO
 62
     4
370
     9
100
AcDbCircle
 10
1.414366026182563
 20
-180.4934197503167
 30
0.0
 40
2.416656790552913
100
AcDbArc
 50
0.0
 51
180.0
  0
ARC
  5
587
330
1F
100
AcDbEntity
  8
A-3_受枠
  6
JWW_HOJO
 62
     4
370
     9
100
AcDbCircle
 10
33.24749920819272
 20
-180.4934197503167
 30
0.0
 40
2.416656790552913
100
AcDbArc
 50
0.0
 51
180.0
  0
ARC
  5
588
330
1F
100
AcDbEntity
  8
A-3_受枠
  6
Continuous
 62
     4
370
     9
100
AcDbCircle
 10
1297.940393396326
 20
-178.8705856735641
 30
0.0
 40
0.833333283662796
100
AcDbArc
 50
267.2883911132812
 51
0.0000000000000254
  0
ARC
  5
589
330
1F
100
AcDbEntity
  8
A-3_受枠
  6
Continuous
 62
     4
370
     9
100
AcDbCircle
 10
1297.940393396326
 20
-178.8705856735641
 30
0.0
 40
5.666667222976685
100
AcDbArc
 50
267.2882080078125
 51
0.0000000000000254
  0
ARC
  5
58A
330
1F
100
AcDbEntity
  8
A-3_受枠
  6
Continuous
 62
     4
370
     9
100
AcDbCircle
 10
1297.940393396326
 20
-169.7915237014357
 30
0.0
 40
5.666667222976685
100
AcDbArc
 50
0.0
 51
93.15977478027344
  0
ARC
  5
58B
330
1F
100
AcDbEntity
  8
A-3_受枠
  6
Continuous
 62
     4
370
     9
100
AcDbCircle
 10
1297.940393396326
 20
-169.7915237014357
 30
0.0
 40
0.833333283662796
100
AcDbArc
 50
0.0
 51
93.16032409667969
  0
ARC
  5
58C
330
1F
100
AcDbEntity
  8
A-3_受枠
  6
Continuous
 62
     4
370
     9
100
AcDbCircle
 10
1301.190268026816
 20
-144.660916715055
 30
0.0
 40
2.416662106642852
100
AcDbArc
 50
270.0
 51
90.0
  0
ARC
  5
58D
330
1F
100
AcDbEntity
  8
A-3_受枠
  6
Continuous
 62
     4
370
     9
100
AcDbCircle
 10
1252.606943491343
 20
-147.910915065456
 30
0.0
 40
0.833333283662796
100
AcDbArc
 50
90.0
 51
180.0
  0
ARC
  5
58E
330
1F
100
AcDbEntity
  8
A-3_受枠
  6
Continuous
 62
     4
370
     9
100
AcDbCircle
 10
1252.606943491343
 20
-147.910915065456
 30
0.0
 40
5.666667222976685
100
AcDbArc
 50
90.0
 51
180.0
  0
ARC
  5
58F
330
1F
100
AcDbEntity
  8
A-3_受枠
  6
Continuous
 62
     4
370
     9
100
AcDbCircle
 10
1252.606943491343
 20
-156.9537271035682
 30
0.0
 40
5.666667222976685
100
AcDbArc
 50
180.0
 51
245.1987609863281
  0
ARC
  5
590
330
1F
100
AcDbEntity
  8
A-3_受枠
  6
Continuous
 62
     4
370
     9
100
AcDbCircle
 10
1252.606943491343
 20
-156.9537271035682
 30
0.0
 40
0.833333283662796
100
AcDbArc
 50
180.0
 51
245.1991119384766
  0
ARC
  5
591
330
1F
100
AcDbEntity
  8
A-1_ピット
  6
Continuous
 62
     2
370
     9
100
AcDbCircle
 10
1219.607378985431
 20
916.0897249788852
 30
0.0
 40
4.166666237083642
100
AcDbArc
 50
180.0
 51
270.0
  0
ARC
  5
592
330
1F
100
AcDbEntity
  8
A-1_ピット
  6
Continuous
 62
     2
370
     9
100
AcDbCircle
 10
1311.273935678843
 20
826.0894280510981
 30
0.0
 40
4.166666237083642
100
AcDbArc
 50
180.0
 51
270.0
  0
ARC
  5
593
330
1F
100
AcDbEntity
  8
A-1_ピット
  6
Continuous
 62
     2
370
     9
100
AcDbCircle
 10
1300.440525364232
 20
905.2563146642738
 30
0.0
 40
6.666666269302368
100
AcDbArc
 50
0.0
 51
90.0
  0
ARC
  5
594
330
1F
100
AcDbEntity
  8
A-1_ピット
  6
Continuous
 62
     2
370
     9
100
AcDbCircle
 10
1298.465708139781
 20
951.9232177734375
 30
0.0
 40
29.99999652037749
100
AcDbArc
 50
270.0
 51
285.0
  0
ARC
  5
595
330
1F
100
AcDbEntity
  8
A-1_ピット
  6
Continuous
 62
     2
370
     9
100
AcDbCircle
 10
1401.27423260663
 20
956.176460884713
 30
0.0
 40
7.499999130094373
100
AcDbArc
 50
285.0001373291016
 51
104.9999084472656
  0
ARC
  5
596
330
1F
100
AcDbEntity
  8
A-1_ピット
  6
JWW_CENTER2
 62
     2
370
     9
100
AcDbCircle
 10
1298.465708139781
 20
951.9227228937925
 30
0.0
 40
22.50000077324945
100
AcDbArc
 50
270.0
 51
284.9999542236328
  0
ARC
  5
597
330
1F
100
AcDbEntity
  8
A-1_ピット
  6
Continuous
 62
     2
370
     9
100
AcDbCircle
 10
1298.465955579603
 20
951.9232177734375
 30
0.0
 40
14.99999826018875
100
AcDbArc
 50
270.0
 51
285.0000152587891
  0
ARC
  5
598
330
1F
100
AcDbEntity
  8
A-3_受枠
  6
Continuous
 62
     4
370
     9
100
AcDbCircle
 10
1297.940393396326
 20
906.0491118559967
 30
0.0
 40
0.833333283662796
100
AcDbArc
 50
0.0
 51
92.71160888671875
  0
ARC
  5
599
330
1F
100
AcDbEntity
  8
A-3_受枠
  6
Continuous
 62
     4
370
     9
100
AcDbCircle
 10
1297.940393396326
 20
906.0491118559967
 30
0.0
 40
5.666667222976685
100
AcDbArc
 50
0.0
 51
92.71179199218751
  0
ARC
  5
59A
330
1F
100
AcDbEntity
  8
A-3_受枠
  6
Continuous
 62
     4
370
     9
100
AcDbCircle
 10
1297.940393396326
 20
896.9700498838686
 30
0.0
 40
5.666667222976685
100
AcDbArc
 50
266.8402252197266
 51
0.0000000000000568
  0
ARC
  5
59B
330
1F
100
AcDbEntity
  8
A-3_受枠
  6
Continuous
 62
     4
370
     9
100
AcDbCircle
 10
1297.940393396326
 20
896.9700498838686
 30
0.0
 40
0.833333283662796
100
AcDbArc
 50
266.8396759033203
 51
0.0
  0
ARC
  5
59C
330
1F
100
AcDbEntity
  8
A-3_受枠
  6
Continuous
 62
     4
370
     9
100
AcDbCircle
 10
1301.190268026816
 20
871.8395666173988
 30
0.0
 40
2.416662106642852
100
AcDbArc
 50
270.0
 51
90.0
  0
ARC
  5
59D
330
1F
100
AcDbEntity
  8
A-3_受枠
  6
Continuous
 62
     4
370
     9
100
AcDbCircle
 10
1252.606943491343
 20
875.0894412478885
 30
0.0
 40
0.833333283662796
100
AcDbArc
 50
180.0
 51
270.0
  0
ARC
  5
59E
330
1F
100
AcDbEntity
  8
A-3_受枠
  6
Continuous
 62
     4
370
     9
100
AcDbCircle
 10
1252.606943491343
 20
875.0894412478885
 30
0.0
 40
5.666667222976685
100
AcDbArc
 50
180.0
 51
270.0
  0
ARC
  5
59F
330
1F
100
AcDbEntity
  8
A-3_受枠
  6
Continuous
 62
     4
370
     9
100
AcDbCircle
 10
1252.606943491343
 20
884.1323770059123
 30
0.0
 40
5.666667222976685
100
AcDbArc
 50
114.8012390136719
 51
180.0
  0
ARC
  5
5A0
330
1F
100
AcDbEntity
  8
A-3_受枠
  6
Continuous
 62
     4
370
     9
100
AcDbCircle
 10
1252.606943491343
 20
884.1323770059123
 30
0.0
 40
0.833333283662796
100
AcDbArc
 50
114.8008880615234
 51
180.0
  0
ARC
  5
5A1
330
1F
100
AcDbEntity
  8
A-1_ピット
  6
Continuous
 62
     2
370
     9
100
AcDbCircle
 10
1219.607378985431
 20
-188.9108276367188
 30
0.0
 40
4.166666237083642
100
AcDbArc
 50
90.0
 51
180.0
  0
ARC
  5
5A2
330
1F
100
AcDbEntity
  8
A-1_ピット
  6
Continuous
 62
     2
370
     9
100
AcDbCircle
 10
1311.273935678843
 20
-98.91077814875416
 30
0.0
 40
4.166666237083642
100
AcDbArc
 50
90.0
 51
180.0
  0
ARC
  5
5A3
330
1F
100
AcDbEntity
  8
A-1_ピット
  6
Continuous
 62
     2
370
     9
100
AcDbCircle
 10
1300.440525364232
 20
-178.0775410420185
 30
0.0
 40
6.666666269302368
100
AcDbArc
 50
270.0
 51
0.0
  0
ARC
  5
5A4
330
1F
100
AcDbEntity
  8
A-1_ピット
  6
Continuous
 62
     2
370
     9
100
AcDbCircle
 10
1298.465708139781
 20
-224.7444441511824
 30
0.0
 40
29.99999652037749
100
AcDbArc
 50
74.99999999999999
 51
89.99999999999999
  0
ARC
  5
5A5
330
1F
100
AcDbEntity
  8
A-1_ピット
  6
Continuous
 62
     2
370
     9
100
AcDbCircle
 10
1401.27423260663
 20
-228.9976872624577
 30
0.0
 40
7.499999130094373
100
AcDbArc
 50
255.0000915527343
 51
74.9998626708984
  0
ARC
  5
5A6
330
1F
100
AcDbEntity
  8
A-1_ピット
  6
JWW_CENTER2
 62
     2
370
     9
100
AcDbCircle
 10
1298.465708139781
 20
-224.7440729914484
 30
0.0
 40
22.50000077324945
100
AcDbArc
 50
75.00004577636717
 51
90.0
  0
ARC
  5
5A7
330
1F
100
AcDbEntity
  8
A-1_ピット
  6
Continuous
 62
     2
370
     9
100
AcDbCircle
 10
1298.465955579603
 20
-224.7444441511824
 30
0.0
 40
14.99999826018875
100
AcDbArc
 50
74.99998474121095
 51
90.0
  0
ARC
  5
5A8
330
1F
100
AcDbEntity
  8
A-3_受枠
  6
Continuous
 62
     4
370
     9
100
AcDbCircle
 10
1297.940393396326
 20
-178.8703382337414
 30
0.0
 40
0.833333283662796
100
AcDbArc
 50
267.2883911132812
 51
0.0000000000000254
  0
ARC
  5
5A9
330
1F
100
AcDbEntity
  8
A-3_受枠
  6
Continuous
 62
     4
370
     9
100
AcDbCircle
 10
1297.940393396326
 20
-178.8703382337414
 30
0.0
 40
5.666667222976685
100
AcDbArc
 50
267.2882080078125
 51
0.0000000000000254
  0
ARC
  5
5AA
330
1F
100
AcDbEntity
  8
A-3_受枠
  6
Continuous
 62
     4
370
     9
100
AcDbCircle
 10
1297.940393396326
 20
-169.7913999815245
 30
0.0
 40
5.666667222976685
100
AcDbArc
 50
0.0
 51
93.15977478027344
  0
ARC
  5
5AB
330
1F
100
AcDbEntity
  8
A-3_受枠
  6
Continuous
 62
     4
370
     9
100
AcDbCircle
 10
1297.940393396326
 20
-169.7913999815245
 30
0.0
 40
0.833333283662796
100
AcDbArc
 50
0.0
 51
93.16032409667969
  0
ARC
  5
5AC
330
1F
100
AcDbEntity
  8
A-3_受枠
  6
Continuous
 62
     4
370
     9
100
AcDbCircle
 10
1301.190268026816
 20
-144.6607929951435
 30
0.0
 40
2.416662106642852
100
AcDbArc
 50
270.0
 51
90.0
  0
ARC
  5
5AD
330
1F
100
AcDbEntity
  8
A-3_受枠
  6
Continuous
 62
     4
370
     9
100
AcDbCircle
 10
1252.606943491343
 20
-147.9106676256333
 30
0.0
 40
0.833333283662796
100
AcDbArc
 50
90.0
 51
180.0
  0
ARC
  5
5AE
330
1F
100
AcDbEntity
  8
A-3_受枠
  6
Continuous
 62
     4
370
     9
100
AcDbCircle
 10
1252.606943491343
 20
-147.9106676256333
 30
0.0
 40
5.666667222976685
100
AcDbArc
 50
90.0
 51
180.0
  0
ARC
  5
5AF
330
1F
100
AcDbEntity
  8
A-3_受枠
  6
Continuous
 62
     4
370
     9
100
AcDbCircle
 10
1252.606943491343
 20
-156.953603383657
 30
0.0
 40
5.666667222976685
100
AcDbArc
 50
180.0
 51
245.1987609863281
  0
ARC
  5
5B0
330
1F
100
AcDbEntity
  8
A-3_受枠
  6
Continuous
 62
     4
370
     9
100
AcDbCircle
 10
1252.606943491343
 20
-156.953603383657
 30
0.0
 40
0.833333283662796
100
AcDbArc
 50
180.0
 51
245.1991119384766
  0
TEXT
  5
5B1
330
1F
100
AcDbEntity
  8
D-4_寸法
  6
Continuous
 62
     2
370
     9
100
AcDbText
 10
854.3055024018158
 20
-999.2250463207348
 30
0.0
 40
30.48
  1
材質：ＳＳ４００
 41
1.109375
  7
ＭＳ ゴシック
100
AcDbText
  0
TEXT
  5
5B2
330
1F
100
AcDbEntity
  8
D-4_寸法
  6
Continuous
 62
     2
370
     9
100
AcDbText
 10
854.3055271457981
 20
-1054.224980336782
 30
0.0
 40
30.48
  1
処理：樹脂系塗料塗装
 41
1.1125
  7
ＭＳ ゴシック
100
AcDbText
  0
TEXT
  5
5B3
330
1F
100
AcDbEntity
  8
D-4_寸法
  6
Continuous
 62
     2
370
     9
100
AcDbText
 10
740.0038930532096
 20
-596.3049264938767
 30
0.0
 40
30.48
  1
仕　様
 41
1.083333333333333
  7
ＭＳ ゴシック
100
AcDbText
  0
TEXT
  5
5B4
330
1F
100
AcDbEntity
  8
D-4_寸法
  6
Continuous
 62
     2
370
     9
100
AcDbText
 10
854.3055271457981
 20
-824.2242215213261
 30
0.0
 40
30.48
  1
処理：溶融亜鉛めっき
 41
1.1125
  7
ＭＳ ゴシック
100
AcDbText
  0
TEXT
  5
5B5
330
1F
100
AcDbEntity
  8
D-4_寸法
  6
Continuous
 62
     2
370
     9
100
AcDbText
 10
854.305601377745
 20
-879.2253927364865
 30
0.0
 40
30.48
  1
定尺：９９５
 41
1.104166666666667
  7
ＭＳ ゴシック
100
AcDbText
  0
TEXT
  5
5B6
330
1F
100
AcDbEntity
  8
D-4_寸法
  6
Continuous
 62
     2
370
     9
100
AcDbText
 10
794.5931511956294
 20
-659.2254092324746
 30
0.0
 40
30.48
  1
ノンスリップタイプ
 41
1.111111111111111
  7
ＭＳ ゴシック
100
AcDbText
  0
TEXT
  5
5B7
330
1F
100
AcDbEntity
  8
D-4_寸法
  6
Continuous
 62
     2
370
     9
100
AcDbText
 10
854.3055024018158
 20
-769.2232977459881
 30
0.0
 40
30.48
  1
材質：ＳＳ４００
 41
1.109375
  7
ＭＳ ゴシック
100
AcDbText
  0
TEXT
  5
5B8
330
1F
100
AcDbEntity
  8
A-4_寸法
  6
Continuous
 62
     7
370
     9
100
AcDbText
 10
1490.44538343275
 20
1106.208891733531
 30
0.0
 40
22.86
  1
アンカー：φ９
 41
1.142857142857143
  7
ＭＳ ゴシック
100
AcDbText
  0
TEXT
  5
5B9
330
1F
100
AcDbEntity
  8
A-4_寸法
  6
Continuous
 62
     2
370
     9
100
AcDbText
 10
1120.903282610889
 20
-230.2698045051365
 30
0.0
 40
30.48
  1
6
 50
90.00000250447816
 41
0.9999999999999989
  7
ＭＳ ゴシック
100
AcDbText
  0
TEXT
  5
5BA
330
1F
100
AcDbEntity
  8
A-4_寸法
  6
Continuous
 62
     2
370
     9
100
AcDbText
 10
1120.903282610889
 20
-174.0842625789329
 30
0.0
 40
30.48
  1
4
 50
90.00000250447816
 41
0.9999999999999998
  7
ＭＳ ゴシック
100
AcDbText
  0
TEXT
  5
5BB
330
1F
100
AcDbEntity
  8
A-4_寸法
  6
Continuous
 62
     2
370
     9
100
AcDbText
 10
1120.903282610889
 20
877.8306123484848
 30
0.0
 40
30.48
  1
4
 50
90.00000250447816
 41
1.000000000000001
  7
ＭＳ ゴシック
100
AcDbText
  0
TEXT
  5
5BC
330
1F
100
AcDbEntity
  8
A-4_寸法
  6
Continuous
 62
     2
370
     9
100
AcDbText
 10
1120.903282610889
 20
938.7552454777077
 30
0.0
 40
30.48
  1
6
 50
90.00000250447816
 41
1.000000000000001
  7
ＭＳ ゴシック
100
AcDbText
  0
TEXT
  5
5BD
330
1F
100
AcDbEntity
  8
A-4_寸法
  6
Continuous
 62
     2
370
     9
100
AcDbText
 10
1478.1333922401
 20
-165.9941804619037
 30
0.0
 40
30.48
  1
60
 50
90.00000250447816
 41
1.0625
  7
ＭＳ ゴシック
100
AcDbText
  0
TEXT
  5
5BE
330
1F
100
AcDbEntity
  8
A-4_寸法
  6
Continuous
 62
     2
370
     9
100
AcDbText
 10
1478.1333922401
 20
850.6730773110058
 30
0.0
 40
30.48
  1
60
 50
90.00000250447816
 41
1.062500000000001
  7
ＭＳ ゴシック
100
AcDbText
  0
TEXT
  5
5BF
330
1F
100
AcDbEntity
  8
A-4_寸法
  6
Continuous
 62
     7
370
     9
100
AcDbText
 10
-765.4510279282538
 20
1202.152940640821
 30
0.0
 40
22.86
  1
クロスバー □８ ＠100
 50
0.0000388418058018
 41
1.158730158730159
  7
ＭＳ ゴシック
100
AcDbText
  0
TEXT
  5
5C0
330
1F
100
AcDbEntity
  8
A-4_寸法
  6
Continuous
 62
     7
370
     9
100
AcDbText
 10
93.93707275390639
 20
1135.485476668075
 30
0.0
 40
22.86
  1
ＵＳクリップ：ＵＳ－２
 41
1.151515151515152
  7
ＭＳ ゴシック
100
AcDbText
  0
TEXT
  5
5C1
330
1F
100
AcDbEntity
  8
A-4_寸法
  6
Continuous
 62
     7
370
     9
100
AcDbText
 10
828.9990811734589
 20
1094.200142261402
 30
0.0
 40
22.86
  1
（二方受四方枠）
 41
1.145833333333333
  7
ＭＳ ゴシック
100
AcDbText
  0
TEXT
  5
5C2
330
1F
100
AcDbEntity
  8
A-4_寸法
  6
Continuous
 62
     2
370
     9
100
AcDbText
 10
-555.5867581754117
 20
973.1353481313346
 30
0.0
 40
30.48
  1
35.3
 41
1.09375
  7
ＭＳ ゴシック
100
AcDbText
  0
TEXT
  5
5C3
330
1F
100
AcDbEntity
  8
A-4_寸法
  6
Continuous
 62
     2
370
     9
100
AcDbText
 10
-702.3370072648331
 20
-395.9816051256333
 30
0.0
 40
30.48
  1
1014
 41
1.09375
  7
ＭＳ ゴシック
100
AcDbText
  0
TEXT
  5
5C4
330
1F
100
AcDbEntity
  8
A-4_寸法
  6
Continuous
 62
     2
370
     9
100
AcDbText
 10
-1540.334049946553
 20
-308.1438085277661
 30
0.0
 40
30.48
  1
6
 41
0.9999999999999998
  7
ＭＳ ゴシック
100
AcDbText
  0
TEXT
  5
5C5
330
1F
100
AcDbEntity
  8
A-4_寸法
  6
Continuous
 62
     2
370
     9
100
AcDbText
 10
-1480.938335109402
 20
-308.1438085277661
 30
0.0
 40
30.48
  1
3.5
 41
1.083333333333333
  7
ＭＳ ゴシック
100
AcDbText
  0
TEXT
  5
5C6
330
1F
100
AcDbEntity
  8
A-4_寸法
  6
Continuous
 62
     2
370
     9
100
AcDbText
 10
-691.0869454048775
 20
-308.1438085277661
 30
0.0
 40
30.48
  1
995
 41
1.083333333333333
  7
ＭＳ ゴシック
100
AcDbText
  0
TEXT
  5
5C7
330
1F
100
AcDbEntity
  8
A-4_寸法
  6
Continuous
 62
     2
370
     9
100
AcDbText
 10
93.08585502005926
 20
-308.1438085277661
 30
0.0
 40
30.48
  1
3.5
 41
1.083333333333333
  7
ＭＳ ゴシック
100
AcDbText
  0
TEXT
  5
5C8
330
1F
100
AcDbEntity
  8
A-4_寸法
  6
Continuous
 62
     2
370
     9
100
AcDbText
 10
202.9353291279563
 20
-308.1438085277661
 30
0.0
 40
30.48
  1
6
 41
0.9999999999999998
  7
ＭＳ ゴシック
100
AcDbText
  0
TEXT
  5
5C9
330
1F
100
AcDbEntity
  8
A-4_寸法
  6
Continuous
 62
     2
370
     9
100
AcDbText
 10
1240.024141878695
 20
-301.7708721758867
 30
0.0
 40
30.48
  1
55
 41
1.0625
  7
ＭＳ ゴシック
100
AcDbText
  0
TEXT
  5
5CA
330
1F
100
AcDbEntity
  8
A-4_寸法
  6
Continuous
 62
     2
370
     9
100
AcDbText
 10
1245.024158374684
 20
-368.4375938291807
 30
0.0
 40
30.48
  1
61
 41
1.0625
  7
ＭＳ ゴシック
100
AcDbText
  0
TEXT
  5
5CB
330
1F
100
AcDbEntity
  8
A-4_寸法
  6
Continuous
 62
     7
370
     9
100
AcDbText
 10
841.1145431930956
 20
1135.396645771748
 30
0.0
 40
22.86
  1
受枠：Ｌ－５５
 41
1.142857142857143
  7
ＭＳ ゴシック
100
AcDbText
  0
TEXT
  5
5CC
330
1F
100
AcDbEntity
  8
D-4_寸法
  6
Continuous
 62
     2
370
     9
100
AcDbText
 10
794.5945863466009
 20
-944.2248648648648
 30
0.0
 40
30.48
  1
スチール製受枠　Ｌ－５５（二方受四方枠）
 41
1.11875
  7
ＭＳ ゴシック
100
AcDbText
  0
TEXT
  5
5CD
330
1F
100
AcDbEntity
  8
A-4_寸法
  6
Continuous
 62
     7
370
     9
100
AcDbText
 10
-695.2925334129758
 20
1135.485971547717
 30
0.0
 40
22.86
  1
メインバー ＤⅠ－５５ ＠35.3
 50
359.9999127553377
 41
1.160714285714286
  7
ＭＳ ゴシック
100
AcDbText
  0
TEXT
  5
5CE
330
1F
100
AcDbEntity
  8
D-4_寸法
  6
Continuous
 62
     7
370
     9
100
AcDbText
 10
-982.993767534245
 20
-1097.344674039269
 30
0.0
 40
22.86
  1
※デルタパターンの配列は一定ではありません。
 50
0.0000185323619753
 41
1.159090909090909
  7
ＭＳ ゴシック
100
AcDbText
  0
TEXT
  5
5CF
330
1F
100
AcDbEntity
  8
D-4_寸法
  6
Continuous
 62
     2
370
     9
100
AcDbText
 10
-1002.994137325802
 20
-1020.934674039274
 30
0.0
 40
30.48
  1
ＤⅠ－５５　バー形状詳細　Ｓ＝１：２
 41
1.118055555555555
  7
ＭＳ ゴシック
100
AcDbText
  0
TEXT
  5
5D0
330
1F
100
AcDbEntity
  8
D-4_寸法
  6
Continuous
 62
     7
370
     9
100
AcDbText
 10
-819.9059316274281
 20
-562.6789322476773
 30
0.0
 40
22.86
  1
デルタパターン
 41
1.142857142857143
  7
ＭＳ ゴシック
100
AcDbText
  0
TEXT
  5
5D1
330
1F
100
AcDbEntity
  8
D-4_寸法
  6
Continuous
 62
     2
370
     9
100
AcDbText
 10
-1008.30995772906
 20
-687.0864932489341
 30
0.0
 40
30.48
  1
8
 50
90.00000250447816
 41
1.000000000000001
  7
ＭＳ ゴシック
100
AcDbText
  0
TEXT
  5
5D2
330
1F
100
AcDbEntity
  8
D-4_寸法
  6
Continuous
 62
     2
370
     9
100
AcDbText
 10
-1008.30995772906
 20
-861.3407921034526
 30
0.0
 40
30.48
  1
5
 50
90.00000250447816
 41
1.000000000000001
  7
ＭＳ ゴシック
100
AcDbText
  0
TEXT
  5
5D3
330
1F
100
AcDbEntity
  8
D-4_寸法
  6
Continuous
 62
     2
370
     9
100
AcDbText
 10
-927.5379778887773
 20
-561.1989067778717
 30
0.0
 40
30.48
  1
7
 41
0.9999999999999998
  7
ＭＳ ゴシック
100
AcDbText
  0
TEXT
  5
5D4
330
1F
100
AcDbEntity
  8
D-4_寸法
  6
Continuous
 62
     2
370
     9
100
AcDbText
 10
-848.915113085278
 20
-681.2125884483644
 30
0.0
 40
30.48
  1
5
 50
282.0789753068251
 41
0.999999999999997
  7
ＭＳ ゴシック
100
AcDbText
  0
TEXT
  5
5D5
330
1F
100
AcDbEntity
  8
D-4_寸法
  6
Continuous
 62
     2
370
     9
100
AcDbText
 10
-268.958950558224
 20
-553.680447767103
 30
0.0
 40
30.48
  1
7
 41
0.9999999999999998
  7
ＭＳ ゴシック
100
AcDbText
  0
TEXT
  5
5D6
330
1F
100
AcDbEntity
  8
D-4_寸法
  6
Continuous
 62
     2
370
     9
100
AcDbText
 10
-221.9549106907199
 20
-756.7394638144002
 30
0.0
 40
30.48
  1
4
 41
0.9999999999999998
  7
ＭＳ ゴシック
100
AcDbText
  0
TEXT
  5
5D7
330
1F
100
AcDbEntity
  8
D-4_寸法
  6
Continuous
 62
     2
370
     9
100
AcDbText
 10
-134.652648194866
 20
-780.3242866300839
 30
0.0
 40
30.48
  1
55
 50
90.00000250447816
 41
1.062500000000001
  7
ＭＳ ゴシック
100
AcDbText
  0
TEXT
  5
5D8
330
1F
100
AcDbEntity
  8
A-4_寸法
  6
Continuous
 62
     2
370
     9
100
AcDbText
 10
1123.236888561667
 20
331.089634004418
 30
0.0
 40
30.48
  1
650
 50
90.00000250447816
 41
1.083333333333333
  7
ＭＳ ゴシック
100
AcDbText
  0
TEXT
  5
5D9
330
1F
100
AcDbEntity
  8
A-4_寸法
  6
Continuous
 62
     2
370
     9
100
AcDbText
 10
1056.570166908374
 20
331.0895102845067
 30
0.0
 40
30.48
  1
670
 50
90.00000250447816
 41
1.083333333333333
  7
ＭＳ ゴシック
100
AcDbText
  0
TEXT
  5
5DA
330
1F
100
AcDbEntity
  8
A-4_寸法
  6
Continuous
 62
     2
370
     9
100
AcDbText
 10
1480.466997699125
 20
331.0893865645955
 30
0.0
 40
30.48
  1
550
 50
90.00000250447816
 41
1.083333333333333
  7
ＭＳ ゴシック
100
AcDbText
  0
TEXT
  5
5DB
330
1F
100
AcDbEntity
  8
D-4_寸法
  6
Continuous
 62
     2
370
     9
100
AcDbText
 10
794.5931017076648
 20
-714.2263330078125
 30
0.0
 40
30.48
  1
圧接式グレーチング　ＨＸＢＣ　１６５５５
 41
1.11875
  7
ＭＳ ゴシック
100
AcDbText
  0
TEXT
  5
5DC
330
1F
100
AcDbEntity
  8
A-4_寸法
  6
Continuous
 62
     7
370
     9
100
AcDbText
 10
248.1462220887882
 20
937.8929011824325
 30
0.0
 40
22.86
  1
プレート：ｔ＝６
 41
1.145833333333333
  7
ＭＳ ゴシック
100
AcDbText
  0
TEXT
  5
5DD
330
1F
100
AcDbEntity
  8
A-4_寸法
  6
Continuous
 62
     2
370
     9
100
AcDbText
 10
-691.0868216849661
 20
1051.229335673564
 30
0.0
 40
30.48
  1
514
 41
1.083333333333333
  7
ＭＳ ゴシック
100
AcDbText
  0
TEXT
  5
5DE
330
1F
100
AcDbEntity
  8
A-4_寸法
  6
Continuous
 62
     2
370
     9
100
AcDbText
 10
-54.41976598791172
 20
1051.229335673564
 30
0.0
 40
30.48
  1
250
 41
1.083333333333333
  7
ＭＳ ゴシック
100
AcDbText
  0
TEXT
  5
5DF
330
1F
100
AcDbEntity
  8
A-4_寸法
  6
Continuous
 62
     2
370
     9
100
AcDbText
 10
-1327.753722732132
 20
1051.229335673564
 30
0.0
 40
30.48
  1
250
 41
1.083333333333333
  7
ＭＳ ゴシック
100
AcDbText
  0
LWPOLYLINE
  5
5E0
330
1F
100
AcDbEntity
  8
A-4_寸法
  6
Continuous
 62
     7
370
     9
100
AcDbPolyline
 90
        4
 70
     1
 43
1.0
 10
1135.376807960304
 20
-194.7439740155193
 42
0.4142135623731
 10
1134.876807960304
 20
-194.2439740155193
 42
0.4142135623731
 10
1134.376807960304
 20
-194.7439740155193
 42
0.4142135623731
 10
1134.876807960304
 20
-195.2439740155193
 42
0.4142135623731
  0
LWPOLYLINE
  5
5E1
330
1F
100
AcDbEntity
  8
A-4_寸法
  6
Continuous
 62
     7
370
     9
100
AcDbPolyline
 90
        4
 70
     1
 43
1.0
 10
1135.376807960304
 20
-184.7441884633656
 42
0.4142135623731
 10
1134.876807960304
 20
-184.2441884633656
 42
0.4142135623731
 10
1134.376807960304
 20
-184.7441884633656
 42
0.4142135623731
 10
1134.876807960304
 20
-185.2441884633656
 42
0.4142135623731
  0
LWPOLYLINE
  5
5E2
330
1F
100
AcDbEntity
  8
A-4_寸法
  6
Continuous
 62
     7
370
     9
100
AcDbPolyline
 90
        4
 70
     1
 43
1.0
 10
1135.376807960304
 20
-178.076922442462
 42
0.4142135623731
 10
1134.876807960304
 20
-177.576922442462
 42
0.4142135623731
 10
1134.376807960304
 20
-178.076922442462
 42
0.4142135623731
 10
1134.876807960304
 20
-178.576922442462
 42
0.4142135623731
  0
LWPOLYLINE
  5
5E3
330
1F
100
AcDbEntity
  8
A-4_寸法
  6
Continuous
 62
     7
370
     9
100
AcDbPolyline
 90
        4
 70
     1
 43
1.0
 10
1135.376807960304
 20
905.2563146642738
 42
0.4142135623731
 10
1134.876807960304
 20
905.7563146642736
 42
0.4142135623731
 10
1134.376807960304
 20
905.2563146642738
 42
0.4142135623731
 10
1134.876807960304
 20
904.7563146642738
 42
0.4142135623731
  0
LWPOLYLINE
  5
5E4
330
1F
100
AcDbEntity
  8
A-4_寸法
  6
Continuous
 62
     7
370
     9
100
AcDbPolyline
 90
        4
 70
     1
 43
1.0
 10
1135.376807960304
 20
911.9228383657096
 42
0.4142135623731
 10
1134.876807960304
 20
912.4228383657096
 42
0.4142135623731
 10
1134.376807960304
 20
911.9228383657096
 42
0.4142135623731
 10
1134.876807960304
 20
911.4228383657097
 42
0.4142135623731
  0
LWPOLYLINE
  5
5E5
330
1F
100
AcDbEntity
  8
A-4_寸法
  6
Continuous
 62
     7
370
     9
100
AcDbPolyline
 90
        4
 70
     1
 43
1.0
 10
1135.376807960304
 20
921.922871357686
 42
0.4142135623731
 10
1134.876807960304
 20
922.422871357686
 42
0.4142135623731
 10
1134.376807960304
 20
921.922871357686
 42
0.4142135623731
 10
1134.876807960304
 20
921.422871357686
 42
0.4142135623731
  0
LWPOLYLINE
  5
5E6
330
1F
100
AcDbEntity
  8
A-4_寸法
  6
Continuous
 62
     7
370
     9
100
AcDbPolyline
 90
        4
 70
     1
 43
1.0
 10
1068.71008630701
 20
-194.7439740155193
 42
0.4142135623731
 10
1068.21008630701
 20
-194.2439740155193
 42
0.4142135623731
 10
1067.71008630701
 20
-194.7439740155193
 42
0.4142135623731
 10
1068.21008630701
 20
-195.2439740155193
 42
0.4142135623731
  0
LWPOLYLINE
  5
5E7
330
1F
100
AcDbEntity
  8
A-4_寸法
  6
Continuous
 62
     7
370
     9
100
AcDbPolyline
 90
        4
 70
     1
 43
1.0
 10
1068.71008630701
 20
921.922871357686
 42
0.4142135623731
 10
1068.21008630701
 20
922.422871357686
 42
0.4142135623731
 10
1067.71008630701
 20
921.922871357686
 42
0.4142135623731
 10
1068.21008630701
 20
921.422871357686
 42
0.4142135623731
  0
LWPOLYLINE
  5
5E8
330
1F
100
AcDbEntity
  8
A-4_寸法
  6
Continuous
 62
     7
370
     9
100
AcDbPolyline
 90
        4
 70
     1
 43
1.0
 10
1492.606917097762
 20
-194.7439740155193
 42
0.4142135623731
 10
1492.106917097762
 20
-194.2439740155193
 42
0.4142135623731
 10
1491.606917097762
 20
-194.7439740155193
 42
0.4142135623731
 10
1492.106917097762
 20
-195.2439740155193
 42
0.4142135623731
  0
LWPOLYLINE
  5
5E9
330
1F
100
AcDbEntity
  8
A-4_寸法
  6
Continuous
 62
     7
370
     9
100
AcDbPolyline
 90
        4
 70
     1
 43
1.0
 10
1492.606917097762
 20
-94.7442626953125
 42
0.4142135623731
 10
1492.106917097762
 20
-94.2442626953125
 42
0.4142135623731
 10
1491.606917097762
 20
-94.7442626953125
 42
0.4142135623731
 10
1492.106917097762
 20
-95.2442626953125
 42
0.4142135623731
  0
LWPOLYLINE
  5
5EA
330
1F
100
AcDbEntity
  8
A-4_寸法
  6
Continuous
 62
     7
370
     9
100
AcDbPolyline
 90
        4
 70
     1
 43
1.0
 10
1492.606917097762
 20
821.9230363175677
 42
0.4142135623731
 10
1492.106917097762
 20
822.4230363175677
 42
0.4142135623731
 10
1491.606917097762
 20
821.9230363175677
 42
0.4142135623731
 10
1492.106917097762
 20
821.4230363175677
 42
0.4142135623731
  0
LWPOLYLINE
  5
5EB
330
1F
100
AcDbEntity
  8
A-4_寸法
  6
Continuous
 62
     7
370
     9
100
AcDbPolyline
 90
        4
 70
     1
 43
1.0
 10
1492.606917097762
 20
921.922871357686
 42
0.4142135623731
 10
1492.106917097762
 20
922.422871357686
 42
0.4142135623731
 10
1491.606917097762
 20
921.922871357686
 42
0.4142135623731
 10
1492.106917097762
 20
921.422871357686
 42
0.4142135623731
  0
LWPOLYLINE
  5
5EC
330
1F
100
AcDbEntity
  8
A-4_寸法
  6
Continuous
 62
     7
370
     9
100
AcDbPolyline
 90
        4
 70
     1
 43
1.0
 10
1215.940739812078
 20
-312.410888671875
 42
0.4142135623731
 10
1215.440739812078
 20
-311.910888671875
 42
0.4142135623731
 10
1214.940739812078
 20
-312.410888671875
 42
0.4142135623731
 10
1215.440739812078
 20
-312.910888671875
 42
0.4142135623731
  0
LWPOLYLINE
  5
5ED
330
1F
100
AcDbEntity
  8
A-4_寸法
  6
Continuous
 62
     7
370
     9
100
AcDbPolyline
 90
        4
 70
     1
 43
1.0
 10
1307.607791385135
 20
-312.410888671875
 42
0.4142135623731
 10
1307.107791385135
 20
-311.910888671875
 42
0.4142135623731
 10
1306.607791385135
 20
-312.410888671875
 42
0.4142135623731
 10
1307.107791385135
 20
-312.910888671875
 42
0.4142135623731
  0
LWPOLYLINE
  5
5EE
330
1F
100
AcDbEntity
  8
A-4_寸法
  6
Continuous
 62
     7
370
     9
100
AcDbPolyline
 90
        4
 70
     1
 43
1.0
 10
1215.940739812078
 20
-379.0776103251688
 42
0.4142135623731
 10
1215.440739812078
 20
-378.5776103251689
 42
0.4142135623731
 10
1214.940739812078
 20
-379.0776103251688
 42
0.4142135623731
 10
1215.440739812078
 20
-379.5776103251688
 42
0.4142135623731
  0
LWPOLYLINE
  5
5EF
330
1F
100
AcDbEntity
  8
A-4_寸法
  6
Continuous
 62
     7
370
     9
100
AcDbPolyline
 90
        4
 70
     1
 43
1.0
 10
1317.607329497466
 20
-379.0776103251688
 42
0.4142135623731
 10
1317.107329497466
 20
-378.5776103251689
 42
0.4142135623731
 10
1316.607329497466
 20
-379.0776103251688
 42
0.4142135623731
 10
1317.107329497466
 20
-379.5776103251688
 42
0.4142135623731
  0
LWPOLYLINE
  5
5F0
330
1F
100
AcDbEntity
  8
A-4_寸法
  6
Continuous
 62
     7
370
     9
100
AcDbPolyline
 90
        4
 70
     1
 43
1.0
 10
-1503.087135108742
 20
1039.589414854308
 42
0.4142135623731
 10
-1503.587135108742
 20
1040.089414854308
 42
0.4142135623731
 10
-1504.087135108742
 20
1039.589414854308
 42
0.4142135623731
 10
-1503.587135108742
 20
1039.089414854308
 42
0.4142135623731
  0
LWPOLYLINE
  5
5F1
330
1F
100
AcDbEntity
  8
A-4_寸法
  6
Continuous
 62
     7
370
     9
100
AcDbPolyline
 90
        4
 70
     1
 43
1.0
 10
-1086.420372215477
 20
1039.589414854308
 42
0.4142135623731
 10
-1086.920372215477
 20
1040.089414854308
 42
0.4142135623731
 10
-1087.420372215477
 20
1039.589414854308
 42
0.4142135623731
 10
-1086.920372215477
 20
1039.089414854308
 42
0.4142135623731
  0
LWPOLYLINE
  5
5F2
330
1F
100
AcDbEntity
  8
A-4_寸法
  6
Continuous
 62
     7
370
     9
100
AcDbPolyline
 90
        4
 70
     1
 43
1.0
 10
-229.7531474345437
 20
1039.589414854308
 42
0.4142135623731
 10
-230.2531474345437
 20
1040.089414854308
 42
0.4142135623731
 10
-230.7531474345437
 20
1039.589414854308
 42
0.4142135623731
 10
-230.2531474345437
 20
1039.089414854308
 42
0.4142135623731
  0
LWPOLYLINE
  5
5F3
330
1F
100
AcDbEntity
  8
A-4_寸法
  6
Continuous
 62
     7
370
     9
100
AcDbPolyline
 90
        4
 70
     1
 43
1.0
 10
186.9134917388091
 20
1039.589414854308
 42
0.4142135623731
 10
186.4134917388091
 20
1040.089414854308
 42
0.4142135623731
 10
185.9134917388091
 20
1039.589414854308
 42
0.4142135623731
 10
186.4134917388091
 20
1039.089414854308
 42
0.4142135623731
  0
LWPOLYLINE
  5
5F4
330
1F
100
AcDbEntity
  8
A-4_寸法
  6
Continuous
 62
     7
370
     9
100
AcDbPolyline
 90
        4
 70
     1
 43
1.0
 10
-540.7533321896115
 20
962.495579075169
 42
0.4142135623731
 10
-541.2533321896115
 20
962.995579075169
 42
0.4142135623731
 10
-541.7533321896115
 20
962.495579075169
 42
0.4142135623731
 10
-541.2533321896115
 20
961.9955790751691
 42
0.4142135623731
  0
LWPOLYLINE
  5
5F5
330
1F
100
AcDbEntity
  8
A-4_寸法
  6
Continuous
 62
     7
370
     9
100
AcDbPolyline
 90
        4
 70
     1
 43
1.0
 10
-481.9204316010347
 20
962.495579075169
 42
0.4142135623731
 10
-482.4204316010346
 20
962.995579075169
 42
0.4142135623731
 10
-482.9204316010346
 20
962.495579075169
 42
0.4142135623731
 10
-482.4204316010346
 20
961.9955790751691
 42
0.4142135623731
  0
LWPOLYLINE
  5
5F6
330
1F
100
AcDbEntity
  8
A-4_寸法
  6
Continuous
 62
     7
370
     9
100
AcDbPolyline
 90
        4
 70
     1
 43
1.0
 10
-1503.087258828653
 20
-406.6216216216216
 42
0.4142135623731
 10
-1503.587258828653
 20
-406.1216216216217
 42
0.4142135623731
 10
-1504.087258828653
 20
-406.6216216216216
 42
0.4142135623731
 10
-1503.587258828653
 20
-407.1216216216216
 42
0.4142135623731
  0
LWPOLYLINE
  5
5F7
330
1F
100
AcDbEntity
  8
A-4_寸法
  6
Continuous
 62
     7
370
     9
100
AcDbPolyline
 90
        4
 70
     1
 43
1.0
 10
186.9134917388091
 20
-406.6216216216216
 42
0.4142135623731
 10
186.4134917388091
 20
-406.1216216216217
 42
0.4142135623731
 10
185.9134917388091
 20
-406.6216216216216
 42
0.4142135623731
 10
186.4134917388091
 20
-407.1216216216216
 42
0.4142135623731
  0
LWPOLYLINE
  5
5F8
330
1F
100
AcDbEntity
  8
A-4_寸法
  6
Continuous
 62
     7
370
     9
100
AcDbPolyline
 90
        4
 70
     1
 43
1.0
 10
-1503.087258828653
 20
-318.7838250237542
 42
0.4142135623731
 10
-1503.587258828653
 20
-318.2838250237542
 42
0.4142135623731
 10
-1504.087258828653
 20
-318.7838250237542
 42
0.4142135623731
 10
-1503.587258828653
 20
-319.2838250237542
 42
0.4142135623731
  0
LWPOLYLINE
  5
5F9
330
1F
100
AcDbEntity
  8
A-4_寸法
  6
Continuous
 62
     7
370
     9
100
AcDbPolyline
 90
        4
 70
     1
 43
1.0
 10
-1493.087349556588
 20
-318.7838250237542
 42
0.4142135623731
 10
-1493.587349556588
 20
-318.2838250237542
 42
0.4142135623731
 10
-1494.087349556588
 20
-318.7838250237542
 42
0.4142135623731
 10
-1493.587349556588
 20
-319.2838250237542
 42
0.4142135623731
  0
LWPOLYLINE
  5
5FA
330
1F
100
AcDbEntity
  8
A-4_寸法
  6
Continuous
 62
     7
370
     9
100
AcDbPolyline
 90
        4
 70
     1
 43
1.0
 10
-1487.253955737965
 20
-318.7838250237542
 42
0.4142135623731
 10
-1487.753955737965
 20
-318.2838250237542
 42
0.4142135623731
 10
-1488.253955737965
 20
-318.7838250237542
 42
0.4142135623731
 10
-1487.753955737965
 20
-319.2838250237542
 42
0.4142135623731
  0
LWPOLYLINE
  5
5FB
330
1F
100
AcDbEntity
  8
A-4_寸法
  6
Continuous
 62
     7
370
     9
100
AcDbPolyline
 90
        4
 70
     1
 43
1.0
 10
171.079817488387
 20
-318.7838250237542
 42
0.4142135623731
 10
170.579817488387
 20
-318.2838250237542
 42
0.4142135623731
 10
170.079817488387
 20
-318.7838250237542
 42
0.4142135623731
 10
170.579817488387
 20
-319.2838250237542
 42
0.4142135623731
  0
LWPOLYLINE
  5
5FC
330
1F
100
AcDbEntity
  8
A-4_寸法
  6
Continuous
 62
     7
370
     9
100
AcDbPolyline
 90
        4
 70
     1
 43
1.0
 10
176.9132113070102
 20
-318.7838250237542
 42
0.4142135623731
 10
176.4132113070102
 20
-318.2838250237542
 42
0.4142135623731
 10
175.9132113070102
 20
-318.7838250237542
 42
0.4142135623731
 10
176.4132113070102
 20
-319.2838250237542
 42
0.4142135623731
  0
LWPOLYLINE
  5
5FD
330
1F
100
AcDbEntity
  8
A-4_寸法
  6
Continuous
 62
     7
370
     9
100
AcDbPolyline
 90
        4
 70
     1
 43
1.0
 10
186.9134917388091
 20
-318.7838250237542
 42
0.4142135623731
 10
186.4134917388091
 20
-318.2838250237542
 42
0.4142135623731
 10
185.9134917388091
 20
-318.7838250237542
 42
0.4142135623731
 10
186.4134917388091
 20
-319.2838250237542
 42
0.4142135623731
  0
TEXT
  5
5FE
330
1F
100
AcDbEntity
  8
F-5
  6
Continuous
 62
     2
370
     9
100
AcDbText
 10
-904.6689560348923
 20
-1362.093442976668
 30
0.0
 40
30.48
  1
騒音防止型　ノンスリップタイプ　横断溝用　スチール製グレーチング　　ＨＸＢＣ　１６５５５
 41
0.7238636363636364
  7
ＭＳ ゴシック
100
AcDbText
  0
TEXT
  5
5FF
330
1F
100
AcDbEntity
  8
A-4_寸法
  6
Continuous
 62
     7
370
     9
100
AcDbText
 10
-820.3575299237225
 20
1268.819414854308
 30
0.0
 40
22.86
  1
エンドプレート ＦＢ4.5×50
 41
1.16025641025641
  7
ＭＳ ゴシック
100
AcDbText
  0
ENDSEC
  0
SECTION
  2
OBJECTS
  0
DICTIONARY
  5
C
330
0
100
AcDbDictionary
281
     1
  3
ACAD_GROUP
350
D
  3
ACAD_LAYOUT
350
1A
  3
ACAD_MLEADERSTYLE
350
601
  3
ACAD_MLINESTYLE
350
17
  3
ACAD_PLOTSETTINGS
350
19
  3
ACAD_PLOTSTYLENAME
350
E
  3
ACAD_TABLESTYLE
350
600
  3
ACAD_VISUALSTYLE
350
2A
  0
DICTIONARY
  5
D
102
{ACAD_REACTORS
330
C
102
}
330
C
100
AcDbDictionary
281
     1
  0
DICTIONARY
  5
1A
102
{ACAD_REACTORS
330
C
102
}
330
C
100
AcDbDictionary
281
     1
  3
Layout1
350
1E
  3
Layout2
350
26
  3
Model
350
22
  0
DICTIONARY
  5
601
102
{ACAD_REACTORS
330
C
102
}
330
C
100
AcDbDictionary
281
     1
  0
DICTIONARY
  5
17
102
{ACAD_REACTORS
330
C
102
}
330
C
100
AcDbDictionary
281
     1
  3
Standard
350
18
  0
DICTIONARY
  5
19
102
{ACAD_REACTORS
330
C
102
}
330
C
100
AcDbDictionary
281
     1
  0
ACDBDICTIONARYWDFLT
  5
E
102
{ACAD_REACTORS
330
C
102
}
330
C
100
AcDbDictionary
281
     1
  3
Normal
350
F
100
AcDbDictionaryWithDefault
340
F
  0
DICTIONARY
  5
600
102
{ACAD_REACTORS
330
C
102
}
330
C
100
AcDbDictionary
281
     1
  0
DICTIONARY
  5
2A
102
{ACAD_REACTORS
330
C
102
}
330
C
100
AcDbDictionary
281
     1
  3
2dWireframe
350
2F
  3
3D Hidden
350
31
  3
3dWireframe
350
30
  3
Basic
350
32
  3
Brighten
350
36
  3
ColorChange
350
3A
  3
Conceptual
350
34
  3
Dim
350
35
  3
Facepattern
350
39
  3
Flat
350
2B
  3
FlatWithEdges
350
2C
  3
Gouraud
350
2D
  3
GouraudWithEdges
350
2E
  3
Linepattern
350
38
  3
Realistic
350
33
  3
Thicken
350
37
  0
LAYOUT
  5
1E
102
{ACAD_REACTORS
330
1A
102
}
330
1A
100
AcDbPlotSettings
  1

  2
none_device
  4

  6

 40
0.0
 41
0.0
 42
0.0
 43
0.0
 44
0.0
 45
0.0
 46
0.0
 47
0.0
 48
0.0
 49
0.0
140
0.0
141
0.0
142
1.0
143
1.0
 70
   688
 72
     0
 73
     0
 74
     5
  7

 75
    16
 76
     0
 77
     5
 78
   300
147
1.0
148
0.0
149
0.0
100
AcDbLayout
  1
Layout1
 70
     1
 71
     1
 10
0.0
 20
0.0
 11
420.0
 21
297.0
 12
0.0
 22
0.0
 32
0.0
 14
1.000000000000000E+20
 24
1.000000000000000E+20
 34
1.000000000000000E+20
 15
-1.000000000000000E+20
 25
-1.000000000000000E+20
 35
-1.000000000000000E+20
146
0.0
 13
0.0
 23
0.0
 33
0.0
 16
1.0
 26
0.0
 36
0.0
 17
0.0
 27
1.0
 37
0.0
 76
     0
330
1B
  0
LAYOUT
  5
26
102
{ACAD_REACTORS
330
1A
102
}
330
1A
100
AcDbPlotSettings
  1

  2
none_device
  4

  6

 40
0.0
 41
0.0
 42
0.0
 43
0.0
 44
0.0
 45
0.0
 46
0.0
 47
0.0
 48
0.0
 49
0.0
140
0.0
141
0.0
142
1.0
143
1.0
 70
   688
 72
     0
 73
     0
 74
     5
  7

 75
    16
 76
     0
 77
     5
 78
   300
147
1.0
148
0.0
149
0.0
100
AcDbLayout
  1
Layout2
 70
     1
 71
     2
 10
0.0
 20
0.0
 11
0.0
 21
0.0
 12
0.0
 22
0.0
 32
0.0
 14
0.0
 24
0.0
 34
0.0
 15
0.0
 25
0.0
 35
0.0
146
0.0
 13
0.0
 23
0.0
 33
0.0
 16
1.0
 26
0.0
 36
0.0
 17
0.0
 27
1.0
 37
0.0
 76
     0
330
23
  0
LAYOUT
  5
22
102
{ACAD_REACTORS
330
1A
102
}
330
1A
100
AcDbPlotSettings
  1

  2
none_device
  4

  6

 40
0.0
 41
0.0
 42
0.0
 43
0.0
 44
0.0
 45
0.0
 46
0.0
 47
0.0
 48
0.0
 49
0.0
140
0.0
141
0.0
142
1.0
143
1.0
 70
  1712
 72
     0
 73
     0
 74
     0
  7

 75
     0
 76
     0
 77
     5
 78
   300
147
1.0
148
0.0
149
0.0
100
AcDbLayout
  1
Model
 70
     1
 71
     0
 10
-2100.0
 20
-1485.0
 11
2100.0
 21
1485.0
 12
0.0
 22
0.0
 32
0.0
 14
-2100.0
 24
-1485.0
 34
0.0
 15
2100.0
 25
1485.0
 35
0.0
146
0.0
 13
0.0
 23
0.0
 33
0.0
 16
1.0
 26
0.0
 36
0.0
 17
0.0
 27
1.0
 37
0.0
 76
     0
330
1F
331
29
  0
MLINESTYLE
  5
18
102
{ACAD_REACTORS
330
17
102
}
330
17
100
AcDbMlineStyle
  2
Standard
 70
     0
  3

 62
   256
 51
90.0
 52
90.0
 71
     2
 49
0.5
 62
   256
  6
BYLAYER
 49
-0.5
 62
   256
  6
BYLAYER
  0
ACDBPLACEHOLDER
  5
F
102
{ACAD_REACTORS
330
E
102
}
330
E
  0
VISUALSTYLE
  5
2F
102
{ACAD_REACTORS
330
2A
102
}
330
2A
100
AcDbVisualStyle
  2
2dWireframe
 70
     4
 71
     0
 72
     2
 73
     0
 90
        0
 40
-0.6
 41
-30.0
 62
     5
 63
     7
421
 16777215
 74
     1
 91
        4
 64
     7
 65
   257
 75
     1
175
     1
 42
1.0
 92
        0
 66
   257
 43
1.0
 76
     1
 77
     6
 78
     2
 67
     7
 79
     5
170
     0
171
     0
290
     0
174
     0
 93
        1
 44
0.0
173
     0
291
     0
 45
0.0
1001
ACAD
1000
AcDbSavedByObjectVersion
1070
     0
  0
VISUALSTYLE
  5
31
102
{ACAD_REACTORS
330
2A
102
}
330
2A
100
AcDbVisualStyle
  2
3D Hidden
 70
     6
 71
     1
 72
     2
 73
     2
 90
        0
 40
-0.6
 41
-30.0
 62
     5
 63
     7
421
 16777215
 74
     2
 91
        2
 64
     7
 65
   257
 75
     2
175
     1
 42
40.0
 92
        0
 66
   257
 43
1.0
 76
     1
 77
     6
 78
     2
 67
     7
 79
     3
170
     0
171
     0
290
     0
174
     0
 93
        1
 44
0.0
173
     0
291
     0
 45
0.0
1001
ACAD
1000
AcDbSavedByObjectVersion
1070
     0
  0
VISUALSTYLE
  5
30
102
{ACAD_REACTORS
330
2A
102
}
330
2A
100
AcDbVisualStyle
  2
3dWireframe
 70
     5
 71
     0
 72
     2
 73
     0
 90
        0
 40
-0.6
 41
-30.0
 62
     5
 63
     7
421
 16777215
 74
     1
 91
        4
 64
     7
 65
   257
 75
     1
175
     1
 42
1.0
 92
        0
 66
   257
 43
1.0
 76
     1
 77
     6
 78
     2
 67
     7
 79
     5
170
     0
171
     0
290
     0
174
     0
 93
        1
 44
0.0
173
     0
291
     0
 45
0.0
1001
ACAD
1000
AcDbSavedByObjectVersion
1070
     0
  0
VISUALSTYLE
  5
32
102
{ACAD_REACTORS
330
2A
102
}
330
2A
100
AcDbVisualStyle
  2
Basic
 70
     7
 71
     1
 72
     0
 73
     1
 90
        0
 40
-0.6
 41
-30.0
 62
     5
 63
     7
421
 16777215
 74
     0
 91
        4
 64
     7
 65
   257
 75
     1
175
     1
 42
1.0
 92
        8
 66
     7
 43
1.0
 76
     1
 77
     6
 78
     2
 67
     7
 79
     5
170
     0
171
     0
290
     0
174
     0
 93
        1
 44
0.0
173
     0
291
     1
 45
0.0
1001
ACAD
1000
AcDbSavedByObjectVersion
1070
     0
  0
VISUALSTYLE
  5
36
102
{ACAD_REACTORS
330
2A
102
}
330
2A
100
AcDbVisualStyle
  2
Brighten
 70
    12
 71
     2
 72
     2
 73
     0
 90
        0
 40
-0.6
 41
-30.0
 62
     5
 63
     7
421
 16777215
 74
     1
 91
        4
 64
     7
 65
   257
 75
     1
175
     1
 42
1.0
 92
        8
 66
     7
 43
1.0
 76
     1
 77
     6
 78
     2
 67
     7
 79
     5
170
     0
171
     0
290
     0
174
     0
 93
        1
 44
50.0
173
     0
291
     1
 45
0.0
1001
ACAD
1000
AcDbSavedByObjectVersion
1070
     0
  0
VISUALSTYLE
  5
3A
102
{ACAD_REACTORS
330
2A
102
}
330
2A
100
AcDbVisualStyle
  2
ColorChange
 70
    16
 71
     2
 72
     2
 73
     3
 90
        0
 40
-0.6
 41
-30.0
 62
     5
 63
     8
421
  8421504
 74
     1
 91
        4
 64
     7
 65
   257
 75
     1
175
     1
 42
1.0
 92
        8
 66
     8
424
  8421504
 43
1.0
 76
     1
 77
     6
 78
     2
 67
     7
 79
     5
170
     0
171
     0
290
     0
174
     0
 93
        1
 44
0.0
173
     0
291
     1
 45
0.0
1001
ACAD
1000
AcDbSavedByObjectVersion
1070
     0
  0
VISUALSTYLE
  5
34
102
{ACAD_REACTORS
330
2A
102
}
330
2A
100
AcDbVisualStyle
  2
Conceptual
 70
     9
 71
     3
 72
     2
 73
     0
 90
        0
 40
-0.6
 41
-30.0
 62
     5
 63
     7
421
 16777215
 74
     2
 91
        2
 64
     7
 65
   257
 75
     1
175
     1
 42
40.0
 92
        8
 66
     7
 43
1.0
 76
     1
 77
     6
 78
     2
 67
     7
 79
     3
170
     0
171
     0
290
     0
174
     0
 93
        1
 44
0.0
173
     0
291
     0
 45
0.0
1001
ACAD
1000
AcDbSavedByObjectVersion
1070
     0
  0
VISUALSTYLE
  5
35
102
{ACAD_REACTORS
330
2A
102
}
330
2A
100
AcDbVisualStyle
  2
Dim
 70
    11
 71
     2
 72
     2
 73
     0
 90
        0
 40
-0.6
 41
-30.0
 62
     5
 63
     7
421
 16777215
 74
     1
 91
        4
 64
     7
 65
   257
 75
     1
175
     1
 42
1.0
 92
        8
 66
     7
 43
1.0
 76
     1
 77
     6
 78
     2
 67
     7
 79
     5
170
     0
171
     0
290
     0
174
     0
 93
        1
 44
-50.0
173
     0
291
     1
 45
0.0
1001
ACAD
1000
AcDbSavedByObjectVersion
1070
     0
  0
VISUALSTYLE
  5
39
102
{ACAD_REACTORS
330
2A
102
}
330
2A
100
AcDbVisualStyle
  2
Facepattern
 70
    15
 71
     2
 72
     2
 73
     0
 90
        0
 40
-0.6
 41
-30.0
 62
     5
 63
     7
421
 16777215
 74
     1
 91
        4
 64
     7
 65
   257
 75
     1
175
     1
 42
1.0
 92
        8
 66
     7
 43
1.0
 76
     1
 77
     6
 78
     2
 67
     7
 79
     5
170
     0
171
     0
290
     0
174
     0
 93
        1
 44
0.0
173
     0
291
     1
 45
0.0
1001
ACAD
1000
AcDbSavedByObjectVersion
1070
     0
  0
VISUALSTYLE
  5
2B
102
{ACAD_REACTORS
330
2A
102
}
330
2A
100
AcDbVisualStyle
  2
Flat
 70
     0
 71
     2
 72
     1
 73
     1
 90
        2
 40
-0.6
 41
30.0
 62
     5
 63
     7
421
 16777215
 74
     0
 91
        4
 64
     7
 65
   257
 75
     1
175
     1
 42
1.0
 92
        8
 66
     7
 43
1.0
 76
     1
 77
     6
 78
     2
 67
     7
 79
     5
170
     0
171
     0
290
     0
174
     0
 93
       13
 44
0.0
173
     0
291
     1
 45
0.0
1001
ACAD
1000
AcDbSavedByObjectVersion
1070
     0
  0
VISUALSTYLE
  5
2C
102
{ACAD_REACTORS
330
2A
102
}
330
2A
100
AcDbVisualStyle
  2
FlatWithEdges
 70
     1
 71
     2
 72
     1
 73
     1
 90
        2
 40
-0.6
 41
30.0
 62
     5
 63
     7
421
 16777215
 74
     1
 91
        4
 64
     7
 65
   257
 75
     1
175
     1
 42
1.0
 92
        0
 66
   257
 43
1.0
 76
     1
 77
     6
 78
     2
 67
     7
 79
     5
170
     0
171
     0
290
     0
174
     0
 93
       13
 44
0.0
173
     0
291
     1
 45
0.0
1001
ACAD
1000
AcDbSavedByObjectVersion
1070
     0
  0
VISUALSTYLE
  5
2D
102
{ACAD_REACTORS
330
2A
102
}
330
2A
100
AcDbVisualStyle
  2
Gouraud
 70
     2
 71
     2
 72
     2
 73
     1
 90
        2
 40
-0.6
 41
30.0
 62
     5
 63
     7
421
 16777215
 74
     0
 91
        4
 64
     7
 65
   257
 75
     1
175
     1
 42
1.0
 92
        0
 66
     7
 43
1.0
 76
     1
 77
     6
 78
     2
 67
     7
 79
     5
170
     0
171
     0
290
     0
174
     0
 93
       13
 44
0.0
173
     0
291
     1
 45
0.0
1001
ACAD
1000
AcDbSavedByObjectVersion
1070
     0
  0
VISUALSTYLE
  5
2E
102
{ACAD_REACTORS
330
2A
102
}
330
2A
100
AcDbVisualStyle
  2
GouraudWithEdges
 70
     3
 71
     2
 72
     2
 73
     1
 90
        2
 40
-0.6
 41
30.0
 62
     5
 63
     7
421
 16777215
 74
     1
 91
        4
 64
     7
 65
   257
 75
     1
175
     1
 42
1.0
 92
        0
 66
   257
 43
1.0
 76
     1
 77
     6
 78
     2
 67
     7
 79
     5
170
     0
171
     0
290
     0
174
     0
 93
       13
 44
0.0
173
     0
291
     1
 45
0.0
1001
ACAD
1000
AcDbSavedByObjectVersion
1070
     0
  0
VISUALSTYLE
  5
38
102
{ACAD_REACTORS
330
2A
102
}
330
2A
100
AcDbVisualStyle
  2
Linepattern
 70
    14
 71
     2
 72
     2
 73
     0
 90
        0
 40
-0.6
 41
-30.0
 62
     5
 63
     7
421
 16777215
 74
     1
 91
        4
 64
     7
 65
   257
 75
     7
175
     7
 42
1.0
 92
        8
 66
     7
 43
1.0
 76
     1
 77
     6
 78
     2
 67
     7
 79
     5
170
     0
171
     0
290
     0
174
     0
 93
        1
 44
0.0
173
     0
291
     1
 45
0.0
1001
ACAD
1000
AcDbSavedByObjectVersion
1070
     0
  0
VISUALSTYLE
  5
33
102
{ACAD_REACTORS
330
2A
102
}
330
2A
100
AcDbVisualStyle
  2
Realistic
 70
     8
 71
     2
 72
     2
 73
     0
 90
        0
 40
-0.6
 41
-30.0
 62
     5
 63
     7
421
 16777215
 74
     1
 91
        0
 64
     7
 65
   257
 75
     1
175
     1
 42
1.0
 92
        8
 66
     8
424
  7895160
 43
1.0
 76
     1
 77
     6
 78
     2
 67
     7
 79
     5
170
     0
171
     0
290
     0
174
     0
 93
       13
 44
0.0
173
     0
291
     0
 45
0.0
1001
ACAD
1000
AcDbSavedByObjectVersion
1070
     0
  0
VISUALSTYLE
  5
37
102
{ACAD_REACTORS
330
2A
102
}
330
2A
100
AcDbVisualStyle
  2
Thicken
 70
    13
 71
     2
 72
     2
 73
     0
 90
        0
 40
-0.6
 41
-30.0
 62
     5
 63
     7
421
 16777215
 74
     1
 91
        4
 64
     7
 65
   257
 75
     1
175
     1
 42
1.0
 92
       12
 66
     7
 43
1.0
 76
     1
 77
     6
 78
     2
 67
     7
 79
     5
170
     0
171
     0
290
     0
174
     0
 93
        1
 44
0.0
173
     0
291
     1
 45
0.0
1001
ACAD
1000
AcDbSavedByObjectVersion
1070
     0
  0
ENDSEC
  0
EOF
