  0
SECTION
  2
HEADER
  9
$ACADVER
  1
AC1018
  9
$ACADMAINTVER
 70
     0
  9
$DWGCODEPAGE
  3
ANSI_932
  9
$INSBASE
 10
0.0
 20
0.0
 30
0.0
  9
$EXTMIN
 10
-2100.0
 20
-1485.0
 30
0.0
  9
$EXTMAX
 10
2100.0
 20
1485.0
 30
0.0
  9
$LIMMIN
 10
-2100.0
 20
-1485.0
  9
$LIMMAX
 10
2100.0
 20
1485.0
  9
$ORTHOMODE
 70
     0
  9
$REGENMODE
 70
     1
  9
$FILLMODE
 70
     1
  9
$QTEXTMODE
 70
     0
  9
$MIRRTEXT
 70
     1
  9
$LTSCALE
 40
10.0
  9
$ATTMODE
 70
     1
  9
$TEXTSIZE
 40
2.5
  9
$TRACEWID
 40
1.0
  9
$TEXTSTYLE
  7
Standard
  9
$CLAYER
  8
0
  9
$CELTYPE
  6
ByLayer
  9
$CECOLOR
 62
   256
  9
$CELTSCALE
 40
1.0
  9
$DISPSILH
 70
     0
  9
$DIMSCALE
 40
1.0
  9
$DIMASZ
 40
2.5
  9
$DIMEXO
 40
0.625
  9
$DIMDLI
 40
3.75
  9
$DIMRND
 40
0.0
  9
$DIMDLE
 40
0.0
  9
$DIMEXE
 40
1.25
  9
$DIMTP
 40
0.0
  9
$DIMTM
 40
0.0
  9
$DIMTXT
 40
2.5
  9
$DIMCEN
 40
2.5
  9
$DIMTSZ
 40
0.0
  9
$DIMTOL
 70
     0
  9
$DIMLIM
 70
     0
  9
$DIMTIH
 70
     0
  9
$DIMTOH
 70
     0
  9
$DIMSE1
 70
     0
  9
$DIMSE2
 70
     0
  9
$DIMTAD
 70
     1
  9
$DIMZIN
 70
     8
  9
$DIMBLK
  1

  9
$DIMASO
 70
     1
  9
$DIMSHO
 70
     1
  9
$DIMPOST
  1

  9
$DIMAPOST
  1

  9
$DIMALT
 70
     0
  9
$DIMALTD
 70
     3
  9
$DIMALTF
 40
0.03937007874016
  9
$DIMLFAC
 40
1.0
  9
$DIMTOFL
 70
     1
  9
$DIMTVP
 40
0.0
  9
$DIMTIX
 70
     0
  9
$DIMSOXD
 70
     0
  9
$DIMSAH
 70
     0
  9
$DIMBLK1
  1

  9
$DIMBLK2
  1

  9
$DIMSTYLE
  2
ISO-25
  9
$DIMCLRD
 70
     0
  9
$DIMCLRE
 70
     0
  9
$DIMCLRT
 70
     0
  9
$DIMTFAC
 40
1.0
  9
$DIMGAP
 40
0.625
  9
$DIMJUST
 70
     0
  9
$DIMSD1
 70
     0
  9
$DIMSD2
 70
     0
  9
$DIMTOLJ
 70
     0
  9
$DIMTZIN
 70
     8
  9
$DIMALTZ
 70
     0
  9
$DIMALTTZ
 70
     0
  9
$DIMUPT
 70
     0
  9
$DIMDEC
 70
     2
  9
$DIMTDEC
 70
     2
  9
$DIMALTU
 70
     2
  9
$DIMALTTD
 70
     3
  9
$DIMTXSTY
  7
Standard
  9
$DIMAUNIT
 70
     0
  9
$DIMADEC
 70
     0
  9
$DIMALTRND
 40
0.0
  9
$DIMAZIN
 70
     0
  9
$DIMDSEP
 70
    44
  9
$DIMATFIT
 70
     3
  9
$DIMFRAC
 70
     0
  9
$DIMLDRBLK
  1

  9
$DIMLUNIT
 70
     2
  9
$DIMLWD
 70
    -2
  9
$DIMLWE
 70
    -2
  9
$DIMTMOVE
 70
     0
  9
$LUNITS
 70
     2
  9
$LUPREC
 70
     4
  9
$SKETCHINC
 40
1.0
  9
$FILLETRAD
 40
10.0
  9
$AUNITS
 70
     0
  9
$AUPREC
 70
     0
  9
$MENU
  1
.
  9
$ELEVATION
 40
0.0
  9
$PELEVATION
 40
0.0
  9
$THICKNESS
 40
0.0
  9
$LIMCHECK
 70
     0
  9
$CHAMFERA
 40
10.0
  9
$CHAMFERB
 40
10.0
  9
$CHAMFERC
 40
20.0
  9
$CHAMFERD
 40
0.0
  9
$SKPOLY
 70
     0
  9
$TDCREATE
 40
2458268.579554838
  9
$TDUCREATE
 40
2458268.204554838
  9
$TDUPDATE
 40
2458268.579554849
  9
$TDUUPDATE
 40
2458268.204554849
  9
$TDINDWG
 40
0.0000000116
  9
$TDUSRTIMER
 40
0.0000000116
  9
$USRTIMER
 70
     1
  9
$ANGBASE
 50
0.0
  9
$ANGDIR
 70
     0
  9
$PDMODE
 70
     0
  9
$PDSIZE
 40
0.0
  9
$PLINEWID
 40
0.0
  9
$SPLFRAME
 70
     0
  9
$SPLINETYPE
 70
     6
  9
$SPLINESEGS
 70
     8
  9
$HANDSEED
  5
5F7
  9
$SURFTAB1
 70
     6
  9
$SURFTAB2
 70
     6
  9
$SURFTYPE
 70
     6
  9
$SURFU
 70
     6
  9
$SURFV
 70
     6
  9
$UCSBASE
  2

  9
$UCSNAME
  2

  9
$UCSORG
 10
0.0
 20
0.0
 30
0.0
  9
$UCSXDIR
 10
1.0
 20
0.0
 30
0.0
  9
$UCSYDIR
 10
0.0
 20
1.0
 30
0.0
  9
$UCSORTHOREF
  2

  9
$UCSORTHOVIEW
 70
     0
  9
$UCSORGTOP
 10
0.0
 20
0.0
 30
0.0
  9
$UCSORGBOTTOM
 10
0.0
 20
0.0
 30
0.0
  9
$UCSORGLEFT
 10
0.0
 20
0.0
 30
0.0
  9
$UCSORGRIGHT
 10
0.0
 20
0.0
 30
0.0
  9
$UCSORGFRONT
 10
0.0
 20
0.0
 30
0.0
  9
$UCSORGBACK
 10
0.0
 20
0.0
 30
0.0
  9
$PUCSBASE
  2

  9
$PUCSNAME
  2

  9
$PUCSORG
 10
0.0
 20
0.0
 30
0.0
  9
$PUCSXDIR
 10
1.0
 20
0.0
 30
0.0
  9
$PUCSYDIR
 10
0.0
 20
1.0
 30
0.0
  9
$PUCSORTHOREF
  2

  9
$PUCSORTHOVIEW
 70
     0
  9
$PUCSORGTOP
 10
0.0
 20
0.0
 30
0.0
  9
$PUCSORGBOTTOM
 10
0.0
 20
0.0
 30
0.0
  9
$PUCSORGLEFT
 10
0.0
 20
0.0
 30
0.0
  9
$PUCSORGRIGHT
 10
0.0
 20
0.0
 30
0.0
  9
$PUCSORGFRONT
 10
0.0
 20
0.0
 30
0.0
  9
$PUCSORGBACK
 10
0.0
 20
0.0
 30
0.0
  9
$USERI1
 70
     0
  9
$USERI2
 70
     0
  9
$USERI3
 70
     0
  9
$USERI4
 70
     0
  9
$USERI5
 70
     0
  9
$USERR1
 40
0.0
  9
$USERR2
 40
0.0
  9
$USERR3
 40
0.0
  9
$USERR4
 40
0.0
  9
$USERR5
 40
0.0
  9
$WORLDVIEW
 70
     1
  9
$SHADEDGE
 70
     3
  9
$SHADEDIF
 70
    70
  9
$TILEMODE
 70
     1
  9
$MAXACTVP
 70
    64
  9
$PINSBASE
 10
0.0
 20
0.0
 30
0.0
  9
$PLIMCHECK
 70
     0
  9
$PEXTMIN
 10
1.000000000000000E+20
 20
1.000000000000000E+20
 30
1.000000000000000E+20
  9
$PEXTMAX
 10
-1.000000000000000E+20
 20
-1.000000000000000E+20
 30
-1.000000000000000E+20
  9
$PLIMMIN
 10
0.0
 20
0.0
  9
$PLIMMAX
 10
420.0
 20
297.0
  9
$UNITMODE
 70
     0
  9
$VISRETAIN
 70
     1
  9
$PLINEGEN
 70
     0
  9
$PSLTSCALE
 70
     1
  9
$TREEDEPTH
 70
  3020
  9
$CMLSTYLE
  2
Standard
  9
$CMLJUST
 70
     0
  9
$CMLSCALE
 40
20.0
  9
$PROXYGRAPHICS
 70
     1
  9
$MEASUREMENT
 70
     1
  9
$CELWEIGHT
370
    -1
  9
$ENDCAPS
280
     0
  9
$JOINSTYLE
280
     0
  9
$LWDISPLAY
290
     0
  9
$INSUNITS
 70
     4
  9
$HYPERLINKBASE
  1

  9
$STYLESHEET
  1

  9
$XEDIT
290
     1
  9
$CEPSNTYPE
380
     0
  9
$PSTYLEMODE
290
     1
  9
$FINGERPRINTGUID
  2
{CE468C45-A10D-4DA3-AF83-928ACC9EFD32}
  9
$VERSIONGUID
  2
{FAEB1C32-E019-11D5-929B-00C0DF256EC4}
  9
$EXTNAMES
290
     1
  9
$PSVPSCALE
 40
0.0
  9
$OLESTARTUP
290
     0
  9
$SORTENTS
280
   127
  9
$INDEXCTL
280
     0
  9
$HIDETEXT
280
     1
  9
$XCLIPFRAME
290
     0
  9
$HALOGAP
280
     0
  9
$OBSCOLOR
 70
   257
  9
$OBSLTYPE
280
     0
  9
$INTERSECTIONDISPLAY
280
     0
  9
$INTERSECTIONCOLOR
 70
   257
  9
$DIMASSOC
280
     2
  9
$PROJECTNAME
  1

  0
ENDSEC
  0
SECTION
  2
CLASSES
  0
CLASS
  1
ACDBDICTIONARYWDFLT
  2
AcDbDictionaryWithDefault
  3
ObjectDBX Classes
 90
        0
 91
        4
280
     0
281
     0
  0
CLASS
  1
VISUALSTYLE
  2
AcDbVisualStyle
  3
ObjectDBX Classes
 90
     4095
 91
        4
280
     0
281
     0
  0
ENDSEC
  0
SECTION
  2
TABLES
  0
TABLE
  2
VPORT
  5
8
330
0
100
AcDbSymbolTable
 70
     1
  0
VPORT
  5
29
330
8
100
AcDbSymbolTableRecord
100
AcDbViewportTableRecord
  2
*Active
 70
     0
 10
0.0
 20
0.0
 11
1.0
 21
1.0
 12
0.0
 22
0.0
 13
0.0
 23
0.0
 14
10.0
 24
10.0
 15
10.0
 25
10.0
 16
0.0
 26
0.0
 36
1.0
 17
0.0
 27
0.0
 37
0.0
 40
3267.0
 41
1.414141414141414
 42
50.0
 43
0.0
 44
0.0
 50
0.0
 51
0.0
 71
     0
 72
 10000
 73
     1
 74
     3
 75
     0
 76
     0
 77
     0
 78
     0
281
     0
 65
     1
110
0.0
120
0.0
130
0.0
111
1.0
121
0.0
131
0.0
112
0.0
122
1.0
132
0.0
 79
     0
146
0.0
  0
ENDTAB
  0
TABLE
  2
LTYPE
  5
5
330
0
100
AcDbSymbolTable
 70
     5
  0
LTYPE
  5
14
330
5
100
AcDbSymbolTableRecord
100
AcDbLinetypeTableRecord
  2
ByBlock
 70
     0
  3

 72
    65
 73
     0
 40
0.0
  0
LTYPE
  5
15
330
5
100
AcDbSymbolTableRecord
100
AcDbLinetypeTableRecord
  2
ByLayer
 70
     0
  3

 72
    65
 73
     0
 40
0.0
  0
LTYPE
  5
16
330
5
100
AcDbSymbolTableRecord
100
AcDbLinetypeTableRecord
  2
Continuous
 70
     0
  3
Solid line
 72
    65
 73
     0
 40
0.0
  0
LTYPE
  5
3C
330
5
100
AcDbSymbolTableRecord
100
AcDbLinetypeTableRecord
  2
JWW_CENTER1
 70
     0
  3
-----  --  ----------  --  -----
 72
    65
 73
     4
 40
6.773333333333333
 49
4.233333333333333
 74
     0
 49
-0.8466666666666667
 74
     0
 49
0.8466666666666667
 74
     0
 49
-0.8466666666666667
 74
     0
  0
LTYPE
  5
3D
330
5
100
AcDbSymbolTableRecord
100
AcDbLinetypeTableRecord
  2
JWW_DASHED3
 70
     0
  3
---  ------  ------  ------  ---
 72
    65
 73
     2
 40
3.386666666666667
 49
2.54
 74
     0
 49
-0.8466666666666667
 74
     0
  0
LTYPE
  5
3E
330
5
100
AcDbSymbolTableRecord
100
AcDbLinetypeTableRecord
  2
JWW_CENTER2
 70
     0
  3
-------------  --  -------------
 72
    65
 73
     4
 40
13.54666666666667
 49
11.00666666666667
 74
     0
 49
-0.8466666666666667
 74
     0
 49
0.8466666666666667
 74
     0
 49
-0.8466666666666667
 74
     0
  0
LTYPE
  5
3F
330
5
100
AcDbSymbolTableRecord
100
AcDbLinetypeTableRecord
  2
JWW_HOJO
 70
     0
  3
  -   -   -   -   -   -   -   - 
 72
    65
 73
     2
 40
1.693333333333333
 49
-1.27
 74
     0
 49
0.4233333333333333
 74
     0
  0
ENDTAB
  0
TABLE
  2
LAYER
  5
2
330
0
100
AcDbSymbolTable
 70
     9
  0
LAYER
  5
10
330
2
100
AcDbSymbolTableRecord
100
AcDbLayerTableRecord
  2
0
 70
     0
 62
     7
  6
Continuous
370
    -3
390
F
  0
LAYER
  5
40
330
2
100
AcDbSymbolTableRecord
100
AcDbLayerTableRecord
  2
D-4_寸法
 70
     0
 62
     7
  6
Continuous
370
    -3
390
F
  0
LAYER
  5
41
330
2
100
AcDbSymbolTableRecord
100
AcDbLayerTableRecord
  2
A-1_ピット
 70
     0
 62
     7
  6
Continuous
370
    -3
390
F
  0
LAYER
  5
42
330
2
100
AcDbSymbolTableRecord
100
AcDbLayerTableRecord
  2
A-2_蓋
 70
     0
 62
     7
  6
Continuous
370
    -3
390
F
  0
LAYER
  5
43
330
2
100
AcDbSymbolTableRecord
100
AcDbLayerTableRecord
  2
A-4_寸法
 70
     0
 62
     7
  6
Continuous
370
    -3
390
F
  0
LAYER
  5
44
330
2
100
AcDbSymbolTableRecord
100
AcDbLayerTableRecord
  2
A-3_受枠
 70
     0
 62
     7
  6
Continuous
370
    -3
390
F
  0
LAYER
  5
45
330
2
100
AcDbSymbolTableRecord
100
AcDbLayerTableRecord
  2
A-A
 70
     0
 62
     7
  6
Continuous
370
    -3
390
F
  0
LAYER
  5
46
330
2
100
AcDbSymbolTableRecord
100
AcDbLayerTableRecord
  2
D-2_蓋
 70
     0
 62
     7
  6
Continuous
370
    -3
390
F
  0
LAYER
  5
47
330
2
100
AcDbSymbolTableRecord
100
AcDbLayerTableRecord
  2
F-5
 70
     0
 62
     7
  6
Continuous
370
    -3
390
F
  0
ENDTAB
  0
TABLE
  2
STYLE
  5
3
330
0
100
AcDbSymbolTable
 70
     2
  0
STYLE
  5
11
330
3
100
AcDbSymbolTableRecord
100
AcDbTextStyleTableRecord
  2
Standard
 70
     0
 40
0.0
 41
1.0
 50
0.0
 71
     0
 42
2.5
  3
txt
  4

1001
ACAD
1000

1071
        0
  0
STYLE
  5
3B
330
3
100
AcDbSymbolTableRecord
100
AcDbTextStyleTableRecord
  2
ＭＳ ゴシック
 70
     0
 40
1.0
 41
1.0
 50
0.0
 71
     0
 42
10.0
  3

  4

1001
ACAD
1000
MS Gothic
1071
    32817
  0
ENDTAB
  0
TABLE
  2
VIEW
  5
6
330
0
100
AcDbSymbolTable
 70
     0
  0
ENDTAB
  0
TABLE
  2
UCS
  5
7
330
0
100
AcDbSymbolTable
 70
     0
  0
ENDTAB
  0
TABLE
  2
APPID
  5
9
330
0
100
AcDbSymbolTable
 70
     1
  0
APPID
  5
12
330
9
100
AcDbSymbolTableRecord
100
AcDbRegAppTableRecord
  2
ACAD
 70
     0
  0
ENDTAB
  0
TABLE
  2
DIMSTYLE
  5
A
330
0
100
AcDbSymbolTable
 70
     1
100
AcDbDimStyleTable
  0
DIMSTYLE
105
27
330
A
100
AcDbSymbolTableRecord
100
AcDbDimStyleTableRecord
  2
ISO-25
 70
     0
 41
2.5
 42
0.625
 43
3.75
 44
1.25
 73
     0
 74
     0
 77
     1
 78
     8
140
2.5
141
2.5
143
0.03937007874016
147
0.625
171
     3
172
     1
271
     2
272
     2
274
     3
278
    44
283
     0
284
     8
340
11
  0
ENDTAB
  0
TABLE
  2
BLOCK_RECORD
  5
1
330
0
100
AcDbSymbolTable
 70
     1
  0
BLOCK_RECORD
  5
1F
330
1
100
AcDbSymbolTableRecord
100
AcDbBlockTableRecord
  2
*Model_Space
340
22
  0
BLOCK_RECORD
  5
1B
330
1
100
AcDbSymbolTableRecord
100
AcDbBlockTableRecord
  2
*Paper_Space
340
1E
  0
BLOCK_RECORD
  5
23
330
1
100
AcDbSymbolTableRecord
100
AcDbBlockTableRecord
  2
*Paper_Space0
340
26
  0
ENDTAB
  0
ENDSEC
  0
SECTION
  2
BLOCKS
  0
BLOCK
  5
20
330
1F
100
AcDbEntity
  8
0
100
AcDbBlockBegin
  2
*Model_Space
 70
     0
 10
0.0
 20
0.0
 30
0.0
  3
*Model_Space
  1

  0
ENDBLK
  5
21
330
1F
100
AcDbEntity
  8
0
100
AcDbBlockEnd
  0
BLOCK
  5
1C
330
1B
100
AcDbEntity
 67
     1
  8
0
100
AcDbBlockBegin
  2
*Paper_Space
 70
     0
 10
0.0
 20
0.0
 30
0.0
  3
*Paper_Space
  1

  0
ENDBLK
  5
1D
330
1B
100
AcDbEntity
 67
     1
  8
0
100
AcDbBlockEnd
  0
BLOCK
  5
24
330
23
100
AcDbEntity
  8
0
100
AcDbBlockBegin
  2
*Paper_Space0
 70
     0
 10
0.0
 20
0.0
 30
0.0
  3
*Paper_Space0
  1

  0
ENDBLK
  5
25
330
23
100
AcDbEntity
  8
0
100
AcDbBlockEnd
  0
ENDSEC
  0
SECTION
  2
ENTITIES
  0
LINE
  5
48
330
1F
100
AcDbEntity
  8
D-4_寸法
  6
Continuous
 62
     2
370
     9
100
AcDbLine
 10
676.2874293971709
 20
-671.8100552945523
 30
0.0
 11
676.2874293971709
 21
-621.8091480152026
 31
0.0
  0
LINE
  5
49
330
1F
100
AcDbEntity
  8
D-4_寸法
  6
Continuous
 62
     2
370
     9
100
AcDbLine
 10
676.2874293971709
 20
-621.8091480152026
 30
0.0
 11
901.2874293971709
 21
-621.8091480152026
 31
0.0
  0
LINE
  5
4A
330
1F
100
AcDbEntity
  8
D-4_寸法
  6
Continuous
 62
     2
370
     9
100
AcDbLine
 10
901.2874293971709
 20
-621.8091480152026
 30
0.0
 11
901.2874293971709
 21
-671.8100552945523
 31
0.0
  0
LINE
  5
4B
330
1F
100
AcDbEntity
  8
D-4_寸法
  6
Continuous
 62
     2
370
     9
100
AcDbLine
 10
901.2874293971709
 20
-671.8100552945523
 30
0.0
 11
676.2874293971709
 21
-671.8100552945523
 31
0.0
  0
LINE
  5
4C
330
1F
100
AcDbEntity
  8
A-1_ピット
  6
Continuous
 62
     2
370
     9
100
AcDbLine
 10
-973.1815647434543
 20
-184.0335412927575
 30
0.0
 11
-973.1815647434543
 21
-173.86623898068
 31
0.0
  0
LINE
  5
4D
330
1F
100
AcDbEntity
  8
A-1_ピット
  6
Continuous
 62
     2
370
     9
100
AcDbLine
 10
-806.5150080500422
 20
-200.6998505463471
 30
0.0
 11
-956.5148843301308
 21
-200.6998505463471
 31
0.0
  0
LINE
  5
4E
330
1F
100
AcDbEntity
  8
A-1_ピット
  6
Continuous
 62
     2
370
     9
100
AcDbLine
 10
-789.848080196896
 20
-184.0335412927575
 30
0.0
 11
-789.848080196896
 21
-173.86623898068
 31
0.0
  0
LINE
  5
4F
330
1F
100
AcDbEntity
  8
A-1_ピット
  6
Continuous
 62
     2
370
     9
100
AcDbLine
 10
-804.8482534047719
 20
-184.0335412927575
 30
0.0
 11
-804.8482534047719
 21
-173.86623898068
 31
0.0
  0
LINE
  5
50
330
1F
100
AcDbEntity
  8
A-1_ピット
  6
Continuous
 62
     2
370
     9
100
AcDbLine
 10
-956.5148843301308
 20
-185.7000484982052
 30
0.0
 11
-806.5146368903083
 21
-185.7000484982052
 31
0.0
  0
LINE
  5
51
330
1F
100
AcDbEntity
  8
A-1_ピット
  6
Continuous
 62
     2
370
     9
100
AcDbLine
 10
-958.1817626953125
 20
-184.0335412927575
 30
0.0
 11
-958.1817626953125
 21
-173.86623898068
 31
0.0
  0
LINE
  5
52
330
1F
100
AcDbEntity
  8
A-1_ピット
  6
JWW_CENTER1
 62
     2
370
     9
100
AcDbLine
 10
-965.6816637193833
 20
-160.354292586043
 30
0.0
 11
-965.6816637193833
 21
-186.3495780326224
 31
0.0
  0
LINE
  5
53
330
1F
100
AcDbEntity
  8
A-1_ピット
  6
JWW_CENTER1
 62
     2
370
     9
100
AcDbLine
 10
-952.0765562315245
 20
-173.86623898068
 30
0.0
 11
-979.4218733504011
 21
-173.86623898068
 31
0.0
  0
LINE
  5
54
330
1F
100
AcDbEntity
  8
A-1_ピット
  6
JWW_CENTER1
 62
     2
370
     9
100
AcDbLine
 10
-797.3479812209669
 20
-160.354292586043
 30
0.0
 11
-797.3479812209669
 21
-186.3495780326224
 31
0.0
  0
LINE
  5
55
330
1F
100
AcDbEntity
  8
A-1_ピット
  6
JWW_CENTER1
 62
     2
370
     9
100
AcDbLine
 10
-783.7434923326646
 20
-173.86623898068
 30
0.0
 11
-811.088314571896
 21
-173.86623898068
 31
0.0
  0
LINE
  5
56
330
1F
100
AcDbEntity
  8
A-1_ピット
  6
Continuous
 62
     2
370
     9
100
AcDbLine
 10
-116.5149585620776
 20
-184.0335412927575
 30
0.0
 11
-116.5149585620776
 21
-173.86623898068
 31
0.0
  0
LINE
  5
57
330
1F
100
AcDbEntity
  8
A-1_ピット
  6
Continuous
 62
     2
370
     9
100
AcDbLine
 10
50.152587890625
 20
-200.6998505463471
 30
0.0
 11
-99.84790698902003
 21
-200.6998505463471
 31
0.0
  0
LINE
  5
58
330
1F
100
AcDbEntity
  8
A-1_ピット
  6
Continuous
 62
     2
370
     9
100
AcDbLine
 10
66.81864970439193
 20
-184.0335412927575
 30
0.0
 11
66.81864970439193
 21
-173.86623898068
 31
0.0
  0
LINE
  5
59
330
1F
100
AcDbEntity
  8
A-1_ピット
  6
Continuous
 62
     2
370
     9
100
AcDbLine
 10
51.81934253589532
 20
-184.0335412927575
 30
0.0
 11
51.81934253589532
 21
-173.86623898068
 31
0.0
  0
LINE
  5
5A
330
1F
100
AcDbEntity
  8
A-1_ピット
  6
Continuous
 62
     2
370
     9
100
AcDbLine
 10
-99.84840186866535
 20
-185.7000484982052
 30
0.0
 11
50.152587890625
 21
-185.7000484982052
 31
0.0
  0
LINE
  5
5B
330
1F
100
AcDbEntity
  8
A-1_ピット
  6
Continuous
 62
     2
370
     9
100
AcDbLine
 10
-101.5147853542018
 20
-184.0335412927575
 30
0.0
 11
-101.5147853542018
 21
-173.86623898068
 31
0.0
  0
LINE
  5
5C
330
1F
100
AcDbEntity
  8
A-1_ピット
  6
JWW_CENTER1
 62
     2
370
     9
100
AcDbLine
 10
-109.0146863782726
 20
-160.354292586043
 30
0.0
 11
-109.0146863782726
 21
-186.3495780326224
 31
0.0
  0
LINE
  5
5D
330
1F
100
AcDbEntity
  8
A-1_ピット
  6
JWW_CENTER1
 62
     2
370
     9
100
AcDbLine
 10
-95.40995005014764
 20
-173.86623898068
 30
0.0
 11
-122.755143449113
 21
-173.86623898068
 31
0.0
  0
LINE
  5
5E
330
1F
100
AcDbEntity
  8
A-1_ピット
  6
JWW_CENTER1
 62
     2
370
     9
100
AcDbLine
 10
59.31825380067579
 20
-160.354292586043
 30
0.0
 11
59.31825380067579
 21
-186.3495780326224
 31
0.0
  0
LINE
  5
5F
330
1F
100
AcDbEntity
  8
A-1_ピット
  6
JWW_CENTER1
 62
     2
370
     9
100
AcDbLine
 10
72.92397988809142
 20
-173.86623898068
 30
0.0
 11
45.57841532939193
 21
-173.86623898068
 31
0.0
  0
LINE
  5
60
330
1F
100
AcDbEntity
  8
A-1_ピット
  6
Continuous
 62
     2
370
     9
100
AcDbLine
 10
-973.1815647434543
 20
967.9679581925677
 30
0.0
 11
-973.1815647434543
 21
957.8013981999578
 31
0.0
  0
LINE
  5
61
330
1F
100
AcDbEntity
  8
A-1_ピット
  6
Continuous
 62
     2
370
     9
100
AcDbLine
 10
-806.5150080500422
 20
984.6342674461573
 30
0.0
 11
-956.5148843301308
 21
984.6342674461573
 31
0.0
  0
LINE
  5
62
330
1F
100
AcDbEntity
  8
A-1_ピット
  6
Continuous
 62
     2
370
     9
100
AcDbLine
 10
-789.848080196896
 20
967.9679581925677
 30
0.0
 11
-789.848080196896
 21
957.8013981999578
 31
0.0
  0
LINE
  5
63
330
1F
100
AcDbEntity
  8
A-1_ピット
  6
Continuous
 62
     2
370
     9
100
AcDbLine
 10
-804.8482534047719
 20
967.9679581925677
 30
0.0
 11
-804.8482534047719
 21
957.8013981999578
 31
0.0
  0
LINE
  5
64
330
1F
100
AcDbEntity
  8
A-1_ピット
  6
Continuous
 62
     2
370
     9
100
AcDbLine
 10
-956.5148843301308
 20
969.6344653980154
 30
0.0
 11
-806.5146368903083
 21
969.6344653980154
 31
0.0
  0
LINE
  5
65
330
1F
100
AcDbEntity
  8
A-1_ピット
  6
Continuous
 62
     2
370
     9
100
AcDbLine
 10
-958.1817626953125
 20
967.9679581925677
 30
0.0
 11
-958.1817626953125
 21
957.8013981999578
 31
0.0
  0
LINE
  5
66
330
1F
100
AcDbEntity
  8
A-1_ピット
  6
JWW_CENTER1
 62
     2
370
     9
100
AcDbLine
 10
-965.6816637193833
 20
944.2887094858531
 30
0.0
 11
-965.6816637193833
 21
970.2847372519005
 31
0.0
  0
LINE
  5
67
330
1F
100
AcDbEntity
  8
A-1_ピット
  6
JWW_CENTER1
 62
     2
370
     9
100
AcDbLine
 10
-952.0765562315245
 20
957.8013981999578
 30
0.0
 11
-979.4218733504011
 21
957.8013981999578
 31
0.0
  0
LINE
  5
68
330
1F
100
AcDbEntity
  8
A-1_ピット
  6
JWW_CENTER1
 62
     2
370
     9
100
AcDbLine
 10
-797.3479812209669
 20
944.2887094858531
 30
0.0
 11
-797.3479812209669
 21
970.2847372519005
 31
0.0
  0
LINE
  5
69
330
1F
100
AcDbEntity
  8
A-1_ピット
  6
JWW_CENTER1
 62
     2
370
     9
100
AcDbLine
 10
-783.7434923326646
 20
957.8013981999578
 30
0.0
 11
-811.088314571896
 21
957.8013981999578
 31
0.0
  0
LINE
  5
6A
330
1F
100
AcDbEntity
  8
A-1_ピット
  6
Continuous
 62
     2
370
     9
100
AcDbLine
 10
-116.5149585620776
 20
967.9679581925677
 30
0.0
 11
-116.5149585620776
 21
957.8013981999578
 31
0.0
  0
LINE
  5
6B
330
1F
100
AcDbEntity
  8
A-1_ピット
  6
Continuous
 62
     2
370
     9
100
AcDbLine
 10
50.152587890625
 20
984.6342674461573
 30
0.0
 11
-99.84790698902003
 21
984.6342674461573
 31
0.0
  0
LINE
  5
6C
330
1F
100
AcDbEntity
  8
A-1_ピット
  6
Continuous
 62
     2
370
     9
100
AcDbLine
 10
66.81864970439193
 20
967.9679581925677
 30
0.0
 11
66.81864970439193
 21
957.8013981999578
 31
0.0
  0
LINE
  5
6D
330
1F
100
AcDbEntity
  8
A-1_ピット
  6
Continuous
 62
     2
370
     9
100
AcDbLine
 10
51.81934253589532
 20
967.9679581925677
 30
0.0
 11
51.81934253589532
 21
957.8013981999578
 31
0.0
  0
LINE
  5
6E
330
1F
100
AcDbEntity
  8
A-1_ピット
  6
Continuous
 62
     2
370
     9
100
AcDbLine
 10
-99.84840186866535
 20
969.6344653980154
 30
0.0
 11
50.152587890625
 21
969.6344653980154
 31
0.0
  0
LINE
  5
6F
330
1F
100
AcDbEntity
  8
A-1_ピット
  6
Continuous
 62
     2
370
     9
100
AcDbLine
 10
-101.5147853542018
 20
967.9679581925677
 30
0.0
 11
-101.5147853542018
 21
957.8013981999578
 31
0.0
  0
LINE
  5
70
330
1F
100
AcDbEntity
  8
A-1_ピット
  6
JWW_CENTER1
 62
     2
370
     9
100
AcDbLine
 10
-109.0146863782726
 20
944.2887094858531
 30
0.0
 11
-109.0146863782726
 21
970.2847372519005
 31
0.0
  0
LINE
  5
71
330
1F
100
AcDbEntity
  8
A-1_ピット
  6
JWW_CENTER1
 62
     2
370
     9
100
AcDbLine
 10
-95.40995005014764
 20
957.8013981999578
 30
0.0
 11
-122.755143449113
 21
957.8013981999578
 31
0.0
  0
LINE
  5
72
330
1F
100
AcDbEntity
  8
A-1_ピット
  6
JWW_CENTER1
 62
     2
370
     9
100
AcDbLine
 10
59.31825380067579
 20
944.2887094858531
 30
0.0
 11
59.31825380067579
 21
970.2847372519005
 31
0.0
  0
LINE
  5
73
330
1F
100
AcDbEntity
  8
A-1_ピット
  6
JWW_CENTER1
 62
     2
370
     9
100
AcDbLine
 10
72.92397988809142
 20
957.8013981999578
 30
0.0
 11
45.57841532939193
 21
957.8013981999578
 31
0.0
  0
LINE
  5
74
330
1F
100
AcDbEntity
  8
A-2_蓋
  6
Continuous
 62
     3
370
     9
100
AcDbLine
 10
375.9853053737334
 20
-149.6987915039062
 30
0.0
 11
-1282.348467852618
 21
-149.6987915039062
 31
0.0
  0
LINE
  5
75
330
1F
100
AcDbEntity
  8
A-2_蓋
  6
Continuous
 62
     3
370
     9
100
AcDbLine
 10
375.9853053737334
 20
-142.1991379196578
 30
0.0
 11
-1282.348467852618
 21
-142.1991379196578
 31
0.0
  0
LINE
  5
76
330
1F
100
AcDbEntity
  8
A-2_蓋
  6
Continuous
 62
     3
370
     9
100
AcDbLine
 10
-1282.348467852618
 20
817.8011837521117
 30
0.0
 11
375.9853053737334
 21
817.8011837521117
 31
0.0
  0
LINE
  5
77
330
1F
100
AcDbEntity
  8
A-2_蓋
  6
Continuous
 62
     3
370
     9
100
AcDbLine
 10
-1282.348467852618
 20
799.4683672930745
 30
0.0
 11
375.9853053737334
 21
799.4683672930745
 31
0.0
  0
LINE
  5
78
330
1F
100
AcDbEntity
  8
A-2_蓋
  6
Continuous
 62
     3
370
     9
100
AcDbLine
 10
-1282.348467852618
 20
926.1345445787586
 30
0.0
 11
375.9853053737334
 21
926.1345445787586
 31
0.0
  0
LINE
  5
79
330
1F
100
AcDbEntity
  8
A-2_蓋
  6
Continuous
 62
     3
370
     9
100
AcDbLine
 10
-1282.348467852618
 20
933.6344456028294
 30
0.0
 11
375.9853053737334
 21
933.6344456028294
 31
0.0
  0
LINE
  5
7A
330
1F
100
AcDbEntity
  8
A-2_蓋
  6
Continuous
 62
     3
370
     9
100
AcDbLine
 10
-1282.348467852618
 20
-149.6987915039062
 30
0.0
 11
-1282.348467852618
 21
933.6344456028294
 31
0.0
  0
LINE
  5
7B
330
1F
100
AcDbEntity
  8
A-2_蓋
  6
Continuous
 62
     3
370
     9
100
AcDbLine
 10
375.9853053737334
 20
933.6344456028294
 30
0.0
 11
375.9853053737334
 21
-149.6987915039062
 31
0.0
  0
LINE
  5
7C
330
1F
100
AcDbEntity
  8
A-2_蓋
  6
Continuous
 62
     3
370
     9
100
AcDbLine
 10
-1282.348467852618
 20
-15.53271319415103
 30
0.0
 11
375.9853053737334
 21
-15.53271319415103
 31
0.0
  0
LINE
  5
7D
330
1F
100
AcDbEntity
  8
A-2_蓋
  6
Continuous
 62
     3
370
     9
100
AcDbLine
 10
-1282.348467852618
 20
-33.86552965318828
 30
0.0
 11
375.9853053737334
 21
-33.86552965318828
 31
0.0
  0
LINE
  5
7E
330
1F
100
AcDbEntity
  8
A-2_蓋
  6
Continuous
 62
     3
370
     9
100
AcDbLine
 10
-1270.681061615815
 20
-142.1991379196578
 30
0.0
 11
-1270.681061615815
 21
-33.86552965318828
 31
0.0
  0
LINE
  5
7F
330
1F
100
AcDbEntity
  8
A-2_蓋
  6
Continuous
 62
     3
370
     9
100
AcDbLine
 10
364.3192600559544
 20
-33.86552965318828
 30
0.0
 11
364.3192600559544
 21
-142.1991379196578
 31
0.0
  0
LINE
  5
80
330
1F
100
AcDbEntity
  8
A-2_蓋
  6
Continuous
 62
     3
370
     9
100
AcDbLine
 10
-1270.681061615815
 20
651.1336372994089
 30
0.0
 11
-1270.681061615815
 21
799.4683672930745
 31
0.0
  0
LINE
  5
81
330
1F
100
AcDbEntity
  8
A-2_蓋
  6
Continuous
 62
     3
370
     9
100
AcDbLine
 10
-1270.681061615815
 20
817.8011837521117
 30
0.0
 11
-1270.681061615815
 21
926.1345445787586
 31
0.0
  0
LINE
  5
82
330
1F
100
AcDbEntity
  8
A-2_蓋
  6
Continuous
 62
     3
370
     9
100
AcDbLine
 10
364.3192600559544
 20
926.1345445787586
 30
0.0
 11
364.3192600559544
 21
817.8011837521117
 31
0.0
  0
LINE
  5
83
330
1F
100
AcDbEntity
  8
A-2_蓋
  6
Continuous
 62
     3
370
     9
100
AcDbLine
 10
364.3192600559544
 20
799.4683672930745
 30
0.0
 11
364.3192600559544
 21
651.1336372994089
 31
0.0
  0
LINE
  5
84
330
1F
100
AcDbEntity
  8
A-2_蓋
  6
Continuous
 62
     3
370
     9
100
AcDbLine
 10
305.4852459881758
 20
926.1345445787586
 30
0.0
 11
305.4852459881758
 21
817.8011837521117
 31
0.0
  0
LINE
  5
85
330
1F
100
AcDbEntity
  8
A-2_蓋
  6
Continuous
 62
     3
370
     9
100
AcDbLine
 10
317.1522810652451
 20
926.1345445787586
 30
0.0
 11
317.1522810652451
 21
817.8011837521117
 31
0.0
  0
LINE
  5
86
330
1F
100
AcDbEntity
  8
A-2_蓋
  6
Continuous
 62
     3
370
     9
100
AcDbLine
 10
305.4852459881758
 20
799.4683672930745
 30
0.0
 11
305.4852459881758
 21
651.1336372994089
 31
0.0
  0
LINE
  5
87
330
1F
100
AcDbEntity
  8
A-2_蓋
  6
Continuous
 62
     3
370
     9
100
AcDbLine
 10
317.1522810652451
 20
799.4683672930745
 30
0.0
 11
317.1522810652451
 21
651.1336372994089
 31
0.0
  0
LINE
  5
88
330
1F
100
AcDbEntity
  8
A-2_蓋
  6
Continuous
 62
     3
370
     9
100
AcDbLine
 10
305.4852459881758
 20
-33.86552965318828
 30
0.0
 11
305.4852459881758
 21
-142.1991379196578
 31
0.0
  0
LINE
  5
89
330
1F
100
AcDbEntity
  8
A-2_蓋
  6
Continuous
 62
     3
370
     9
100
AcDbLine
 10
317.1522810652451
 20
-33.86552965318828
 30
0.0
 11
317.1522810652451
 21
-142.1991379196578
 31
0.0
  0
LINE
  5
8A
330
1F
100
AcDbEntity
  8
A-2_蓋
  6
Continuous
 62
     3
370
     9
100
AcDbLine
 10
246.6514793602198
 20
926.1345445787586
 30
0.0
 11
246.6514793602198
 21
817.8011837521117
 31
0.0
  0
LINE
  5
8B
330
1F
100
AcDbEntity
  8
A-2_蓋
  6
Continuous
 62
     3
370
     9
100
AcDbLine
 10
258.3182669974664
 20
926.1345445787586
 30
0.0
 11
258.3182669974664
 21
817.8011837521117
 31
0.0
  0
LINE
  5
8C
330
1F
100
AcDbEntity
  8
A-2_蓋
  6
Continuous
 62
     3
370
     9
100
AcDbLine
 10
246.6514793602198
 20
799.4683672930745
 30
0.0
 11
246.6514793602198
 21
651.1336372994089
 31
0.0
  0
LINE
  5
8D
330
1F
100
AcDbEntity
  8
A-2_蓋
  6
Continuous
 62
     3
370
     9
100
AcDbLine
 10
258.3182669974664
 20
799.4683672930745
 30
0.0
 11
258.3182669974664
 21
651.1336372994089
 31
0.0
  0
LINE
  5
8E
330
1F
100
AcDbEntity
  8
A-2_蓋
  6
Continuous
 62
     3
370
     9
100
AcDbLine
 10
246.6514793602198
 20
-33.86552965318828
 30
0.0
 11
246.6514793602198
 21
-142.1991379196578
 31
0.0
  0
LINE
  5
8F
330
1F
100
AcDbEntity
  8
A-2_蓋
  6
Continuous
 62
     3
370
     9
100
AcDbLine
 10
258.3182669974664
 20
-33.86552965318828
 30
0.0
 11
258.3182669974664
 21
-142.1991379196578
 31
0.0
  0
LINE
  5
90
330
1F
100
AcDbEntity
  8
A-2_蓋
  6
Continuous
 62
     3
370
     9
100
AcDbLine
 10
187.8187024915542
 20
926.1345445787586
 30
0.0
 11
187.8187024915542
 21
817.8011837521117
 31
0.0
  0
LINE
  5
91
330
1F
100
AcDbEntity
  8
A-2_蓋
  6
Continuous
 62
     3
370
     9
100
AcDbLine
 10
199.4854901288008
 20
926.1345445787586
 30
0.0
 11
199.4854901288008
 21
817.8011837521117
 31
0.0
  0
LINE
  5
92
330
1F
100
AcDbEntity
  8
A-2_蓋
  6
Continuous
 62
     3
370
     9
100
AcDbLine
 10
187.8187024915542
 20
799.4683672930745
 30
0.0
 11
187.8187024915542
 21
651.1336372994089
 31
0.0
  0
LINE
  5
93
330
1F
100
AcDbEntity
  8
A-2_蓋
  6
Continuous
 62
     3
370
     9
100
AcDbLine
 10
199.4854901288008
 20
799.4683672930745
 30
0.0
 11
199.4854901288008
 21
651.1336372994089
 31
0.0
  0
LINE
  5
94
330
1F
100
AcDbEntity
  8
A-2_蓋
  6
Continuous
 62
     3
370
     9
100
AcDbLine
 10
187.8187024915542
 20
-33.86552965318828
 30
0.0
 11
187.8187024915542
 21
-142.1991379196578
 31
0.0
  0
LINE
  5
95
330
1F
100
AcDbEntity
  8
A-2_蓋
  6
Continuous
 62
     3
370
     9
100
AcDbLine
 10
199.4854901288008
 20
-33.86552965318828
 30
0.0
 11
199.4854901288008
 21
-142.1991379196578
 31
0.0
  0
LINE
  5
96
330
1F
100
AcDbEntity
  8
A-2_蓋
  6
Continuous
 62
     3
370
     9
100
AcDbLine
 10
128.9851833034209
 20
926.1345445787586
 30
0.0
 11
128.9851833034209
 21
817.8011837521117
 31
0.0
  0
LINE
  5
97
330
1F
100
AcDbEntity
  8
A-2_蓋
  6
Continuous
 62
     3
370
     9
100
AcDbLine
 10
140.6517235008448
 20
926.1345445787586
 30
0.0
 11
140.6517235008448
 21
817.8011837521117
 31
0.0
  0
LINE
  5
98
330
1F
100
AcDbEntity
  8
A-2_蓋
  6
Continuous
 62
     3
370
     9
100
AcDbLine
 10
128.9851833034209
 20
799.4683672930745
 30
0.0
 11
128.9851833034209
 21
651.1336372994089
 31
0.0
  0
LINE
  5
99
330
1F
100
AcDbEntity
  8
A-2_蓋
  6
Continuous
 62
     3
370
     9
100
AcDbLine
 10
140.6517235008448
 20
799.4683672930745
 30
0.0
 11
140.6517235008448
 21
651.1336372994089
 31
0.0
  0
LINE
  5
9A
330
1F
100
AcDbEntity
  8
A-2_蓋
  6
Continuous
 62
     3
370
     9
100
AcDbLine
 10
128.9851833034209
 20
-33.86552965318828
 30
0.0
 11
128.9851833034209
 21
-142.1991379196578
 31
0.0
  0
LINE
  5
9B
330
1F
100
AcDbEntity
  8
A-2_蓋
  6
Continuous
 62
     3
370
     9
100
AcDbLine
 10
140.6517235008448
 20
-33.86552965318828
 30
0.0
 11
140.6517235008448
 21
-142.1991379196578
 31
0.0
  0
LINE
  5
9C
330
1F
100
AcDbEntity
  8
A-2_蓋
  6
Continuous
 62
     3
370
     9
100
AcDbLine
 10
70.15166411528725
 20
926.1345445787586
 30
0.0
 11
70.15166411528725
 21
817.8011837521117
 31
0.0
  0
LINE
  5
9D
330
1F
100
AcDbEntity
  8
A-2_蓋
  6
Continuous
 62
     3
370
     9
100
AcDbLine
 10
81.8182043127112
 20
926.1345445787586
 30
0.0
 11
81.8182043127112
 21
817.8011837521117
 31
0.0
  0
LINE
  5
9E
330
1F
100
AcDbEntity
  8
A-2_蓋
  6
Continuous
 62
     3
370
     9
100
AcDbLine
 10
70.15166411528725
 20
799.4683672930745
 30
0.0
 11
70.15166411528725
 21
651.1336372994089
 31
0.0
  0
LINE
  5
9F
330
1F
100
AcDbEntity
  8
A-2_蓋
  6
Continuous
 62
     3
370
     9
100
AcDbLine
 10
81.8182043127112
 20
799.4683672930745
 30
0.0
 11
81.8182043127112
 21
651.1336372994089
 31
0.0
  0
LINE
  5
A0
330
1F
100
AcDbEntity
  8
A-2_蓋
  6
Continuous
 62
     3
370
     9
100
AcDbLine
 10
70.15166411528725
 20
-33.86552965318828
 30
0.0
 11
70.15166411528725
 21
-142.1991379196578
 31
0.0
  0
LINE
  5
A1
330
1F
100
AcDbEntity
  8
A-2_蓋
  6
Continuous
 62
     3
370
     9
100
AcDbLine
 10
81.8182043127112
 20
-33.86552965318828
 30
0.0
 11
81.8182043127112
 21
-142.1991379196578
 31
0.0
  0
LINE
  5
A2
330
1F
100
AcDbEntity
  8
A-2_蓋
  6
Continuous
 62
     3
370
     9
100
AcDbLine
 10
11.31888724662161
 20
926.1345445787586
 30
0.0
 11
11.31888724662161
 21
817.8011837521117
 31
0.0
  0
LINE
  5
A3
330
1F
100
AcDbEntity
  8
A-2_蓋
  6
Continuous
 62
     3
370
     9
100
AcDbLine
 10
22.9851800042232
 20
926.1345445787586
 30
0.0
 11
22.9851800042232
 21
817.8011837521117
 31
0.0
  0
LINE
  5
A4
330
1F
100
AcDbEntity
  8
A-2_蓋
  6
Continuous
 62
     3
370
     9
100
AcDbLine
 10
11.31888724662161
 20
799.4683672930745
 30
0.0
 11
11.31888724662161
 21
651.1336372994089
 31
0.0
  0
LINE
  5
A5
330
1F
100
AcDbEntity
  8
A-2_蓋
  6
Continuous
 62
     3
370
     9
100
AcDbLine
 10
22.9851800042232
 20
799.4683672930745
 30
0.0
 11
22.9851800042232
 21
651.1336372994089
 31
0.0
  0
LINE
  5
A6
330
1F
100
AcDbEntity
  8
A-2_蓋
  6
Continuous
 62
     3
370
     9
100
AcDbLine
 10
11.31888724662161
 20
-33.86552965318828
 30
0.0
 11
11.31888724662161
 21
-142.1991379196578
 31
0.0
  0
LINE
  5
A7
330
1F
100
AcDbEntity
  8
A-2_蓋
  6
Continuous
 62
     3
370
     9
100
AcDbLine
 10
22.9851800042232
 20
-33.86552965318828
 30
0.0
 11
22.9851800042232
 21
-142.1991379196578
 31
0.0
  0
LINE
  5
A8
330
1F
100
AcDbEntity
  8
A-2_蓋
  6
Continuous
 62
     3
370
     9
100
AcDbLine
 10
-47.51487938133437
 20
926.1345445787586
 30
0.0
 11
-47.51487938133437
 21
817.8011837521117
 31
0.0
  0
LINE
  5
A9
330
1F
100
AcDbEntity
  8
A-2_蓋
  6
Continuous
 62
     3
370
     9
100
AcDbLine
 10
-35.84809174408775
 20
926.1345445787586
 30
0.0
 11
-35.84809174408775
 21
817.8011837521117
 31
0.0
  0
LINE
  5
AA
330
1F
100
AcDbEntity
  8
A-2_蓋
  6
Continuous
 62
     3
370
     9
100
AcDbLine
 10
-47.51487938133437
 20
799.4683672930745
 30
0.0
 11
-47.51487938133437
 21
651.1336372994089
 31
0.0
  0
LINE
  5
AB
330
1F
100
AcDbEntity
  8
A-2_蓋
  6
Continuous
 62
     3
370
     9
100
AcDbLine
 10
-35.84809174408775
 20
799.4683672930745
 30
0.0
 11
-35.84809174408775
 21
651.1336372994089
 31
0.0
  0
LINE
  5
AC
330
1F
100
AcDbEntity
  8
A-2_蓋
  6
Continuous
 62
     3
370
     9
100
AcDbLine
 10
-47.51487938133437
 20
-33.86552965318828
 30
0.0
 11
-47.51487938133437
 21
-142.1991379196578
 31
0.0
  0
LINE
  5
AD
330
1F
100
AcDbEntity
  8
A-2_蓋
  6
Continuous
 62
     3
370
     9
100
AcDbLine
 10
-35.84809174408775
 20
-33.86552965318828
 30
0.0
 11
-35.84809174408775
 21
-142.1991379196578
 31
0.0
  0
LINE
  5
AE
330
1F
100
AcDbEntity
  8
A-2_蓋
  6
Continuous
 62
     3
370
     9
100
AcDbLine
 10
-106.3485222893792
 20
926.1345445787586
 30
0.0
 11
-106.3485222893792
 21
817.8011837521117
 31
0.0
  0
LINE
  5
AF
330
1F
100
AcDbEntity
  8
A-2_蓋
  6
Continuous
 62
     3
370
     9
100
AcDbLine
 10
-94.68173465213255
 20
926.1345445787586
 30
0.0
 11
-94.68173465213255
 21
817.8011837521117
 31
0.0
  0
LINE
  5
B0
330
1F
100
AcDbEntity
  8
A-2_蓋
  6
Continuous
 62
     3
370
     9
100
AcDbLine
 10
-106.3485222893792
 20
799.4683672930745
 30
0.0
 11
-106.3485222893792
 21
651.1336372994089
 31
0.0
  0
LINE
  5
B1
330
1F
100
AcDbEntity
  8
A-2_蓋
  6
Continuous
 62
     3
370
     9
100
AcDbLine
 10
-94.68173465213255
 20
799.4683672930745
 30
0.0
 11
-94.68173465213255
 21
651.1336372994089
 31
0.0
  0
LINE
  5
B2
330
1F
100
AcDbEntity
  8
A-2_蓋
  6
Continuous
 62
     3
370
     9
100
AcDbLine
 10
-106.3485222893792
 20
-33.86552965318828
 30
0.0
 11
-106.3485222893792
 21
-142.1991379196578
 31
0.0
  0
LINE
  5
B3
330
1F
100
AcDbEntity
  8
A-2_蓋
  6
Continuous
 62
     3
370
     9
100
AcDbLine
 10
-94.68173465213255
 20
-33.86552965318828
 30
0.0
 11
-94.68173465213255
 21
-142.1991379196578
 31
0.0
  0
LINE
  5
B4
330
1F
100
AcDbEntity
  8
A-2_蓋
  6
Continuous
 62
     3
370
     9
100
AcDbLine
 10
-165.1811754381333
 20
926.1345445787586
 30
0.0
 11
-165.1811754381333
 21
817.8011837521117
 31
0.0
  0
LINE
  5
B5
330
1F
100
AcDbEntity
  8
A-2_蓋
  6
Continuous
 62
     3
370
     9
100
AcDbLine
 10
-153.5143878008867
 20
926.1345445787586
 30
0.0
 11
-153.5143878008867
 21
817.8011837521117
 31
0.0
  0
LINE
  5
B6
330
1F
100
AcDbEntity
  8
A-2_蓋
  6
Continuous
 62
     3
370
     9
100
AcDbLine
 10
-165.1811754381333
 20
799.4683672930745
 30
0.0
 11
-165.1811754381333
 21
651.1336372994089
 31
0.0
  0
LINE
  5
B7
330
1F
100
AcDbEntity
  8
A-2_蓋
  6
Continuous
 62
     3
370
     9
100
AcDbLine
 10
-153.5143878008867
 20
799.4683672930745
 30
0.0
 11
-153.5143878008867
 21
651.1336372994089
 31
0.0
  0
LINE
  5
B8
330
1F
100
AcDbEntity
  8
A-2_蓋
  6
Continuous
 62
     3
370
     9
100
AcDbLine
 10
-165.1811754381333
 20
-33.86552965318828
 30
0.0
 11
-165.1811754381333
 21
-142.1991379196578
 31
0.0
  0
LINE
  5
B9
330
1F
100
AcDbEntity
  8
A-2_蓋
  6
Continuous
 62
     3
370
     9
100
AcDbLine
 10
-153.5143878008867
 20
-33.86552965318828
 30
0.0
 11
-153.5143878008867
 21
-142.1991379196578
 31
0.0
  0
LINE
  5
BA
330
1F
100
AcDbEntity
  8
A-2_蓋
  6
Continuous
 62
     3
370
     9
100
AcDbLine
 10
-224.0148183461781
 20
926.1345445787586
 30
0.0
 11
-224.0148183461781
 21
817.8011837521117
 31
0.0
  0
LINE
  5
BB
330
1F
100
AcDbEntity
  8
A-2_蓋
  6
Continuous
 62
     3
370
     9
100
AcDbLine
 10
-212.3481544288427
 20
926.1345445787586
 30
0.0
 11
-212.3481544288427
 21
817.8011837521117
 31
0.0
  0
LINE
  5
BC
330
1F
100
AcDbEntity
  8
A-2_蓋
  6
Continuous
 62
     3
370
     9
100
AcDbLine
 10
-224.0148183461781
 20
799.4683672930745
 30
0.0
 11
-224.0148183461781
 21
651.1336372994089
 31
0.0
  0
LINE
  5
BD
330
1F
100
AcDbEntity
  8
A-2_蓋
  6
Continuous
 62
     3
370
     9
100
AcDbLine
 10
-212.3481544288427
 20
799.4683672930745
 30
0.0
 11
-212.3481544288427
 21
651.1336372994089
 31
0.0
  0
LINE
  5
BE
330
1F
100
AcDbEntity
  8
A-2_蓋
  6
Continuous
 62
     3
370
     9
100
AcDbLine
 10
-224.0148183461781
 20
-33.86552965318828
 30
0.0
 11
-224.0148183461781
 21
-142.1991379196578
 31
0.0
  0
LINE
  5
BF
330
1F
100
AcDbEntity
  8
A-2_蓋
  6
Continuous
 62
     3
370
     9
100
AcDbLine
 10
-212.3481544288427
 20
-33.86552965318828
 30
0.0
 11
-212.3481544288427
 21
-142.1991379196578
 31
0.0
  0
LINE
  5
C0
330
1F
100
AcDbEntity
  8
A-2_蓋
  6
Continuous
 62
     3
370
     9
100
AcDbLine
 10
-282.8484612542229
 20
926.1345445787586
 30
0.0
 11
-282.8484612542229
 21
817.8011837521117
 31
0.0
  0
LINE
  5
C1
330
1F
100
AcDbEntity
  8
A-2_蓋
  6
Continuous
 62
     3
370
     9
100
AcDbLine
 10
-271.1816736169763
 20
926.1345445787586
 30
0.0
 11
-271.1816736169763
 21
817.8011837521117
 31
0.0
  0
LINE
  5
C2
330
1F
100
AcDbEntity
  8
A-2_蓋
  6
Continuous
 62
     3
370
     9
100
AcDbLine
 10
-282.8484612542229
 20
799.4683672930745
 30
0.0
 11
-282.8484612542229
 21
651.1336372994089
 31
0.0
  0
LINE
  5
C3
330
1F
100
AcDbEntity
  8
A-2_蓋
  6
Continuous
 62
     3
370
     9
100
AcDbLine
 10
-271.1816736169763
 20
799.4683672930745
 30
0.0
 11
-271.1816736169763
 21
651.1336372994089
 31
0.0
  0
LINE
  5
C4
330
1F
100
AcDbEntity
  8
A-2_蓋
  6
Continuous
 62
     3
370
     9
100
AcDbLine
 10
-282.8484612542229
 20
-33.86552965318828
 30
0.0
 11
-282.8484612542229
 21
-142.1991379196578
 31
0.0
  0
LINE
  5
C5
330
1F
100
AcDbEntity
  8
A-2_蓋
  6
Continuous
 62
     3
370
     9
100
AcDbLine
 10
-271.1816736169763
 20
-33.86552965318828
 30
0.0
 11
-271.1816736169763
 21
-142.1991379196578
 31
0.0
  0
LINE
  5
C6
330
1F
100
AcDbEntity
  8
A-2_蓋
  6
Continuous
 62
     3
370
     9
100
AcDbLine
 10
-341.6811144029771
 20
926.1345445787586
 30
0.0
 11
-341.6811144029771
 21
817.8011837521117
 31
0.0
  0
LINE
  5
C7
330
1F
100
AcDbEntity
  8
A-2_蓋
  6
Continuous
 62
     3
370
     9
100
AcDbLine
 10
-330.0145742055531
 20
926.1345445787586
 30
0.0
 11
-330.0145742055531
 21
817.8011837521117
 31
0.0
  0
LINE
  5
C8
330
1F
100
AcDbEntity
  8
A-2_蓋
  6
Continuous
 62
     3
370
     9
100
AcDbLine
 10
-341.6811144029771
 20
799.4683672930745
 30
0.0
 11
-341.6811144029771
 21
651.1336372994089
 31
0.0
  0
LINE
  5
C9
330
1F
100
AcDbEntity
  8
A-2_蓋
  6
Continuous
 62
     3
370
     9
100
AcDbLine
 10
-330.0145742055531
 20
799.4683672930745
 30
0.0
 11
-330.0145742055531
 21
651.1336372994089
 31
0.0
  0
LINE
  5
CA
330
1F
100
AcDbEntity
  8
A-2_蓋
  6
Continuous
 62
     3
370
     9
100
AcDbLine
 10
-341.6811144029771
 20
-33.86552965318828
 30
0.0
 11
-341.6811144029771
 21
-142.1991379196578
 31
0.0
  0
LINE
  5
CB
330
1F
100
AcDbEntity
  8
A-2_蓋
  6
Continuous
 62
     3
370
     9
100
AcDbLine
 10
-330.0145742055531
 20
-33.86552965318828
 30
0.0
 11
-330.0145742055531
 21
-142.1991379196578
 31
0.0
  0
LINE
  5
CC
330
1F
100
AcDbEntity
  8
A-2_蓋
  6
Continuous
 62
     3
370
     9
100
AcDbLine
 10
-400.5147573110219
 20
926.1345445787586
 30
0.0
 11
-400.5147573110219
 21
817.8011837521117
 31
0.0
  0
LINE
  5
CD
330
1F
100
AcDbEntity
  8
A-2_蓋
  6
Continuous
 62
     3
370
     9
100
AcDbLine
 10
-388.8480933936864
 20
926.1345445787586
 30
0.0
 11
-388.8480933936864
 21
817.8011837521117
 31
0.0
  0
LINE
  5
CE
330
1F
100
AcDbEntity
  8
A-2_蓋
  6
Continuous
 62
     3
370
     9
100
AcDbLine
 10
-400.5147573110219
 20
799.4683672930745
 30
0.0
 11
-400.5147573110219
 21
651.1336372994089
 31
0.0
  0
LINE
  5
CF
330
1F
100
AcDbEntity
  8
A-2_蓋
  6
Continuous
 62
     3
370
     9
100
AcDbLine
 10
-388.8480933936864
 20
799.4683672930745
 30
0.0
 11
-388.8480933936864
 21
651.1336372994089
 31
0.0
  0
LINE
  5
D0
330
1F
100
AcDbEntity
  8
A-2_蓋
  6
Continuous
 62
     3
370
     9
100
AcDbLine
 10
-400.5147573110219
 20
-33.86552965318828
 30
0.0
 11
-400.5147573110219
 21
-142.1991379196578
 31
0.0
  0
LINE
  5
D1
330
1F
100
AcDbEntity
  8
A-2_蓋
  6
Continuous
 62
     3
370
     9
100
AcDbLine
 10
-388.8480933936864
 20
-33.86552965318828
 30
0.0
 11
-388.8480933936864
 21
-142.1991379196578
 31
0.0
  0
LINE
  5
D2
330
1F
100
AcDbEntity
  8
A-2_蓋
  6
Continuous
 62
     3
370
     9
100
AcDbLine
 10
-459.347410459776
 20
926.1345445787586
 30
0.0
 11
-459.347410459776
 21
817.8011837521117
 31
0.0
  0
LINE
  5
D3
330
1F
100
AcDbEntity
  8
A-2_蓋
  6
Continuous
 62
     3
370
     9
100
AcDbLine
 10
-447.6809939822635
 20
926.1345445787586
 30
0.0
 11
-447.6809939822635
 21
817.8011837521117
 31
0.0
  0
LINE
  5
D4
330
1F
100
AcDbEntity
  8
A-2_蓋
  6
Continuous
 62
     3
370
     9
100
AcDbLine
 10
-459.347410459776
 20
799.4683672930745
 30
0.0
 11
-459.347410459776
 21
651.1336372994089
 31
0.0
  0
LINE
  5
D5
330
1F
100
AcDbEntity
  8
A-2_蓋
  6
Continuous
 62
     3
370
     9
100
AcDbLine
 10
-447.6809939822635
 20
799.4683672930745
 30
0.0
 11
-447.6809939822635
 21
651.1336372994089
 31
0.0
  0
LINE
  5
D6
330
1F
100
AcDbEntity
  8
A-2_蓋
  6
Continuous
 62
     3
370
     9
100
AcDbLine
 10
-459.347410459776
 20
-33.86552965318828
 30
0.0
 11
-459.347410459776
 21
-142.1991379196578
 31
0.0
  0
LINE
  5
D7
330
1F
100
AcDbEntity
  8
A-2_蓋
  6
Continuous
 62
     3
370
     9
100
AcDbLine
 10
-447.6809939822635
 20
-33.86552965318828
 30
0.0
 11
-447.6809939822635
 21
-142.1991379196578
 31
0.0
  0
LINE
  5
D8
330
1F
100
AcDbEntity
  8
A-2_蓋
  6
Continuous
 62
     3
370
     9
100
AcDbLine
 10
-518.1811770877323
 20
926.1345445787586
 30
0.0
 11
-518.1811770877323
 21
817.8011837521117
 31
0.0
  0
LINE
  5
D9
330
1F
100
AcDbEntity
  8
A-2_蓋
  6
Continuous
 62
     3
370
     9
100
AcDbLine
 10
-506.5143894504857
 20
926.1345445787586
 30
0.0
 11
-506.5143894504857
 21
817.8011837521117
 31
0.0
  0
LINE
  5
DA
330
1F
100
AcDbEntity
  8
A-2_蓋
  6
Continuous
 62
     3
370
     9
100
AcDbLine
 10
-518.1811770877323
 20
799.4683672930745
 30
0.0
 11
-518.1811770877323
 21
651.1336372994089
 31
0.0
  0
LINE
  5
DB
330
1F
100
AcDbEntity
  8
A-2_蓋
  6
Continuous
 62
     3
370
     9
100
AcDbLine
 10
-506.5143894504857
 20
799.4683672930745
 30
0.0
 11
-506.5143894504857
 21
651.1336372994089
 31
0.0
  0
LINE
  5
DC
330
1F
100
AcDbEntity
  8
A-2_蓋
  6
Continuous
 62
     3
370
     9
100
AcDbLine
 10
-518.1811770877323
 20
-33.86552965318828
 30
0.0
 11
-518.1811770877323
 21
-142.1991379196578
 31
0.0
  0
LINE
  5
DD
330
1F
100
AcDbEntity
  8
A-2_蓋
  6
Continuous
 62
     3
370
     9
100
AcDbLine
 10
-506.5143894504857
 20
-33.86552965318828
 30
0.0
 11
-506.5143894504857
 21
-142.1991379196578
 31
0.0
  0
LINE
  5
DE
330
1F
100
AcDbEntity
  8
A-2_蓋
  6
Continuous
 62
     3
370
     9
100
AcDbLine
 10
-577.0149437156883
 20
926.1345445787586
 30
0.0
 11
-577.0149437156883
 21
817.8011837521117
 31
0.0
  0
LINE
  5
DF
330
1F
100
AcDbEntity
  8
A-2_蓋
  6
Continuous
 62
     3
370
     9
100
AcDbLine
 10
-565.3481560784417
 20
926.1345445787586
 30
0.0
 11
-565.3481560784417
 21
817.8011837521117
 31
0.0
  0
LINE
  5
E0
330
1F
100
AcDbEntity
  8
A-2_蓋
  6
Continuous
 62
     3
370
     9
100
AcDbLine
 10
-577.0149437156883
 20
799.4683672930745
 30
0.0
 11
-577.0149437156883
 21
651.1336372994089
 31
0.0
  0
LINE
  5
E1
330
1F
100
AcDbEntity
  8
A-2_蓋
  6
Continuous
 62
     3
370
     9
100
AcDbLine
 10
-565.3481560784417
 20
799.4683672930745
 30
0.0
 11
-565.3481560784417
 21
651.1336372994089
 31
0.0
  0
LINE
  5
E2
330
1F
100
AcDbEntity
  8
A-2_蓋
  6
Continuous
 62
     3
370
     9
100
AcDbLine
 10
-577.0149437156883
 20
-33.86552965318828
 30
0.0
 11
-577.0149437156883
 21
-142.1991379196578
 31
0.0
  0
LINE
  5
E3
330
1F
100
AcDbEntity
  8
A-2_蓋
  6
Continuous
 62
     3
370
     9
100
AcDbLine
 10
-565.3481560784417
 20
-33.86552965318828
 30
0.0
 11
-565.3481560784417
 21
-142.1991379196578
 31
0.0
  0
LINE
  5
E4
330
1F
100
AcDbEntity
  8
A-2_蓋
  6
Continuous
 62
     3
370
     9
100
AcDbLine
 10
-635.8474731445312
 20
926.1345445787586
 30
0.0
 11
-635.8474731445312
 21
817.8011837521117
 31
0.0
  0
LINE
  5
E5
330
1F
100
AcDbEntity
  8
A-2_蓋
  6
Continuous
 62
     3
370
     9
100
AcDbLine
 10
-624.1810566670185
 20
926.1345445787586
 30
0.0
 11
-624.1810566670185
 21
817.8011837521117
 31
0.0
  0
LINE
  5
E6
330
1F
100
AcDbEntity
  8
A-2_蓋
  6
Continuous
 62
     3
370
     9
100
AcDbLine
 10
-635.8474731445312
 20
799.4683672930745
 30
0.0
 11
-635.8474731445312
 21
651.1336372994089
 31
0.0
  0
LINE
  5
E7
330
1F
100
AcDbEntity
  8
A-2_蓋
  6
Continuous
 62
     3
370
     9
100
AcDbLine
 10
-624.1810566670185
 20
799.4683672930745
 30
0.0
 11
-624.1810566670185
 21
651.1336372994089
 31
0.0
  0
LINE
  5
E8
330
1F
100
AcDbEntity
  8
A-2_蓋
  6
Continuous
 62
     3
370
     9
100
AcDbLine
 10
-635.8474731445312
 20
-33.86552965318828
 30
0.0
 11
-635.8474731445312
 21
-142.1991379196578
 31
0.0
  0
LINE
  5
E9
330
1F
100
AcDbEntity
  8
A-2_蓋
  6
Continuous
 62
     3
370
     9
100
AcDbLine
 10
-624.1810566670185
 20
-33.86552965318828
 30
0.0
 11
-624.1810566670185
 21
-142.1991379196578
 31
0.0
  0
LINE
  5
EA
330
1F
100
AcDbEntity
  8
A-2_蓋
  6
Continuous
 62
     3
370
     9
100
AcDbLine
 10
-694.6812397724873
 20
926.1345445787586
 30
0.0
 11
-694.6812397724873
 21
817.8011837521117
 31
0.0
  0
LINE
  5
EB
330
1F
100
AcDbEntity
  8
A-2_蓋
  6
Continuous
 62
     3
370
     9
100
AcDbLine
 10
-683.0144521352406
 20
926.1345445787586
 30
0.0
 11
-683.0144521352406
 21
817.8011837521117
 31
0.0
  0
LINE
  5
EC
330
1F
100
AcDbEntity
  8
A-2_蓋
  6
Continuous
 62
     3
370
     9
100
AcDbLine
 10
-694.6812397724873
 20
799.4683672930745
 30
0.0
 11
-694.6812397724873
 21
651.1336372994089
 31
0.0
  0
LINE
  5
ED
330
1F
100
AcDbEntity
  8
A-2_蓋
  6
Continuous
 62
     3
370
     9
100
AcDbLine
 10
-683.0144521352406
 20
799.4683672930745
 30
0.0
 11
-683.0144521352406
 21
651.1336372994089
 31
0.0
  0
LINE
  5
EE
330
1F
100
AcDbEntity
  8
A-2_蓋
  6
Continuous
 62
     3
370
     9
100
AcDbLine
 10
-694.6812397724873
 20
-33.86552965318828
 30
0.0
 11
-694.6812397724873
 21
-142.1991379196578
 31
0.0
  0
LINE
  5
EF
330
1F
100
AcDbEntity
  8
A-2_蓋
  6
Continuous
 62
     3
370
     9
100
AcDbLine
 10
-683.0144521352406
 20
-33.86552965318828
 30
0.0
 11
-683.0144521352406
 21
-142.1991379196578
 31
0.0
  0
LINE
  5
F0
330
1F
100
AcDbEntity
  8
A-2_蓋
  6
Continuous
 62
     3
370
     9
100
AcDbLine
 10
-753.514140361064
 20
926.1345445787586
 30
0.0
 11
-753.514140361064
 21
817.8011837521117
 31
0.0
  0
LINE
  5
F1
330
1F
100
AcDbEntity
  8
A-2_蓋
  6
Continuous
 62
     3
370
     9
100
AcDbLine
 10
-741.8473527238175
 20
926.1345445787586
 30
0.0
 11
-741.8473527238175
 21
817.8011837521117
 31
0.0
  0
LINE
  5
F2
330
1F
100
AcDbEntity
  8
A-2_蓋
  6
Continuous
 62
     3
370
     9
100
AcDbLine
 10
-753.514140361064
 20
799.4683672930745
 30
0.0
 11
-753.514140361064
 21
651.1336372994089
 31
0.0
  0
LINE
  5
F3
330
1F
100
AcDbEntity
  8
A-2_蓋
  6
Continuous
 62
     3
370
     9
100
AcDbLine
 10
-741.8473527238175
 20
799.4683672930745
 30
0.0
 11
-741.8473527238175
 21
651.1336372994089
 31
0.0
  0
LINE
  5
F4
330
1F
100
AcDbEntity
  8
A-2_蓋
  6
Continuous
 62
     3
370
     9
100
AcDbLine
 10
-753.514140361064
 20
-33.86552965318828
 30
0.0
 11
-753.514140361064
 21
-142.1991379196578
 31
0.0
  0
LINE
  5
F5
330
1F
100
AcDbEntity
  8
A-2_蓋
  6
Continuous
 62
     3
370
     9
100
AcDbLine
 10
-741.8473527238175
 20
-33.86552965318828
 30
0.0
 11
-741.8473527238175
 21
-142.1991379196578
 31
0.0
  0
LINE
  5
F6
330
1F
100
AcDbEntity
  8
A-2_蓋
  6
Continuous
 62
     3
370
     9
100
AcDbLine
 10
-812.3476595491977
 20
926.1345445787586
 30
0.0
 11
-812.3476595491977
 21
817.8011837521117
 31
0.0
  0
LINE
  5
F7
330
1F
100
AcDbEntity
  8
A-2_蓋
  6
Continuous
 62
     3
370
     9
100
AcDbLine
 10
-800.6811193517738
 20
926.1345445787586
 30
0.0
 11
-800.6811193517738
 21
817.8011837521117
 31
0.0
  0
LINE
  5
F8
330
1F
100
AcDbEntity
  8
A-2_蓋
  6
Continuous
 62
     3
370
     9
100
AcDbLine
 10
-812.3476595491977
 20
799.4683672930745
 30
0.0
 11
-812.3476595491977
 21
651.1336372994089
 31
0.0
  0
LINE
  5
F9
330
1F
100
AcDbEntity
  8
A-2_蓋
  6
Continuous
 62
     3
370
     9
100
AcDbLine
 10
-800.6811193517738
 20
799.4683672930745
 30
0.0
 11
-800.6811193517738
 21
651.1336372994089
 31
0.0
  0
LINE
  5
FA
330
1F
100
AcDbEntity
  8
A-2_蓋
  6
Continuous
 62
     3
370
     9
100
AcDbLine
 10
-812.3476595491977
 20
-33.86552965318828
 30
0.0
 11
-812.3476595491977
 21
-142.1991379196578
 31
0.0
  0
LINE
  5
FB
330
1F
100
AcDbEntity
  8
A-2_蓋
  6
Continuous
 62
     3
370
     9
100
AcDbLine
 10
-800.6811193517738
 20
-33.86552965318828
 30
0.0
 11
-800.6811193517738
 21
-142.1991379196578
 31
0.0
  0
LINE
  5
FC
330
1F
100
AcDbEntity
  8
A-2_蓋
  6
Continuous
 62
     3
370
     9
100
AcDbLine
 10
-871.181178737331
 20
926.1345445787586
 30
0.0
 11
-871.181178737331
 21
817.8011837521117
 31
0.0
  0
LINE
  5
FD
330
1F
100
AcDbEntity
  8
A-2_蓋
  6
Continuous
 62
     3
370
     9
100
AcDbLine
 10
-859.5146385399071
 20
926.1345445787586
 30
0.0
 11
-859.5146385399071
 21
817.8011837521117
 31
0.0
  0
LINE
  5
FE
330
1F
100
AcDbEntity
  8
A-2_蓋
  6
Continuous
 62
     3
370
     9
100
AcDbLine
 10
-871.181178737331
 20
799.4683672930745
 30
0.0
 11
-871.181178737331
 21
651.1336372994089
 31
0.0
  0
LINE
  5
FF
330
1F
100
AcDbEntity
  8
A-2_蓋
  6
Continuous
 62
     3
370
     9
100
AcDbLine
 10
-859.5146385399071
 20
799.4683672930745
 30
0.0
 11
-859.5146385399071
 21
651.1336372994089
 31
0.0
  0
LINE
  5
100
330
1F
100
AcDbEntity
  8
A-2_蓋
  6
Continuous
 62
     3
370
     9
100
AcDbLine
 10
-871.181178737331
 20
-33.86552965318828
 30
0.0
 11
-871.181178737331
 21
-142.1991379196578
 31
0.0
  0
LINE
  5
101
330
1F
100
AcDbEntity
  8
A-2_蓋
  6
Continuous
 62
     3
370
     9
100
AcDbLine
 10
-859.5146385399071
 20
-33.86552965318828
 30
0.0
 11
-859.5146385399071
 21
-142.1991379196578
 31
0.0
  0
LINE
  5
102
330
1F
100
AcDbEntity
  8
A-2_蓋
  6
Continuous
 62
     3
370
     9
100
AcDbLine
 10
-930.0140793259079
 20
926.1345445787586
 30
0.0
 11
-930.0140793259079
 21
817.8011837521117
 31
0.0
  0
LINE
  5
103
330
1F
100
AcDbEntity
  8
A-2_蓋
  6
Continuous
 62
     3
370
     9
100
AcDbLine
 10
-918.3474154085725
 20
926.1345445787586
 30
0.0
 11
-918.3474154085725
 21
817.8011837521117
 31
0.0
  0
LINE
  5
104
330
1F
100
AcDbEntity
  8
A-2_蓋
  6
Continuous
 62
     3
370
     9
100
AcDbLine
 10
-930.0140793259079
 20
799.4683672930745
 30
0.0
 11
-930.0140793259079
 21
651.1336372994089
 31
0.0
  0
LINE
  5
105
330
1F
100
AcDbEntity
  8
A-2_蓋
  6
Continuous
 62
     3
370
     9
100
AcDbLine
 10
-918.3474154085725
 20
799.4683672930745
 30
0.0
 11
-918.3474154085725
 21
651.1336372994089
 31
0.0
  0
LINE
  5
106
330
1F
100
AcDbEntity
  8
A-2_蓋
  6
Continuous
 62
     3
370
     9
100
AcDbLine
 10
-930.0140793259079
 20
-33.86552965318828
 30
0.0
 11
-930.0140793259079
 21
-142.1991379196578
 31
0.0
  0
LINE
  5
107
330
1F
100
AcDbEntity
  8
A-2_蓋
  6
Continuous
 62
     3
370
     9
100
AcDbLine
 10
-918.3474154085725
 20
-33.86552965318828
 30
0.0
 11
-918.3474154085725
 21
-142.1991379196578
 31
0.0
  0
LINE
  5
108
330
1F
100
AcDbEntity
  8
A-2_蓋
  6
Continuous
 62
     3
370
     9
100
AcDbLine
 10
-988.8477222339526
 20
926.1345445787586
 30
0.0
 11
-988.8477222339526
 21
817.8011837521117
 31
0.0
  0
LINE
  5
109
330
1F
100
AcDbEntity
  8
A-2_蓋
  6
Continuous
 62
     3
370
     9
100
AcDbLine
 10
-977.1810583166173
 20
926.1345445787586
 30
0.0
 11
-977.1810583166173
 21
817.8011837521117
 31
0.0
  0
LINE
  5
10A
330
1F
100
AcDbEntity
  8
A-2_蓋
  6
Continuous
 62
     3
370
     9
100
AcDbLine
 10
-988.8477222339526
 20
799.4683672930745
 30
0.0
 11
-988.8477222339526
 21
651.1336372994089
 31
0.0
  0
LINE
  5
10B
330
1F
100
AcDbEntity
  8
A-2_蓋
  6
Continuous
 62
     3
370
     9
100
AcDbLine
 10
-977.1810583166173
 20
799.4683672930745
 30
0.0
 11
-977.1810583166173
 21
651.1336372994089
 31
0.0
  0
LINE
  5
10C
330
1F
100
AcDbEntity
  8
A-2_蓋
  6
Continuous
 62
     3
370
     9
100
AcDbLine
 10
-988.8477222339526
 20
-33.86552965318828
 30
0.0
 11
-988.8477222339526
 21
-142.1991379196578
 31
0.0
  0
LINE
  5
10D
330
1F
100
AcDbEntity
  8
A-2_蓋
  6
Continuous
 62
     3
370
     9
100
AcDbLine
 10
-977.1810583166173
 20
-33.86552965318828
 30
0.0
 11
-977.1810583166173
 21
-142.1991379196578
 31
0.0
  0
LINE
  5
10E
330
1F
100
AcDbEntity
  8
A-2_蓋
  6
Continuous
 62
     3
370
     9
100
AcDbLine
 10
-1047.681241422086
 20
926.1345445787586
 30
0.0
 11
-1047.681241422086
 21
817.8011837521117
 31
0.0
  0
LINE
  5
10F
330
1F
100
AcDbEntity
  8
A-2_蓋
  6
Continuous
 62
     3
370
     9
100
AcDbLine
 10
-1036.014701224662
 20
926.1345445787586
 30
0.0
 11
-1036.014701224662
 21
817.8011837521117
 31
0.0
  0
LINE
  5
110
330
1F
100
AcDbEntity
  8
A-2_蓋
  6
Continuous
 62
     3
370
     9
100
AcDbLine
 10
-1047.681241422086
 20
799.4683672930745
 30
0.0
 11
-1047.681241422086
 21
651.1336372994089
 31
0.0
  0
LINE
  5
111
330
1F
100
AcDbEntity
  8
A-2_蓋
  6
Continuous
 62
     3
370
     9
100
AcDbLine
 10
-1036.014701224662
 20
799.4683672930745
 30
0.0
 11
-1036.014701224662
 21
651.1336372994089
 31
0.0
  0
LINE
  5
112
330
1F
100
AcDbEntity
  8
A-2_蓋
  6
Continuous
 62
     3
370
     9
100
AcDbLine
 10
-1047.681241422086
 20
-33.86552965318828
 30
0.0
 11
-1047.681241422086
 21
-142.1991379196578
 31
0.0
  0
LINE
  5
113
330
1F
100
AcDbEntity
  8
A-2_蓋
  6
Continuous
 62
     3
370
     9
100
AcDbLine
 10
-1036.014701224662
 20
-33.86552965318828
 30
0.0
 11
-1036.014701224662
 21
-142.1991379196578
 31
0.0
  0
LINE
  5
114
330
1F
100
AcDbEntity
  8
A-2_蓋
  6
Continuous
 62
     3
370
     9
100
AcDbLine
 10
-1106.514018290752
 20
926.1345445787586
 30
0.0
 11
-1106.514018290752
 21
817.8011837521117
 31
0.0
  0
LINE
  5
115
330
1F
100
AcDbEntity
  8
A-2_蓋
  6
Continuous
 62
     3
370
     9
100
AcDbLine
 10
-1094.847478093327
 20
926.1345445787586
 30
0.0
 11
-1094.847478093327
 21
817.8011837521117
 31
0.0
  0
LINE
  5
116
330
1F
100
AcDbEntity
  8
A-2_蓋
  6
Continuous
 62
     3
370
     9
100
AcDbLine
 10
-1106.514018290752
 20
799.4683672930745
 30
0.0
 11
-1106.514018290752
 21
651.1336372994089
 31
0.0
  0
LINE
  5
117
330
1F
100
AcDbEntity
  8
A-2_蓋
  6
Continuous
 62
     3
370
     9
100
AcDbLine
 10
-1094.847478093327
 20
799.4683672930745
 30
0.0
 11
-1094.847478093327
 21
651.1336372994089
 31
0.0
  0
LINE
  5
118
330
1F
100
AcDbEntity
  8
A-2_蓋
  6
Continuous
 62
     3
370
     9
100
AcDbLine
 10
-1106.514018290752
 20
-33.86552965318828
 30
0.0
 11
-1106.514018290752
 21
-142.1991379196578
 31
0.0
  0
LINE
  5
119
330
1F
100
AcDbEntity
  8
A-2_蓋
  6
Continuous
 62
     3
370
     9
100
AcDbLine
 10
-1094.847478093327
 20
-33.86552965318828
 30
0.0
 11
-1094.847478093327
 21
-142.1991379196578
 31
0.0
  0
LINE
  5
11A
330
1F
100
AcDbEntity
  8
A-2_蓋
  6
Continuous
 62
     3
370
     9
100
AcDbLine
 10
-1165.347784918708
 20
926.1345445787586
 30
0.0
 11
-1165.347784918708
 21
817.8011837521117
 31
0.0
  0
LINE
  5
11B
330
1F
100
AcDbEntity
  8
A-2_蓋
  6
Continuous
 62
     3
370
     9
100
AcDbLine
 10
-1153.680997281461
 20
926.1345445787586
 30
0.0
 11
-1153.680997281461
 21
817.8011837521117
 31
0.0
  0
LINE
  5
11C
330
1F
100
AcDbEntity
  8
A-2_蓋
  6
Continuous
 62
     3
370
     9
100
AcDbLine
 10
-1165.347784918708
 20
799.4683672930745
 30
0.0
 11
-1165.347784918708
 21
651.1336372994089
 31
0.0
  0
LINE
  5
11D
330
1F
100
AcDbEntity
  8
A-2_蓋
  6
Continuous
 62
     3
370
     9
100
AcDbLine
 10
-1153.680997281461
 20
799.4683672930745
 30
0.0
 11
-1153.680997281461
 21
651.1336372994089
 31
0.0
  0
LINE
  5
11E
330
1F
100
AcDbEntity
  8
A-2_蓋
  6
Continuous
 62
     3
370
     9
100
AcDbLine
 10
-1165.347784918708
 20
-33.86552965318828
 30
0.0
 11
-1165.347784918708
 21
-142.1991379196578
 31
0.0
  0
LINE
  5
11F
330
1F
100
AcDbEntity
  8
A-2_蓋
  6
Continuous
 62
     3
370
     9
100
AcDbLine
 10
-1153.680997281461
 20
-33.86552965318828
 30
0.0
 11
-1153.680997281461
 21
-142.1991379196578
 31
0.0
  0
LINE
  5
120
330
1F
100
AcDbEntity
  8
A-2_蓋
  6
Continuous
 62
     3
370
     9
100
AcDbLine
 10
-1224.181304106841
 20
926.1345445787586
 30
0.0
 11
-1224.181304106841
 21
817.8011837521117
 31
0.0
  0
LINE
  5
121
330
1F
100
AcDbEntity
  8
A-2_蓋
  6
Continuous
 62
     3
370
     9
100
AcDbLine
 10
-1212.514516469595
 20
926.1345445787586
 30
0.0
 11
-1212.514516469595
 21
817.8011837521117
 31
0.0
  0
LINE
  5
122
330
1F
100
AcDbEntity
  8
A-2_蓋
  6
Continuous
 62
     3
370
     9
100
AcDbLine
 10
-1224.181304106841
 20
799.4683672930745
 30
0.0
 11
-1224.181304106841
 21
651.1336372994089
 31
0.0
  0
LINE
  5
123
330
1F
100
AcDbEntity
  8
A-2_蓋
  6
Continuous
 62
     3
370
     9
100
AcDbLine
 10
-1212.514516469595
 20
799.4683672930745
 30
0.0
 11
-1212.514516469595
 21
651.1336372994089
 31
0.0
  0
LINE
  5
124
330
1F
100
AcDbEntity
  8
A-2_蓋
  6
Continuous
 62
     3
370
     9
100
AcDbLine
 10
-1224.181304106841
 20
-33.86552965318828
 30
0.0
 11
-1224.181304106841
 21
-142.1991379196578
 31
0.0
  0
LINE
  5
125
330
1F
100
AcDbEntity
  8
A-2_蓋
  6
Continuous
 62
     3
370
     9
100
AcDbLine
 10
-1212.514516469595
 20
-33.86552965318828
 30
0.0
 11
-1212.514516469595
 21
-142.1991379196578
 31
0.0
  0
LINE
  5
126
330
1F
100
AcDbEntity
  8
A-2_蓋
  6
Continuous
 62
     3
370
     9
100
AcDbLine
 10
-1270.681061615815
 20
799.4683672930745
 30
0.0
 11
-1212.514516469595
 21
817.8011837521117
 31
0.0
  0
LINE
  5
127
330
1F
100
AcDbEntity
  8
A-2_蓋
  6
Continuous
 62
     3
370
     9
100
AcDbLine
 10
-1211.847913587415
 20
799.4683672930745
 30
0.0
 11
-1153.681492161106
 21
817.8011837521117
 31
0.0
  0
LINE
  5
128
330
1F
100
AcDbEntity
  8
A-2_蓋
  6
Continuous
 62
     3
370
     9
100
AcDbLine
 10
-1153.014270679371
 20
799.4683672930745
 30
0.0
 11
-1094.848096692884
 21
817.8011837521117
 31
0.0
  0
LINE
  5
129
330
1F
100
AcDbEntity
  8
A-2_蓋
  6
Continuous
 62
     3
370
     9
100
AcDbLine
 10
-1094.18099893106
 20
799.4683672930745
 30
0.0
 11
-1036.014701224662
 21
817.8011837521117
 31
0.0
  0
LINE
  5
12A
330
1F
100
AcDbEntity
  8
A-2_蓋
  6
Continuous
 62
     3
370
     9
100
AcDbLine
 10
-1035.34785090266
 20
799.4683672930745
 30
0.0
 11
-977.1814294763512
 21
817.8011837521117
 31
0.0
  0
LINE
  5
12B
330
1F
100
AcDbEntity
  8
A-2_蓋
  6
Continuous
 62
     3
370
     9
100
AcDbLine
 10
-976.5145791543496
 20
799.4683672930745
 30
0.0
 11
-918.3480340081292
 21
817.8011837521117
 31
0.0
  0
LINE
  5
12C
330
1F
100
AcDbEntity
  8
A-2_蓋
  6
Continuous
 62
     3
370
     9
100
AcDbLine
 10
-917.6810599662161
 20
799.4683672930745
 30
0.0
 11
-859.5146385399071
 21
817.8011837521117
 31
0.0
  0
LINE
  5
12D
330
1F
100
AcDbEntity
  8
A-2_蓋
  6
Continuous
 62
     3
370
     9
100
AcDbLine
 10
-858.8477882179053
 20
799.4683672930745
 30
0.0
 11
-800.681366791596
 21
817.8011837521117
 31
0.0
  0
LINE
  5
12E
330
1F
100
AcDbEntity
  8
A-2_蓋
  6
Continuous
 62
     3
370
     9
100
AcDbLine
 10
-800.0145164695946
 20
799.4683672930745
 30
0.0
 11
-741.8480950432854
 21
817.8011837521117
 31
0.0
  0
LINE
  5
12F
330
1F
100
AcDbEntity
  8
A-2_蓋
  6
Continuous
 62
     3
370
     9
100
AcDbLine
 10
-741.1808735615498
 20
799.4683672930745
 30
0.0
 11
-683.0144521352406
 21
817.8011837521117
 31
0.0
  0
LINE
  5
130
330
1F
100
AcDbEntity
  8
A-2_蓋
  6
Continuous
 62
     3
370
     9
100
AcDbLine
 10
-682.3477255331502
 20
799.4683672930745
 30
0.0
 11
-624.1815515466637
 21
817.8011837521117
 31
0.0
  0
LINE
  5
131
330
1F
100
AcDbEntity
  8
A-2_蓋
  6
Continuous
 62
     3
370
     9
100
AcDbLine
 10
-623.5145775047508
 20
799.4683672930745
 30
0.0
 11
-565.3481560784417
 21
817.8011837521117
 31
0.0
  0
LINE
  5
132
330
1F
100
AcDbEntity
  8
A-2_蓋
  6
Continuous
 62
     3
370
     9
100
AcDbLine
 10
-564.6811820365286
 20
799.4683672930745
 30
0.0
 11
-506.5147606102195
 21
817.8011837521117
 31
0.0
  0
LINE
  5
133
330
1F
100
AcDbEntity
  8
A-2_蓋
  6
Continuous
 62
     3
370
     9
100
AcDbLine
 10
-505.8479102882177
 20
799.4683672930745
 30
0.0
 11
-447.6813651419974
 21
817.8011837521117
 31
0.0
  0
LINE
  5
134
330
1F
100
AcDbEntity
  8
A-2_蓋
  6
Continuous
 62
     3
370
     9
100
AcDbLine
 10
-447.0145148199956
 20
799.4683672930745
 30
0.0
 11
-388.8480933936864
 21
817.8011837521117
 31
0.0
  0
LINE
  5
135
330
1F
100
AcDbEntity
  8
A-2_蓋
  6
Continuous
 62
     3
370
     9
100
AcDbLine
 10
-388.1812430716849
 20
799.4683672930745
 30
0.0
 11
-330.014945365287
 21
817.8011837521117
 31
0.0
  0
LINE
  5
136
330
1F
100
AcDbEntity
  8
A-2_蓋
  6
Continuous
 62
     3
370
     9
100
AcDbLine
 10
-329.3480950432854
 20
799.4683672930745
 30
0.0
 11
-271.1816736169763
 21
817.8011837521117
 31
0.0
  0
LINE
  5
137
330
1F
100
AcDbEntity
  8
A-2_蓋
  6
Continuous
 62
     3
370
     9
100
AcDbLine
 10
-270.5144521352406
 20
799.4683672930745
 30
0.0
 11
-212.3481544288427
 21
817.8011837521117
 31
0.0
  0
LINE
  5
138
330
1F
100
AcDbEntity
  8
A-2_蓋
  6
Continuous
 62
     3
370
     9
100
AcDbLine
 10
-211.6813041068411
 20
799.4683672930745
 30
0.0
 11
-153.514882680532
 21
817.8011837521117
 31
0.0
  0
LINE
  5
139
330
1F
100
AcDbEntity
  8
A-2_蓋
  6
Continuous
 62
     3
370
     9
100
AcDbLine
 10
-152.8480323585302
 20
799.4683672930745
 30
0.0
 11
-94.68173465213255
 21
817.8011837521117
 31
0.0
  0
LINE
  5
13A
330
1F
100
AcDbEntity
  8
A-2_蓋
  6
Continuous
 62
     3
370
     9
100
AcDbLine
 10
-94.01488433013071
 20
799.4683672930745
 30
0.0
 11
-35.84858662373307
 21
817.8011837521117
 31
0.0
  0
LINE
  5
13B
330
1F
100
AcDbEntity
  8
A-2_蓋
  6
Continuous
 62
     3
370
     9
100
AcDbLine
 10
-35.18124142208592
 20
799.4683672930745
 30
0.0
 11
22.9851800042232
 21
817.8011837521117
 31
0.0
  0
LINE
  5
13C
330
1F
100
AcDbEntity
  8
A-2_蓋
  6
Continuous
 62
     3
370
     9
100
AcDbLine
 10
23.65178288640209
 20
799.4683672930745
 30
0.0
 11
81.8182043127112
 21
817.8011837521117
 31
0.0
  0
LINE
  5
13D
330
1F
100
AcDbEntity
  8
A-2_蓋
  6
Continuous
 62
     3
370
     9
100
AcDbLine
 10
82.48505463471304
 20
799.4683672930745
 30
0.0
 11
140.6514760610222
 21
817.8011837521117
 31
0.0
  0
LINE
  5
13E
330
1F
100
AcDbEntity
  8
A-2_蓋
  6
Continuous
 62
     3
370
     9
100
AcDbLine
 10
141.318821262669
 20
799.4683672930745
 30
0.0
 11
199.4849952491555
 21
817.8011837521117
 31
0.0
  0
LINE
  5
13F
330
1F
100
AcDbEntity
  8
A-2_蓋
  6
Continuous
 62
     3
370
     9
100
AcDbLine
 10
200.15209301098
 20
799.4683672930745
 30
0.0
 11
258.3182669974664
 21
817.8011837521117
 31
0.0
  0
LINE
  5
140
330
1F
100
AcDbEntity
  8
A-2_蓋
  6
Continuous
 62
     3
370
     9
100
AcDbLine
 10
258.9848698796453
 20
799.4683672930745
 30
0.0
 11
317.1515387457771
 21
817.8011837521117
 31
0.0
  0
LINE
  5
141
330
1F
100
AcDbEntity
  8
A-2_蓋
  6
Continuous
 62
     3
370
     9
100
AcDbLine
 10
317.8181416279563
 20
799.4683672930745
 30
0.0
 11
375.984810494088
 21
817.8011837521117
 31
0.0
  0
LINE
  5
142
330
1F
100
AcDbEntity
  8
A-2_蓋
  6
Continuous
 62
     3
370
     9
100
AcDbLine
 10
-1282.348467852618
 20
814.3340569573481
 30
0.0
 11
-1271.347911937817
 21
817.8011837521117
 31
0.0
  0
LINE
  5
143
330
1F
100
AcDbEntity
  8
A-2_蓋
  6
Continuous
 62
     3
370
     9
100
AcDbLine
 10
-1270.681061615815
 20
-33.86466361380911
 30
0.0
 11
-1212.514516469595
 21
-15.53234203441718
 31
0.0
  0
LINE
  5
144
330
1F
100
AcDbEntity
  8
A-2_蓋
  6
Continuous
 62
     3
370
     9
100
AcDbLine
 10
-1211.847913587415
 20
-33.86466361380911
 30
0.0
 11
-1153.681492161106
 21
-15.53234203441718
 31
0.0
  0
LINE
  5
145
330
1F
100
AcDbEntity
  8
A-2_蓋
  6
Continuous
 62
     3
370
     9
100
AcDbLine
 10
-1153.014270679371
 20
-33.86466361380911
 30
0.0
 11
-1094.848096692884
 21
-15.53234203441718
 31
0.0
  0
LINE
  5
146
330
1F
100
AcDbEntity
  8
A-2_蓋
  6
Continuous
 62
     3
370
     9
100
AcDbLine
 10
-1094.18099893106
 20
-33.86466361380911
 30
0.0
 11
-1036.014701224662
 21
-15.53234203441718
 31
0.0
  0
LINE
  5
147
330
1F
100
AcDbEntity
  8
A-2_蓋
  6
Continuous
 62
     3
370
     9
100
AcDbLine
 10
-1035.34785090266
 20
-33.86466361380911
 30
0.0
 11
-977.1814294763512
 21
-15.53234203441718
 31
0.0
  0
LINE
  5
148
330
1F
100
AcDbEntity
  8
A-2_蓋
  6
Continuous
 62
     3
370
     9
100
AcDbLine
 10
-976.5145791543496
 20
-33.86466361380911
 30
0.0
 11
-918.3480340081292
 21
-15.53234203441718
 31
0.0
  0
LINE
  5
149
330
1F
100
AcDbEntity
  8
A-2_蓋
  6
Continuous
 62
     3
370
     9
100
AcDbLine
 10
-917.6810599662161
 20
-33.86466361380911
 30
0.0
 11
-859.5146385399071
 21
-15.53234203441718
 31
0.0
  0
LINE
  5
14A
330
1F
100
AcDbEntity
  8
A-2_蓋
  6
Continuous
 62
     3
370
     9
100
AcDbLine
 10
-858.8477882179053
 20
-33.86466361380911
 30
0.0
 11
-800.681366791596
 21
-15.53234203441718
 31
0.0
  0
LINE
  5
14B
330
1F
100
AcDbEntity
  8
A-2_蓋
  6
Continuous
 62
     3
370
     9
100
AcDbLine
 10
-800.0145164695946
 20
-33.86466361380911
 30
0.0
 11
-741.8480950432854
 21
-15.53234203441718
 31
0.0
  0
LINE
  5
14C
330
1F
100
AcDbEntity
  8
A-2_蓋
  6
Continuous
 62
     3
370
     9
100
AcDbLine
 10
-741.1808735615498
 20
-33.86466361380911
 30
0.0
 11
-683.0144521352406
 21
-15.53234203441718
 31
0.0
  0
LINE
  5
14D
330
1F
100
AcDbEntity
  8
A-2_蓋
  6
Continuous
 62
     3
370
     9
100
AcDbLine
 10
-682.3477255331502
 20
-33.86466361380911
 30
0.0
 11
-624.1815515466637
 21
-15.53234203441718
 31
0.0
  0
LINE
  5
14E
330
1F
100
AcDbEntity
  8
A-2_蓋
  6
Continuous
 62
     3
370
     9
100
AcDbLine
 10
-623.5145775047508
 20
-33.86466361380911
 30
0.0
 11
-565.3481560784417
 21
-15.53234203441718
 31
0.0
  0
LINE
  5
14F
330
1F
100
AcDbEntity
  8
A-2_蓋
  6
Continuous
 62
     3
370
     9
100
AcDbLine
 10
-564.6811820365286
 20
-33.86466361380911
 30
0.0
 11
-506.5147606102195
 21
-15.53234203441718
 31
0.0
  0
LINE
  5
150
330
1F
100
AcDbEntity
  8
A-2_蓋
  6
Continuous
 62
     3
370
     9
100
AcDbLine
 10
-505.8479102882177
 20
-33.86466361380911
 30
0.0
 11
-447.6813651419974
 21
-15.53234203441718
 31
0.0
  0
LINE
  5
151
330
1F
100
AcDbEntity
  8
A-2_蓋
  6
Continuous
 62
     3
370
     9
100
AcDbLine
 10
-447.0145148199956
 20
-33.86466361380911
 30
0.0
 11
-388.8480933936864
 21
-15.53234203441718
 31
0.0
  0
LINE
  5
152
330
1F
100
AcDbEntity
  8
A-2_蓋
  6
Continuous
 62
     3
370
     9
100
AcDbLine
 10
-388.1812430716849
 20
-33.86466361380911
 30
0.0
 11
-330.014945365287
 21
-15.53234203441718
 31
0.0
  0
LINE
  5
153
330
1F
100
AcDbEntity
  8
A-2_蓋
  6
Continuous
 62
     3
370
     9
100
AcDbLine
 10
-329.3480950432854
 20
-33.86466361380911
 30
0.0
 11
-271.1816736169763
 21
-15.53234203441718
 31
0.0
  0
LINE
  5
154
330
1F
100
AcDbEntity
  8
A-2_蓋
  6
Continuous
 62
     3
370
     9
100
AcDbLine
 10
-270.5144521352406
 20
-33.86466361380911
 30
0.0
 11
-212.3481544288427
 21
-15.53234203441718
 31
0.0
  0
LINE
  5
155
330
1F
100
AcDbEntity
  8
A-2_蓋
  6
Continuous
 62
     3
370
     9
100
AcDbLine
 10
-211.6813041068411
 20
-33.86466361380911
 30
0.0
 11
-153.514882680532
 21
-15.53234203441718
 31
0.0
  0
LINE
  5
156
330
1F
100
AcDbEntity
  8
A-2_蓋
  6
Continuous
 62
     3
370
     9
100
AcDbLine
 10
-152.8480323585302
 20
-33.86466361380911
 30
0.0
 11
-94.68173465213255
 21
-15.53234203441718
 31
0.0
  0
LINE
  5
157
330
1F
100
AcDbEntity
  8
A-2_蓋
  6
Continuous
 62
     3
370
     9
100
AcDbLine
 10
-94.01488433013071
 20
-33.86466361380911
 30
0.0
 11
-35.84858662373307
 21
-15.53234203441718
 31
0.0
  0
LINE
  5
158
330
1F
100
AcDbEntity
  8
A-2_蓋
  6
Continuous
 62
     3
370
     9
100
AcDbLine
 10
-35.18124142208592
 20
-33.86466361380911
 30
0.0
 11
22.9851800042232
 21
-15.53234203441718
 31
0.0
  0
LINE
  5
159
330
1F
100
AcDbEntity
  8
A-2_蓋
  6
Continuous
 62
     3
370
     9
100
AcDbLine
 10
23.65178288640209
 20
-33.86466361380911
 30
0.0
 11
81.8182043127112
 21
-15.53234203441718
 31
0.0
  0
LINE
  5
15A
330
1F
100
AcDbEntity
  8
A-2_蓋
  6
Continuous
 62
     3
370
     9
100
AcDbLine
 10
82.48505463471304
 20
-33.86466361380911
 30
0.0
 11
140.6514760610222
 21
-15.53234203441718
 31
0.0
  0
LINE
  5
15B
330
1F
100
AcDbEntity
  8
A-2_蓋
  6
Continuous
 62
     3
370
     9
100
AcDbLine
 10
141.318821262669
 20
-33.86466361380911
 30
0.0
 11
199.4849952491555
 21
-15.53234203441718
 31
0.0
  0
LINE
  5
15C
330
1F
100
AcDbEntity
  8
A-2_蓋
  6
Continuous
 62
     3
370
     9
100
AcDbLine
 10
200.15209301098
 20
-33.86466361380911
 30
0.0
 11
258.3182669974664
 21
-15.53234203441718
 31
0.0
  0
LINE
  5
15D
330
1F
100
AcDbEntity
  8
A-2_蓋
  6
Continuous
 62
     3
370
     9
100
AcDbLine
 10
258.9848698796453
 20
-33.86466361380911
 30
0.0
 11
317.1515387457771
 21
-15.53234203441718
 31
0.0
  0
LINE
  5
15E
330
1F
100
AcDbEntity
  8
A-2_蓋
  6
Continuous
 62
     3
370
     9
100
AcDbLine
 10
317.8181416279563
 20
-33.86466361380911
 30
0.0
 11
375.984810494088
 21
-15.53234203441718
 31
0.0
  0
LINE
  5
15F
330
1F
100
AcDbEntity
  8
A-2_蓋
  6
Continuous
 62
     3
370
     9
100
AcDbLine
 10
-1282.348467852618
 20
-18.99897394953541
 30
0.0
 11
-1271.347911937817
 21
-15.53234203441718
 31
0.0
  0
LINE
  5
160
330
1F
100
AcDbEntity
  8
A-2_蓋
  6
Continuous
 62
     3
370
     9
100
AcDbLine
 10
-1282.348467852618
 20
651.1346270586995
 30
0.0
 11
375.9853053737334
 21
651.1346270586995
 31
0.0
  0
LINE
  5
161
330
1F
100
AcDbEntity
  8
A-2_蓋
  6
Continuous
 62
     3
370
     9
100
AcDbLine
 10
-1282.348467852618
 20
632.8018105996623
 30
0.0
 11
375.9853053737334
 21
632.8018105996623
 31
0.0
  0
LINE
  5
162
330
1F
100
AcDbEntity
  8
A-2_蓋
  6
Continuous
 62
     3
370
     9
100
AcDbLine
 10
-1270.681061615815
 20
484.4670806059966
 30
0.0
 11
-1270.681061615815
 21
632.8018105996623
 31
0.0
  0
LINE
  5
163
330
1F
100
AcDbEntity
  8
A-2_蓋
  6
Continuous
 62
     3
370
     9
100
AcDbLine
 10
364.3192600559544
 20
632.8018105996623
 30
0.0
 11
364.3192600559544
 21
484.4670806059966
 31
0.0
  0
LINE
  5
164
330
1F
100
AcDbEntity
  8
A-2_蓋
  6
Continuous
 62
     3
370
     9
100
AcDbLine
 10
305.4852459881758
 20
632.8018105996623
 30
0.0
 11
305.4852459881758
 21
484.4670806059966
 31
0.0
  0
LINE
  5
165
330
1F
100
AcDbEntity
  8
A-2_蓋
  6
Continuous
 62
     3
370
     9
100
AcDbLine
 10
317.1522810652451
 20
632.8018105996623
 30
0.0
 11
317.1522810652451
 21
484.4670806059966
 31
0.0
  0
LINE
  5
166
330
1F
100
AcDbEntity
  8
A-2_蓋
  6
Continuous
 62
     3
370
     9
100
AcDbLine
 10
246.6514793602198
 20
632.8018105996623
 30
0.0
 11
246.6514793602198
 21
484.4670806059966
 31
0.0
  0
LINE
  5
167
330
1F
100
AcDbEntity
  8
A-2_蓋
  6
Continuous
 62
     3
370
     9
100
AcDbLine
 10
258.3182669974664
 20
632.8018105996623
 30
0.0
 11
258.3182669974664
 21
484.4670806059966
 31
0.0
  0
LINE
  5
168
330
1F
100
AcDbEntity
  8
A-2_蓋
  6
Continuous
 62
     3
370
     9
100
AcDbLine
 10
187.8187024915542
 20
632.8018105996623
 30
0.0
 11
187.8187024915542
 21
484.4670806059966
 31
0.0
  0
LINE
  5
169
330
1F
100
AcDbEntity
  8
A-2_蓋
  6
Continuous
 62
     3
370
     9
100
AcDbLine
 10
199.4854901288008
 20
632.8018105996623
 30
0.0
 11
199.4854901288008
 21
484.4670806059966
 31
0.0
  0
LINE
  5
16A
330
1F
100
AcDbEntity
  8
A-2_蓋
  6
Continuous
 62
     3
370
     9
100
AcDbLine
 10
128.9851833034209
 20
632.8018105996623
 30
0.0
 11
128.9851833034209
 21
484.4670806059966
 31
0.0
  0
LINE
  5
16B
330
1F
100
AcDbEntity
  8
A-2_蓋
  6
Continuous
 62
     3
370
     9
100
AcDbLine
 10
140.6517235008448
 20
632.8018105996623
 30
0.0
 11
140.6517235008448
 21
484.4670806059966
 31
0.0
  0
LINE
  5
16C
330
1F
100
AcDbEntity
  8
A-2_蓋
  6
Continuous
 62
     3
370
     9
100
AcDbLine
 10
70.15166411528725
 20
632.8018105996623
 30
0.0
 11
70.15166411528725
 21
484.4670806059966
 31
0.0
  0
LINE
  5
16D
330
1F
100
AcDbEntity
  8
A-2_蓋
  6
Continuous
 62
     3
370
     9
100
AcDbLine
 10
81.8182043127112
 20
632.8018105996623
 30
0.0
 11
81.8182043127112
 21
484.4670806059966
 31
0.0
  0
LINE
  5
16E
330
1F
100
AcDbEntity
  8
A-2_蓋
  6
Continuous
 62
     3
370
     9
100
AcDbLine
 10
11.31888724662161
 20
632.8018105996623
 30
0.0
 11
11.31888724662161
 21
484.4670806059966
 31
0.0
  0
LINE
  5
16F
330
1F
100
AcDbEntity
  8
A-2_蓋
  6
Continuous
 62
     3
370
     9
100
AcDbLine
 10
22.9851800042232
 20
632.8018105996623
 30
0.0
 11
22.9851800042232
 21
484.4670806059966
 31
0.0
  0
LINE
  5
170
330
1F
100
AcDbEntity
  8
A-2_蓋
  6
Continuous
 62
     3
370
     9
100
AcDbLine
 10
-47.51487938133437
 20
632.8018105996623
 30
0.0
 11
-47.51487938133437
 21
484.4670806059966
 31
0.0
  0
LINE
  5
171
330
1F
100
AcDbEntity
  8
A-2_蓋
  6
Continuous
 62
     3
370
     9
100
AcDbLine
 10
-35.84809174408775
 20
632.8018105996623
 30
0.0
 11
-35.84809174408775
 21
484.4670806059966
 31
0.0
  0
LINE
  5
172
330
1F
100
AcDbEntity
  8
A-2_蓋
  6
Continuous
 62
     3
370
     9
100
AcDbLine
 10
-106.3485222893792
 20
632.8018105996623
 30
0.0
 11
-106.3485222893792
 21
484.4670806059966
 31
0.0
  0
LINE
  5
173
330
1F
100
AcDbEntity
  8
A-2_蓋
  6
Continuous
 62
     3
370
     9
100
AcDbLine
 10
-94.68173465213255
 20
632.8018105996623
 30
0.0
 11
-94.68173465213255
 21
484.4670806059966
 31
0.0
  0
LINE
  5
174
330
1F
100
AcDbEntity
  8
A-2_蓋
  6
Continuous
 62
     3
370
     9
100
AcDbLine
 10
-165.1811754381333
 20
632.8018105996623
 30
0.0
 11
-165.1811754381333
 21
484.4670806059966
 31
0.0
  0
LINE
  5
175
330
1F
100
AcDbEntity
  8
A-2_蓋
  6
Continuous
 62
     3
370
     9
100
AcDbLine
 10
-153.5143878008867
 20
632.8018105996623
 30
0.0
 11
-153.5143878008867
 21
484.4670806059966
 31
0.0
  0
LINE
  5
176
330
1F
100
AcDbEntity
  8
A-2_蓋
  6
Continuous
 62
     3
370
     9
100
AcDbLine
 10
-224.0148183461781
 20
632.8018105996623
 30
0.0
 11
-224.0148183461781
 21
484.4670806059966
 31
0.0
  0
LINE
  5
177
330
1F
100
AcDbEntity
  8
A-2_蓋
  6
Continuous
 62
     3
370
     9
100
AcDbLine
 10
-212.3481544288427
 20
632.8018105996623
 30
0.0
 11
-212.3481544288427
 21
484.4670806059966
 31
0.0
  0
LINE
  5
178
330
1F
100
AcDbEntity
  8
A-2_蓋
  6
Continuous
 62
     3
370
     9
100
AcDbLine
 10
-282.8484612542229
 20
632.8018105996623
 30
0.0
 11
-282.8484612542229
 21
484.4670806059966
 31
0.0
  0
LINE
  5
179
330
1F
100
AcDbEntity
  8
A-2_蓋
  6
Continuous
 62
     3
370
     9
100
AcDbLine
 10
-271.1816736169763
 20
632.8018105996623
 30
0.0
 11
-271.1816736169763
 21
484.4670806059966
 31
0.0
  0
LINE
  5
17A
330
1F
100
AcDbEntity
  8
A-2_蓋
  6
Continuous
 62
     3
370
     9
100
AcDbLine
 10
-341.6811144029771
 20
632.8018105996623
 30
0.0
 11
-341.6811144029771
 21
484.4670806059966
 31
0.0
  0
LINE
  5
17B
330
1F
100
AcDbEntity
  8
A-2_蓋
  6
Continuous
 62
     3
370
     9
100
AcDbLine
 10
-330.0145742055531
 20
632.8018105996623
 30
0.0
 11
-330.0145742055531
 21
484.4670806059966
 31
0.0
  0
LINE
  5
17C
330
1F
100
AcDbEntity
  8
A-2_蓋
  6
Continuous
 62
     3
370
     9
100
AcDbLine
 10
-400.5147573110219
 20
632.8018105996623
 30
0.0
 11
-400.5147573110219
 21
484.4670806059966
 31
0.0
  0
LINE
  5
17D
330
1F
100
AcDbEntity
  8
A-2_蓋
  6
Continuous
 62
     3
370
     9
100
AcDbLine
 10
-388.8480933936864
 20
632.8018105996623
 30
0.0
 11
-388.8480933936864
 21
484.4670806059966
 31
0.0
  0
LINE
  5
17E
330
1F
100
AcDbEntity
  8
A-2_蓋
  6
Continuous
 62
     3
370
     9
100
AcDbLine
 10
-459.347410459776
 20
632.8018105996623
 30
0.0
 11
-459.347410459776
 21
484.4670806059966
 31
0.0
  0
LINE
  5
17F
330
1F
100
AcDbEntity
  8
A-2_蓋
  6
Continuous
 62
     3
370
     9
100
AcDbLine
 10
-447.6809939822635
 20
632.8018105996623
 30
0.0
 11
-447.6809939822635
 21
484.4670806059966
 31
0.0
  0
LINE
  5
180
330
1F
100
AcDbEntity
  8
A-2_蓋
  6
Continuous
 62
     3
370
     9
100
AcDbLine
 10
-518.1811770877323
 20
632.8018105996623
 30
0.0
 11
-518.1811770877323
 21
484.4670806059966
 31
0.0
  0
LINE
  5
181
330
1F
100
AcDbEntity
  8
A-2_蓋
  6
Continuous
 62
     3
370
     9
100
AcDbLine
 10
-506.5143894504857
 20
632.8018105996623
 30
0.0
 11
-506.5143894504857
 21
484.4670806059966
 31
0.0
  0
LINE
  5
182
330
1F
100
AcDbEntity
  8
A-2_蓋
  6
Continuous
 62
     3
370
     9
100
AcDbLine
 10
-577.0149437156883
 20
632.8018105996623
 30
0.0
 11
-577.0149437156883
 21
484.4670806059966
 31
0.0
  0
LINE
  5
183
330
1F
100
AcDbEntity
  8
A-2_蓋
  6
Continuous
 62
     3
370
     9
100
AcDbLine
 10
-565.3481560784417
 20
632.8018105996623
 30
0.0
 11
-565.3481560784417
 21
484.4670806059966
 31
0.0
  0
LINE
  5
184
330
1F
100
AcDbEntity
  8
A-2_蓋
  6
Continuous
 62
     3
370
     9
100
AcDbLine
 10
-635.8474731445312
 20
632.8018105996623
 30
0.0
 11
-635.8474731445312
 21
484.4670806059966
 31
0.0
  0
LINE
  5
185
330
1F
100
AcDbEntity
  8
A-2_蓋
  6
Continuous
 62
     3
370
     9
100
AcDbLine
 10
-624.1810566670185
 20
632.8018105996623
 30
0.0
 11
-624.1810566670185
 21
484.4670806059966
 31
0.0
  0
LINE
  5
186
330
1F
100
AcDbEntity
  8
A-2_蓋
  6
Continuous
 62
     3
370
     9
100
AcDbLine
 10
-694.6812397724873
 20
632.8018105996623
 30
0.0
 11
-694.6812397724873
 21
484.4670806059966
 31
0.0
  0
LINE
  5
187
330
1F
100
AcDbEntity
  8
A-2_蓋
  6
Continuous
 62
     3
370
     9
100
AcDbLine
 10
-683.0144521352406
 20
632.8018105996623
 30
0.0
 11
-683.0144521352406
 21
484.4670806059966
 31
0.0
  0
LINE
  5
188
330
1F
100
AcDbEntity
  8
A-2_蓋
  6
Continuous
 62
     3
370
     9
100
AcDbLine
 10
-753.514140361064
 20
632.8018105996623
 30
0.0
 11
-753.514140361064
 21
484.4670806059966
 31
0.0
  0
LINE
  5
189
330
1F
100
AcDbEntity
  8
A-2_蓋
  6
Continuous
 62
     3
370
     9
100
AcDbLine
 10
-741.8473527238175
 20
632.8018105996623
 30
0.0
 11
-741.8473527238175
 21
484.4670806059966
 31
0.0
  0
LINE
  5
18A
330
1F
100
AcDbEntity
  8
A-2_蓋
  6
Continuous
 62
     3
370
     9
100
AcDbLine
 10
-812.3476595491977
 20
632.8018105996623
 30
0.0
 11
-812.3476595491977
 21
484.4670806059966
 31
0.0
  0
LINE
  5
18B
330
1F
100
AcDbEntity
  8
A-2_蓋
  6
Continuous
 62
     3
370
     9
100
AcDbLine
 10
-800.6811193517738
 20
632.8018105996623
 30
0.0
 11
-800.6811193517738
 21
484.4670806059966
 31
0.0
  0
LINE
  5
18C
330
1F
100
AcDbEntity
  8
A-2_蓋
  6
Continuous
 62
     3
370
     9
100
AcDbLine
 10
-871.181178737331
 20
632.8018105996623
 30
0.0
 11
-871.181178737331
 21
484.4670806059966
 31
0.0
  0
LINE
  5
18D
330
1F
100
AcDbEntity
  8
A-2_蓋
  6
Continuous
 62
     3
370
     9
100
AcDbLine
 10
-859.5146385399071
 20
632.8018105996623
 30
0.0
 11
-859.5146385399071
 21
484.4670806059966
 31
0.0
  0
LINE
  5
18E
330
1F
100
AcDbEntity
  8
A-2_蓋
  6
Continuous
 62
     3
370
     9
100
AcDbLine
 10
-930.0140793259079
 20
632.8018105996623
 30
0.0
 11
-930.0140793259079
 21
484.4670806059966
 31
0.0
  0
LINE
  5
18F
330
1F
100
AcDbEntity
  8
A-2_蓋
  6
Continuous
 62
     3
370
     9
100
AcDbLine
 10
-918.3474154085725
 20
632.8018105996623
 30
0.0
 11
-918.3474154085725
 21
484.4670806059966
 31
0.0
  0
LINE
  5
190
330
1F
100
AcDbEntity
  8
A-2_蓋
  6
Continuous
 62
     3
370
     9
100
AcDbLine
 10
-988.8477222339526
 20
632.8018105996623
 30
0.0
 11
-988.8477222339526
 21
484.4670806059966
 31
0.0
  0
LINE
  5
191
330
1F
100
AcDbEntity
  8
A-2_蓋
  6
Continuous
 62
     3
370
     9
100
AcDbLine
 10
-977.1810583166173
 20
632.8018105996623
 30
0.0
 11
-977.1810583166173
 21
484.4670806059966
 31
0.0
  0
LINE
  5
192
330
1F
100
AcDbEntity
  8
A-2_蓋
  6
Continuous
 62
     3
370
     9
100
AcDbLine
 10
-1047.681241422086
 20
632.8018105996623
 30
0.0
 11
-1047.681241422086
 21
484.4670806059966
 31
0.0
  0
LINE
  5
193
330
1F
100
AcDbEntity
  8
A-2_蓋
  6
Continuous
 62
     3
370
     9
100
AcDbLine
 10
-1036.014701224662
 20
632.8018105996623
 30
0.0
 11
-1036.014701224662
 21
484.4670806059966
 31
0.0
  0
LINE
  5
194
330
1F
100
AcDbEntity
  8
A-2_蓋
  6
Continuous
 62
     3
370
     9
100
AcDbLine
 10
-1106.514018290752
 20
632.8018105996623
 30
0.0
 11
-1106.514018290752
 21
484.4670806059966
 31
0.0
  0
LINE
  5
195
330
1F
100
AcDbEntity
  8
A-2_蓋
  6
Continuous
 62
     3
370
     9
100
AcDbLine
 10
-1094.847478093327
 20
632.8018105996623
 30
0.0
 11
-1094.847478093327
 21
484.4670806059966
 31
0.0
  0
LINE
  5
196
330
1F
100
AcDbEntity
  8
A-2_蓋
  6
Continuous
 62
     3
370
     9
100
AcDbLine
 10
-1165.347784918708
 20
632.8018105996623
 30
0.0
 11
-1165.347784918708
 21
484.4670806059966
 31
0.0
  0
LINE
  5
197
330
1F
100
AcDbEntity
  8
A-2_蓋
  6
Continuous
 62
     3
370
     9
100
AcDbLine
 10
-1153.680997281461
 20
632.8018105996623
 30
0.0
 11
-1153.680997281461
 21
484.4670806059966
 31
0.0
  0
LINE
  5
198
330
1F
100
AcDbEntity
  8
A-2_蓋
  6
Continuous
 62
     3
370
     9
100
AcDbLine
 10
-1224.181304106841
 20
632.8018105996623
 30
0.0
 11
-1224.181304106841
 21
484.4670806059966
 31
0.0
  0
LINE
  5
199
330
1F
100
AcDbEntity
  8
A-2_蓋
  6
Continuous
 62
     3
370
     9
100
AcDbLine
 10
-1212.514516469595
 20
632.8018105996623
 30
0.0
 11
-1212.514516469595
 21
484.4670806059966
 31
0.0
  0
LINE
  5
19A
330
1F
100
AcDbEntity
  8
A-2_蓋
  6
Continuous
 62
     3
370
     9
100
AcDbLine
 10
-1270.681061615815
 20
632.8018105996623
 30
0.0
 11
-1212.514516469595
 21
651.1346270586995
 31
0.0
  0
LINE
  5
19B
330
1F
100
AcDbEntity
  8
A-2_蓋
  6
Continuous
 62
     3
370
     9
100
AcDbLine
 10
-1211.847913587415
 20
632.8018105996623
 30
0.0
 11
-1153.681492161106
 21
651.1346270586995
 31
0.0
  0
LINE
  5
19C
330
1F
100
AcDbEntity
  8
A-2_蓋
  6
Continuous
 62
     3
370
     9
100
AcDbLine
 10
-1153.014270679371
 20
632.8018105996623
 30
0.0
 11
-1094.848096692884
 21
651.1346270586995
 31
0.0
  0
LINE
  5
19D
330
1F
100
AcDbEntity
  8
A-2_蓋
  6
Continuous
 62
     3
370
     9
100
AcDbLine
 10
-1094.18099893106
 20
632.8018105996623
 30
0.0
 11
-1036.014701224662
 21
651.1346270586995
 31
0.0
  0
LINE
  5
19E
330
1F
100
AcDbEntity
  8
A-2_蓋
  6
Continuous
 62
     3
370
     9
100
AcDbLine
 10
-1035.34785090266
 20
632.8018105996623
 30
0.0
 11
-977.1814294763512
 21
651.1346270586995
 31
0.0
  0
LINE
  5
19F
330
1F
100
AcDbEntity
  8
A-2_蓋
  6
Continuous
 62
     3
370
     9
100
AcDbLine
 10
-976.5145791543496
 20
632.8018105996623
 30
0.0
 11
-918.3480340081292
 21
651.1346270586995
 31
0.0
  0
LINE
  5
1A0
330
1F
100
AcDbEntity
  8
A-2_蓋
  6
Continuous
 62
     3
370
     9
100
AcDbLine
 10
-917.6810599662161
 20
632.8018105996623
 30
0.0
 11
-859.5146385399071
 21
651.1346270586995
 31
0.0
  0
LINE
  5
1A1
330
1F
100
AcDbEntity
  8
A-2_蓋
  6
Continuous
 62
     3
370
     9
100
AcDbLine
 10
-858.8477882179053
 20
632.8018105996623
 30
0.0
 11
-800.681366791596
 21
651.1346270586995
 31
0.0
  0
LINE
  5
1A2
330
1F
100
AcDbEntity
  8
A-2_蓋
  6
Continuous
 62
     3
370
     9
100
AcDbLine
 10
-800.0145164695946
 20
632.8018105996623
 30
0.0
 11
-741.8480950432854
 21
651.1346270586995
 31
0.0
  0
LINE
  5
1A3
330
1F
100
AcDbEntity
  8
A-2_蓋
  6
Continuous
 62
     3
370
     9
100
AcDbLine
 10
-741.1808735615498
 20
632.8018105996623
 30
0.0
 11
-683.0144521352406
 21
651.1346270586995
 31
0.0
  0
LINE
  5
1A4
330
1F
100
AcDbEntity
  8
A-2_蓋
  6
Continuous
 62
     3
370
     9
100
AcDbLine
 10
-682.3477255331502
 20
632.8018105996623
 30
0.0
 11
-624.1815515466637
 21
651.1346270586995
 31
0.0
  0
LINE
  5
1A5
330
1F
100
AcDbEntity
  8
A-2_蓋
  6
Continuous
 62
     3
370
     9
100
AcDbLine
 10
-623.5145775047508
 20
632.8018105996623
 30
0.0
 11
-565.3481560784417
 21
651.1346270586995
 31
0.0
  0
LINE
  5
1A6
330
1F
100
AcDbEntity
  8
A-2_蓋
  6
Continuous
 62
     3
370
     9
100
AcDbLine
 10
-564.6811820365286
 20
632.8018105996623
 30
0.0
 11
-506.5147606102195
 21
651.1346270586995
 31
0.0
  0
LINE
  5
1A7
330
1F
100
AcDbEntity
  8
A-2_蓋
  6
Continuous
 62
     3
370
     9
100
AcDbLine
 10
-505.8479102882177
 20
632.8018105996623
 30
0.0
 11
-447.6813651419974
 21
651.1346270586995
 31
0.0
  0
LINE
  5
1A8
330
1F
100
AcDbEntity
  8
A-2_蓋
  6
Continuous
 62
     3
370
     9
100
AcDbLine
 10
-447.0145148199956
 20
632.8018105996623
 30
0.0
 11
-388.8480933936864
 21
651.1346270586995
 31
0.0
  0
LINE
  5
1A9
330
1F
100
AcDbEntity
  8
A-2_蓋
  6
Continuous
 62
     3
370
     9
100
AcDbLine
 10
-388.1812430716849
 20
632.8018105996623
 30
0.0
 11
-330.014945365287
 21
651.1346270586995
 31
0.0
  0
LINE
  5
1AA
330
1F
100
AcDbEntity
  8
A-2_蓋
  6
Continuous
 62
     3
370
     9
100
AcDbLine
 10
-329.3480950432854
 20
632.8018105996623
 30
0.0
 11
-271.1816736169763
 21
651.1346270586995
 31
0.0
  0
LINE
  5
1AB
330
1F
100
AcDbEntity
  8
A-2_蓋
  6
Continuous
 62
     3
370
     9
100
AcDbLine
 10
-270.5144521352406
 20
632.8018105996623
 30
0.0
 11
-212.3481544288427
 21
651.1346270586995
 31
0.0
  0
LINE
  5
1AC
330
1F
100
AcDbEntity
  8
A-2_蓋
  6
Continuous
 62
     3
370
     9
100
AcDbLine
 10
-211.6813041068411
 20
632.8018105996623
 30
0.0
 11
-153.514882680532
 21
651.1346270586995
 31
0.0
  0
LINE
  5
1AD
330
1F
100
AcDbEntity
  8
A-2_蓋
  6
Continuous
 62
     3
370
     9
100
AcDbLine
 10
-152.8480323585302
 20
632.8018105996623
 30
0.0
 11
-94.68173465213255
 21
651.1346270586995
 31
0.0
  0
LINE
  5
1AE
330
1F
100
AcDbEntity
  8
A-2_蓋
  6
Continuous
 62
     3
370
     9
100
AcDbLine
 10
-94.01488433013071
 20
632.8018105996623
 30
0.0
 11
-35.84858662373307
 21
651.1346270586995
 31
0.0
  0
LINE
  5
1AF
330
1F
100
AcDbEntity
  8
A-2_蓋
  6
Continuous
 62
     3
370
     9
100
AcDbLine
 10
-35.18124142208592
 20
632.8018105996623
 30
0.0
 11
22.9851800042232
 21
651.1346270586995
 31
0.0
  0
LINE
  5
1B0
330
1F
100
AcDbEntity
  8
A-2_蓋
  6
Continuous
 62
     3
370
     9
100
AcDbLine
 10
23.65178288640209
 20
632.8018105996623
 30
0.0
 11
81.8182043127112
 21
651.1346270586995
 31
0.0
  0
LINE
  5
1B1
330
1F
100
AcDbEntity
  8
A-2_蓋
  6
Continuous
 62
     3
370
     9
100
AcDbLine
 10
82.48505463471304
 20
632.8018105996623
 30
0.0
 11
140.6514760610222
 21
651.1346270586995
 31
0.0
  0
LINE
  5
1B2
330
1F
100
AcDbEntity
  8
A-2_蓋
  6
Continuous
 62
     3
370
     9
100
AcDbLine
 10
141.318821262669
 20
632.8018105996623
 30
0.0
 11
199.4849952491555
 21
651.1346270586995
 31
0.0
  0
LINE
  5
1B3
330
1F
100
AcDbEntity
  8
A-2_蓋
  6
Continuous
 62
     3
370
     9
100
AcDbLine
 10
200.15209301098
 20
632.8018105996623
 30
0.0
 11
258.3182669974664
 21
651.1346270586995
 31
0.0
  0
LINE
  5
1B4
330
1F
100
AcDbEntity
  8
A-2_蓋
  6
Continuous
 62
     3
370
     9
100
AcDbLine
 10
258.9848698796453
 20
632.8018105996623
 30
0.0
 11
317.1515387457771
 21
651.1346270586995
 31
0.0
  0
LINE
  5
1B5
330
1F
100
AcDbEntity
  8
A-2_蓋
  6
Continuous
 62
     3
370
     9
100
AcDbLine
 10
317.8181416279563
 20
632.8018105996623
 30
0.0
 11
375.984810494088
 21
651.1346270586995
 31
0.0
  0
LINE
  5
1B6
330
1F
100
AcDbEntity
  8
A-2_蓋
  6
Continuous
 62
     3
370
     9
100
AcDbLine
 10
-1282.348467852618
 20
647.6677477037586
 30
0.0
 11
-1271.347911937817
 21
651.1346270586995
 31
0.0
  0
LINE
  5
1B7
330
1F
100
AcDbEntity
  8
A-2_蓋
  6
Continuous
 62
     3
370
     9
100
AcDbLine
 10
-1282.348467852618
 20
484.4678229254646
 30
0.0
 11
375.9853053737334
 21
484.4678229254646
 31
0.0
  0
LINE
  5
1B8
330
1F
100
AcDbEntity
  8
A-2_蓋
  6
Continuous
 62
     3
370
     9
100
AcDbLine
 10
-1282.348467852618
 20
466.1350064664273
 30
0.0
 11
375.9853053737334
 21
466.1350064664273
 31
0.0
  0
LINE
  5
1B9
330
1F
100
AcDbEntity
  8
A-2_蓋
  6
Continuous
 62
     3
370
     9
100
AcDbLine
 10
-1270.681061615815
 20
466.1350064664273
 30
0.0
 11
-1212.514516469595
 21
484.4678229254646
 31
0.0
  0
LINE
  5
1BA
330
1F
100
AcDbEntity
  8
A-2_蓋
  6
Continuous
 62
     3
370
     9
100
AcDbLine
 10
-1211.847913587415
 20
466.1350064664273
 30
0.0
 11
-1153.681492161106
 21
484.4678229254646
 31
0.0
  0
LINE
  5
1BB
330
1F
100
AcDbEntity
  8
A-2_蓋
  6
Continuous
 62
     3
370
     9
100
AcDbLine
 10
-1153.014270679371
 20
466.1350064664273
 30
0.0
 11
-1094.848096692884
 21
484.4678229254646
 31
0.0
  0
LINE
  5
1BC
330
1F
100
AcDbEntity
  8
A-2_蓋
  6
Continuous
 62
     3
370
     9
100
AcDbLine
 10
-1094.18099893106
 20
466.1350064664273
 30
0.0
 11
-1036.014701224662
 21
484.4678229254646
 31
0.0
  0
LINE
  5
1BD
330
1F
100
AcDbEntity
  8
A-2_蓋
  6
Continuous
 62
     3
370
     9
100
AcDbLine
 10
-1035.34785090266
 20
466.1350064664273
 30
0.0
 11
-977.1814294763512
 21
484.4678229254646
 31
0.0
  0
LINE
  5
1BE
330
1F
100
AcDbEntity
  8
A-2_蓋
  6
Continuous
 62
     3
370
     9
100
AcDbLine
 10
-976.5145791543496
 20
466.1350064664273
 30
0.0
 11
-918.3480340081292
 21
484.4678229254646
 31
0.0
  0
LINE
  5
1BF
330
1F
100
AcDbEntity
  8
A-2_蓋
  6
Continuous
 62
     3
370
     9
100
AcDbLine
 10
-917.6810599662161
 20
466.1350064664273
 30
0.0
 11
-859.5146385399071
 21
484.4678229254646
 31
0.0
  0
LINE
  5
1C0
330
1F
100
AcDbEntity
  8
A-2_蓋
  6
Continuous
 62
     3
370
     9
100
AcDbLine
 10
-858.8477882179053
 20
466.1350064664273
 30
0.0
 11
-800.681366791596
 21
484.4678229254646
 31
0.0
  0
LINE
  5
1C1
330
1F
100
AcDbEntity
  8
A-2_蓋
  6
Continuous
 62
     3
370
     9
100
AcDbLine
 10
-800.0145164695946
 20
466.1350064664273
 30
0.0
 11
-741.8480950432854
 21
484.4678229254646
 31
0.0
  0
LINE
  5
1C2
330
1F
100
AcDbEntity
  8
A-2_蓋
  6
Continuous
 62
     3
370
     9
100
AcDbLine
 10
-741.1808735615498
 20
466.1350064664273
 30
0.0
 11
-683.0144521352406
 21
484.4678229254646
 31
0.0
  0
LINE
  5
1C3
330
1F
100
AcDbEntity
  8
A-2_蓋
  6
Continuous
 62
     3
370
     9
100
AcDbLine
 10
-682.3477255331502
 20
466.1350064664273
 30
0.0
 11
-624.1815515466637
 21
484.4678229254646
 31
0.0
  0
LINE
  5
1C4
330
1F
100
AcDbEntity
  8
A-2_蓋
  6
Continuous
 62
     3
370
     9
100
AcDbLine
 10
-623.5145775047508
 20
466.1350064664273
 30
0.0
 11
-565.3481560784417
 21
484.4678229254646
 31
0.0
  0
LINE
  5
1C5
330
1F
100
AcDbEntity
  8
A-2_蓋
  6
Continuous
 62
     3
370
     9
100
AcDbLine
 10
-564.6811820365286
 20
466.1350064664273
 30
0.0
 11
-506.5147606102195
 21
484.4678229254646
 31
0.0
  0
LINE
  5
1C6
330
1F
100
AcDbEntity
  8
A-2_蓋
  6
Continuous
 62
     3
370
     9
100
AcDbLine
 10
-505.8479102882177
 20
466.1350064664273
 30
0.0
 11
-447.6813651419974
 21
484.4678229254646
 31
0.0
  0
LINE
  5
1C7
330
1F
100
AcDbEntity
  8
A-2_蓋
  6
Continuous
 62
     3
370
     9
100
AcDbLine
 10
-447.0145148199956
 20
466.1350064664273
 30
0.0
 11
-388.8480933936864
 21
484.4678229254646
 31
0.0
  0
LINE
  5
1C8
330
1F
100
AcDbEntity
  8
A-2_蓋
  6
Continuous
 62
     3
370
     9
100
AcDbLine
 10
-388.1812430716849
 20
466.1350064664273
 30
0.0
 11
-330.014945365287
 21
484.4678229254646
 31
0.0
  0
LINE
  5
1C9
330
1F
100
AcDbEntity
  8
A-2_蓋
  6
Continuous
 62
     3
370
     9
100
AcDbLine
 10
-329.3480950432854
 20
466.1350064664273
 30
0.0
 11
-271.1816736169763
 21
484.4678229254646
 31
0.0
  0
LINE
  5
1CA
330
1F
100
AcDbEntity
  8
A-2_蓋
  6
Continuous
 62
     3
370
     9
100
AcDbLine
 10
-270.5144521352406
 20
466.1350064664273
 30
0.0
 11
-212.3481544288427
 21
484.4678229254646
 31
0.0
  0
LINE
  5
1CB
330
1F
100
AcDbEntity
  8
A-2_蓋
  6
Continuous
 62
     3
370
     9
100
AcDbLine
 10
-211.6813041068411
 20
466.1350064664273
 30
0.0
 11
-153.514882680532
 21
484.4678229254646
 31
0.0
  0
LINE
  5
1CC
330
1F
100
AcDbEntity
  8
A-2_蓋
  6
Continuous
 62
     3
370
     9
100
AcDbLine
 10
-152.8480323585302
 20
466.1350064664273
 30
0.0
 11
-94.68173465213255
 21
484.4678229254646
 31
0.0
  0
LINE
  5
1CD
330
1F
100
AcDbEntity
  8
A-2_蓋
  6
Continuous
 62
     3
370
     9
100
AcDbLine
 10
-94.01488433013071
 20
466.1350064664273
 30
0.0
 11
-35.84858662373307
 21
484.4678229254646
 31
0.0
  0
LINE
  5
1CE
330
1F
100
AcDbEntity
  8
A-2_蓋
  6
Continuous
 62
     3
370
     9
100
AcDbLine
 10
-35.18124142208592
 20
466.1350064664273
 30
0.0
 11
22.9851800042232
 21
484.4678229254646
 31
0.0
  0
LINE
  5
1CF
330
1F
100
AcDbEntity
  8
A-2_蓋
  6
Continuous
 62
     3
370
     9
100
AcDbLine
 10
23.65178288640209
 20
466.1350064664273
 30
0.0
 11
81.8182043127112
 21
484.4678229254646
 31
0.0
  0
LINE
  5
1D0
330
1F
100
AcDbEntity
  8
A-2_蓋
  6
Continuous
 62
     3
370
     9
100
AcDbLine
 10
82.48505463471304
 20
466.1350064664273
 30
0.0
 11
140.6514760610222
 21
484.4678229254646
 31
0.0
  0
LINE
  5
1D1
330
1F
100
AcDbEntity
  8
A-2_蓋
  6
Continuous
 62
     3
370
     9
100
AcDbLine
 10
141.318821262669
 20
466.1350064664273
 30
0.0
 11
199.4849952491555
 21
484.4678229254646
 31
0.0
  0
LINE
  5
1D2
330
1F
100
AcDbEntity
  8
A-2_蓋
  6
Continuous
 62
     3
370
     9
100
AcDbLine
 10
200.15209301098
 20
466.1350064664273
 30
0.0
 11
258.3182669974664
 21
484.4678229254646
 31
0.0
  0
LINE
  5
1D3
330
1F
100
AcDbEntity
  8
A-2_蓋
  6
Continuous
 62
     3
370
     9
100
AcDbLine
 10
258.9848698796453
 20
466.1350064664273
 30
0.0
 11
317.1515387457771
 21
484.4678229254646
 31
0.0
  0
LINE
  5
1D4
330
1F
100
AcDbEntity
  8
A-2_蓋
  6
Continuous
 62
     3
370
     9
100
AcDbLine
 10
317.8181416279563
 20
466.1350064664273
 30
0.0
 11
375.984810494088
 21
484.4678229254646
 31
0.0
  0
LINE
  5
1D5
330
1F
100
AcDbEntity
  8
A-2_蓋
  6
Continuous
 62
     3
370
     9
100
AcDbLine
 10
-1282.348467852618
 20
481.0008198506125
 30
0.0
 11
-1271.347911937817
 21
484.4678229254646
 31
0.0
  0
LINE
  5
1D6
330
1F
100
AcDbEntity
  8
A-4_寸法
  6
Continuous
 62
     7
370
     9
100
AcDbLine
 10
1131.99462890625
 20
-166.3662142366977
 30
0.0
 11
991.9946618982266
 21
-166.3662142366977
 31
0.0
  0
LINE
  5
1D7
330
1F
100
AcDbEntity
  8
A-4_寸法
  6
Continuous
 62
     7
370
     9
100
AcDbLine
 10
1131.99462890625
 20
-156.3663049646325
 30
0.0
 11
1058.66138355152
 21
-156.3663049646325
 31
0.0
  0
LINE
  5
1D8
330
1F
100
AcDbEntity
  8
A-4_寸法
  6
Continuous
 62
     7
370
     9
100
AcDbLine
 10
1131.99462890625
 20
-149.6990389437289
 30
0.0
 11
1058.66138355152
 21
-149.6990389437289
 31
0.0
  0
LINE
  5
1D9
330
1F
100
AcDbEntity
  8
A-4_寸法
  6
Continuous
 62
     7
370
     9
100
AcDbLine
 10
1131.99462890625
 20
933.6346930426521
 30
0.0
 11
1058.66138355152
 21
933.6346930426521
 31
0.0
  0
LINE
  5
1DA
330
1F
100
AcDbEntity
  8
A-4_寸法
  6
Continuous
 62
     7
370
     9
100
AcDbLine
 10
1131.99462890625
 20
940.301216744088
 30
0.0
 11
1058.66138355152
 21
940.301216744088
 31
0.0
  0
LINE
  5
1DB
330
1F
100
AcDbEntity
  8
A-4_寸法
  6
Continuous
 62
     7
370
     9
100
AcDbLine
 10
1131.99462890625
 20
950.3012497360644
 30
0.0
 11
991.9946618982266
 21
950.3012497360644
 31
0.0
  0
LINE
  5
1DC
330
1F
100
AcDbEntity
  8
A-4_寸法
  6
Continuous
 62
     7
370
     9
100
AcDbLine
 10
994.4945464263094
 20
-166.3662142366977
 30
0.0
 11
994.4945464263094
 21
950.3012497360644
 31
0.0
  0
LINE
  5
1DD
330
1F
100
AcDbEntity
  8
A-4_寸法
  6
Continuous
 62
     7
370
     9
100
AcDbLine
 10
1446.160806191934
 20
-166.3662142366977
 30
0.0
 11
1446.160806191934
 21
950.3012497360644
 31
0.0
  0
LINE
  5
1DE
330
1F
100
AcDbEntity
  8
A-4_寸法
  6
Continuous
 62
     7
370
     9
100
AcDbLine
 10
1271.994101034629
 20
-166.3662142366977
 30
0.0
 11
1448.66093815984
 21
-166.3662142366977
 31
0.0
  0
LINE
  5
1DF
330
1F
100
AcDbEntity
  8
A-4_寸法
  6
Continuous
 62
     7
370
     9
100
AcDbLine
 10
1291.994414458404
 20
-66.36650291649062
 30
0.0
 11
1448.66093815984
 21
-66.36650291649062
 31
0.0
  0
LINE
  5
1E0
330
1F
100
AcDbEntity
  8
A-4_寸法
  6
Continuous
 62
     7
370
     9
100
AcDbLine
 10
1291.994414458404
 20
850.301414695946
 30
0.0
 11
1448.66093815984
 21
850.301414695946
 31
0.0
  0
LINE
  5
1E1
330
1F
100
AcDbEntity
  8
A-4_寸法
  6
Continuous
 62
     7
370
     9
100
AcDbLine
 10
1271.994101034629
 20
950.3012497360644
 30
0.0
 11
1448.66093815984
 21
950.3012497360644
 31
0.0
  0
LINE
  5
1E2
330
1F
100
AcDbEntity
  8
A-4_寸法
  6
Continuous
 62
     7
370
     9
100
AcDbLine
 10
1144.494546426309
 20
-284.0331288930531
 30
0.0
 11
1269.494711386191
 21
-284.0331288930531
 31
0.0
  0
LINE
  5
1E3
330
1F
100
AcDbEntity
  8
A-4_寸法
  6
Continuous
 62
     7
370
     9
100
AcDbLine
 10
1144.494546426309
 20
-178.866255476668
 30
0.0
 11
1144.494546426309
 21
-353.1998587943411
 31
0.0
  0
LINE
  5
1E4
330
1F
100
AcDbEntity
  8
A-4_寸法
  6
Continuous
 62
     7
370
     9
100
AcDbLine
 10
1269.494711386191
 20
-162.1990801836992
 30
0.0
 11
1269.494711386191
 21
-286.5330134211359
 31
0.0
  0
LINE
  5
1E5
330
1F
100
AcDbEntity
  8
A-4_寸法
  6
Continuous
 62
     7
370
     9
100
AcDbLine
 10
1144.494546426309
 20
-350.6997268264358
 30
0.0
 11
1279.4940020587
 21
-350.6997268264358
 31
0.0
  0
LINE
  5
1E6
330
1F
100
AcDbEntity
  8
A-4_寸法
  6
Continuous
 62
     7
370
     9
100
AcDbLine
 10
1279.4940020587
 20
-158.8665606524492
 30
0.0
 11
1279.4940020587
 21
-353.1998587943411
 31
0.0
  0
LINE
  5
1E7
330
1F
100
AcDbEntity
  8
A-4_寸法
  6
Continuous
 62
     7
370
     9
100
AcDbLine
 10
1061.161268079603
 20
-214.2181066564611
 30
0.0
 11
1061.161268079603
 21
999.1829866976352
 31
0.0
  0
LINE
  5
1E8
330
1F
100
AcDbEntity
  8
A-4_寸法
  6
Continuous
 62
     7
370
     9
100
AcDbLine
 10
1359.077577333193
 20
991.0498871674408
 30
0.0
 11
1367.050088418497
 21
1010.29748865076
 31
0.0
  0
LINE
  5
1E9
330
1F
100
AcDbEntity
  8
A-4_寸法
  6
Continuous
 62
     7
370
     9
100
AcDbLine
 10
1359.077577333193
 20
991.0498871674408
 30
0.0
 11
1371.760105442357
 21
1007.578125
 31
0.0
  0
LINE
  5
1EA
330
1F
100
AcDbEntity
  8
A-4_寸法
  6
Continuous
 62
     7
370
     9
100
AcDbLine
 10
1144.494546426309
 20
950.3012497360644
 30
0.0
 11
1131.812018317145
 21
966.8292401288008
 31
0.0
  0
LINE
  5
1EB
330
1F
100
AcDbEntity
  8
A-4_寸法
  6
Continuous
 62
     7
370
     9
100
AcDbLine
 10
1144.494546426309
 20
950.3012497360644
 30
0.0
 11
1136.522035341005
 21
969.548603779561
 31
0.0
  0
LINE
  5
1EC
330
1F
100
AcDbEntity
  8
A-4_寸法
  6
Continuous
 62
     7
370
     9
100
AcDbLine
 10
-565.3481560784417
 20
892.8011837521117
 30
0.0
 11
-562.6287924276814
 21
913.4559755067568
 31
0.0
  0
LINE
  5
1ED
330
1F
100
AcDbEntity
  8
A-4_寸法
  6
Continuous
 62
     7
370
     9
100
AcDbLine
 10
-565.3481560784417
 20
892.8011837521117
 30
0.0
 11
-557.3755212732262
 21
912.0485377956084
 31
0.0
  0
LINE
  5
1EE
330
1F
100
AcDbEntity
  8
A-4_寸法
  6
Continuous
 62
     7
370
     9
100
AcDbLine
 10
-670.5959423168283
 20
817.8011837521117
 30
0.0
 11
-667.8767023859797
 21
838.4562229465794
 31
0.0
  0
LINE
  5
1EF
330
1F
100
AcDbEntity
  8
A-4_寸法
  6
Continuous
 62
     7
370
     9
100
AcDbLine
 10
-670.5959423168283
 20
817.8011837521117
 30
0.0
 11
-662.623307511613
 21
837.0487852354311
 31
0.0
  0
LINE
  5
1F0
330
1F
100
AcDbEntity
  8
A-4_寸法
  6
Continuous
 62
     7
370
     9
100
AcDbLine
 10
-718.9248987146325
 20
933.6344456028294
 30
0.0
 11
-716.2056587837835
 21
954.2894847972974
 31
0.0
  0
LINE
  5
1F1
330
1F
100
AcDbEntity
  8
A-4_寸法
  6
Continuous
 62
     7
370
     9
100
AcDbLine
 10
-718.9248987146325
 20
933.6344456028294
 30
0.0
 11
-710.9522639094172
 21
952.8820470861488
 31
0.0
  0
LINE
  5
1F2
330
1F
100
AcDbEntity
  8
A-4_寸法
  6
Continuous
 62
     7
370
     9
100
AcDbLine
 10
-565.3481560784417
 20
892.8011837521117
 30
0.0
 11
-496.0831925675674
 21
1151.301071579392
 31
0.0
  0
LINE
  5
1F3
330
1F
100
AcDbEntity
  8
A-4_寸法
  6
Continuous
 62
     7
370
     9
100
AcDbLine
 10
-718.9248987146325
 20
933.6344456028294
 30
0.0
 11
-624.8748779296875
 21
1284.634267446157
 31
0.0
  0
LINE
  5
1F4
330
1F
100
AcDbEntity
  8
A-4_寸法
  6
Continuous
 62
     7
370
     9
100
AcDbLine
 10
-624.8748779296875
 20
1284.634267446157
 30
0.0
 11
-158.718542150549
 21
1284.634267446157
 31
0.0
  0
LINE
  5
1F5
330
1F
100
AcDbEntity
  8
A-4_寸法
  6
Continuous
 62
     7
370
     9
100
AcDbLine
 10
-563.3714830553208
 20
1217.967793232686
 30
0.0
 11
-184.7646764806797
 21
1217.967793232686
 31
0.0
  0
LINE
  5
1F6
330
1F
100
AcDbEntity
  8
A-4_寸法
  6
Continuous
 62
     7
370
     9
100
AcDbLine
 10
-496.0831925675674
 20
1151.301071579392
 30
0.0
 11
-0.4382159258867091
 21
1151.301071579392
 31
0.0
  0
LINE
  5
1F7
330
1F
100
AcDbEntity
  8
A-4_寸法
  6
Continuous
 62
     7
370
     9
100
AcDbLine
 10
1359.077577333193
 20
991.0498871674408
 30
0.0
 11
1446.99987463049
 21
1147.818603515625
 31
0.0
  0
LINE
  5
1F8
330
1F
100
AcDbEntity
  8
A-4_寸法
  6
Continuous
 62
     7
370
     9
100
AcDbLine
 10
1446.99987463049
 20
1147.818603515625
 30
0.0
 11
1697.943445154139
 21
1147.818603515625
 31
0.0
  0
LINE
  5
1F9
330
1F
100
AcDbEntity
  8
A-3_受枠
  6
Continuous
 62
     4
370
     9
100
AcDbLine
 10
-1108.93088675834
 20
897.8012002480998
 30
0.0
 11
-1151.264499973606
 21
897.8012002480998
 31
0.0
  0
LINE
  5
1FA
330
1F
100
AcDbEntity
  8
A-3_受枠
  6
Continuous
 62
     4
370
     9
100
AcDbLine
 10
-1116.597685942779
 20
902.6344423036318
 30
0.0
 11
-1143.597577069257
 21
902.6344423036318
 31
0.0
  0
LINE
  5
1FB
330
1F
100
AcDbEntity
  8
A-3_受枠
  6
Continuous
 62
     4
370
     9
100
AcDbLine
 10
-1149.264320167335
 20
902.6344423036318
 30
0.0
 11
-1151.264499973606
 21
902.6344423036318
 31
0.0
  0
LINE
  5
1FC
330
1F
100
AcDbEntity
  8
A-3_受枠
  6
Continuous
 62
     4
370
     9
100
AcDbLine
 10
-1110.9309428447
 20
902.6344423036318
 30
0.0
 11
-1108.93088675834
 21
902.6344423036318
 31
0.0
  0
LINE
  5
1FD
330
1F
100
AcDbEntity
  8
A-3_受枠
  6
Continuous
 62
     4
370
     9
100
AcDbLine
 10
-1148.4309428447
 20
903.4678196262669
 30
0.0
 11
-1148.4309428447
 21
926.134297138936
 31
0.0
  0
LINE
  5
1FE
330
1F
100
AcDbEntity
  8
A-3_受枠
  6
Continuous
 62
     4
370
     9
100
AcDbLine
 10
-1143.597577069257
 20
900.2176975559544
 30
0.0
 11
-1143.597577069257
 21
926.134297138936
 31
0.0
  0
LINE
  5
1FF
330
1F
100
AcDbEntity
  8
A-3_受枠
  6
Continuous
 62
     4
370
     9
100
AcDbLine
 10
-1116.597685942779
 20
900.2176975559544
 30
0.0
 11
-1116.597685942779
 21
926.134297138936
 31
0.0
  0
LINE
  5
200
330
1F
100
AcDbEntity
  8
A-3_受枠
  6
Continuous
 62
     4
370
     9
100
AcDbLine
 10
-1111.764196447424
 20
903.4678196262669
 30
0.0
 11
-1111.764196447424
 21
926.134297138936
 31
0.0
  0
LINE
  5
201
330
1F
100
AcDbEntity
  8
A-3_受枠
  6
Continuous
 62
     4
370
     9
100
AcDbLine
 10
-1144.431078111803
 20
916.1342641469596
 30
0.0
 11
-1147.597441802154
 21
916.1342641469596
 31
0.0
  0
LINE
  5
202
330
1F
100
AcDbEntity
  8
A-3_受枠
  6
Continuous
 62
     4
370
     9
100
AcDbLine
 10
-1115.764556059966
 20
916.1342641469596
 30
0.0
 11
-1112.597450050148
 21
916.1342641469596
 31
0.0
  0
LINE
  5
203
330
1F
100
AcDbEntity
  8
A-3_受枠
  6
Continuous
 62
     4
370
     9
100
AcDbLine
 10
-1148.4309428447
 20
933.6341981630068
 30
0.0
 11
-1148.4309428447
 21
937.8995658255915
 31
0.0
  0
LINE
  5
204
330
1F
100
AcDbEntity
  8
A-3_受枠
  6
Continuous
 62
     4
370
     9
100
AcDbLine
 10
-1143.597577069257
 20
933.6341981630068
 30
0.0
 11
-1143.597577069257
 21
937.8995658255915
 31
0.0
  0
LINE
  5
205
330
1F
100
AcDbEntity
  8
A-3_受枠
  6
Continuous
 62
     4
370
     9
100
AcDbLine
 10
-1116.597685942779
 20
933.6341981630068
 30
0.0
 11
-1116.597685942779
 21
937.8995658255915
 31
0.0
  0
LINE
  5
206
330
1F
100
AcDbEntity
  8
A-3_受枠
  6
Continuous
 62
     4
370
     9
100
AcDbLine
 10
-1111.764196447424
 20
933.6341981630068
 30
0.0
 11
-1111.764196447424
 21
937.8995658255915
 31
0.0
  0
LINE
  5
207
330
1F
100
AcDbEntity
  8
A-3_受枠
  6
Continuous
 62
     4
370
     9
100
AcDbLine
 10
243.9031652502112
 20
897.8012002480998
 30
0.0
 11
201.5694283150339
 21
897.8012002480998
 31
0.0
  0
LINE
  5
208
330
1F
100
AcDbEntity
  8
A-3_受枠
  6
Continuous
 62
     4
370
     9
100
AcDbLine
 10
236.2362423458617
 20
902.6344423036318
 30
0.0
 11
209.2365986592063
 21
902.6344423036318
 31
0.0
  0
LINE
  5
209
330
1F
100
AcDbEntity
  8
A-3_受枠
  6
Continuous
 62
     4
370
     9
100
AcDbLine
 10
203.5694844013938
 20
902.6344423036318
 30
0.0
 11
201.5694283150339
 21
902.6344423036318
 31
0.0
  0
LINE
  5
20A
330
1F
100
AcDbEntity
  8
A-3_受枠
  6
Continuous
 62
     4
370
     9
100
AcDbLine
 10
241.9028617240289
 20
902.6344423036318
 30
0.0
 11
243.9031652502112
 21
902.6344423036318
 31
0.0
  0
LINE
  5
20B
330
1F
100
AcDbEntity
  8
A-3_受枠
  6
Continuous
 62
     4
370
     9
100
AcDbLine
 10
204.4031091638516
 20
903.4678196262669
 30
0.0
 11
204.4031091638516
 21
926.134297138936
 31
0.0
  0
LINE
  5
20C
330
1F
100
AcDbEntity
  8
A-3_受枠
  6
Continuous
 62
     4
370
     9
100
AcDbLine
 10
209.2365986592063
 20
900.2176975559544
 30
0.0
 11
209.2365986592063
 21
926.134297138936
 31
0.0
  0
LINE
  5
20D
330
1F
100
AcDbEntity
  8
A-3_受枠
  6
Continuous
 62
     4
370
     9
100
AcDbLine
 10
236.2362423458617
 20
900.2176975559544
 30
0.0
 11
236.2362423458617
 21
926.134297138936
 31
0.0
  0
LINE
  5
20E
330
1F
100
AcDbEntity
  8
A-3_受枠
  6
Continuous
 62
     4
370
     9
100
AcDbLine
 10
241.0697318412164
 20
903.4678196262669
 30
0.0
 11
241.0697318412164
 21
926.134297138936
 31
0.0
  0
LINE
  5
20F
330
1F
100
AcDbEntity
  8
A-3_受枠
  6
Continuous
 62
     4
370
     9
100
AcDbLine
 10
208.4029738967484
 20
916.1342641469596
 30
0.0
 11
205.2359916068414
 21
916.1342641469596
 31
0.0
  0
LINE
  5
210
330
1F
100
AcDbEntity
  8
A-3_受枠
  6
Continuous
 62
     4
370
     9
100
AcDbLine
 10
237.0696196684966
 20
916.1342641469596
 30
0.0
 11
240.2361070787586
 21
916.1342641469596
 31
0.0
  0
LINE
  5
211
330
1F
100
AcDbEntity
  8
A-3_受枠
  6
Continuous
 62
     4
370
     9
100
AcDbLine
 10
204.4031091638516
 20
933.6341981630068
 30
0.0
 11
204.4031091638516
 21
937.8995658255915
 31
0.0
  0
LINE
  5
212
330
1F
100
AcDbEntity
  8
A-3_受枠
  6
Continuous
 62
     4
370
     9
100
AcDbLine
 10
209.2365986592063
 20
933.6341981630068
 30
0.0
 11
209.2365986592063
 21
937.8995658255915
 31
0.0
  0
LINE
  5
213
330
1F
100
AcDbEntity
  8
A-3_受枠
  6
Continuous
 62
     4
370
     9
100
AcDbLine
 10
236.2362423458617
 20
933.6341981630068
 30
0.0
 11
236.2362423458617
 21
937.8995658255915
 31
0.0
  0
LINE
  5
214
330
1F
100
AcDbEntity
  8
A-3_受枠
  6
Continuous
 62
     4
370
     9
100
AcDbLine
 10
241.0697318412164
 20
933.6341981630068
 30
0.0
 11
241.0697318412164
 21
937.8995658255915
 31
0.0
  0
LINE
  5
215
330
1F
100
AcDbEntity
  8
A-3_受枠
  6
Continuous
 62
     4
370
     9
100
AcDbLine
 10
-1108.93088675834
 20
-113.8655461491766
 30
0.0
 11
-1151.264499973606
 21
-113.8655461491766
 31
0.0
  0
LINE
  5
216
330
1F
100
AcDbEntity
  8
A-3_受枠
  6
Continuous
 62
     4
370
     9
100
AcDbLine
 10
-1116.597685942779
 20
-118.6986644847971
 30
0.0
 11
-1143.597577069257
 21
-118.6986644847971
 31
0.0
  0
LINE
  5
217
330
1F
100
AcDbEntity
  8
A-3_受枠
  6
Continuous
 62
     4
370
     9
100
AcDbLine
 10
-1149.264320167335
 20
-118.6986644847971
 30
0.0
 11
-1151.264499973606
 21
-118.6986644847971
 31
0.0
  0
LINE
  5
218
330
1F
100
AcDbEntity
  8
A-3_受枠
  6
Continuous
 62
     4
370
     9
100
AcDbLine
 10
-1110.9309428447
 20
-118.6986644847971
 30
0.0
 11
-1108.93088675834
 21
-118.6986644847971
 31
0.0
  0
LINE
  5
219
330
1F
100
AcDbEntity
  8
A-3_受枠
  6
Continuous
 62
     4
370
     9
100
AcDbLine
 10
-1148.4309428447
 20
-119.5321655273438
 30
0.0
 11
-1148.4309428447
 21
-142.1986430400125
 31
0.0
  0
LINE
  5
21A
330
1F
100
AcDbEntity
  8
A-3_受枠
  6
Continuous
 62
     4
370
     9
100
AcDbLine
 10
-1143.597577069257
 20
-116.2820434570312
 30
0.0
 11
-1143.597577069257
 21
-142.1986430400125
 31
0.0
  0
LINE
  5
21B
330
1F
100
AcDbEntity
  8
A-3_受枠
  6
Continuous
 62
     4
370
     9
100
AcDbLine
 10
-1116.597685942779
 20
-116.2820434570312
 30
0.0
 11
-1116.597685942779
 21
-142.1986430400125
 31
0.0
  0
LINE
  5
21C
330
1F
100
AcDbEntity
  8
A-3_受枠
  6
Continuous
 62
     4
370
     9
100
AcDbLine
 10
-1111.764196447424
 20
-119.5321655273438
 30
0.0
 11
-1111.764196447424
 21
-142.1986430400125
 31
0.0
  0
LINE
  5
21D
330
1F
100
AcDbEntity
  8
A-3_受枠
  6
Continuous
 62
     4
370
     9
100
AcDbLine
 10
-1144.431078111803
 20
-132.1986100480362
 30
0.0
 11
-1147.597441802154
 21
-132.1986100480362
 31
0.0
  0
LINE
  5
21E
330
1F
100
AcDbEntity
  8
A-3_受枠
  6
Continuous
 62
     4
370
     9
100
AcDbLine
 10
-1115.764556059966
 20
-132.1986100480362
 30
0.0
 11
-1112.597450050148
 21
-132.1986100480362
 31
0.0
  0
LINE
  5
21F
330
1F
100
AcDbEntity
  8
A-3_受枠
  6
Continuous
 62
     4
370
     9
100
AcDbLine
 10
-1148.4309428447
 20
-149.6985440640836
 30
0.0
 11
-1148.4309428447
 21
-153.9637880067568
 31
0.0
  0
LINE
  5
220
330
1F
100
AcDbEntity
  8
A-3_受枠
  6
Continuous
 62
     4
370
     9
100
AcDbLine
 10
-1143.597577069257
 20
-149.6985440640836
 30
0.0
 11
-1143.597577069257
 21
-153.9637880067568
 31
0.0
  0
LINE
  5
221
330
1F
100
AcDbEntity
  8
A-3_受枠
  6
Continuous
 62
     4
370
     9
100
AcDbLine
 10
-1116.597685942779
 20
-149.6985440640836
 30
0.0
 11
-1116.597685942779
 21
-153.9637880067568
 31
0.0
  0
LINE
  5
222
330
1F
100
AcDbEntity
  8
A-3_受枠
  6
Continuous
 62
     4
370
     9
100
AcDbLine
 10
-1111.764196447424
 20
-149.6985440640836
 30
0.0
 11
-1111.764196447424
 21
-153.9637880067568
 31
0.0
  0
LINE
  5
223
330
1F
100
AcDbEntity
  8
A-3_受枠
  6
Continuous
 62
     4
370
     9
100
AcDbLine
 10
243.9031652502112
 20
-113.8655461491766
 30
0.0
 11
201.5694283150339
 21
-113.8655461491766
 31
0.0
  0
LINE
  5
224
330
1F
100
AcDbEntity
  8
A-3_受枠
  6
Continuous
 62
     4
370
     9
100
AcDbLine
 10
236.2362423458617
 20
-118.6986644847971
 30
0.0
 11
209.2365986592063
 21
-118.6986644847971
 31
0.0
  0
LINE
  5
225
330
1F
100
AcDbEntity
  8
A-3_受枠
  6
Continuous
 62
     4
370
     9
100
AcDbLine
 10
203.5694844013938
 20
-118.6986644847971
 30
0.0
 11
201.5694283150339
 21
-118.6986644847971
 31
0.0
  0
LINE
  5
226
330
1F
100
AcDbEntity
  8
A-3_受枠
  6
Continuous
 62
     4
370
     9
100
AcDbLine
 10
241.9028617240289
 20
-118.6986644847971
 30
0.0
 11
243.9031652502112
 21
-118.6986644847971
 31
0.0
  0
LINE
  5
227
330
1F
100
AcDbEntity
  8
A-3_受枠
  6
Continuous
 62
     4
370
     9
100
AcDbLine
 10
204.4031091638516
 20
-119.5321655273438
 30
0.0
 11
204.4031091638516
 21
-142.1986430400125
 31
0.0
  0
LINE
  5
228
330
1F
100
AcDbEntity
  8
A-3_受枠
  6
Continuous
 62
     4
370
     9
100
AcDbLine
 10
209.2365986592063
 20
-116.2820434570312
 30
0.0
 11
209.2365986592063
 21
-142.1986430400125
 31
0.0
  0
LINE
  5
229
330
1F
100
AcDbEntity
  8
A-3_受枠
  6
Continuous
 62
     4
370
     9
100
AcDbLine
 10
236.2362423458617
 20
-116.2820434570312
 30
0.0
 11
236.2362423458617
 21
-142.1986430400125
 31
0.0
  0
LINE
  5
22A
330
1F
100
AcDbEntity
  8
A-3_受枠
  6
Continuous
 62
     4
370
     9
100
AcDbLine
 10
241.0697318412164
 20
-119.5321655273438
 30
0.0
 11
241.0697318412164
 21
-142.1986430400125
 31
0.0
  0
LINE
  5
22B
330
1F
100
AcDbEntity
  8
A-3_受枠
  6
Continuous
 62
     4
370
     9
100
AcDbLine
 10
208.4029738967484
 20
-132.1986100480362
 30
0.0
 11
205.2359916068414
 21
-132.1986100480362
 31
0.0
  0
LINE
  5
22C
330
1F
100
AcDbEntity
  8
A-3_受枠
  6
Continuous
 62
     4
370
     9
100
AcDbLine
 10
237.0696196684966
 20
-132.1986100480362
 30
0.0
 11
240.2361070787586
 21
-132.1986100480362
 31
0.0
  0
LINE
  5
22D
330
1F
100
AcDbEntity
  8
A-3_受枠
  6
Continuous
 62
     4
370
     9
100
AcDbLine
 10
204.4031091638516
 20
-149.6985440640836
 30
0.0
 11
204.4031091638516
 21
-153.9637880067568
 31
0.0
  0
LINE
  5
22E
330
1F
100
AcDbEntity
  8
A-3_受枠
  6
Continuous
 62
     4
370
     9
100
AcDbLine
 10
209.2365986592063
 20
-149.6985440640836
 30
0.0
 11
209.2365986592063
 21
-153.9637880067568
 31
0.0
  0
LINE
  5
22F
330
1F
100
AcDbEntity
  8
A-3_受枠
  6
Continuous
 62
     4
370
     9
100
AcDbLine
 10
236.2362423458617
 20
-149.6985440640836
 30
0.0
 11
236.2362423458617
 21
-153.9637880067568
 31
0.0
  0
LINE
  5
230
330
1F
100
AcDbEntity
  8
A-3_受枠
  6
Continuous
 62
     4
370
     9
100
AcDbLine
 10
241.0697318412164
 20
-149.6985440640836
 30
0.0
 11
241.0697318412164
 21
-153.9637880067568
 31
0.0
  0
LINE
  5
231
330
1F
100
AcDbEntity
  8
A-3_受枠
  6
Continuous
 62
     4
370
     9
100
AcDbLine
 10
1201.076858108108
 20
935.4984097867401
 30
0.0
 11
1201.617266680743
 21
940.3014641839106
 31
0.0
  0
LINE
  5
232
330
1F
100
AcDbEntity
  8
A-3_受枠
  6
Continuous
 62
     4
370
     9
100
AcDbLine
 10
1217.795872043919
 20
938.4805545291385
 30
0.0
 11
1201.617266680743
 21
940.3014641839106
 31
0.0
  0
LINE
  5
233
330
1F
100
AcDbEntity
  8
A-3_受枠
  6
Continuous
 62
     4
370
     9
100
AcDbLine
 10
1217.638995196368
 20
933.6346930426521
 30
0.0
 11
1201.076858108108
 21
935.4984097867401
 31
0.0
  0
LINE
  5
234
330
1F
100
AcDbEntity
  8
A-3_受枠
  6
Continuous
 62
     4
370
     9
100
AcDbLine
 10
1251.9549395587
 20
935.2601252375425
 30
0.0
 11
1217.638995196368
 21
933.6346930426521
 31
0.0
  0
LINE
  5
235
330
1F
100
AcDbEntity
  8
A-3_受枠
  6
Continuous
 62
     4
370
     9
100
AcDbLine
 10
1251.726305162584
 20
940.0879236169766
 30
0.0
 11
1217.795872043919
 21
938.4805545291385
 31
0.0
  0
LINE
  5
236
330
1F
100
AcDbEntity
  8
A-3_受枠
  6
Continuous
 62
     4
370
     9
100
AcDbLine
 10
1257.661149308489
 20
925.3486757020693
 30
0.0
 11
1257.661149308489
 21
934.427490234375
 31
0.0
  0
LINE
  5
237
330
1F
100
AcDbEntity
  8
A-3_受枠
  6
Continuous
 62
     4
370
     9
100
AcDbLine
 10
1206.661080025338
 20
902.6344423036318
 30
0.0
 11
1255.244404560811
 21
902.6344423036318
 31
0.0
  0
LINE
  5
238
330
1F
100
AcDbEntity
  8
A-3_受枠
  6
Continuous
 62
     4
370
     9
100
AcDbLine
 10
1206.661080025338
 20
897.8014476879224
 30
0.0
 11
1255.244404560811
 21
897.8014476879224
 31
0.0
  0
LINE
  5
239
330
1F
100
AcDbEntity
  8
A-3_受枠
  6
Continuous
 62
     4
370
     9
100
AcDbLine
 10
1200.994460647171
 20
912.5107553842906
 30
0.0
 11
1200.994460647171
 21
903.4678196262669
 31
0.0
  0
LINE
  5
23A
330
1F
100
AcDbEntity
  8
A-3_受枠
  6
Continuous
 62
     4
370
     9
100
AcDbLine
 10
1205.827702702703
 20
912.5107553842906
 30
0.0
 11
1205.827702702703
 21
903.4678196262669
 31
0.0
  0
LINE
  5
23B
330
1F
100
AcDbEntity
  8
A-3_受枠
  6
Continuous
 62
     4
370
     9
100
AcDbLine
 10
1206.311694995777
 20
913.2674263619089
 30
0.0
 11
1223.570375184755
 21
921.2424118454394
 31
0.0
  0
LINE
  5
23C
330
1F
100
AcDbEntity
  8
A-3_受枠
  6
Continuous
 62
     4
370
     9
100
AcDbLine
 10
1251.682260874156
 20
919.6904692778717
 30
0.0
 11
1223.570375184755
 21
921.2424118454394
 31
0.0
  0
LINE
  5
23D
330
1F
100
AcDbEntity
  8
A-3_受枠
  6
Continuous
 62
     4
370
     9
100
AcDbLine
 10
1204.284173089105
 20
917.6547818570526
 30
0.0
 11
1222.635300095017
 21
926.1347920185813
 31
0.0
  0
LINE
  5
23E
330
1F
100
AcDbEntity
  8
A-3_受枠
  6
Continuous
 62
     4
370
     9
100
AcDbLine
 10
1251.948506123311
 20
924.5165355785474
 30
0.0
 11
1222.635300095017
 21
926.1347920185813
 31
0.0
  0
LINE
  5
23F
330
1F
100
AcDbEntity
  8
A-3_受枠
  6
Continuous
 62
     4
370
     9
100
AcDbLine
 10
1252.827907252956
 20
934.427490234375
 30
0.0
 11
1252.827907252956
 21
925.3486757020693
 31
0.0
  0
LINE
  5
240
330
1F
100
AcDbEntity
  8
A-3_受枠
  6
Continuous
 62
     4
370
     9
100
AcDbLine
 10
1201.076858108108
 20
-151.5626319679052
 30
0.0
 11
1201.617266680743
 21
-156.3658100849872
 31
0.0
  0
LINE
  5
241
330
1F
100
AcDbEntity
  8
A-3_受枠
  6
Continuous
 62
     4
370
     9
100
AcDbLine
 10
1217.795872043919
 20
-154.5450241501266
 30
0.0
 11
1201.617266680743
 21
-156.3658100849872
 31
0.0
  0
LINE
  5
242
330
1F
100
AcDbEntity
  8
A-3_受枠
  6
Continuous
 62
     4
370
     9
100
AcDbLine
 10
1217.638995196368
 20
-149.6989152238174
 30
0.0
 11
1201.076858108108
 21
-151.5626319679052
 31
0.0
  0
LINE
  5
243
330
1F
100
AcDbEntity
  8
A-3_受枠
  6
Continuous
 62
     4
370
     9
100
AcDbLine
 10
1251.9549395587
 20
-151.324471138619
 30
0.0
 11
1217.638995196368
 21
-149.6989152238174
 31
0.0
  0
LINE
  5
244
330
1F
100
AcDbEntity
  8
A-3_受枠
  6
Continuous
 62
     4
370
     9
100
AcDbLine
 10
1251.726305162584
 20
-156.1521457981419
 30
0.0
 11
1217.795872043919
 21
-154.5450241501266
 31
0.0
  0
LINE
  5
245
330
1F
100
AcDbEntity
  8
A-3_受枠
  6
Continuous
 62
     4
370
     9
100
AcDbLine
 10
1257.661149308489
 20
-141.4130216031461
 30
0.0
 11
1257.661149308489
 21
-150.491959855363
 31
0.0
  0
LINE
  5
246
330
1F
100
AcDbEntity
  8
A-3_受枠
  6
Continuous
 62
     4
370
     9
100
AcDbLine
 10
1206.661080025338
 20
-118.6989119246198
 30
0.0
 11
1255.244404560811
 21
-118.6989119246198
 31
0.0
  0
LINE
  5
247
330
1F
100
AcDbEntity
  8
A-3_受枠
  6
Continuous
 62
     4
370
     9
100
AcDbLine
 10
1206.661080025338
 20
-113.8657935889989
 30
0.0
 11
1255.244404560811
 21
-113.8657935889989
 31
0.0
  0
LINE
  5
248
330
1F
100
AcDbEntity
  8
A-3_受枠
  6
Continuous
 62
     4
370
     9
100
AcDbLine
 10
1200.994460647171
 20
-128.5752250052786
 30
0.0
 11
1200.994460647171
 21
-119.5322892472549
 31
0.0
  0
LINE
  5
249
330
1F
100
AcDbEntity
  8
A-3_受枠
  6
Continuous
 62
     4
370
     9
100
AcDbLine
 10
1205.827702702703
 20
-128.5752250052786
 30
0.0
 11
1205.827702702703
 21
-119.5322892472549
 31
0.0
  0
LINE
  5
24A
330
1F
100
AcDbEntity
  8
A-3_受枠
  6
Continuous
 62
     4
370
     9
100
AcDbLine
 10
1206.311694995777
 20
-129.3317722629857
 30
0.0
 11
1223.570375184755
 21
-137.3067577465159
 31
0.0
  0
LINE
  5
24B
330
1F
100
AcDbEntity
  8
A-3_受枠
  6
Continuous
 62
     4
370
     9
100
AcDbLine
 10
1251.682260874156
 20
-135.7549388988596
 30
0.0
 11
1223.570375184755
 21
-137.3067577465159
 31
0.0
  0
LINE
  5
24C
330
1F
100
AcDbEntity
  8
A-3_受枠
  6
Continuous
 62
     4
370
     9
100
AcDbLine
 10
1204.284173089105
 20
-133.7191277581292
 30
0.0
 11
1222.635300095017
 21
-142.1990141997466
 31
0.0
  0
LINE
  5
24D
330
1F
100
AcDbEntity
  8
A-3_受枠
  6
Continuous
 62
     4
370
     9
100
AcDbLine
 10
1251.948506123311
 20
-140.5807577597128
 30
0.0
 11
1222.635300095017
 21
-142.1990141997466
 31
0.0
  0
LINE
  5
24E
330
1F
100
AcDbEntity
  8
A-3_受枠
  6
Continuous
 62
     4
370
     9
100
AcDbLine
 10
1252.827907252956
 20
-150.491959855363
 30
0.0
 11
1252.827907252956
 21
-141.4130216031461
 31
0.0
  0
LINE
  5
24F
330
1F
100
AcDbEntity
  8
A-4_寸法
  6
Continuous
 62
     7
370
     9
100
AcDbLine
 10
222.7364205025339
 20
902.6344423036318
 30
0.0
 11
225.455784153294
 21
923.2892340582771
 31
0.0
  0
LINE
  5
250
330
1F
100
AcDbEntity
  8
A-4_寸法
  6
Continuous
 62
     7
370
     9
100
AcDbLine
 10
222.7364205025339
 20
902.6344423036318
 30
0.0
 11
230.708931587838
 21
921.8817963471283
 31
0.0
  0
LINE
  5
251
330
1F
100
AcDbEntity
  8
A-4_寸法
  6
Continuous
 62
     7
370
     9
100
AcDbLine
 10
222.7364205025339
 20
902.6344423036318
 30
0.0
 11
289.3665210620779
 21
1151.301071579392
 31
0.0
  0
LINE
  5
252
330
1F
100
AcDbEntity
  8
A-4_寸法
  6
Continuous
 62
     7
370
     9
100
AcDbLine
 10
289.3665210620779
 20
1151.301071579392
 30
0.0
 11
688.093525654561
 21
1151.301071579392
 31
0.0
  0
LINE
  5
253
330
1F
100
AcDbEntity
  8
A-2_蓋
  6
JWW_CENTER1
 62
     3
370
     9
100
AcDbLine
 10
1312.40696262669
 20
391.9676414695948
 30
0.0
 11
1115.412696632179
 21
391.9676414695948
 31
0.0
  0
LINE
  5
254
330
1F
100
AcDbEntity
  8
A-1_ピット
  6
Continuous
 62
     2
370
     9
100
AcDbLine
 10
-1298.181894663218
 20
950.300754856419
 30
0.0
 11
-1298.181894663218
 21
-166.3655956371409
 31
0.0
  0
LINE
  5
255
330
1F
100
AcDbEntity
  8
A-1_ピット
  6
Continuous
 62
     2
370
     9
100
AcDbLine
 10
-1298.181770943306
 20
950.300754856419
 30
0.0
 11
391.8187321843328
 21
950.300754856419
 31
0.0
  0
LINE
  5
256
330
1F
100
AcDbEntity
  8
A-1_ピット
  6
Continuous
 62
     2
370
     9
100
AcDbLine
 10
-1288.181861671242
 20
940.3007218644427
 30
0.0
 11
381.8186991923565
 21
940.3007218644427
 31
0.0
  0
LINE
  5
257
330
1F
100
AcDbEntity
  8
A-1_ピット
  6
Continuous
 62
     2
370
     9
100
AcDbLine
 10
-1298.181770943306
 20
-166.3655956371409
 30
0.0
 11
391.8187321843328
 21
-166.3655956371409
 31
0.0
  0
LINE
  5
258
330
1F
100
AcDbEntity
  8
A-1_ピット
  6
Continuous
 62
     2
370
     9
100
AcDbLine
 10
-1288.181861671242
 20
-156.3653152053419
 30
0.0
 11
381.8186991923565
 21
-156.3653152053419
 31
0.0
  0
LINE
  5
259
330
1F
100
AcDbEntity
  8
A-1_ピット
  6
Continuous
 62
     2
370
     9
100
AcDbLine
 10
391.8187321843328
 20
950.300754856419
 30
0.0
 11
391.8187321843328
 21
-166.3655956371409
 31
0.0
  0
LINE
  5
25A
330
1F
100
AcDbEntity
  8
A-1_ピット
  6
JWW_DASHED3
 62
     2
370
     9
100
AcDbLine
 10
381.8186991923565
 20
850.301414695946
 30
0.0
 11
-1288.181861671242
 21
850.301414695946
 31
0.0
  0
LINE
  5
25B
330
1F
100
AcDbEntity
  8
A-1_ピット
  6
JWW_DASHED3
 62
     2
370
     9
100
AcDbLine
 10
-1288.181861671242
 20
-66.3660080368453
 30
0.0
 11
381.8186991923565
 21
-66.3660080368453
 31
0.0
  0
LINE
  5
25C
330
1F
100
AcDbEntity
  8
A-4_寸法
  6
Continuous
 62
     7
370
     9
100
AcDbLine
 10
-1298.181770943306
 20
1067.967545792863
 30
0.0
 11
391.8187321843328
 21
1067.967545792863
 31
0.0
  0
LINE
  5
25D
330
1F
100
AcDbEntity
  8
A-4_寸法
  6
Continuous
 62
     7
370
     9
100
AcDbLine
 10
-1298.181770943306
 20
962.8009198163008
 30
0.0
 11
-1298.181770943306
 21
1070.467677760769
 31
0.0
  0
LINE
  5
25E
330
1F
100
AcDbEntity
  8
A-4_寸法
  6
Continuous
 62
     7
370
     9
100
AcDbLine
 10
-881.5148843301308
 20
997.1341849662165
 30
0.0
 11
-881.5148843301308
 21
1070.467677760769
 31
0.0
  0
LINE
  5
25F
330
1F
100
AcDbEntity
  8
A-4_寸法
  6
Continuous
 62
     7
370
     9
100
AcDbLine
 10
-24.84765954919766
 20
997.1341849662165
 30
0.0
 11
-24.84765954919766
 21
1070.467677760769
 31
0.0
  0
LINE
  5
260
330
1F
100
AcDbEntity
  8
A-4_寸法
  6
Continuous
 62
     7
370
     9
100
AcDbLine
 10
391.8187321843328
 20
962.8009198163008
 30
0.0
 11
391.8187321843328
 21
1070.467677760769
 31
0.0
  0
LINE
  5
261
330
1F
100
AcDbEntity
  8
A-4_寸法
  6
Continuous
 62
     7
370
     9
100
AcDbLine
 10
391.8187321843328
 20
754.815376900338
 30
0.0
 11
444.1990207981419
 21
950.300754856419
 31
0.0
  0
LINE
  5
262
330
1F
100
AcDbEntity
  8
A-4_寸法
  6
Continuous
 62
     7
370
     9
100
AcDbLine
 10
391.8187321843328
 20
754.815376900338
 30
0.0
 11
394.538095835093
 21
775.4704160948057
 31
0.0
  0
LINE
  5
263
330
1F
100
AcDbEntity
  8
A-4_寸法
  6
Continuous
 62
     7
370
     9
100
AcDbLine
 10
391.8187321843328
 20
754.815376900338
 30
0.0
 11
399.791243269637
 21
774.0629783836573
 31
0.0
  0
LINE
  5
264
330
1F
100
AcDbEntity
  8
A-4_寸法
  6
Continuous
 62
     7
370
     9
100
AcDbLine
 10
444.1990207981419
 20
950.300754856419
 30
0.0
 11
661.0300424936656
 21
950.300754856419
 31
0.0
  0
LINE
  5
265
330
1F
100
AcDbEntity
  8
A-4_寸法
  6
Continuous
 62
     7
370
     9
100
AcDbLine
 10
1144.494546426309
 20
950.3012497360644
 30
0.0
 11
1028.447249129012
 21
1151.301071579392
 31
0.0
  0
LINE
  5
266
330
1F
100
AcDbEntity
  8
A-4_寸法
  6
Continuous
 62
     7
370
     9
100
AcDbLine
 10
749.4719634184969
 20
1151.301071579392
 30
0.0
 11
1028.447249129012
 21
1151.301071579392
 31
0.0
  0
LINE
  5
267
330
1F
100
AcDbEntity
  8
A-4_寸法
  6
Continuous
 62
     7
370
     9
100
AcDbLine
 10
-670.5959423168283
 20
817.8011837521117
 30
0.0
 11
-563.3714830553208
 21
1217.967793232686
 31
0.0
  0
LINE
  5
268
330
1F
100
AcDbEntity
  8
A-1_ピット
  6
Continuous
 62
     2
370
     9
100
AcDbLine
 10
381.8186991923565
 20
950.300754856419
 30
0.0
 11
381.8186991923565
 21
-166.3655956371409
 31
0.0
  0
LINE
  5
269
330
1F
100
AcDbEntity
  8
A-1_ピット
  6
Continuous
 62
     2
370
     9
100
AcDbLine
 10
-1288.181861671242
 20
950.300754856419
 30
0.0
 11
-1288.181861671242
 21
-166.3655956371409
 31
0.0
  0
LINE
  5
26A
330
1F
100
AcDbEntity
  8
A-4_寸法
  6
Continuous
 62
     7
370
     9
100
AcDbLine
 10
-335.8478443042651
 20
993.0063938450169
 30
0.0
 11
-277.0150674355995
 21
993.0063938450169
 31
0.0
  0
LINE
  5
26B
330
1F
100
AcDbEntity
  8
A-4_寸法
  6
Continuous
 62
     7
370
     9
100
AcDbLine
 10
-335.8478443042651
 20
993.0063938450169
 30
0.0
 11
-335.8478443042651
 21
896.1515189505915
 31
0.0
  0
LINE
  5
26C
330
1F
100
AcDbEntity
  8
A-4_寸法
  6
Continuous
 62
     7
370
     9
100
AcDbLine
 10
-277.0150674355995
 20
896.1515189505915
 30
0.0
 11
-277.0150674355995
 21
995.5065258129224
 31
0.0
  0
LINE
  5
26D
330
1F
100
AcDbEntity
  8
A-2_蓋
  6
Continuous
 62
     3
370
     9
100
AcDbLine
 10
-1282.348467852618
 20
317.8011425121412
 30
0.0
 11
375.9853053737334
 21
317.8011425121412
 31
0.0
  0
LINE
  5
26E
330
1F
100
AcDbEntity
  8
A-2_蓋
  6
Continuous
 62
     3
370
     9
100
AcDbLine
 10
-1282.348467852618
 20
299.4683260531039
 30
0.0
 11
375.9853053737334
 21
299.4683260531039
 31
0.0
  0
LINE
  5
26F
330
1F
100
AcDbEntity
  8
A-2_蓋
  6
Continuous
 62
     3
370
     9
100
AcDbLine
 10
-1270.681061615815
 20
299.4683260531039
 30
0.0
 11
-1212.514516469595
 21
317.8011425121412
 31
0.0
  0
LINE
  5
270
330
1F
100
AcDbEntity
  8
A-2_蓋
  6
Continuous
 62
     3
370
     9
100
AcDbLine
 10
-1211.847913587415
 20
299.4683260531039
 30
0.0
 11
-1153.681492161106
 21
317.8011425121412
 31
0.0
  0
LINE
  5
271
330
1F
100
AcDbEntity
  8
A-2_蓋
  6
Continuous
 62
     3
370
     9
100
AcDbLine
 10
-1153.014270679371
 20
299.4683260531039
 30
0.0
 11
-1094.848096692884
 21
317.8011425121412
 31
0.0
  0
LINE
  5
272
330
1F
100
AcDbEntity
  8
A-2_蓋
  6
Continuous
 62
     3
370
     9
100
AcDbLine
 10
-1094.18099893106
 20
299.4683260531039
 30
0.0
 11
-1036.014701224662
 21
317.8011425121412
 31
0.0
  0
LINE
  5
273
330
1F
100
AcDbEntity
  8
A-2_蓋
  6
Continuous
 62
     3
370
     9
100
AcDbLine
 10
-1035.34785090266
 20
299.4683260531039
 30
0.0
 11
-977.1814294763512
 21
317.8011425121412
 31
0.0
  0
LINE
  5
274
330
1F
100
AcDbEntity
  8
A-2_蓋
  6
Continuous
 62
     3
370
     9
100
AcDbLine
 10
-976.5145791543496
 20
299.4683260531039
 30
0.0
 11
-918.3480340081292
 21
317.8011425121412
 31
0.0
  0
LINE
  5
275
330
1F
100
AcDbEntity
  8
A-2_蓋
  6
Continuous
 62
     3
370
     9
100
AcDbLine
 10
-917.6810599662161
 20
299.4683260531039
 30
0.0
 11
-859.5146385399071
 21
317.8011425121412
 31
0.0
  0
LINE
  5
276
330
1F
100
AcDbEntity
  8
A-2_蓋
  6
Continuous
 62
     3
370
     9
100
AcDbLine
 10
-858.8477882179053
 20
299.4683260531039
 30
0.0
 11
-800.681366791596
 21
317.8011425121412
 31
0.0
  0
LINE
  5
277
330
1F
100
AcDbEntity
  8
A-2_蓋
  6
Continuous
 62
     3
370
     9
100
AcDbLine
 10
-800.0145164695946
 20
299.4683260531039
 30
0.0
 11
-741.8480950432854
 21
317.8011425121412
 31
0.0
  0
LINE
  5
278
330
1F
100
AcDbEntity
  8
A-2_蓋
  6
Continuous
 62
     3
370
     9
100
AcDbLine
 10
-741.1808735615498
 20
299.4683260531039
 30
0.0
 11
-683.0144521352406
 21
317.8011425121412
 31
0.0
  0
LINE
  5
279
330
1F
100
AcDbEntity
  8
A-2_蓋
  6
Continuous
 62
     3
370
     9
100
AcDbLine
 10
-682.3477255331502
 20
299.4683260531039
 30
0.0
 11
-624.1815515466637
 21
317.8011425121412
 31
0.0
  0
LINE
  5
27A
330
1F
100
AcDbEntity
  8
A-2_蓋
  6
Continuous
 62
     3
370
     9
100
AcDbLine
 10
-623.5145775047508
 20
299.4683260531039
 30
0.0
 11
-565.3481560784417
 21
317.8011425121412
 31
0.0
  0
LINE
  5
27B
330
1F
100
AcDbEntity
  8
A-2_蓋
  6
Continuous
 62
     3
370
     9
100
AcDbLine
 10
-564.6811820365286
 20
299.4683260531039
 30
0.0
 11
-506.5147606102195
 21
317.8011425121412
 31
0.0
  0
LINE
  5
27C
330
1F
100
AcDbEntity
  8
A-2_蓋
  6
Continuous
 62
     3
370
     9
100
AcDbLine
 10
-505.8479102882177
 20
299.4683260531039
 30
0.0
 11
-447.6813651419974
 21
317.8011425121412
 31
0.0
  0
LINE
  5
27D
330
1F
100
AcDbEntity
  8
A-2_蓋
  6
Continuous
 62
     3
370
     9
100
AcDbLine
 10
-447.0145148199956
 20
299.4683260531039
 30
0.0
 11
-388.8480933936864
 21
317.8011425121412
 31
0.0
  0
LINE
  5
27E
330
1F
100
AcDbEntity
  8
A-2_蓋
  6
Continuous
 62
     3
370
     9
100
AcDbLine
 10
-388.1812430716849
 20
299.4683260531039
 30
0.0
 11
-330.014945365287
 21
317.8011425121412
 31
0.0
  0
LINE
  5
27F
330
1F
100
AcDbEntity
  8
A-2_蓋
  6
Continuous
 62
     3
370
     9
100
AcDbLine
 10
-329.3480950432854
 20
299.4683260531039
 30
0.0
 11
-271.1816736169763
 21
317.8011425121412
 31
0.0
  0
LINE
  5
280
330
1F
100
AcDbEntity
  8
A-2_蓋
  6
Continuous
 62
     3
370
     9
100
AcDbLine
 10
-270.5144521352406
 20
299.4683260531039
 30
0.0
 11
-212.3481544288427
 21
317.8011425121412
 31
0.0
  0
LINE
  5
281
330
1F
100
AcDbEntity
  8
A-2_蓋
  6
Continuous
 62
     3
370
     9
100
AcDbLine
 10
-211.6813041068411
 20
299.4683260531039
 30
0.0
 11
-153.514882680532
 21
317.8011425121412
 31
0.0
  0
LINE
  5
282
330
1F
100
AcDbEntity
  8
A-2_蓋
  6
Continuous
 62
     3
370
     9
100
AcDbLine
 10
-152.8480323585302
 20
299.4683260531039
 30
0.0
 11
-94.68173465213255
 21
317.8011425121412
 31
0.0
  0
LINE
  5
283
330
1F
100
AcDbEntity
  8
A-2_蓋
  6
Continuous
 62
     3
370
     9
100
AcDbLine
 10
-94.01488433013071
 20
299.4683260531039
 30
0.0
 11
-35.84858662373307
 21
317.8011425121412
 31
0.0
  0
LINE
  5
284
330
1F
100
AcDbEntity
  8
A-2_蓋
  6
Continuous
 62
     3
370
     9
100
AcDbLine
 10
-35.18124142208592
 20
299.4683260531039
 30
0.0
 11
22.9851800042232
 21
317.8011425121412
 31
0.0
  0
LINE
  5
285
330
1F
100
AcDbEntity
  8
A-2_蓋
  6
Continuous
 62
     3
370
     9
100
AcDbLine
 10
23.65178288640209
 20
299.4683260531039
 30
0.0
 11
81.8182043127112
 21
317.8011425121412
 31
0.0
  0
LINE
  5
286
330
1F
100
AcDbEntity
  8
A-2_蓋
  6
Continuous
 62
     3
370
     9
100
AcDbLine
 10
82.48505463471304
 20
299.4683260531039
 30
0.0
 11
140.6514760610222
 21
317.8011425121412
 31
0.0
  0
LINE
  5
287
330
1F
100
AcDbEntity
  8
A-2_蓋
  6
Continuous
 62
     3
370
     9
100
AcDbLine
 10
141.318821262669
 20
299.4683260531039
 30
0.0
 11
199.4849952491555
 21
317.8011425121412
 31
0.0
  0
LINE
  5
288
330
1F
100
AcDbEntity
  8
A-2_蓋
  6
Continuous
 62
     3
370
     9
100
AcDbLine
 10
200.15209301098
 20
299.4683260531039
 30
0.0
 11
258.3182669974664
 21
317.8011425121412
 31
0.0
  0
LINE
  5
289
330
1F
100
AcDbEntity
  8
A-2_蓋
  6
Continuous
 62
     3
370
     9
100
AcDbLine
 10
258.9848698796453
 20
299.4683260531039
 30
0.0
 11
317.1515387457771
 21
317.8011425121412
 31
0.0
  0
LINE
  5
28A
330
1F
100
AcDbEntity
  8
A-2_蓋
  6
Continuous
 62
     3
370
     9
100
AcDbLine
 10
317.8181416279563
 20
299.4683260531039
 30
0.0
 11
375.984810494088
 21
317.8011425121412
 31
0.0
  0
LINE
  5
28B
330
1F
100
AcDbEntity
  8
A-2_蓋
  6
Continuous
 62
     3
370
     9
100
AcDbLine
 10
-1282.348467852618
 20
314.3341394372891
 30
0.0
 11
-1271.347911937817
 21
317.8011425121412
 31
0.0
  0
LINE
  5
28C
330
1F
100
AcDbEntity
  8
A-2_蓋
  6
Continuous
 62
     3
370
     9
100
AcDbLine
 10
-1270.681061615815
 20
317.8011425121412
 30
0.0
 11
-1270.681061615815
 21
466.1350064664273
 31
0.0
  0
LINE
  5
28D
330
1F
100
AcDbEntity
  8
A-2_蓋
  6
Continuous
 62
     3
370
     9
100
AcDbLine
 10
364.3192600559544
 20
466.1350064664273
 30
0.0
 11
364.3192600559544
 21
317.8011425121412
 31
0.0
  0
LINE
  5
28E
330
1F
100
AcDbEntity
  8
A-2_蓋
  6
Continuous
 62
     3
370
     9
100
AcDbLine
 10
305.4852459881758
 20
466.1350064664273
 30
0.0
 11
305.4852459881758
 21
317.8011425121412
 31
0.0
  0
LINE
  5
28F
330
1F
100
AcDbEntity
  8
A-2_蓋
  6
Continuous
 62
     3
370
     9
100
AcDbLine
 10
317.1522810652451
 20
466.1350064664273
 30
0.0
 11
317.1522810652451
 21
317.8011425121412
 31
0.0
  0
LINE
  5
290
330
1F
100
AcDbEntity
  8
A-2_蓋
  6
Continuous
 62
     3
370
     9
100
AcDbLine
 10
246.6514793602198
 20
466.1350064664273
 30
0.0
 11
246.6514793602198
 21
317.8011425121412
 31
0.0
  0
LINE
  5
291
330
1F
100
AcDbEntity
  8
A-2_蓋
  6
Continuous
 62
     3
370
     9
100
AcDbLine
 10
258.3182669974664
 20
466.1350064664273
 30
0.0
 11
258.3182669974664
 21
317.8011425121412
 31
0.0
  0
LINE
  5
292
330
1F
100
AcDbEntity
  8
A-2_蓋
  6
Continuous
 62
     3
370
     9
100
AcDbLine
 10
187.8187024915542
 20
466.1350064664273
 30
0.0
 11
187.8187024915542
 21
317.8011425121412
 31
0.0
  0
LINE
  5
293
330
1F
100
AcDbEntity
  8
A-2_蓋
  6
Continuous
 62
     3
370
     9
100
AcDbLine
 10
199.4854901288008
 20
466.1350064664273
 30
0.0
 11
199.4854901288008
 21
317.8011425121412
 31
0.0
  0
LINE
  5
294
330
1F
100
AcDbEntity
  8
A-2_蓋
  6
Continuous
 62
     3
370
     9
100
AcDbLine
 10
128.9851833034209
 20
466.1350064664273
 30
0.0
 11
128.9851833034209
 21
317.8011425121412
 31
0.0
  0
LINE
  5
295
330
1F
100
AcDbEntity
  8
A-2_蓋
  6
Continuous
 62
     3
370
     9
100
AcDbLine
 10
140.6517235008448
 20
466.1350064664273
 30
0.0
 11
140.6517235008448
 21
317.8011425121412
 31
0.0
  0
LINE
  5
296
330
1F
100
AcDbEntity
  8
A-2_蓋
  6
Continuous
 62
     3
370
     9
100
AcDbLine
 10
70.15166411528725
 20
466.1350064664273
 30
0.0
 11
70.15166411528725
 21
317.8011425121412
 31
0.0
  0
LINE
  5
297
330
1F
100
AcDbEntity
  8
A-2_蓋
  6
Continuous
 62
     3
370
     9
100
AcDbLine
 10
81.8182043127112
 20
466.1350064664273
 30
0.0
 11
81.8182043127112
 21
317.8011425121412
 31
0.0
  0
LINE
  5
298
330
1F
100
AcDbEntity
  8
A-2_蓋
  6
Continuous
 62
     3
370
     9
100
AcDbLine
 10
11.31888724662161
 20
466.1350064664273
 30
0.0
 11
11.31888724662161
 21
317.8011425121412
 31
0.0
  0
LINE
  5
299
330
1F
100
AcDbEntity
  8
A-2_蓋
  6
Continuous
 62
     3
370
     9
100
AcDbLine
 10
22.9851800042232
 20
466.1350064664273
 30
0.0
 11
22.9851800042232
 21
317.8011425121412
 31
0.0
  0
LINE
  5
29A
330
1F
100
AcDbEntity
  8
A-2_蓋
  6
Continuous
 62
     3
370
     9
100
AcDbLine
 10
-47.51487938133437
 20
466.1350064664273
 30
0.0
 11
-47.51487938133437
 21
317.8011425121412
 31
0.0
  0
LINE
  5
29B
330
1F
100
AcDbEntity
  8
A-2_蓋
  6
Continuous
 62
     3
370
     9
100
AcDbLine
 10
-35.84809174408775
 20
466.1350064664273
 30
0.0
 11
-35.84809174408775
 21
317.8011425121412
 31
0.0
  0
LINE
  5
29C
330
1F
100
AcDbEntity
  8
A-2_蓋
  6
Continuous
 62
     3
370
     9
100
AcDbLine
 10
-106.3485222893792
 20
466.1350064664273
 30
0.0
 11
-106.3485222893792
 21
317.8011425121412
 31
0.0
  0
LINE
  5
29D
330
1F
100
AcDbEntity
  8
A-2_蓋
  6
Continuous
 62
     3
370
     9
100
AcDbLine
 10
-94.68173465213255
 20
466.1350064664273
 30
0.0
 11
-94.68173465213255
 21
317.8011425121412
 31
0.0
  0
LINE
  5
29E
330
1F
100
AcDbEntity
  8
A-2_蓋
  6
Continuous
 62
     3
370
     9
100
AcDbLine
 10
-165.1811754381333
 20
466.1350064664273
 30
0.0
 11
-165.1811754381333
 21
317.8011425121412
 31
0.0
  0
LINE
  5
29F
330
1F
100
AcDbEntity
  8
A-2_蓋
  6
Continuous
 62
     3
370
     9
100
AcDbLine
 10
-153.5143878008867
 20
466.1350064664273
 30
0.0
 11
-153.5143878008867
 21
317.8011425121412
 31
0.0
  0
LINE
  5
2A0
330
1F
100
AcDbEntity
  8
A-2_蓋
  6
Continuous
 62
     3
370
     9
100
AcDbLine
 10
-224.0148183461781
 20
466.1350064664273
 30
0.0
 11
-224.0148183461781
 21
317.8011425121412
 31
0.0
  0
LINE
  5
2A1
330
1F
100
AcDbEntity
  8
A-2_蓋
  6
Continuous
 62
     3
370
     9
100
AcDbLine
 10
-212.3481544288427
 20
466.1350064664273
 30
0.0
 11
-212.3481544288427
 21
317.8011425121412
 31
0.0
  0
LINE
  5
2A2
330
1F
100
AcDbEntity
  8
A-2_蓋
  6
Continuous
 62
     3
370
     9
100
AcDbLine
 10
-282.8484612542229
 20
466.1350064664273
 30
0.0
 11
-282.8484612542229
 21
317.8011425121412
 31
0.0
  0
LINE
  5
2A3
330
1F
100
AcDbEntity
  8
A-2_蓋
  6
Continuous
 62
     3
370
     9
100
AcDbLine
 10
-271.1816736169763
 20
466.1350064664273
 30
0.0
 11
-271.1816736169763
 21
317.8011425121412
 31
0.0
  0
LINE
  5
2A4
330
1F
100
AcDbEntity
  8
A-2_蓋
  6
Continuous
 62
     3
370
     9
100
AcDbLine
 10
-341.6811144029771
 20
466.1350064664273
 30
0.0
 11
-341.6811144029771
 21
317.8011425121412
 31
0.0
  0
LINE
  5
2A5
330
1F
100
AcDbEntity
  8
A-2_蓋
  6
Continuous
 62
     3
370
     9
100
AcDbLine
 10
-330.0145742055531
 20
466.1350064664273
 30
0.0
 11
-330.0145742055531
 21
317.8011425121412
 31
0.0
  0
LINE
  5
2A6
330
1F
100
AcDbEntity
  8
A-2_蓋
  6
Continuous
 62
     3
370
     9
100
AcDbLine
 10
-400.5147573110219
 20
466.1350064664273
 30
0.0
 11
-400.5147573110219
 21
317.8011425121412
 31
0.0
  0
LINE
  5
2A7
330
1F
100
AcDbEntity
  8
A-2_蓋
  6
Continuous
 62
     3
370
     9
100
AcDbLine
 10
-388.8480933936864
 20
466.1350064664273
 30
0.0
 11
-388.8480933936864
 21
317.8011425121412
 31
0.0
  0
LINE
  5
2A8
330
1F
100
AcDbEntity
  8
A-2_蓋
  6
Continuous
 62
     3
370
     9
100
AcDbLine
 10
-459.347410459776
 20
466.1350064664273
 30
0.0
 11
-459.347410459776
 21
317.8011425121412
 31
0.0
  0
LINE
  5
2A9
330
1F
100
AcDbEntity
  8
A-2_蓋
  6
Continuous
 62
     3
370
     9
100
AcDbLine
 10
-447.6809939822635
 20
466.1350064664273
 30
0.0
 11
-447.6809939822635
 21
317.8011425121412
 31
0.0
  0
LINE
  5
2AA
330
1F
100
AcDbEntity
  8
A-2_蓋
  6
Continuous
 62
     3
370
     9
100
AcDbLine
 10
-518.1811770877323
 20
466.1350064664273
 30
0.0
 11
-518.1811770877323
 21
317.8011425121412
 31
0.0
  0
LINE
  5
2AB
330
1F
100
AcDbEntity
  8
A-2_蓋
  6
Continuous
 62
     3
370
     9
100
AcDbLine
 10
-506.5143894504857
 20
466.1350064664273
 30
0.0
 11
-506.5143894504857
 21
317.8011425121412
 31
0.0
  0
LINE
  5
2AC
330
1F
100
AcDbEntity
  8
A-2_蓋
  6
Continuous
 62
     3
370
     9
100
AcDbLine
 10
-577.0149437156883
 20
466.1350064664273
 30
0.0
 11
-577.0149437156883
 21
317.8011425121412
 31
0.0
  0
LINE
  5
2AD
330
1F
100
AcDbEntity
  8
A-2_蓋
  6
Continuous
 62
     3
370
     9
100
AcDbLine
 10
-565.3481560784417
 20
466.1350064664273
 30
0.0
 11
-565.3481560784417
 21
317.8011425121412
 31
0.0
  0
LINE
  5
2AE
330
1F
100
AcDbEntity
  8
A-2_蓋
  6
Continuous
 62
     3
370
     9
100
AcDbLine
 10
-635.8474731445312
 20
466.1350064664273
 30
0.0
 11
-635.8474731445312
 21
317.8011425121412
 31
0.0
  0
LINE
  5
2AF
330
1F
100
AcDbEntity
  8
A-2_蓋
  6
Continuous
 62
     3
370
     9
100
AcDbLine
 10
-624.1810566670185
 20
466.1350064664273
 30
0.0
 11
-624.1810566670185
 21
317.8011425121412
 31
0.0
  0
LINE
  5
2B0
330
1F
100
AcDbEntity
  8
A-2_蓋
  6
Continuous
 62
     3
370
     9
100
AcDbLine
 10
-694.6812397724873
 20
466.1350064664273
 30
0.0
 11
-694.6812397724873
 21
317.8011425121412
 31
0.0
  0
LINE
  5
2B1
330
1F
100
AcDbEntity
  8
A-2_蓋
  6
Continuous
 62
     3
370
     9
100
AcDbLine
 10
-683.0144521352406
 20
466.1350064664273
 30
0.0
 11
-683.0144521352406
 21
317.8011425121412
 31
0.0
  0
LINE
  5
2B2
330
1F
100
AcDbEntity
  8
A-2_蓋
  6
Continuous
 62
     3
370
     9
100
AcDbLine
 10
-753.514140361064
 20
466.1350064664273
 30
0.0
 11
-753.514140361064
 21
317.8011425121412
 31
0.0
  0
LINE
  5
2B3
330
1F
100
AcDbEntity
  8
A-2_蓋
  6
Continuous
 62
     3
370
     9
100
AcDbLine
 10
-741.8473527238175
 20
466.1350064664273
 30
0.0
 11
-741.8473527238175
 21
317.8011425121412
 31
0.0
  0
LINE
  5
2B4
330
1F
100
AcDbEntity
  8
A-2_蓋
  6
Continuous
 62
     3
370
     9
100
AcDbLine
 10
-812.3476595491977
 20
466.1350064664273
 30
0.0
 11
-812.3476595491977
 21
317.8011425121412
 31
0.0
  0
LINE
  5
2B5
330
1F
100
AcDbEntity
  8
A-2_蓋
  6
Continuous
 62
     3
370
     9
100
AcDbLine
 10
-800.6811193517738
 20
466.1350064664273
 30
0.0
 11
-800.6811193517738
 21
317.8011425121412
 31
0.0
  0
LINE
  5
2B6
330
1F
100
AcDbEntity
  8
A-2_蓋
  6
Continuous
 62
     3
370
     9
100
AcDbLine
 10
-871.181178737331
 20
466.1350064664273
 30
0.0
 11
-871.181178737331
 21
317.8011425121412
 31
0.0
  0
LINE
  5
2B7
330
1F
100
AcDbEntity
  8
A-2_蓋
  6
Continuous
 62
     3
370
     9
100
AcDbLine
 10
-859.5146385399071
 20
466.1350064664273
 30
0.0
 11
-859.5146385399071
 21
317.8011425121412
 31
0.0
  0
LINE
  5
2B8
330
1F
100
AcDbEntity
  8
A-2_蓋
  6
Continuous
 62
     3
370
     9
100
AcDbLine
 10
-930.0140793259079
 20
466.1350064664273
 30
0.0
 11
-930.0140793259079
 21
317.8011425121412
 31
0.0
  0
LINE
  5
2B9
330
1F
100
AcDbEntity
  8
A-2_蓋
  6
Continuous
 62
     3
370
     9
100
AcDbLine
 10
-918.3474154085725
 20
466.1350064664273
 30
0.0
 11
-918.3474154085725
 21
317.8011425121412
 31
0.0
  0
LINE
  5
2BA
330
1F
100
AcDbEntity
  8
A-2_蓋
  6
Continuous
 62
     3
370
     9
100
AcDbLine
 10
-988.8477222339526
 20
466.1350064664273
 30
0.0
 11
-988.8477222339526
 21
317.8011425121412
 31
0.0
  0
LINE
  5
2BB
330
1F
100
AcDbEntity
  8
A-2_蓋
  6
Continuous
 62
     3
370
     9
100
AcDbLine
 10
-977.1810583166173
 20
466.1350064664273
 30
0.0
 11
-977.1810583166173
 21
317.8011425121412
 31
0.0
  0
LINE
  5
2BC
330
1F
100
AcDbEntity
  8
A-2_蓋
  6
Continuous
 62
     3
370
     9
100
AcDbLine
 10
-1047.681241422086
 20
466.1350064664273
 30
0.0
 11
-1047.681241422086
 21
317.8011425121412
 31
0.0
  0
LINE
  5
2BD
330
1F
100
AcDbEntity
  8
A-2_蓋
  6
Continuous
 62
     3
370
     9
100
AcDbLine
 10
-1036.014701224662
 20
466.1350064664273
 30
0.0
 11
-1036.014701224662
 21
317.8011425121412
 31
0.0
  0
LINE
  5
2BE
330
1F
100
AcDbEntity
  8
A-2_蓋
  6
Continuous
 62
     3
370
     9
100
AcDbLine
 10
-1106.514018290752
 20
466.1350064664273
 30
0.0
 11
-1106.514018290752
 21
317.8011425121412
 31
0.0
  0
LINE
  5
2BF
330
1F
100
AcDbEntity
  8
A-2_蓋
  6
Continuous
 62
     3
370
     9
100
AcDbLine
 10
-1094.847478093327
 20
466.1350064664273
 30
0.0
 11
-1094.847478093327
 21
317.8011425121412
 31
0.0
  0
LINE
  5
2C0
330
1F
100
AcDbEntity
  8
A-2_蓋
  6
Continuous
 62
     3
370
     9
100
AcDbLine
 10
-1165.347784918708
 20
466.1350064664273
 30
0.0
 11
-1165.347784918708
 21
317.8011425121412
 31
0.0
  0
LINE
  5
2C1
330
1F
100
AcDbEntity
  8
A-2_蓋
  6
Continuous
 62
     3
370
     9
100
AcDbLine
 10
-1153.680997281461
 20
466.1350064664273
 30
0.0
 11
-1153.680997281461
 21
317.8011425121412
 31
0.0
  0
LINE
  5
2C2
330
1F
100
AcDbEntity
  8
A-2_蓋
  6
Continuous
 62
     3
370
     9
100
AcDbLine
 10
-1224.181304106841
 20
466.1350064664273
 30
0.0
 11
-1224.181304106841
 21
317.8011425121412
 31
0.0
  0
LINE
  5
2C3
330
1F
100
AcDbEntity
  8
A-2_蓋
  6
Continuous
 62
     3
370
     9
100
AcDbLine
 10
-1212.514516469595
 20
466.1350064664273
 30
0.0
 11
-1212.514516469595
 21
317.8011425121412
 31
0.0
  0
LINE
  5
2C4
330
1F
100
AcDbEntity
  8
A-4_寸法
  6
Continuous
 62
     7
370
     9
100
AcDbLine
 10
-1298.181894663218
 20
-378.6937074403504
 30
0.0
 11
391.8187321843328
 21
-378.6937074403504
 31
0.0
  0
LINE
  5
2C5
330
1F
100
AcDbEntity
  8
A-4_寸法
  6
Continuous
 62
     7
370
     9
100
AcDbLine
 10
-1298.181894663218
 20
-181.3656451251055
 30
0.0
 11
-1298.181894663218
 21
-381.6936678499787
 31
0.0
  0
LINE
  5
2C6
330
1F
100
AcDbEntity
  8
A-4_寸法
  6
Continuous
 62
     7
370
     9
100
AcDbLine
 10
391.8187321843328
 20
-181.3656451251055
 30
0.0
 11
391.8187321843328
 21
-381.6936678499787
 31
0.0
  0
LINE
  5
2C7
330
1F
100
AcDbEntity
  8
A-4_寸法
  6
Continuous
 62
     7
370
     9
100
AcDbLine
 10
-1298.182142103041
 20
-297.6126263592694
 30
0.0
 11
-1288.181861671242
 21
-297.6126263592694
 31
0.0
  0
LINE
  5
2C8
330
1F
100
AcDbEntity
  8
A-4_寸法
  6
Continuous
 62
     7
370
     9
100
AcDbLine
 10
-1298.182142103041
 20
-312.6126758472338
 30
0.0
 11
-1298.182142103041
 21
-300.6125867688978
 31
0.0
  0
LINE
  5
2C9
330
1F
100
AcDbEntity
  8
A-4_寸法
  6
Continuous
 62
     7
370
     9
100
AcDbLine
 10
-1288.181861671242
 20
-181.3656451251055
 30
0.0
 11
-1288.181861671242
 21
-300.6125867688978
 31
0.0
  0
LINE
  5
2CA
330
1F
100
AcDbEntity
  8
A-4_寸法
  6
Continuous
 62
     7
370
     9
100
AcDbLine
 10
-1288.181861671242
 20
-297.6126263592694
 30
0.0
 11
-1282.348467852618
 21
-297.6126263592694
 31
0.0
  0
LINE
  5
2CB
330
1F
100
AcDbEntity
  8
A-4_寸法
  6
Continuous
 62
     7
370
     9
100
AcDbLine
 10
-1282.348467852618
 20
-164.6988409918708
 30
0.0
 11
-1282.348467852618
 21
-300.6125867688978
 31
0.0
  0
LINE
  5
2CC
330
1F
100
AcDbEntity
  8
A-4_寸法
  6
Continuous
 62
     7
370
     9
100
AcDbLine
 10
-1361.6925213788
 20
-297.6126263592694
 30
0.0
 11
434.5909324852198
 21
-297.6126263592694
 31
0.0
  0
LINE
  5
2CD
330
1F
100
AcDbEntity
  8
A-4_寸法
  6
Continuous
 62
     7
370
     9
100
AcDbLine
 10
375.9853053737334
 20
-164.6988409918708
 30
0.0
 11
375.9853053737334
 21
-300.6125867688978
 31
0.0
  0
LINE
  5
2CE
330
1F
100
AcDbEntity
  8
A-4_寸法
  6
Continuous
 62
     7
370
     9
100
AcDbLine
 10
375.9853053737334
 20
-297.6126263592694
 30
0.0
 11
381.8186991923565
 21
-297.6126263592694
 31
0.0
  0
LINE
  5
2CF
330
1F
100
AcDbEntity
  8
A-4_寸法
  6
Continuous
 62
     7
370
     9
100
AcDbLine
 10
381.8186991923565
 20
-181.3656451251055
 30
0.0
 11
381.8186991923565
 21
-300.6125867688978
 31
0.0
  0
LINE
  5
2D0
330
1F
100
AcDbEntity
  8
A-4_寸法
  6
Continuous
 62
     7
370
     9
100
AcDbLine
 10
381.8186991923565
 20
-297.6126263592694
 30
0.0
 11
391.8187321843328
 21
-297.6126263592694
 31
0.0
  0
LINE
  5
2D1
330
1F
100
AcDbEntity
  8
A-4_寸法
  6
Continuous
 62
     7
370
     9
100
AcDbLine
 10
391.8187321843328
 20
-181.3656451251055
 30
0.0
 11
391.8187321843328
 21
-300.6125867688978
 31
0.0
  0
LINE
  5
2D2
330
1F
100
AcDbEntity
  8
A-1_ピット
  6
Continuous
 62
     2
370
     9
100
AcDbLine
 10
1259.494430954392
 20
950.3012497360644
 30
0.0
 11
1144.494546426309
 21
950.3012497360644
 31
0.0
  0
LINE
  5
2D3
330
1F
100
AcDbEntity
  8
A-1_ピット
  6
Continuous
 62
     2
370
     9
100
AcDbLine
 10
1229.494579418285
 20
950.3012497360644
 30
0.0
 11
1229.494579418285
 21
965.3015466638516
 31
0.0
  0
LINE
  5
2D4
330
1F
100
AcDbEntity
  8
A-1_ピット
  6
Continuous
 62
     2
370
     9
100
AcDbLine
 10
1252.519844673775
 20
965.3015466638516
 30
0.0
 11
1229.494579418285
 21
965.3015466638516
 31
0.0
  0
LINE
  5
2D5
330
1F
100
AcDbEntity
  8
A-1_ピット
  6
Continuous
 62
     2
370
     9
100
AcDbLine
 10
1260.284258868243
 20
951.3236710831927
 30
0.0
 11
1357.269039669553
 21
977.3105435758026
 31
0.0
  0
LINE
  5
2D6
330
1F
100
AcDbEntity
  8
A-1_ピット
  6
Continuous
 62
     2
370
     9
100
AcDbLine
 10
1256.402175490921
 20
965.8125098975929
 30
0.0
 11
1353.386708852407
 21
991.7993823902029
 31
0.0
  0
LINE
  5
2D7
330
1F
100
AcDbEntity
  8
A-1_ピット
  6
JWW_CENTER2
 62
     2
370
     9
100
AcDbLine
 10
1252.519597233953
 20
957.8013981999578
 30
0.0
 11
1223.15294420397
 21
957.8013981999578
 31
0.0
  0
LINE
  5
2D8
330
1F
100
AcDbEntity
  8
A-1_ピット
  6
JWW_CENTER2
 62
     2
370
     9
100
AcDbLine
 10
1258.343093459671
 20
958.5679667704815
 30
0.0
 11
1366.954081767315
 21
987.6701066300677
 31
0.0
  0
LINE
  5
2D9
330
1F
100
AcDbEntity
  8
A-1_ピット
  6
Continuous
 62
     2
370
     9
100
AcDbLine
 10
1279.494496938345
 20
950.3012497360644
 30
0.0
 11
1279.494496938345
 21
850.301414695946
 31
0.0
  0
LINE
  5
2DA
330
1F
100
AcDbEntity
  8
A-1_ピット
  6
Continuous
 62
     2
370
     9
100
AcDbLine
 10
1279.494496938345
 20
950.3012497360644
 30
0.0
 11
1229.494579418285
 21
950.3012497360644
 31
0.0
  0
LINE
  5
2DB
330
1F
100
AcDbEntity
  8
A-1_ピット
  6
Continuous
 62
     2
370
     9
100
AcDbLine
 10
1149.494562922298
 20
940.3014641839106
 30
0.0
 11
1261.161185599663
 21
940.3014641839106
 31
0.0
  0
LINE
  5
2DC
330
1F
100
AcDbEntity
  8
A-1_ピット
  6
Continuous
 62
     2
370
     9
100
AcDbLine
 10
1144.494546426309
 20
945.301233240076
 30
0.0
 11
1144.494546426309
 21
950.3012497360644
 31
0.0
  0
LINE
  5
2DD
330
1F
100
AcDbEntity
  8
A-1_ピット
  6
Continuous
 62
     2
370
     9
100
AcDbLine
 10
1274.494480442357
 20
850.301414695946
 30
0.0
 11
1279.494496938345
 21
850.301414695946
 31
0.0
  0
LINE
  5
2DE
330
1F
100
AcDbEntity
  8
A-1_ピット
  6
Continuous
 62
     2
370
     9
100
AcDbLine
 10
1269.494463946368
 20
855.3014311919342
 30
0.0
 11
1269.494463946368
 21
931.9681858372044
 31
0.0
  0
LINE
  5
2DF
330
1F
100
AcDbEntity
  8
A-2_蓋
  6
Continuous
 62
     3
370
     9
100
AcDbLine
 10
1252.827907252956
 20
933.6346930426521
 30
0.0
 11
1252.827907252956
 21
926.1347920185813
 31
0.0
  0
LINE
  5
2E0
330
1F
100
AcDbEntity
  8
A-2_蓋
  6
Continuous
 62
     3
370
     9
100
AcDbLine
 10
1163.35069811022
 20
808.6350229624156
 30
0.0
 11
1153.922745988176
 21
799.2070708403717
 31
0.0
  0
LINE
  5
2E1
330
1F
100
AcDbEntity
  8
A-2_蓋
  6
Continuous
 62
     3
370
     9
100
AcDbLine
 10
1153.922745988176
 20
799.2070708403717
 30
0.0
 11
1144.494546426309
 21
808.6350229624156
 31
0.0
  0
LINE
  5
2E2
330
1F
100
AcDbEntity
  8
A-2_蓋
  6
Continuous
 62
     3
370
     9
100
AcDbLine
 10
1144.494546426309
 20
808.6350229624156
 30
0.0
 11
1153.922745988176
 21
818.0632225242823
 31
0.0
  0
LINE
  5
2E3
330
1F
100
AcDbEntity
  8
A-2_蓋
  6
Continuous
 62
     3
370
     9
100
AcDbLine
 10
1153.922745988176
 20
818.0632225242823
 30
0.0
 11
1163.35069811022
 21
808.6350229624156
 31
0.0
  0
LINE
  5
2E4
330
1F
100
AcDbEntity
  8
A-2_蓋
  6
Continuous
 62
     3
370
     9
100
AcDbLine
 10
1144.494546426309
 20
933.6346930426521
 30
0.0
 11
1252.827907252956
 21
933.6346930426521
 31
0.0
  0
LINE
  5
2E5
330
1F
100
AcDbEntity
  8
A-A
  6
Continuous
 62
     3
370
     9
100
AcDbLine
 10
1141.994414458404
 20
922.5627507390203
 30
0.0
 11
1141.994414458404
 21
917.5627342430323
 31
0.0
  0
LINE
  5
2E6
330
1F
100
AcDbEntity
  8
A-A
  6
Continuous
 62
     3
370
     9
100
AcDbLine
 10
1141.994414458404
 20
922.5627507390203
 30
0.0
 11
1144.494546426309
 21
924.2292579444679
 31
0.0
  0
LINE
  5
2E7
330
1F
100
AcDbEntity
  8
A-A
  6
Continuous
 62
     3
370
     9
100
AcDbLine
 10
1141.994414458404
 20
895.7076119087839
 30
0.0
 11
1144.494546426309
 21
894.0411047033363
 31
0.0
  0
LINE
  5
2E8
330
1F
100
AcDbEntity
  8
A-A
  6
Continuous
 62
     3
370
     9
100
AcDbLine
 10
1141.994414458404
 20
905.7076449007602
 30
0.0
 11
1141.994414458404
 21
895.7076119087839
 31
0.0
  0
LINE
  5
2E9
330
1F
100
AcDbEntity
  8
A-A
  6
Continuous
 62
     3
370
     9
100
AcDbLine
 10
1141.994414458404
 20
905.7076449007602
 30
0.0
 11
1144.494546426309
 21
907.3743995460304
 31
0.0
  0
LINE
  5
2EA
330
1F
100
AcDbEntity
  8
A-A
  6
Continuous
 62
     3
370
     9
100
AcDbLine
 10
1144.494546426309
 20
915.895979597762
 30
0.0
 11
1144.494546426309
 21
907.3743995460304
 31
0.0
  0
LINE
  5
2EB
330
1F
100
AcDbEntity
  8
A-A
  6
Continuous
 62
     3
370
     9
100
AcDbLine
 10
1141.994414458404
 20
917.5627342430323
 30
0.0
 11
1144.494546426309
 21
915.895979597762
 31
0.0
  0
LINE
  5
2EC
330
1F
100
AcDbEntity
  8
A-A
  6
Continuous
 62
     3
370
     9
100
AcDbLine
 10
1141.994414458404
 20
883.8527700063346
 30
0.0
 11
1141.994414458404
 21
878.8527535103464
 31
0.0
  0
LINE
  5
2ED
330
1F
100
AcDbEntity
  8
A-A
  6
Continuous
 62
     3
370
     9
100
AcDbLine
 10
1141.994414458404
 20
883.8527700063346
 30
0.0
 11
1144.494546426309
 21
885.5192772117823
 31
0.0
  0
LINE
  5
2EE
330
1F
100
AcDbEntity
  8
A-A
  6
Continuous
 62
     3
370
     9
100
AcDbLine
 10
1141.994414458404
 20
856.9976311760981
 30
0.0
 11
1144.494546426309
 21
855.3311239706505
 31
0.0
  0
LINE
  5
2EF
330
1F
100
AcDbEntity
  8
A-A
  6
Continuous
 62
     3
370
     9
100
AcDbLine
 10
1141.994414458404
 20
866.9976641680745
 30
0.0
 11
1141.994414458404
 21
856.9976311760981
 31
0.0
  0
LINE
  5
2F0
330
1F
100
AcDbEntity
  8
A-A
  6
Continuous
 62
     3
370
     9
100
AcDbLine
 10
1141.994414458404
 20
866.9976641680745
 30
0.0
 11
1144.494546426309
 21
868.6644188133448
 31
0.0
  0
LINE
  5
2F1
330
1F
100
AcDbEntity
  8
A-A
  6
Continuous
 62
     3
370
     9
100
AcDbLine
 10
1144.494546426309
 20
877.185998865076
 30
0.0
 11
1144.494546426309
 21
868.6644188133448
 31
0.0
  0
LINE
  5
2F2
330
1F
100
AcDbEntity
  8
A-A
  6
Continuous
 62
     3
370
     9
100
AcDbLine
 10
1141.994414458404
 20
878.8527535103464
 30
0.0
 11
1144.494546426309
 21
877.185998865076
 31
0.0
  0
LINE
  5
2F3
330
1F
100
AcDbEntity
  8
A-A
  6
Continuous
 62
     3
370
     9
100
AcDbLine
 10
1144.494546426309
 20
885.5192772117823
 30
0.0
 11
1144.494546426309
 21
894.0411047033363
 31
0.0
  0
LINE
  5
2F4
330
1F
100
AcDbEntity
  8
A-A
  6
Continuous
 62
     3
370
     9
100
AcDbLine
 10
1141.994414458404
 20
845.1427892736488
 30
0.0
 11
1141.994414458404
 21
840.1427727776606
 31
0.0
  0
LINE
  5
2F5
330
1F
100
AcDbEntity
  8
A-A
  6
Continuous
 62
     3
370
     9
100
AcDbLine
 10
1141.994414458404
 20
845.1427892736488
 30
0.0
 11
1144.494546426309
 21
846.8092964790964
 31
0.0
  0
LINE
  5
2F6
330
1F
100
AcDbEntity
  8
A-A
  6
Continuous
 62
     3
370
     9
100
AcDbLine
 10
1141.994414458404
 20
818.2876504434123
 30
0.0
 11
1144.494546426309
 21
816.6211432379646
 31
0.0
  0
LINE
  5
2F7
330
1F
100
AcDbEntity
  8
A-A
  6
Continuous
 62
     3
370
     9
100
AcDbLine
 10
1141.994414458404
 20
828.2876834353885
 30
0.0
 11
1141.994414458404
 21
818.2876504434123
 31
0.0
  0
LINE
  5
2F8
330
1F
100
AcDbEntity
  8
A-A
  6
Continuous
 62
     3
370
     9
100
AcDbLine
 10
1141.994414458404
 20
828.2876834353885
 30
0.0
 11
1144.494546426309
 21
829.9544380806589
 31
0.0
  0
LINE
  5
2F9
330
1F
100
AcDbEntity
  8
A-A
  6
Continuous
 62
     3
370
     9
100
AcDbLine
 10
1144.494546426309
 20
838.4760181323904
 30
0.0
 11
1144.494546426309
 21
829.9544380806589
 31
0.0
  0
LINE
  5
2FA
330
1F
100
AcDbEntity
  8
A-A
  6
Continuous
 62
     3
370
     9
100
AcDbLine
 10
1141.994414458404
 20
840.1427727776606
 30
0.0
 11
1144.494546426309
 21
838.4760181323904
 31
0.0
  0
LINE
  5
2FB
330
1F
100
AcDbEntity
  8
A-A
  6
Continuous
 62
     3
370
     9
100
AcDbLine
 10
1144.494546426309
 20
846.8092964790964
 30
0.0
 11
1144.494546426309
 21
855.3311239706505
 31
0.0
  0
LINE
  5
2FC
330
1F
100
AcDbEntity
  8
A-A
  6
Continuous
 62
     3
370
     9
100
AcDbLine
 10
1141.994414458404
 20
806.4325611011404
 30
0.0
 11
1141.994414458404
 21
801.4327920449748
 31
0.0
  0
LINE
  5
2FD
330
1F
100
AcDbEntity
  8
A-A
  6
Continuous
 62
     3
370
     9
100
AcDbLine
 10
1141.994414458404
 20
806.4325611011404
 30
0.0
 11
1144.494546426309
 21
808.0993157464106
 31
0.0
  0
LINE
  5
2FE
330
1F
100
AcDbEntity
  8
A-A
  6
Continuous
 62
     3
370
     9
100
AcDbLine
 10
1141.994414458404
 20
801.4327920449748
 30
0.0
 11
1144.494546426309
 21
799.7660373997044
 31
0.0
  0
LINE
  5
2FF
330
1F
100
AcDbEntity
  8
A-A
  6
Continuous
 62
     3
370
     9
100
AcDbLine
 10
1144.494546426309
 20
808.0993157464106
 30
0.0
 11
1144.494546426309
 21
816.6211432379646
 31
0.0
  0
LINE
  5
300
330
1F
100
AcDbEntity
  8
A-A
  6
Continuous
 62
     3
370
     9
100
AcDbLine
 10
1144.494546426309
 20
933.6346930426521
 30
0.0
 11
1144.494546426309
 21
924.2292579444679
 31
0.0
  0
LINE
  5
301
330
1F
100
AcDbEntity
  8
A-A
  6
Continuous
 62
     3
370
     9
100
AcDbLine
 10
1141.994414458404
 20
779.5776697107266
 30
0.0
 11
1144.494546426309
 21
777.9109150654563
 31
0.0
  0
LINE
  5
302
330
1F
100
AcDbEntity
  8
A-A
  6
Continuous
 62
     3
370
     9
100
AcDbLine
 10
1141.994414458404
 20
789.5774552628802
 30
0.0
 11
1141.994414458404
 21
779.5776697107266
 31
0.0
  0
LINE
  5
303
330
1F
100
AcDbEntity
  8
A-A
  6
Continuous
 62
     3
370
     9
100
AcDbLine
 10
1141.994414458404
 20
789.5774552628802
 30
0.0
 11
1144.494546426309
 21
791.2442099081505
 31
0.0
  0
LINE
  5
304
330
1F
100
AcDbEntity
  8
A-A
  6
Continuous
 62
     3
370
     9
100
AcDbLine
 10
1144.494546426309
 20
799.7660373997044
 30
0.0
 11
1144.494546426309
 21
791.2442099081505
 31
0.0
  0
LINE
  5
305
330
1F
100
AcDbEntity
  8
A-A
  6
Continuous
 62
     3
370
     9
100
AcDbLine
 10
1141.994414458404
 20
767.7225803684544
 30
0.0
 11
1141.994414458404
 21
762.7228113122891
 31
0.0
  0
LINE
  5
306
330
1F
100
AcDbEntity
  8
A-A
  6
Continuous
 62
     3
370
     9
100
AcDbLine
 10
1141.994414458404
 20
767.7225803684544
 30
0.0
 11
1144.494546426309
 21
769.3893350137248
 31
0.0
  0
LINE
  5
307
330
1F
100
AcDbEntity
  8
A-A
  6
Continuous
 62
     3
370
     9
100
AcDbLine
 10
1141.994414458404
 20
762.7228113122891
 30
0.0
 11
1144.494546426309
 21
761.0560566670188
 31
0.0
  0
LINE
  5
308
330
1F
100
AcDbEntity
  8
A-A
  6
Continuous
 62
     3
370
     9
100
AcDbLine
 10
1144.494546426309
 20
769.3893350137248
 30
0.0
 11
1144.494546426309
 21
777.9109150654563
 31
0.0
  0
LINE
  5
309
330
1F
100
AcDbEntity
  8
A-A
  6
Continuous
 62
     3
370
     9
100
AcDbLine
 10
1141.994414458404
 20
740.8676889780406
 30
0.0
 11
1144.494546426309
 21
739.2009343327703
 31
0.0
  0
LINE
  5
30A
330
1F
100
AcDbEntity
  8
A-A
  6
Continuous
 62
     3
370
     9
100
AcDbLine
 10
1141.994414458404
 20
750.8674745301943
 30
0.0
 11
1141.994414458404
 21
740.8676889780406
 31
0.0
  0
LINE
  5
30B
330
1F
100
AcDbEntity
  8
A-A
  6
Continuous
 62
     3
370
     9
100
AcDbLine
 10
1141.994414458404
 20
750.8674745301943
 30
0.0
 11
1144.494546426309
 21
752.5342291754646
 31
0.0
  0
LINE
  5
30C
330
1F
100
AcDbEntity
  8
A-A
  6
Continuous
 62
     3
370
     9
100
AcDbLine
 10
1144.494546426309
 20
761.0560566670188
 30
0.0
 11
1144.494546426309
 21
752.5342291754646
 31
0.0
  0
LINE
  5
30D
330
1F
100
AcDbEntity
  8
A-2_蓋
  6
Continuous
 62
     3
370
     9
100
AcDbLine
 10
1269.494463946368
 20
926.1347920185813
 30
0.0
 11
1269.494463946368
 21
701.0788706186656
 31
0.0
  0
LINE
  5
30E
330
1F
100
AcDbEntity
  8
A-A
  6
Continuous
 62
     3
370
     9
100
AcDbLine
 10
1141.994414458404
 20
729.0125996357688
 30
0.0
 11
1141.994414458404
 21
724.0125831397804
 31
0.0
  0
LINE
  5
30F
330
1F
100
AcDbEntity
  8
A-A
  6
Continuous
 62
     3
370
     9
100
AcDbLine
 10
1141.994414458404
 20
729.0125996357688
 30
0.0
 11
1144.494546426309
 21
730.6793542810391
 31
0.0
  0
LINE
  5
310
330
1F
100
AcDbEntity
  8
A-A
  6
Continuous
 62
     3
370
     9
100
AcDbLine
 10
1141.994414458404
 20
724.0125831397804
 30
0.0
 11
1144.494546426309
 21
722.3458284945102
 31
0.0
  0
LINE
  5
311
330
1F
100
AcDbEntity
  8
A-A
  6
Continuous
 62
     3
370
     9
100
AcDbLine
 10
1144.494546426309
 20
730.6793542810391
 30
0.0
 11
1144.494546426309
 21
739.2009343327703
 31
0.0
  0
LINE
  5
312
330
1F
100
AcDbEntity
  8
A-A
  6
Continuous
 62
     3
370
     9
100
AcDbLine
 10
1141.994414458404
 20
712.157246357686
 30
0.0
 11
1141.994414458404
 21
702.1574608055323
 31
0.0
  0
LINE
  5
313
330
1F
100
AcDbEntity
  8
A-A
  6
Continuous
 62
     3
370
     9
100
AcDbLine
 10
1141.994414458404
 20
712.157246357686
 30
0.0
 11
1144.494546426309
 21
713.8240010029563
 31
0.0
  0
LINE
  5
314
330
1F
100
AcDbEntity
  8
A-A
  6
Continuous
 62
     3
370
     9
100
AcDbLine
 10
1144.494546426309
 20
722.3458284945102
 30
0.0
 11
1144.494546426309
 21
713.8240010029563
 31
0.0
  0
LINE
  5
315
330
1F
100
AcDbEntity
  8
A-2_蓋
  6
Continuous
 62
     3
370
     9
100
AcDbLine
 10
1166.994496938345
 20
701.0788706186656
 30
0.0
 11
1166.994496938345
 21
926.1347920185813
 31
0.0
  0
LINE
  5
316
330
1F
100
AcDbEntity
  8
A-2_蓋
  6
Continuous
 62
     3
370
     9
100
AcDbLine
 10
1164.49436497044
 20
701.0788706186656
 30
0.0
 11
1164.49436497044
 21
926.1347920185813
 31
0.0
  0
LINE
  5
317
330
1F
100
AcDbEntity
  8
A-2_蓋
  6
Continuous
 62
     3
370
     9
100
AcDbLine
 10
1246.994760874156
 20
926.1347920185813
 30
0.0
 11
1246.994760874156
 21
924.7899565825592
 31
0.0
  0
LINE
  5
318
330
1F
100
AcDbEntity
  8
A-2_蓋
  6
Continuous
 62
     3
370
     9
100
AcDbLine
 10
1249.494645402239
 20
926.1347920185813
 30
0.0
 11
1249.494645402239
 21
924.651885161529
 31
0.0
  0
LINE
  5
319
330
1F
100
AcDbEntity
  8
A-2_蓋
  6
Continuous
 62
     3
370
     9
100
AcDbLine
 10
1144.494546426309
 20
926.1347920185813
 30
0.0
 11
1252.827907252956
 21
926.1347920185813
 31
0.0
  0
LINE
  5
31A
330
1F
100
AcDbEntity
  8
A-2_蓋
  6
Continuous
 62
     3
370
     9
100
AcDbLine
 10
1257.661149308489
 20
926.1347920185813
 30
0.0
 11
1269.494463946368
 21
926.1347920185813
 31
0.0
  0
LINE
  5
31B
330
1F
100
AcDbEntity
  8
A-2_蓋
  6
Continuous
 62
     3
370
     9
100
AcDbLine
 10
1249.494645402239
 20
919.8112199113177
 30
0.0
 11
1249.494645402239
 21
902.6344423036318
 31
0.0
  0
LINE
  5
31C
330
1F
100
AcDbEntity
  8
A-2_蓋
  6
Continuous
 62
     3
370
     9
100
AcDbLine
 10
1249.494645402239
 20
897.8014476879224
 30
0.0
 11
1249.494645402239
 21
701.0788706186656
 31
0.0
  0
LINE
  5
31D
330
1F
100
AcDbEntity
  8
A-2_蓋
  6
Continuous
 62
     3
370
     9
100
AcDbLine
 10
1246.994760874156
 20
919.9492913323481
 30
0.0
 11
1246.994760874156
 21
902.6344423036318
 31
0.0
  0
LINE
  5
31E
330
1F
100
AcDbEntity
  8
A-2_蓋
  6
Continuous
 62
     3
370
     9
100
AcDbLine
 10
1246.994760874156
 20
897.8014476879224
 30
0.0
 11
1246.994760874156
 21
701.0788706186656
 31
0.0
  0
LINE
  5
31F
330
1F
100
AcDbEntity
  8
A-3_受枠
  6
Continuous
 62
     4
370
     9
100
AcDbLine
 10
1201.076858108108
 20
-151.5633742873732
 30
0.0
 11
1201.617266680743
 21
-156.3664286845437
 31
0.0
  0
LINE
  5
320
330
1F
100
AcDbEntity
  8
A-3_受枠
  6
Continuous
 62
     4
370
     9
100
AcDbLine
 10
1217.795872043919
 20
-154.5455190297719
 30
0.0
 11
1201.617266680743
 21
-156.3664286845437
 31
0.0
  0
LINE
  5
321
330
1F
100
AcDbEntity
  8
A-3_受枠
  6
Continuous
 62
     4
370
     9
100
AcDbLine
 10
1217.638995196368
 20
-149.6996575432854
 30
0.0
 11
1201.076858108108
 21
-151.5633742873732
 31
0.0
  0
LINE
  5
322
330
1F
100
AcDbEntity
  8
A-3_受枠
  6
Continuous
 62
     4
370
     9
100
AcDbLine
 10
1251.9549395587
 20
-151.3250897381755
 30
0.0
 11
1217.638995196368
 21
-149.6996575432854
 31
0.0
  0
LINE
  5
323
330
1F
100
AcDbEntity
  8
A-3_受枠
  6
Continuous
 62
     4
370
     9
100
AcDbLine
 10
1251.726305162584
 20
-156.1528881176096
 30
0.0
 11
1217.795872043919
 21
-154.5455190297719
 31
0.0
  0
LINE
  5
324
330
1F
100
AcDbEntity
  8
A-3_受枠
  6
Continuous
 62
     4
370
     9
100
AcDbLine
 10
1257.661149308489
 20
-141.4136402027026
 30
0.0
 11
1257.661149308489
 21
-150.4924547350083
 31
0.0
  0
LINE
  5
325
330
1F
100
AcDbEntity
  8
A-3_受枠
  6
Continuous
 62
     4
370
     9
100
AcDbLine
 10
1206.661080025338
 20
-118.6994068042651
 30
0.0
 11
1255.244404560811
 21
-118.6994068042651
 31
0.0
  0
LINE
  5
326
330
1F
100
AcDbEntity
  8
A-3_受枠
  6
Continuous
 62
     4
370
     9
100
AcDbLine
 10
1206.661080025338
 20
-113.8664121885557
 30
0.0
 11
1255.244404560811
 21
-113.8664121885557
 31
0.0
  0
LINE
  5
327
330
1F
100
AcDbEntity
  8
A-3_受枠
  6
Continuous
 62
     4
370
     9
100
AcDbLine
 10
1200.994460647171
 20
-128.575719884924
 30
0.0
 11
1200.994460647171
 21
-119.5327841269003
 31
0.0
  0
LINE
  5
328
330
1F
100
AcDbEntity
  8
A-3_受枠
  6
Continuous
 62
     4
370
     9
100
AcDbLine
 10
1205.827702702703
 20
-128.575719884924
 30
0.0
 11
1205.827702702703
 21
-119.5327841269003
 31
0.0
  0
LINE
  5
329
330
1F
100
AcDbEntity
  8
A-3_受枠
  6
Continuous
 62
     4
370
     9
100
AcDbLine
 10
1206.311694995777
 20
-129.3323908625422
 30
0.0
 11
1223.570375184755
 21
-137.3073763460727
 31
0.0
  0
LINE
  5
32A
330
1F
100
AcDbEntity
  8
A-3_受枠
  6
Continuous
 62
     4
370
     9
100
AcDbLine
 10
1251.682260874156
 20
-135.7554337785049
 30
0.0
 11
1223.570375184755
 21
-137.3073763460727
 31
0.0
  0
LINE
  5
32B
330
1F
100
AcDbEntity
  8
A-3_受枠
  6
Continuous
 62
     4
370
     9
100
AcDbLine
 10
1204.284173089105
 20
-133.7197463576857
 30
0.0
 11
1222.635300095017
 21
-142.1997565192146
 31
0.0
  0
LINE
  5
32C
330
1F
100
AcDbEntity
  8
A-3_受枠
  6
Continuous
 62
     4
370
     9
100
AcDbLine
 10
1251.948506123311
 20
-140.5815000791807
 30
0.0
 11
1222.635300095017
 21
-142.1997565192146
 31
0.0
  0
LINE
  5
32D
330
1F
100
AcDbEntity
  8
A-3_受枠
  6
Continuous
 62
     4
370
     9
100
AcDbLine
 10
1252.827907252956
 20
-150.4924547350083
 30
0.0
 11
1252.827907252956
 21
-141.4136402027026
 31
0.0
  0
LINE
  5
32E
330
1F
100
AcDbEntity
  8
A-1_ピット
  6
Continuous
 62
     2
370
     9
100
AcDbLine
 10
1259.494430954392
 20
-166.3662142366977
 30
0.0
 11
1144.494546426309
 21
-166.3662142366977
 31
0.0
  0
LINE
  5
32F
330
1F
100
AcDbEntity
  8
A-1_ピット
  6
Continuous
 62
     2
370
     9
100
AcDbLine
 10
1229.494579418285
 20
-166.3662142366977
 30
0.0
 11
1229.494579418285
 21
-181.3665111644846
 31
0.0
  0
LINE
  5
330
330
1F
100
AcDbEntity
  8
A-1_ピット
  6
Continuous
 62
     2
370
     9
100
AcDbLine
 10
1252.519844673775
 20
-181.3665111644846
 30
0.0
 11
1229.494579418285
 21
-181.3665111644846
 31
0.0
  0
LINE
  5
331
330
1F
100
AcDbEntity
  8
A-1_ピット
  6
Continuous
 62
     2
370
     9
100
AcDbLine
 10
1260.284258868243
 20
-167.388635583826
 30
0.0
 11
1357.269039669553
 21
-193.3755080764357
 31
0.0
  0
LINE
  5
332
330
1F
100
AcDbEntity
  8
A-1_ピット
  6
Continuous
 62
     2
370
     9
100
AcDbLine
 10
1256.402175490921
 20
-181.8774743982263
 30
0.0
 11
1353.386708852407
 21
-207.8643468908361
 31
0.0
  0
LINE
  5
333
330
1F
100
AcDbEntity
  8
A-1_ピット
  6
JWW_CENTER2
 62
     2
370
     9
100
AcDbLine
 10
1252.519597233953
 20
-173.8663627005911
 30
0.0
 11
1223.15294420397
 21
-173.8663627005911
 31
0.0
  0
LINE
  5
334
330
1F
100
AcDbEntity
  8
A-1_ピット
  6
JWW_CENTER2
 62
     2
370
     9
100
AcDbLine
 10
1258.343093459671
 20
-174.6329312711148
 30
0.0
 11
1366.954081767315
 21
-203.735071130701
 31
0.0
  0
LINE
  5
335
330
1F
100
AcDbEntity
  8
A-1_ピット
  6
Continuous
 62
     2
370
     9
100
AcDbLine
 10
1279.494496938345
 20
-166.3662142366977
 30
0.0
 11
1279.494496938345
 21
-66.36637919657943
 31
0.0
  0
LINE
  5
336
330
1F
100
AcDbEntity
  8
A-1_ピット
  6
Continuous
 62
     2
370
     9
100
AcDbLine
 10
1279.494496938345
 20
-166.3662142366977
 30
0.0
 11
1229.494579418285
 21
-166.3662142366977
 31
0.0
  0
LINE
  5
337
330
1F
100
AcDbEntity
  8
A-1_ピット
  6
Continuous
 62
     2
370
     9
100
AcDbLine
 10
1149.494562922298
 20
-156.3664286845437
 30
0.0
 11
1261.161185599663
 21
-156.3664286845437
 31
0.0
  0
LINE
  5
338
330
1F
100
AcDbEntity
  8
A-1_ピット
  6
Continuous
 62
     2
370
     9
100
AcDbLine
 10
1144.494546426309
 20
-161.3661977407094
 30
0.0
 11
1144.494546426309
 21
-166.3662142366977
 31
0.0
  0
LINE
  5
339
330
1F
100
AcDbEntity
  8
A-1_ピット
  6
Continuous
 62
     2
370
     9
100
AcDbLine
 10
1274.494480442357
 20
-66.36637919657943
 30
0.0
 11
1279.494496938345
 21
-66.36637919657943
 31
0.0
  0
LINE
  5
33A
330
1F
100
AcDbEntity
  8
A-1_ピット
  6
Continuous
 62
     2
370
     9
100
AcDbLine
 10
1269.494463946368
 20
-71.36639569256744
 30
0.0
 11
1269.494463946368
 21
-148.0331503378378
 31
0.0
  0
LINE
  5
33B
330
1F
100
AcDbEntity
  8
A-2_蓋
  6
Continuous
 62
     3
370
     9
100
AcDbLine
 10
1252.827907252956
 20
-149.6996575432854
 30
0.0
 11
1252.827907252956
 21
-142.1997565192146
 31
0.0
  0
LINE
  5
33C
330
1F
100
AcDbEntity
  8
A-2_蓋
  6
Continuous
 62
     3
370
     9
100
AcDbLine
 10
1144.494546426309
 20
-149.6996575432854
 30
0.0
 11
1252.827907252956
 21
-149.6996575432854
 31
0.0
  0
LINE
  5
33D
330
1F
100
AcDbEntity
  8
A-2_蓋
  6
Continuous
 62
     3
370
     9
100
AcDbLine
 10
1269.494463946368
 20
-142.1997565192146
 30
0.0
 11
1269.494463946368
 21
701.0788706186656
 31
0.0
  0
LINE
  5
33E
330
1F
100
AcDbEntity
  8
A-2_蓋
  6
Continuous
 62
     3
370
     9
100
AcDbLine
 10
1166.994496938345
 20
701.0788706186656
 30
0.0
 11
1166.994496938345
 21
-142.1997565192146
 31
0.0
  0
LINE
  5
33F
330
1F
100
AcDbEntity
  8
A-2_蓋
  6
Continuous
 62
     3
370
     9
100
AcDbLine
 10
1164.49436497044
 20
701.0788706186656
 30
0.0
 11
1164.49436497044
 21
-142.1997565192146
 31
0.0
  0
LINE
  5
340
330
1F
100
AcDbEntity
  8
A-2_蓋
  6
Continuous
 62
     3
370
     9
100
AcDbLine
 10
1246.994760874156
 20
-142.1997565192146
 30
0.0
 11
1246.994760874156
 21
-140.8549210831924
 31
0.0
  0
LINE
  5
341
330
1F
100
AcDbEntity
  8
A-2_蓋
  6
Continuous
 62
     3
370
     9
100
AcDbLine
 10
1249.494645402239
 20
-142.1997565192146
 30
0.0
 11
1249.494645402239
 21
-140.716849662162
 31
0.0
  0
LINE
  5
342
330
1F
100
AcDbEntity
  8
A-2_蓋
  6
Continuous
 62
     3
370
     9
100
AcDbLine
 10
1144.494546426309
 20
-142.1997565192146
 30
0.0
 11
1252.827907252956
 21
-142.1997565192146
 31
0.0
  0
LINE
  5
343
330
1F
100
AcDbEntity
  8
A-2_蓋
  6
Continuous
 62
     3
370
     9
100
AcDbLine
 10
1257.661149308489
 20
-142.1997565192146
 30
0.0
 11
1269.494463946368
 21
-142.1997565192146
 31
0.0
  0
LINE
  5
344
330
1F
100
AcDbEntity
  8
A-2_蓋
  6
Continuous
 62
     3
370
     9
100
AcDbLine
 10
1249.494645402239
 20
-135.876184411951
 30
0.0
 11
1249.494645402239
 21
-118.6994068042651
 31
0.0
  0
LINE
  5
345
330
1F
100
AcDbEntity
  8
A-2_蓋
  6
Continuous
 62
     3
370
     9
100
AcDbLine
 10
1249.494645402239
 20
-113.8664121885557
 30
0.0
 11
1249.494645402239
 21
701.0788706186656
 31
0.0
  0
LINE
  5
346
330
1F
100
AcDbEntity
  8
A-2_蓋
  6
Continuous
 62
     3
370
     9
100
AcDbLine
 10
1246.994760874156
 20
-136.0142558329812
 30
0.0
 11
1246.994760874156
 21
-118.6994068042651
 31
0.0
  0
LINE
  5
347
330
1F
100
AcDbEntity
  8
A-2_蓋
  6
Continuous
 62
     3
370
     9
100
AcDbLine
 10
1246.994760874156
 20
-113.8664121885557
 30
0.0
 11
1246.994760874156
 21
701.0788706186656
 31
0.0
  0
LINE
  5
348
330
1F
100
AcDbEntity
  8
A-A
  6
Continuous
 62
     3
370
     9
100
AcDbLine
 10
1141.994414458404
 20
702.1574608055323
 30
0.0
 11
1144.494546426309
 21
700.490706160262
 31
0.0
  0
LINE
  5
349
330
1F
100
AcDbEntity
  8
A-A
  6
Continuous
 62
     3
370
     9
100
AcDbLine
 10
1141.994414458404
 20
690.3023714632602
 30
0.0
 11
1141.994414458404
 21
685.3023549672721
 31
0.0
  0
LINE
  5
34A
330
1F
100
AcDbEntity
  8
A-A
  6
Continuous
 62
     3
370
     9
100
AcDbLine
 10
1141.994414458404
 20
690.3023714632602
 30
0.0
 11
1144.494546426309
 21
691.9691261085304
 31
0.0
  0
LINE
  5
34B
330
1F
100
AcDbEntity
  8
A-A
  6
Continuous
 62
     3
370
     9
100
AcDbLine
 10
1141.994414458404
 20
685.3023549672721
 30
0.0
 11
1144.494546426309
 21
683.6356003220019
 31
0.0
  0
LINE
  5
34C
330
1F
100
AcDbEntity
  8
A-A
  6
Continuous
 62
     3
370
     9
100
AcDbLine
 10
1144.494546426309
 20
691.9691261085304
 30
0.0
 11
1144.494546426309
 21
700.490706160262
 31
0.0
  0
LINE
  5
34D
330
1F
100
AcDbEntity
  8
A-A
  6
Continuous
 62
     3
370
     9
100
AcDbLine
 10
1141.994414458404
 20
673.4470181851776
 30
0.0
 11
1141.994414458404
 21
663.4472326330238
 31
0.0
  0
LINE
  5
34E
330
1F
100
AcDbEntity
  8
A-A
  6
Continuous
 62
     3
370
     9
100
AcDbLine
 10
1141.994414458404
 20
673.4470181851776
 30
0.0
 11
1144.494546426309
 21
675.1137728304477
 31
0.0
  0
LINE
  5
34F
330
1F
100
AcDbEntity
  8
A-A
  6
Continuous
 62
     3
370
     9
100
AcDbLine
 10
1144.494546426309
 20
683.6356003220019
 30
0.0
 11
1144.494546426309
 21
675.1137728304477
 31
0.0
  0
LINE
  5
350
330
1F
100
AcDbEntity
  8
A-A
  6
Continuous
 62
     3
370
     9
100
AcDbLine
 10
1141.994414458404
 20
663.4472326330238
 30
0.0
 11
1144.494546426309
 21
661.7804779877533
 31
0.0
  0
LINE
  5
351
330
1F
100
AcDbEntity
  8
A-A
  6
Continuous
 62
     3
370
     9
100
AcDbLine
 10
1141.994414458404
 20
651.5921432907519
 30
0.0
 11
1141.994414458404
 21
646.5921267947635
 31
0.0
  0
LINE
  5
352
330
1F
100
AcDbEntity
  8
A-A
  6
Continuous
 62
     3
370
     9
100
AcDbLine
 10
1141.994414458404
 20
651.5921432907519
 30
0.0
 11
1144.494546426309
 21
653.2588979360221
 31
0.0
  0
LINE
  5
353
330
1F
100
AcDbEntity
  8
A-A
  6
Continuous
 62
     3
370
     9
100
AcDbLine
 10
1141.994414458404
 20
646.5921267947635
 30
0.0
 11
1144.494546426309
 21
644.9253721494932
 31
0.0
  0
LINE
  5
354
330
1F
100
AcDbEntity
  8
A-A
  6
Continuous
 62
     3
370
     9
100
AcDbLine
 10
1144.494546426309
 20
653.2588979360221
 30
0.0
 11
1144.494546426309
 21
661.7804779877533
 31
0.0
  0
LINE
  5
355
330
1F
100
AcDbEntity
  8
A-A
  6
Continuous
 62
     3
370
     9
100
AcDbLine
 10
1141.994414458404
 20
634.736790012669
 30
0.0
 11
1141.994414458404
 21
624.7370044605154
 31
0.0
  0
LINE
  5
356
330
1F
100
AcDbEntity
  8
A-A
  6
Continuous
 62
     3
370
     9
100
AcDbLine
 10
1141.994414458404
 20
634.736790012669
 30
0.0
 11
1144.494546426309
 21
636.4035446579394
 31
0.0
  0
LINE
  5
357
330
1F
100
AcDbEntity
  8
A-A
  6
Continuous
 62
     3
370
     9
100
AcDbLine
 10
1144.494546426309
 20
644.9253721494932
 30
0.0
 11
1144.494546426309
 21
636.4035446579394
 31
0.0
  0
LINE
  5
358
330
1F
100
AcDbEntity
  8
A-A
  6
Continuous
 62
     3
370
     9
100
AcDbLine
 10
1141.994414458404
 20
624.7370044605154
 30
0.0
 11
1144.494546426309
 21
623.070249815245
 31
0.0
  0
LINE
  5
359
330
1F
100
AcDbEntity
  8
A-A
  6
Continuous
 62
     3
370
     9
100
AcDbLine
 10
1141.994414458404
 20
612.8819151182432
 30
0.0
 11
1141.994414458404
 21
607.8818986222552
 31
0.0
  0
LINE
  5
35A
330
1F
100
AcDbEntity
  8
A-A
  6
Continuous
 62
     3
370
     9
100
AcDbLine
 10
1141.994414458404
 20
612.8819151182432
 30
0.0
 11
1144.494546426309
 21
614.5486697635135
 31
0.0
  0
LINE
  5
35B
330
1F
100
AcDbEntity
  8
A-A
  6
Continuous
 62
     3
370
     9
100
AcDbLine
 10
1141.994414458404
 20
607.8818986222552
 30
0.0
 11
1144.494546426309
 21
606.2151439769849
 31
0.0
  0
LINE
  5
35C
330
1F
100
AcDbEntity
  8
A-A
  6
Continuous
 62
     3
370
     9
100
AcDbLine
 10
1144.494546426309
 20
614.5486697635135
 30
0.0
 11
1144.494546426309
 21
623.070249815245
 31
0.0
  0
LINE
  5
35D
330
1F
100
AcDbEntity
  8
A-A
  6
Continuous
 62
     3
370
     9
100
AcDbLine
 10
1141.994414458404
 20
596.0265618401606
 30
0.0
 11
1141.994414458404
 21
586.0267762880068
 31
0.0
  0
LINE
  5
35E
330
1F
100
AcDbEntity
  8
A-A
  6
Continuous
 62
     3
370
     9
100
AcDbLine
 10
1141.994414458404
 20
596.0265618401606
 30
0.0
 11
1144.494546426309
 21
597.6933164854307
 31
0.0
  0
LINE
  5
35F
330
1F
100
AcDbEntity
  8
A-A
  6
Continuous
 62
     3
370
     9
100
AcDbLine
 10
1144.494546426309
 20
606.2151439769849
 30
0.0
 11
1144.494546426309
 21
597.6933164854307
 31
0.0
  0
LINE
  5
360
330
1F
100
AcDbEntity
  8
A-A
  6
Continuous
 62
     3
370
     9
100
AcDbLine
 10
1141.994414458404
 20
586.0267762880068
 30
0.0
 11
1144.494546426309
 21
584.3600216427367
 31
0.0
  0
LINE
  5
361
330
1F
100
AcDbEntity
  8
A-A
  6
Continuous
 62
     3
370
     9
100
AcDbLine
 10
1141.994414458404
 20
574.1716869457349
 30
0.0
 11
1141.994414458404
 21
569.1716704497467
 31
0.0
  0
LINE
  5
362
330
1F
100
AcDbEntity
  8
A-A
  6
Continuous
 62
     3
370
     9
100
AcDbLine
 10
1141.994414458404
 20
574.1716869457349
 30
0.0
 11
1144.494546426309
 21
575.8384415910052
 31
0.0
  0
LINE
  5
363
330
1F
100
AcDbEntity
  8
A-A
  6
Continuous
 62
     3
370
     9
100
AcDbLine
 10
1141.994414458404
 20
569.1716704497467
 30
0.0
 11
1144.494546426309
 21
567.5049158044766
 31
0.0
  0
LINE
  5
364
330
1F
100
AcDbEntity
  8
A-A
  6
Continuous
 62
     3
370
     9
100
AcDbLine
 10
1144.494546426309
 20
575.8384415910052
 30
0.0
 11
1144.494546426309
 21
584.3600216427367
 31
0.0
  0
LINE
  5
365
330
1F
100
AcDbEntity
  8
A-A
  6
Continuous
 62
     3
370
     9
100
AcDbLine
 10
1141.994414458404
 20
557.3163336676521
 30
0.0
 11
1141.994414458404
 21
547.3165481154984
 31
0.0
  0
LINE
  5
366
330
1F
100
AcDbEntity
  8
A-A
  6
Continuous
 62
     3
370
     9
100
AcDbLine
 10
1141.994414458404
 20
557.3163336676521
 30
0.0
 11
1144.494546426309
 21
558.9830883129224
 31
0.0
  0
LINE
  5
367
330
1F
100
AcDbEntity
  8
A-A
  6
Continuous
 62
     3
370
     9
100
AcDbLine
 10
1144.494546426309
 20
567.5049158044766
 30
0.0
 11
1144.494546426309
 21
558.9830883129224
 31
0.0
  0
LINE
  5
368
330
1F
100
AcDbEntity
  8
A-A
  6
Continuous
 62
     3
370
     9
100
AcDbLine
 10
1141.994414458404
 20
547.3165481154984
 30
0.0
 11
1144.494546426309
 21
545.6497934702281
 31
0.0
  0
LINE
  5
369
330
1F
100
AcDbEntity
  8
A-A
  6
Continuous
 62
     3
370
     9
100
AcDbLine
 10
1141.994414458404
 20
535.4614587732266
 30
0.0
 11
1141.994414458404
 21
530.4614422772383
 31
0.0
  0
LINE
  5
36A
330
1F
100
AcDbEntity
  8
A-A
  6
Continuous
 62
     3
370
     9
100
AcDbLine
 10
1141.994414458404
 20
535.4614587732266
 30
0.0
 11
1144.494546426309
 21
537.1282134184967
 31
0.0
  0
LINE
  5
36B
330
1F
100
AcDbEntity
  8
A-A
  6
Continuous
 62
     3
370
     9
100
AcDbLine
 10
1141.994414458404
 20
530.4614422772383
 30
0.0
 11
1144.494546426309
 21
528.7946876319679
 31
0.0
  0
LINE
  5
36C
330
1F
100
AcDbEntity
  8
A-A
  6
Continuous
 62
     3
370
     9
100
AcDbLine
 10
1144.494546426309
 20
537.1282134184967
 30
0.0
 11
1144.494546426309
 21
545.6497934702281
 31
0.0
  0
LINE
  5
36D
330
1F
100
AcDbEntity
  8
A-A
  6
Continuous
 62
     3
370
     9
100
AcDbLine
 10
1141.994414458404
 20
518.6061054951438
 30
0.0
 11
1141.994414458404
 21
508.6063199429898
 31
0.0
  0
LINE
  5
36E
330
1F
100
AcDbEntity
  8
A-A
  6
Continuous
 62
     3
370
     9
100
AcDbLine
 10
1141.994414458404
 20
518.6061054951438
 30
0.0
 11
1144.494546426309
 21
520.2728601404141
 31
0.0
  0
LINE
  5
36F
330
1F
100
AcDbEntity
  8
A-A
  6
Continuous
 62
     3
370
     9
100
AcDbLine
 10
1144.494546426309
 20
528.7946876319679
 30
0.0
 11
1144.494546426309
 21
520.2728601404141
 31
0.0
  0
LINE
  5
370
330
1F
100
AcDbEntity
  8
A-A
  6
Continuous
 62
     3
370
     9
100
AcDbLine
 10
1141.994414458404
 20
508.6063199429898
 30
0.0
 11
1144.494546426309
 21
506.9395652977198
 31
0.0
  0
LINE
  5
371
330
1F
100
AcDbEntity
  8
A-A
  6
Continuous
 62
     3
370
     9
100
AcDbLine
 10
1141.994414458404
 20
496.751230600718
 30
0.0
 11
1141.994414458404
 21
491.75121410473
 31
0.0
  0
LINE
  5
372
330
1F
100
AcDbEntity
  8
A-A
  6
Continuous
 62
     3
370
     9
100
AcDbLine
 10
1141.994414458404
 20
496.751230600718
 30
0.0
 11
1144.494546426309
 21
498.4179852459883
 31
0.0
  0
LINE
  5
373
330
1F
100
AcDbEntity
  8
A-A
  6
Continuous
 62
     3
370
     9
100
AcDbLine
 10
1141.994414458404
 20
491.75121410473
 30
0.0
 11
1144.494546426309
 21
490.0844594594597
 31
0.0
  0
LINE
  5
374
330
1F
100
AcDbEntity
  8
A-A
  6
Continuous
 62
     3
370
     9
100
AcDbLine
 10
1144.494546426309
 20
498.4179852459883
 30
0.0
 11
1144.494546426309
 21
506.9395652977198
 31
0.0
  0
LINE
  5
375
330
1F
100
AcDbEntity
  8
A-A
  6
Continuous
 62
     3
370
     9
100
AcDbLine
 10
1141.994414458404
 20
479.8958773226352
 30
0.0
 11
1141.994414458404
 21
469.8960917704815
 31
0.0
  0
LINE
  5
376
330
1F
100
AcDbEntity
  8
A-A
  6
Continuous
 62
     3
370
     9
100
AcDbLine
 10
1141.994414458404
 20
479.8958773226352
 30
0.0
 11
1144.494546426309
 21
481.5626319679055
 31
0.0
  0
LINE
  5
377
330
1F
100
AcDbEntity
  8
A-A
  6
Continuous
 62
     3
370
     9
100
AcDbLine
 10
1144.494546426309
 20
490.0844594594597
 30
0.0
 11
1144.494546426309
 21
481.5626319679055
 31
0.0
  0
LINE
  5
378
330
1F
100
AcDbEntity
  8
A-A
  6
Continuous
 62
     3
370
     9
100
AcDbLine
 10
1141.994414458404
 20
469.8960917704815
 30
0.0
 11
1144.494546426309
 21
468.2293371252112
 31
0.0
  0
LINE
  5
379
330
1F
100
AcDbEntity
  8
A-A
  6
Continuous
 62
     3
370
     9
100
AcDbLine
 10
1141.994414458404
 20
458.0410024282097
 30
0.0
 11
1141.994414458404
 21
453.0409859322214
 31
0.0
  0
LINE
  5
37A
330
1F
100
AcDbEntity
  8
A-A
  6
Continuous
 62
     3
370
     9
100
AcDbLine
 10
1141.994414458404
 20
458.0410024282097
 30
0.0
 11
1144.494546426309
 21
459.70775707348
 31
0.0
  0
LINE
  5
37B
330
1F
100
AcDbEntity
  8
A-A
  6
Continuous
 62
     3
370
     9
100
AcDbLine
 10
1141.994414458404
 20
453.0409859322214
 30
0.0
 11
1144.494546426309
 21
451.374231286951
 31
0.0
  0
LINE
  5
37C
330
1F
100
AcDbEntity
  8
A-A
  6
Continuous
 62
     3
370
     9
100
AcDbLine
 10
1144.494546426309
 20
459.70775707348
 30
0.0
 11
1144.494546426309
 21
468.2293371252112
 31
0.0
  0
LINE
  5
37D
330
1F
100
AcDbEntity
  8
A-A
  6
Continuous
 62
     3
370
     9
100
AcDbLine
 10
1141.994414458404
 20
441.1856491501268
 30
0.0
 11
1141.994414458404
 21
431.1858635979732
 31
0.0
  0
LINE
  5
37E
330
1F
100
AcDbEntity
  8
A-A
  6
Continuous
 62
     3
370
     9
100
AcDbLine
 10
1141.994414458404
 20
441.1856491501268
 30
0.0
 11
1144.494546426309
 21
442.8524037953972
 31
0.0
  0
LINE
  5
37F
330
1F
100
AcDbEntity
  8
A-A
  6
Continuous
 62
     3
370
     9
100
AcDbLine
 10
1144.494546426309
 20
451.374231286951
 30
0.0
 11
1144.494546426309
 21
442.8524037953972
 31
0.0
  0
LINE
  5
380
330
1F
100
AcDbEntity
  8
A-A
  6
Continuous
 62
     3
370
     9
100
AcDbLine
 10
1141.994414458404
 20
431.1858635979732
 30
0.0
 11
1144.494546426309
 21
429.5191089527029
 31
0.0
  0
LINE
  5
381
330
1F
100
AcDbEntity
  8
A-A
  6
Continuous
 62
     3
370
     9
100
AcDbLine
 10
1141.994414458404
 20
419.330774255701
 30
0.0
 11
1141.994414458404
 21
414.330757759713
 31
0.0
  0
LINE
  5
382
330
1F
100
AcDbEntity
  8
A-A
  6
Continuous
 62
     3
370
     9
100
AcDbLine
 10
1141.994414458404
 20
419.330774255701
 30
0.0
 11
1144.494546426309
 21
420.9975289009714
 31
0.0
  0
LINE
  5
383
330
1F
100
AcDbEntity
  8
A-A
  6
Continuous
 62
     3
370
     9
100
AcDbLine
 10
1141.994414458404
 20
414.330757759713
 30
0.0
 11
1144.494546426309
 21
412.6640031144427
 31
0.0
  0
LINE
  5
384
330
1F
100
AcDbEntity
  8
A-A
  6
Continuous
 62
     3
370
     9
100
AcDbLine
 10
1144.494546426309
 20
420.9975289009714
 30
0.0
 11
1144.494546426309
 21
429.5191089527029
 31
0.0
  0
LINE
  5
385
330
1F
100
AcDbEntity
  8
A-A
  6
Continuous
 62
     3
370
     9
100
AcDbLine
 10
1141.994414458404
 20
402.4754209776182
 30
0.0
 11
1141.994414458404
 21
392.4756354254646
 31
0.0
  0
LINE
  5
386
330
1F
100
AcDbEntity
  8
A-A
  6
Continuous
 62
     3
370
     9
100
AcDbLine
 10
1141.994414458404
 20
402.4754209776182
 30
0.0
 11
1144.494546426309
 21
404.1421756228885
 31
0.0
  0
LINE
  5
387
330
1F
100
AcDbEntity
  8
A-A
  6
Continuous
 62
     3
370
     9
100
AcDbLine
 10
1144.494546426309
 20
412.6640031144427
 30
0.0
 11
1144.494546426309
 21
404.1421756228885
 31
0.0
  0
LINE
  5
388
330
1F
100
AcDbEntity
  8
A-A
  6
Continuous
 62
     3
370
     9
100
AcDbLine
 10
1141.994414458404
 20
392.4756354254646
 30
0.0
 11
1144.494546426309
 21
390.8088807801943
 31
0.0
  0
LINE
  5
389
330
1F
100
AcDbEntity
  8
A-A
  6
Continuous
 62
     3
370
     9
100
AcDbLine
 10
1141.994414458404
 20
380.6205460831927
 30
0.0
 11
1141.994414458404
 21
375.6205295872044
 31
0.0
  0
LINE
  5
38A
330
1F
100
AcDbEntity
  8
A-A
  6
Continuous
 62
     3
370
     9
100
AcDbLine
 10
1141.994414458404
 20
380.6205460831927
 30
0.0
 11
1144.494546426309
 21
382.287300728463
 31
0.0
  0
LINE
  5
38B
330
1F
100
AcDbEntity
  8
A-A
  6
Continuous
 62
     3
370
     9
100
AcDbLine
 10
1141.994414458404
 20
375.6205295872044
 30
0.0
 11
1144.494546426309
 21
373.9537749419341
 31
0.0
  0
LINE
  5
38C
330
1F
100
AcDbEntity
  8
A-A
  6
Continuous
 62
     3
370
     9
100
AcDbLine
 10
1144.494546426309
 20
382.287300728463
 30
0.0
 11
1144.494546426309
 21
390.8088807801943
 31
0.0
  0
LINE
  5
38D
330
1F
100
AcDbEntity
  8
A-A
  6
Continuous
 62
     3
370
     9
100
AcDbLine
 10
1141.994414458404
 20
363.7651928051099
 30
0.0
 11
1141.994414458404
 21
353.7654072529563
 31
0.0
  0
LINE
  5
38E
330
1F
100
AcDbEntity
  8
A-A
  6
Continuous
 62
     3
370
     9
100
AcDbLine
 10
1141.994414458404
 20
363.7651928051099
 30
0.0
 11
1144.494546426309
 21
365.4319474503802
 31
0.0
  0
LINE
  5
38F
330
1F
100
AcDbEntity
  8
A-A
  6
Continuous
 62
     3
370
     9
100
AcDbLine
 10
1144.494546426309
 20
373.9537749419341
 30
0.0
 11
1144.494546426309
 21
365.4319474503802
 31
0.0
  0
LINE
  5
390
330
1F
100
AcDbEntity
  8
A-A
  6
Continuous
 62
     3
370
     9
100
AcDbLine
 10
1141.994414458404
 20
353.7654072529563
 30
0.0
 11
1144.494546426309
 21
352.0986526076859
 31
0.0
  0
LINE
  5
391
330
1F
100
AcDbEntity
  8
A-A
  6
Continuous
 62
     3
370
     9
100
AcDbLine
 10
1141.994414458404
 20
341.9103179106841
 30
0.0
 11
1141.994414458404
 21
336.9103014146961
 31
0.0
  0
LINE
  5
392
330
1F
100
AcDbEntity
  8
A-A
  6
Continuous
 62
     3
370
     9
100
AcDbLine
 10
1141.994414458404
 20
341.9103179106841
 30
0.0
 11
1144.494546426309
 21
343.5770725559544
 31
0.0
  0
LINE
  5
393
330
1F
100
AcDbEntity
  8
A-A
  6
Continuous
 62
     3
370
     9
100
AcDbLine
 10
1141.994414458404
 20
336.9103014146961
 30
0.0
 11
1144.494546426309
 21
335.2435467694258
 31
0.0
  0
LINE
  5
394
330
1F
100
AcDbEntity
  8
A-A
  6
Continuous
 62
     3
370
     9
100
AcDbLine
 10
1144.494546426309
 20
343.5770725559544
 30
0.0
 11
1144.494546426309
 21
352.0986526076859
 31
0.0
  0
LINE
  5
395
330
1F
100
AcDbEntity
  8
A-A
  6
Continuous
 62
     3
370
     9
100
AcDbLine
 10
1141.994414458404
 20
325.0549646326016
 30
0.0
 11
1141.994414458404
 21
315.0551790804477
 31
0.0
  0
LINE
  5
396
330
1F
100
AcDbEntity
  8
A-A
  6
Continuous
 62
     3
370
     9
100
AcDbLine
 10
1141.994414458404
 20
325.0549646326016
 30
0.0
 11
1144.494546426309
 21
326.7217192778716
 31
0.0
  0
LINE
  5
397
330
1F
100
AcDbEntity
  8
A-A
  6
Continuous
 62
     3
370
     9
100
AcDbLine
 10
1144.494546426309
 20
335.2435467694258
 30
0.0
 11
1144.494546426309
 21
326.7217192778716
 31
0.0
  0
LINE
  5
398
330
1F
100
AcDbEntity
  8
A-A
  6
Continuous
 62
     3
370
     9
100
AcDbLine
 10
1141.994414458404
 20
315.0551790804477
 30
0.0
 11
1144.494546426309
 21
313.3884244351773
 31
0.0
  0
LINE
  5
399
330
1F
100
AcDbEntity
  8
A-A
  6
Continuous
 62
     3
370
     9
100
AcDbLine
 10
1141.994414458404
 20
303.2000897381758
 30
0.0
 11
1141.994414458404
 21
298.2000732421875
 31
0.0
  0
LINE
  5
39A
330
1F
100
AcDbEntity
  8
A-A
  6
Continuous
 62
     3
370
     9
100
AcDbLine
 10
1141.994414458404
 20
303.2000897381758
 30
0.0
 11
1144.494546426309
 21
304.8668443834461
 31
0.0
  0
LINE
  5
39B
330
1F
100
AcDbEntity
  8
A-A
  6
Continuous
 62
     3
370
     9
100
AcDbLine
 10
1141.994414458404
 20
298.2000732421875
 30
0.0
 11
1144.494546426309
 21
296.5333185969175
 31
0.0
  0
LINE
  5
39C
330
1F
100
AcDbEntity
  8
A-A
  6
Continuous
 62
     3
370
     9
100
AcDbLine
 10
1144.494546426309
 20
304.8668443834461
 30
0.0
 11
1144.494546426309
 21
313.3884244351773
 31
0.0
  0
LINE
  5
39D
330
1F
100
AcDbEntity
  8
A-A
  6
Continuous
 62
     3
370
     9
100
AcDbLine
 10
1141.994414458404
 20
286.344736460093
 30
0.0
 11
1141.994414458404
 21
276.3449509079393
 31
0.0
  0
LINE
  5
39E
330
1F
100
AcDbEntity
  8
A-A
  6
Continuous
 62
     3
370
     9
100
AcDbLine
 10
1141.994414458404
 20
286.344736460093
 30
0.0
 11
1144.494546426309
 21
288.0114911053633
 31
0.0
  0
LINE
  5
39F
330
1F
100
AcDbEntity
  8
A-A
  6
Continuous
 62
     3
370
     9
100
AcDbLine
 10
1144.494546426309
 20
296.5333185969175
 30
0.0
 11
1144.494546426309
 21
288.0114911053633
 31
0.0
  0
LINE
  5
3A0
330
1F
100
AcDbEntity
  8
A-A
  6
Continuous
 62
     3
370
     9
100
AcDbLine
 10
1141.994414458404
 20
276.3449509079393
 30
0.0
 11
1144.494546426309
 21
274.678196262669
 31
0.0
  0
LINE
  5
3A1
330
1F
100
AcDbEntity
  8
A-A
  6
Continuous
 62
     3
370
     9
100
AcDbLine
 10
1141.994414458404
 20
264.4898615656675
 30
0.0
 11
1141.994414458404
 21
259.4898450696792
 31
0.0
  0
LINE
  5
3A2
330
1F
100
AcDbEntity
  8
A-A
  6
Continuous
 62
     3
370
     9
100
AcDbLine
 10
1141.994414458404
 20
264.4898615656675
 30
0.0
 11
1144.494546426309
 21
266.1566162109375
 31
0.0
  0
LINE
  5
3A3
330
1F
100
AcDbEntity
  8
A-A
  6
Continuous
 62
     3
370
     9
100
AcDbLine
 10
1141.994414458404
 20
259.4898450696792
 30
0.0
 11
1144.494546426309
 21
257.8230904244089
 31
0.0
  0
LINE
  5
3A4
330
1F
100
AcDbEntity
  8
A-A
  6
Continuous
 62
     3
370
     9
100
AcDbLine
 10
1144.494546426309
 20
266.1566162109375
 30
0.0
 11
1144.494546426309
 21
274.678196262669
 31
0.0
  0
LINE
  5
3A5
330
1F
100
AcDbEntity
  8
A-A
  6
Continuous
 62
     3
370
     9
100
AcDbLine
 10
1141.994414458404
 20
247.6345082875847
 30
0.0
 11
1141.994414458404
 21
237.6347227354307
 31
0.0
  0
LINE
  5
3A6
330
1F
100
AcDbEntity
  8
A-A
  6
Continuous
 62
     3
370
     9
100
AcDbLine
 10
1141.994414458404
 20
247.6345082875847
 30
0.0
 11
1144.494546426309
 21
249.301262932855
 31
0.0
  0
LINE
  5
3A7
330
1F
100
AcDbEntity
  8
A-A
  6
Continuous
 62
     3
370
     9
100
AcDbLine
 10
1144.494546426309
 20
257.8230904244089
 30
0.0
 11
1144.494546426309
 21
249.301262932855
 31
0.0
  0
LINE
  5
3A8
330
1F
100
AcDbEntity
  8
A-A
  6
Continuous
 62
     3
370
     9
100
AcDbLine
 10
1141.994414458404
 20
237.6347227354307
 30
0.0
 11
1144.494546426309
 21
235.9679680901607
 31
0.0
  0
LINE
  5
3A9
330
1F
100
AcDbEntity
  8
A-A
  6
Continuous
 62
     3
370
     9
100
AcDbLine
 10
1141.994414458404
 20
225.7796333931589
 30
0.0
 11
1141.994414458404
 21
220.7796168971706
 31
0.0
  0
LINE
  5
3AA
330
1F
100
AcDbEntity
  8
A-A
  6
Continuous
 62
     3
370
     9
100
AcDbLine
 10
1141.994414458404
 20
225.7796333931589
 30
0.0
 11
1144.494546426309
 21
227.4463880384292
 31
0.0
  0
LINE
  5
3AB
330
1F
100
AcDbEntity
  8
A-A
  6
Continuous
 62
     3
370
     9
100
AcDbLine
 10
1141.994414458404
 20
220.7796168971706
 30
0.0
 11
1144.494546426309
 21
219.1128622519005
 31
0.0
  0
LINE
  5
3AC
330
1F
100
AcDbEntity
  8
A-A
  6
Continuous
 62
     3
370
     9
100
AcDbLine
 10
1144.494546426309
 20
227.4463880384292
 30
0.0
 11
1144.494546426309
 21
235.9679680901607
 31
0.0
  0
LINE
  5
3AD
330
1F
100
AcDbEntity
  8
A-A
  6
Continuous
 62
     3
370
     9
100
AcDbLine
 10
1141.994414458404
 20
208.924280115076
 30
0.0
 11
1141.994414458404
 21
198.9244945629224
 31
0.0
  0
LINE
  5
3AE
330
1F
100
AcDbEntity
  8
A-A
  6
Continuous
 62
     3
370
     9
100
AcDbLine
 10
1141.994414458404
 20
208.924280115076
 30
0.0
 11
1144.494546426309
 21
210.5910347603464
 31
0.0
  0
LINE
  5
3AF
330
1F
100
AcDbEntity
  8
A-A
  6
Continuous
 62
     3
370
     9
100
AcDbLine
 10
1144.494546426309
 20
219.1128622519005
 30
0.0
 11
1144.494546426309
 21
210.5910347603464
 31
0.0
  0
LINE
  5
3B0
330
1F
100
AcDbEntity
  8
A-A
  6
Continuous
 62
     3
370
     9
100
AcDbLine
 10
1141.994414458404
 20
198.9244945629224
 30
0.0
 11
1144.494546426309
 21
197.2577399176521
 31
0.0
  0
LINE
  5
3B1
330
1F
100
AcDbEntity
  8
A-A
  6
Continuous
 62
     3
370
     9
100
AcDbLine
 10
1141.994414458404
 20
187.0694052206505
 30
0.0
 11
1141.994414458404
 21
182.0693887246622
 31
0.0
  0
LINE
  5
3B2
330
1F
100
AcDbEntity
  8
A-A
  6
Continuous
 62
     3
370
     9
100
AcDbLine
 10
1141.994414458404
 20
187.0694052206505
 30
0.0
 11
1144.494546426309
 21
188.7361598659206
 31
0.0
  0
LINE
  5
3B3
330
1F
100
AcDbEntity
  8
A-A
  6
Continuous
 62
     3
370
     9
100
AcDbLine
 10
1141.994414458404
 20
182.0693887246622
 30
0.0
 11
1144.494546426309
 21
180.4026340793919
 31
0.0
  0
LINE
  5
3B4
330
1F
100
AcDbEntity
  8
A-A
  6
Continuous
 62
     3
370
     9
100
AcDbLine
 10
1144.494546426309
 20
188.7361598659206
 30
0.0
 11
1144.494546426309
 21
197.2577399176521
 31
0.0
  0
LINE
  5
3B5
330
1F
100
AcDbEntity
  8
A-A
  6
Continuous
 62
     3
370
     9
100
AcDbLine
 10
1141.994414458404
 20
170.2140519425677
 30
0.0
 11
1141.994414458404
 21
160.2142663904141
 31
0.0
  0
LINE
  5
3B6
330
1F
100
AcDbEntity
  8
A-A
  6
Continuous
 62
     3
370
     9
100
AcDbLine
 10
1141.994414458404
 20
170.2140519425677
 30
0.0
 11
1144.494546426309
 21
171.880806587838
 31
0.0
  0
LINE
  5
3B7
330
1F
100
AcDbEntity
  8
A-A
  6
Continuous
 62
     3
370
     9
100
AcDbLine
 10
1144.494546426309
 20
180.4026340793919
 30
0.0
 11
1144.494546426309
 21
171.880806587838
 31
0.0
  0
LINE
  5
3B8
330
1F
100
AcDbEntity
  8
A-A
  6
Continuous
 62
     3
370
     9
100
AcDbLine
 10
1141.994414458404
 20
160.2142663904141
 30
0.0
 11
1144.494546426309
 21
158.5475117451438
 31
0.0
  0
LINE
  5
3B9
330
1F
100
AcDbEntity
  8
A-A
  6
Continuous
 62
     3
370
     9
100
AcDbLine
 10
1141.994414458404
 20
148.3591770481419
 30
0.0
 11
1141.994414458404
 21
143.3591605521539
 31
0.0
  0
LINE
  5
3BA
330
1F
100
AcDbEntity
  8
A-A
  6
Continuous
 62
     3
370
     9
100
AcDbLine
 10
1141.994414458404
 20
148.3591770481419
 30
0.0
 11
1144.494546426309
 21
150.0259316934122
 31
0.0
  0
LINE
  5
3BB
330
1F
100
AcDbEntity
  8
A-A
  6
Continuous
 62
     3
370
     9
100
AcDbLine
 10
1141.994414458404
 20
143.3591605521539
 30
0.0
 11
1144.494546426309
 21
141.6924059068836
 31
0.0
  0
LINE
  5
3BC
330
1F
100
AcDbEntity
  8
A-A
  6
Continuous
 62
     3
370
     9
100
AcDbLine
 10
1144.494546426309
 20
150.0259316934122
 30
0.0
 11
1144.494546426309
 21
158.5475117451438
 31
0.0
  0
LINE
  5
3BD
330
1F
100
AcDbEntity
  8
A-A
  6
Continuous
 62
     3
370
     9
100
AcDbLine
 10
1141.994414458404
 20
131.5038237700591
 30
0.0
 11
1141.994414458404
 21
121.5040382179055
 31
0.0
  0
LINE
  5
3BE
330
1F
100
AcDbEntity
  8
A-A
  6
Continuous
 62
     3
370
     9
100
AcDbLine
 10
1141.994414458404
 20
131.5038237700591
 30
0.0
 11
1144.494546426309
 21
133.1705784153294
 31
0.0
  0
LINE
  5
3BF
330
1F
100
AcDbEntity
  8
A-A
  6
Continuous
 62
     3
370
     9
100
AcDbLine
 10
1144.494546426309
 20
141.6924059068836
 30
0.0
 11
1144.494546426309
 21
133.1705784153294
 31
0.0
  0
LINE
  5
3C0
330
1F
100
AcDbEntity
  8
A-A
  6
Continuous
 62
     3
370
     9
100
AcDbLine
 10
1141.994414458404
 20
121.5040382179055
 30
0.0
 11
1144.494546426309
 21
119.8372835726352
 31
0.0
  0
LINE
  5
3C1
330
1F
100
AcDbEntity
  8
A-A
  6
Continuous
 62
     3
370
     9
100
AcDbLine
 10
1141.994414458404
 20
109.6489488756336
 30
0.0
 11
1141.994414458404
 21
104.6489323796453
 31
0.0
  0
LINE
  5
3C2
330
1F
100
AcDbEntity
  8
A-A
  6
Continuous
 62
     3
370
     9
100
AcDbLine
 10
1141.994414458404
 20
109.6489488756336
 30
0.0
 11
1144.494546426309
 21
111.3157035209039
 31
0.0
  0
LINE
  5
3C3
330
1F
100
AcDbEntity
  8
A-A
  6
Continuous
 62
     3
370
     9
100
AcDbLine
 10
1141.994414458404
 20
104.6489323796453
 30
0.0
 11
1144.494546426309
 21
102.982177734375
 31
0.0
  0
LINE
  5
3C4
330
1F
100
AcDbEntity
  8
A-A
  6
Continuous
 62
     3
370
     9
100
AcDbLine
 10
1144.494546426309
 20
111.3157035209039
 30
0.0
 11
1144.494546426309
 21
119.8372835726352
 31
0.0
  0
LINE
  5
3C5
330
1F
100
AcDbEntity
  8
A-A
  6
Continuous
 62
     3
370
     9
100
AcDbLine
 10
1141.994414458404
 20
92.79359559755079
 30
0.0
 11
1141.994414458404
 21
82.79381004539715
 31
0.0
  0
LINE
  5
3C6
330
1F
100
AcDbEntity
  8
A-A
  6
Continuous
 62
     3
370
     9
100
AcDbLine
 10
1141.994414458404
 20
92.79359559755079
 30
0.0
 11
1144.494546426309
 21
94.46035024282111
 31
0.0
  0
LINE
  5
3C7
330
1F
100
AcDbEntity
  8
A-A
  6
Continuous
 62
     3
370
     9
100
AcDbLine
 10
1144.494546426309
 20
102.982177734375
 30
0.0
 11
1144.494546426309
 21
94.46035024282111
 31
0.0
  0
LINE
  5
3C8
330
1F
100
AcDbEntity
  8
A-A
  6
Continuous
 62
     3
370
     9
100
AcDbLine
 10
1141.994414458404
 20
82.79381004539715
 30
0.0
 11
1144.494546426309
 21
81.12705540012684
 31
0.0
  0
LINE
  5
3C9
330
1F
100
AcDbEntity
  8
A-A
  6
Continuous
 62
     3
370
     9
100
AcDbLine
 10
1141.994414458404
 20
70.938720703125
 30
0.0
 11
1141.994414458404
 21
65.938704207137
 31
0.0
  0
LINE
  5
3CA
330
1F
100
AcDbEntity
  8
A-A
  6
Continuous
 62
     3
370
     9
100
AcDbLine
 10
1141.994414458404
 20
70.938720703125
 30
0.0
 11
1144.494546426309
 21
72.60547534839532
 31
0.0
  0
LINE
  5
3CB
330
1F
100
AcDbEntity
  8
A-A
  6
Continuous
 62
     3
370
     9
100
AcDbLine
 10
1141.994414458404
 20
65.938704207137
 30
0.0
 11
1144.494546426309
 21
64.27194956186668
 31
0.0
  0
LINE
  5
3CC
330
1F
100
AcDbEntity
  8
A-A
  6
Continuous
 62
     3
370
     9
100
AcDbLine
 10
1144.494546426309
 20
72.60547534839532
 30
0.0
 11
1144.494546426309
 21
81.12705540012684
 31
0.0
  0
LINE
  5
3CD
330
1F
100
AcDbEntity
  8
A-A
  6
Continuous
 62
     3
370
     9
100
AcDbLine
 10
1141.994414458404
 20
54.08336742504218
 30
0.0
 11
1141.994414458404
 21
44.08358187288854
 31
0.0
  0
LINE
  5
3CE
330
1F
100
AcDbEntity
  8
A-A
  6
Continuous
 62
     3
370
     9
100
AcDbLine
 10
1141.994414458404
 20
54.08336742504218
 30
0.0
 11
1144.494546426309
 21
55.7501220703125
 31
0.0
  0
LINE
  5
3CF
330
1F
100
AcDbEntity
  8
A-A
  6
Continuous
 62
     3
370
     9
100
AcDbLine
 10
1144.494546426309
 20
64.27194956186668
 30
0.0
 11
1144.494546426309
 21
55.7501220703125
 31
0.0
  0
LINE
  5
3D0
330
1F
100
AcDbEntity
  8
A-2_蓋
  6
Continuous
 62
     3
370
     9
100
AcDbLine
 10
1163.35069811022
 20
641.9684662690033
 30
0.0
 11
1153.922745988176
 21
632.5405141469596
 31
0.0
  0
LINE
  5
3D1
330
1F
100
AcDbEntity
  8
A-2_蓋
  6
Continuous
 62
     3
370
     9
100
AcDbLine
 10
1153.922745988176
 20
632.5405141469596
 30
0.0
 11
1144.494546426309
 21
641.9684662690033
 31
0.0
  0
LINE
  5
3D2
330
1F
100
AcDbEntity
  8
A-2_蓋
  6
Continuous
 62
     3
370
     9
100
AcDbLine
 10
1144.494546426309
 20
641.9684662690033
 30
0.0
 11
1153.922745988176
 21
651.3964183910474
 31
0.0
  0
LINE
  5
3D3
330
1F
100
AcDbEntity
  8
A-2_蓋
  6
Continuous
 62
     3
370
     9
100
AcDbLine
 10
1153.922745988176
 20
651.3964183910474
 30
0.0
 11
1163.35069811022
 21
641.9684662690033
 31
0.0
  0
LINE
  5
3D4
330
1F
100
AcDbEntity
  8
A-2_蓋
  6
Continuous
 62
     3
370
     9
100
AcDbLine
 10
1163.35069811022
 20
475.3016621357688
 30
0.0
 11
1153.922745988176
 21
465.8737100137247
 31
0.0
  0
LINE
  5
3D5
330
1F
100
AcDbEntity
  8
A-2_蓋
  6
Continuous
 62
     3
370
     9
100
AcDbLine
 10
1153.922745988176
 20
465.8737100137247
 30
0.0
 11
1144.494546426309
 21
475.3016621357688
 31
0.0
  0
LINE
  5
3D6
330
1F
100
AcDbEntity
  8
A-2_蓋
  6
Continuous
 62
     3
370
     9
100
AcDbLine
 10
1144.494546426309
 20
475.3016621357688
 30
0.0
 11
1153.922745988176
 21
484.7298616976352
 31
0.0
  0
LINE
  5
3D7
330
1F
100
AcDbEntity
  8
A-2_蓋
  6
Continuous
 62
     3
370
     9
100
AcDbLine
 10
1153.922745988176
 20
484.7298616976352
 30
0.0
 11
1163.35069811022
 21
475.3016621357688
 31
0.0
  0
LINE
  5
3D8
330
1F
100
AcDbEntity
  8
A-2_蓋
  6
Continuous
 62
     3
370
     9
100
AcDbLine
 10
1163.35069811022
 20
308.6351054423565
 30
0.0
 11
1153.922745988176
 21
299.2071533203125
 31
0.0
  0
LINE
  5
3D9
330
1F
100
AcDbEntity
  8
A-2_蓋
  6
Continuous
 62
     3
370
     9
100
AcDbLine
 10
1153.922745988176
 20
299.2071533203125
 30
0.0
 11
1144.494546426309
 21
308.6351054423565
 31
0.0
  0
LINE
  5
3DA
330
1F
100
AcDbEntity
  8
A-2_蓋
  6
Continuous
 62
     3
370
     9
100
AcDbLine
 10
1144.494546426309
 20
308.6351054423565
 30
0.0
 11
1153.922745988176
 21
318.0633050042232
 31
0.0
  0
LINE
  5
3DB
330
1F
100
AcDbEntity
  8
A-2_蓋
  6
Continuous
 62
     3
370
     9
100
AcDbLine
 10
1153.922745988176
 20
318.0633050042232
 30
0.0
 11
1163.35069811022
 21
308.6351054423565
 31
0.0
  0
LINE
  5
3DC
330
1F
100
AcDbEntity
  8
A-2_蓋
  6
Continuous
 62
     3
370
     9
100
AcDbLine
 10
1163.35069811022
 20
-24.69837910420182
 30
0.0
 11
1153.922745988176
 21
-34.12633122624584
 31
0.0
  0
LINE
  5
3DD
330
1F
100
AcDbEntity
  8
A-2_蓋
  6
Continuous
 62
     3
370
     9
100
AcDbLine
 10
1153.922745988176
 20
-34.12633122624584
 30
0.0
 11
1144.494546426309
 21
-24.69837910420182
 31
0.0
  0
LINE
  5
3DE
330
1F
100
AcDbEntity
  8
A-2_蓋
  6
Continuous
 62
     3
370
     9
100
AcDbLine
 10
1144.494546426309
 20
-24.69837910420182
 30
0.0
 11
1153.922745988176
 21
-15.27017954233514
 31
0.0
  0
LINE
  5
3DF
330
1F
100
AcDbEntity
  8
A-2_蓋
  6
Continuous
 62
     3
370
     9
100
AcDbLine
 10
1153.922745988176
 20
-15.27017954233514
 30
0.0
 11
1163.35069811022
 21
-24.69837910420182
 31
0.0
  0
LINE
  5
3E0
330
1F
100
AcDbEntity
  8
D-2_蓋
  6
Continuous
 62
     3
370
     9
100
AcDbLine
 10
-303.4777667071367
 20
-553.4582890690983
 30
0.0
 11
-309.1939977697422
 21
-553.4582890690983
 31
0.0
  0
LINE
  5
3E1
330
1F
100
AcDbEntity
  8
D-2_蓋
  6
Continuous
 62
     3
370
     9
100
AcDbLine
 10
-303.4777667071367
 20
-928.458536508921
 30
0.0
 11
-699.9920406857052
 21
-928.458536508921
 31
0.0
  0
LINE
  5
3E2
330
1F
100
AcDbEntity
  8
D-2_蓋
  6
Continuous
 62
     3
370
     9
100
AcDbLine
 10
-232.8348108240075
 20
-553.4582890690983
 30
0.0
 11
-197.8348190720016
 21
-553.4582890690983
 31
0.0
  0
LINE
  5
3E3
330
1F
100
AcDbEntity
  8
D-2_蓋
  6
Continuous
 62
     3
370
     9
100
AcDbLine
 10
-197.8348190720016
 20
-928.458536508921
 30
0.0
 11
-232.8348108240075
 21
-928.458536508921
 31
0.0
  0
LINE
  5
3E4
330
1F
100
AcDbEntity
  8
D-2_蓋
  6
Continuous
 62
     3
370
     9
100
AcDbLine
 10
-232.8348108240075
 20
-545.9583261850718
 30
0.0
 11
-197.8348190720016
 21
-545.9583261850718
 31
0.0
  0
LINE
  5
3E5
330
1F
100
AcDbEntity
  8
D-2_蓋
  6
Continuous
 62
     3
370
     9
100
AcDbLine
 10
-232.8348108240075
 20
-545.9583261850718
 30
0.0
 11
-232.8348108240075
 21
-613.4580540012668
 31
0.0
  0
LINE
  5
3E6
330
1F
100
AcDbEntity
  8
D-2_蓋
  6
Continuous
 62
     3
370
     9
100
AcDbLine
 10
-197.8348190720016
 20
-545.9583261850718
 30
0.0
 11
-197.8348190720016
 21
-613.4580540012668
 31
0.0
  0
LINE
  5
3E7
330
1F
100
AcDbEntity
  8
D-4_寸法
  6
Continuous
 62
     7
370
     9
100
AcDbLine
 10
-75.38872796135962
 20
-928.458536508921
 30
0.0
 11
-75.38872796135962
 21
-553.4582890690983
 31
0.0
  0
LINE
  5
3E8
330
1F
100
AcDbEntity
  8
D-4_寸法
  6
Continuous
 62
     7
370
     9
100
AcDbLine
 10
-179.0605699693833
 20
-928.458536508921
 30
0.0
 11
-72.38864383182005
 21
-928.458536508921
 31
0.0
  0
LINE
  5
3E9
330
1F
100
AcDbEntity
  8
D-4_寸法
  6
Continuous
 62
     7
370
     9
100
AcDbLine
 10
-179.0605699693833
 20
-553.4582890690983
 30
0.0
 11
-72.38864383182005
 21
-553.4582890690983
 31
0.0
  0
LINE
  5
3EA
330
1F
100
AcDbEntity
  8
D-4_寸法
  6
Continuous
 62
     7
370
     9
100
AcDbLine
 10
-75.38872796135962
 20
-928.458536508921
 30
0.0
 11
-78.6518406223604
 21
-903.672427615604
 31
0.0
  0
LINE
  5
3EB
330
1F
100
AcDbEntity
  8
D-4_寸法
  6
Continuous
 62
     7
370
     9
100
AcDbLine
 10
-75.38872796135962
 20
-928.458536508921
 30
0.0
 11
-72.12549158044766
 21
-903.672427615604
 31
0.0
  0
LINE
  5
3EC
330
1F
100
AcDbEntity
  8
D-4_寸法
  6
Continuous
 62
     7
370
     9
100
AcDbLine
 10
-75.38872796135962
 20
-553.4582890690983
 30
0.0
 11
-78.6518406223604
 21
-578.2443361024599
 31
0.0
  0
LINE
  5
3ED
330
1F
100
AcDbEntity
  8
D-4_寸法
  6
Continuous
 62
     7
370
     9
100
AcDbLine
 10
-75.38872796135962
 20
-553.4582890690983
 30
0.0
 11
-72.12549158044766
 21
-578.2443361024599
 31
0.0
  0
LINE
  5
3EE
330
1F
100
AcDbEntity
  8
D-4_寸法
  6
Continuous
 62
     7
370
     9
100
AcDbLine
 10
-197.8348190720016
 20
-534.3743071684967
 30
0.0
 11
-197.8348190720016
 21
-498.2041106352935
 31
0.0
  0
LINE
  5
3EF
330
1F
100
AcDbEntity
  8
D-4_寸法
  6
Continuous
 62
     7
370
     9
100
AcDbLine
 10
-232.8348108240075
 20
-534.3743071684967
 30
0.0
 11
-232.8348108240075
 21
-498.2041106352935
 31
0.0
  0
LINE
  5
3F0
330
1F
100
AcDbEntity
  8
D-4_寸法
  6
Continuous
 62
     7
370
     9
100
AcDbLine
 10
-197.8348190720016
 20
-501.2038854650548
 30
0.0
 11
-173.0485245988174
 21
-497.9407109440983
 31
0.0
  0
LINE
  5
3F1
330
1F
100
AcDbEntity
  8
D-4_寸法
  6
Continuous
 62
     7
370
     9
100
AcDbLine
 10
-197.8348190720016
 20
-501.2038854650548
 30
0.0
 11
-173.0485245988174
 21
-504.467307425834
 31
0.0
  0
LINE
  5
3F2
330
1F
100
AcDbEntity
  8
D-4_寸法
  6
Continuous
 62
     7
370
     9
100
AcDbLine
 10
-232.8348108240075
 20
-501.2038854650548
 30
0.0
 11
-257.6211052971917
 21
-497.9407109440983
 31
0.0
  0
LINE
  5
3F3
330
1F
100
AcDbEntity
  8
D-4_寸法
  6
Continuous
 62
     7
370
     9
100
AcDbLine
 10
-232.8348108240075
 20
-501.2038854650548
 30
0.0
 11
-257.6211052971917
 21
-504.467307425834
 31
0.0
  0
LINE
  5
3F4
330
1F
100
AcDbEntity
  8
D-4_寸法
  6
Continuous
 62
     7
370
     9
100
AcDbLine
 10
-205.3347200960727
 20
-774.4554550583298
 30
0.0
 11
-180.5489205025336
 21
-771.1920330975506
 31
0.0
  0
LINE
  5
3F5
330
1F
100
AcDbEntity
  8
D-4_寸法
  6
Continuous
 62
     7
370
     9
100
AcDbLine
 10
-205.3347200960727
 20
-774.4554550583298
 30
0.0
 11
-180.5489205025336
 21
-777.7186295792864
 31
0.0
  0
LINE
  5
3F6
330
1F
100
AcDbEntity
  8
D-4_寸法
  6
Continuous
 62
     7
370
     9
100
AcDbLine
 10
-225.3349097999364
 20
-774.4554550583298
 30
0.0
 11
-250.121327993032
 21
-771.1920330975506
 31
0.0
  0
LINE
  5
3F7
330
1F
100
AcDbEntity
  8
D-4_寸法
  6
Continuous
 62
     7
370
     9
100
AcDbLine
 10
-225.3349097999364
 20
-774.4554550583298
 30
0.0
 11
-250.121327993032
 21
-777.7186295792864
 31
0.0
  0
LINE
  5
3F8
330
1F
100
AcDbEntity
  8
D-4_寸法
  6
Continuous
 62
     7
370
     9
100
AcDbLine
 10
-167.0776779587203
 20
-774.4554550583298
 30
0.0
 11
-255.04810230152
 21
-774.4554550583298
 31
0.0
  0
LINE
  5
3F9
330
1F
100
AcDbEntity
  8
D-2_蓋
  6
Continuous
 62
     3
370
     9
100
AcDbLine
 10
-314.1937668259078
 20
-545.9578313054265
 30
0.0
 11
-329.1941874736062
 21
-545.9578313054265
 31
0.0
  0
LINE
  5
3FA
330
1F
100
AcDbEntity
  8
D-2_蓋
  6
Continuous
 62
     3
370
     9
100
AcDbLine
 10
-314.1937668259078
 20
-545.9578313054265
 30
0.0
 11
-309.1939977697422
 21
-553.4582890690983
 31
0.0
  0
LINE
  5
3FB
330
1F
100
AcDbEntity
  8
D-2_蓋
  6
Continuous
 62
     3
370
     9
100
AcDbLine
 10
-394.759059596706
 20
-545.9578313054265
 30
0.0
 11
-399.7588286528716
 21
-553.4582890690983
 31
0.0
  0
LINE
  5
3FC
330
1F
100
AcDbEntity
  8
D-2_蓋
  6
Continuous
 62
     3
370
     9
100
AcDbLine
 10
-364.7588369008656
 20
-545.9578313054265
 30
0.0
 11
-394.759059596706
 21
-545.9578313054265
 31
0.0
  0
LINE
  5
3FD
330
1F
100
AcDbEntity
  8
D-2_蓋
  6
Continuous
 62
     3
370
     9
100
AcDbLine
 10
-364.7588369008656
 20
-545.9578313054265
 30
0.0
 11
-359.7590678447
 21
-553.4582890690983
 31
0.0
  0
LINE
  5
3FE
330
1F
100
AcDbEntity
  8
D-2_蓋
  6
Continuous
 62
     3
370
     9
100
AcDbLine
 10
-334.1939565297719
 20
-553.4582890690983
 30
0.0
 11
-359.7590678447
 21
-553.4582890690983
 31
0.0
  0
LINE
  5
3FF
330
1F
100
AcDbEntity
  8
D-2_蓋
  6
Continuous
 62
     3
370
     9
100
AcDbLine
 10
-329.1941874736062
 20
-545.9578313054265
 30
0.0
 11
-334.1939565297719
 21
-553.4582890690983
 31
0.0
  0
LINE
  5
400
330
1F
100
AcDbEntity
  8
D-2_蓋
  6
Continuous
 62
     3
370
     9
100
AcDbLine
 10
-430.3237090239654
 20
-545.9578313054265
 30
0.0
 11
-445.3240059517523
 21
-545.9578313054265
 31
0.0
  0
LINE
  5
401
330
1F
100
AcDbEntity
  8
D-2_蓋
  6
Continuous
 62
     3
370
     9
100
AcDbLine
 10
-430.3237090239654
 20
-545.9578313054265
 30
0.0
 11
-425.3239399677997
 21
-553.4582890690983
 31
0.0
  0
LINE
  5
402
330
1F
100
AcDbEntity
  8
D-2_蓋
  6
Continuous
 62
     3
370
     9
100
AcDbLine
 10
-510.8890017947635
 20
-545.9578313054265
 30
0.0
 11
-515.888770850929
 21
-553.4582890690983
 31
0.0
  0
LINE
  5
403
330
1F
100
AcDbEntity
  8
D-2_蓋
  6
Continuous
 62
     3
370
     9
100
AcDbLine
 10
-480.8887790989232
 20
-545.9578313054265
 30
0.0
 11
-510.8890017947635
 21
-545.9578313054265
 31
0.0
  0
LINE
  5
404
330
1F
100
AcDbEntity
  8
D-2_蓋
  6
Continuous
 62
     3
370
     9
100
AcDbLine
 10
-480.8887790989232
 20
-545.9578313054265
 30
0.0
 11
-475.8890100427575
 21
-553.4582890690983
 31
0.0
  0
LINE
  5
405
330
1F
100
AcDbEntity
  8
D-2_蓋
  6
Continuous
 62
     3
370
     9
100
AcDbLine
 10
-450.323775007918
 20
-553.4582890690983
 30
0.0
 11
-475.8890100427575
 21
-553.4582890690983
 31
0.0
  0
LINE
  5
406
330
1F
100
AcDbEntity
  8
D-2_蓋
  6
Continuous
 62
     3
370
     9
100
AcDbLine
 10
-445.3240059517523
 20
-545.9578313054265
 30
0.0
 11
-450.323775007918
 21
-553.4582890690983
 31
0.0
  0
LINE
  5
407
330
1F
100
AcDbEntity
  8
D-2_蓋
  6
Continuous
 62
     3
370
     9
100
AcDbLine
 10
-425.3239399677997
 20
-553.4582890690983
 30
0.0
 11
-399.7588286528716
 21
-553.4582890690983
 31
0.0
  0
LINE
  5
408
330
1F
100
AcDbEntity
  8
D-2_蓋
  6
Continuous
 62
     3
370
     9
100
AcDbLine
 10
-546.4536512220227
 20
-545.9578313054265
 30
0.0
 11
-561.454071869721
 21
-545.9578313054265
 31
0.0
  0
LINE
  5
409
330
1F
100
AcDbEntity
  8
D-2_蓋
  6
Continuous
 62
     3
370
     9
100
AcDbLine
 10
-546.4536512220227
 20
-545.9578313054265
 30
0.0
 11
-541.4538821658573
 21
-553.4582890690983
 31
0.0
  0
LINE
  5
40A
330
1F
100
AcDbEntity
  8
D-2_蓋
  6
Continuous
 62
     3
370
     9
100
AcDbLine
 10
-627.0189439928208
 20
-545.9578313054265
 30
0.0
 11
-632.0187130489865
 21
-553.4582890690983
 31
0.0
  0
LINE
  5
40B
330
1F
100
AcDbEntity
  8
D-2_蓋
  6
Continuous
 62
     3
370
     9
100
AcDbLine
 10
-597.0187212969804
 20
-545.9578313054265
 30
0.0
 11
-627.0189439928208
 21
-545.9578313054265
 31
0.0
  0
LINE
  5
40C
330
1F
100
AcDbEntity
  8
D-2_蓋
  6
Continuous
 62
     3
370
     9
100
AcDbLine
 10
-597.0187212969804
 20
-545.9578313054265
 30
0.0
 11
-592.0189522408148
 21
-553.4582890690983
 31
0.0
  0
LINE
  5
40D
330
1F
100
AcDbEntity
  8
D-2_蓋
  6
Continuous
 62
     3
370
     9
100
AcDbLine
 10
-566.4538409258867
 20
-553.4582890690983
 30
0.0
 11
-592.0189522408148
 21
-553.4582890690983
 31
0.0
  0
LINE
  5
40E
330
1F
100
AcDbEntity
  8
D-2_蓋
  6
Continuous
 62
     3
370
     9
100
AcDbLine
 10
-561.454071869721
 20
-545.9578313054265
 30
0.0
 11
-566.4538409258867
 21
-553.4582890690983
 31
0.0
  0
LINE
  5
40F
330
1F
100
AcDbEntity
  8
D-2_蓋
  6
Continuous
 62
     3
370
     9
100
AcDbLine
 10
-541.4538821658573
 20
-553.4582890690983
 30
0.0
 11
-515.888770850929
 21
-553.4582890690983
 31
0.0
  0
LINE
  5
410
330
1F
100
AcDbEntity
  8
D-2_蓋
  6
Continuous
 62
     3
370
     9
100
AcDbLine
 10
-662.5835934200802
 20
-545.9578313054265
 30
0.0
 11
-677.5840140677786
 21
-545.9578313054265
 31
0.0
  0
LINE
  5
411
330
1F
100
AcDbEntity
  8
D-2_蓋
  6
Continuous
 62
     3
370
     9
100
AcDbLine
 10
-662.5835934200802
 20
-545.9578313054265
 30
0.0
 11
-657.5838243639146
 21
-553.4582890690983
 31
0.0
  0
LINE
  5
412
330
1F
100
AcDbEntity
  8
D-2_蓋
  6
Continuous
 62
     3
370
     9
100
AcDbLine
 10
-677.5840140677786
 20
-545.9578313054265
 30
0.0
 11
-682.5837831239443
 21
-553.4582890690983
 31
0.0
  0
LINE
  5
413
330
1F
100
AcDbEntity
  8
D-2_蓋
  6
Continuous
 62
     3
370
     9
100
AcDbLine
 10
-657.5838243639146
 20
-553.4582890690983
 30
0.0
 11
-632.0187130489865
 21
-553.4582890690983
 31
0.0
  0
LINE
  5
414
330
1F
100
AcDbEntity
  8
D-2_蓋
  6
Continuous
 62
     3
370
     9
100
AcDbLine
 10
-682.5837831239443
 20
-553.4582890690983
 30
0.0
 11
-699.9920406857052
 21
-553.4582890690983
 31
0.0
  0
LINE
  5
415
330
1F
100
AcDbEntity
  8
D-2_蓋
  6
Continuous
 62
     3
370
     9
100
AcDbLine
 10
-225.3349097999364
 20
-620.9579550253377
 30
0.0
 11
-232.8348108240075
 21
-613.4580540012668
 31
0.0
  0
LINE
  5
416
330
1F
100
AcDbEntity
  8
D-2_蓋
  6
Continuous
 62
     3
370
     9
100
AcDbLine
 10
-205.3347200960727
 20
-620.9579550253377
 30
0.0
 11
-197.8348190720016
 21
-613.4580540012668
 31
0.0
  0
LINE
  5
417
330
1F
100
AcDbEntity
  8
D-2_蓋
  6
Continuous
 62
     3
370
     9
100
AcDbLine
 10
-232.8348108240075
 20
-928.458536508921
 30
0.0
 11
-232.8348108240075
 21
-868.45852413693
 31
0.0
  0
LINE
  5
418
330
1F
100
AcDbEntity
  8
D-2_蓋
  6
Continuous
 62
     3
370
     9
100
AcDbLine
 10
-232.8348108240075
 20
-868.45852413693
 30
0.0
 11
-225.3349097999364
 21
-860.9586231128588
 31
0.0
  0
LINE
  5
419
330
1F
100
AcDbEntity
  8
D-2_蓋
  6
Continuous
 62
     3
370
     9
100
AcDbLine
 10
-225.3349097999364
 20
-620.9579550253377
 30
0.0
 11
-225.3349097999364
 21
-860.9586231128588
 31
0.0
  0
LINE
  5
41A
330
1F
100
AcDbEntity
  8
D-2_蓋
  6
Continuous
 62
     3
370
     9
100
AcDbLine
 10
-205.3347200960727
 20
-620.9579550253377
 30
0.0
 11
-205.3347200960727
 21
-860.9586231128588
 31
0.0
  0
LINE
  5
41B
330
1F
100
AcDbEntity
  8
D-2_蓋
  6
Continuous
 62
     3
370
     9
100
AcDbLine
 10
-205.3347200960727
 20
-860.9586231128588
 30
0.0
 11
-197.8348190720016
 21
-868.45852413693
 31
0.0
  0
LINE
  5
41C
330
1F
100
AcDbEntity
  8
D-2_蓋
  6
Continuous
 62
     3
370
     9
100
AcDbLine
 10
-197.8348190720016
 20
-868.45852413693
 30
0.0
 11
-197.8348190720016
 21
-928.458536508921
 31
0.0
  0
LINE
  5
41D
330
1F
100
AcDbEntity
  8
D-2_蓋
  6
Continuous
 62
     3
370
     9
100
AcDbLine
 10
-303.4777667071367
 20
-868.45852413693
 30
0.0
 11
-699.9920406857052
 21
-868.45852413693
 31
0.0
  0
LINE
  5
41E
330
1F
100
AcDbEntity
  8
D-2_蓋
  6
Continuous
 62
     3
370
     9
100
AcDbLine
 10
-303.4777667071367
 20
-860.9586231128588
 30
0.0
 11
-699.9920406857052
 21
-860.9586231128588
 31
0.0
  0
LINE
  5
41F
330
1F
100
AcDbEntity
  8
D-2_蓋
  6
Continuous
 62
     3
370
     9
100
AcDbLine
 10
-303.4777667071367
 20
-613.4580540012668
 30
0.0
 11
-699.9920406857052
 21
-613.4580540012668
 31
0.0
  0
LINE
  5
420
330
1F
100
AcDbEntity
  8
D-2_蓋
  6
Continuous
 62
     3
370
     9
100
AcDbLine
 10
-303.4777667071367
 20
-620.9579550253377
 30
0.0
 11
-699.9920406857052
 21
-620.9579550253377
 31
0.0
  0
LINE
  5
421
330
1F
100
AcDbEntity
  8
D-2_蓋
  6
Continuous
 62
     3
370
     9
100
AcDbLine
 10
-863.9400997677365
 20
-672.3868993810704
 30
0.0
 11
-856.4134752428208
 21
-679.9130908862963
 31
0.0
  0
LINE
  5
422
330
1F
100
AcDbEntity
  8
D-2_蓋
  6
Continuous
 62
     3
370
     9
100
AcDbLine
 10
-881.4138051625844
 20
-676.1262099807327
 30
0.0
 11
-860.3549441775759
 21
-697.1856277053421
 31
0.0
  0
LINE
  5
423
330
1F
100
AcDbEntity
  8
D-2_蓋
  6
Continuous
 62
     3
370
     9
100
AcDbLine
 10
-881.4138051625844
 20
-614.8398816907728
 30
0.0
 11
-856.4134752428208
 21
-639.8402734704919
 31
0.0
  0
LINE
  5
424
330
1F
100
AcDbEntity
  8
D-2_蓋
  6
Continuous
 62
     3
370
     9
100
AcDbLine
 10
-867.9197981550886
 20
-617.72799930057
 30
0.0
 11
-856.4134752428208
 21
-629.2332705935916
 31
0.0
  0
LINE
  5
425
330
1F
100
AcDbEntity
  8
D-2_蓋
  6
Continuous
 62
     3
370
     9
100
AcDbLine
 10
-856.4134752428208
 20
-600.5055071856523
 30
0.0
 11
-856.4134752428208
 21
-891.9801536766258
 31
0.0
  0
LINE
  5
426
330
1F
100
AcDbEntity
  8
D-4_寸法
  6
Continuous
 62
     7
370
     9
100
AcDbLine
 10
-898.3504424224029
 20
-819.9640304977829
 30
0.0
 11
-952.0453788138724
 21
-819.9640304977829
 31
0.0
  0
LINE
  5
427
330
1F
100
AcDbEntity
  8
D-4_寸法
  6
Continuous
 62
     7
370
     9
100
AcDbLine
 10
-898.3504424224029
 20
-845.0773166965794
 30
0.0
 11
-952.0453788138724
 21
-845.0773166965794
 31
0.0
  0
LINE
  5
428
330
1F
100
AcDbEntity
  8
D-4_寸法
  6
Continuous
 62
     7
370
     9
100
AcDbLine
 10
-949.045789563978
 20
-819.9640304977829
 30
0.0
 11
-952.3090259448901
 21
-795.1779216044657
 31
0.0
  0
LINE
  5
429
330
1F
100
AcDbEntity
  8
D-4_寸法
  6
Continuous
 62
     7
370
     9
100
AcDbLine
 10
-949.045789563978
 20
-819.9640304977829
 30
0.0
 11
-945.7821820233319
 21
-795.1779216044657
 31
0.0
  0
LINE
  5
42A
330
1F
100
AcDbEntity
  8
D-4_寸法
  6
Continuous
 62
     7
370
     9
100
AcDbLine
 10
-949.045789563978
 20
-845.0773166965794
 30
0.0
 11
-952.3090259448901
 21
-869.8634255898965
 31
0.0
  0
LINE
  5
42B
330
1F
100
AcDbEntity
  8
D-4_寸法
  6
Continuous
 62
     7
370
     9
100
AcDbLine
 10
-949.045789563978
 20
-845.0773166965794
 30
0.0
 11
-945.7821820233319
 21
-869.8634255898965
 31
0.0
  0
LINE
  5
42C
330
1F
100
AcDbEntity
  8
D-4_寸法
  6
Continuous
 62
     7
370
     9
100
AcDbLine
 10
-949.045789563978
 20
-788.4645699165962
 30
0.0
 11
-949.045789563978
 21
-884.33754173485
 31
0.0
  0
LINE
  5
42D
330
1F
100
AcDbEntity
  8
D-4_寸法
  6
Continuous
 62
     7
370
     9
100
AcDbLine
 10
-844.9587435335725
 20
-693.8907190271325
 30
0.0
 11
-812.9425048828125
 21
-687.0396052180109
 31
0.0
  0
LINE
  5
42E
330
1F
100
AcDbEntity
  8
D-4_寸法
  6
Continuous
 62
     7
370
     9
100
AcDbLine
 10
-850.189868823902
 20
-669.4442831503377
 30
0.0
 11
-818.1742487726984
 21
-662.5929219013935
 31
0.0
  0
LINE
  5
42F
330
1F
100
AcDbEntity
  8
D-4_寸法
  6
Continuous
 62
     7
370
     9
100
AcDbLine
 10
-815.8767700195312
 20
-687.6676074878588
 30
0.0
 11
-807.4983339051943
 21
-711.2220228040541
 31
0.0
  0
LINE
  5
430
330
1F
100
AcDbEntity
  8
D-4_寸法
  6
Continuous
 62
     7
370
     9
100
AcDbLine
 10
-815.8767700195312
 20
-687.6676074878588
 30
0.0
 11
-813.8804255305109
 21
-712.587519465266
 31
0.0
  0
LINE
  5
431
330
1F
100
AcDbEntity
  8
D-4_寸法
  6
Continuous
 62
     7
370
     9
100
AcDbLine
 10
-821.1078953098605
 20
-663.2206767314188
 30
0.0
 11
-823.1036211993242
 21
-638.3003935942779
 31
0.0
  0
LINE
  5
432
330
1F
100
AcDbEntity
  8
D-4_寸法
  6
Continuous
 62
     7
370
     9
100
AcDbLine
 10
-821.1078953098605
 20
-663.2206767314188
 30
0.0
 11
-829.4852179449957
 21
-639.6663851351352
 31
0.0
  0
LINE
  5
433
330
1F
100
AcDbEntity
  8
D-4_寸法
  6
Continuous
 62
     7
370
     9
100
AcDbLine
 10
-809.602067277238
 20
-716.9862571922508
 30
0.0
 11
-827.9582667995144
 21
-631.208211537954
 31
0.0
  0
LINE
  5
434
330
1F
100
AcDbEntity
  8
D-2_蓋
  6
Continuous
 62
     3
370
     9
100
AcDbLine
 10
-891.413961874472
 20
-600.5055071856523
 30
0.0
 11
-891.413961874472
 21
-891.9801536766258
 31
0.0
  0
LINE
  5
435
330
1F
100
AcDbEntity
  8
D-2_蓋
  6
Continuous
 62
     3
370
     9
100
AcDbLine
 10
-891.413961874472
 20
-638.2666799184437
 30
0.0
 11
-856.4134752428208
 21
-645.7561884699641
 31
0.0
  0
LINE
  5
436
330
1F
100
AcDbEntity
  8
D-2_蓋
  6
Continuous
 62
     3
370
     9
100
AcDbLine
 10
-891.413961874472
 20
-640.8227951462204
 30
0.0
 11
-856.4134752428208
 21
-648.3127985773859
 31
0.0
  0
LINE
  5
437
330
1F
100
AcDbEntity
  8
D-2_蓋
  6
Continuous
 62
     3
370
     9
100
AcDbLine
 10
-856.4134752428208
 20
-617.6333535684121
 30
0.0
 11
-891.413961874472
 21
-610.1438450168918
 31
0.0
  0
LINE
  5
438
330
1F
100
AcDbEntity
  8
D-2_蓋
  6
Continuous
 62
     3
370
     9
100
AcDbLine
 10
-856.4134752428208
 20
-620.1900255357897
 30
0.0
 11
-891.413961874472
 21
-612.7005169842694
 31
0.0
  0
LINE
  5
439
330
1F
100
AcDbEntity
  8
D-2_蓋
  6
Continuous
 62
     3
370
     9
100
AcDbLine
 10
-872.6767050253377
 20
-674.2567402607685
 30
0.0
 11
-856.4134752428208
 21
-690.5195988835515
 31
0.0
  0
LINE
  5
43A
330
1F
100
AcDbEntity
  8
D-2_蓋
  6
Continuous
 62
     3
370
     9
100
AcDbLine
 10
-891.413961874472
 20
-678.266131426837
 30
0.0
 11
-856.4134752428208
 21
-670.776375435494
 31
0.0
  0
LINE
  5
43B
330
1F
100
AcDbEntity
  8
D-2_蓋
  6
Continuous
 62
     3
370
     9
100
AcDbLine
 10
-891.413961874472
 20
-675.7094594594594
 30
0.0
 11
-856.4134752428208
 21
-668.2199509079392
 31
0.0
  0
LINE
  5
43C
330
1F
100
AcDbEntity
  8
D-2_蓋
  6
Continuous
 62
     3
370
     9
100
AcDbLine
 10
-891.413961874472
 20
-703.8320469211886
 30
0.0
 11
-856.4134752428208
 21
-696.3423527898015
 31
0.0
  0
LINE
  5
43D
330
1F
100
AcDbEntity
  8
D-2_蓋
  6
Continuous
 62
     3
370
     9
100
AcDbLine
 10
-891.413961874472
 20
-706.3889044684332
 30
0.0
 11
-856.4134752428208
 21
-698.8991484770904
 31
0.0
  0
LINE
  5
43E
330
1F
100
AcDbEntity
  8
D-2_蓋
  6
Continuous
 62
     3
370
     9
100
AcDbLine
 10
-891.413961874472
 20
-615.4468515756968
 30
0.0
 11
-862.3814763249577
 21
-644.4788422455658
 31
0.0
  0
LINE
  5
43F
330
1F
100
AcDbEntity
  8
D-2_蓋
  6
Continuous
 62
     3
370
     9
100
AcDbLine
 10
-891.413961874472
 20
-626.0533595729519
 30
0.0
 11
-875.8759782120987
 21
-641.5912195154137
 31
0.0
  0
LINE
  5
440
330
1F
100
AcDbEntity
  8
D-2_蓋
  6
Continuous
 62
     3
370
     9
100
AcDbLine
 10
-891.413961874472
 20
-636.6603624498522
 30
0.0
 11
-889.3706038191511
 21
-638.703720505173
 31
0.0
  0
LINE
  5
441
330
1F
100
AcDbEntity
  8
D-2_蓋
  6
Continuous
 62
     3
370
     9
100
AcDbLine
 10
-890.150905299831
 20
-677.9958034206081
 30
0.0
 11
-869.0910545555321
 21
-699.055283005173
 31
0.0
  0
LINE
  5
442
330
1F
100
AcDbEntity
  8
D-2_蓋
  6
Continuous
 62
     3
370
     9
100
AcDbLine
 10
-891.413961874472
 20
-687.3398734427786
 30
0.0
 11
-877.8281546927786
 21
-700.9249383050042
 31
0.0
  0
LINE
  5
443
330
1F
100
AcDbEntity
  8
D-2_蓋
  6
Continuous
 62
     3
370
     9
100
AcDbLine
 10
-891.413961874472
 20
-697.9463814400337
 30
0.0
 11
-886.5652548300252
 21
-702.7945936048353
 31
0.0
  0
LINE
  5
444
330
1F
100
AcDbEntity
  8
D-4_寸法
  6
Continuous
 62
     7
370
     9
100
AcDbLine
 10
-898.3504424224029
 20
-638.2666799184437
 30
0.0
 11
-952.0453788138724
 21
-638.2666799184437
 31
0.0
  0
LINE
  5
445
330
1F
100
AcDbEntity
  8
D-4_寸法
  6
Continuous
 62
     7
370
     9
100
AcDbLine
 10
-898.3504424224029
 20
-678.266131426837
 30
0.0
 11
-952.0453788138724
 21
-678.266131426837
 31
0.0
  0
LINE
  5
446
330
1F
100
AcDbEntity
  8
D-4_寸法
  6
Continuous
 62
     7
370
     9
100
AcDbLine
 10
-949.045789563978
 20
-638.2666799184437
 30
0.0
 11
-952.3080361855996
 21
-613.4803235853041
 31
0.0
  0
LINE
  5
447
330
1F
100
AcDbEntity
  8
D-4_寸法
  6
Continuous
 62
     7
370
     9
100
AcDbLine
 10
-949.045789563978
 20
-638.2666799184437
 30
0.0
 11
-945.7821820233319
 21
-613.4803235853041
 31
0.0
  0
LINE
  5
448
330
1F
100
AcDbEntity
  8
D-4_寸法
  6
Continuous
 62
     7
370
     9
100
AcDbLine
 10
-949.045789563978
 20
-678.266131426837
 30
0.0
 11
-952.3080361855996
 21
-703.0521784601984
 31
0.0
  0
LINE
  5
449
330
1F
100
AcDbEntity
  8
D-4_寸法
  6
Continuous
 62
     7
370
     9
100
AcDbLine
 10
-949.045789563978
 20
-678.266131426837
 30
0.0
 11
-945.7821820233319
 21
-703.0521784601984
 31
0.0
  0
LINE
  5
44A
330
1F
100
AcDbEntity
  8
D-4_寸法
  6
Continuous
 62
     7
370
     9
100
AcDbLine
 10
-949.045789563978
 20
-607.5718936404666
 30
0.0
 11
-949.045789563978
 21
-706.7198552312077
 31
0.0
  0
LINE
  5
44B
330
1F
100
AcDbEntity
  8
D-2_蓋
  6
Continuous
 62
     3
370
     9
100
AcDbLine
 10
-891.413961874472
 20
-794.3980531434755
 30
0.0
 11
-856.4134752428208
 21
-786.9082971521325
 31
0.0
  0
LINE
  5
44C
330
1F
100
AcDbEntity
  8
D-2_蓋
  6
Continuous
 62
     3
370
     9
100
AcDbLine
 10
-891.413961874472
 20
-791.8414430360536
 30
0.0
 11
-856.4134752428208
 21
-784.3516870447106
 31
0.0
  0
LINE
  5
44D
330
1F
100
AcDbEntity
  8
D-2_蓋
  6
Continuous
 62
     3
370
     9
100
AcDbLine
 10
-856.4134752428208
 20
-815.0308227539062
 30
0.0
 11
-891.413961874472
 21
-822.520578745249
 31
0.0
  0
LINE
  5
44E
330
1F
100
AcDbEntity
  8
D-2_蓋
  6
Continuous
 62
     3
370
     9
100
AcDbLine
 10
-856.4134752428208
 20
-812.47427450644
 30
0.0
 11
-891.413961874472
 21
-819.9640304977829
 31
0.0
  0
LINE
  5
44F
330
1F
100
AcDbEntity
  8
D-2_蓋
  6
Continuous
 62
     3
370
     9
100
AcDbLine
 10
-891.413961874472
 20
-754.398106755437
 30
0.0
 11
-856.4134752428208
 21
-761.88786274678
 31
0.0
  0
LINE
  5
450
330
1F
100
AcDbEntity
  8
D-2_蓋
  6
Continuous
 62
     3
370
     9
100
AcDbLine
 10
-891.413961874472
 20
-756.9547168628588
 30
0.0
 11
-856.4134752428208
 21
-764.4444728542019
 31
0.0
  0
LINE
  5
451
330
1F
100
AcDbEntity
  8
D-2_蓋
  6
Continuous
 62
     3
370
     9
100
AcDbLine
 10
-891.413961874472
 20
-728.8321912610853
 30
0.0
 11
-856.4134752428208
 21
-736.3219472524281
 31
0.0
  0
LINE
  5
452
330
1F
100
AcDbEntity
  8
D-2_蓋
  6
Continuous
 62
     3
370
     9
100
AcDbLine
 10
-891.413961874472
 20
-726.2755192937077
 30
0.0
 11
-856.4134752428208
 21
-733.765027845228
 31
0.0
  0
LINE
  5
453
330
1F
100
AcDbEntity
  8
D-2_蓋
  6
Continuous
 62
     3
370
     9
100
AcDbLine
 10
-891.413961874472
 20
-870.6432940508867
 30
0.0
 11
-856.4134752428208
 21
-878.1330500422297
 31
0.0
  0
LINE
  5
454
330
1F
100
AcDbEntity
  8
D-2_蓋
  6
Continuous
 62
     3
370
     9
100
AcDbLine
 10
-891.413961874472
 20
-873.1996567184859
 30
0.0
 11
-856.4134752428208
 21
-880.6893508498733
 31
0.0
  0
LINE
  5
455
330
1F
100
AcDbEntity
  8
D-2_蓋
  6
Continuous
 62
     3
370
     9
100
AcDbLine
 10
-891.413961874472
 20
-845.0773166965794
 30
0.0
 11
-856.4134752428208
 21
-852.5670726879223
 31
0.0
  0
LINE
  5
456
330
1F
100
AcDbEntity
  8
D-2_蓋
  6
Continuous
 62
     3
370
     9
100
AcDbLine
 10
-891.413961874472
 20
-842.5204591493349
 30
0.0
 11
-856.4134752428208
 21
-850.0102151406777
 31
0.0
  0
LINE
  5
457
330
1F
100
AcDbEntity
  8
D-2_蓋
  6
Continuous
 62
     3
370
     9
100
AcDbLine
 10
-881.4138051625844
 20
-847.2169907028609
 30
0.0
 11
-856.4134752428208
 21
-872.2168876029349
 31
0.0
  0
LINE
  5
458
330
1F
100
AcDbEntity
  8
D-2_蓋
  6
Continuous
 62
     3
370
     9
100
AcDbLine
 10
-867.9197981550886
 20
-850.1048608728356
 30
0.0
 11
-856.4134752428208
 21
-861.61037960568
 31
0.0
  0
LINE
  5
459
330
1F
100
AcDbEntity
  8
D-2_蓋
  6
Continuous
 62
     3
370
     9
100
AcDbLine
 10
-891.413961874472
 20
-847.8237131479624
 30
0.0
 11
-862.3814763249577
 21
-876.8559512576542
 31
0.0
  0
LINE
  5
45A
330
1F
100
AcDbEntity
  8
D-2_蓋
  6
Continuous
 62
     3
370
     9
100
AcDbLine
 10
-891.413961874472
 20
-858.4302211452175
 30
0.0
 11
-875.8759782120987
 21
-873.9681429476352
 31
0.0
  0
LINE
  5
45B
330
1F
100
AcDbEntity
  8
D-2_蓋
  6
Continuous
 62
     3
370
     9
100
AcDbLine
 10
-891.413961874472
 20
-869.0372240221177
 30
0.0
 11
-889.3706038191511
 21
-871.0805202174831
 31
0.0
  0
LINE
  5
45C
330
1F
100
AcDbEntity
  8
D-2_蓋
  6
Continuous
 62
     3
370
     9
100
AcDbLine
 10
-881.4138051625844
 20
-730.9720508472338
 30
0.0
 11
-856.4134752428208
 21
-755.9720096072634
 31
0.0
  0
LINE
  5
45D
330
1F
100
AcDbEntity
  8
D-2_蓋
  6
Continuous
 62
     3
370
     9
100
AcDbLine
 10
-867.9197981550886
 20
-733.8599210172085
 30
0.0
 11
-856.4134752428208
 21
-745.3655016100084
 31
0.0
  0
LINE
  5
45E
330
1F
100
AcDbEntity
  8
D-2_蓋
  6
Continuous
 62
     3
370
     9
100
AcDbLine
 10
-891.413961874472
 20
-731.5787732923353
 30
0.0
 11
-862.3814763249577
 21
-760.611011402027
 31
0.0
  0
LINE
  5
45F
330
1F
100
AcDbEntity
  8
D-2_蓋
  6
Continuous
 62
     3
370
     9
100
AcDbLine
 10
-891.413961874472
 20
-742.1852812895904
 30
0.0
 11
-875.8759782120987
 21
-757.7229556521853
 31
0.0
  0
LINE
  5
460
330
1F
100
AcDbEntity
  8
D-2_蓋
  6
Continuous
 62
     3
370
     9
100
AcDbLine
 10
-891.413961874472
 20
-752.7920367266681
 30
0.0
 11
-889.3706038191511
 21
-754.835394781989
 31
0.0
  0
LINE
  5
461
330
1F
100
AcDbEntity
  8
D-2_蓋
  6
Continuous
 62
     3
370
     9
100
AcDbLine
 10
-863.9400997677365
 20
-788.518821097709
 30
0.0
 11
-856.4134752428208
 21
-796.0447651631123
 31
0.0
  0
LINE
  5
462
330
1F
100
AcDbEntity
  8
D-2_蓋
  6
Continuous
 62
     3
370
     9
100
AcDbLine
 10
-881.4138051625844
 20
-792.2581316973713
 30
0.0
 11
-860.3549441775759
 21
-813.3175494219806
 31
0.0
  0
LINE
  5
463
330
1F
100
AcDbEntity
  8
D-2_蓋
  6
Continuous
 62
     3
370
     9
100
AcDbLine
 10
-872.6767050253377
 20
-790.3884763975401
 30
0.0
 11
-856.4134752428208
 21
-806.65152060019
 31
0.0
  0
LINE
  5
464
330
1F
100
AcDbEntity
  8
D-2_蓋
  6
Continuous
 62
     3
370
     9
100
AcDbLine
 10
-890.150905299831
 20
-794.1277869972022
 30
0.0
 11
-869.0910545555321
 21
-815.1872047218116
 31
0.0
  0
LINE
  5
465
330
1F
100
AcDbEntity
  8
D-2_蓋
  6
Continuous
 62
     3
370
     9
100
AcDbLine
 10
-891.413961874472
 20
-803.4715477195946
 30
0.0
 11
-877.8281546927786
 21
-817.0568600216427
 31
0.0
  0
LINE
  5
466
330
1F
100
AcDbEntity
  8
D-2_蓋
  6
Continuous
 62
     3
370
     9
100
AcDbLine
 10
-891.413961874472
 20
-814.0783031566723
 30
0.0
 11
-886.5652548300252
 21
-818.9265153214739
 31
0.0
  0
LINE
  5
467
330
1F
100
AcDbEntity
  8
D-4_寸法
  6
Continuous
 62
     7
370
     9
100
AcDbLine
 10
-856.4134752428208
 20
-587.3661433039484
 30
0.0
 11
-856.4134752428208
 21
-555.0189538904137
 31
0.0
  0
LINE
  5
468
330
1F
100
AcDbEntity
  8
D-4_寸法
  6
Continuous
 62
     7
370
     9
100
AcDbLine
 10
-891.413961874472
 20
-587.3661433039484
 30
0.0
 11
-891.413961874472
 21
-555.0189538904137
 31
0.0
  0
LINE
  5
469
330
1F
100
AcDbEntity
  8
D-4_寸法
  6
Continuous
 62
     7
370
     9
100
AcDbLine
 10
-856.4134752428208
 20
-558.0185431403082
 30
0.0
 11
-831.6276756492821
 21
-554.7554304793074
 31
0.0
  0
LINE
  5
46A
330
1F
100
AcDbEntity
  8
D-4_寸法
  6
Continuous
 62
     7
370
     9
100
AcDbLine
 10
-856.4134752428208
 20
-558.0185431403082
 30
0.0
 11
-831.6276756492821
 21
-561.2817176612647
 31
0.0
  0
LINE
  5
46B
330
1F
100
AcDbEntity
  8
D-4_寸法
  6
Continuous
 62
     7
370
     9
100
AcDbLine
 10
-891.413961874472
 20
-558.0185431403082
 30
0.0
 11
-916.2002563476562
 21
-554.7554304793074
 31
0.0
  0
LINE
  5
46C
330
1F
100
AcDbEntity
  8
D-4_寸法
  6
Continuous
 62
     7
370
     9
100
AcDbLine
 10
-891.413961874472
 20
-558.0185431403082
 30
0.0
 11
-916.2002563476562
 21
-561.2817176612647
 31
0.0
  0
LINE
  5
46D
330
1F
100
AcDbEntity
  8
D-4_寸法
  6
Continuous
 62
     7
370
     9
100
AcDbLine
 10
-825.4710017023859
 20
-558.0185431403082
 30
0.0
 11
-916.8997687262457
 21
-558.0185431403082
 31
0.0
  0
LINE
  5
46E
330
1F
100
AcDbEntity
  8
D-4_寸法
  6
Continuous
 62
     7
370
     9
100
AcDbLine
 10
-861.5975869668496
 20
-659.4219805743242
 30
0.0
 11
-848.6429987726984
 21
-638.0397157411318
 31
0.0
  0
LINE
  5
46F
330
1F
100
AcDbEntity
  8
D-4_寸法
  6
Continuous
 62
     7
370
     9
100
AcDbLine
 10
-861.5975869668496
 20
-659.4219805743242
 30
0.0
 11
-843.5500686233108
 21
-642.1214211953652
 31
0.0
  0
LINE
  5
470
330
1F
100
AcDbEntity
  8
D-2_蓋
  6
Continuous
 62
     3
370
     9
100
AcDbLine
 10
-891.413961874472
 20
-818.3578986090582
 30
0.0
 11
-890.0910248627532
 21
-819.680835620777
 31
0.0
  0
LINE
  5
471
330
1F
100
AcDbEntity
  8
D-4_寸法
  6
Continuous
 62
     7
370
     9
100
AcDbLine
 10
-926.7348830764358
 20
-1003.458629298854
 30
0.0
 11
-926.7348830764358
 21
-1073.4587055928
 31
0.0
  0
LINE
  5
472
330
1F
100
AcDbEntity
  8
D-4_寸法
  6
Continuous
 62
     7
370
     9
100
AcDbLine
 10
-76.73480059649478
 20
-1003.458629298854
 30
0.0
 11
-926.7348830764358
 21
-1003.458629298854
 31
0.0
  0
LINE
  5
473
330
1F
100
AcDbEntity
  8
D-4_寸法
  6
Continuous
 62
     7
370
     9
100
AcDbLine
 10
-76.73480059649478
 20
-1003.458629298854
 30
0.0
 11
-76.73480059649478
 21
-1073.4587055928
 31
0.0
  0
LINE
  5
474
330
1F
100
AcDbEntity
  8
D-4_寸法
  6
Continuous
 62
     7
370
     9
100
AcDbLine
 10
-76.73480059649478
 20
-1073.4587055928
 30
0.0
 11
-926.7348830764358
 21
-1073.4587055928
 31
0.0
  0
LINE
  5
475
330
1F
100
AcDbEntity
  8
D-4_寸法
  6
Continuous
 62
     7
370
     9
100
AcDbLine
 10
-158.5739135742188
 20
-501.2038854650548
 30
0.0
 11
-269.821496911951
 21
-501.2038854650548
 31
0.0
  0
LINE
  5
476
330
1F
100
AcDbEntity
  8
D-4_寸法
  6
Continuous
 62
     7
370
     9
100
AcDbLine
 10
-734.7922247809333
 20
-501.2038854650548
 30
0.0
 11
-861.5975869668496
 21
-659.4219805743242
 31
0.0
  0
LINE
  5
477
330
1F
100
AcDbEntity
  8
D-4_寸法
  6
Continuous
 62
     7
370
     9
100
AcDbLine
 10
-486.5797712996198
 20
-501.2038854650548
 30
0.0
 11
-734.7922247809333
 21
-501.2038854650548
 31
0.0
  0
LINE
  5
478
330
1F
100
AcDbEntity
  8
A-2_蓋
  6
Continuous
 62
     3
370
     9
100
AcDbLine
 10
-1282.348467852618
 20
151.1344620988177
 30
0.0
 11
375.9853053737334
 21
151.1344620988177
 31
0.0
  0
LINE
  5
479
330
1F
100
AcDbEntity
  8
A-2_蓋
  6
Continuous
 62
     3
370
     9
100
AcDbLine
 10
-1282.348467852618
 20
132.8016456397805
 30
0.0
 11
375.9853053737334
 21
132.8016456397805
 31
0.0
  0
LINE
  5
47A
330
1F
100
AcDbEntity
  8
A-2_蓋
  6
Continuous
 62
     3
370
     9
100
AcDbLine
 10
-1270.681061615815
 20
132.8016456397805
 30
0.0
 11
-1212.514516469595
 21
151.1344620988177
 31
0.0
  0
LINE
  5
47B
330
1F
100
AcDbEntity
  8
A-2_蓋
  6
Continuous
 62
     3
370
     9
100
AcDbLine
 10
-1211.847913587415
 20
132.8016456397805
 30
0.0
 11
-1153.681492161106
 21
151.1344620988177
 31
0.0
  0
LINE
  5
47C
330
1F
100
AcDbEntity
  8
A-2_蓋
  6
Continuous
 62
     3
370
     9
100
AcDbLine
 10
-1153.014270679371
 20
132.8016456397805
 30
0.0
 11
-1094.848096692884
 21
151.1344620988177
 31
0.0
  0
LINE
  5
47D
330
1F
100
AcDbEntity
  8
A-2_蓋
  6
Continuous
 62
     3
370
     9
100
AcDbLine
 10
-1094.18099893106
 20
132.8016456397805
 30
0.0
 11
-1036.014701224662
 21
151.1344620988177
 31
0.0
  0
LINE
  5
47E
330
1F
100
AcDbEntity
  8
A-2_蓋
  6
Continuous
 62
     3
370
     9
100
AcDbLine
 10
-1035.34785090266
 20
132.8016456397805
 30
0.0
 11
-977.1814294763512
 21
151.1344620988177
 31
0.0
  0
LINE
  5
47F
330
1F
100
AcDbEntity
  8
A-2_蓋
  6
Continuous
 62
     3
370
     9
100
AcDbLine
 10
-976.5145791543496
 20
132.8016456397805
 30
0.0
 11
-918.3480340081292
 21
151.1344620988177
 31
0.0
  0
LINE
  5
480
330
1F
100
AcDbEntity
  8
A-2_蓋
  6
Continuous
 62
     3
370
     9
100
AcDbLine
 10
-917.6810599662161
 20
132.8016456397805
 30
0.0
 11
-859.5146385399071
 21
151.1344620988177
 31
0.0
  0
LINE
  5
481
330
1F
100
AcDbEntity
  8
A-2_蓋
  6
Continuous
 62
     3
370
     9
100
AcDbLine
 10
-858.8477882179053
 20
132.8016456397805
 30
0.0
 11
-800.681366791596
 21
151.1344620988177
 31
0.0
  0
LINE
  5
482
330
1F
100
AcDbEntity
  8
A-2_蓋
  6
Continuous
 62
     3
370
     9
100
AcDbLine
 10
-800.0145164695946
 20
132.8016456397805
 30
0.0
 11
-741.8480950432854
 21
151.1344620988177
 31
0.0
  0
LINE
  5
483
330
1F
100
AcDbEntity
  8
A-2_蓋
  6
Continuous
 62
     3
370
     9
100
AcDbLine
 10
-741.1808735615498
 20
132.8016456397805
 30
0.0
 11
-683.0144521352406
 21
151.1344620988177
 31
0.0
  0
LINE
  5
484
330
1F
100
AcDbEntity
  8
A-2_蓋
  6
Continuous
 62
     3
370
     9
100
AcDbLine
 10
-682.3477255331502
 20
132.8016456397805
 30
0.0
 11
-624.1815515466637
 21
151.1344620988177
 31
0.0
  0
LINE
  5
485
330
1F
100
AcDbEntity
  8
A-2_蓋
  6
Continuous
 62
     3
370
     9
100
AcDbLine
 10
-623.5145775047508
 20
132.8016456397805
 30
0.0
 11
-565.3481560784417
 21
151.1344620988177
 31
0.0
  0
LINE
  5
486
330
1F
100
AcDbEntity
  8
A-2_蓋
  6
Continuous
 62
     3
370
     9
100
AcDbLine
 10
-564.6811820365286
 20
132.8016456397805
 30
0.0
 11
-506.5147606102195
 21
151.1344620988177
 31
0.0
  0
LINE
  5
487
330
1F
100
AcDbEntity
  8
A-2_蓋
  6
Continuous
 62
     3
370
     9
100
AcDbLine
 10
-505.8479102882177
 20
132.8016456397805
 30
0.0
 11
-447.6813651419974
 21
151.1344620988177
 31
0.0
  0
LINE
  5
488
330
1F
100
AcDbEntity
  8
A-2_蓋
  6
Continuous
 62
     3
370
     9
100
AcDbLine
 10
-447.0145148199956
 20
132.8016456397805
 30
0.0
 11
-388.8480933936864
 21
151.1344620988177
 31
0.0
  0
LINE
  5
489
330
1F
100
AcDbEntity
  8
A-2_蓋
  6
Continuous
 62
     3
370
     9
100
AcDbLine
 10
-388.1812430716849
 20
132.8016456397805
 30
0.0
 11
-330.014945365287
 21
151.1344620988177
 31
0.0
  0
LINE
  5
48A
330
1F
100
AcDbEntity
  8
A-2_蓋
  6
Continuous
 62
     3
370
     9
100
AcDbLine
 10
-329.3480950432854
 20
132.8016456397805
 30
0.0
 11
-271.1816736169763
 21
151.1344620988177
 31
0.0
  0
LINE
  5
48B
330
1F
100
AcDbEntity
  8
A-2_蓋
  6
Continuous
 62
     3
370
     9
100
AcDbLine
 10
-270.5144521352406
 20
132.8016456397805
 30
0.0
 11
-212.3481544288427
 21
151.1344620988177
 31
0.0
  0
LINE
  5
48C
330
1F
100
AcDbEntity
  8
A-2_蓋
  6
Continuous
 62
     3
370
     9
100
AcDbLine
 10
-211.6813041068411
 20
132.8016456397805
 30
0.0
 11
-153.514882680532
 21
151.1344620988177
 31
0.0
  0
LINE
  5
48D
330
1F
100
AcDbEntity
  8
A-2_蓋
  6
Continuous
 62
     3
370
     9
100
AcDbLine
 10
-152.8480323585302
 20
132.8016456397805
 30
0.0
 11
-94.68173465213255
 21
151.1344620988177
 31
0.0
  0
LINE
  5
48E
330
1F
100
AcDbEntity
  8
A-2_蓋
  6
Continuous
 62
     3
370
     9
100
AcDbLine
 10
-94.01488433013071
 20
132.8016456397805
 30
0.0
 11
-35.84858662373307
 21
151.1344620988177
 31
0.0
  0
LINE
  5
48F
330
1F
100
AcDbEntity
  8
A-2_蓋
  6
Continuous
 62
     3
370
     9
100
AcDbLine
 10
-35.18124142208592
 20
132.8016456397805
 30
0.0
 11
22.9851800042232
 21
151.1344620988177
 31
0.0
  0
LINE
  5
490
330
1F
100
AcDbEntity
  8
A-2_蓋
  6
Continuous
 62
     3
370
     9
100
AcDbLine
 10
23.65178288640209
 20
132.8016456397805
 30
0.0
 11
81.8182043127112
 21
151.1344620988177
 31
0.0
  0
LINE
  5
491
330
1F
100
AcDbEntity
  8
A-2_蓋
  6
Continuous
 62
     3
370
     9
100
AcDbLine
 10
82.48505463471304
 20
132.8016456397805
 30
0.0
 11
140.6514760610222
 21
151.1344620988177
 31
0.0
  0
LINE
  5
492
330
1F
100
AcDbEntity
  8
A-2_蓋
  6
Continuous
 62
     3
370
     9
100
AcDbLine
 10
141.318821262669
 20
132.8016456397805
 30
0.0
 11
199.4849952491555
 21
151.1344620988177
 31
0.0
  0
LINE
  5
493
330
1F
100
AcDbEntity
  8
A-2_蓋
  6
Continuous
 62
     3
370
     9
100
AcDbLine
 10
200.15209301098
 20
132.8016456397805
 30
0.0
 11
258.3182669974664
 21
151.1344620988177
 31
0.0
  0
LINE
  5
494
330
1F
100
AcDbEntity
  8
A-2_蓋
  6
Continuous
 62
     3
370
     9
100
AcDbLine
 10
258.9848698796453
 20
132.8016456397805
 30
0.0
 11
317.1515387457771
 21
151.1344620988177
 31
0.0
  0
LINE
  5
495
330
1F
100
AcDbEntity
  8
A-2_蓋
  6
Continuous
 62
     3
370
     9
100
AcDbLine
 10
317.8181416279563
 20
132.8016456397805
 30
0.0
 11
375.984810494088
 21
151.1344620988177
 31
0.0
  0
LINE
  5
496
330
1F
100
AcDbEntity
  8
A-2_蓋
  6
Continuous
 62
     3
370
     9
100
AcDbLine
 10
-1282.348467852618
 20
147.6674590239654
 30
0.0
 11
-1271.347911937817
 21
151.1344620988177
 31
0.0
  0
LINE
  5
497
330
1F
100
AcDbEntity
  8
A-2_蓋
  6
Continuous
 62
     3
370
     9
100
AcDbLine
 10
1163.35069811022
 20
141.9684250290331
 30
0.0
 11
1153.922745988176
 21
132.5404729069891
 31
0.0
  0
LINE
  5
498
330
1F
100
AcDbEntity
  8
A-2_蓋
  6
Continuous
 62
     3
370
     9
100
AcDbLine
 10
1153.922745988176
 20
132.5404729069891
 30
0.0
 11
1144.494546426309
 21
141.9684250290331
 31
0.0
  0
LINE
  5
499
330
1F
100
AcDbEntity
  8
A-2_蓋
  6
Continuous
 62
     3
370
     9
100
AcDbLine
 10
1144.494546426309
 20
141.9684250290331
 30
0.0
 11
1153.922745988176
 21
151.3966245908995
 31
0.0
  0
LINE
  5
49A
330
1F
100
AcDbEntity
  8
A-2_蓋
  6
Continuous
 62
     3
370
     9
100
AcDbLine
 10
1153.922745988176
 20
151.3966245908995
 30
0.0
 11
1163.35069811022
 21
141.9684250290331
 31
0.0
  0
LINE
  5
49B
330
1F
100
AcDbEntity
  8
A-2_蓋
  6
Continuous
 62
     3
370
     9
100
AcDbLine
 10
-1270.681061615815
 20
-15.53308435388516
 30
0.0
 11
-1270.681061615815
 21
132.8016456397805
 31
0.0
  0
LINE
  5
49C
330
1F
100
AcDbEntity
  8
A-2_蓋
  6
Continuous
 62
     3
370
     9
100
AcDbLine
 10
-1270.681061615815
 20
151.1344620988177
 30
0.0
 11
-1270.681061615815
 21
299.4683260531039
 31
0.0
  0
LINE
  5
49D
330
1F
100
AcDbEntity
  8
A-2_蓋
  6
Continuous
 62
     3
370
     9
100
AcDbLine
 10
364.3192600559544
 20
299.4683260531039
 30
0.0
 11
364.3192600559544
 21
151.1344620988177
 31
0.0
  0
LINE
  5
49E
330
1F
100
AcDbEntity
  8
A-2_蓋
  6
Continuous
 62
     3
370
     9
100
AcDbLine
 10
364.3192600559544
 20
132.8016456397805
 30
0.0
 11
364.3192600559544
 21
-15.53308435388516
 31
0.0
  0
LINE
  5
49F
330
1F
100
AcDbEntity
  8
A-2_蓋
  6
Continuous
 62
     3
370
     9
100
AcDbLine
 10
305.4852459881758
 20
299.4683260531039
 30
0.0
 11
305.4852459881758
 21
151.1344620988177
 31
0.0
  0
LINE
  5
4A0
330
1F
100
AcDbEntity
  8
A-2_蓋
  6
Continuous
 62
     3
370
     9
100
AcDbLine
 10
305.4852459881758
 20
132.8016456397805
 30
0.0
 11
305.4852459881758
 21
-15.53308435388516
 31
0.0
  0
LINE
  5
4A1
330
1F
100
AcDbEntity
  8
A-2_蓋
  6
Continuous
 62
     3
370
     9
100
AcDbLine
 10
317.1522810652451
 20
299.4683260531039
 30
0.0
 11
317.1522810652451
 21
151.1344620988177
 31
0.0
  0
LINE
  5
4A2
330
1F
100
AcDbEntity
  8
A-2_蓋
  6
Continuous
 62
     3
370
     9
100
AcDbLine
 10
317.1522810652451
 20
132.8016456397805
 30
0.0
 11
317.1522810652451
 21
-15.53308435388516
 31
0.0
  0
LINE
  5
4A3
330
1F
100
AcDbEntity
  8
A-2_蓋
  6
Continuous
 62
     3
370
     9
100
AcDbLine
 10
246.6514793602198
 20
299.4683260531039
 30
0.0
 11
246.6514793602198
 21
151.1344620988177
 31
0.0
  0
LINE
  5
4A4
330
1F
100
AcDbEntity
  8
A-2_蓋
  6
Continuous
 62
     3
370
     9
100
AcDbLine
 10
246.6514793602198
 20
132.8016456397805
 30
0.0
 11
246.6514793602198
 21
-15.53308435388516
 31
0.0
  0
LINE
  5
4A5
330
1F
100
AcDbEntity
  8
A-2_蓋
  6
Continuous
 62
     3
370
     9
100
AcDbLine
 10
258.3182669974664
 20
299.4683260531039
 30
0.0
 11
258.3182669974664
 21
151.1344620988177
 31
0.0
  0
LINE
  5
4A6
330
1F
100
AcDbEntity
  8
A-2_蓋
  6
Continuous
 62
     3
370
     9
100
AcDbLine
 10
258.3182669974664
 20
132.8016456397805
 30
0.0
 11
258.3182669974664
 21
-15.53308435388516
 31
0.0
  0
LINE
  5
4A7
330
1F
100
AcDbEntity
  8
A-2_蓋
  6
Continuous
 62
     3
370
     9
100
AcDbLine
 10
187.8187024915542
 20
299.4683260531039
 30
0.0
 11
187.8187024915542
 21
151.1344620988177
 31
0.0
  0
LINE
  5
4A8
330
1F
100
AcDbEntity
  8
A-2_蓋
  6
Continuous
 62
     3
370
     9
100
AcDbLine
 10
187.8187024915542
 20
132.8016456397805
 30
0.0
 11
187.8187024915542
 21
-15.53308435388516
 31
0.0
  0
LINE
  5
4A9
330
1F
100
AcDbEntity
  8
A-2_蓋
  6
Continuous
 62
     3
370
     9
100
AcDbLine
 10
199.4854901288008
 20
299.4683260531039
 30
0.0
 11
199.4854901288008
 21
151.1344620988177
 31
0.0
  0
LINE
  5
4AA
330
1F
100
AcDbEntity
  8
A-2_蓋
  6
Continuous
 62
     3
370
     9
100
AcDbLine
 10
199.4854901288008
 20
132.8016456397805
 30
0.0
 11
199.4854901288008
 21
-15.53308435388516
 31
0.0
  0
LINE
  5
4AB
330
1F
100
AcDbEntity
  8
A-2_蓋
  6
Continuous
 62
     3
370
     9
100
AcDbLine
 10
128.9851833034209
 20
299.4683260531039
 30
0.0
 11
128.9851833034209
 21
151.1344620988177
 31
0.0
  0
LINE
  5
4AC
330
1F
100
AcDbEntity
  8
A-2_蓋
  6
Continuous
 62
     3
370
     9
100
AcDbLine
 10
128.9851833034209
 20
132.8016456397805
 30
0.0
 11
128.9851833034209
 21
-15.53308435388516
 31
0.0
  0
LINE
  5
4AD
330
1F
100
AcDbEntity
  8
A-2_蓋
  6
Continuous
 62
     3
370
     9
100
AcDbLine
 10
140.6517235008448
 20
299.4683260531039
 30
0.0
 11
140.6517235008448
 21
151.1344620988177
 31
0.0
  0
LINE
  5
4AE
330
1F
100
AcDbEntity
  8
A-2_蓋
  6
Continuous
 62
     3
370
     9
100
AcDbLine
 10
140.6517235008448
 20
132.8016456397805
 30
0.0
 11
140.6517235008448
 21
-15.53308435388516
 31
0.0
  0
LINE
  5
4AF
330
1F
100
AcDbEntity
  8
A-2_蓋
  6
Continuous
 62
     3
370
     9
100
AcDbLine
 10
70.15166411528725
 20
299.4683260531039
 30
0.0
 11
70.15166411528725
 21
151.1344620988177
 31
0.0
  0
LINE
  5
4B0
330
1F
100
AcDbEntity
  8
A-2_蓋
  6
Continuous
 62
     3
370
     9
100
AcDbLine
 10
70.15166411528725
 20
132.8016456397805
 30
0.0
 11
70.15166411528725
 21
-15.53308435388516
 31
0.0
  0
LINE
  5
4B1
330
1F
100
AcDbEntity
  8
A-2_蓋
  6
Continuous
 62
     3
370
     9
100
AcDbLine
 10
81.8182043127112
 20
299.4683260531039
 30
0.0
 11
81.8182043127112
 21
151.1344620988177
 31
0.0
  0
LINE
  5
4B2
330
1F
100
AcDbEntity
  8
A-2_蓋
  6
Continuous
 62
     3
370
     9
100
AcDbLine
 10
81.8182043127112
 20
132.8016456397805
 30
0.0
 11
81.8182043127112
 21
-15.53308435388516
 31
0.0
  0
LINE
  5
4B3
330
1F
100
AcDbEntity
  8
A-2_蓋
  6
Continuous
 62
     3
370
     9
100
AcDbLine
 10
11.31888724662161
 20
299.4683260531039
 30
0.0
 11
11.31888724662161
 21
151.1344620988177
 31
0.0
  0
LINE
  5
4B4
330
1F
100
AcDbEntity
  8
A-2_蓋
  6
Continuous
 62
     3
370
     9
100
AcDbLine
 10
11.31888724662161
 20
132.8016456397805
 30
0.0
 11
11.31888724662161
 21
-15.53308435388516
 31
0.0
  0
LINE
  5
4B5
330
1F
100
AcDbEntity
  8
A-2_蓋
  6
Continuous
 62
     3
370
     9
100
AcDbLine
 10
22.9851800042232
 20
299.4683260531039
 30
0.0
 11
22.9851800042232
 21
151.1344620988177
 31
0.0
  0
LINE
  5
4B6
330
1F
100
AcDbEntity
  8
A-2_蓋
  6
Continuous
 62
     3
370
     9
100
AcDbLine
 10
22.9851800042232
 20
132.8016456397805
 30
0.0
 11
22.9851800042232
 21
-15.53308435388516
 31
0.0
  0
LINE
  5
4B7
330
1F
100
AcDbEntity
  8
A-2_蓋
  6
Continuous
 62
     3
370
     9
100
AcDbLine
 10
-47.51487938133437
 20
299.4683260531039
 30
0.0
 11
-47.51487938133437
 21
151.1344620988177
 31
0.0
  0
LINE
  5
4B8
330
1F
100
AcDbEntity
  8
A-2_蓋
  6
Continuous
 62
     3
370
     9
100
AcDbLine
 10
-47.51487938133437
 20
132.8016456397805
 30
0.0
 11
-47.51487938133437
 21
-15.53308435388516
 31
0.0
  0
LINE
  5
4B9
330
1F
100
AcDbEntity
  8
A-2_蓋
  6
Continuous
 62
     3
370
     9
100
AcDbLine
 10
-35.84809174408775
 20
299.4683260531039
 30
0.0
 11
-35.84809174408775
 21
151.1344620988177
 31
0.0
  0
LINE
  5
4BA
330
1F
100
AcDbEntity
  8
A-2_蓋
  6
Continuous
 62
     3
370
     9
100
AcDbLine
 10
-35.84809174408775
 20
132.8016456397805
 30
0.0
 11
-35.84809174408775
 21
-15.53308435388516
 31
0.0
  0
LINE
  5
4BB
330
1F
100
AcDbEntity
  8
A-2_蓋
  6
Continuous
 62
     3
370
     9
100
AcDbLine
 10
-106.3485222893792
 20
299.4683260531039
 30
0.0
 11
-106.3485222893792
 21
151.1344620988177
 31
0.0
  0
LINE
  5
4BC
330
1F
100
AcDbEntity
  8
A-2_蓋
  6
Continuous
 62
     3
370
     9
100
AcDbLine
 10
-106.3485222893792
 20
132.8016456397805
 30
0.0
 11
-106.3485222893792
 21
-15.53308435388516
 31
0.0
  0
LINE
  5
4BD
330
1F
100
AcDbEntity
  8
A-2_蓋
  6
Continuous
 62
     3
370
     9
100
AcDbLine
 10
-94.68173465213255
 20
299.4683260531039
 30
0.0
 11
-94.68173465213255
 21
151.1344620988177
 31
0.0
  0
LINE
  5
4BE
330
1F
100
AcDbEntity
  8
A-2_蓋
  6
Continuous
 62
     3
370
     9
100
AcDbLine
 10
-94.68173465213255
 20
132.8016456397805
 30
0.0
 11
-94.68173465213255
 21
-15.53308435388516
 31
0.0
  0
LINE
  5
4BF
330
1F
100
AcDbEntity
  8
A-2_蓋
  6
Continuous
 62
     3
370
     9
100
AcDbLine
 10
-165.1811754381333
 20
299.4683260531039
 30
0.0
 11
-165.1811754381333
 21
151.1344620988177
 31
0.0
  0
LINE
  5
4C0
330
1F
100
AcDbEntity
  8
A-2_蓋
  6
Continuous
 62
     3
370
     9
100
AcDbLine
 10
-165.1811754381333
 20
132.8016456397805
 30
0.0
 11
-165.1811754381333
 21
-15.53308435388516
 31
0.0
  0
LINE
  5
4C1
330
1F
100
AcDbEntity
  8
A-2_蓋
  6
Continuous
 62
     3
370
     9
100
AcDbLine
 10
-153.5143878008867
 20
299.4683260531039
 30
0.0
 11
-153.5143878008867
 21
151.1344620988177
 31
0.0
  0
LINE
  5
4C2
330
1F
100
AcDbEntity
  8
A-2_蓋
  6
Continuous
 62
     3
370
     9
100
AcDbLine
 10
-153.5143878008867
 20
132.8016456397805
 30
0.0
 11
-153.5143878008867
 21
-15.53308435388516
 31
0.0
  0
LINE
  5
4C3
330
1F
100
AcDbEntity
  8
A-2_蓋
  6
Continuous
 62
     3
370
     9
100
AcDbLine
 10
-224.0148183461781
 20
299.4683260531039
 30
0.0
 11
-224.0148183461781
 21
151.1344620988177
 31
0.0
  0
LINE
  5
4C4
330
1F
100
AcDbEntity
  8
A-2_蓋
  6
Continuous
 62
     3
370
     9
100
AcDbLine
 10
-224.0148183461781
 20
132.8016456397805
 30
0.0
 11
-224.0148183461781
 21
-15.53308435388516
 31
0.0
  0
LINE
  5
4C5
330
1F
100
AcDbEntity
  8
A-2_蓋
  6
Continuous
 62
     3
370
     9
100
AcDbLine
 10
-212.3481544288427
 20
299.4683260531039
 30
0.0
 11
-212.3481544288427
 21
151.1344620988177
 31
0.0
  0
LINE
  5
4C6
330
1F
100
AcDbEntity
  8
A-2_蓋
  6
Continuous
 62
     3
370
     9
100
AcDbLine
 10
-212.3481544288427
 20
132.8016456397805
 30
0.0
 11
-212.3481544288427
 21
-15.53308435388516
 31
0.0
  0
LINE
  5
4C7
330
1F
100
AcDbEntity
  8
A-2_蓋
  6
Continuous
 62
     3
370
     9
100
AcDbLine
 10
-282.8484612542229
 20
299.4683260531039
 30
0.0
 11
-282.8484612542229
 21
151.1344620988177
 31
0.0
  0
LINE
  5
4C8
330
1F
100
AcDbEntity
  8
A-2_蓋
  6
Continuous
 62
     3
370
     9
100
AcDbLine
 10
-282.8484612542229
 20
132.8016456397805
 30
0.0
 11
-282.8484612542229
 21
-15.53308435388516
 31
0.0
  0
LINE
  5
4C9
330
1F
100
AcDbEntity
  8
A-2_蓋
  6
Continuous
 62
     3
370
     9
100
AcDbLine
 10
-271.1816736169763
 20
299.4683260531039
 30
0.0
 11
-271.1816736169763
 21
151.1344620988177
 31
0.0
  0
LINE
  5
4CA
330
1F
100
AcDbEntity
  8
A-2_蓋
  6
Continuous
 62
     3
370
     9
100
AcDbLine
 10
-271.1816736169763
 20
132.8016456397805
 30
0.0
 11
-271.1816736169763
 21
-15.53308435388516
 31
0.0
  0
LINE
  5
4CB
330
1F
100
AcDbEntity
  8
A-2_蓋
  6
Continuous
 62
     3
370
     9
100
AcDbLine
 10
-341.6811144029771
 20
299.4683260531039
 30
0.0
 11
-341.6811144029771
 21
151.1344620988177
 31
0.0
  0
LINE
  5
4CC
330
1F
100
AcDbEntity
  8
A-2_蓋
  6
Continuous
 62
     3
370
     9
100
AcDbLine
 10
-341.6811144029771
 20
132.8016456397805
 30
0.0
 11
-341.6811144029771
 21
-15.53308435388516
 31
0.0
  0
LINE
  5
4CD
330
1F
100
AcDbEntity
  8
A-2_蓋
  6
Continuous
 62
     3
370
     9
100
AcDbLine
 10
-330.0145742055531
 20
299.4683260531039
 30
0.0
 11
-330.0145742055531
 21
151.1344620988177
 31
0.0
  0
LINE
  5
4CE
330
1F
100
AcDbEntity
  8
A-2_蓋
  6
Continuous
 62
     3
370
     9
100
AcDbLine
 10
-330.0145742055531
 20
132.8016456397805
 30
0.0
 11
-330.0145742055531
 21
-15.53308435388516
 31
0.0
  0
LINE
  5
4CF
330
1F
100
AcDbEntity
  8
A-2_蓋
  6
Continuous
 62
     3
370
     9
100
AcDbLine
 10
-400.5147573110219
 20
299.4683260531039
 30
0.0
 11
-400.5147573110219
 21
151.1344620988177
 31
0.0
  0
LINE
  5
4D0
330
1F
100
AcDbEntity
  8
A-2_蓋
  6
Continuous
 62
     3
370
     9
100
AcDbLine
 10
-400.5147573110219
 20
132.8016456397805
 30
0.0
 11
-400.5147573110219
 21
-15.53308435388516
 31
0.0
  0
LINE
  5
4D1
330
1F
100
AcDbEntity
  8
A-2_蓋
  6
Continuous
 62
     3
370
     9
100
AcDbLine
 10
-388.8480933936864
 20
299.4683260531039
 30
0.0
 11
-388.8480933936864
 21
151.1344620988177
 31
0.0
  0
LINE
  5
4D2
330
1F
100
AcDbEntity
  8
A-2_蓋
  6
Continuous
 62
     3
370
     9
100
AcDbLine
 10
-388.8480933936864
 20
132.8016456397805
 30
0.0
 11
-388.8480933936864
 21
-15.53308435388516
 31
0.0
  0
LINE
  5
4D3
330
1F
100
AcDbEntity
  8
A-2_蓋
  6
Continuous
 62
     3
370
     9
100
AcDbLine
 10
-459.347410459776
 20
299.4683260531039
 30
0.0
 11
-459.347410459776
 21
151.1344620988177
 31
0.0
  0
LINE
  5
4D4
330
1F
100
AcDbEntity
  8
A-2_蓋
  6
Continuous
 62
     3
370
     9
100
AcDbLine
 10
-459.347410459776
 20
132.8016456397805
 30
0.0
 11
-459.347410459776
 21
-15.53308435388516
 31
0.0
  0
LINE
  5
4D5
330
1F
100
AcDbEntity
  8
A-2_蓋
  6
Continuous
 62
     3
370
     9
100
AcDbLine
 10
-447.6809939822635
 20
299.4683260531039
 30
0.0
 11
-447.6809939822635
 21
151.1344620988177
 31
0.0
  0
LINE
  5
4D6
330
1F
100
AcDbEntity
  8
A-2_蓋
  6
Continuous
 62
     3
370
     9
100
AcDbLine
 10
-447.6809939822635
 20
132.8016456397805
 30
0.0
 11
-447.6809939822635
 21
-15.53308435388516
 31
0.0
  0
LINE
  5
4D7
330
1F
100
AcDbEntity
  8
A-2_蓋
  6
Continuous
 62
     3
370
     9
100
AcDbLine
 10
-518.1811770877323
 20
299.4683260531039
 30
0.0
 11
-518.1811770877323
 21
151.1344620988177
 31
0.0
  0
LINE
  5
4D8
330
1F
100
AcDbEntity
  8
A-2_蓋
  6
Continuous
 62
     3
370
     9
100
AcDbLine
 10
-518.1811770877323
 20
132.8016456397805
 30
0.0
 11
-518.1811770877323
 21
-15.53308435388516
 31
0.0
  0
LINE
  5
4D9
330
1F
100
AcDbEntity
  8
A-2_蓋
  6
Continuous
 62
     3
370
     9
100
AcDbLine
 10
-506.5143894504857
 20
299.4683260531039
 30
0.0
 11
-506.5143894504857
 21
151.1344620988177
 31
0.0
  0
LINE
  5
4DA
330
1F
100
AcDbEntity
  8
A-2_蓋
  6
Continuous
 62
     3
370
     9
100
AcDbLine
 10
-506.5143894504857
 20
132.8016456397805
 30
0.0
 11
-506.5143894504857
 21
-15.53308435388516
 31
0.0
  0
LINE
  5
4DB
330
1F
100
AcDbEntity
  8
A-2_蓋
  6
Continuous
 62
     3
370
     9
100
AcDbLine
 10
-577.0149437156883
 20
299.4683260531039
 30
0.0
 11
-577.0149437156883
 21
151.1344620988177
 31
0.0
  0
LINE
  5
4DC
330
1F
100
AcDbEntity
  8
A-2_蓋
  6
Continuous
 62
     3
370
     9
100
AcDbLine
 10
-577.0149437156883
 20
132.8016456397805
 30
0.0
 11
-577.0149437156883
 21
-15.53308435388516
 31
0.0
  0
LINE
  5
4DD
330
1F
100
AcDbEntity
  8
A-2_蓋
  6
Continuous
 62
     3
370
     9
100
AcDbLine
 10
-565.3481560784417
 20
299.4683260531039
 30
0.0
 11
-565.3481560784417
 21
151.1344620988177
 31
0.0
  0
LINE
  5
4DE
330
1F
100
AcDbEntity
  8
A-2_蓋
  6
Continuous
 62
     3
370
     9
100
AcDbLine
 10
-565.3481560784417
 20
132.8016456397805
 30
0.0
 11
-565.3481560784417
 21
-15.53308435388516
 31
0.0
  0
LINE
  5
4DF
330
1F
100
AcDbEntity
  8
A-2_蓋
  6
Continuous
 62
     3
370
     9
100
AcDbLine
 10
-635.8474731445312
 20
299.4683260531039
 30
0.0
 11
-635.8474731445312
 21
151.1344620988177
 31
0.0
  0
LINE
  5
4E0
330
1F
100
AcDbEntity
  8
A-2_蓋
  6
Continuous
 62
     3
370
     9
100
AcDbLine
 10
-635.8474731445312
 20
132.8016456397805
 30
0.0
 11
-635.8474731445312
 21
-15.53308435388516
 31
0.0
  0
LINE
  5
4E1
330
1F
100
AcDbEntity
  8
A-2_蓋
  6
Continuous
 62
     3
370
     9
100
AcDbLine
 10
-624.1810566670185
 20
299.4683260531039
 30
0.0
 11
-624.1810566670185
 21
151.1344620988177
 31
0.0
  0
LINE
  5
4E2
330
1F
100
AcDbEntity
  8
A-2_蓋
  6
Continuous
 62
     3
370
     9
100
AcDbLine
 10
-624.1810566670185
 20
132.8016456397805
 30
0.0
 11
-624.1810566670185
 21
-15.53308435388516
 31
0.0
  0
LINE
  5
4E3
330
1F
100
AcDbEntity
  8
A-2_蓋
  6
Continuous
 62
     3
370
     9
100
AcDbLine
 10
-694.6812397724873
 20
299.4683260531039
 30
0.0
 11
-694.6812397724873
 21
151.1344620988177
 31
0.0
  0
LINE
  5
4E4
330
1F
100
AcDbEntity
  8
A-2_蓋
  6
Continuous
 62
     3
370
     9
100
AcDbLine
 10
-694.6812397724873
 20
132.8016456397805
 30
0.0
 11
-694.6812397724873
 21
-15.53308435388516
 31
0.0
  0
LINE
  5
4E5
330
1F
100
AcDbEntity
  8
A-2_蓋
  6
Continuous
 62
     3
370
     9
100
AcDbLine
 10
-683.0144521352406
 20
299.4683260531039
 30
0.0
 11
-683.0144521352406
 21
151.1344620988177
 31
0.0
  0
LINE
  5
4E6
330
1F
100
AcDbEntity
  8
A-2_蓋
  6
Continuous
 62
     3
370
     9
100
AcDbLine
 10
-683.0144521352406
 20
132.8016456397805
 30
0.0
 11
-683.0144521352406
 21
-15.53308435388516
 31
0.0
  0
LINE
  5
4E7
330
1F
100
AcDbEntity
  8
A-2_蓋
  6
Continuous
 62
     3
370
     9
100
AcDbLine
 10
-753.514140361064
 20
299.4683260531039
 30
0.0
 11
-753.514140361064
 21
151.1344620988177
 31
0.0
  0
LINE
  5
4E8
330
1F
100
AcDbEntity
  8
A-2_蓋
  6
Continuous
 62
     3
370
     9
100
AcDbLine
 10
-753.514140361064
 20
132.8016456397805
 30
0.0
 11
-753.514140361064
 21
-15.53308435388516
 31
0.0
  0
LINE
  5
4E9
330
1F
100
AcDbEntity
  8
A-2_蓋
  6
Continuous
 62
     3
370
     9
100
AcDbLine
 10
-741.8473527238175
 20
299.4683260531039
 30
0.0
 11
-741.8473527238175
 21
151.1344620988177
 31
0.0
  0
LINE
  5
4EA
330
1F
100
AcDbEntity
  8
A-2_蓋
  6
Continuous
 62
     3
370
     9
100
AcDbLine
 10
-741.8473527238175
 20
132.8016456397805
 30
0.0
 11
-741.8473527238175
 21
-15.53308435388516
 31
0.0
  0
LINE
  5
4EB
330
1F
100
AcDbEntity
  8
A-2_蓋
  6
Continuous
 62
     3
370
     9
100
AcDbLine
 10
-812.3476595491977
 20
299.4683260531039
 30
0.0
 11
-812.3476595491977
 21
151.1344620988177
 31
0.0
  0
LINE
  5
4EC
330
1F
100
AcDbEntity
  8
A-2_蓋
  6
Continuous
 62
     3
370
     9
100
AcDbLine
 10
-812.3476595491977
 20
132.8016456397805
 30
0.0
 11
-812.3476595491977
 21
-15.53308435388516
 31
0.0
  0
LINE
  5
4ED
330
1F
100
AcDbEntity
  8
A-2_蓋
  6
Continuous
 62
     3
370
     9
100
AcDbLine
 10
-800.6811193517738
 20
299.4683260531039
 30
0.0
 11
-800.6811193517738
 21
151.1344620988177
 31
0.0
  0
LINE
  5
4EE
330
1F
100
AcDbEntity
  8
A-2_蓋
  6
Continuous
 62
     3
370
     9
100
AcDbLine
 10
-800.6811193517738
 20
132.8016456397805
 30
0.0
 11
-800.6811193517738
 21
-15.53308435388516
 31
0.0
  0
LINE
  5
4EF
330
1F
100
AcDbEntity
  8
A-2_蓋
  6
Continuous
 62
     3
370
     9
100
AcDbLine
 10
-871.181178737331
 20
299.4683260531039
 30
0.0
 11
-871.181178737331
 21
151.1344620988177
 31
0.0
  0
LINE
  5
4F0
330
1F
100
AcDbEntity
  8
A-2_蓋
  6
Continuous
 62
     3
370
     9
100
AcDbLine
 10
-871.181178737331
 20
132.8016456397805
 30
0.0
 11
-871.181178737331
 21
-15.53308435388516
 31
0.0
  0
LINE
  5
4F1
330
1F
100
AcDbEntity
  8
A-2_蓋
  6
Continuous
 62
     3
370
     9
100
AcDbLine
 10
-859.5146385399071
 20
299.4683260531039
 30
0.0
 11
-859.5146385399071
 21
151.1344620988177
 31
0.0
  0
LINE
  5
4F2
330
1F
100
AcDbEntity
  8
A-2_蓋
  6
Continuous
 62
     3
370
     9
100
AcDbLine
 10
-859.5146385399071
 20
132.8016456397805
 30
0.0
 11
-859.5146385399071
 21
-15.53308435388516
 31
0.0
  0
LINE
  5
4F3
330
1F
100
AcDbEntity
  8
A-2_蓋
  6
Continuous
 62
     3
370
     9
100
AcDbLine
 10
-930.0140793259079
 20
299.4683260531039
 30
0.0
 11
-930.0140793259079
 21
151.1344620988177
 31
0.0
  0
LINE
  5
4F4
330
1F
100
AcDbEntity
  8
A-2_蓋
  6
Continuous
 62
     3
370
     9
100
AcDbLine
 10
-930.0140793259079
 20
132.8016456397805
 30
0.0
 11
-930.0140793259079
 21
-15.53308435388516
 31
0.0
  0
LINE
  5
4F5
330
1F
100
AcDbEntity
  8
A-2_蓋
  6
Continuous
 62
     3
370
     9
100
AcDbLine
 10
-918.3474154085725
 20
299.4683260531039
 30
0.0
 11
-918.3474154085725
 21
151.1344620988177
 31
0.0
  0
LINE
  5
4F6
330
1F
100
AcDbEntity
  8
A-2_蓋
  6
Continuous
 62
     3
370
     9
100
AcDbLine
 10
-918.3474154085725
 20
132.8016456397805
 30
0.0
 11
-918.3474154085725
 21
-15.53308435388516
 31
0.0
  0
LINE
  5
4F7
330
1F
100
AcDbEntity
  8
A-2_蓋
  6
Continuous
 62
     3
370
     9
100
AcDbLine
 10
-988.8477222339526
 20
299.4683260531039
 30
0.0
 11
-988.8477222339526
 21
151.1344620988177
 31
0.0
  0
LINE
  5
4F8
330
1F
100
AcDbEntity
  8
A-2_蓋
  6
Continuous
 62
     3
370
     9
100
AcDbLine
 10
-988.8477222339526
 20
132.8016456397805
 30
0.0
 11
-988.8477222339526
 21
-15.53308435388516
 31
0.0
  0
LINE
  5
4F9
330
1F
100
AcDbEntity
  8
A-2_蓋
  6
Continuous
 62
     3
370
     9
100
AcDbLine
 10
-977.1810583166173
 20
299.4683260531039
 30
0.0
 11
-977.1810583166173
 21
151.1344620988177
 31
0.0
  0
LINE
  5
4FA
330
1F
100
AcDbEntity
  8
A-2_蓋
  6
Continuous
 62
     3
370
     9
100
AcDbLine
 10
-977.1810583166173
 20
132.8016456397805
 30
0.0
 11
-977.1810583166173
 21
-15.53308435388516
 31
0.0
  0
LINE
  5
4FB
330
1F
100
AcDbEntity
  8
A-2_蓋
  6
Continuous
 62
     3
370
     9
100
AcDbLine
 10
-1047.681241422086
 20
299.4683260531039
 30
0.0
 11
-1047.681241422086
 21
151.1344620988177
 31
0.0
  0
LINE
  5
4FC
330
1F
100
AcDbEntity
  8
A-2_蓋
  6
Continuous
 62
     3
370
     9
100
AcDbLine
 10
-1047.681241422086
 20
132.8016456397805
 30
0.0
 11
-1047.681241422086
 21
-15.53308435388516
 31
0.0
  0
LINE
  5
4FD
330
1F
100
AcDbEntity
  8
A-2_蓋
  6
Continuous
 62
     3
370
     9
100
AcDbLine
 10
-1036.014701224662
 20
299.4683260531039
 30
0.0
 11
-1036.014701224662
 21
151.1344620988177
 31
0.0
  0
LINE
  5
4FE
330
1F
100
AcDbEntity
  8
A-2_蓋
  6
Continuous
 62
     3
370
     9
100
AcDbLine
 10
-1036.014701224662
 20
132.8016456397805
 30
0.0
 11
-1036.014701224662
 21
-15.53308435388516
 31
0.0
  0
LINE
  5
4FF
330
1F
100
AcDbEntity
  8
A-2_蓋
  6
Continuous
 62
     3
370
     9
100
AcDbLine
 10
-1106.514018290752
 20
299.4683260531039
 30
0.0
 11
-1106.514018290752
 21
151.1344620988177
 31
0.0
  0
LINE
  5
500
330
1F
100
AcDbEntity
  8
A-2_蓋
  6
Continuous
 62
     3
370
     9
100
AcDbLine
 10
-1106.514018290752
 20
132.8016456397805
 30
0.0
 11
-1106.514018290752
 21
-15.53308435388516
 31
0.0
  0
LINE
  5
501
330
1F
100
AcDbEntity
  8
A-2_蓋
  6
Continuous
 62
     3
370
     9
100
AcDbLine
 10
-1094.847478093327
 20
299.4683260531039
 30
0.0
 11
-1094.847478093327
 21
151.1344620988177
 31
0.0
  0
LINE
  5
502
330
1F
100
AcDbEntity
  8
A-2_蓋
  6
Continuous
 62
     3
370
     9
100
AcDbLine
 10
-1094.847478093327
 20
132.8016456397805
 30
0.0
 11
-1094.847478093327
 21
-15.53308435388516
 31
0.0
  0
LINE
  5
503
330
1F
100
AcDbEntity
  8
A-2_蓋
  6
Continuous
 62
     3
370
     9
100
AcDbLine
 10
-1165.347784918708
 20
299.4683260531039
 30
0.0
 11
-1165.347784918708
 21
151.1344620988177
 31
0.0
  0
LINE
  5
504
330
1F
100
AcDbEntity
  8
A-2_蓋
  6
Continuous
 62
     3
370
     9
100
AcDbLine
 10
-1165.347784918708
 20
132.8016456397805
 30
0.0
 11
-1165.347784918708
 21
-15.53308435388516
 31
0.0
  0
LINE
  5
505
330
1F
100
AcDbEntity
  8
A-2_蓋
  6
Continuous
 62
     3
370
     9
100
AcDbLine
 10
-1153.680997281461
 20
299.4683260531039
 30
0.0
 11
-1153.680997281461
 21
151.1344620988177
 31
0.0
  0
LINE
  5
506
330
1F
100
AcDbEntity
  8
A-2_蓋
  6
Continuous
 62
     3
370
     9
100
AcDbLine
 10
-1153.680997281461
 20
132.8016456397805
 30
0.0
 11
-1153.680997281461
 21
-15.53308435388516
 31
0.0
  0
LINE
  5
507
330
1F
100
AcDbEntity
  8
A-2_蓋
  6
Continuous
 62
     3
370
     9
100
AcDbLine
 10
-1224.181304106841
 20
299.4683260531039
 30
0.0
 11
-1224.181304106841
 21
151.1344620988177
 31
0.0
  0
LINE
  5
508
330
1F
100
AcDbEntity
  8
A-2_蓋
  6
Continuous
 62
     3
370
     9
100
AcDbLine
 10
-1224.181304106841
 20
132.8016456397805
 30
0.0
 11
-1224.181304106841
 21
-15.53308435388516
 31
0.0
  0
LINE
  5
509
330
1F
100
AcDbEntity
  8
A-2_蓋
  6
Continuous
 62
     3
370
     9
100
AcDbLine
 10
-1212.514516469595
 20
299.4683260531039
 30
0.0
 11
-1212.514516469595
 21
151.1344620988177
 31
0.0
  0
LINE
  5
50A
330
1F
100
AcDbEntity
  8
A-2_蓋
  6
Continuous
 62
     3
370
     9
100
AcDbLine
 10
-1212.514516469595
 20
132.8016456397805
 30
0.0
 11
-1212.514516469595
 21
-15.53308435388516
 31
0.0
  0
LINE
  5
50B
330
1F
100
AcDbEntity
  8
A-A
  6
Continuous
 62
     3
370
     9
100
AcDbLine
 10
1141.994414458404
 20
44.08358187288854
 30
0.0
 11
1144.494546426309
 21
42.41682722761823
 31
0.0
  0
LINE
  5
50C
330
1F
100
AcDbEntity
  8
A-A
  6
Continuous
 62
     3
370
     9
100
AcDbLine
 10
1141.994414458404
 20
32.22849253061668
 30
0.0
 11
1141.994414458404
 21
27.22847603462839
 31
0.0
  0
LINE
  5
50D
330
1F
100
AcDbEntity
  8
A-A
  6
Continuous
 62
     3
370
     9
100
AcDbLine
 10
1141.994414458404
 20
32.22849253061668
 30
0.0
 11
1144.494546426309
 21
33.89524717588699
 31
0.0
  0
LINE
  5
50E
330
1F
100
AcDbEntity
  8
A-A
  6
Continuous
 62
     3
370
     9
100
AcDbLine
 10
1141.994414458404
 20
27.22847603462839
 30
0.0
 11
1144.494546426309
 21
25.56172138935807
 31
0.0
  0
LINE
  5
50F
330
1F
100
AcDbEntity
  8
A-A
  6
Continuous
 62
     3
370
     9
100
AcDbLine
 10
1144.494546426309
 20
33.89524717588699
 30
0.0
 11
1144.494546426309
 21
42.41682722761823
 31
0.0
  0
LINE
  5
510
330
1F
100
AcDbEntity
  8
A-A
  6
Continuous
 62
     3
370
     9
100
AcDbLine
 10
1141.994414458404
 20
15.37313925253386
 30
0.0
 11
1141.994414458404
 21
5.373353700380221
 31
0.0
  0
LINE
  5
511
330
1F
100
AcDbEntity
  8
A-A
  6
Continuous
 62
     3
370
     9
100
AcDbLine
 10
1141.994414458404
 20
15.37313925253386
 30
0.0
 11
1144.494546426309
 21
17.03989389780418
 31
0.0
  0
LINE
  5
512
330
1F
100
AcDbEntity
  8
A-A
  6
Continuous
 62
     3
370
     9
100
AcDbLine
 10
1144.494546426309
 20
25.56172138935807
 30
0.0
 11
1144.494546426309
 21
17.03989389780418
 31
0.0
  0
LINE
  5
513
330
1F
100
AcDbEntity
  8
A-A
  6
Continuous
 62
     3
370
     9
100
AcDbLine
 10
1141.994414458404
 20
5.373353700380221
 30
0.0
 11
1144.494546426309
 21
3.706599055109905
 31
0.0
  0
LINE
  5
514
330
1F
100
AcDbEntity
  8
A-A
  6
Continuous
 62
     3
370
     9
100
AcDbLine
 10
1141.994414458404
 20
-6.48173564189193
 30
0.0
 11
1141.994414458404
 21
-11.48175213787994
 31
0.0
  0
LINE
  5
515
330
1F
100
AcDbEntity
  8
A-A
  6
Continuous
 62
     3
370
     9
100
AcDbLine
 10
1141.994414458404
 20
-6.48173564189193
 30
0.0
 11
1144.494546426309
 21
-4.814980996621614
 31
0.0
  0
LINE
  5
516
330
1F
100
AcDbEntity
  8
A-A
  6
Continuous
 62
     3
370
     9
100
AcDbLine
 10
1141.994414458404
 20
-11.48175213787994
 30
0.0
 11
1144.494546426309
 21
-13.14850678315025
 31
0.0
  0
LINE
  5
517
330
1F
100
AcDbEntity
  8
A-A
  6
Continuous
 62
     3
370
     9
100
AcDbLine
 10
1144.494546426309
 20
-4.814980996621614
 30
0.0
 11
1144.494546426309
 21
3.706599055109905
 31
0.0
  0
LINE
  5
518
330
1F
100
AcDbEntity
  8
A-A
  6
Continuous
 62
     3
370
     9
100
AcDbLine
 10
1141.994414458404
 20
-23.33708891997446
 30
0.0
 11
1141.994414458404
 21
-33.33687447212839
 31
0.0
  0
LINE
  5
519
330
1F
100
AcDbEntity
  8
A-A
  6
Continuous
 62
     3
370
     9
100
AcDbLine
 10
1141.994414458404
 20
-23.33708891997446
 30
0.0
 11
1144.494546426309
 21
-21.67033427470443
 31
0.0
  0
LINE
  5
51A
330
1F
100
AcDbEntity
  8
A-A
  6
Continuous
 62
     3
370
     9
100
AcDbLine
 10
1144.494546426309
 20
-13.14850678315025
 30
0.0
 11
1144.494546426309
 21
-21.67033427470443
 31
0.0
  0
LINE
  5
51B
330
1F
100
AcDbEntity
  8
A-A
  6
Continuous
 62
     3
370
     9
100
AcDbLine
 10
1141.994414458404
 20
-33.33687447212839
 30
0.0
 11
1144.494546426309
 21
-35.0036291173987
 31
0.0
  0
LINE
  5
51C
330
1F
100
AcDbEntity
  8
A-A
  6
Continuous
 62
     3
370
     9
100
AcDbLine
 10
1141.994414458404
 20
-45.19196381440025
 30
0.0
 11
1141.994414458404
 21
-50.19198031038854
 31
0.0
  0
LINE
  5
51D
330
1F
100
AcDbEntity
  8
A-A
  6
Continuous
 62
     3
370
     9
100
AcDbLine
 10
1141.994414458404
 20
-45.19196381440025
 30
0.0
 11
1144.494546426309
 21
-43.52520916912994
 31
0.0
  0
LINE
  5
51E
330
1F
100
AcDbEntity
  8
A-A
  6
Continuous
 62
     3
370
     9
100
AcDbLine
 10
1141.994414458404
 20
-50.19198031038854
 30
0.0
 11
1144.494546426309
 21
-51.85873495565858
 31
0.0
  0
LINE
  5
51F
330
1F
100
AcDbEntity
  8
A-A
  6
Continuous
 62
     3
370
     9
100
AcDbLine
 10
1144.494546426309
 20
-43.52520916912994
 30
0.0
 11
1144.494546426309
 21
-35.0036291173987
 31
0.0
  0
LINE
  5
520
330
1F
100
AcDbEntity
  8
A-A
  6
Continuous
 62
     3
370
     9
100
AcDbLine
 10
1141.994414458404
 20
-62.04731709248307
 30
0.0
 11
1141.994414458404
 21
-72.04710264463671
 31
0.0
  0
LINE
  5
521
330
1F
100
AcDbEntity
  8
A-A
  6
Continuous
 62
     3
370
     9
100
AcDbLine
 10
1141.994414458404
 20
-62.04731709248307
 30
0.0
 11
1144.494546426309
 21
-60.38056244721275
 31
0.0
  0
LINE
  5
522
330
1F
100
AcDbEntity
  8
A-A
  6
Continuous
 62
     3
370
     9
100
AcDbLine
 10
1144.494546426309
 20
-51.85873495565858
 30
0.0
 11
1144.494546426309
 21
-60.38056244721275
 31
0.0
  0
LINE
  5
523
330
1F
100
AcDbEntity
  8
A-A
  6
Continuous
 62
     3
370
     9
100
AcDbLine
 10
1141.994414458404
 20
-72.04710264463671
 30
0.0
 11
1144.494546426309
 21
-73.71385728990703
 31
0.0
  0
LINE
  5
524
330
1F
100
AcDbEntity
  8
A-A
  6
Continuous
 62
     3
370
     9
100
AcDbLine
 10
1141.994414458404
 20
-83.90219198690858
 30
0.0
 11
1141.994414458404
 21
-88.90220848289687
 31
0.0
  0
LINE
  5
525
330
1F
100
AcDbEntity
  8
A-A
  6
Continuous
 62
     3
370
     9
100
AcDbLine
 10
1141.994414458404
 20
-83.90219198690858
 30
0.0
 11
1144.494546426309
 21
-82.23543734163854
 31
0.0
  0
LINE
  5
526
330
1F
100
AcDbEntity
  8
A-A
  6
Continuous
 62
     3
370
     9
100
AcDbLine
 10
1141.994414458404
 20
-88.90220848289687
 30
0.0
 11
1144.494546426309
 21
-90.56896312816718
 31
0.0
  0
LINE
  5
527
330
1F
100
AcDbEntity
  8
A-A
  6
Continuous
 62
     3
370
     9
100
AcDbLine
 10
1144.494546426309
 20
-82.23543734163854
 30
0.0
 11
1144.494546426309
 21
-73.71385728990703
 31
0.0
  0
LINE
  5
528
330
1F
100
AcDbEntity
  8
A-A
  6
Continuous
 62
     3
370
     9
100
AcDbLine
 10
1141.994414458404
 20
-100.7575452649914
 30
0.0
 11
1141.994414458404
 21
-110.7573308171453
 31
0.0
  0
LINE
  5
529
330
1F
100
AcDbEntity
  8
A-A
  6
Continuous
 62
     3
370
     9
100
AcDbLine
 10
1141.994414458404
 20
-100.7575452649914
 30
0.0
 11
1144.494546426309
 21
-99.09079061972108
 31
0.0
  0
LINE
  5
52A
330
1F
100
AcDbEntity
  8
A-A
  6
Continuous
 62
     3
370
     9
100
AcDbLine
 10
1144.494546426309
 20
-90.56896312816718
 30
0.0
 11
1144.494546426309
 21
-99.09079061972108
 31
0.0
  0
LINE
  5
52B
330
1F
100
AcDbEntity
  8
A-A
  6
Continuous
 62
     3
370
     9
100
AcDbLine
 10
1141.994414458404
 20
-110.7573308171453
 30
0.0
 11
1144.494546426309
 21
-112.4240854624153
 31
0.0
  0
LINE
  5
52C
330
1F
100
AcDbEntity
  8
A-A
  6
Continuous
 62
     3
370
     9
100
AcDbLine
 10
1141.994414458404
 20
-122.6124201594172
 30
0.0
 11
1141.994414458404
 21
-127.6124366554052
 31
0.0
  0
LINE
  5
52D
330
1F
100
AcDbEntity
  8
A-A
  6
Continuous
 62
     3
370
     9
100
AcDbLine
 10
1141.994414458404
 20
-122.6124201594172
 30
0.0
 11
1144.494546426309
 21
-120.9456655141469
 31
0.0
  0
LINE
  5
52E
330
1F
100
AcDbEntity
  8
A-A
  6
Continuous
 62
     3
370
     9
100
AcDbLine
 10
1141.994414458404
 20
-127.6124366554052
 30
0.0
 11
1144.494546426309
 21
-129.2791913006755
 31
0.0
  0
LINE
  5
52F
330
1F
100
AcDbEntity
  8
A-A
  6
Continuous
 62
     3
370
     9
100
AcDbLine
 10
1144.494546426309
 20
-120.9456655141469
 30
0.0
 11
1144.494546426309
 21
-112.4240854624153
 31
0.0
  0
LINE
  5
530
330
1F
100
AcDbEntity
  8
A-A
  6
Continuous
 62
     3
370
     9
100
AcDbLine
 10
1141.994414458404
 20
-139.4677734375
 30
0.0
 11
1144.494546426309
 21
-137.8010187922297
 31
0.0
  0
LINE
  5
531
330
1F
100
AcDbEntity
  8
A-A
  6
Continuous
 62
     3
370
     9
100
AcDbLine
 10
1144.494546426309
 20
-129.2791913006755
 30
0.0
 11
1144.494546426309
 21
-137.8010187922297
 31
0.0
  0
LINE
  5
532
330
1F
100
AcDbEntity
  8
A-A
  6
Continuous
 62
     3
370
     9
100
AcDbLine
 10
1144.494546426309
 20
-142.1997565192146
 30
0.0
 11
1144.494546426309
 21
-149.6996575432854
 31
0.0
  0
LINE
  5
533
330
1F
100
AcDbEntity
  8
A-A
  6
Continuous
 62
     3
370
     9
100
AcDbLine
 10
1141.994414458404
 20
-139.4677734375
 30
0.0
 11
1141.994414458404
 21
-142.1997565192146
 31
0.0
  0
LINE
  5
534
330
1F
100
AcDbEntity
  8
A-A
  6
Continuous
 62
     3
370
     9
100
AcDbLine
 10
1144.494546426309
 20
-142.1997565192146
 30
0.0
 11
1141.994414458404
 21
-142.1997565192146
 31
0.0
  0
CIRCLE
  5
535
330
1F
100
AcDbEntity
  8
A-1_ピット
  6
Continuous
 62
     2
370
     9
100
AcDbCircle
 10
-965.6816637193833
 20
-173.86623898068
 30
0.0
 40
7.500001546498893
  0
CIRCLE
  5
536
330
1F
100
AcDbEntity
  8
A-1_ピット
  6
Continuous
 62
     2
370
     9
100
AcDbCircle
 10
-797.3482286607896
 20
-173.86623898068
 30
0.0
 40
7.500001546498893
  0
ARC
  5
537
330
1F
100
AcDbEntity
  8
A-1_ピット
  6
Continuous
 62
     2
370
     9
100
AcDbCircle
 10
-956.5148843301308
 20
-184.0335412927575
 30
0.0
 40
16.66666688145818
100
AcDbArc
 50
180.0
 51
270.0
  0
ARC
  5
538
330
1F
100
AcDbEntity
  8
A-1_ピット
  6
Continuous
 62
     2
370
     9
100
AcDbCircle
 10
-806.5150080500422
 20
-184.0335412927575
 30
0.0
 40
16.66666688145818
100
AcDbArc
 50
270.0
 51
0.0
  0
ARC
  5
539
330
1F
100
AcDbEntity
  8
A-1_ピット
  6
Continuous
 62
     2
370
     9
100
AcDbCircle
 10
-806.5146368903083
 20
-184.0335412927575
 30
0.0
 40
1.666666808966044
100
AcDbArc
 50
270.0
 51
0.0
  0
ARC
  5
53A
330
1F
100
AcDbEntity
  8
A-1_ピット
  6
Continuous
 62
     2
370
     9
100
AcDbCircle
 10
-956.5148843301308
 20
-184.0335412927575
 30
0.0
 40
1.666666808966044
100
AcDbArc
 50
180.0
 51
270.0
  0
CIRCLE
  5
53B
330
1F
100
AcDbEntity
  8
A-1_ピット
  6
Continuous
 62
     2
370
     9
100
AcDbCircle
 10
-109.0146863782726
 20
-173.86623898068
 30
0.0
 40
7.500001546498893
  0
CIRCLE
  5
53C
330
1F
100
AcDbEntity
  8
A-1_ピット
  6
Continuous
 62
     2
370
     9
100
AcDbCircle
 10
59.31825380067579
 20
-173.86623898068
 30
0.0
 40
7.500001546498893
  0
ARC
  5
53D
330
1F
100
AcDbEntity
  8
A-1_ピット
  6
Continuous
 62
     2
370
     9
100
AcDbCircle
 10
-99.84790698902003
 20
-184.0335412927575
 30
0.0
 40
16.66666688145818
100
AcDbArc
 50
180.0
 51
270.0
  0
ARC
  5
53E
330
1F
100
AcDbEntity
  8
A-1_ピット
  6
Continuous
 62
     2
370
     9
100
AcDbCircle
 10
50.152587890625
 20
-184.0335412927575
 30
0.0
 40
16.66666688145818
100
AcDbArc
 50
270.0
 51
0.0
  0
ARC
  5
53F
330
1F
100
AcDbEntity
  8
A-1_ピット
  6
Continuous
 62
     2
370
     9
100
AcDbCircle
 10
50.152587890625
 20
-184.0335412927575
 30
0.0
 40
1.666666808966044
100
AcDbArc
 50
270.0
 51
0.0
  0
ARC
  5
540
330
1F
100
AcDbEntity
  8
A-1_ピット
  6
Continuous
 62
     2
370
     9
100
AcDbCircle
 10
-99.84840186866535
 20
-184.0335412927575
 30
0.0
 40
1.666666808966044
100
AcDbArc
 50
180.0
 51
270.0
  0
CIRCLE
  5
541
330
1F
100
AcDbEntity
  8
A-1_ピット
  6
Continuous
 62
     2
370
     9
100
AcDbCircle
 10
-965.6816637193833
 20
957.8013981999578
 30
0.0
 40
7.500001546498893
  0
CIRCLE
  5
542
330
1F
100
AcDbEntity
  8
A-1_ピット
  6
Continuous
 62
     2
370
     9
100
AcDbCircle
 10
-797.3482286607896
 20
957.8013981999578
 30
0.0
 40
7.500001546498893
  0
ARC
  5
543
330
1F
100
AcDbEntity
  8
A-1_ピット
  6
Continuous
 62
     2
370
     9
100
AcDbCircle
 10
-956.5148843301308
 20
967.9679581925677
 30
0.0
 40
16.66666688145818
100
AcDbArc
 50
90.0
 51
180.0
  0
ARC
  5
544
330
1F
100
AcDbEntity
  8
A-1_ピット
  6
Continuous
 62
     2
370
     9
100
AcDbCircle
 10
-806.5150080500422
 20
967.9679581925677
 30
0.0
 40
16.66666688145818
100
AcDbArc
 50
0.0
 51
90.0
  0
ARC
  5
545
330
1F
100
AcDbEntity
  8
A-1_ピット
  6
Continuous
 62
     2
370
     9
100
AcDbCircle
 10
-806.5146368903083
 20
967.9679581925677
 30
0.0
 40
1.666666808966044
100
AcDbArc
 50
0.0
 51
90.0
  0
ARC
  5
546
330
1F
100
AcDbEntity
  8
A-1_ピット
  6
Continuous
 62
     2
370
     9
100
AcDbCircle
 10
-956.5148843301308
 20
967.9679581925677
 30
0.0
 40
1.666666808966044
100
AcDbArc
 50
90.0
 51
180.0
  0
CIRCLE
  5
547
330
1F
100
AcDbEntity
  8
A-1_ピット
  6
Continuous
 62
     2
370
     9
100
AcDbCircle
 10
-109.0146863782726
 20
957.8013981999578
 30
0.0
 40
7.500001546498893
  0
CIRCLE
  5
548
330
1F
100
AcDbEntity
  8
A-1_ピット
  6
Continuous
 62
     2
370
     9
100
AcDbCircle
 10
59.31825380067579
 20
957.8013981999578
 30
0.0
 40
7.500001546498893
  0
ARC
  5
549
330
1F
100
AcDbEntity
  8
A-1_ピット
  6
Continuous
 62
     2
370
     9
100
AcDbCircle
 10
-99.84790698902003
 20
967.9679581925677
 30
0.0
 40
16.66666688145818
100
AcDbArc
 50
90.0
 51
180.0
  0
ARC
  5
54A
330
1F
100
AcDbEntity
  8
A-1_ピット
  6
Continuous
 62
     2
370
     9
100
AcDbCircle
 10
50.152587890625
 20
967.9679581925677
 30
0.0
 40
16.66666688145818
100
AcDbArc
 50
0.0
 51
90.0
  0
ARC
  5
54B
330
1F
100
AcDbEntity
  8
A-1_ピット
  6
Continuous
 62
     2
370
     9
100
AcDbCircle
 10
50.152587890625
 20
967.9679581925677
 30
0.0
 40
1.666666808966044
100
AcDbArc
 50
0.0
 51
90.0
  0
ARC
  5
54C
330
1F
100
AcDbEntity
  8
A-1_ピット
  6
Continuous
 62
     2
370
     9
100
AcDbCircle
 10
-99.84840186866535
 20
967.9679581925677
 30
0.0
 40
1.666666808966044
100
AcDbArc
 50
90.0
 51
180.0
  0
ARC
  5
54D
330
1F
100
AcDbEntity
  8
A-3_受枠
  6
Continuous
 62
     4
370
     9
100
AcDbCircle
 10
-1108.93088675834
 20
900.2176975559544
 30
0.0
 40
2.416662106642852
100
AcDbArc
 50
270.0
 51
90.0
  0
ARC
  5
54E
330
1F
100
AcDbEntity
  8
A-3_受枠
  6
Continuous
 62
     4
370
     9
100
AcDbCircle
 10
-1151.264499973606
 20
900.2176975559544
 30
0.0
 40
2.416662106642852
100
AcDbArc
 50
90.0
 51
270.0
  0
ARC
  5
54F
330
1F
100
AcDbEntity
  8
A-3_受枠
  6
Continuous
 62
     4
370
     9
100
AcDbCircle
 10
-1146.014198097023
 20
900.2176975559544
 30
0.0
 40
2.41666718109234
100
AcDbArc
 50
270.0
 51
0.0
  0
ARC
  5
550
330
1F
100
AcDbEntity
  8
A-3_受枠
  6
Continuous
 62
     4
370
     9
100
AcDbCircle
 10
-1114.180941195101
 20
900.2176975559544
 30
0.0
 40
2.41666718109234
100
AcDbArc
 50
180.0
 51
270.0
  0
ARC
  5
551
330
1F
100
AcDbEntity
  8
A-3_受枠
  6
Continuous
 62
     4
370
     9
100
AcDbCircle
 10
-1149.264320167335
 20
903.4678196262669
 30
0.0
 40
0.833333283662796
100
AcDbArc
 50
270.0
 51
0.0
  0
ARC
  5
552
330
1F
100
AcDbEntity
  8
A-3_受枠
  6
Continuous
 62
     4
370
     9
100
AcDbCircle
 10
-1110.9309428447
 20
903.4678196262669
 30
0.0
 40
0.833333283662796
100
AcDbArc
 50
180.0
 51
270.0
  0
ARC
  5
553
330
1F
100
AcDbEntity
  8
A-3_受枠
  6
JWW_HOJO
 62
     4
370
     9
100
AcDbCircle
 10
-1146.014198097023
 20
923.717304951436
 30
0.0
 40
2.416656790552913
100
AcDbArc
 50
0.0
 51
180.0
  0
ARC
  5
554
330
1F
100
AcDbEntity
  8
A-3_受枠
  6
JWW_HOJO
 62
     4
370
     9
100
AcDbCircle
 10
-1114.180941195101
 20
923.717304951436
 30
0.0
 40
2.416656790552913
100
AcDbArc
 50
0.0
 51
180.0
  0
ELLIPSE
  5
555
330
1F
100
AcDbEntity
  8
A-3_受枠
  6
Continuous
 62
     4
370
     9
100
AcDbEllipse
 10
-1146.014198097023
 20
937.8995658255915
 30
0.0
 11
2.416662106642852
 21
0.0
 31
0.0
210
0.0
220
0.0
230
1.0
 40
0.9937
 41
0.0
 42
6.283185307179586
  0
ELLIPSE
  5
556
330
1F
100
AcDbEntity
  8
A-3_受枠
  6
Continuous
 62
     4
370
     9
100
AcDbEllipse
 10
-1114.180941195101
 20
937.8995658255915
 30
0.0
 11
-2.416662106642852
 21
2.959459770836608E-16
 31
0.0
210
0.0
220
0.0
230
1.0
 40
0.9937
 41
0.0
 42
6.283185307179586
  0
ARC
  5
557
330
1F
100
AcDbEntity
  8
A-3_受枠
  6
JWW_HOJO
 62
     4
370
     9
100
AcDbCircle
 10
-1146.014198097023
 20
936.0506954708617
 30
0.0
 40
2.416656790552913
100
AcDbArc
 50
180.0
 51
0.0
  0
ARC
  5
558
330
1F
100
AcDbEntity
  8
A-3_受枠
  6
JWW_HOJO
 62
     4
370
     9
100
AcDbCircle
 10
-1114.180941195101
 20
936.0506954708617
 30
0.0
 40
2.416656790552913
100
AcDbArc
 50
180.0
 51
0.0
  0
ARC
  5
559
330
1F
100
AcDbEntity
  8
A-3_受枠
  6
Continuous
 62
     4
370
     9
100
AcDbCircle
 10
243.9031652502112
 20
900.2176975559544
 30
0.0
 40
2.416662106642852
100
AcDbArc
 50
270.0
 51
90.0
  0
ARC
  5
55A
330
1F
100
AcDbEntity
  8
A-3_受枠
  6
Continuous
 62
     4
370
     9
100
AcDbCircle
 10
201.5694283150339
 20
900.2176975559544
 30
0.0
 40
2.416662106642852
100
AcDbArc
 50
90.0
 51
270.0
  0
ARC
  5
55B
330
1F
100
AcDbEntity
  8
A-3_受枠
  6
Continuous
 62
     4
370
     9
100
AcDbCircle
 10
206.8196064717063
 20
900.2176975559544
 30
0.0
 40
2.41666718109234
100
AcDbArc
 50
270.0
 51
0.0
  0
ARC
  5
55C
330
1F
100
AcDbEntity
  8
A-3_受枠
  6
Continuous
 62
     4
370
     9
100
AcDbCircle
 10
238.6527396537164
 20
900.2176975559544
 30
0.0
 40
2.41666718109234
100
AcDbArc
 50
180.0
 51
270.0
  0
ARC
  5
55D
330
1F
100
AcDbEntity
  8
A-3_受枠
  6
Continuous
 62
     4
370
     9
100
AcDbCircle
 10
203.5694844013938
 20
903.4678196262669
 30
0.0
 40
0.833333283662796
100
AcDbArc
 50
270.0
 51
0.0
  0
ARC
  5
55E
330
1F
100
AcDbEntity
  8
A-3_受枠
  6
Continuous
 62
     4
370
     9
100
AcDbCircle
 10
241.9028617240289
 20
903.4678196262669
 30
0.0
 40
0.833333283662796
100
AcDbArc
 50
180.0
 51
270.0
  0
ARC
  5
55F
330
1F
100
AcDbEntity
  8
A-3_受枠
  6
JWW_HOJO
 62
     4
370
     9
100
AcDbCircle
 10
206.8196064717063
 20
923.717304951436
 30
0.0
 40
2.416656790552913
100
AcDbArc
 50
0.0
 51
180.0
  0
ARC
  5
560
330
1F
100
AcDbEntity
  8
A-3_受枠
  6
JWW_HOJO
 62
     4
370
     9
100
AcDbCircle
 10
238.6527396537164
 20
923.717304951436
 30
0.0
 40
2.416656790552913
100
AcDbArc
 50
0.0
 51
180.0
  0
ELLIPSE
  5
561
330
1F
100
AcDbEntity
  8
A-3_受枠
  6
Continuous
 62
     4
370
     9
100
AcDbEllipse
 10
206.8196064717063
 20
937.8995658255915
 30
0.0
 11
2.416662106642852
 21
0.0
 31
0.0
210
0.0
220
0.0
230
1.0
 40
0.9937
 41
0.0
 42
6.283185307179586
  0
ELLIPSE
  5
562
330
1F
100
AcDbEntity
  8
A-3_受枠
  6
Continuous
 62
     4
370
     9
100
AcDbEllipse
 10
238.6527396537164
 20
937.8995658255915
 30
0.0
 11
-2.416662106642852
 21
2.959459770836608E-16
 31
0.0
210
0.0
220
0.0
230
1.0
 40
0.9937
 41
0.0
 42
6.283185307179586
  0
ARC
  5
563
330
1F
100
AcDbEntity
  8
A-3_受枠
  6
JWW_HOJO
 62
     4
370
     9
100
AcDbCircle
 10
206.8196064717063
 20
936.0506954708617
 30
0.0
 40
2.416656790552913
100
AcDbArc
 50
180.0
 51
0.0
  0
ARC
  5
564
330
1F
100
AcDbEntity
  8
A-3_受枠
  6
JWW_HOJO
 62
     4
370
     9
100
AcDbCircle
 10
238.6527396537164
 20
936.0506954708617
 30
0.0
 40
2.416656790552913
100
AcDbArc
 50
180.0
 51
0.0
  0
ARC
  5
565
330
1F
100
AcDbEntity
  8
A-3_受枠
  6
Continuous
 62
     4
370
     9
100
AcDbCircle
 10
-1108.93088675834
 20
-116.2820434570312
 30
0.0
 40
2.416662106642852
100
AcDbArc
 50
270.0
 51
90.0
  0
ARC
  5
566
330
1F
100
AcDbEntity
  8
A-3_受枠
  6
Continuous
 62
     4
370
     9
100
AcDbCircle
 10
-1151.264499973606
 20
-116.2820434570312
 30
0.0
 40
2.416662106642852
100
AcDbArc
 50
90.0
 51
270.0
  0
ARC
  5
567
330
1F
100
AcDbEntity
  8
A-3_受枠
  6
Continuous
 62
     4
370
     9
100
AcDbCircle
 10
-1146.014198097023
 20
-116.2820434570312
 30
0.0
 40
2.41666718109234
100
AcDbArc
 50
0.0
 51
90.0
  0
ARC
  5
568
330
1F
100
AcDbEntity
  8
A-3_受枠
  6
Continuous
 62
     4
370
     9
100
AcDbCircle
 10
-1114.180941195101
 20
-116.2820434570312
 30
0.0
 40
2.41666718109234
100
AcDbArc
 50
90.0
 51
180.0
  0
ARC
  5
569
330
1F
100
AcDbEntity
  8
A-3_受枠
  6
Continuous
 62
     4
370
     9
100
AcDbCircle
 10
-1149.264320167335
 20
-119.5321655273438
 30
0.0
 40
0.833333283662796
100
AcDbArc
 50
0.0
 51
90.0
  0
ARC
  5
56A
330
1F
100
AcDbEntity
  8
A-3_受枠
  6
Continuous
 62
     4
370
     9
100
AcDbCircle
 10
-1110.9309428447
 20
-119.5321655273438
 30
0.0
 40
0.833333283662796
100
AcDbArc
 50
90.0
 51
180.0
  0
ARC
  5
56B
330
1F
100
AcDbEntity
  8
A-3_受枠
  6
JWW_HOJO
 62
     4
370
     9
100
AcDbCircle
 10
-1146.014198097023
 20
-139.781774572424
 30
0.0
 40
2.416656790552913
100
AcDbArc
 50
180.0
 51
0.0
  0
ARC
  5
56C
330
1F
100
AcDbEntity
  8
A-3_受枠
  6
JWW_HOJO
 62
     4
370
     9
100
AcDbCircle
 10
-1114.180941195101
 20
-139.781774572424
 30
0.0
 40
2.416656790552913
100
AcDbArc
 50
180.0
 51
0.0
  0
ELLIPSE
  5
56D
330
1F
100
AcDbEntity
  8
A-3_受枠
  6
Continuous
 62
     4
370
     9
100
AcDbEllipse
 10
-1146.014198097023
 20
-153.9637880067568
 30
0.0
 11
2.416662106642852
 21
0.0
 31
0.0
210
0.0
220
0.0
230
1.0
 40
0.9937
 41
0.0
 42
6.283185307179586
  0
ELLIPSE
  5
56E
330
1F
100
AcDbEntity
  8
A-3_受枠
  6
Continuous
 62
     4
370
     9
100
AcDbEllipse
 10
-1114.180941195101
 20
-153.9637880067568
 30
0.0
 11
-2.416662106642852
 21
2.959459770836608E-16
 31
0.0
210
0.0
220
0.0
230
1.0
 40
0.9937
 41
0.0
 42
6.283185307179586
  0
ARC
  5
56F
330
1F
100
AcDbEntity
  8
A-3_受枠
  6
JWW_HOJO
 62
     4
370
     9
100
AcDbCircle
 10
-1146.014198097023
 20
-152.1150413719383
 30
0.0
 40
2.416656790552913
100
AcDbArc
 50
0.0
 51
180.0
  0
ARC
  5
570
330
1F
100
AcDbEntity
  8
A-3_受枠
  6
JWW_HOJO
 62
     4
370
     9
100
AcDbCircle
 10
-1114.180941195101
 20
-152.1150413719383
 30
0.0
 40
2.416656790552913
100
AcDbArc
 50
0.0
 51
180.0
  0
ARC
  5
571
330
1F
100
AcDbEntity
  8
A-3_受枠
  6
Continuous
 62
     4
370
     9
100
AcDbCircle
 10
243.9031652502112
 20
-116.2820434570312
 30
0.0
 40
2.416662106642852
100
AcDbArc
 50
270.0
 51
90.0
  0
ARC
  5
572
330
1F
100
AcDbEntity
  8
A-3_受枠
  6
Continuous
 62
     4
370
     9
100
AcDbCircle
 10
201.5694283150339
 20
-116.2820434570312
 30
0.0
 40
2.416662106642852
100
AcDbArc
 50
90.0
 51
270.0
  0
ARC
  5
573
330
1F
100
AcDbEntity
  8
A-3_受枠
  6
Continuous
 62
     4
370
     9
100
AcDbCircle
 10
206.8196064717063
 20
-116.2820434570312
 30
0.0
 40
2.41666718109234
100
AcDbArc
 50
0.0
 51
90.0
  0
ARC
  5
574
330
1F
100
AcDbEntity
  8
A-3_受枠
  6
Continuous
 62
     4
370
     9
100
AcDbCircle
 10
238.6527396537164
 20
-116.2820434570312
 30
0.0
 40
2.41666718109234
100
AcDbArc
 50
90.0
 51
180.0
  0
ARC
  5
575
330
1F
100
AcDbEntity
  8
A-3_受枠
  6
Continuous
 62
     4
370
     9
100
AcDbCircle
 10
203.5694844013938
 20
-119.5321655273438
 30
0.0
 40
0.833333283662796
100
AcDbArc
 50
0.0
 51
90.0
  0
ARC
  5
576
330
1F
100
AcDbEntity
  8
A-3_受枠
  6
Continuous
 62
     4
370
     9
100
AcDbCircle
 10
241.9028617240289
 20
-119.5321655273438
 30
0.0
 40
0.833333283662796
100
AcDbArc
 50
90.0
 51
180.0
  0
ARC
  5
577
330
1F
100
AcDbEntity
  8
A-3_受枠
  6
JWW_HOJO
 62
     4
370
     9
100
AcDbCircle
 10
206.8196064717063
 20
-139.781774572424
 30
0.0
 40
2.416656790552913
100
AcDbArc
 50
180.0
 51
0.0
  0
ARC
  5
578
330
1F
100
AcDbEntity
  8
A-3_受枠
  6
JWW_HOJO
 62
     4
370
     9
100
AcDbCircle
 10
238.6527396537164
 20
-139.781774572424
 30
0.0
 40
2.416656790552913
100
AcDbArc
 50
180.0
 51
0.0
  0
ELLIPSE
  5
579
330
1F
100
AcDbEntity
  8
A-3_受枠
  6
Continuous
 62
     4
370
     9
100
AcDbEllipse
 10
206.8196064717063
 20
-153.9637880067568
 30
0.0
 11
2.416662106642852
 21
0.0
 31
0.0
210
0.0
220
0.0
230
1.0
 40
0.9937
 41
0.0
 42
6.283185307179586
  0
ELLIPSE
  5
57A
330
1F
100
AcDbEntity
  8
A-3_受枠
  6
Continuous
 62
     4
370
     9
100
AcDbEllipse
 10
238.6527396537164
 20
-153.9637880067568
 30
0.0
 11
-2.416662106642852
 21
2.959459770836608E-16
 31
0.0
210
0.0
220
0.0
230
1.0
 40
0.9937
 41
0.0
 42
6.283185307179586
  0
ARC
  5
57B
330
1F
100
AcDbEntity
  8
A-3_受枠
  6
JWW_HOJO
 62
     4
370
     9
100
AcDbCircle
 10
206.8196064717063
 20
-152.1150413719383
 30
0.0
 40
2.416656790552913
100
AcDbArc
 50
0.0
 51
180.0
  0
ARC
  5
57C
330
1F
100
AcDbEntity
  8
A-3_受枠
  6
JWW_HOJO
 62
     4
370
     9
100
AcDbCircle
 10
238.6527396537164
 20
-152.1150413719383
 30
0.0
 40
2.416656790552913
100
AcDbArc
 50
0.0
 51
180.0
  0
ARC
  5
57D
330
1F
100
AcDbEntity
  8
A-3_受枠
  6
Continuous
 62
     4
370
     9
100
AcDbCircle
 10
1251.994529930321
 20
934.427490234375
 30
0.0
 40
0.833333283662796
100
AcDbArc
 50
0.0
 51
92.71160888671875
  0
ARC
  5
57E
330
1F
100
AcDbEntity
  8
A-3_受枠
  6
Continuous
 62
     4
370
     9
100
AcDbCircle
 10
1251.994529930321
 20
934.427490234375
 30
0.0
 40
5.666667222976685
100
AcDbArc
 50
0.0
 51
92.71179199218751
  0
ARC
  5
57F
330
1F
100
AcDbEntity
  8
A-3_受枠
  6
Continuous
 62
     4
370
     9
100
AcDbCircle
 10
1251.994529930321
 20
925.3486757020693
 30
0.0
 40
5.666667222976685
100
AcDbArc
 50
266.8402252197266
 51
0.0000000000000568
  0
ARC
  5
580
330
1F
100
AcDbEntity
  8
A-3_受枠
  6
Continuous
 62
     4
370
     9
100
AcDbCircle
 10
1251.994529930321
 20
925.3486757020693
 30
0.0
 40
0.833333283662796
100
AcDbArc
 50
266.8396759033203
 51
0.0
  0
ARC
  5
581
330
1F
100
AcDbEntity
  8
A-3_受枠
  6
Continuous
 62
     4
370
     9
100
AcDbCircle
 10
1255.244404560811
 20
900.2179449957771
 30
0.0
 40
2.416662106642852
100
AcDbArc
 50
270.0
 51
90.0
  0
ARC
  5
582
330
1F
100
AcDbEntity
  8
A-3_受枠
  6
Continuous
 62
     4
370
     9
100
AcDbCircle
 10
1206.661080025338
 20
903.4678196262669
 30
0.0
 40
0.833333283662796
100
AcDbArc
 50
180.0
 51
270.0
  0
ARC
  5
583
330
1F
100
AcDbEntity
  8
A-3_受枠
  6
Continuous
 62
     4
370
     9
100
AcDbCircle
 10
1206.661080025338
 20
903.4678196262669
 30
0.0
 40
5.666667222976685
100
AcDbArc
 50
180.0
 51
270.0
  0
ARC
  5
584
330
1F
100
AcDbEntity
  8
A-3_受枠
  6
Continuous
 62
     4
370
     9
100
AcDbCircle
 10
1206.661080025338
 20
912.5107553842906
 30
0.0
 40
5.666667222976685
100
AcDbArc
 50
114.8012390136719
 51
180.0
  0
ARC
  5
585
330
1F
100
AcDbEntity
  8
A-3_受枠
  6
Continuous
 62
     4
370
     9
100
AcDbCircle
 10
1206.661080025338
 20
912.5107553842906
 30
0.0
 40
0.833333283662796
100
AcDbArc
 50
114.8008880615234
 51
180.0
  0
ARC
  5
586
330
1F
100
AcDbEntity
  8
A-3_受枠
  6
Continuous
 62
     4
370
     9
100
AcDbCircle
 10
1251.994529930321
 20
-150.491959855363
 30
0.0
 40
0.833333283662796
100
AcDbArc
 50
267.2883911132812
 51
0.0000000000000254
  0
ARC
  5
587
330
1F
100
AcDbEntity
  8
A-3_受枠
  6
Continuous
 62
     4
370
     9
100
AcDbCircle
 10
1251.994529930321
 20
-150.491959855363
 30
0.0
 40
5.666667222976685
100
AcDbArc
 50
267.2882080078125
 51
0.0000000000000254
  0
ARC
  5
588
330
1F
100
AcDbEntity
  8
A-3_受枠
  6
Continuous
 62
     4
370
     9
100
AcDbCircle
 10
1251.994529930321
 20
-141.4130216031461
 30
0.0
 40
5.666667222976685
100
AcDbArc
 50
0.0
 51
93.15977478027344
  0
ARC
  5
589
330
1F
100
AcDbEntity
  8
A-3_受枠
  6
Continuous
 62
     4
370
     9
100
AcDbCircle
 10
1251.994529930321
 20
-141.4130216031461
 30
0.0
 40
0.833333283662796
100
AcDbArc
 50
0.0
 51
93.16032409667969
  0
ARC
  5
58A
330
1F
100
AcDbEntity
  8
A-3_受枠
  6
Continuous
 62
     4
370
     9
100
AcDbCircle
 10
1255.244404560811
 20
-116.2824146167651
 30
0.0
 40
2.416662106642852
100
AcDbArc
 50
270.0
 51
90.0
  0
ARC
  5
58B
330
1F
100
AcDbEntity
  8
A-3_受枠
  6
Continuous
 62
     4
370
     9
100
AcDbCircle
 10
1206.661080025338
 20
-119.5322892472549
 30
0.0
 40
0.833333283662796
100
AcDbArc
 50
90.0
 51
180.0
  0
ARC
  5
58C
330
1F
100
AcDbEntity
  8
A-3_受枠
  6
Continuous
 62
     4
370
     9
100
AcDbCircle
 10
1206.661080025338
 20
-119.5322892472549
 30
0.0
 40
5.666667222976685
100
AcDbArc
 50
90.0
 51
180.0
  0
ARC
  5
58D
330
1F
100
AcDbEntity
  8
A-3_受枠
  6
Continuous
 62
     4
370
     9
100
AcDbCircle
 10
1206.661080025338
 20
-128.5752250052786
 30
0.0
 40
5.666667222976685
100
AcDbArc
 50
180.0
 51
245.1987609863281
  0
ARC
  5
58E
330
1F
100
AcDbEntity
  8
A-3_受枠
  6
Continuous
 62
     4
370
     9
100
AcDbCircle
 10
1206.661080025338
 20
-128.5752250052786
 30
0.0
 40
0.833333283662796
100
AcDbArc
 50
180.0
 51
245.1991119384766
  0
ARC
  5
58F
330
1F
100
AcDbEntity
  8
A-1_ピット
  6
Continuous
 62
     2
370
     9
100
AcDbCircle
 10
1252.519597233953
 20
980.3015961518158
 30
0.0
 40
30.00000038662472
100
AcDbArc
 50
270.0
 51
285.0
  0
ARC
  5
590
330
1F
100
AcDbEntity
  8
A-1_ピット
  6
Continuous
 62
     2
370
     9
100
AcDbCircle
 10
1355.32787426098
 20
984.5550867029141
 30
0.0
 40
7.500000096656181
100
AcDbArc
 50
285.0001373291016
 51
104.9999084472656
  0
ARC
  5
591
330
1F
100
AcDbEntity
  8
A-1_ピット
  6
JWW_CENTER2
 62
     2
370
     9
100
AcDbCircle
 10
1252.519597233953
 20
980.3013487119936
 30
0.0
 40
22.50000270637306
100
AcDbArc
 50
270.0
 51
284.9999542236328
  0
ARC
  5
592
330
1F
100
AcDbEntity
  8
A-1_ピット
  6
Continuous
 62
     2
370
     9
100
AcDbCircle
 10
1252.519844673775
 20
980.3015961518158
 30
0.0
 40
15.00000019331236
100
AcDbArc
 50
270.0
 51
285.0000152587891
  0
ARC
  5
593
330
1F
100
AcDbEntity
  8
A-1_ピット
  6
Continuous
 62
     2
370
     9
100
AcDbCircle
 10
1261.161185599663
 20
931.9681858372044
 30
0.0
 40
8.33333344072909
100
AcDbArc
 50
0.0
 51
90.0
  0
ARC
  5
594
330
1F
100
AcDbEntity
  8
A-1_ピット
  6
Continuous
 62
     2
370
     9
100
AcDbCircle
 10
1149.494562922298
 20
945.301233240076
 30
0.0
 40
5.000000064437454
100
AcDbArc
 50
180.0
 51
270.0
  0
ARC
  5
595
330
1F
100
AcDbEntity
  8
A-1_ピット
  6
Continuous
 62
     2
370
     9
100
AcDbCircle
 10
1274.494480442357
 20
855.3014311919342
 30
0.0
 40
5.000000064437454
100
AcDbArc
 50
180.0
 51
270.0
  0
ARC
  5
596
330
1F
100
AcDbEntity
  8
A-3_受枠
  6
Continuous
 62
     4
370
     9
100
AcDbCircle
 10
1251.994529930321
 20
-150.4924547350083
 30
0.0
 40
0.833333283662796
100
AcDbArc
 50
267.2883911132812
 51
0.0000000000000254
  0
ARC
  5
597
330
1F
100
AcDbEntity
  8
A-3_受枠
  6
Continuous
 62
     4
370
     9
100
AcDbCircle
 10
1251.994529930321
 20
-150.4924547350083
 30
0.0
 40
5.666667222976685
100
AcDbArc
 50
267.2882080078125
 51
0.0000000000000254
  0
ARC
  5
598
330
1F
100
AcDbEntity
  8
A-3_受枠
  6
Continuous
 62
     4
370
     9
100
AcDbCircle
 10
1251.994529930321
 20
-141.4136402027026
 30
0.0
 40
5.666667222976685
100
AcDbArc
 50
0.0
 51
93.15977478027344
  0
ARC
  5
599
330
1F
100
AcDbEntity
  8
A-3_受枠
  6
Continuous
 62
     4
370
     9
100
AcDbCircle
 10
1251.994529930321
 20
-141.4136402027026
 30
0.0
 40
0.833333283662796
100
AcDbArc
 50
0.0
 51
93.16032409667969
  0
ARC
  5
59A
330
1F
100
AcDbEntity
  8
A-3_受枠
  6
Continuous
 62
     4
370
     9
100
AcDbCircle
 10
1255.244404560811
 20
-116.2829094964104
 30
0.0
 40
2.416662106642852
100
AcDbArc
 50
270.0
 51
90.0
  0
ARC
  5
59B
330
1F
100
AcDbEntity
  8
A-3_受枠
  6
Continuous
 62
     4
370
     9
100
AcDbCircle
 10
1206.661080025338
 20
-119.5327841269003
 30
0.0
 40
0.833333283662796
100
AcDbArc
 50
90.0
 51
180.0
  0
ARC
  5
59C
330
1F
100
AcDbEntity
  8
A-3_受枠
  6
Continuous
 62
     4
370
     9
100
AcDbCircle
 10
1206.661080025338
 20
-119.5327841269003
 30
0.0
 40
5.666667222976685
100
AcDbArc
 50
90.0
 51
180.0
  0
ARC
  5
59D
330
1F
100
AcDbEntity
  8
A-3_受枠
  6
Continuous
 62
     4
370
     9
100
AcDbCircle
 10
1206.661080025338
 20
-128.575719884924
 30
0.0
 40
5.666667222976685
100
AcDbArc
 50
180.0
 51
245.1987609863281
  0
ARC
  5
59E
330
1F
100
AcDbEntity
  8
A-3_受枠
  6
Continuous
 62
     4
370
     9
100
AcDbCircle
 10
1206.661080025338
 20
-128.575719884924
 30
0.0
 40
0.833333283662796
100
AcDbArc
 50
180.0
 51
245.1991119384766
  0
ARC
  5
59F
330
1F
100
AcDbEntity
  8
A-1_ピット
  6
Continuous
 62
     2
370
     9
100
AcDbCircle
 10
1252.519597233953
 20
-196.3665606524492
 30
0.0
 40
30.00000038662472
100
AcDbArc
 50
74.99999999999999
 51
89.99999999999999
  0
ARC
  5
5A0
330
1F
100
AcDbEntity
  8
A-1_ピット
  6
Continuous
 62
     2
370
     9
100
AcDbCircle
 10
1355.32787426098
 20
-200.6200512035471
 30
0.0
 40
7.500000096656181
100
AcDbArc
 50
255.0000915527343
 51
74.9998626708984
  0
ARC
  5
5A1
330
1F
100
AcDbEntity
  8
A-1_ピット
  6
JWW_CENTER2
 62
     2
370
     9
100
AcDbCircle
 10
1252.519597233953
 20
-196.3663132126266
 30
0.0
 40
22.50000270637306
100
AcDbArc
 50
75.00004577636717
 51
90.0
  0
ARC
  5
5A2
330
1F
100
AcDbEntity
  8
A-1_ピット
  6
Continuous
 62
     2
370
     9
100
AcDbCircle
 10
1252.519844673775
 20
-196.3665606524492
 30
0.0
 40
15.00000019331236
100
AcDbArc
 50
74.99998474121095
 51
90.0
  0
ARC
  5
5A3
330
1F
100
AcDbEntity
  8
A-1_ピット
  6
Continuous
 62
     2
370
     9
100
AcDbCircle
 10
1261.161185599663
 20
-148.0331503378378
 30
0.0
 40
8.33333344072909
100
AcDbArc
 50
270.0
 51
0.0
  0
ARC
  5
5A4
330
1F
100
AcDbEntity
  8
A-1_ピット
  6
Continuous
 62
     2
370
     9
100
AcDbCircle
 10
1149.494562922298
 20
-161.3661977407094
 30
0.0
 40
5.000000064437454
100
AcDbArc
 50
90.0
 51
180.0
  0
ARC
  5
5A5
330
1F
100
AcDbEntity
  8
A-1_ピット
  6
Continuous
 62
     2
370
     9
100
AcDbCircle
 10
1274.494480442357
 20
-71.36639569256744
 30
0.0
 40
5.000000064437454
100
AcDbArc
 50
90.0
 51
180.0
  0
TEXT
  5
5A6
330
1F
100
AcDbEntity
  8
D-4_寸法
  6
Continuous
 62
     2
370
     9
100
AcDbText
 10
838.0892861855998
 20
-1064.089911185599
 30
0.0
 40
30.48
  1
材質：ＳＳ４００
 41
1.109375
  7
ＭＳ ゴシック
100
AcDbText
  0
TEXT
  5
5A7
330
1F
100
AcDbEntity
  8
D-4_寸法
  6
Continuous
 62
     2
370
     9
100
AcDbText
 10
838.0893109295821
 20
-1119.089845201647
 30
0.0
 40
30.48
  1
処理：樹脂系塗料塗装
 41
1.1125
  7
ＭＳ ゴシック
100
AcDbText
  0
TEXT
  5
5A8
330
1F
100
AcDbEntity
  8
D-4_寸法
  6
Continuous
 62
     2
370
     9
100
AcDbText
 10
723.7876768369936
 20
-661.1697913587416
 30
0.0
 40
30.48
  1
仕　様
 41
1.083333333333333
  7
ＭＳ ゴシック
100
AcDbText
  0
TEXT
  5
5A9
330
1F
100
AcDbEntity
  8
D-4_寸法
  6
Continuous
 62
     2
370
     9
100
AcDbText
 10
838.0893109295821
 20
-889.0890863861908
 30
0.0
 40
30.48
  1
処理：溶融亜鉛めっき
 41
1.1125
  7
ＭＳ ゴシック
100
AcDbText
  0
TEXT
  5
5AA
330
1F
100
AcDbEntity
  8
D-4_寸法
  6
Continuous
 62
     2
370
     9
100
AcDbText
 10
838.089385161529
 20
-944.0902576013513
 30
0.0
 40
30.48
  1
定尺：９９５
 41
1.104166666666667
  7
ＭＳ ゴシック
100
AcDbText
  0
TEXT
  5
5AB
330
1F
100
AcDbEntity
  8
D-4_寸法
  6
Continuous
 62
     2
370
     9
100
AcDbText
 10
778.3769349794134
 20
-724.0902740973395
 30
0.0
 40
30.48
  1
ノンスリップタイプ
 41
1.111111111111111
  7
ＭＳ ゴシック
100
AcDbText
  0
TEXT
  5
5AC
330
1F
100
AcDbEntity
  8
D-4_寸法
  6
Continuous
 62
     2
370
     9
100
AcDbText
 10
838.0892861855998
 20
-834.088162610853
 30
0.0
 40
30.48
  1
材質：ＳＳ４００
 41
1.109375
  7
ＭＳ ゴシック
100
AcDbText
  0
TEXT
  5
5AD
330
1F
100
AcDbEntity
  8
A-4_寸法
  6
Continuous
 62
     7
370
     9
100
AcDbText
 10
1455.119884594067
 20
1162.429693834459
 30
0.0
 40
22.86
  1
アンカー：φ９
 41
1.142857142857143
  7
ＭＳ ゴシック
100
AcDbText
  0
TEXT
  5
5AE
330
1F
100
AcDbEntity
  8
A-4_寸法
  6
Continuous
 62
     2
370
     9
100
AcDbText
 10
1047.187990170011
 20
-207.5476530323746
 30
0.0
 40
30.48
  1
6
 50
90.00000250447816
 41
0.9999999999999989
  7
ＭＳ ゴシック
100
AcDbText
  0
TEXT
  5
5AF
330
1F
100
AcDbEntity
  8
A-4_寸法
  6
Continuous
 62
     2
370
     9
100
AcDbText
 10
1047.187990170011
 20
-133.9037469803265
 30
0.0
 40
30.48
  1
4
 50
90.00000250447816
 41
0.9999999999999998
  7
ＭＳ ゴシック
100
AcDbText
  0
TEXT
  5
5B0
330
1F
100
AcDbEntity
  8
A-4_寸法
  6
Continuous
 62
     2
370
     9
100
AcDbText
 10
1047.187990170011
 20
906.208990726863
 30
0.0
 40
30.48
  1
4
 50
90.00000250447816
 41
1.000000000000001
  7
ＭＳ ゴシック
100
AcDbText
  0
TEXT
  5
5B1
330
1F
100
AcDbEntity
  8
A-4_寸法
  6
Continuous
 62
     2
370
     9
100
AcDbText
 10
1047.187990170011
 20
974.0371949076064
 30
0.0
 40
30.48
  1
6
 50
90.00000250447816
 41
1.000000000000001
  7
ＭＳ ゴシック
100
AcDbText
  0
TEXT
  5
5B2
330
1F
100
AcDbEntity
  8
A-4_寸法
  6
Continuous
 62
     2
370
     9
100
AcDbText
 10
1432.187528774095
 20
-137.6162969631706
 30
0.0
 40
30.48
  1
60
 50
90.00000250447816
 41
1.0625
  7
ＭＳ ゴシック
100
AcDbText
  0
TEXT
  5
5B3
330
1F
100
AcDbEntity
  8
A-4_寸法
  6
Continuous
 62
     2
370
     9
100
AcDbText
 10
1432.187528774095
 20
879.0514556893843
 30
0.0
 40
30.48
  1
60
 50
90.00000250447816
 41
1.062500000000001
  7
ＭＳ ゴシック
100
AcDbText
  0
TEXT
  5
5B4
330
1F
100
AcDbEntity
  8
A-4_寸法
  6
Continuous
 62
     7
370
     9
100
AcDbText
 10
-560.0455400429075
 20
1230.5313190192
 30
0.0
 40
22.86
  1
クロスバー □８ ＠100
 50
0.0000388418058018
 41
1.158730158730159
  7
ＭＳ ゴシック
100
AcDbText
  0
TEXT
  5
5B5
330
1F
100
AcDbEntity
  8
A-4_寸法
  6
Continuous
 62
     7
370
     9
100
AcDbText
 10
299.3425606392527
 20
1163.863855046452
 30
0.0
 40
22.86
  1
ＵＳクリップ：ＵＳ－２
 41
1.151515151515152
  7
ＭＳ ゴシック
100
AcDbText
  0
TEXT
  5
5B6
330
1F
100
AcDbEntity
  8
A-4_寸法
  6
Continuous
 62
     7
370
     9
100
AcDbText
 10
752.6139130463474
 20
1112.278095703125
 30
0.0
 40
22.86
  1
（二方受四方枠）
 41
1.145833333333333
  7
ＭＳ ゴシック
100
AcDbText
  0
TEXT
  5
5B7
330
1F
100
AcDbEntity
  8
A-4_寸法
  6
Continuous
 62
     2
370
     9
100
AcDbText
 10
-350.1813940099767
 20
1003.646657780828
 30
0.0
 40
30.48
  1
35.3
 41
1.09375
  7
ＭＳ ゴシック
100
AcDbText
  0
TEXT
  5
5B8
330
1F
100
AcDbEntity
  8
A-4_寸法
  6
Continuous
 62
     2
370
     9
100
AcDbText
 10
-496.9316430993982
 20
-367.0536629011824
 30
0.0
 40
30.48
  1
1014
 41
1.09375
  7
ＭＳ ゴシック
100
AcDbText
  0
TEXT
  5
5B9
330
1F
100
AcDbEntity
  8
A-4_寸法
  6
Continuous
 62
     2
370
     9
100
AcDbText
 10
-1339.528344644082
 20
-285.9725818201013
 30
0.0
 40
30.48
  1
6
 41
0.9999999999999998
  7
ＭＳ ゴシック
100
AcDbText
  0
TEXT
  5
5BA
330
1F
100
AcDbEntity
  8
A-4_寸法
  6
Continuous
 62
     2
370
     9
100
AcDbText
 10
-1260.10645892169
 20
-285.9725818201013
 30
0.0
 40
30.48
  1
3.5
 41
1.083333333333333
  7
ＭＳ ゴシック
100
AcDbText
  0
TEXT
  5
5BB
330
1F
100
AcDbEntity
  8
A-4_寸法
  6
Continuous
 62
     2
370
     9
100
AcDbText
 10
-485.6815812394426
 20
-285.9725818201013
 30
0.0
 40
30.48
  1
995
 41
1.083333333333333
  7
ＭＳ ゴシック
100
AcDbText
  0
TEXT
  5
5BC
330
1F
100
AcDbEntity
  8
A-4_寸法
  6
Continuous
 62
     2
370
     9
100
AcDbText
 10
286.5409892314192
 20
-285.9725818201013
 30
0.0
 40
30.48
  1
3.5
 41
1.083333333333333
  7
ＭＳ ゴシック
100
AcDbText
  0
TEXT
  5
5BD
330
1F
100
AcDbEntity
  8
A-4_寸法
  6
Continuous
 62
     2
370
     9
100
AcDbText
 10
405.7501220703126
 20
-285.9725818201013
 30
0.0
 40
30.48
  1
6
 41
0.9999999999999998
  7
ＭＳ ゴシック
100
AcDbText
  0
TEXT
  5
5BE
330
1F
100
AcDbEntity
  8
A-4_寸法
  6
Continuous
 62
     2
370
     9
100
AcDbText
 10
1185.744752626161
 20
-272.393084353885
 30
0.0
 40
30.48
  1
75
 41
1.0625
  7
ＭＳ ゴシック
100
AcDbText
  0
TEXT
  5
5BF
330
1F
100
AcDbEntity
  8
A-4_寸法
  6
Continuous
 62
     2
370
     9
100
AcDbText
 10
1190.744274242504
 20
-339.0596822872677
 30
0.0
 40
30.48
  1
81
 41
1.0625
  7
ＭＳ ゴシック
100
AcDbText
  0
TEXT
  5
5C0
330
1F
100
AcDbEntity
  8
A-4_寸法
  6
Continuous
 62
     7
370
     9
100
AcDbText
 10
770.5051154059333
 20
1177.878599160684
 30
0.0
 40
22.86
  1
受枠：Ｌ－７５
 41
1.142857142857143
  7
ＭＳ ゴシック
100
AcDbText
  0
TEXT
  5
5C1
330
1F
100
AcDbEntity
  8
A-4_寸法
  6
Continuous
 62
     7
370
     9
100
AcDbText
 10
-489.8870455276294
 20
1163.864349926096
 30
0.0
 40
22.86
  1
メインバー ＤⅠ－７５ ＠35.3
 50
359.9999127553377
 41
1.160714285714286
  7
ＭＳ ゴシック
100
AcDbText
  0
TEXT
  5
5C2
330
1F
100
AcDbEntity
  8
D-4_寸法
  6
Continuous
 62
     7
370
     9
100
AcDbText
 10
-733.0030863993875
 20
-490.0469932102511
 30
0.0
 40
22.86
  1
デルタパターン
 41
1.142857142857143
  7
ＭＳ ゴシック
100
AcDbText
  0
TEXT
  5
5C3
330
1F
100
AcDbEntity
  8
D-4_寸法
  6
Continuous
 62
     2
370
     9
100
AcDbText
 10
-964.6854509591064
 20
-668.266344059217
 30
0.0
 40
30.48
  1
8
 50
90.00000250447816
 41
1.000000000000001
  7
ＭＳ ゴシック
100
AcDbText
  0
TEXT
  5
5C4
330
1F
100
AcDbEntity
  8
D-4_寸法
  6
Continuous
 62
     2
370
     9
100
AcDbText
 10
-964.6854509591064
 20
-842.5207047736911
 30
0.0
 40
30.48
  1
5
 50
90.00000250447816
 41
1.000000000000001
  7
ＭＳ ゴシック
100
AcDbText
  0
TEXT
  5
5C5
330
1F
100
AcDbEntity
  8
D-4_寸法
  6
Continuous
 62
     2
370
     9
100
AcDbText
 10
-883.9134711188238
 20
-542.3790050279771
 30
0.0
 40
30.48
  1
7
 41
0.9999999999999998
  7
ＭＳ ゴシック
100
AcDbText
  0
TEXT
  5
5C6
330
1F
100
AcDbEntity
  8
D-4_寸法
  6
Continuous
 62
     2
370
     9
100
AcDbText
 10
-805.2909774750583
 20
-662.3925629785585
 30
0.0
 40
30.48
  1
5
 50
282.0789753068251
 41
0.999999999999997
  7
ＭＳ ゴシック
100
AcDbText
  0
TEXT
  5
5C7
330
1F
100
AcDbEntity
  8
D-4_寸法
  6
Continuous
 62
     2
370
     9
100
AcDbText
 10
-225.3349386679157
 20
-485.5638524730786
 30
0.0
 40
30.48
  1
7
 41
0.9999999999999998
  7
ＭＳ ゴシック
100
AcDbText
  0
TEXT
  5
5C8
330
1F
100
AcDbEntity
  8
D-4_寸法
  6
Continuous
 62
     2
370
     9
100
AcDbText
 10
-184.3626156368769
 20
-758.8153602063978
 30
0.0
 40
30.48
  1
4
 41
0.9999999999999998
  7
ＭＳ ゴシック
100
AcDbText
  0
TEXT
  5
5C9
330
1F
100
AcDbEntity
  8
D-4_寸法
  6
Continuous
 62
     2
370
     9
100
AcDbText
 10
-91.02876002446887
 20
-762.2084130355419
 30
0.0
 40
30.48
  1
75
 50
90.00000250447816
 41
1.062500000000001
  7
ＭＳ ゴシック
100
AcDbText
  0
TEXT
  5
5CA
330
1F
100
AcDbEntity
  8
D-4_寸法
  6
Continuous
 62
     7
370
     9
100
AcDbText
 10
-884.2350906444647
 20
-1129.228717964786
 30
0.0
 40
22.86
  1
※デルタパターンの配列は一定ではありません。
 50
0.0000185323619753
 41
1.159090909090909
  7
ＭＳ ゴシック
100
AcDbText
  0
TEXT
  5
5CB
330
1F
100
AcDbEntity
  8
D-4_寸法
  6
Continuous
 62
     2
370
     9
100
AcDbText
 10
-904.2352129961992
 20
-1052.818625174857
 30
0.0
 40
30.48
  1
ＤⅠ－７５　バー形状詳細　Ｓ＝１：２
 41
1.118055555555555
  7
ＭＳ ゴシック
100
AcDbText
  0
TEXT
  5
5CC
330
1F
100
AcDbEntity
  8
D-4_寸法
  6
Continuous
 62
     2
370
     9
100
AcDbText
 10
778.3783701303846
 20
-1009.08972972973
 30
0.0
 40
30.48
  1
スチール製受枠　Ｌ－７５（二方受四方枠）
 41
1.11875
  7
ＭＳ ゴシック
100
AcDbText
  0
TEXT
  5
5CD
330
1F
100
AcDbEntity
  8
A-4_寸法
  6
Continuous
 62
     7
370
     9
100
AcDbText
 10
453.5517182221286
 20
966.271279560811
 30
0.0
 40
22.86
  1
ＦＢ７５×６
 41
1.138888888888889
  7
ＭＳ ゴシック
100
AcDbText
  0
TEXT
  5
5CE
330
1F
100
AcDbEntity
  8
A-4_寸法
  6
Continuous
 62
     2
370
     9
100
AcDbText
 10
1049.521348680966
 20
359.4677649429738
 30
0.0
 40
30.48
  1
650
 50
90.00000250447816
 41
1.083333333333333
  7
ＭＳ ゴシック
100
AcDbText
  0
TEXT
  5
5CF
330
1F
100
AcDbEntity
  8
A-4_寸法
  6
Continuous
 62
     2
370
     9
100
AcDbText
 10
982.8546270276728
 20
359.4675175031512
 30
0.0
 40
30.48
  1
670
 50
90.00000250447816
 41
1.083333333333333
  7
ＭＳ ゴシック
100
AcDbText
  0
TEXT
  5
5D0
330
1F
100
AcDbEntity
  8
A-4_寸法
  6
Continuous
 62
     2
370
     9
100
AcDbText
 10
1434.520886793298
 20
359.4673937832397
 30
0.0
 40
30.48
  1
550
 50
90.00000250447816
 41
1.083333333333333
  7
ＭＳ ゴシック
100
AcDbText
  0
TEXT
  5
5D1
330
1F
100
AcDbEntity
  8
D-4_寸法
  6
Continuous
 62
     2
370
     9
100
AcDbText
 10
778.3768854914488
 20
-779.0911978726773
 30
0.0
 40
30.48
  1
圧接式グレーチング　ＨＸＢＣ　１６５７５
 41
1.11875
  7
ＭＳ ゴシック
100
AcDbText
  0
TEXT
  5
5D2
330
1F
100
AcDbEntity
  8
A-4_寸法
  6
Continuous
 62
     2
370
     9
100
AcDbText
 10
-485.6813337996199
 20
1079.60746661212
 30
0.0
 40
30.48
  1
514
 41
1.083333333333333
  7
ＭＳ ゴシック
100
AcDbText
  0
TEXT
  5
5D3
330
1F
100
AcDbEntity
  8
A-4_寸法
  6
Continuous
 62
     2
370
     9
100
AcDbText
 10
150.9855363175676
 20
1079.60746661212
 30
0.0
 40
30.48
  1
250
 41
1.083333333333333
  7
ＭＳ ゴシック
100
AcDbText
  0
TEXT
  5
5D4
330
1F
100
AcDbEntity
  8
A-4_寸法
  6
Continuous
 62
     2
370
     9
100
AcDbText
 10
-1122.348327636719
 20
1079.60746661212
 30
0.0
 40
30.48
  1
250
 41
1.083333333333333
  7
ＭＳ ゴシック
100
AcDbText
  0
LWPOLYLINE
  5
5D5
330
1F
100
AcDbEntity
  8
A-4_寸法
  6
Continuous
 62
     7
370
     9
100
AcDbPolyline
 90
        4
 70
     1
 43
1.0
 10
1061.661268079603
 20
-166.3662142366977
 42
0.4142135623731
 10
1061.161268079603
 20
-165.8662142366977
 42
0.4142135623731
 10
1060.661268079603
 20
-166.3662142366977
 42
0.4142135623731
 10
1061.161268079603
 20
-166.8662142366977
 42
0.4142135623731
  0
LWPOLYLINE
  5
5D6
330
1F
100
AcDbEntity
  8
A-4_寸法
  6
Continuous
 62
     7
370
     9
100
AcDbPolyline
 90
        4
 70
     1
 43
1.0
 10
1061.661268079603
 20
-156.3663049646325
 42
0.4142135623731
 10
1061.161268079603
 20
-155.8663049646325
 42
0.4142135623731
 10
1060.661268079603
 20
-156.3663049646325
 42
0.4142135623731
 10
1061.161268079603
 20
-156.8663049646325
 42
0.4142135623731
  0
LWPOLYLINE
  5
5D7
330
1F
100
AcDbEntity
  8
A-4_寸法
  6
Continuous
 62
     7
370
     9
100
AcDbPolyline
 90
        4
 70
     1
 43
1.0
 10
1061.661268079603
 20
-149.6990389437289
 42
0.4142135623731
 10
1061.161268079603
 20
-149.1990389437289
 42
0.4142135623731
 10
1060.661268079603
 20
-149.6990389437289
 42
0.4142135623731
 10
1061.161268079603
 20
-150.1990389437289
 42
0.4142135623731
  0
LWPOLYLINE
  5
5D8
330
1F
100
AcDbEntity
  8
A-4_寸法
  6
Continuous
 62
     7
370
     9
100
AcDbPolyline
 90
        4
 70
     1
 43
1.0
 10
1061.661268079603
 20
933.6346930426521
 42
0.4142135623731
 10
1061.161268079603
 20
934.1346930426521
 42
0.4142135623731
 10
1060.661268079603
 20
933.6346930426521
 42
0.4142135623731
 10
1061.161268079603
 20
933.1346930426521
 42
0.4142135623731
  0
LWPOLYLINE
  5
5D9
330
1F
100
AcDbEntity
  8
A-4_寸法
  6
Continuous
 62
     7
370
     9
100
AcDbPolyline
 90
        4
 70
     1
 43
1.0
 10
1061.661268079603
 20
940.301216744088
 42
0.4142135623731
 10
1061.161268079603
 20
940.801216744088
 42
0.4142135623731
 10
1060.661268079603
 20
940.301216744088
 42
0.4142135623731
 10
1061.161268079603
 20
939.801216744088
 42
0.4142135623731
  0
LWPOLYLINE
  5
5DA
330
1F
100
AcDbEntity
  8
A-4_寸法
  6
Continuous
 62
     7
370
     9
100
AcDbPolyline
 90
        4
 70
     1
 43
1.0
 10
1061.661268079603
 20
950.3012497360644
 42
0.4142135623731
 10
1061.161268079603
 20
950.8012497360643
 42
0.4142135623731
 10
1060.661268079603
 20
950.3012497360644
 42
0.4142135623731
 10
1061.161268079603
 20
949.8012497360644
 42
0.4142135623731
  0
LWPOLYLINE
  5
5DB
330
1F
100
AcDbEntity
  8
A-4_寸法
  6
Continuous
 62
     7
370
     9
100
AcDbPolyline
 90
        4
 70
     1
 43
1.0
 10
994.9945464263094
 20
-166.3662142366977
 42
0.4142135623731
 10
994.4945464263094
 20
-165.8662142366977
 42
0.4142135623731
 10
993.9945464263094
 20
-166.3662142366977
 42
0.4142135623731
 10
994.4945464263094
 20
-166.8662142366977
 42
0.4142135623731
  0
LWPOLYLINE
  5
5DC
330
1F
100
AcDbEntity
  8
A-4_寸法
  6
Continuous
 62
     7
370
     9
100
AcDbPolyline
 90
        4
 70
     1
 43
1.0
 10
994.9945464263094
 20
950.3012497360644
 42
0.4142135623731
 10
994.4945464263094
 20
950.8012497360643
 42
0.4142135623731
 10
993.9945464263094
 20
950.3012497360644
 42
0.4142135623731
 10
994.4945464263094
 20
949.8012497360644
 42
0.4142135623731
  0
LWPOLYLINE
  5
5DD
330
1F
100
AcDbEntity
  8
A-4_寸法
  6
Continuous
 62
     7
370
     9
100
AcDbPolyline
 90
        4
 70
     1
 43
1.0
 10
1446.660806191935
 20
-166.3662142366977
 42
0.4142135623731
 10
1446.160806191934
 20
-165.8662142366977
 42
0.4142135623731
 10
1445.660806191934
 20
-166.3662142366977
 42
0.4142135623731
 10
1446.160806191934
 20
-166.8662142366977
 42
0.4142135623731
  0
LWPOLYLINE
  5
5DE
330
1F
100
AcDbEntity
  8
A-4_寸法
  6
Continuous
 62
     7
370
     9
100
AcDbPolyline
 90
        4
 70
     1
 43
1.0
 10
1446.660806191935
 20
-66.36650291649062
 42
0.4142135623731
 10
1446.160806191934
 20
-65.86650291649062
 42
0.4142135623731
 10
1445.660806191934
 20
-66.36650291649062
 42
0.4142135623731
 10
1446.160806191934
 20
-66.86650291649062
 42
0.4142135623731
  0
LWPOLYLINE
  5
5DF
330
1F
100
AcDbEntity
  8
A-4_寸法
  6
Continuous
 62
     7
370
     9
100
AcDbPolyline
 90
        4
 70
     1
 43
1.0
 10
1446.660806191935
 20
850.301414695946
 42
0.4142135623731
 10
1446.160806191934
 20
850.801414695946
 42
0.4142135623731
 10
1445.660806191934
 20
850.301414695946
 42
0.4142135623731
 10
1446.160806191934
 20
849.8014146959462
 42
0.4142135623731
  0
LWPOLYLINE
  5
5E0
330
1F
100
AcDbEntity
  8
A-4_寸法
  6
Continuous
 62
     7
370
     9
100
AcDbPolyline
 90
        4
 70
     1
 43
1.0
 10
1446.660806191935
 20
950.3012497360644
 42
0.4142135623731
 10
1446.160806191934
 20
950.8012497360643
 42
0.4142135623731
 10
1445.660806191934
 20
950.3012497360644
 42
0.4142135623731
 10
1446.160806191934
 20
949.8012497360644
 42
0.4142135623731
  0
LWPOLYLINE
  5
5E1
330
1F
100
AcDbEntity
  8
A-4_寸法
  6
Continuous
 62
     7
370
     9
100
AcDbPolyline
 90
        4
 70
     1
 43
1.0
 10
1144.994546426309
 20
-284.0331288930531
 42
0.4142135623731
 10
1144.494546426309
 20
-283.5331288930531
 42
0.4142135623731
 10
1143.994546426309
 20
-284.0331288930531
 42
0.4142135623731
 10
1144.494546426309
 20
-284.5331288930531
 42
0.4142135623731
  0
LWPOLYLINE
  5
5E2
330
1F
100
AcDbEntity
  8
A-4_寸法
  6
Continuous
 62
     7
370
     9
100
AcDbPolyline
 90
        4
 70
     1
 43
1.0
 10
1269.994711386191
 20
-284.0331288930531
 42
0.4142135623731
 10
1269.494711386191
 20
-283.5331288930531
 42
0.4142135623731
 10
1268.994711386191
 20
-284.0331288930531
 42
0.4142135623731
 10
1269.494711386191
 20
-284.5331288930531
 42
0.4142135623731
  0
LWPOLYLINE
  5
5E3
330
1F
100
AcDbEntity
  8
A-4_寸法
  6
Continuous
 62
     7
370
     9
100
AcDbPolyline
 90
        4
 70
     1
 43
1.0
 10
1144.994546426309
 20
-350.6997268264358
 42
0.4142135623731
 10
1144.494546426309
 20
-350.1997268264358
 42
0.4142135623731
 10
1143.994546426309
 20
-350.6997268264358
 42
0.4142135623731
 10
1144.494546426309
 20
-351.1997268264358
 42
0.4142135623731
  0
LWPOLYLINE
  5
5E4
330
1F
100
AcDbEntity
  8
A-4_寸法
  6
Continuous
 62
     7
370
     9
100
AcDbPolyline
 90
        4
 70
     1
 43
1.0
 10
1279.994002058699
 20
-350.6997268264358
 42
0.4142135623731
 10
1279.4940020587
 20
-350.1997268264358
 42
0.4142135623731
 10
1278.9940020587
 20
-350.6997268264358
 42
0.4142135623731
 10
1279.4940020587
 20
-351.1997268264358
 42
0.4142135623731
  0
LWPOLYLINE
  5
5E5
330
1F
100
AcDbEntity
  8
A-4_寸法
  6
Continuous
 62
     7
370
     9
100
AcDbPolyline
 90
        4
 70
     1
 43
1.0
 10
-1297.681770943306
 20
1067.967545792863
 42
0.4142135623731
 10
-1298.181770943306
 20
1068.467545792863
 42
0.4142135623731
 10
-1298.681770943307
 20
1067.967545792863
 42
0.4142135623731
 10
-1298.181770943306
 20
1067.467545792863
 42
0.4142135623731
  0
LWPOLYLINE
  5
5E6
330
1F
100
AcDbEntity
  8
A-4_寸法
  6
Continuous
 62
     7
370
     9
100
AcDbPolyline
 90
        4
 70
     1
 43
1.0
 10
-881.0148843301308
 20
1067.967545792863
 42
0.4142135623731
 10
-881.5148843301308
 20
1068.467545792863
 42
0.4142135623731
 10
-882.0148843301308
 20
1067.967545792863
 42
0.4142135623731
 10
-881.5148843301308
 20
1067.467545792863
 42
0.4142135623731
  0
LWPOLYLINE
  5
5E7
330
1F
100
AcDbEntity
  8
A-4_寸法
  6
Continuous
 62
     7
370
     9
100
AcDbPolyline
 90
        4
 70
     1
 43
1.0
 10
-24.34765954919766
 20
1067.967545792863
 42
0.4142135623731
 10
-24.84765954919766
 20
1068.467545792863
 42
0.4142135623731
 10
-25.34765954919766
 20
1067.967545792863
 42
0.4142135623731
 10
-24.84765954919766
 20
1067.467545792863
 42
0.4142135623731
  0
LWPOLYLINE
  5
5E8
330
1F
100
AcDbEntity
  8
A-4_寸法
  6
Continuous
 62
     7
370
     9
100
AcDbPolyline
 90
        4
 70
     1
 43
1.0
 10
392.3187321843328
 20
1067.967545792863
 42
0.4142135623731
 10
391.8187321843328
 20
1068.467545792863
 42
0.4142135623731
 10
391.3187321843328
 20
1067.967545792863
 42
0.4142135623731
 10
391.8187321843328
 20
1067.467545792863
 42
0.4142135623731
  0
LWPOLYLINE
  5
5E9
330
1F
100
AcDbEntity
  8
A-4_寸法
  6
Continuous
 62
     7
370
     9
100
AcDbPolyline
 90
        4
 70
     1
 43
1.0
 10
-335.3478443042651
 20
993.0063938450169
 42
0.4142135623731
 10
-335.8478443042651
 20
993.5063938450169
 42
0.4142135623731
 10
-336.3478443042651
 20
993.0063938450169
 42
0.4142135623731
 10
-335.8478443042651
 20
992.506393845017
 42
0.4142135623731
  0
LWPOLYLINE
  5
5EA
330
1F
100
AcDbEntity
  8
A-4_寸法
  6
Continuous
 62
     7
370
     9
100
AcDbPolyline
 90
        4
 70
     1
 43
1.0
 10
-276.5150674355995
 20
993.0063938450169
 42
0.4142135623731
 10
-277.0150674355995
 20
993.5063938450169
 42
0.4142135623731
 10
-277.5150674355995
 20
993.0063938450169
 42
0.4142135623731
 10
-277.0150674355995
 20
992.506393845017
 42
0.4142135623731
  0
LWPOLYLINE
  5
5EB
330
1F
100
AcDbEntity
  8
A-4_寸法
  6
Continuous
 62
     7
370
     9
100
AcDbPolyline
 90
        4
 70
     1
 43
1.0
 10
-1297.681894663217
 20
-378.6937074403504
 42
0.4142135623731
 10
-1298.181894663218
 20
-378.1937074403504
 42
0.4142135623731
 10
-1298.681894663218
 20
-378.6937074403504
 42
0.4142135623731
 10
-1298.181894663218
 20
-379.1937074403504
 42
0.4142135623731
  0
LWPOLYLINE
  5
5EC
330
1F
100
AcDbEntity
  8
A-4_寸法
  6
Continuous
 62
     7
370
     9
100
AcDbPolyline
 90
        4
 70
     1
 43
1.0
 10
392.3187321843328
 20
-378.6937074403504
 42
0.4142135623731
 10
391.8187321843328
 20
-378.1937074403504
 42
0.4142135623731
 10
391.3187321843328
 20
-378.6937074403504
 42
0.4142135623731
 10
391.8187321843328
 20
-379.1937074403504
 42
0.4142135623731
  0
LWPOLYLINE
  5
5ED
330
1F
100
AcDbEntity
  8
A-4_寸法
  6
Continuous
 62
     7
370
     9
100
AcDbPolyline
 90
        4
 70
     1
 43
1.0
 10
-1297.68214210304
 20
-297.6126263592694
 42
0.4142135623731
 10
-1298.182142103041
 20
-297.1126263592694
 42
0.4142135623731
 10
-1298.682142103041
 20
-297.6126263592694
 42
0.4142135623731
 10
-1298.182142103041
 20
-298.1126263592694
 42
0.4142135623731
  0
LWPOLYLINE
  5
5EE
330
1F
100
AcDbEntity
  8
A-4_寸法
  6
Continuous
 62
     7
370
     9
100
AcDbPolyline
 90
        4
 70
     1
 43
1.0
 10
-1287.681861671242
 20
-297.6126263592694
 42
0.4142135623731
 10
-1288.181861671242
 20
-297.1126263592694
 42
0.4142135623731
 10
-1288.681861671242
 20
-297.6126263592694
 42
0.4142135623731
 10
-1288.181861671242
 20
-298.1126263592694
 42
0.4142135623731
  0
LWPOLYLINE
  5
5EF
330
1F
100
AcDbEntity
  8
A-4_寸法
  6
Continuous
 62
     7
370
     9
100
AcDbPolyline
 90
        4
 70
     1
 43
1.0
 10
-1281.848467852618
 20
-297.6126263592694
 42
0.4142135623731
 10
-1282.348467852618
 20
-297.1126263592694
 42
0.4142135623731
 10
-1282.848467852618
 20
-297.6126263592694
 42
0.4142135623731
 10
-1282.348467852618
 20
-298.1126263592694
 42
0.4142135623731
  0
LWPOLYLINE
  5
5F0
330
1F
100
AcDbEntity
  8
A-4_寸法
  6
Continuous
 62
     7
370
     9
100
AcDbPolyline
 90
        4
 70
     1
 43
1.0
 10
376.4853053737334
 20
-297.6126263592694
 42
0.4142135623731
 10
375.9853053737334
 20
-297.1126263592694
 42
0.4142135623731
 10
375.4853053737334
 20
-297.6126263592694
 42
0.4142135623731
 10
375.9853053737334
 20
-298.1126263592694
 42
0.4142135623731
  0
LWPOLYLINE
  5
5F1
330
1F
100
AcDbEntity
  8
A-4_寸法
  6
Continuous
 62
     7
370
     9
100
AcDbPolyline
 90
        4
 70
     1
 43
1.0
 10
382.3186991923565
 20
-297.6126263592694
 42
0.4142135623731
 10
381.8186991923565
 20
-297.1126263592694
 42
0.4142135623731
 10
381.3186991923566
 20
-297.6126263592694
 42
0.4142135623731
 10
381.8186991923565
 20
-298.1126263592694
 42
0.4142135623731
  0
LWPOLYLINE
  5
5F2
330
1F
100
AcDbEntity
  8
A-4_寸法
  6
Continuous
 62
     7
370
     9
100
AcDbPolyline
 90
        4
 70
     1
 43
1.0
 10
392.3187321843328
 20
-297.6126263592694
 42
0.4142135623731
 10
391.8187321843328
 20
-297.1126263592694
 42
0.4142135623731
 10
391.3187321843328
 20
-297.6126263592694
 42
0.4142135623731
 10
391.8187321843328
 20
-298.1126263592694
 42
0.4142135623731
  0
TEXT
  5
5F3
330
1F
100
AcDbEntity
  8
F-5
  6
Continuous
 62
     2
370
     9
100
AcDbText
 10
-904.6689560348923
 20
-1362.093442976668
 30
0.0
 40
30.48
  1
騒音防止型　ノンスリップタイプ　横断溝用　スチール製グレーチング　　ＨＸＢＣ　１６５７５
 41
0.7238636363636363
  7
ＭＳ ゴシック
100
AcDbText
  0
TEXT
  5
5F4
330
1F
100
AcDbEntity
  8
A-4_寸法
  6
Continuous
 62
     7
370
     9
100
AcDbText
 10
-614.9521657582875
 20
1297.197793232686
 30
0.0
 40
22.86
  1
エンドプレート ＦＢ4.5×65
 41
1.16025641025641
  7
ＭＳ ゴシック
100
AcDbText
  0
ENDSEC
  0
SECTION
  2
OBJECTS
  0
DICTIONARY
  5
C
330
0
100
AcDbDictionary
281
     1
  3
ACAD_GROUP
350
D
  3
ACAD_LAYOUT
350
1A
  3
ACAD_MLEADERSTYLE
350
5F6
  3
ACAD_MLINESTYLE
350
17
  3
ACAD_PLOTSETTINGS
350
19
  3
ACAD_PLOTSTYLENAME
350
E
  3
ACAD_TABLESTYLE
350
5F5
  3
ACAD_VISUALSTYLE
350
2A
  0
DICTIONARY
  5
D
102
{ACAD_REACTORS
330
C
102
}
330
C
100
AcDbDictionary
281
     1
  0
DICTIONARY
  5
1A
102
{ACAD_REACTORS
330
C
102
}
330
C
100
AcDbDictionary
281
     1
  3
Layout1
350
1E
  3
Layout2
350
26
  3
Model
350
22
  0
DICTIONARY
  5
5F6
102
{ACAD_REACTORS
330
C
102
}
330
C
100
AcDbDictionary
281
     1
  0
DICTIONARY
  5
17
102
{ACAD_REACTORS
330
C
102
}
330
C
100
AcDbDictionary
281
     1
  3
Standard
350
18
  0
DICTIONARY
  5
19
102
{ACAD_REACTORS
330
C
102
}
330
C
100
AcDbDictionary
281
     1
  0
ACDBDICTIONARYWDFLT
  5
E
102
{ACAD_REACTORS
330
C
102
}
330
C
100
AcDbDictionary
281
     1
  3
Normal
350
F
100
AcDbDictionaryWithDefault
340
F
  0
DICTIONARY
  5
5F5
102
{ACAD_REACTORS
330
C
102
}
330
C
100
AcDbDictionary
281
     1
  0
DICTIONARY
  5
2A
102
{ACAD_REACTORS
330
C
102
}
330
C
100
AcDbDictionary
281
     1
  3
2dWireframe
350
2F
  3
3D Hidden
350
31
  3
3dWireframe
350
30
  3
Basic
350
32
  3
Brighten
350
36
  3
ColorChange
350
3A
  3
Conceptual
350
34
  3
Dim
350
35
  3
Facepattern
350
39
  3
Flat
350
2B
  3
FlatWithEdges
350
2C
  3
Gouraud
350
2D
  3
GouraudWithEdges
350
2E
  3
Linepattern
350
38
  3
Realistic
350
33
  3
Thicken
350
37
  0
LAYOUT
  5
1E
102
{ACAD_REACTORS
330
1A
102
}
330
1A
100
AcDbPlotSettings
  1

  2
none_device
  4

  6

 40
0.0
 41
0.0
 42
0.0
 43
0.0
 44
0.0
 45
0.0
 46
0.0
 47
0.0
 48
0.0
 49
0.0
140
0.0
141
0.0
142
1.0
143
1.0
 70
   688
 72
     0
 73
     0
 74
     5
  7

 75
    16
 76
     0
 77
     5
 78
   300
147
1.0
148
0.0
149
0.0
100
AcDbLayout
  1
Layout1
 70
     1
 71
     1
 10
0.0
 20
0.0
 11
420.0
 21
297.0
 12
0.0
 22
0.0
 32
0.0
 14
1.000000000000000E+20
 24
1.000000000000000E+20
 34
1.000000000000000E+20
 15
-1.000000000000000E+20
 25
-1.000000000000000E+20
 35
-1.000000000000000E+20
146
0.0
 13
0.0
 23
0.0
 33
0.0
 16
1.0
 26
0.0
 36
0.0
 17
0.0
 27
1.0
 37
0.0
 76
     0
330
1B
  0
LAYOUT
  5
26
102
{ACAD_REACTORS
330
1A
102
}
330
1A
100
AcDbPlotSettings
  1

  2
none_device
  4

  6

 40
0.0
 41
0.0
 42
0.0
 43
0.0
 44
0.0
 45
0.0
 46
0.0
 47
0.0
 48
0.0
 49
0.0
140
0.0
141
0.0
142
1.0
143
1.0
 70
   688
 72
     0
 73
     0
 74
     5
  7

 75
    16
 76
     0
 77
     5
 78
   300
147
1.0
148
0.0
149
0.0
100
AcDbLayout
  1
Layout2
 70
     1
 71
     2
 10
0.0
 20
0.0
 11
0.0
 21
0.0
 12
0.0
 22
0.0
 32
0.0
 14
0.0
 24
0.0
 34
0.0
 15
0.0
 25
0.0
 35
0.0
146
0.0
 13
0.0
 23
0.0
 33
0.0
 16
1.0
 26
0.0
 36
0.0
 17
0.0
 27
1.0
 37
0.0
 76
     0
330
23
  0
LAYOUT
  5
22
102
{ACAD_REACTORS
330
1A
102
}
330
1A
100
AcDbPlotSettings
  1

  2
none_device
  4

  6

 40
0.0
 41
0.0
 42
0.0
 43
0.0
 44
0.0
 45
0.0
 46
0.0
 47
0.0
 48
0.0
 49
0.0
140
0.0
141
0.0
142
1.0
143
1.0
 70
  1712
 72
     0
 73
     0
 74
     0
  7

 75
     0
 76
     0
 77
     5
 78
   300
147
1.0
148
0.0
149
0.0
100
AcDbLayout
  1
Model
 70
     1
 71
     0
 10
-2100.0
 20
-1485.0
 11
2100.0
 21
1485.0
 12
0.0
 22
0.0
 32
0.0
 14
-2100.0
 24
-1485.0
 34
0.0
 15
2100.0
 25
1485.0
 35
0.0
146
0.0
 13
0.0
 23
0.0
 33
0.0
 16
1.0
 26
0.0
 36
0.0
 17
0.0
 27
1.0
 37
0.0
 76
     0
330
1F
331
29
  0
MLINESTYLE
  5
18
102
{ACAD_REACTORS
330
17
102
}
330
17
100
AcDbMlineStyle
  2
Standard
 70
     0
  3

 62
   256
 51
90.0
 52
90.0
 71
     2
 49
0.5
 62
   256
  6
BYLAYER
 49
-0.5
 62
   256
  6
BYLAYER
  0
ACDBPLACEHOLDER
  5
F
102
{ACAD_REACTORS
330
E
102
}
330
E
  0
VISUALSTYLE
  5
2F
102
{ACAD_REACTORS
330
2A
102
}
330
2A
100
AcDbVisualStyle
  2
2dWireframe
 70
     4
 71
     0
 72
     2
 73
     0
 90
        0
 40
-0.6
 41
-30.0
 62
     5
 63
     7
421
 16777215
 74
     1
 91
        4
 64
     7
 65
   257
 75
     1
175
     1
 42
1.0
 92
        0
 66
   257
 43
1.0
 76
     1
 77
     6
 78
     2
 67
     7
 79
     5
170
     0
171
     0
290
     0
174
     0
 93
        1
 44
0.0
173
     0
291
     0
 45
0.0
1001
ACAD
1000
AcDbSavedByObjectVersion
1070
     0
  0
VISUALSTYLE
  5
31
102
{ACAD_REACTORS
330
2A
102
}
330
2A
100
AcDbVisualStyle
  2
3D Hidden
 70
     6
 71
     1
 72
     2
 73
     2
 90
        0
 40
-0.6
 41
-30.0
 62
     5
 63
     7
421
 16777215
 74
     2
 91
        2
 64
     7
 65
   257
 75
     2
175
     1
 42
40.0
 92
        0
 66
   257
 43
1.0
 76
     1
 77
     6
 78
     2
 67
     7
 79
     3
170
     0
171
     0
290
     0
174
     0
 93
        1
 44
0.0
173
     0
291
     0
 45
0.0
1001
ACAD
1000
AcDbSavedByObjectVersion
1070
     0
  0
VISUALSTYLE
  5
30
102
{ACAD_REACTORS
330
2A
102
}
330
2A
100
AcDbVisualStyle
  2
3dWireframe
 70
     5
 71
     0
 72
     2
 73
     0
 90
        0
 40
-0.6
 41
-30.0
 62
     5
 63
     7
421
 16777215
 74
     1
 91
        4
 64
     7
 65
   257
 75
     1
175
     1
 42
1.0
 92
        0
 66
   257
 43
1.0
 76
     1
 77
     6
 78
     2
 67
     7
 79
     5
170
     0
171
     0
290
     0
174
     0
 93
        1
 44
0.0
173
     0
291
     0
 45
0.0
1001
ACAD
1000
AcDbSavedByObjectVersion
1070
     0
  0
VISUALSTYLE
  5
32
102
{ACAD_REACTORS
330
2A
102
}
330
2A
100
AcDbVisualStyle
  2
Basic
 70
     7
 71
     1
 72
     0
 73
     1
 90
        0
 40
-0.6
 41
-30.0
 62
     5
 63
     7
421
 16777215
 74
     0
 91
        4
 64
     7
 65
   257
 75
     1
175
     1
 42
1.0
 92
        8
 66
     7
 43
1.0
 76
     1
 77
     6
 78
     2
 67
     7
 79
     5
170
     0
171
     0
290
     0
174
     0
 93
        1
 44
0.0
173
     0
291
     1
 45
0.0
1001
ACAD
1000
AcDbSavedByObjectVersion
1070
     0
  0
VISUALSTYLE
  5
36
102
{ACAD_REACTORS
330
2A
102
}
330
2A
100
AcDbVisualStyle
  2
Brighten
 70
    12
 71
     2
 72
     2
 73
     0
 90
        0
 40
-0.6
 41
-30.0
 62
     5
 63
     7
421
 16777215
 74
     1
 91
        4
 64
     7
 65
   257
 75
     1
175
     1
 42
1.0
 92
        8
 66
     7
 43
1.0
 76
     1
 77
     6
 78
     2
 67
     7
 79
     5
170
     0
171
     0
290
     0
174
     0
 93
        1
 44
50.0
173
     0
291
     1
 45
0.0
1001
ACAD
1000
AcDbSavedByObjectVersion
1070
     0
  0
VISUALSTYLE
  5
3A
102
{ACAD_REACTORS
330
2A
102
}
330
2A
100
AcDbVisualStyle
  2
ColorChange
 70
    16
 71
     2
 72
     2
 73
     3
 90
        0
 40
-0.6
 41
-30.0
 62
     5
 63
     8
421
  8421504
 74
     1
 91
        4
 64
     7
 65
   257
 75
     1
175
     1
 42
1.0
 92
        8
 66
     8
424
  8421504
 43
1.0
 76
     1
 77
     6
 78
     2
 67
     7
 79
     5
170
     0
171
     0
290
     0
174
     0
 93
        1
 44
0.0
173
     0
291
     1
 45
0.0
1001
ACAD
1000
AcDbSavedByObjectVersion
1070
     0
  0
VISUALSTYLE
  5
34
102
{ACAD_REACTORS
330
2A
102
}
330
2A
100
AcDbVisualStyle
  2
Conceptual
 70
     9
 71
     3
 72
     2
 73
     0
 90
        0
 40
-0.6
 41
-30.0
 62
     5
 63
     7
421
 16777215
 74
     2
 91
        2
 64
     7
 65
   257
 75
     1
175
     1
 42
40.0
 92
        8
 66
     7
 43
1.0
 76
     1
 77
     6
 78
     2
 67
     7
 79
     3
170
     0
171
     0
290
     0
174
     0
 93
        1
 44
0.0
173
     0
291
     0
 45
0.0
1001
ACAD
1000
AcDbSavedByObjectVersion
1070
     0
  0
VISUALSTYLE
  5
35
102
{ACAD_REACTORS
330
2A
102
}
330
2A
100
AcDbVisualStyle
  2
Dim
 70
    11
 71
     2
 72
     2
 73
     0
 90
        0
 40
-0.6
 41
-30.0
 62
     5
 63
     7
421
 16777215
 74
     1
 91
        4
 64
     7
 65
   257
 75
     1
175
     1
 42
1.0
 92
        8
 66
     7
 43
1.0
 76
     1
 77
     6
 78
     2
 67
     7
 79
     5
170
     0
171
     0
290
     0
174
     0
 93
        1
 44
-50.0
173
     0
291
     1
 45
0.0
1001
ACAD
1000
AcDbSavedByObjectVersion
1070
     0
  0
VISUALSTYLE
  5
39
102
{ACAD_REACTORS
330
2A
102
}
330
2A
100
AcDbVisualStyle
  2
Facepattern
 70
    15
 71
     2
 72
     2
 73
     0
 90
        0
 40
-0.6
 41
-30.0
 62
     5
 63
     7
421
 16777215
 74
     1
 91
        4
 64
     7
 65
   257
 75
     1
175
     1
 42
1.0
 92
        8
 66
     7
 43
1.0
 76
     1
 77
     6
 78
     2
 67
     7
 79
     5
170
     0
171
     0
290
     0
174
     0
 93
        1
 44
0.0
173
     0
291
     1
 45
0.0
1001
ACAD
1000
AcDbSavedByObjectVersion
1070
     0
  0
VISUALSTYLE
  5
2B
102
{ACAD_REACTORS
330
2A
102
}
330
2A
100
AcDbVisualStyle
  2
Flat
 70
     0
 71
     2
 72
     1
 73
     1
 90
        2
 40
-0.6
 41
30.0
 62
     5
 63
     7
421
 16777215
 74
     0
 91
        4
 64
     7
 65
   257
 75
     1
175
     1
 42
1.0
 92
        8
 66
     7
 43
1.0
 76
     1
 77
     6
 78
     2
 67
     7
 79
     5
170
     0
171
     0
290
     0
174
     0
 93
       13
 44
0.0
173
     0
291
     1
 45
0.0
1001
ACAD
1000
AcDbSavedByObjectVersion
1070
     0
  0
VISUALSTYLE
  5
2C
102
{ACAD_REACTORS
330
2A
102
}
330
2A
100
AcDbVisualStyle
  2
FlatWithEdges
 70
     1
 71
     2
 72
     1
 73
     1
 90
        2
 40
-0.6
 41
30.0
 62
     5
 63
     7
421
 16777215
 74
     1
 91
        4
 64
     7
 65
   257
 75
     1
175
     1
 42
1.0
 92
        0
 66
   257
 43
1.0
 76
     1
 77
     6
 78
     2
 67
     7
 79
     5
170
     0
171
     0
290
     0
174
     0
 93
       13
 44
0.0
173
     0
291
     1
 45
0.0
1001
ACAD
1000
AcDbSavedByObjectVersion
1070
     0
  0
VISUALSTYLE
  5
2D
102
{ACAD_REACTORS
330
2A
102
}
330
2A
100
AcDbVisualStyle
  2
Gouraud
 70
     2
 71
     2
 72
     2
 73
     1
 90
        2
 40
-0.6
 41
30.0
 62
     5
 63
     7
421
 16777215
 74
     0
 91
        4
 64
     7
 65
   257
 75
     1
175
     1
 42
1.0
 92
        0
 66
     7
 43
1.0
 76
     1
 77
     6
 78
     2
 67
     7
 79
     5
170
     0
171
     0
290
     0
174
     0
 93
       13
 44
0.0
173
     0
291
     1
 45
0.0
1001
ACAD
1000
AcDbSavedByObjectVersion
1070
     0
  0
VISUALSTYLE
  5
2E
102
{ACAD_REACTORS
330
2A
102
}
330
2A
100
AcDbVisualStyle
  2
GouraudWithEdges
 70
     3
 71
     2
 72
     2
 73
     1
 90
        2
 40
-0.6
 41
30.0
 62
     5
 63
     7
421
 16777215
 74
     1
 91
        4
 64
     7
 65
   257
 75
     1
175
     1
 42
1.0
 92
        0
 66
   257
 43
1.0
 76
     1
 77
     6
 78
     2
 67
     7
 79
     5
170
     0
171
     0
290
     0
174
     0
 93
       13
 44
0.0
173
     0
291
     1
 45
0.0
1001
ACAD
1000
AcDbSavedByObjectVersion
1070
     0
  0
VISUALSTYLE
  5
38
102
{ACAD_REACTORS
330
2A
102
}
330
2A
100
AcDbVisualStyle
  2
Linepattern
 70
    14
 71
     2
 72
     2
 73
     0
 90
        0
 40
-0.6
 41
-30.0
 62
     5
 63
     7
421
 16777215
 74
     1
 91
        4
 64
     7
 65
   257
 75
     7
175
     7
 42
1.0
 92
        8
 66
     7
 43
1.0
 76
     1
 77
     6
 78
     2
 67
     7
 79
     5
170
     0
171
     0
290
     0
174
     0
 93
        1
 44
0.0
173
     0
291
     1
 45
0.0
1001
ACAD
1000
AcDbSavedByObjectVersion
1070
     0
  0
VISUALSTYLE
  5
33
102
{ACAD_REACTORS
330
2A
102
}
330
2A
100
AcDbVisualStyle
  2
Realistic
 70
     8
 71
     2
 72
     2
 73
     0
 90
        0
 40
-0.6
 41
-30.0
 62
     5
 63
     7
421
 16777215
 74
     1
 91
        0
 64
     7
 65
   257
 75
     1
175
     1
 42
1.0
 92
        8
 66
     8
424
  7895160
 43
1.0
 76
     1
 77
     6
 78
     2
 67
     7
 79
     5
170
     0
171
     0
290
     0
174
     0
 93
       13
 44
0.0
173
     0
291
     0
 45
0.0
1001
ACAD
1000
AcDbSavedByObjectVersion
1070
     0
  0
VISUALSTYLE
  5
37
102
{ACAD_REACTORS
330
2A
102
}
330
2A
100
AcDbVisualStyle
  2
Thicken
 70
    13
 71
     2
 72
     2
 73
     0
 90
        0
 40
-0.6
 41
-30.0
 62
     5
 63
     7
421
 16777215
 74
     1
 91
        4
 64
     7
 65
   257
 75
     1
175
     1
 42
1.0
 92
       12
 66
     7
 43
1.0
 76
     1
 77
     6
 78
     2
 67
     7
 79
     5
170
     0
171
     0
290
     0
174
     0
 93
        1
 44
0.0
173
     0
291
     1
 45
0.0
1001
ACAD
1000
AcDbSavedByObjectVersion
1070
     0
  0
ENDSEC
  0
EOF
