  0
SECTION
  2
HEADER
  9
$ACADVER
  1
AC1018
  9
$ACADMAINTVER
 70
     0
  9
$DWGCODEPAGE
  3
ANSI_932
  9
$INSBASE
 10
0.0
 20
0.0
 30
0.0
  9
$EXTMIN
 10
-1050.0
 20
-742.5
 30
0.0
  9
$EXTMAX
 10
1050.0
 20
742.5
 30
0.0
  9
$LIMMIN
 10
-1050.0
 20
-742.5
  9
$LIMMAX
 10
1050.0
 20
742.5
  9
$ORTHOMODE
 70
     0
  9
$REGENMODE
 70
     1
  9
$FILLMODE
 70
     1
  9
$QTEXTMODE
 70
     0
  9
$MIRRTEXT
 70
     1
  9
$LTSCALE
 40
5.0
  9
$ATTMODE
 70
     1
  9
$TEXTSIZE
 40
2.5
  9
$TRACEWID
 40
1.0
  9
$TEXTSTYLE
  7
Standard
  9
$CLAYER
  8
0
  9
$CELTYPE
  6
ByLayer
  9
$CECOLOR
 62
   256
  9
$CELTSCALE
 40
1.0
  9
$DISPSILH
 70
     0
  9
$DIMSCALE
 40
1.0
  9
$DIMASZ
 40
2.5
  9
$DIMEXO
 40
0.625
  9
$DIMDLI
 40
3.75
  9
$DIMRND
 40
0.0
  9
$DIMDLE
 40
0.0
  9
$DIMEXE
 40
1.25
  9
$DIMTP
 40
0.0
  9
$DIMTM
 40
0.0
  9
$DIMTXT
 40
2.5
  9
$DIMCEN
 40
2.5
  9
$DIMTSZ
 40
0.0
  9
$DIMTOL
 70
     0
  9
$DIMLIM
 70
     0
  9
$DIMTIH
 70
     0
  9
$DIMTOH
 70
     0
  9
$DIMSE1
 70
     0
  9
$DIMSE2
 70
     0
  9
$DIMTAD
 70
     1
  9
$DIMZIN
 70
     8
  9
$DIMBLK
  1

  9
$DIMASO
 70
     1
  9
$DIMSHO
 70
     1
  9
$DIMPOST
  1

  9
$DIMAPOST
  1

  9
$DIMALT
 70
     0
  9
$DIMALTD
 70
     3
  9
$DIMALTF
 40
0.03937007874016
  9
$DIMLFAC
 40
1.0
  9
$DIMTOFL
 70
     1
  9
$DIMTVP
 40
0.0
  9
$DIMTIX
 70
     0
  9
$DIMSOXD
 70
     0
  9
$DIMSAH
 70
     0
  9
$DIMBLK1
  1

  9
$DIMBLK2
  1

  9
$DIMSTYLE
  2
ISO-25
  9
$DIMCLRD
 70
     0
  9
$DIMCLRE
 70
     0
  9
$DIMCLRT
 70
     0
  9
$DIMTFAC
 40
1.0
  9
$DIMGAP
 40
0.625
  9
$DIMJUST
 70
     0
  9
$DIMSD1
 70
     0
  9
$DIMSD2
 70
     0
  9
$DIMTOLJ
 70
     0
  9
$DIMTZIN
 70
     8
  9
$DIMALTZ
 70
     0
  9
$DIMALTTZ
 70
     0
  9
$DIMUPT
 70
     0
  9
$DIMDEC
 70
     2
  9
$DIMTDEC
 70
     2
  9
$DIMALTU
 70
     2
  9
$DIMALTTD
 70
     3
  9
$DIMTXSTY
  7
Standard
  9
$DIMAUNIT
 70
     0
  9
$DIMADEC
 70
     0
  9
$DIMALTRND
 40
0.0
  9
$DIMAZIN
 70
     0
  9
$DIMDSEP
 70
    44
  9
$DIMATFIT
 70
     3
  9
$DIMFRAC
 70
     0
  9
$DIMLDRBLK
  1

  9
$DIMLUNIT
 70
     2
  9
$DIMLWD
 70
    -2
  9
$DIMLWE
 70
    -2
  9
$DIMTMOVE
 70
     0
  9
$LUNITS
 70
     2
  9
$LUPREC
 70
     4
  9
$SKETCHINC
 40
1.0
  9
$FILLETRAD
 40
10.0
  9
$AUNITS
 70
     0
  9
$AUPREC
 70
     0
  9
$MENU
  1
.
  9
$ELEVATION
 40
0.0
  9
$PELEVATION
 40
0.0
  9
$THICKNESS
 40
0.0
  9
$LIMCHECK
 70
     0
  9
$CHAMFERA
 40
0.0
  9
$CHAMFERB
 40
0.0
  9
$CHAMFERC
 40
0.0
  9
$CHAMFERD
 40
0.0
  9
$SKPOLY
 70
     0
  9
$TDCREATE
 40
2459488.612207998
  9
$TDUCREATE
 40
2459488.237207998
  9
$TDUPDATE
 40
2459488.612208125
  9
$TDUUPDATE
 40
2459488.237208125
  9
$TDINDWG
 40
0.0000000116
  9
$TDUSRTIMER
 40
0.0000000116
  9
$USRTIMER
 70
     1
  9
$ANGBASE
 50
0.0
  9
$ANGDIR
 70
     0
  9
$PDMODE
 70
     0
  9
$PDSIZE
 40
0.0
  9
$PLINEWID
 40
0.0
  9
$SPLFRAME
 70
     0
  9
$SPLINETYPE
 70
     6
  9
$SPLINESEGS
 70
     8
  9
$HANDSEED
  5
3B1
  9
$SURFTAB1
 70
     6
  9
$SURFTAB2
 70
     6
  9
$SURFTYPE
 70
     6
  9
$SURFU
 70
     6
  9
$SURFV
 70
     6
  9
$UCSBASE
  2

  9
$UCSNAME
  2

  9
$UCSORG
 10
0.0
 20
0.0
 30
0.0
  9
$UCSXDIR
 10
1.0
 20
0.0
 30
0.0
  9
$UCSYDIR
 10
0.0
 20
1.0
 30
0.0
  9
$UCSORTHOREF
  2

  9
$UCSORTHOVIEW
 70
     0
  9
$UCSORGTOP
 10
0.0
 20
0.0
 30
0.0
  9
$UCSORGBOTTOM
 10
0.0
 20
0.0
 30
0.0
  9
$UCSORGLEFT
 10
0.0
 20
0.0
 30
0.0
  9
$UCSORGRIGHT
 10
0.0
 20
0.0
 30
0.0
  9
$UCSORGFRONT
 10
0.0
 20
0.0
 30
0.0
  9
$UCSORGBACK
 10
0.0
 20
0.0
 30
0.0
  9
$PUCSBASE
  2

  9
$PUCSNAME
  2

  9
$PUCSORG
 10
0.0
 20
0.0
 30
0.0
  9
$PUCSXDIR
 10
1.0
 20
0.0
 30
0.0
  9
$PUCSYDIR
 10
0.0
 20
1.0
 30
0.0
  9
$PUCSORTHOREF
  2

  9
$PUCSORTHOVIEW
 70
     0
  9
$PUCSORGTOP
 10
0.0
 20
0.0
 30
0.0
  9
$PUCSORGBOTTOM
 10
0.0
 20
0.0
 30
0.0
  9
$PUCSORGLEFT
 10
0.0
 20
0.0
 30
0.0
  9
$PUCSORGRIGHT
 10
0.0
 20
0.0
 30
0.0
  9
$PUCSORGFRONT
 10
0.0
 20
0.0
 30
0.0
  9
$PUCSORGBACK
 10
0.0
 20
0.0
 30
0.0
  9
$USERI1
 70
     0
  9
$USERI2
 70
     0
  9
$USERI3
 70
     0
  9
$USERI4
 70
     0
  9
$USERI5
 70
     0
  9
$USERR1
 40
0.0
  9
$USERR2
 40
0.0
  9
$USERR3
 40
0.0
  9
$USERR4
 40
0.0
  9
$USERR5
 40
0.0
  9
$WORLDVIEW
 70
     1
  9
$SHADEDGE
 70
     3
  9
$SHADEDIF
 70
    70
  9
$TILEMODE
 70
     1
  9
$MAXACTVP
 70
    64
  9
$PINSBASE
 10
0.0
 20
0.0
 30
0.0
  9
$PLIMCHECK
 70
     0
  9
$PEXTMIN
 10
1.000000000000000E+20
 20
1.000000000000000E+20
 30
1.000000000000000E+20
  9
$PEXTMAX
 10
-1.000000000000000E+20
 20
-1.000000000000000E+20
 30
-1.000000000000000E+20
  9
$PLIMMIN
 10
0.0
 20
0.0
  9
$PLIMMAX
 10
420.0
 20
297.0
  9
$UNITMODE
 70
     0
  9
$VISRETAIN
 70
     1
  9
$PLINEGEN
 70
     0
  9
$PSLTSCALE
 70
     1
  9
$TREEDEPTH
 70
  3020
  9
$CMLSTYLE
  2
Standard
  9
$CMLJUST
 70
     0
  9
$CMLSCALE
 40
20.0
  9
$PROXYGRAPHICS
 70
     1
  9
$MEASUREMENT
 70
     1
  9
$CELWEIGHT
370
    -1
  9
$ENDCAPS
280
     0
  9
$JOINSTYLE
280
     0
  9
$LWDISPLAY
290
     0
  9
$INSUNITS
 70
     4
  9
$HYPERLINKBASE
  1

  9
$STYLESHEET
  1

  9
$XEDIT
290
     1
  9
$CEPSNTYPE
380
     0
  9
$PSTYLEMODE
290
     1
  9
$FINGERPRINTGUID
  2
{B2E3F156-8643-44C5-AECB-CC807AE3A9F8}
  9
$VERSIONGUID
  2
{FAEB1C32-E019-11D5-929B-00C0DF256EC4}
  9
$EXTNAMES
290
     1
  9
$PSVPSCALE
 40
0.0
  9
$OLESTARTUP
290
     0
  9
$SORTENTS
280
   127
  9
$INDEXCTL
280
     0
  9
$HIDETEXT
280
     1
  9
$XCLIPFRAME
290
     0
  9
$HALOGAP
280
     0
  9
$OBSCOLOR
 70
   257
  9
$OBSLTYPE
280
     0
  9
$INTERSECTIONDISPLAY
280
     0
  9
$INTERSECTIONCOLOR
 70
   257
  9
$DIMASSOC
280
     2
  9
$PROJECTNAME
  1

  0
ENDSEC
  0
SECTION
  2
CLASSES
  0
CLASS
  1
ACDBDICTIONARYWDFLT
  2
AcDbDictionaryWithDefault
  3
ObjectDBX Classes
 90
        0
 91
        4
280
     0
281
     0
  0
CLASS
  1
VISUALSTYLE
  2
AcDbVisualStyle
  3
ObjectDBX Classes
 90
     4095
 91
        4
280
     0
281
     0
  0
CLASS
  1
MATERIAL
  2
AcDbMaterial
  3
ObjectDBX Classes
 90
     1153
 91
        4
280
     0
281
     0
  0
CLASS
  1
SCALE
  2
AcDbScale
  3
ObjectDBX Classes
 90
     1153
 91
        4
280
     0
281
     0
  0
CLASS
  1
TABLESTYLE
  2
AcDbTableStyle
  3
ObjectDBX Classes
 90
     4095
 91
        4
280
     0
281
     0
  0
CLASS
  1
MLEADERSTYLE
  2
AcDbMLeaderStyle
  3
ACDB_MLEADERSTYLE_CLASS
 90
     4095
 91
        4
280
     0
281
     0
  0
CLASS
  1
SUN
  2
AcDbSun
  3
SCENEOE
 90
     1153
 91
        4
280
     0
281
     0
  0
CLASS
  1
DICTIONARYVAR
  2
AcDbDictionaryVar
  3
ObjectDBX Classes
 90
        0
 91
        4
280
     0
281
     0
  0
CLASS
  1
CELLSTYLEMAP
  2
AcDbCellStyleMap
  3
ObjectDBX Classes
 90
     1152
 91
        4
280
     0
281
     0
  0
ENDSEC
  0
SECTION
  2
TABLES
  0
TABLE
  2
VPORT
  5
8
102
{ACAD_XDICTIONARY
360
368
102
}
330
0
100
AcDbSymbolTable
 70
     1
  0
VPORT
  5
29
330
8
100
AcDbSymbolTableRecord
100
AcDbViewportTableRecord
  2
*Active
 70
     0
 10
0.0
 20
0.0
 11
1.0
 21
1.0
 12
0.0
 22
0.0
 13
0.0
 23
0.0
 14
10.0
 24
10.0
 15
10.0
 25
10.0
 16
0.0
 26
0.0
 36
1.0
 17
0.0
 27
0.0
 37
0.0
 40
1633.5
 41
1.414141414141414
 42
50.0
 43
0.0
 44
0.0
 50
0.0
 51
0.0
 71
     0
 72
 10000
 73
     1
 74
     3
 75
     0
 76
     0
 77
     0
 78
     0
281
     0
 65
     1
110
0.0
120
0.0
130
0.0
111
1.0
121
0.0
131
0.0
112
0.0
122
1.0
132
0.0
 79
     0
146
0.0
  0
ENDTAB
  0
TABLE
  2
LTYPE
  5
5
330
0
100
AcDbSymbolTable
 70
     3
  0
LTYPE
  5
14
330
5
100
AcDbSymbolTableRecord
100
AcDbLinetypeTableRecord
  2
ByBlock
 70
     0
  3

 72
    65
 73
     0
 40
0.0
  0
LTYPE
  5
15
330
5
100
AcDbSymbolTableRecord
100
AcDbLinetypeTableRecord
  2
ByLayer
 70
     0
  3

 72
    65
 73
     0
 40
0.0
  0
LTYPE
  5
16
330
5
100
AcDbSymbolTableRecord
100
AcDbLinetypeTableRecord
  2
Continuous
 70
     0
  3
Solid line
 72
    65
 73
     0
 40
0.0
  0
LTYPE
  5
6F
330
5
100
AcDbSymbolTableRecord
100
AcDbLinetypeTableRecord
  2
JWW_CENTER1
 70
     0
  3
-----  --  ----------  --  -----
 72
    65
 73
     4
 40
6.773333333333333
 49
4.233333333333333
 74
     0
 49
-0.8466666666666667
 74
     0
 49
0.8466666666666667
 74
     0
 49
-0.8466666666666667
 74
     0
  0
LTYPE
  5
70
330
5
100
AcDbSymbolTableRecord
100
AcDbLinetypeTableRecord
  2
JWW_DASHED1
 70
     0
  3
-  --  --  --  --  --  --  --  -
 72
    65
 73
     2
 40
1.693333333333333
 49
0.8466666666666667
 74
     0
 49
-0.8466666666666667
 74
     0
  0
ENDTAB
  0
TABLE
  2
LAYER
  5
2
330
0
100
AcDbSymbolTable
 70
     9
  0
LAYER
  5
10
330
2
100
AcDbSymbolTableRecord
100
AcDbLayerTableRecord
  2
0
 70
     0
 62
     7
  6
Continuous
370
    -3
390
F
  0
LAYER
  5
71
330
2
100
AcDbSymbolTableRecord
100
AcDbLayerTableRecord
  2
B-4
 70
     0
 62
     7
  6
Continuous
370
    -3
390
F
  0
LAYER
  5
72
330
2
100
AcDbSymbolTableRecord
100
AcDbLayerTableRecord
  2
B-2
 70
     0
 62
     7
  6
Continuous
370
    -3
390
F
  0
LAYER
  5
73
330
2
100
AcDbSymbolTableRecord
100
AcDbLayerTableRecord
  2
B-A
 70
     0
 62
     7
  6
Continuous
370
    -3
390
F
  0
LAYER
  5
74
330
2
100
AcDbSymbolTableRecord
100
AcDbLayerTableRecord
  2
B-1
 70
     0
 62
     7
  6
Continuous
370
    -3
390
F
  0
LAYER
  5
75
330
2
100
AcDbSymbolTableRecord
100
AcDbLayerTableRecord
  2
F-4ﾚｲﾔ
 70
     0
 62
     7
  6
Continuous
370
    -3
390
F
  0
LAYER
  5
76
330
2
100
AcDbSymbolTableRecord
100
AcDbLayerTableRecord
  2
F-5ﾚｲﾔ
 70
     0
 62
     7
  6
Continuous
370
    -3
390
F
  0
LAYER
  5
77
330
2
100
AcDbSymbolTableRecord
100
AcDbLayerTableRecord
  2
D-0
 70
     0
 62
     7
  6
Continuous
370
    -3
390
F
  0
LAYER
  5
78
330
2
100
AcDbSymbolTableRecord
100
AcDbLayerTableRecord
  2
D-4
 70
     0
 62
     7
  6
Continuous
370
    -3
390
F
  0
ENDTAB
  0
TABLE
  2
STYLE
  5
3
330
0
100
AcDbSymbolTable
 70
     2
  0
STYLE
  5
11
330
3
100
AcDbSymbolTableRecord
100
AcDbTextStyleTableRecord
  2
Standard
 70
     0
 40
0.0
 41
1.0
 50
0.0
 71
     0
 42
2.5
  3
txt
  4

  0
STYLE
  5
6E
330
3
100
AcDbSymbolTableRecord
100
AcDbTextStyleTableRecord
  2
ＭＳ ゴシック
 70
     0
 40
1.0
 41
1.0
 50
0.0
 71
     0
 42
2.5
  3

  4

1001
ACAD
1000
MS Gothic
1071
    32817
  0
ENDTAB
  0
TABLE
  2
VIEW
  5
6
330
0
100
AcDbSymbolTable
 70
     0
  0
ENDTAB
  0
TABLE
  2
UCS
  5
7
330
0
100
AcDbSymbolTable
 70
     0
  0
ENDTAB
  0
TABLE
  2
APPID
  5
9
330
0
100
AcDbSymbolTable
 70
     2
  0
APPID
  5
12
330
9
100
AcDbSymbolTableRecord
100
AcDbRegAppTableRecord
  2
ACAD
 70
     0
  0
APPID
  5
3A7
330
9
100
AcDbSymbolTableRecord
100
AcDbRegAppTableRecord
  2
ACAD_MLEADERVER
 70
     0
  0
ENDTAB
  0
TABLE
  2
DIMSTYLE
  5
A
330
0
100
AcDbSymbolTable
 70
     1
100
AcDbDimStyleTable
  0
DIMSTYLE
105
27
330
A
100
AcDbSymbolTableRecord
100
AcDbDimStyleTableRecord
  2
ISO-25
 70
     0
 41
2.5
 42
0.625
 43
3.75
 44
1.25
 73
     0
 74
     0
 77
     1
 78
     8
140
2.5
141
2.5
143
0.03937007874016
147
0.625
171
     3
172
     1
178
     0
271
     2
272
     2
274
     3
278
    44
283
     0
284
     8
340
11
  0
ENDTAB
  0
TABLE
  2
BLOCK_RECORD
  5
1
330
0
100
AcDbSymbolTable
 70
     1
  0
BLOCK_RECORD
  5
1F
330
1
100
AcDbSymbolTableRecord
100
AcDbBlockTableRecord
  2
*Model_Space
340
22
  0
BLOCK_RECORD
  5
1B
330
1
100
AcDbSymbolTableRecord
100
AcDbBlockTableRecord
  2
*Paper_Space
340
1E
  0
BLOCK_RECORD
  5
23
330
1
100
AcDbSymbolTableRecord
100
AcDbBlockTableRecord
  2
*Paper_Space0
340
26
  0
ENDTAB
  0
ENDSEC
  0
SECTION
  2
BLOCKS
  0
BLOCK
  5
20
330
1F
100
AcDbEntity
  8
0
100
AcDbBlockBegin
  2
*Model_Space
 70
     0
 10
0.0
 20
0.0
 30
0.0
  3
*Model_Space
  1

  0
ENDBLK
  5
21
330
1F
100
AcDbEntity
  8
0
100
AcDbBlockEnd
  0
BLOCK
  5
1C
330
1B
100
AcDbEntity
 67
     1
  8
0
100
AcDbBlockBegin
  2
*Paper_Space
 70
     0
 10
0.0
 20
0.0
 30
0.0
  3
*Paper_Space
  1

  0
ENDBLK
  5
1D
330
1B
100
AcDbEntity
 67
     1
  8
0
100
AcDbBlockEnd
  0
BLOCK
  5
24
330
23
100
AcDbEntity
  8
0
100
AcDbBlockBegin
  2
*Paper_Space0
 70
     0
 10
0.0
 20
0.0
 30
0.0
  3
*Paper_Space0
  1

  0
ENDBLK
  5
25
330
23
100
AcDbEntity
  8
0
100
AcDbBlockEnd
  0
ENDSEC
  0
SECTION
  2
ENTITIES
  0
LWPOLYLINE
  5
79
330
1F
100
AcDbEntity
  8
B-4
  6
Continuous
 62
     7
370
     9
100
AcDbPolyline
 90
        4
 70
     1
 43
1.0
 10
459.8647312473606
 20
8.69890780062292
 42
0.4142135623731
 10
459.3647312473607
 20
9.19890780062292
 42
0.4142135623731
 10
458.8647312473607
 20
8.69890780062292
 42
0.4142135623731
 10
459.3647312473607
 20
8.19890780062292
 42
0.4142135623731
  0
LWPOLYLINE
  5
7A
330
1F
100
AcDbEntity
  8
B-4
  6
Continuous
 62
     7
370
     9
100
AcDbPolyline
 90
        4
 70
     1
 43
1.0
 10
484.8646900073903
 20
8.69890780062292
 42
0.4142135623731
 10
484.3646900073904
 20
9.19890780062292
 42
0.4142135623731
 10
483.8646900073904
 20
8.69890780062292
 42
0.4142135623731
 10
484.3646900073904
 20
8.19890780062292
 42
0.4142135623731
  0
LWPOLYLINE
  5
7B
330
1F
100
AcDbEntity
  8
B-4
  6
Continuous
 62
     7
370
     9
100
AcDbPolyline
 90
        4
 70
     1
 43
1.0
 10
554.8645497914908
 20
8.69890780062292
 42
0.4142135623731
 10
554.3645497914908
 20
9.19890780062292
 42
0.4142135623731
 10
553.864549791491
 20
8.69890780062292
 42
0.4142135623731
 10
554.3645497914908
 20
8.19890780062292
 42
0.4142135623731
  0
LWPOLYLINE
  5
7C
330
1F
100
AcDbEntity
  8
B-4
  6
Continuous
 62
     7
370
     9
100
AcDbPolyline
 90
        4
 70
     1
 43
1.0
 10
459.8647312473606
 20
-31.30110044737123
 42
0.4142135623731
 10
459.3647312473607
 20
-30.80110044737123
 42
0.4142135623731
 10
458.8647312473607
 20
-31.30110044737123
 42
0.4142135623731
 10
459.3647312473607
 20
-31.80110044737123
 42
0.4142135623731
  0
LWPOLYLINE
  5
7D
330
1F
100
AcDbEntity
  8
B-4
  6
Continuous
 62
     7
370
     9
100
AcDbPolyline
 90
        4
 70
     1
 43
1.0
 10
554.8645497914908
 20
-31.30110044737123
 42
0.4142135623731
 10
554.3645497914908
 20
-30.80110044737123
 42
0.4142135623731
 10
553.864549791491
 20
-31.30110044737123
 42
0.4142135623731
 10
554.3645497914908
 20
-31.80110044737123
 42
0.4142135623731
  0
LWPOLYLINE
  5
7E
330
1F
100
AcDbEntity
  8
B-4
  6
Continuous
 62
     7
370
     9
100
AcDbPolyline
 90
        4
 70
     1
 43
1.0
 10
-573.0421258050042
 20
8.698969660578655
 42
0.4142135623731
 10
-573.5421258050042
 20
9.198969660578655
 42
0.4142135623731
 10
-574.0421258050042
 20
8.698969660578655
 42
0.4142135623731
 10
-573.5421258050042
 20
8.198969660578655
 42
0.4142135623731
  0
LWPOLYLINE
  5
7F
330
1F
100
AcDbEntity
  8
B-4
  6
Continuous
 62
     7
370
     9
100
AcDbPolyline
 90
        4
 70
     1
 43
1.0
 10
-88.0421340529983
 20
8.698969660578655
 42
0.4142135623731
 10
-88.5421340529983
 20
9.198969660578655
 42
0.4142135623731
 10
-89.0421340529983
 20
8.698969660578655
 42
0.4142135623731
 10
-88.5421340529983
 20
8.198969660578655
 42
0.4142135623731
  0
LWPOLYLINE
  5
80
330
1F
100
AcDbEntity
  8
B-4
  6
Continuous
 62
     7
370
     9
100
AcDbPolyline
 90
        4
 70
     1
 43
1.0
 10
409.8646900073903
 20
58.69888718063777
 42
0.4142135623731
 10
409.3646900073904
 20
59.19888718063777
 42
0.4142135623731
 10
408.8646900073904
 20
58.69888718063777
 42
0.4142135623731
 10
409.3646900073904
 20
58.19888718063777
 42
0.4142135623731
  0
LWPOLYLINE
  5
81
330
1F
100
AcDbEntity
  8
B-4
  6
Continuous
 62
     7
370
     9
100
AcDbPolyline
 90
        4
 70
     1
 43
1.0
 10
409.8646900073903
 20
468.6987552127323
 42
0.4142135623731
 10
409.3646900073904
 20
469.1987552127323
 42
0.4142135623731
 10
408.8646900073904
 20
468.6987552127323
 42
0.4142135623731
 10
409.3646900073904
 20
468.1987552127323
 42
0.4142135623731
  0
LWPOLYLINE
  5
82
330
1F
100
AcDbEntity
  8
B-4
  6
Continuous
 62
     7
370
     9
100
AcDbPolyline
 90
        4
 70
     1
 43
1.0
 10
609.8647312473606
 20
58.69888718063777
 42
0.4142135623731
 10
609.3647312473606
 20
59.19888718063777
 42
0.4142135623731
 10
608.8647312473607
 20
58.69888718063777
 42
0.4142135623731
 10
609.3647312473606
 20
58.19888718063777
 42
0.4142135623731
  0
LWPOLYLINE
  5
83
330
1F
100
AcDbEntity
  8
B-4
  6
Continuous
 62
     7
370
     9
100
AcDbPolyline
 90
        4
 70
     1
 43
1.0
 10
609.8647312473606
 20
65.69895976298568
 42
0.4142135623731
 10
609.3647312473606
 20
66.19895976298568
 42
0.4142135623731
 10
608.8647312473607
 20
65.69895976298568
 42
0.4142135623731
 10
609.3647312473606
 20
65.19895976298568
 42
0.4142135623731
  0
LWPOLYLINE
  5
84
330
1F
100
AcDbEntity
  8
B-4
  6
Continuous
 62
     7
370
     9
100
AcDbPolyline
 90
        4
 70
     1
 43
1.0
 10
609.8647312473606
 20
105.6988442910685
 42
0.4142135623731
 10
609.3647312473606
 20
106.1988442910685
 42
0.4142135623731
 10
608.8647312473607
 20
105.6988442910685
 42
0.4142135623731
 10
609.3647312473606
 20
105.1988442910685
 42
0.4142135623731
  0
LWPOLYLINE
  5
85
330
1F
100
AcDbEntity
  8
B-4
  6
Continuous
 62
     7
370
     9
100
AcDbPolyline
 90
        4
 70
     1
 43
1.0
 10
609.8647312473606
 20
421.6987981023016
 42
0.4142135623731
 10
609.3647312473606
 20
422.1987981023016
 42
0.4142135623731
 10
608.8647312473607
 20
421.6987981023016
 42
0.4142135623731
 10
609.3647312473606
 20
421.1987981023016
 42
0.4142135623731
  0
LWPOLYLINE
  5
86
330
1F
100
AcDbEntity
  8
B-4
  6
Continuous
 62
     7
370
     9
100
AcDbPolyline
 90
        4
 70
     1
 43
1.0
 10
609.8647312473606
 20
461.6986826303844
 42
0.4142135623731
 10
609.3647312473606
 20
462.1986826303844
 42
0.4142135623731
 10
608.8647312473607
 20
461.6986826303844
 42
0.4142135623731
 10
609.3647312473606
 20
461.1986826303844
 42
0.4142135623731
  0
LWPOLYLINE
  5
87
330
1F
100
AcDbEntity
  8
B-4
  6
Continuous
 62
     7
370
     9
100
AcDbPolyline
 90
        4
 70
     1
 43
1.0
 10
609.8647312473606
 20
468.6987552127323
 42
0.4142135623731
 10
609.3647312473606
 20
469.1987552127323
 42
0.4142135623731
 10
608.8647312473607
 20
468.6987552127323
 42
0.4142135623731
 10
609.3647312473606
 20
468.1987552127323
 42
0.4142135623731
  0
LWPOLYLINE
  5
88
330
1F
100
AcDbEntity
  8
B-4
  6
Continuous
 62
     7
370
     9
100
AcDbPolyline
 90
        4
 70
     1
 43
1.0
 10
-180.5419443491342
 20
491.1295462943413
 42
0.4142135623731
 10
-181.0419443491342
 20
491.6295462943413
 42
0.4142135623731
 10
-181.5419443491342
 20
491.1295462943413
 42
0.4142135623731
 10
-181.0419443491342
 20
490.6295462943413
 42
0.4142135623731
  0
LWPOLYLINE
  5
89
330
1F
100
AcDbEntity
  8
B-4
  6
Continuous
 62
     7
370
     9
100
AcDbPolyline
 90
        4
 70
     1
 43
1.0
 10
-150.5417216532939
 20
491.1295462943413
 42
0.4142135623731
 10
-151.0417216532939
 20
491.6295462943413
 42
0.4142135623731
 10
-151.5417216532939
 20
491.1295462943413
 42
0.4142135623731
 10
-151.0417216532939
 20
490.6295462943413
 42
0.4142135623731
  0
LINE
  5
8A
330
1F
100
AcDbEntity
  8
B-2
  6
Continuous
 62
     3
370
     9
100
AcDbLine
 10
-88.5421340529983
 20
58.69888718063777
 30
0.0
 11
-573.5421258050042
 21
58.69888718063777
 31
0.0
  0
LINE
  5
8B
330
1F
100
AcDbEntity
  8
B-2
  6
Continuous
 62
     3
370
     9
100
AcDbLine
 10
-88.5421340529983
 20
63.19870407516902
 30
0.0
 11
-573.5421258050042
 21
63.19870407516902
 31
0.0
  0
LINE
  5
8C
330
1F
100
AcDbEntity
  8
B-2
  6
Continuous
 62
     3
370
     9
100
AcDbLine
 10
-573.5421258050042
 20
417.9384551177155
 30
0.0
 11
-88.5421340529983
 21
417.9384551177155
 31
0.0
  0
LINE
  5
8D
330
1F
100
AcDbEntity
  8
B-2
  6
Continuous
 62
     3
370
     9
100
AcDbLine
 10
-573.5421258050042
 20
409.458939835832
 30
0.0
 11
-88.5421340529983
 21
409.458939835832
 31
0.0
  0
LINE
  5
8E
330
1F
100
AcDbEntity
  8
B-2
  6
Continuous
 62
     3
370
     9
100
AcDbLine
 10
-88.54151545344166
 20
417.9384551177155
 30
0.0
 11
-118.5422330289273
 21
409.458939835832
 31
0.0
  0
LINE
  5
8F
330
1F
100
AcDbEntity
  8
B-2
  6
Continuous
 62
     3
370
     9
100
AcDbLine
 10
-178.5420598210514
 20
417.9384551177155
 30
0.0
 11
-208.5422825168918
 21
409.458939835832
 31
0.0
  0
LINE
  5
90
330
1F
100
AcDbEntity
  8
B-2
  6
Continuous
 62
     3
370
     9
100
AcDbLine
 10
-208.5422825168918
 20
417.9384551177155
 30
0.0
 11
-238.541639173353
 21
409.458939835832
 31
0.0
  0
LINE
  5
91
330
1F
100
AcDbEntity
  8
B-2
  6
Continuous
 62
     3
370
     9
100
AcDbLine
 10
-238.541639173353
 20
417.9384551177155
 30
0.0
 11
-268.5419855891047
 21
409.458939835832
 31
0.0
  0
LINE
  5
92
330
1F
100
AcDbEntity
  8
B-2
  6
Continuous
 62
     3
370
     9
100
AcDbLine
 10
-268.5419855891047
 20
417.9384551177155
 30
0.0
 11
-298.5419608451224
 21
409.458939835832
 31
0.0
  0
LINE
  5
93
330
1F
100
AcDbEntity
  8
B-2
  6
Continuous
 62
     3
370
     9
100
AcDbLine
 10
-298.5419608451224
 20
417.9384551177155
 30
0.0
 11
-328.5421835409628
 21
409.458939835832
 31
0.0
  0
LINE
  5
94
330
1F
100
AcDbEntity
  8
B-2
  6
Continuous
 62
     3
370
     9
100
AcDbLine
 10
-328.5416886613176
 20
417.9384551177155
 30
0.0
 11
-358.5422825168918
 21
409.458939835832
 31
0.0
  0
LINE
  5
95
330
1F
100
AcDbEntity
  8
B-2
  6
Continuous
 62
     3
370
     9
100
AcDbLine
 10
-358.5419113571579
 20
417.9384551177155
 30
0.0
 11
-388.542010333087
 21
409.458939835832
 31
0.0
  0
LINE
  5
96
330
1F
100
AcDbEntity
  8
B-2
  6
Continuous
 62
     3
370
     9
100
AcDbLine
 10
-388.542010333087
 20
417.9384551177155
 30
0.0
 11
-418.5416144293708
 21
409.458939835832
 31
0.0
  0
LINE
  5
97
330
1F
100
AcDbEntity
  8
B-2
  6
Continuous
 62
     3
370
     9
100
AcDbLine
 10
-418.5416144293708
 20
417.9384551177155
 30
0.0
 11
-448.542208284945
 21
409.458939835832
 31
0.0
  0
LINE
  5
98
330
1F
100
AcDbEntity
  8
B-2
  6
Continuous
 62
     3
370
     9
100
AcDbLine
 10
-448.542208284945
 20
417.9384551177155
 30
0.0
 11
-478.5419361011402
 21
409.458939835832
 31
0.0
  0
LINE
  5
99
330
1F
100
AcDbEntity
  8
B-2
  6
Continuous
 62
     3
370
     9
100
AcDbLine
 10
-478.5419361011402
 20
417.9384551177155
 30
0.0
 11
-508.541540197424
 21
409.458939835832
 31
0.0
  0
LINE
  5
9A
330
1F
100
AcDbEntity
  8
B-2
  6
Continuous
 62
     3
370
     9
100
AcDbLine
 10
-508.541540197424
 20
417.9384551177155
 30
0.0
 11
-538.5421340529983
 21
409.458939835832
 31
0.0
  0
LINE
  5
9B
330
1F
100
AcDbEntity
  8
B-2
  6
Continuous
 62
     3
370
     9
100
AcDbLine
 10
-538.5421340529983
 20
417.9384551177155
 30
0.0
 11
-568.5418618691933
 21
409.458939835832
 31
0.0
  0
LINE
  5
9C
330
1F
100
AcDbEntity
  8
B-2
  6
Continuous
 62
     3
370
     9
100
AcDbLine
 10
-568.5418618691933
 20
417.9384551177155
 30
0.0
 11
-573.5421258050042
 21
416.9385507944469
 31
0.0
  0
LINE
  5
9D
330
1F
100
AcDbEntity
  8
B-2
  6
Continuous
 62
     3
370
     9
100
AcDbLine
 10
-573.5421258050042
 20
317.9384963576858
 30
0.0
 11
-88.5421340529983
 21
317.9384963576858
 31
0.0
  0
LINE
  5
9E
330
1F
100
AcDbEntity
  8
B-2
  6
Continuous
 62
     3
370
     9
100
AcDbLine
 10
-573.5421258050042
 20
309.4588573558912
 30
0.0
 11
-88.5421340529983
 21
309.4588573558912
 31
0.0
  0
LINE
  5
9F
330
1F
100
AcDbEntity
  8
B-2
  6
Continuous
 62
     3
370
     9
100
AcDbLine
 10
-88.54151545344166
 20
317.9384963576858
 30
0.0
 11
-118.5422330289273
 21
309.4588573558912
 31
0.0
  0
LINE
  5
A0
330
1F
100
AcDbEntity
  8
B-2
  6
Continuous
 62
     3
370
     9
100
AcDbLine
 10
-178.5420598210514
 20
317.9384963576858
 30
0.0
 11
-208.5422825168918
 21
309.4588573558912
 31
0.0
  0
LINE
  5
A1
330
1F
100
AcDbEntity
  8
B-2
  6
Continuous
 62
     3
370
     9
100
AcDbLine
 10
-208.5422825168918
 20
317.9384963576858
 30
0.0
 11
-238.541639173353
 21
309.4588573558912
 31
0.0
  0
LINE
  5
A2
330
1F
100
AcDbEntity
  8
B-2
  6
Continuous
 62
     3
370
     9
100
AcDbLine
 10
-238.541639173353
 20
317.9384963576858
 30
0.0
 11
-268.5419855891047
 21
309.4588573558912
 31
0.0
  0
LINE
  5
A3
330
1F
100
AcDbEntity
  8
B-2
  6
Continuous
 62
     3
370
     9
100
AcDbLine
 10
-268.5419855891047
 20
317.9384963576858
 30
0.0
 11
-298.5419608451224
 21
309.4588573558912
 31
0.0
  0
LINE
  5
A4
330
1F
100
AcDbEntity
  8
B-2
  6
Continuous
 62
     3
370
     9
100
AcDbLine
 10
-298.5419608451224
 20
317.9384963576858
 30
0.0
 11
-328.5421835409628
 21
309.4588573558912
 31
0.0
  0
LINE
  5
A5
330
1F
100
AcDbEntity
  8
B-2
  6
Continuous
 62
     3
370
     9
100
AcDbLine
 10
-328.5416886613176
 20
317.9384963576858
 30
0.0
 11
-358.5422825168918
 21
309.4588573558912
 31
0.0
  0
LINE
  5
A6
330
1F
100
AcDbEntity
  8
B-2
  6
Continuous
 62
     3
370
     9
100
AcDbLine
 10
-358.5419113571579
 20
317.9384963576858
 30
0.0
 11
-388.542010333087
 21
309.4588573558912
 31
0.0
  0
LINE
  5
A7
330
1F
100
AcDbEntity
  8
B-2
  6
Continuous
 62
     3
370
     9
100
AcDbLine
 10
-388.542010333087
 20
317.9384963576858
 30
0.0
 11
-418.5416144293708
 21
309.4588573558912
 31
0.0
  0
LINE
  5
A8
330
1F
100
AcDbEntity
  8
B-2
  6
Continuous
 62
     3
370
     9
100
AcDbLine
 10
-418.5416144293708
 20
317.9384963576858
 30
0.0
 11
-448.542208284945
 21
309.4588573558912
 31
0.0
  0
LINE
  5
A9
330
1F
100
AcDbEntity
  8
B-2
  6
Continuous
 62
     3
370
     9
100
AcDbLine
 10
-448.542208284945
 20
317.9384963576858
 30
0.0
 11
-478.5419361011402
 21
309.4588573558912
 31
0.0
  0
LINE
  5
AA
330
1F
100
AcDbEntity
  8
B-2
  6
Continuous
 62
     3
370
     9
100
AcDbLine
 10
-478.5419361011402
 20
317.9384963576858
 30
0.0
 11
-508.541540197424
 21
309.4588573558912
 31
0.0
  0
LINE
  5
AB
330
1F
100
AcDbEntity
  8
B-2
  6
Continuous
 62
     3
370
     9
100
AcDbLine
 10
-508.541540197424
 20
317.9384963576858
 30
0.0
 11
-538.5421340529983
 21
309.4588573558912
 31
0.0
  0
LINE
  5
AC
330
1F
100
AcDbEntity
  8
B-2
  6
Continuous
 62
     3
370
     9
100
AcDbLine
 10
-538.5421340529983
 20
317.9384963576858
 30
0.0
 11
-568.5418618691933
 21
309.4588573558912
 31
0.0
  0
LINE
  5
AD
330
1F
100
AcDbEntity
  8
B-2
  6
Continuous
 62
     3
370
     9
100
AcDbLine
 10
-568.5418618691933
 20
317.9384963576858
 30
0.0
 11
-573.5421258050042
 21
316.938468314506
 31
0.0
  0
LINE
  5
AE
330
1F
100
AcDbEntity
  8
B-2
  6
Continuous
 62
     3
370
     9
100
AcDbLine
 10
-178.5420598210514
 20
409.458939835832
 30
0.0
 11
-178.5420598210514
 21
317.9384963576858
 31
0.0
  0
LINE
  5
AF
330
1F
100
AcDbEntity
  8
B-2
  6
Continuous
 62
     3
370
     9
100
AcDbLine
 10
-183.5418288772171
 20
409.458939835832
 30
0.0
 11
-183.5418288772171
 21
317.9384963576858
 31
0.0
  0
LINE
  5
B0
330
1F
100
AcDbEntity
  8
B-2
  6
Continuous
 62
     3
370
     9
100
AcDbLine
 10
-208.5422825168918
 20
409.458939835832
 30
0.0
 11
-208.5422825168918
 21
317.9384963576858
 31
0.0
  0
LINE
  5
B1
330
1F
100
AcDbEntity
  8
B-2
  6
Continuous
 62
     3
370
     9
100
AcDbLine
 10
-213.5419278531461
 20
409.458939835832
 30
0.0
 11
-213.5419278531461
 21
317.9384963576858
 31
0.0
  0
LINE
  5
B2
330
1F
100
AcDbEntity
  8
B-2
  6
Continuous
 62
     3
370
     9
100
AcDbLine
 10
-238.541639173353
 20
409.458939835832
 30
0.0
 11
-238.541639173353
 21
317.9384963576858
 31
0.0
  0
LINE
  5
B3
330
1F
100
AcDbEntity
  8
B-2
  6
Continuous
 62
     3
370
     9
100
AcDbLine
 10
-243.5419031091638
 20
409.458939835832
 30
0.0
 11
-243.5419031091638
 21
317.9384963576858
 31
0.0
  0
LINE
  5
B4
330
1F
100
AcDbEntity
  8
B-2
  6
Continuous
 62
     3
370
     9
100
AcDbLine
 10
-268.5419855891047
 20
409.458939835832
 30
0.0
 11
-268.5419855891047
 21
317.9384963576858
 31
0.0
  0
LINE
  5
B5
330
1F
100
AcDbEntity
  8
B-2
  6
Continuous
 62
     3
370
     9
100
AcDbLine
 10
-273.5417546452702
 20
409.458939835832
 30
0.0
 11
-273.5417546452702
 21
317.9384963576858
 31
0.0
  0
LINE
  5
B6
330
1F
100
AcDbEntity
  8
B-2
  6
Continuous
 62
     3
370
     9
100
AcDbLine
 10
-298.5419608451224
 20
409.458939835832
 30
0.0
 11
-298.5419608451224
 21
317.9384963576858
 31
0.0
  0
LINE
  5
B7
330
1F
100
AcDbEntity
  8
B-2
  6
Continuous
 62
     3
370
     9
100
AcDbLine
 10
-303.5418536211994
 20
409.458939835832
 30
0.0
 11
-303.5418536211994
 21
317.9384963576858
 31
0.0
  0
LINE
  5
B8
330
1F
100
AcDbEntity
  8
B-2
  6
Continuous
 62
     3
370
     9
100
AcDbLine
 10
-328.5421835409628
 20
409.458939835832
 30
0.0
 11
-328.5421835409628
 21
317.9384963576858
 31
0.0
  0
LINE
  5
B9
330
1F
100
AcDbEntity
  8
B-2
  6
Continuous
 62
     3
370
     9
100
AcDbLine
 10
-333.5419525971284
 20
409.458939835832
 30
0.0
 11
-333.5419525971284
 21
317.9384963576858
 31
0.0
  0
LINE
  5
BA
330
1F
100
AcDbEntity
  8
B-2
  6
Continuous
 62
     3
370
     9
100
AcDbLine
 10
-358.5422825168918
 20
409.458939835832
 30
0.0
 11
-358.5422825168918
 21
317.9384963576858
 31
0.0
  0
LINE
  5
BB
330
1F
100
AcDbEntity
  8
B-2
  6
Continuous
 62
     3
370
     9
100
AcDbLine
 10
-363.5416804133234
 20
409.458939835832
 30
0.0
 11
-363.5416804133234
 21
317.9384963576858
 31
0.0
  0
LINE
  5
BC
330
1F
100
AcDbEntity
  8
B-2
  6
Continuous
 62
     3
370
     9
100
AcDbLine
 10
-388.542010333087
 20
409.458939835832
 30
0.0
 11
-388.542010333087
 21
317.9384963576858
 31
0.0
  0
LINE
  5
BD
330
1F
100
AcDbEntity
  8
B-2
  6
Continuous
 62
     3
370
     9
100
AcDbLine
 10
-393.5411607896959
 20
409.458939835832
 30
0.0
 11
-393.5411607896959
 21
317.9384963576858
 31
0.0
  0
LINE
  5
BE
330
1F
100
AcDbEntity
  8
B-2
  6
Continuous
 62
     3
370
     9
100
AcDbLine
 10
-418.5416144293708
 20
409.458939835832
 30
0.0
 11
-418.5416144293708
 21
317.9384963576858
 31
0.0
  0
LINE
  5
BF
330
1F
100
AcDbEntity
  8
B-2
  6
Continuous
 62
     3
370
     9
100
AcDbLine
 10
-423.5418783651816
 20
409.458939835832
 30
0.0
 11
-423.5418783651816
 21
317.9384963576858
 31
0.0
  0
LINE
  5
C0
330
1F
100
AcDbEntity
  8
B-2
  6
Continuous
 62
     3
370
     9
100
AcDbLine
 10
-448.542208284945
 20
409.458939835832
 30
0.0
 11
-448.542208284945
 21
317.9384963576858
 31
0.0
  0
LINE
  5
C1
330
1F
100
AcDbEntity
  8
B-2
  6
Continuous
 62
     3
370
     9
100
AcDbLine
 10
-453.5416061813766
 20
409.458939835832
 30
0.0
 11
-453.5416061813766
 21
317.9384963576858
 31
0.0
  0
LINE
  5
C2
330
1F
100
AcDbEntity
  8
B-2
  6
Continuous
 62
     3
370
     9
100
AcDbLine
 10
-478.5419361011402
 20
409.458939835832
 30
0.0
 11
-478.5419361011402
 21
317.9384963576858
 31
0.0
  0
LINE
  5
C3
330
1F
100
AcDbEntity
  8
B-2
  6
Continuous
 62
     3
370
     9
100
AcDbLine
 10
-483.542200036951
 20
409.458939835832
 30
0.0
 11
-483.542200036951
 21
317.9384963576858
 31
0.0
  0
LINE
  5
C4
330
1F
100
AcDbEntity
  8
B-2
  6
Continuous
 62
     3
370
     9
100
AcDbLine
 10
-508.541540197424
 20
409.458939835832
 30
0.0
 11
-508.541540197424
 21
317.9384963576858
 31
0.0
  0
LINE
  5
C5
330
1F
100
AcDbEntity
  8
B-2
  6
Continuous
 62
     3
370
     9
100
AcDbLine
 10
-513.5418041332348
 20
409.458939835832
 30
0.0
 11
-513.5418041332348
 21
317.9384963576858
 31
0.0
  0
LINE
  5
C6
330
1F
100
AcDbEntity
  8
B-2
  6
Continuous
 62
     3
370
     9
100
AcDbLine
 10
-538.5421340529983
 20
409.458939835832
 30
0.0
 11
-538.5421340529983
 21
317.9384963576858
 31
0.0
  0
LINE
  5
C7
330
1F
100
AcDbEntity
  8
B-2
  6
Continuous
 62
     3
370
     9
100
AcDbLine
 10
-543.5415319494299
 20
409.458939835832
 30
0.0
 11
-543.5415319494299
 21
317.9384963576858
 31
0.0
  0
LINE
  5
C8
330
1F
100
AcDbEntity
  8
B-2
  6
Continuous
 62
     3
370
     9
100
AcDbLine
 10
-573.5421258050042
 20
464.198938318201
 30
0.0
 11
-88.5421340529983
 21
464.198938318201
 31
0.0
  0
LINE
  5
C9
330
1F
100
AcDbEntity
  8
B-2
  6
Continuous
 62
     3
370
     9
100
AcDbLine
 10
-573.5421258050042
 20
468.6987552127323
 30
0.0
 11
-88.5421340529983
 21
468.6987552127323
 31
0.0
  0
LINE
  5
CA
330
1F
100
AcDbEntity
  8
B-2
  6
Continuous
 62
     3
370
     9
100
AcDbLine
 10
-573.5421258050042
 20
58.69888718063777
 30
0.0
 11
-573.5421258050042
 21
468.6987552127323
 31
0.0
  0
LINE
  5
CB
330
1F
100
AcDbEntity
  8
B-2
  6
Continuous
 62
     3
370
     9
100
AcDbLine
 10
-543.5415319494299
 20
464.198938318201
 30
0.0
 11
-543.5415319494299
 21
417.9384551177155
 31
0.0
  0
LINE
  5
CC
330
1F
100
AcDbEntity
  8
B-2
  6
Continuous
 62
     3
370
     9
100
AcDbLine
 10
-538.5421340529983
 20
464.198938318201
 30
0.0
 11
-538.5421340529983
 21
417.9384551177155
 31
0.0
  0
LINE
  5
CD
330
1F
100
AcDbEntity
  8
B-2
  6
Continuous
 62
     3
370
     9
100
AcDbLine
 10
-213.5419278531461
 20
464.198938318201
 30
0.0
 11
-213.5419278531461
 21
417.9384551177155
 31
0.0
  0
LINE
  5
CE
330
1F
100
AcDbEntity
  8
B-2
  6
Continuous
 62
     3
370
     9
100
AcDbLine
 10
-208.5422825168918
 20
464.198938318201
 30
0.0
 11
-208.5422825168918
 21
417.9384551177155
 31
0.0
  0
LINE
  5
CF
330
1F
100
AcDbEntity
  8
B-2
  6
Continuous
 62
     3
370
     9
100
AcDbLine
 10
-243.5419031091638
 20
464.198938318201
 30
0.0
 11
-243.5419031091638
 21
417.9384551177155
 31
0.0
  0
LINE
  5
D0
330
1F
100
AcDbEntity
  8
B-2
  6
Continuous
 62
     3
370
     9
100
AcDbLine
 10
-238.541639173353
 20
464.198938318201
 30
0.0
 11
-238.541639173353
 21
417.9384551177155
 31
0.0
  0
LINE
  5
D1
330
1F
100
AcDbEntity
  8
B-2
  6
Continuous
 62
     3
370
     9
100
AcDbLine
 10
-273.5417546452702
 20
464.198938318201
 30
0.0
 11
-273.5417546452702
 21
417.9384551177155
 31
0.0
  0
LINE
  5
D2
330
1F
100
AcDbEntity
  8
B-2
  6
Continuous
 62
     3
370
     9
100
AcDbLine
 10
-268.5419855891047
 20
464.198938318201
 30
0.0
 11
-268.5419855891047
 21
417.9384551177155
 31
0.0
  0
LINE
  5
D3
330
1F
100
AcDbEntity
  8
B-2
  6
Continuous
 62
     3
370
     9
100
AcDbLine
 10
-303.5418536211994
 20
464.198938318201
 30
0.0
 11
-303.5418536211994
 21
417.9384551177155
 31
0.0
  0
LINE
  5
D4
330
1F
100
AcDbEntity
  8
B-2
  6
Continuous
 62
     3
370
     9
100
AcDbLine
 10
-298.5419608451224
 20
464.198938318201
 30
0.0
 11
-298.5419608451224
 21
417.9384551177155
 31
0.0
  0
LINE
  5
D5
330
1F
100
AcDbEntity
  8
B-2
  6
Continuous
 62
     3
370
     9
100
AcDbLine
 10
-333.5419525971284
 20
464.198938318201
 30
0.0
 11
-333.5419525971284
 21
417.9384551177155
 31
0.0
  0
LINE
  5
D6
330
1F
100
AcDbEntity
  8
B-2
  6
Continuous
 62
     3
370
     9
100
AcDbLine
 10
-328.5421835409628
 20
464.198938318201
 30
0.0
 11
-328.5421835409628
 21
417.9384551177155
 31
0.0
  0
LINE
  5
D7
330
1F
100
AcDbEntity
  8
B-2
  6
Continuous
 62
     3
370
     9
100
AcDbLine
 10
-363.5416804133234
 20
464.198938318201
 30
0.0
 11
-363.5416804133234
 21
417.9384551177155
 31
0.0
  0
LINE
  5
D8
330
1F
100
AcDbEntity
  8
B-2
  6
Continuous
 62
     3
370
     9
100
AcDbLine
 10
-358.5422825168918
 20
464.198938318201
 30
0.0
 11
-358.5422825168918
 21
417.9384551177155
 31
0.0
  0
LINE
  5
D9
330
1F
100
AcDbEntity
  8
B-2
  6
Continuous
 62
     3
370
     9
100
AcDbLine
 10
-393.5411607896959
 20
464.198938318201
 30
0.0
 11
-393.5411607896959
 21
417.9384551177155
 31
0.0
  0
LINE
  5
DA
330
1F
100
AcDbEntity
  8
B-2
  6
Continuous
 62
     3
370
     9
100
AcDbLine
 10
-388.542010333087
 20
464.198938318201
 30
0.0
 11
-388.542010333087
 21
417.9384551177155
 31
0.0
  0
LINE
  5
DB
330
1F
100
AcDbEntity
  8
B-2
  6
Continuous
 62
     3
370
     9
100
AcDbLine
 10
-423.5418783651816
 20
464.198938318201
 30
0.0
 11
-423.5418783651816
 21
417.9384551177155
 31
0.0
  0
LINE
  5
DC
330
1F
100
AcDbEntity
  8
B-2
  6
Continuous
 62
     3
370
     9
100
AcDbLine
 10
-418.5416144293708
 20
464.198938318201
 30
0.0
 11
-418.5416144293708
 21
417.9384551177155
 31
0.0
  0
LINE
  5
DD
330
1F
100
AcDbEntity
  8
B-2
  6
Continuous
 62
     3
370
     9
100
AcDbLine
 10
-453.5416061813766
 20
464.198938318201
 30
0.0
 11
-453.5416061813766
 21
417.9384551177155
 31
0.0
  0
LINE
  5
DE
330
1F
100
AcDbEntity
  8
B-2
  6
Continuous
 62
     3
370
     9
100
AcDbLine
 10
-448.542208284945
 20
464.198938318201
 30
0.0
 11
-448.542208284945
 21
417.9384551177155
 31
0.0
  0
LINE
  5
DF
330
1F
100
AcDbEntity
  8
B-2
  6
Continuous
 62
     3
370
     9
100
AcDbLine
 10
-483.542200036951
 20
464.198938318201
 30
0.0
 11
-483.542200036951
 21
417.9384551177155
 31
0.0
  0
LINE
  5
E0
330
1F
100
AcDbEntity
  8
B-2
  6
Continuous
 62
     3
370
     9
100
AcDbLine
 10
-478.5419361011402
 20
464.198938318201
 30
0.0
 11
-478.5419361011402
 21
417.9384551177155
 31
0.0
  0
LINE
  5
E1
330
1F
100
AcDbEntity
  8
B-2
  6
Continuous
 62
     3
370
     9
100
AcDbLine
 10
-513.5418041332348
 20
464.198938318201
 30
0.0
 11
-513.5418041332348
 21
417.9384551177155
 31
0.0
  0
LINE
  5
E2
330
1F
100
AcDbEntity
  8
B-2
  6
Continuous
 62
     3
370
     9
100
AcDbLine
 10
-508.541540197424
 20
464.198938318201
 30
0.0
 11
-508.541540197424
 21
417.9384551177155
 31
0.0
  0
LINE
  5
E3
330
1F
100
AcDbEntity
  8
B-2
  6
Continuous
 62
     3
370
     9
100
AcDbLine
 10
-183.5418288772171
 20
464.198938318201
 30
0.0
 11
-183.5418288772171
 21
417.9384551177155
 31
0.0
  0
LINE
  5
E4
330
1F
100
AcDbEntity
  8
B-2
  6
Continuous
 62
     3
370
     9
100
AcDbLine
 10
-178.5420598210514
 20
464.198938318201
 30
0.0
 11
-178.5420598210514
 21
417.9384551177155
 31
0.0
  0
LINE
  5
E5
330
1F
100
AcDbEntity
  8
B-2
  6
Continuous
 62
     3
370
     9
100
AcDbLine
 10
-88.5421340529983
 20
468.6987552127323
 30
0.0
 11
-88.5421340529983
 21
58.69888718063777
 31
0.0
  0
LINE
  5
E6
330
1F
100
AcDbEntity
  8
B-2
  6
Continuous
 62
     3
370
     9
100
AcDbLine
 10
-573.5421258050042
 20
117.9385169776711
 30
0.0
 11
-88.5421340529983
 21
117.9385169776711
 31
0.0
  0
LINE
  5
E7
330
1F
100
AcDbEntity
  8
B-2
  6
Continuous
 62
     3
370
     9
100
AcDbLine
 10
-573.5421258050042
 20
109.4582593763197
 30
0.0
 11
-88.5421340529983
 21
109.4582593763197
 31
0.0
  0
LINE
  5
E8
330
1F
100
AcDbEntity
  8
B-2
  6
Continuous
 62
     3
370
     9
100
AcDbLine
 10
-88.54151545344166
 20
117.9385169776711
 30
0.0
 11
-118.5422330289273
 21
109.4582593763197
 31
0.0
  0
LINE
  5
E9
330
1F
100
AcDbEntity
  8
B-2
  6
Continuous
 62
     3
370
     9
100
AcDbLine
 10
-178.5420598210514
 20
117.9385169776711
 30
0.0
 11
-208.5422825168918
 21
109.4582593763197
 31
0.0
  0
LINE
  5
EA
330
1F
100
AcDbEntity
  8
B-2
  6
Continuous
 62
     3
370
     9
100
AcDbLine
 10
-208.5422825168918
 20
117.9385169776711
 30
0.0
 11
-238.541639173353
 21
109.4582593763197
 31
0.0
  0
LINE
  5
EB
330
1F
100
AcDbEntity
  8
B-2
  6
Continuous
 62
     3
370
     9
100
AcDbLine
 10
-238.541639173353
 20
117.9385169776711
 30
0.0
 11
-268.5419855891047
 21
109.4582593763197
 31
0.0
  0
LINE
  5
EC
330
1F
100
AcDbEntity
  8
B-2
  6
Continuous
 62
     3
370
     9
100
AcDbLine
 10
-268.5419855891047
 20
117.9385169776711
 30
0.0
 11
-298.5419608451224
 21
109.4582593763197
 31
0.0
  0
LINE
  5
ED
330
1F
100
AcDbEntity
  8
B-2
  6
Continuous
 62
     3
370
     9
100
AcDbLine
 10
-298.5419608451224
 20
117.9385169776711
 30
0.0
 11
-328.5421835409628
 21
109.4582593763197
 31
0.0
  0
LINE
  5
EE
330
1F
100
AcDbEntity
  8
B-2
  6
Continuous
 62
     3
370
     9
100
AcDbLine
 10
-328.5416886613176
 20
117.9385169776711
 30
0.0
 11
-358.5422825168918
 21
109.4582593763197
 31
0.0
  0
LINE
  5
EF
330
1F
100
AcDbEntity
  8
B-2
  6
Continuous
 62
     3
370
     9
100
AcDbLine
 10
-358.5419113571579
 20
117.9385169776711
 30
0.0
 11
-388.542010333087
 21
109.4582593763197
 31
0.0
  0
LINE
  5
F0
330
1F
100
AcDbEntity
  8
B-2
  6
Continuous
 62
     3
370
     9
100
AcDbLine
 10
-388.542010333087
 20
117.9385169776711
 30
0.0
 11
-418.5416144293708
 21
109.4582593763197
 31
0.0
  0
LINE
  5
F1
330
1F
100
AcDbEntity
  8
B-2
  6
Continuous
 62
     3
370
     9
100
AcDbLine
 10
-418.5416144293708
 20
117.9385169776711
 30
0.0
 11
-448.542208284945
 21
109.4582593763197
 31
0.0
  0
LINE
  5
F2
330
1F
100
AcDbEntity
  8
B-2
  6
Continuous
 62
     3
370
     9
100
AcDbLine
 10
-448.542208284945
 20
117.9385169776711
 30
0.0
 11
-478.5419361011402
 21
109.4582593763197
 31
0.0
  0
LINE
  5
F3
330
1F
100
AcDbEntity
  8
B-2
  6
Continuous
 62
     3
370
     9
100
AcDbLine
 10
-478.5419361011402
 20
117.9385169776711
 30
0.0
 11
-508.541540197424
 21
109.4582593763197
 31
0.0
  0
LINE
  5
F4
330
1F
100
AcDbEntity
  8
B-2
  6
Continuous
 62
     3
370
     9
100
AcDbLine
 10
-508.541540197424
 20
117.9385169776711
 30
0.0
 11
-538.5421340529983
 21
109.4582593763197
 31
0.0
  0
LINE
  5
F5
330
1F
100
AcDbEntity
  8
B-2
  6
Continuous
 62
     3
370
     9
100
AcDbLine
 10
-538.5421340529983
 20
117.9385169776711
 30
0.0
 11
-568.5418618691933
 21
109.4582593763197
 31
0.0
  0
LINE
  5
F6
330
1F
100
AcDbEntity
  8
B-2
  6
Continuous
 62
     3
370
     9
100
AcDbLine
 10
-568.5418618691933
 20
117.9385169776711
 30
0.0
 11
-573.5421258050042
 21
116.9383652145798
 31
0.0
  0
LINE
  5
F7
330
1F
100
AcDbEntity
  8
B-2
  6
Continuous
 62
     3
370
     9
100
AcDbLine
 10
-568.5418618691933
 20
63.19870407516902
 30
0.0
 11
-568.5418618691933
 21
109.4582593763197
 31
0.0
  0
LINE
  5
F8
330
1F
100
AcDbEntity
  8
B-2
  6
Continuous
 62
     3
370
     9
100
AcDbLine
 10
-93.5419031091638
 20
109.4582593763197
 30
0.0
 11
-93.5419031091638
 21
63.19870407516902
 31
0.0
  0
LINE
  5
F9
330
1F
100
AcDbEntity
  8
B-2
  6
Continuous
 62
     3
370
     9
100
AcDbLine
 10
-178.5420598210514
 20
109.4582593763197
 30
0.0
 11
-178.5420598210514
 21
63.19870407516902
 31
0.0
  0
LINE
  5
FA
330
1F
100
AcDbEntity
  8
B-2
  6
Continuous
 62
     3
370
     9
100
AcDbLine
 10
-183.5418288772171
 20
109.4582593763197
 30
0.0
 11
-183.5418288772171
 21
63.19870407516902
 31
0.0
  0
LINE
  5
FB
330
1F
100
AcDbEntity
  8
B-2
  6
Continuous
 62
     3
370
     9
100
AcDbLine
 10
-208.5422825168918
 20
109.4582593763197
 30
0.0
 11
-208.5422825168918
 21
63.19870407516902
 31
0.0
  0
LINE
  5
FC
330
1F
100
AcDbEntity
  8
B-2
  6
Continuous
 62
     3
370
     9
100
AcDbLine
 10
-213.5419278531461
 20
109.4582593763197
 30
0.0
 11
-213.5419278531461
 21
63.19870407516902
 31
0.0
  0
LINE
  5
FD
330
1F
100
AcDbEntity
  8
B-2
  6
Continuous
 62
     3
370
     9
100
AcDbLine
 10
-238.541639173353
 20
109.4582593763197
 30
0.0
 11
-238.541639173353
 21
63.19870407516902
 31
0.0
  0
LINE
  5
FE
330
1F
100
AcDbEntity
  8
B-2
  6
Continuous
 62
     3
370
     9
100
AcDbLine
 10
-243.5419031091638
 20
109.4582593763197
 30
0.0
 11
-243.5419031091638
 21
63.19870407516902
 31
0.0
  0
LINE
  5
FF
330
1F
100
AcDbEntity
  8
B-2
  6
Continuous
 62
     3
370
     9
100
AcDbLine
 10
-268.5419855891047
 20
109.4582593763197
 30
0.0
 11
-268.5419855891047
 21
63.19870407516902
 31
0.0
  0
LINE
  5
100
330
1F
100
AcDbEntity
  8
B-2
  6
Continuous
 62
     3
370
     9
100
AcDbLine
 10
-273.5417546452702
 20
109.4582593763197
 30
0.0
 11
-273.5417546452702
 21
63.19870407516902
 31
0.0
  0
LINE
  5
101
330
1F
100
AcDbEntity
  8
B-2
  6
Continuous
 62
     3
370
     9
100
AcDbLine
 10
-298.5419608451224
 20
109.4582593763197
 30
0.0
 11
-298.5419608451224
 21
63.19870407516902
 31
0.0
  0
LINE
  5
102
330
1F
100
AcDbEntity
  8
B-2
  6
Continuous
 62
     3
370
     9
100
AcDbLine
 10
-303.5418536211994
 20
109.4582593763197
 30
0.0
 11
-303.5418536211994
 21
63.19870407516902
 31
0.0
  0
LINE
  5
103
330
1F
100
AcDbEntity
  8
B-2
  6
Continuous
 62
     3
370
     9
100
AcDbLine
 10
-328.5421835409628
 20
109.4582593763197
 30
0.0
 11
-328.5421835409628
 21
63.19870407516902
 31
0.0
  0
LINE
  5
104
330
1F
100
AcDbEntity
  8
B-2
  6
Continuous
 62
     3
370
     9
100
AcDbLine
 10
-333.5419525971284
 20
109.4582593763197
 30
0.0
 11
-333.5419525971284
 21
63.19870407516902
 31
0.0
  0
LINE
  5
105
330
1F
100
AcDbEntity
  8
B-2
  6
Continuous
 62
     3
370
     9
100
AcDbLine
 10
-358.5422825168918
 20
109.4582593763197
 30
0.0
 11
-358.5422825168918
 21
63.19870407516902
 31
0.0
  0
LINE
  5
106
330
1F
100
AcDbEntity
  8
B-2
  6
Continuous
 62
     3
370
     9
100
AcDbLine
 10
-363.5416804133234
 20
109.4582593763197
 30
0.0
 11
-363.5416804133234
 21
63.19870407516902
 31
0.0
  0
LINE
  5
107
330
1F
100
AcDbEntity
  8
B-2
  6
Continuous
 62
     3
370
     9
100
AcDbLine
 10
-388.542010333087
 20
109.4582593763197
 30
0.0
 11
-388.542010333087
 21
63.19870407516902
 31
0.0
  0
LINE
  5
108
330
1F
100
AcDbEntity
  8
B-2
  6
Continuous
 62
     3
370
     9
100
AcDbLine
 10
-393.5411607896959
 20
109.4582593763197
 30
0.0
 11
-393.5411607896959
 21
63.19870407516902
 31
0.0
  0
LINE
  5
109
330
1F
100
AcDbEntity
  8
B-2
  6
Continuous
 62
     3
370
     9
100
AcDbLine
 10
-418.5416144293708
 20
109.4582593763197
 30
0.0
 11
-418.5416144293708
 21
63.19870407516902
 31
0.0
  0
LINE
  5
10A
330
1F
100
AcDbEntity
  8
B-2
  6
Continuous
 62
     3
370
     9
100
AcDbLine
 10
-423.5418783651816
 20
109.4582593763197
 30
0.0
 11
-423.5418783651816
 21
63.19870407516902
 31
0.0
  0
LINE
  5
10B
330
1F
100
AcDbEntity
  8
B-2
  6
Continuous
 62
     3
370
     9
100
AcDbLine
 10
-448.542208284945
 20
109.4582593763197
 30
0.0
 11
-448.542208284945
 21
63.19870407516902
 31
0.0
  0
LINE
  5
10C
330
1F
100
AcDbEntity
  8
B-2
  6
Continuous
 62
     3
370
     9
100
AcDbLine
 10
-453.5416061813766
 20
109.4582593763197
 30
0.0
 11
-453.5416061813766
 21
63.19870407516902
 31
0.0
  0
LINE
  5
10D
330
1F
100
AcDbEntity
  8
B-2
  6
Continuous
 62
     3
370
     9
100
AcDbLine
 10
-478.5419361011402
 20
109.4582593763197
 30
0.0
 11
-478.5419361011402
 21
63.19870407516902
 31
0.0
  0
LINE
  5
10E
330
1F
100
AcDbEntity
  8
B-2
  6
Continuous
 62
     3
370
     9
100
AcDbLine
 10
-483.542200036951
 20
109.4582593763197
 30
0.0
 11
-483.542200036951
 21
63.19870407516902
 31
0.0
  0
LINE
  5
10F
330
1F
100
AcDbEntity
  8
B-2
  6
Continuous
 62
     3
370
     9
100
AcDbLine
 10
-508.541540197424
 20
109.4582593763197
 30
0.0
 11
-508.541540197424
 21
63.19870407516902
 31
0.0
  0
LINE
  5
110
330
1F
100
AcDbEntity
  8
B-2
  6
Continuous
 62
     3
370
     9
100
AcDbLine
 10
-513.5418041332348
 20
109.4582593763197
 30
0.0
 11
-513.5418041332348
 21
63.19870407516902
 31
0.0
  0
LINE
  5
111
330
1F
100
AcDbEntity
  8
B-2
  6
Continuous
 62
     3
370
     9
100
AcDbLine
 10
-538.5421340529983
 20
109.4582593763197
 30
0.0
 11
-538.5421340529983
 21
63.19870407516902
 31
0.0
  0
LINE
  5
112
330
1F
100
AcDbEntity
  8
B-2
  6
Continuous
 62
     3
370
     9
100
AcDbLine
 10
-543.5415319494299
 20
109.4582593763197
 30
0.0
 11
-543.5415319494299
 21
63.19870407516902
 31
0.0
  0
LINE
  5
113
330
1F
100
AcDbEntity
  8
B-2
  6
Continuous
 62
     3
370
     9
100
AcDbLine
 10
-568.5418618691933
 20
317.9384963576858
 30
0.0
 11
-568.5418618691933
 21
409.458939835832
 31
0.0
  0
LINE
  5
114
330
1F
100
AcDbEntity
  8
B-2
  6
Continuous
 62
     3
370
     9
100
AcDbLine
 10
-568.5418618691933
 20
417.9384551177155
 30
0.0
 11
-568.5418618691933
 21
464.198938318201
 31
0.0
  0
LINE
  5
115
330
1F
100
AcDbEntity
  8
B-2
  6
Continuous
 62
     3
370
     9
100
AcDbLine
 10
-93.5419031091638
 20
464.198938318201
 30
0.0
 11
-93.5419031091638
 21
417.9384551177155
 31
0.0
  0
LINE
  5
116
330
1F
100
AcDbEntity
  8
B-2
  6
Continuous
 62
     3
370
     9
100
AcDbLine
 10
-93.5419031091638
 20
409.458939835832
 30
0.0
 11
-93.5419031091638
 21
317.9384963576858
 31
0.0
  0
LINE
  5
117
330
1F
100
AcDbEntity
  8
B-2
  6
Continuous
 62
     3
370
     9
100
AcDbLine
 10
478.3647691881336
 20
464.1986908783784
 30
0.0
 11
478.3647691881336
 21
468.6987552127323
 31
0.0
  0
LINE
  5
118
330
1F
100
AcDbEntity
  8
B-2
  6
Continuous
 62
     3
370
     9
100
AcDbLine
 10
467.850061365076
 20
413.6985737568624
 30
0.0
 11
463.6073344462628
 21
409.4559705579604
 31
0.0
  0
LINE
  5
119
330
1F
100
AcDbEntity
  8
B-2
  6
Continuous
 62
     3
370
     9
100
AcDbLine
 10
463.6073344462628
 20
409.4559705579604
 30
0.0
 11
459.3647312473607
 21
413.6985737568624
 31
0.0
  0
LINE
  5
11A
330
1F
100
AcDbEntity
  8
B-2
  6
Continuous
 62
     3
370
     9
100
AcDbLine
 10
459.3647312473607
 20
413.6985737568624
 30
0.0
 11
463.6073344462628
 21
417.9411769557645
 31
0.0
  0
LINE
  5
11B
330
1F
100
AcDbEntity
  8
B-2
  6
Continuous
 62
     3
370
     9
100
AcDbLine
 10
463.6073344462628
 20
417.9411769557645
 30
0.0
 11
467.850061365076
 21
413.6985737568624
 31
0.0
  0
LINE
  5
11C
330
1F
100
AcDbEntity
  8
B-A
  6
Continuous
 62
     3
370
     9
100
AcDbLine
 10
457.8646273226352
 20
459.910311312289
 30
0.0
 11
459.3647312473607
 21
459.3989769188134
 31
0.0
  0
LINE
  5
11D
330
1F
100
AcDbEntity
  8
B-A
  6
Continuous
 62
     3
370
     9
100
AcDbLine
 10
459.3647312473607
 20
459.3989769188134
 30
0.0
 11
459.3647312473607
 21
454.2857567039697
 31
0.0
  0
LINE
  5
11E
330
1F
100
AcDbEntity
  8
B-A
  6
Continuous
 62
     3
370
     9
100
AcDbLine
 10
457.8646273226352
 20
453.7744223104942
 30
0.0
 11
459.3647312473607
 21
454.2857567039697
 31
0.0
  0
LINE
  5
11F
330
1F
100
AcDbEntity
  8
B-A
  6
Continuous
 62
     3
370
     9
100
AcDbLine
 10
457.8646273226352
 20
453.7744223104942
 30
0.0
 11
457.8646273226352
 21
447.2270408836572
 31
0.0
  0
LINE
  5
120
330
1F
100
AcDbEntity
  8
B-A
  6
Continuous
 62
     3
370
     9
100
AcDbLine
 10
457.8646273226352
 20
447.2270408836572
 30
0.0
 11
459.3647312473607
 21
446.715830210093
 31
0.0
  0
LINE
  5
121
330
1F
100
AcDbEntity
  8
B-A
  6
Continuous
 62
     3
370
     9
100
AcDbLine
 10
457.8646273226352
 20
441.0912756017737
 30
0.0
 11
457.8646273226352
 21
436.6838774809968
 31
0.0
  0
LINE
  5
122
330
1F
100
AcDbEntity
  8
B-A
  6
Continuous
 62
     3
370
     9
100
AcDbLine
 10
457.8646273226352
 20
436.6838774809968
 30
0.0
 11
459.3647312473607
 21
436.1725430875213
 31
0.0
  0
LINE
  5
123
330
1F
100
AcDbEntity
  8
B-A
  6
Continuous
 62
     3
370
     9
100
AcDbLine
 10
459.3647312473607
 20
436.1725430875213
 30
0.0
 11
459.3647312473607
 21
431.0594465925888
 31
0.0
  0
LINE
  5
124
330
1F
100
AcDbEntity
  8
B-A
  6
Continuous
 62
     3
370
     9
100
AcDbLine
 10
457.8646273226352
 20
430.547988479202
 30
0.0
 11
459.3647312473607
 21
431.0594465925888
 31
0.0
  0
LINE
  5
125
330
1F
100
AcDbEntity
  8
B-A
  6
Continuous
 62
     3
370
     9
100
AcDbLine
 10
457.8646273226352
 20
430.547988479202
 30
0.0
 11
457.8646273226352
 21
424.0007307722763
 31
0.0
  0
LINE
  5
126
330
1F
100
AcDbEntity
  8
B-A
  6
Continuous
 62
     3
370
     9
100
AcDbLine
 10
457.8646273226352
 20
424.0007307722763
 30
0.0
 11
459.3647312473607
 21
423.4893963788008
 31
0.0
  0
LINE
  5
127
330
1F
100
AcDbEntity
  8
B-A
  6
Continuous
 62
     3
370
     9
100
AcDbLine
 10
457.8646273226352
 20
441.0912756017737
 30
0.0
 11
459.3647312473607
 21
441.6026099952492
 31
0.0
  0
LINE
  5
128
330
1F
100
AcDbEntity
  8
B-A
  6
Continuous
 62
     3
370
     9
100
AcDbLine
 10
459.3647312473607
 20
446.715830210093
 30
0.0
 11
459.3647312473607
 21
441.6026099952492
 31
0.0
  0
LINE
  5
129
330
1F
100
AcDbEntity
  8
B-A
  6
Continuous
 62
     3
370
     9
100
AcDbLine
 10
457.8646273226352
 20
417.8648417704815
 30
0.0
 11
457.8646273226352
 21
413.4574436497044
 31
0.0
  0
LINE
  5
12A
330
1F
100
AcDbEntity
  8
B-A
  6
Continuous
 62
     3
370
     9
100
AcDbLine
 10
457.8646273226352
 20
413.4574436497044
 30
0.0
 11
459.3647312473607
 21
412.9462329761402
 31
0.0
  0
LINE
  5
12B
330
1F
100
AcDbEntity
  8
B-A
  6
Continuous
 62
     3
370
     9
100
AcDbLine
 10
457.8646273226352
 20
417.8648417704815
 30
0.0
 11
459.3647312473607
 21
418.376176163957
 31
0.0
  0
LINE
  5
12C
330
1F
100
AcDbEntity
  8
B-A
  6
Continuous
 62
     3
370
     9
100
AcDbLine
 10
459.3647312473607
 20
423.4893963788008
 30
0.0
 11
459.3647312473607
 21
418.376176163957
 31
0.0
  0
LINE
  5
12D
330
1F
100
AcDbEntity
  8
B-A
  6
Continuous
 62
     3
370
     9
100
AcDbLine
 10
459.3647312473607
 20
412.9462329761402
 30
0.0
 11
459.3647312473607
 21
407.8330127612965
 31
0.0
  0
LINE
  5
12E
330
1F
100
AcDbEntity
  8
B-A
  6
Continuous
 62
     3
370
     9
100
AcDbLine
 10
457.8646273226352
 20
407.3215546479096
 30
0.0
 11
459.3647312473607
 21
407.8330127612965
 31
0.0
  0
LINE
  5
12F
330
1F
100
AcDbEntity
  8
B-A
  6
Continuous
 62
     3
370
     9
100
AcDbLine
 10
457.8646273226352
 20
407.3215546479096
 30
0.0
 11
457.8646273226352
 21
400.774296940984
 31
0.0
  0
LINE
  5
130
330
1F
100
AcDbEntity
  8
B-A
  6
Continuous
 62
     3
370
     9
100
AcDbLine
 10
457.8646273226352
 20
400.774296940984
 30
0.0
 11
459.3647312473607
 21
400.2630862674198
 31
0.0
  0
LINE
  5
131
330
1F
100
AcDbEntity
  8
B-A
  6
Continuous
 62
     3
370
     9
100
AcDbLine
 10
457.8646273226352
 20
394.6385316591005
 30
0.0
 11
457.8646273226352
 21
390.2311335383235
 31
0.0
  0
LINE
  5
132
330
1F
100
AcDbEntity
  8
B-A
  6
Continuous
 62
     3
370
     9
100
AcDbLine
 10
457.8646273226352
 20
390.2311335383235
 30
0.0
 11
459.3647312473607
 21
389.719799144848
 31
0.0
  0
LINE
  5
133
330
1F
100
AcDbEntity
  8
B-A
  6
Continuous
 62
     3
370
     9
100
AcDbLine
 10
457.8646273226352
 20
394.6385316591005
 30
0.0
 11
459.3647312473607
 21
395.149866052576
 31
0.0
  0
LINE
  5
134
330
1F
100
AcDbEntity
  8
B-A
  6
Continuous
 62
     3
370
     9
100
AcDbLine
 10
459.3647312473607
 20
400.2630862674198
 30
0.0
 11
459.3647312473607
 21
395.149866052576
 31
0.0
  0
LINE
  5
135
330
1F
100
AcDbEntity
  8
B-A
  6
Continuous
 62
     3
370
     9
100
AcDbLine
 10
459.3647312473607
 20
389.719799144848
 30
0.0
 11
459.3647312473607
 21
384.6067026499156
 31
0.0
  0
LINE
  5
136
330
1F
100
AcDbEntity
  8
B-A
  6
Continuous
 62
     3
370
     9
100
AcDbLine
 10
457.8646273226352
 20
384.0952445365288
 30
0.0
 11
459.3647312473607
 21
384.6067026499156
 31
0.0
  0
LINE
  5
137
330
1F
100
AcDbEntity
  8
B-A
  6
Continuous
 62
     3
370
     9
100
AcDbLine
 10
457.8646273226352
 20
384.0952445365288
 30
0.0
 11
457.8646273226352
 21
377.5478631096918
 31
0.0
  0
LINE
  5
138
330
1F
100
AcDbEntity
  8
B-A
  6
Continuous
 62
     3
370
     9
100
AcDbLine
 10
457.8646273226352
 20
377.5478631096918
 30
0.0
 11
459.3647312473607
 21
377.0366524361276
 31
0.0
  0
LINE
  5
139
330
1F
100
AcDbEntity
  8
B-A
  6
Continuous
 62
     3
370
     9
100
AcDbLine
 10
457.8646273226352
 20
371.4120978278083
 30
0.0
 11
457.8646273226352
 21
367.0046997070312
 31
0.0
  0
LINE
  5
13A
330
1F
100
AcDbEntity
  8
B-A
  6
Continuous
 62
     3
370
     9
100
AcDbLine
 10
457.8646273226352
 20
367.0046997070312
 30
0.0
 11
459.3647312473607
 21
366.4933653135558
 31
0.0
  0
LINE
  5
13B
330
1F
100
AcDbEntity
  8
B-A
  6
Continuous
 62
     3
370
     9
100
AcDbLine
 10
457.8646273226352
 20
371.4120978278083
 30
0.0
 11
459.3647312473607
 21
371.9234322212839
 31
0.0
  0
LINE
  5
13C
330
1F
100
AcDbEntity
  8
B-A
  6
Continuous
 62
     3
370
     9
100
AcDbLine
 10
459.3647312473607
 20
377.0366524361276
 30
0.0
 11
459.3647312473607
 21
371.9234322212839
 31
0.0
  0
LINE
  5
13D
330
1F
100
AcDbEntity
  8
B-A
  6
Continuous
 62
     3
370
     9
100
AcDbLine
 10
459.3647312473607
 20
366.4933653135558
 30
0.0
 11
459.3647312473607
 21
361.3802688186233
 31
0.0
  0
LINE
  5
13E
330
1F
100
AcDbEntity
  8
B-1
  6
Continuous
 62
     2
370
     9
100
AcDbLine
 10
547.9646424989443
 20
421.6987981023016
 30
0.0
 11
490.7647210198482
 21
421.6987981023016
 31
0.0
  0
LINE
  5
13F
330
1F
100
AcDbEntity
  8
B-1
  6
Continuous
 62
     2
370
     9
100
AcDbLine
 10
547.9646424989443
 20
458.4987908440668
 30
0.0
 11
490.7645972999367
 21
458.4987908440668
 31
0.0
  0
LINE
  5
140
330
1F
100
AcDbEntity
  8
B-1
  6
Continuous
 62
     2
370
     9
100
AcDbLine
 10
551.1647817250846
 20
428.0988291147594
 30
0.0
 11
551.1647817250846
 21
455.2986516179266
 31
0.0
  0
LINE
  5
141
330
1F
100
AcDbEntity
  8
B-1
  6
Continuous
 62
     2
370
     9
100
AcDbLine
 10
547.9646424989443
 20
461.6986826303844
 30
0.0
 11
490.7647210198482
 21
461.6986826303844
 31
0.0
  0
LINE
  5
142
330
1F
100
AcDbEntity
  8
B-1
  6
Continuous
 62
     2
370
     9
100
AcDbLine
 10
554.3646735114021
 20
428.0988291147594
 30
0.0
 11
554.3646735114021
 21
455.2988990577492
 31
0.0
  0
LINE
  5
143
330
1F
100
AcDbEntity
  8
B-1
  6
Continuous
 62
     2
370
     9
100
AcDbLine
 10
490.7647210198482
 20
424.8988136085305
 30
0.0
 11
547.9646424989443
 21
424.8988136085305
 31
0.0
  0
LINE
  5
144
330
1F
100
AcDbEntity
  8
B-1
  6
Continuous
 62
     2
370
     9
100
AcDbLine
 10
487.5645817937078
 20
428.0988291147594
 30
0.0
 11
487.5645817937078
 21
455.2986516179266
 31
0.0
  0
LINE
  5
145
330
1F
100
AcDbEntity
  8
B-2
  6
Continuous
 62
     3
370
     9
100
AcDbLine
 10
464.8646999049831
 20
464.1986908783784
 30
0.0
 11
464.8646999049831
 21
416.683811497044
 31
0.0
  0
LINE
  5
146
330
1F
100
AcDbEntity
  8
B-2
  6
Continuous
 62
     3
370
     9
100
AcDbLine
 10
463.8647955817146
 20
464.1986908783784
 30
0.0
 11
463.8647955817146
 21
417.6838395402239
 31
0.0
  0
LINE
  5
147
330
1F
100
AcDbEntity
  8
B-2
  6
Continuous
 62
     3
370
     9
100
AcDbLine
 10
484.3646900073904
 20
464.1986908783784
 30
0.0
 11
484.3646900073904
 21
313.6988624366555
 31
0.0
  0
LINE
  5
148
330
1F
100
AcDbEntity
  8
B-2
  6
Continuous
 62
     3
370
     9
100
AcDbLine
 10
479.8647493929477
 20
464.1986908783784
 30
0.0
 11
479.8647493929477
 21
313.6988624366555
 31
0.0
  0
LINE
  5
149
330
1F
100
AcDbEntity
  8
B-2
  6
Continuous
 62
     3
370
     9
100
AcDbLine
 10
478.8647213497677
 20
464.1986908783784
 30
0.0
 11
478.8647213497677
 21
313.6988624366555
 31
0.0
  0
LINE
  5
14A
330
1F
100
AcDbEntity
  8
B-2
  6
JWW_CENTER1
 62
     3
370
     9
100
AcDbLine
 10
442.1414349530195
 20
263.698821196685
 30
0.0
 11
503.496365933805
 21
263.698821196685
 31
0.0
  0
LINE
  5
14B
330
1F
100
AcDbEntity
  8
B-2
  6
Continuous
 62
     3
370
     9
100
AcDbLine
 10
463.6073344462628
 20
309.4560117979308
 30
0.0
 11
459.3647312473607
 21
313.6986149968328
 31
0.0
  0
LINE
  5
14C
330
1F
100
AcDbEntity
  8
B-2
  6
Continuous
 62
     3
370
     9
100
AcDbLine
 10
459.3647312473607
 20
313.6986149968328
 30
0.0
 11
463.6073344462628
 21
317.9412181957349
 31
0.0
  0
LINE
  5
14D
330
1F
100
AcDbEntity
  8
B-2
  6
Continuous
 62
     3
370
     9
100
AcDbLine
 10
463.6073344462628
 20
317.9412181957349
 30
0.0
 11
467.850061365076
 21
313.6986149968328
 31
0.0
  0
LINE
  5
14E
330
1F
100
AcDbEntity
  8
B-2
  6
Continuous
 62
     3
370
     9
100
AcDbLine
 10
463.8647955817146
 20
409.7134316934122
 30
0.0
 11
463.8647955817146
 21
317.6836333403716
 31
0.0
  0
LINE
  5
14F
330
1F
100
AcDbEntity
  8
B-2
  6
Continuous
 62
     3
370
     9
100
AcDbLine
 10
464.8646999049831
 20
410.7133360166808
 30
0.0
 11
464.8646999049831
 21
316.6838527370145
 31
0.0
  0
LINE
  5
150
330
1F
100
AcDbEntity
  8
B-2
  6
Continuous
 62
     3
370
     9
100
AcDbLine
 10
467.850061365076
 20
313.6986149968328
 30
0.0
 11
463.6073344462628
 21
309.4560117979308
 31
0.0
  0
LINE
  5
151
330
1F
100
AcDbEntity
  8
B-2
  6
Continuous
 62
     3
370
     9
100
AcDbLine
 10
478.3647691881336
 20
63.19895151499153
 30
0.0
 11
478.3647691881336
 21
58.69888718063777
 31
0.0
  0
LINE
  5
152
330
1F
100
AcDbEntity
  8
B-2
  6
Continuous
 62
     3
370
     9
100
AcDbLine
 10
467.850061365076
 20
113.699006776552
 30
0.0
 11
463.6073344462628
 21
117.941609975454
 31
0.0
  0
LINE
  5
153
330
1F
100
AcDbEntity
  8
B-2
  6
Continuous
 62
     3
370
     9
100
AcDbLine
 10
463.6073344462628
 20
117.941609975454
 30
0.0
 11
459.3647312473607
 21
113.699006776552
 31
0.0
  0
LINE
  5
154
330
1F
100
AcDbEntity
  8
B-2
  6
Continuous
 62
     3
370
     9
100
AcDbLine
 10
459.3647312473607
 20
113.699006776552
 30
0.0
 11
463.6073344462628
 21
109.45640357765
 31
0.0
  0
LINE
  5
155
330
1F
100
AcDbEntity
  8
B-2
  6
Continuous
 62
     3
370
     9
100
AcDbLine
 10
463.6073344462628
 20
109.45640357765
 30
0.0
 11
467.850061365076
 21
113.699006776552
 31
0.0
  0
LINE
  5
156
330
1F
100
AcDbEntity
  8
B-1
  6
Continuous
 62
     2
370
     9
100
AcDbLine
 10
547.9646424989443
 20
105.6988442910685
 30
0.0
 11
490.7647210198482
 21
105.6988442910685
 31
0.0
  0
LINE
  5
157
330
1F
100
AcDbEntity
  8
B-1
  6
Continuous
 62
     2
370
     9
100
AcDbLine
 10
547.9646424989443
 20
68.89885154930326
 30
0.0
 11
490.7645972999367
 21
68.89885154930326
 31
0.0
  0
LINE
  5
158
330
1F
100
AcDbEntity
  8
B-1
  6
Continuous
 62
     2
370
     9
100
AcDbLine
 10
551.1647817250846
 20
99.29881327861068
 30
0.0
 11
551.1647817250846
 21
72.0989907754435
 31
0.0
  0
LINE
  5
159
330
1F
100
AcDbEntity
  8
B-1
  6
Continuous
 62
     2
370
     9
100
AcDbLine
 10
547.9646424989443
 20
65.69895976298568
 30
0.0
 11
490.7647210198482
 21
65.69895976298568
 31
0.0
  0
LINE
  5
15A
330
1F
100
AcDbEntity
  8
B-1
  6
Continuous
 62
     2
370
     9
100
AcDbLine
 10
554.3646735114021
 20
99.29881327861068
 30
0.0
 11
554.3646735114021
 21
72.09874333562084
 31
0.0
  0
LINE
  5
15B
330
1F
100
AcDbEntity
  8
B-1
  6
Continuous
 62
     2
370
     9
100
AcDbLine
 10
490.7647210198482
 20
102.4988287848396
 30
0.0
 11
547.9646424989443
 21
102.4988287848396
 31
0.0
  0
LINE
  5
15C
330
1F
100
AcDbEntity
  8
B-1
  6
Continuous
 62
     2
370
     9
100
AcDbLine
 10
487.5645817937078
 20
99.29881327861068
 30
0.0
 11
487.5645817937078
 21
72.0989907754435
 31
0.0
  0
LINE
  5
15D
330
1F
100
AcDbEntity
  8
B-2
  6
Continuous
 62
     3
370
     9
100
AcDbLine
 10
464.8646999049831
 20
63.19895151499153
 30
0.0
 11
464.8646999049831
 21
110.7137690363705
 31
0.0
  0
LINE
  5
15E
330
1F
100
AcDbEntity
  8
B-2
  6
Continuous
 62
     3
370
     9
100
AcDbLine
 10
463.8647955817146
 20
63.19895151499153
 30
0.0
 11
463.8647955817146
 21
109.7137409931905
 31
0.0
  0
LINE
  5
15F
330
1F
100
AcDbEntity
  8
B-2
  6
Continuous
 62
     3
370
     9
100
AcDbLine
 10
484.3646900073904
 20
63.19895151499153
 30
0.0
 11
484.3646900073904
 21
313.6988624366555
 31
0.0
  0
LINE
  5
160
330
1F
100
AcDbEntity
  8
B-2
  6
Continuous
 62
     3
370
     9
100
AcDbLine
 10
479.8647493929477
 20
63.19895151499153
 30
0.0
 11
479.8647493929477
 21
313.6988624366555
 31
0.0
  0
LINE
  5
161
330
1F
100
AcDbEntity
  8
B-2
  6
Continuous
 62
     3
370
     9
100
AcDbLine
 10
478.8647213497677
 20
63.19895151499153
 30
0.0
 11
478.8647213497677
 21
313.6988624366555
 31
0.0
  0
LINE
  5
162
330
1F
100
AcDbEntity
  8
B-A
  6
Continuous
 62
     3
370
     9
100
AcDbLine
 10
457.8646273226352
 20
360.8688107052366
 30
0.0
 11
459.3647312473607
 21
361.3802688186233
 31
0.0
  0
LINE
  5
163
330
1F
100
AcDbEntity
  8
B-A
  6
Continuous
 62
     3
370
     9
100
AcDbLine
 10
457.8646273226352
 20
360.8688107052366
 30
0.0
 11
457.8646273226352
 21
354.3214292783996
 31
0.0
  0
LINE
  5
164
330
1F
100
AcDbEntity
  8
B-A
  6
Continuous
 62
     3
370
     9
100
AcDbLine
 10
457.8646273226352
 20
354.3214292783996
 30
0.0
 11
459.3647312473607
 21
353.8102186048354
 31
0.0
  0
LINE
  5
165
330
1F
100
AcDbEntity
  8
B-A
  6
Continuous
 62
     3
370
     9
100
AcDbLine
 10
457.8646273226352
 20
348.1856639965162
 30
0.0
 11
457.8646273226352
 21
343.7782658757391
 31
0.0
  0
LINE
  5
166
330
1F
100
AcDbEntity
  8
B-A
  6
Continuous
 62
     3
370
     9
100
AcDbLine
 10
457.8646273226352
 20
343.7782658757391
 30
0.0
 11
459.3647312473607
 21
343.2669314822635
 31
0.0
  0
LINE
  5
167
330
1F
100
AcDbEntity
  8
B-A
  6
Continuous
 62
     3
370
     9
100
AcDbLine
 10
457.8646273226352
 20
348.1856639965162
 30
0.0
 11
459.3647312473607
 21
348.6969983899917
 31
0.0
  0
LINE
  5
168
330
1F
100
AcDbEntity
  8
B-A
  6
Continuous
 62
     3
370
     9
100
AcDbLine
 10
459.3647312473607
 20
353.8102186048354
 30
0.0
 11
459.3647312473607
 21
348.6969983899917
 31
0.0
  0
LINE
  5
169
330
1F
100
AcDbEntity
  8
B-A
  6
Continuous
 62
     3
370
     9
100
AcDbLine
 10
459.3647312473607
 20
343.2669314822635
 30
0.0
 11
459.3647312473607
 21
338.1538349873312
 31
0.0
  0
LINE
  5
16A
330
1F
100
AcDbEntity
  8
B-A
  6
Continuous
 62
     3
370
     9
100
AcDbLine
 10
457.8646273226352
 20
337.6423768739443
 30
0.0
 11
459.3647312473607
 21
338.1538349873312
 31
0.0
  0
LINE
  5
16B
330
1F
100
AcDbEntity
  8
B-A
  6
Continuous
 62
     3
370
     9
100
AcDbLine
 10
457.8646273226352
 20
337.6423768739443
 30
0.0
 11
457.8646273226352
 21
331.0949954471073
 31
0.0
  0
LINE
  5
16C
330
1F
100
AcDbEntity
  8
B-A
  6
Continuous
 62
     3
370
     9
100
AcDbLine
 10
457.8646273226352
 20
331.0949954471073
 30
0.0
 11
459.3647312473607
 21
330.5837847735431
 31
0.0
  0
LINE
  5
16D
330
1F
100
AcDbEntity
  8
B-A
  6
Continuous
 62
     3
370
     9
100
AcDbLine
 10
457.8646273226352
 20
324.9592301652239
 30
0.0
 11
457.8646273226352
 21
320.5518320444469
 31
0.0
  0
LINE
  5
16E
330
1F
100
AcDbEntity
  8
B-A
  6
Continuous
 62
     3
370
     9
100
AcDbLine
 10
457.8646273226352
 20
320.5518320444469
 30
0.0
 11
459.3647312473607
 21
320.0404976509714
 31
0.0
  0
LINE
  5
16F
330
1F
100
AcDbEntity
  8
B-A
  6
Continuous
 62
     3
370
     9
100
AcDbLine
 10
457.8646273226352
 20
324.9592301652239
 30
0.0
 11
459.3647312473607
 21
325.4705645586994
 31
0.0
  0
LINE
  5
170
330
1F
100
AcDbEntity
  8
B-A
  6
Continuous
 62
     3
370
     9
100
AcDbLine
 10
459.3647312473607
 20
330.5837847735431
 30
0.0
 11
459.3647312473607
 21
325.4705645586994
 31
0.0
  0
LINE
  5
171
330
1F
100
AcDbEntity
  8
B-A
  6
Continuous
 62
     3
370
     9
100
AcDbLine
 10
459.3647312473607
 20
320.0404976509714
 30
0.0
 11
459.3647312473607
 21
314.927401156039
 31
0.0
  0
LINE
  5
172
330
1F
100
AcDbEntity
  8
B-A
  6
Continuous
 62
     3
370
     9
100
AcDbLine
 10
457.8646273226352
 20
314.4159430426521
 30
0.0
 11
459.3647312473607
 21
314.927401156039
 31
0.0
  0
LINE
  5
173
330
1F
100
AcDbEntity
  8
B-A
  6
Continuous
 62
     3
370
     9
100
AcDbLine
 10
457.8646273226352
 20
314.4159430426521
 30
0.0
 11
457.8646273226352
 21
307.8685616158151
 31
0.0
  0
LINE
  5
174
330
1F
100
AcDbEntity
  8
B-A
  6
Continuous
 62
     3
370
     9
100
AcDbLine
 10
457.8646273226352
 20
307.8685616158151
 30
0.0
 11
459.3647312473607
 21
307.3573509422509
 31
0.0
  0
LINE
  5
175
330
1F
100
AcDbEntity
  8
B-A
  6
Continuous
 62
     3
370
     9
100
AcDbLine
 10
457.8646273226352
 20
301.7327963339317
 30
0.0
 11
457.8646273226352
 21
297.3253982131546
 31
0.0
  0
LINE
  5
176
330
1F
100
AcDbEntity
  8
B-A
  6
Continuous
 62
     3
370
     9
100
AcDbLine
 10
457.8646273226352
 20
297.3253982131546
 30
0.0
 11
459.3647312473607
 21
296.8140638196792
 31
0.0
  0
LINE
  5
177
330
1F
100
AcDbEntity
  8
B-A
  6
Continuous
 62
     3
370
     9
100
AcDbLine
 10
457.8646273226352
 20
301.7327963339317
 30
0.0
 11
459.3647312473607
 21
302.2441307274072
 31
0.0
  0
LINE
  5
178
330
1F
100
AcDbEntity
  8
B-A
  6
Continuous
 62
     3
370
     9
100
AcDbLine
 10
459.3647312473607
 20
307.3573509422509
 30
0.0
 11
459.3647312473607
 21
302.2441307274072
 31
0.0
  0
LINE
  5
179
330
1F
100
AcDbEntity
  8
B-A
  6
Continuous
 62
     3
370
     9
100
AcDbLine
 10
459.3647312473607
 20
296.8140638196792
 30
0.0
 11
459.3647312473607
 21
291.7009673247466
 31
0.0
  0
LINE
  5
17A
330
1F
100
AcDbEntity
  8
B-A
  6
Continuous
 62
     3
370
     9
100
AcDbLine
 10
457.8646273226352
 20
291.1895092113599
 30
0.0
 11
459.3647312473607
 21
291.7009673247466
 31
0.0
  0
LINE
  5
17B
330
1F
100
AcDbEntity
  8
B-A
  6
Continuous
 62
     3
370
     9
100
AcDbLine
 10
457.8646273226352
 20
291.1895092113599
 30
0.0
 11
457.8646273226352
 21
284.6421277845229
 31
0.0
  0
LINE
  5
17C
330
1F
100
AcDbEntity
  8
B-A
  6
Continuous
 62
     3
370
     9
100
AcDbLine
 10
457.8646273226352
 20
284.6421277845229
 30
0.0
 11
459.3647312473607
 21
284.1309171109588
 31
0.0
  0
LINE
  5
17D
330
1F
100
AcDbEntity
  8
B-A
  6
Continuous
 62
     3
370
     9
100
AcDbLine
 10
457.8646273226352
 20
278.5063625026395
 30
0.0
 11
457.8646273226352
 21
274.0989643818624
 31
0.0
  0
LINE
  5
17E
330
1F
100
AcDbEntity
  8
B-A
  6
Continuous
 62
     3
370
     9
100
AcDbLine
 10
457.8646273226352
 20
274.0989643818624
 30
0.0
 11
459.3647312473607
 21
273.5876299883869
 31
0.0
  0
LINE
  5
17F
330
1F
100
AcDbEntity
  8
B-A
  6
Continuous
 62
     3
370
     9
100
AcDbLine
 10
457.8646273226352
 20
278.5063625026395
 30
0.0
 11
459.3647312473607
 21
279.017696896115
 31
0.0
  0
LINE
  5
180
330
1F
100
AcDbEntity
  8
B-A
  6
Continuous
 62
     3
370
     9
100
AcDbLine
 10
459.3647312473607
 20
284.1309171109588
 30
0.0
 11
459.3647312473607
 21
279.017696896115
 31
0.0
  0
LINE
  5
181
330
1F
100
AcDbEntity
  8
B-A
  6
Continuous
 62
     3
370
     9
100
AcDbLine
 10
459.3647312473607
 20
273.5876299883869
 30
0.0
 11
459.3647312473607
 21
268.4745334934544
 31
0.0
  0
LINE
  5
182
330
1F
100
AcDbEntity
  8
B-A
  6
Continuous
 62
     3
370
     9
100
AcDbLine
 10
457.8646273226352
 20
267.9630753800676
 30
0.0
 11
459.3647312473607
 21
268.4745334934544
 31
0.0
  0
LINE
  5
183
330
1F
100
AcDbEntity
  8
B-A
  6
Continuous
 62
     3
370
     9
100
AcDbLine
 10
457.8646273226352
 20
267.9630753800676
 30
0.0
 11
457.8646273226352
 21
261.4156939532306
 31
0.0
  0
LINE
  5
184
330
1F
100
AcDbEntity
  8
B-A
  6
Continuous
 62
     3
370
     9
100
AcDbLine
 10
457.8646273226352
 20
261.4156939532306
 30
0.0
 11
459.3647312473607
 21
260.9044832796664
 31
0.0
  0
LINE
  5
185
330
1F
100
AcDbEntity
  8
B-A
  6
Continuous
 62
     3
370
     9
100
AcDbLine
 10
457.8646273226352
 20
255.2799286713471
 30
0.0
 11
457.8646273226352
 21
250.8725305505702
 31
0.0
  0
LINE
  5
186
330
1F
100
AcDbEntity
  8
B-A
  6
Continuous
 62
     3
370
     9
100
AcDbLine
 10
457.8646273226352
 20
250.8725305505702
 30
0.0
 11
459.3647312473607
 21
250.3611961570947
 31
0.0
  0
LINE
  5
187
330
1F
100
AcDbEntity
  8
B-A
  6
Continuous
 62
     3
370
     9
100
AcDbLine
 10
457.8646273226352
 20
255.2799286713471
 30
0.0
 11
459.3647312473607
 21
255.7912630648227
 31
0.0
  0
LINE
  5
188
330
1F
100
AcDbEntity
  8
B-A
  6
Continuous
 62
     3
370
     9
100
AcDbLine
 10
459.3647312473607
 20
260.9044832796664
 30
0.0
 11
459.3647312473607
 21
255.7912630648227
 31
0.0
  0
LINE
  5
189
330
1F
100
AcDbEntity
  8
B-A
  6
Continuous
 62
     3
370
     9
100
AcDbLine
 10
459.3647312473607
 20
250.3611961570947
 30
0.0
 11
459.3647312473607
 21
245.2480996621622
 31
0.0
  0
LINE
  5
18A
330
1F
100
AcDbEntity
  8
B-A
  6
Continuous
 62
     3
370
     9
100
AcDbLine
 10
457.8646273226352
 20
244.7366415487754
 30
0.0
 11
459.3647312473607
 21
245.2480996621622
 31
0.0
  0
LINE
  5
18B
330
1F
100
AcDbEntity
  8
B-A
  6
Continuous
 62
     3
370
     9
100
AcDbLine
 10
457.8646273226352
 20
244.7366415487754
 30
0.0
 11
457.8646273226352
 21
238.1892601219384
 31
0.0
  0
LINE
  5
18C
330
1F
100
AcDbEntity
  8
B-A
  6
Continuous
 62
     3
370
     9
100
AcDbLine
 10
457.8646273226352
 20
238.1892601219384
 30
0.0
 11
459.3647312473607
 21
237.6780494483742
 31
0.0
  0
LINE
  5
18D
330
1F
100
AcDbEntity
  8
B-A
  6
Continuous
 62
     3
370
     9
100
AcDbLine
 10
457.8646273226352
 20
232.053494840055
 30
0.0
 11
457.8646273226352
 21
227.6460967192779
 31
0.0
  0
LINE
  5
18E
330
1F
100
AcDbEntity
  8
B-A
  6
Continuous
 62
     3
370
     9
100
AcDbLine
 10
457.8646273226352
 20
227.6460967192779
 30
0.0
 11
459.3647312473607
 21
227.1347623258025
 31
0.0
  0
LINE
  5
18F
330
1F
100
AcDbEntity
  8
B-A
  6
Continuous
 62
     3
370
     9
100
AcDbLine
 10
457.8646273226352
 20
232.053494840055
 30
0.0
 11
459.3647312473607
 21
232.5648292335305
 31
0.0
  0
LINE
  5
190
330
1F
100
AcDbEntity
  8
B-A
  6
Continuous
 62
     3
370
     9
100
AcDbLine
 10
459.3647312473607
 20
237.6780494483742
 30
0.0
 11
459.3647312473607
 21
232.5648292335305
 31
0.0
  0
LINE
  5
191
330
1F
100
AcDbEntity
  8
B-A
  6
Continuous
 62
     3
370
     9
100
AcDbLine
 10
459.3647312473607
 20
227.1347623258025
 30
0.0
 11
459.3647312473607
 21
222.0216658308699
 31
0.0
  0
LINE
  5
192
330
1F
100
AcDbEntity
  8
B-A
  6
Continuous
 62
     3
370
     9
100
AcDbLine
 10
457.8646273226352
 20
221.5102077174832
 30
0.0
 11
459.3647312473607
 21
222.0216658308699
 31
0.0
  0
LINE
  5
193
330
1F
100
AcDbEntity
  8
B-A
  6
Continuous
 62
     3
370
     9
100
AcDbLine
 10
457.8646273226352
 20
221.5102077174832
 30
0.0
 11
457.8646273226352
 21
214.9628262906462
 31
0.0
  0
LINE
  5
194
330
1F
100
AcDbEntity
  8
B-A
  6
Continuous
 62
     3
370
     9
100
AcDbLine
 10
457.8646273226352
 20
214.9628262906462
 30
0.0
 11
459.3647312473607
 21
214.451615617082
 31
0.0
  0
LINE
  5
195
330
1F
100
AcDbEntity
  8
B-A
  6
Continuous
 62
     3
370
     9
100
AcDbLine
 10
457.8646273226352
 20
208.8270610087628
 30
0.0
 11
457.8646273226352
 21
204.4196628879857
 31
0.0
  0
LINE
  5
196
330
1F
100
AcDbEntity
  8
B-A
  6
Continuous
 62
     3
370
     9
100
AcDbLine
 10
457.8646273226352
 20
204.4196628879857
 30
0.0
 11
459.3647312473607
 21
203.9083284945102
 31
0.0
  0
LINE
  5
197
330
1F
100
AcDbEntity
  8
B-A
  6
Continuous
 62
     3
370
     9
100
AcDbLine
 10
457.8646273226352
 20
208.8270610087628
 30
0.0
 11
459.3647312473607
 21
209.3383954022383
 31
0.0
  0
LINE
  5
198
330
1F
100
AcDbEntity
  8
B-A
  6
Continuous
 62
     3
370
     9
100
AcDbLine
 10
459.3647312473607
 20
214.451615617082
 30
0.0
 11
459.3647312473607
 21
209.3383954022383
 31
0.0
  0
LINE
  5
199
330
1F
100
AcDbEntity
  8
B-A
  6
Continuous
 62
     3
370
     9
100
AcDbLine
 10
459.3647312473607
 20
203.9083284945102
 30
0.0
 11
459.3647312473607
 21
198.7952319995777
 31
0.0
  0
LINE
  5
19A
330
1F
100
AcDbEntity
  8
B-A
  6
Continuous
 62
     3
370
     9
100
AcDbLine
 10
457.8646273226352
 20
198.2837738861909
 30
0.0
 11
459.3647312473607
 21
198.7952319995777
 31
0.0
  0
LINE
  5
19B
330
1F
100
AcDbEntity
  8
B-A
  6
Continuous
 62
     3
370
     9
100
AcDbLine
 10
457.8646273226352
 20
198.2837738861909
 30
0.0
 11
457.8646273226352
 21
191.7363924593539
 31
0.0
  0
LINE
  5
19C
330
1F
100
AcDbEntity
  8
B-A
  6
Continuous
 62
     3
370
     9
100
AcDbLine
 10
457.8646273226352
 20
191.7363924593539
 30
0.0
 11
459.3647312473607
 21
191.2251817857897
 31
0.0
  0
LINE
  5
19D
330
1F
100
AcDbEntity
  8
B-A
  6
Continuous
 62
     3
370
     9
100
AcDbLine
 10
457.8646273226352
 20
185.6006271774704
 30
0.0
 11
457.8646273226352
 21
181.1932290566935
 31
0.0
  0
LINE
  5
19E
330
1F
100
AcDbEntity
  8
B-A
  6
Continuous
 62
     3
370
     9
100
AcDbLine
 10
457.8646273226352
 20
181.1932290566935
 30
0.0
 11
459.3647312473607
 21
180.681894663218
 31
0.0
  0
LINE
  5
19F
330
1F
100
AcDbEntity
  8
B-A
  6
Continuous
 62
     3
370
     9
100
AcDbLine
 10
457.8646273226352
 20
185.6006271774704
 30
0.0
 11
459.3647312473607
 21
186.111961570946
 31
0.0
  0
LINE
  5
1A0
330
1F
100
AcDbEntity
  8
B-A
  6
Continuous
 62
     3
370
     9
100
AcDbLine
 10
459.3647312473607
 20
191.2251817857897
 30
0.0
 11
459.3647312473607
 21
186.111961570946
 31
0.0
  0
LINE
  5
1A1
330
1F
100
AcDbEntity
  8
B-A
  6
Continuous
 62
     3
370
     9
100
AcDbLine
 10
459.3647312473607
 20
180.681894663218
 30
0.0
 11
459.3647312473607
 21
175.5687981682856
 31
0.0
  0
LINE
  5
1A2
330
1F
100
AcDbEntity
  8
B-A
  6
Continuous
 62
     3
370
     9
100
AcDbLine
 10
457.8646273226352
 20
175.0573400548987
 30
0.0
 11
459.3647312473607
 21
175.5687981682856
 31
0.0
  0
LINE
  5
1A3
330
1F
100
AcDbEntity
  8
B-A
  6
Continuous
 62
     3
370
     9
100
AcDbLine
 10
457.8646273226352
 20
175.0573400548987
 30
0.0
 11
457.8646273226352
 21
168.5099586280617
 31
0.0
  0
LINE
  5
1A4
330
1F
100
AcDbEntity
  8
B-A
  6
Continuous
 62
     3
370
     9
100
AcDbLine
 10
457.8646273226352
 20
168.5099586280617
 30
0.0
 11
459.3647312473607
 21
167.9987479544975
 31
0.0
  0
LINE
  5
1A5
330
1F
100
AcDbEntity
  8
B-A
  6
Continuous
 62
     3
370
     9
100
AcDbLine
 10
457.8646273226352
 20
162.3741933461783
 30
0.0
 11
457.8646273226352
 21
157.9667952254012
 31
0.0
  0
LINE
  5
1A6
330
1F
100
AcDbEntity
  8
B-A
  6
Continuous
 62
     3
370
     9
100
AcDbLine
 10
457.8646273226352
 20
157.9667952254012
 30
0.0
 11
459.3647312473607
 21
157.4554608319258
 31
0.0
  0
LINE
  5
1A7
330
1F
100
AcDbEntity
  8
B-A
  6
Continuous
 62
     3
370
     9
100
AcDbLine
 10
457.8646273226352
 20
162.3741933461783
 30
0.0
 11
459.3647312473607
 21
162.8855277396538
 31
0.0
  0
LINE
  5
1A8
330
1F
100
AcDbEntity
  8
B-A
  6
Continuous
 62
     3
370
     9
100
AcDbLine
 10
459.3647312473607
 20
167.9987479544975
 30
0.0
 11
459.3647312473607
 21
162.8855277396538
 31
0.0
  0
LINE
  5
1A9
330
1F
100
AcDbEntity
  8
B-A
  6
Continuous
 62
     3
370
     9
100
AcDbLine
 10
459.3647312473607
 20
157.4554608319258
 30
0.0
 11
459.3647312473607
 21
152.3423643369932
 31
0.0
  0
LINE
  5
1AA
330
1F
100
AcDbEntity
  8
B-A
  6
Continuous
 62
     3
370
     9
100
AcDbLine
 10
457.8646273226352
 20
151.8309062236065
 30
0.0
 11
459.3647312473607
 21
152.3423643369932
 31
0.0
  0
LINE
  5
1AB
330
1F
100
AcDbEntity
  8
B-A
  6
Continuous
 62
     3
370
     9
100
AcDbLine
 10
457.8646273226352
 20
151.8309062236065
 30
0.0
 11
457.8646273226352
 21
145.2835247967695
 31
0.0
  0
LINE
  5
1AC
330
1F
100
AcDbEntity
  8
B-A
  6
Continuous
 62
     3
370
     9
100
AcDbLine
 10
457.8646273226352
 20
145.2835247967695
 30
0.0
 11
459.3647312473607
 21
144.7723141232053
 31
0.0
  0
LINE
  5
1AD
330
1F
100
AcDbEntity
  8
B-2
  6
Continuous
 62
     3
370
     9
100
AcDbLine
 10
459.3647312473607
 20
58.69888718063777
 30
0.0
 11
478.3647691881336
 21
58.69888718063777
 31
0.0
  0
LINE
  5
1AE
330
1F
100
AcDbEntity
  8
B-1
  6
JWW_DASHED1
 62
     2
370
     9
100
AcDbLine
 10
-568.5421711689717
 20
421.6987981023016
 30
0.0
 11
-568.5421711689717
 21
461.6988063502957
 31
0.0
  0
LINE
  5
1AF
330
1F
100
AcDbEntity
  8
B-1
  6
JWW_DASHED1
 62
     2
370
     9
100
AcDbLine
 10
-568.5421711689717
 20
421.6987981023016
 30
0.0
 11
-93.54215054898646
 21
421.6987981023016
 31
0.0
  0
LINE
  5
1B0
330
1F
100
AcDbEntity
  8
B-1
  6
JWW_DASHED1
 62
     2
370
     9
100
AcDbLine
 10
-568.5421711689717
 20
461.6988063502957
 30
0.0
 11
-93.54215054898646
 21
461.6988063502957
 31
0.0
  0
LINE
  5
1B1
330
1F
100
AcDbEntity
  8
B-1
  6
JWW_DASHED1
 62
     2
370
     9
100
AcDbLine
 10
-93.54215054898646
 20
461.6988063502957
 30
0.0
 11
-93.54215054898646
 21
421.6987981023016
 31
0.0
  0
LINE
  5
1B2
330
1F
100
AcDbEntity
  8
B-1
  6
JWW_DASHED1
 62
     2
370
     9
100
AcDbLine
 10
-568.542109309016
 20
105.6988442910685
 30
0.0
 11
-568.542109309016
 21
65.69883604307435
 31
0.0
  0
LINE
  5
1B3
330
1F
100
AcDbEntity
  8
B-1
  6
JWW_DASHED1
 62
     2
370
     9
100
AcDbLine
 10
-568.542109309016
 20
105.6988442910685
 30
0.0
 11
-93.54215054898646
 21
105.6988442910685
 31
0.0
  0
LINE
  5
1B4
330
1F
100
AcDbEntity
  8
B-1
  6
JWW_DASHED1
 62
     2
370
     9
100
AcDbLine
 10
-568.542109309016
 20
65.69883604307435
 30
0.0
 11
-93.54215054898646
 21
65.69883604307435
 31
0.0
  0
LINE
  5
1B5
330
1F
100
AcDbEntity
  8
B-1
  6
JWW_DASHED1
 62
     2
370
     9
100
AcDbLine
 10
-93.54215054898646
 20
65.69883604307435
 30
0.0
 11
-93.54215054898646
 21
105.6988442910685
 31
0.0
  0
LINE
  5
1B6
330
1F
100
AcDbEntity
  8
B-4
  6
Continuous
 62
     7
370
     9
100
AcDbLine
 10
-418.5416144293708
 20
441.6988640862543
 30
0.0
 11
-416.9100580988703
 21
454.091887602935
 31
0.0
  0
LINE
  5
1B7
330
1F
100
AcDbEntity
  8
B-4
  6
Continuous
 62
     7
370
     9
100
AcDbLine
 10
-418.5416144293708
 20
441.6988640862543
 30
0.0
 11
-413.7581077781883
 21
453.2473754882812
 31
0.0
  0
LINE
  5
1B8
330
1F
100
AcDbEntity
  8
B-4
  6
Continuous
 62
     7
370
     9
100
AcDbLine
 10
-418.5416144293708
 20
441.6988640862543
 30
0.0
 11
-397.9095871384079
 21
518.6987964527027
 31
0.0
  0
LINE
  5
1B9
330
1F
100
AcDbEntity
  8
B-4
  6
Continuous
 62
     7
370
     9
100
AcDbLine
 10
-466.0412762616131
 20
417.9384551177155
 30
0.0
 11
-421.6259518185177
 21
558.6988047006969
 31
0.0
  0
LINE
  5
1BA
330
1F
100
AcDbEntity
  8
B-4
  6
Continuous
 62
     7
370
     9
100
AcDbLine
 10
-493.842686833562
 20
468.6987552127323
 30
0.0
 11
-449.9373977248733
 21
599.3605907543287
 31
0.0
  0
LINE
  5
1BB
330
1F
100
AcDbEntity
  8
B-4
  6
Continuous
 62
     7
370
     9
100
AcDbLine
 10
-449.9373977248733
 20
599.3605907543287
 30
0.0
 11
-212.163935480891
 21
599.3605907543287
 31
0.0
  0
LINE
  5
1BC
330
1F
100
AcDbEntity
  8
B-4
  6
Continuous
 62
     7
370
     9
100
AcDbLine
 10
-421.6259518185177
 20
558.6988047006969
 30
0.0
 11
-228.2793818293391
 21
558.6988047006969
 31
0.0
  0
LINE
  5
1BD
330
1F
100
AcDbEntity
  8
B-4
  6
Continuous
 62
     7
370
     9
100
AcDbLine
 10
-397.9095871384079
 20
518.6987964527027
 30
0.0
 11
-160.1913658348289
 21
518.6987964527027
 31
0.0
  0
LINE
  5
1BE
330
1F
100
AcDbEntity
  8
B-4
  6
Continuous
 62
     7
370
     9
100
AcDbLine
 10
484.3646900073904
 20
50.69897213497683
 30
0.0
 11
484.3646900073904
 21
7.198927595808726
 31
0.0
  0
LINE
  5
1BF
330
1F
100
AcDbEntity
  8
B-4
  6
Continuous
 62
     7
370
     9
100
AcDbLine
 10
554.3645497914908
 20
53.19898038297097
 30
0.0
 11
554.3645497914908
 21
-32.80108065218542
 31
0.0
  0
LINE
  5
1C0
330
1F
100
AcDbEntity
  8
B-4
  6
Continuous
 62
     7
370
     9
100
AcDbLine
 10
-573.5421258050042
 20
8.698969660578655
 30
0.0
 11
-88.5421340529983
 21
8.698969660578655
 31
0.0
  0
LINE
  5
1C1
330
1F
100
AcDbEntity
  8
B-4
  6
Continuous
 62
     7
370
     9
100
AcDbLine
 10
-573.5421258050042
 20
46.19890780062292
 30
0.0
 11
-573.5421258050042
 21
7.198989455764462
 31
0.0
  0
LINE
  5
1C2
330
1F
100
AcDbEntity
  8
B-4
  6
Continuous
 62
     7
370
     9
100
AcDbLine
 10
-88.5421340529983
 20
46.19890780062292
 30
0.0
 11
-88.5421340529983
 21
7.198989455764462
 31
0.0
  0
LINE
  5
1C3
330
1F
100
AcDbEntity
  8
B-4
  6
Continuous
 62
     7
370
     9
100
AcDbLine
 10
409.3646900073904
 20
58.69888718063777
 30
0.0
 11
409.3646900073904
 21
468.6987552127323
 31
0.0
  0
LINE
  5
1C4
330
1F
100
AcDbEntity
  8
B-4
  6
Continuous
 62
     7
370
     9
100
AcDbLine
 10
446.8646900073904
 20
58.69888718063777
 30
0.0
 11
407.864709802576
 21
58.69888718063777
 31
0.0
  0
LINE
  5
1C5
330
1F
100
AcDbEntity
  8
B-4
  6
Continuous
 62
     7
370
     9
100
AcDbLine
 10
446.8646900073904
 20
468.6987552127323
 30
0.0
 11
407.864709802576
 21
468.6987552127323
 31
0.0
  0
LINE
  5
1C6
330
1F
100
AcDbEntity
  8
B-4
  6
Continuous
 62
     7
370
     9
100
AcDbLine
 10
490.8648104281039
 20
58.69888718063777
 30
0.0
 11
610.864711452175
 21
58.69888718063777
 31
0.0
  0
LINE
  5
1C7
330
1F
100
AcDbEntity
  8
B-4
  6
Continuous
 62
     7
370
     9
100
AcDbLine
 10
571.8647312473606
 20
65.69895976298568
 30
0.0
 11
610.864711452175
 21
65.69895976298568
 31
0.0
  0
LINE
  5
1C8
330
1F
100
AcDbEntity
  8
B-4
  6
Continuous
 62
     7
370
     9
100
AcDbLine
 10
571.8647312473606
 20
105.6988442910685
 30
0.0
 11
610.864711452175
 21
105.6988442910685
 31
0.0
  0
LINE
  5
1C9
330
1F
100
AcDbEntity
  8
B-4
  6
Continuous
 62
     7
370
     9
100
AcDbLine
 10
571.8647312473606
 20
421.6987981023016
 30
0.0
 11
610.864711452175
 21
421.6987981023016
 31
0.0
  0
LINE
  5
1CA
330
1F
100
AcDbEntity
  8
B-4
  6
Continuous
 62
     7
370
     9
100
AcDbLine
 10
571.8647312473606
 20
461.6986826303844
 30
0.0
 11
610.864711452175
 21
461.6986826303844
 31
0.0
  0
LINE
  5
1CB
330
1F
100
AcDbEntity
  8
B-4
  6
Continuous
 62
     7
370
     9
100
AcDbLine
 10
490.8648104281039
 20
468.6987552127323
 30
0.0
 11
610.864711452175
 21
468.6987552127323
 31
0.0
  0
LINE
  5
1CC
330
1F
100
AcDbEntity
  8
B-4
  6
Continuous
 62
     7
370
     9
100
AcDbLine
 10
609.3647312473606
 20
32.99824070286107
 30
0.0
 11
609.3647312473606
 21
497.9131090318834
 31
0.0
  0
LINE
  5
1CD
330
1F
100
AcDbEntity
  8
B-4
  6
Continuous
 62
     7
370
     9
100
AcDbLine
 10
459.3647312473607
 20
-31.30110044737123
 30
0.0
 11
554.3645497914908
 21
-31.30110044737123
 31
0.0
  0
LINE
  5
1CE
330
1F
100
AcDbEntity
  8
B-4
  6
Continuous
 62
     7
370
     9
100
AcDbLine
 10
514.3646652634081
 20
461.6986826303844
 30
0.0
 11
506.7551483979096
 21
471.6155758419553
 31
0.0
  0
LINE
  5
1CF
330
1F
100
AcDbEntity
  8
B-4
  6
Continuous
 62
     7
370
     9
100
AcDbLine
 10
514.3646652634081
 20
461.6986826303844
 30
0.0
 11
509.5811586122255
 21
473.2471940324114
 31
0.0
  0
LINE
  5
1D0
330
1F
100
AcDbEntity
  8
B-4
  6
Continuous
 62
     7
370
     9
100
AcDbLine
 10
514.3646652634081
 20
461.6986826303844
 30
0.0
 11
481.4556637325802
 21
518.6987964527027
 31
0.0
  0
LINE
  5
1D1
330
1F
100
AcDbEntity
  8
B-4
  6
Continuous
 62
     7
370
     9
100
AcDbLine
 10
191.5686530035896
 20
518.6987964527027
 30
0.0
 11
481.4556637325802
 21
518.6987964527027
 31
0.0
  0
LINE
  5
1D2
330
1F
100
AcDbEntity
  8
B-1
  6
Continuous
 62
     2
370
     9
100
AcDbLine
 10
484.3646900073904
 20
455.2988990577492
 30
0.0
 11
484.3646900073904
 21
428.0988291147594
 31
0.0
  0
LINE
  5
1D3
330
1F
100
AcDbEntity
  8
B-1
  6
Continuous
 62
     2
370
     9
100
AcDbLine
 10
484.3646900073904
 20
99.29881327861068
 30
0.0
 11
484.3646900073904
 21
72.09874333562084
 31
0.0
  0
LINE
  5
1D4
330
1F
100
AcDbEntity
  8
B-2
  6
Continuous
 62
     3
370
     9
100
AcDbLine
 10
-148.5418371252111
 20
417.9384551177155
 30
0.0
 11
-178.5420598210514
 21
409.458939835832
 31
0.0
  0
LINE
  5
1D5
330
1F
100
AcDbEntity
  8
B-2
  6
Continuous
 62
     3
370
     9
100
AcDbLine
 10
-148.5418371252111
 20
317.9384963576858
 30
0.0
 11
-178.5420598210514
 21
309.4588573558912
 31
0.0
  0
LINE
  5
1D6
330
1F
100
AcDbEntity
  8
B-2
  6
Continuous
 62
     3
370
     9
100
AcDbLine
 10
-148.5418371252111
 20
409.458939835832
 30
0.0
 11
-148.5418371252111
 21
317.9384963576858
 31
0.0
  0
LINE
  5
1D7
330
1F
100
AcDbEntity
  8
B-2
  6
Continuous
 62
     3
370
     9
100
AcDbLine
 10
-153.5416061813767
 20
409.458939835832
 30
0.0
 11
-153.5416061813767
 21
317.9384963576858
 31
0.0
  0
LINE
  5
1D8
330
1F
100
AcDbEntity
  8
B-2
  6
Continuous
 62
     3
370
     9
100
AcDbLine
 10
-153.5416061813767
 20
464.198938318201
 30
0.0
 11
-153.5416061813767
 21
417.9384551177155
 31
0.0
  0
LINE
  5
1D9
330
1F
100
AcDbEntity
  8
B-2
  6
Continuous
 62
     3
370
     9
100
AcDbLine
 10
-148.5418371252111
 20
464.198938318201
 30
0.0
 11
-148.5418371252111
 21
417.9384551177155
 31
0.0
  0
LINE
  5
1DA
330
1F
100
AcDbEntity
  8
B-2
  6
Continuous
 62
     3
370
     9
100
AcDbLine
 10
-148.5418371252111
 20
117.9385169776711
 30
0.0
 11
-178.5420598210514
 21
109.4582593763197
 31
0.0
  0
LINE
  5
1DB
330
1F
100
AcDbEntity
  8
B-2
  6
Continuous
 62
     3
370
     9
100
AcDbLine
 10
-148.5418371252111
 20
109.4582593763197
 30
0.0
 11
-148.5418371252111
 21
63.19870407516902
 31
0.0
  0
LINE
  5
1DC
330
1F
100
AcDbEntity
  8
B-2
  6
Continuous
 62
     3
370
     9
100
AcDbLine
 10
-153.5416061813767
 20
109.4582593763197
 30
0.0
 11
-153.5416061813767
 21
63.19870407516902
 31
0.0
  0
LINE
  5
1DD
330
1F
100
AcDbEntity
  8
B-2
  6
Continuous
 62
     3
370
     9
100
AcDbLine
 10
-118.5416144293707
 20
417.9384551177155
 30
0.0
 11
-148.5418371252111
 21
409.458939835832
 31
0.0
  0
LINE
  5
1DE
330
1F
100
AcDbEntity
  8
B-2
  6
Continuous
 62
     3
370
     9
100
AcDbLine
 10
-118.5416144293707
 20
317.9384963576858
 30
0.0
 11
-148.5418371252111
 21
309.4588573558912
 31
0.0
  0
LINE
  5
1DF
330
1F
100
AcDbEntity
  8
B-2
  6
Continuous
 62
     3
370
     9
100
AcDbLine
 10
-118.5416144293707
 20
409.458939835832
 30
0.0
 11
-118.5416144293707
 21
317.9384963576858
 31
0.0
  0
LINE
  5
1E0
330
1F
100
AcDbEntity
  8
B-2
  6
Continuous
 62
     3
370
     9
100
AcDbLine
 10
-123.5413834855363
 20
409.458939835832
 30
0.0
 11
-123.5413834855363
 21
317.9384963576858
 31
0.0
  0
LINE
  5
1E1
330
1F
100
AcDbEntity
  8
B-2
  6
Continuous
 62
     3
370
     9
100
AcDbLine
 10
-123.5413834855363
 20
464.198938318201
 30
0.0
 11
-123.5413834855363
 21
417.9384551177155
 31
0.0
  0
LINE
  5
1E2
330
1F
100
AcDbEntity
  8
B-2
  6
Continuous
 62
     3
370
     9
100
AcDbLine
 10
-118.5416144293707
 20
464.198938318201
 30
0.0
 11
-118.5416144293707
 21
417.9384551177155
 31
0.0
  0
LINE
  5
1E3
330
1F
100
AcDbEntity
  8
B-2
  6
Continuous
 62
     3
370
     9
100
AcDbLine
 10
-118.5416144293707
 20
117.9385169776711
 30
0.0
 11
-148.5418371252111
 21
109.4582593763197
 31
0.0
  0
LINE
  5
1E4
330
1F
100
AcDbEntity
  8
B-2
  6
Continuous
 62
     3
370
     9
100
AcDbLine
 10
-118.5416144293707
 20
109.4582593763197
 30
0.0
 11
-118.5416144293707
 21
63.19870407516902
 31
0.0
  0
LINE
  5
1E5
330
1F
100
AcDbEntity
  8
B-2
  6
Continuous
 62
     3
370
     9
100
AcDbLine
 10
-123.5413834855363
 20
109.4582593763197
 30
0.0
 11
-123.5413834855363
 21
63.19870407516902
 31
0.0
  0
LINE
  5
1E6
330
1F
100
AcDbEntity
  8
B-2
  6
Continuous
 62
     3
370
     9
100
AcDbLine
 10
-573.5421258050042
 20
217.9385375976562
 30
0.0
 11
-88.5421340529983
 21
217.9385375976562
 31
0.0
  0
LINE
  5
1E7
330
1F
100
AcDbEntity
  8
B-2
  6
Continuous
 62
     3
370
     9
100
AcDbLine
 10
-573.5421258050042
 20
209.458279996305
 30
0.0
 11
-88.5421340529983
 21
209.458279996305
 31
0.0
  0
LINE
  5
1E8
330
1F
100
AcDbEntity
  8
B-2
  6
Continuous
 62
     3
370
     9
100
AcDbLine
 10
-568.5418618691933
 20
217.9385375976562
 30
0.0
 11
-573.5421258050042
 21
216.9383858345651
 31
0.0
  0
LINE
  5
1E9
330
1F
100
AcDbEntity
  8
B-2
  6
Continuous
 62
     3
370
     9
100
AcDbLine
 10
467.850061365076
 20
213.6990273965372
 30
0.0
 11
463.6073344462628
 21
217.9416305954392
 31
0.0
  0
LINE
  5
1EA
330
1F
100
AcDbEntity
  8
B-2
  6
Continuous
 62
     3
370
     9
100
AcDbLine
 10
463.6073344462628
 20
217.9416305954392
 30
0.0
 11
459.3647312473607
 21
213.6990273965372
 31
0.0
  0
LINE
  5
1EB
330
1F
100
AcDbEntity
  8
B-2
  6
Continuous
 62
     3
370
     9
100
AcDbLine
 10
459.3647312473607
 20
213.6990273965372
 30
0.0
 11
463.6073344462628
 21
209.4564241976352
 31
0.0
  0
LINE
  5
1EC
330
1F
100
AcDbEntity
  8
B-2
  6
Continuous
 62
     3
370
     9
100
AcDbLine
 10
463.6073344462628
 20
209.4564241976352
 30
0.0
 11
467.850061365076
 21
213.6990273965372
 31
0.0
  0
LINE
  5
1ED
330
1F
100
AcDbEntity
  8
B-2
  6
Continuous
 62
     3
370
     9
100
AcDbLine
 10
-178.5420598210514
 20
309.4588573558912
 30
0.0
 11
-178.5420598210514
 21
217.9385375976562
 31
0.0
  0
LINE
  5
1EE
330
1F
100
AcDbEntity
  8
B-2
  6
Continuous
 62
     3
370
     9
100
AcDbLine
 10
-178.5420598210514
 20
209.458279996305
 30
0.0
 11
-178.5420598210514
 21
117.9385169776711
 31
0.0
  0
LINE
  5
1EF
330
1F
100
AcDbEntity
  8
B-2
  6
Continuous
 62
     3
370
     9
100
AcDbLine
 10
-183.5418288772171
 20
309.4588573558912
 30
0.0
 11
-183.5418288772171
 21
217.9385375976562
 31
0.0
  0
LINE
  5
1F0
330
1F
100
AcDbEntity
  8
B-2
  6
Continuous
 62
     3
370
     9
100
AcDbLine
 10
-183.5418288772171
 20
209.458279996305
 30
0.0
 11
-183.5418288772171
 21
117.9385169776711
 31
0.0
  0
LINE
  5
1F1
330
1F
100
AcDbEntity
  8
B-2
  6
Continuous
 62
     3
370
     9
100
AcDbLine
 10
-208.5422825168918
 20
309.4588573558912
 30
0.0
 11
-208.5422825168918
 21
217.9385375976562
 31
0.0
  0
LINE
  5
1F2
330
1F
100
AcDbEntity
  8
B-2
  6
Continuous
 62
     3
370
     9
100
AcDbLine
 10
-208.5422825168918
 20
209.458279996305
 30
0.0
 11
-208.5422825168918
 21
117.9385169776711
 31
0.0
  0
LINE
  5
1F3
330
1F
100
AcDbEntity
  8
B-2
  6
Continuous
 62
     3
370
     9
100
AcDbLine
 10
-213.5419278531461
 20
309.4588573558912
 30
0.0
 11
-213.5419278531461
 21
217.9385375976562
 31
0.0
  0
LINE
  5
1F4
330
1F
100
AcDbEntity
  8
B-2
  6
Continuous
 62
     3
370
     9
100
AcDbLine
 10
-213.5419278531461
 20
209.458279996305
 30
0.0
 11
-213.5419278531461
 21
117.9385169776711
 31
0.0
  0
LINE
  5
1F5
330
1F
100
AcDbEntity
  8
B-2
  6
Continuous
 62
     3
370
     9
100
AcDbLine
 10
-238.541639173353
 20
309.4588573558912
 30
0.0
 11
-238.541639173353
 21
217.9385375976562
 31
0.0
  0
LINE
  5
1F6
330
1F
100
AcDbEntity
  8
B-2
  6
Continuous
 62
     3
370
     9
100
AcDbLine
 10
-238.541639173353
 20
209.458279996305
 30
0.0
 11
-238.541639173353
 21
117.9385169776711
 31
0.0
  0
LINE
  5
1F7
330
1F
100
AcDbEntity
  8
B-2
  6
Continuous
 62
     3
370
     9
100
AcDbLine
 10
-243.5419031091638
 20
309.4588573558912
 30
0.0
 11
-243.5419031091638
 21
217.9385375976562
 31
0.0
  0
LINE
  5
1F8
330
1F
100
AcDbEntity
  8
B-2
  6
Continuous
 62
     3
370
     9
100
AcDbLine
 10
-243.5419031091638
 20
209.458279996305
 30
0.0
 11
-243.5419031091638
 21
117.9385169776711
 31
0.0
  0
LINE
  5
1F9
330
1F
100
AcDbEntity
  8
B-2
  6
Continuous
 62
     3
370
     9
100
AcDbLine
 10
-268.5419855891047
 20
309.4588573558912
 30
0.0
 11
-268.5419855891047
 21
217.9385375976562
 31
0.0
  0
LINE
  5
1FA
330
1F
100
AcDbEntity
  8
B-2
  6
Continuous
 62
     3
370
     9
100
AcDbLine
 10
-268.5419855891047
 20
209.458279996305
 30
0.0
 11
-268.5419855891047
 21
117.9385169776711
 31
0.0
  0
LINE
  5
1FB
330
1F
100
AcDbEntity
  8
B-2
  6
Continuous
 62
     3
370
     9
100
AcDbLine
 10
-273.5417546452702
 20
309.4588573558912
 30
0.0
 11
-273.5417546452702
 21
217.9385375976562
 31
0.0
  0
LINE
  5
1FC
330
1F
100
AcDbEntity
  8
B-2
  6
Continuous
 62
     3
370
     9
100
AcDbLine
 10
-273.5417546452702
 20
209.458279996305
 30
0.0
 11
-273.5417546452702
 21
117.9385169776711
 31
0.0
  0
LINE
  5
1FD
330
1F
100
AcDbEntity
  8
B-2
  6
Continuous
 62
     3
370
     9
100
AcDbLine
 10
-298.5419608451224
 20
309.4588573558912
 30
0.0
 11
-298.5419608451224
 21
217.9385375976562
 31
0.0
  0
LINE
  5
1FE
330
1F
100
AcDbEntity
  8
B-2
  6
Continuous
 62
     3
370
     9
100
AcDbLine
 10
-298.5419608451224
 20
209.458279996305
 30
0.0
 11
-298.5419608451224
 21
117.9385169776711
 31
0.0
  0
LINE
  5
1FF
330
1F
100
AcDbEntity
  8
B-2
  6
Continuous
 62
     3
370
     9
100
AcDbLine
 10
-303.5418536211994
 20
309.4588573558912
 30
0.0
 11
-303.5418536211994
 21
217.9385375976562
 31
0.0
  0
LINE
  5
200
330
1F
100
AcDbEntity
  8
B-2
  6
Continuous
 62
     3
370
     9
100
AcDbLine
 10
-303.5418536211994
 20
209.458279996305
 30
0.0
 11
-303.5418536211994
 21
117.9385169776711
 31
0.0
  0
LINE
  5
201
330
1F
100
AcDbEntity
  8
B-2
  6
Continuous
 62
     3
370
     9
100
AcDbLine
 10
-328.5421835409628
 20
309.4588573558912
 30
0.0
 11
-328.5421835409628
 21
217.9385375976562
 31
0.0
  0
LINE
  5
202
330
1F
100
AcDbEntity
  8
B-2
  6
Continuous
 62
     3
370
     9
100
AcDbLine
 10
-328.5421835409628
 20
209.458279996305
 30
0.0
 11
-328.5421835409628
 21
117.9385169776711
 31
0.0
  0
LINE
  5
203
330
1F
100
AcDbEntity
  8
B-2
  6
Continuous
 62
     3
370
     9
100
AcDbLine
 10
-333.5419525971284
 20
309.4588573558912
 30
0.0
 11
-333.5419525971284
 21
217.9385375976562
 31
0.0
  0
LINE
  5
204
330
1F
100
AcDbEntity
  8
B-2
  6
Continuous
 62
     3
370
     9
100
AcDbLine
 10
-333.5419525971284
 20
209.458279996305
 30
0.0
 11
-333.5419525971284
 21
117.9385169776711
 31
0.0
  0
LINE
  5
205
330
1F
100
AcDbEntity
  8
B-2
  6
Continuous
 62
     3
370
     9
100
AcDbLine
 10
-358.5422825168918
 20
309.4588573558912
 30
0.0
 11
-358.5422825168918
 21
217.9385375976562
 31
0.0
  0
LINE
  5
206
330
1F
100
AcDbEntity
  8
B-2
  6
Continuous
 62
     3
370
     9
100
AcDbLine
 10
-358.5422825168918
 20
209.458279996305
 30
0.0
 11
-358.5422825168918
 21
117.9385169776711
 31
0.0
  0
LINE
  5
207
330
1F
100
AcDbEntity
  8
B-2
  6
Continuous
 62
     3
370
     9
100
AcDbLine
 10
-363.5416804133234
 20
309.4588573558912
 30
0.0
 11
-363.5416804133234
 21
217.9385375976562
 31
0.0
  0
LINE
  5
208
330
1F
100
AcDbEntity
  8
B-2
  6
Continuous
 62
     3
370
     9
100
AcDbLine
 10
-363.5416804133234
 20
209.458279996305
 30
0.0
 11
-363.5416804133234
 21
117.9385169776711
 31
0.0
  0
LINE
  5
209
330
1F
100
AcDbEntity
  8
B-2
  6
Continuous
 62
     3
370
     9
100
AcDbLine
 10
-388.542010333087
 20
309.4588573558912
 30
0.0
 11
-388.542010333087
 21
217.9385375976562
 31
0.0
  0
LINE
  5
20A
330
1F
100
AcDbEntity
  8
B-2
  6
Continuous
 62
     3
370
     9
100
AcDbLine
 10
-388.542010333087
 20
209.458279996305
 30
0.0
 11
-388.542010333087
 21
117.9385169776711
 31
0.0
  0
LINE
  5
20B
330
1F
100
AcDbEntity
  8
B-2
  6
Continuous
 62
     3
370
     9
100
AcDbLine
 10
-393.5411607896959
 20
309.4588573558912
 30
0.0
 11
-393.5411607896959
 21
217.9385375976562
 31
0.0
  0
LINE
  5
20C
330
1F
100
AcDbEntity
  8
B-2
  6
Continuous
 62
     3
370
     9
100
AcDbLine
 10
-393.5411607896959
 20
209.458279996305
 30
0.0
 11
-393.5411607896959
 21
117.9385169776711
 31
0.0
  0
LINE
  5
20D
330
1F
100
AcDbEntity
  8
B-2
  6
Continuous
 62
     3
370
     9
100
AcDbLine
 10
-418.5416144293708
 20
309.4588573558912
 30
0.0
 11
-418.5416144293708
 21
217.9385375976562
 31
0.0
  0
LINE
  5
20E
330
1F
100
AcDbEntity
  8
B-2
  6
Continuous
 62
     3
370
     9
100
AcDbLine
 10
-418.5416144293708
 20
209.458279996305
 30
0.0
 11
-418.5416144293708
 21
117.9385169776711
 31
0.0
  0
LINE
  5
20F
330
1F
100
AcDbEntity
  8
B-2
  6
Continuous
 62
     3
370
     9
100
AcDbLine
 10
-423.5418783651816
 20
309.4588573558912
 30
0.0
 11
-423.5418783651816
 21
217.9385375976562
 31
0.0
  0
LINE
  5
210
330
1F
100
AcDbEntity
  8
B-2
  6
Continuous
 62
     3
370
     9
100
AcDbLine
 10
-423.5418783651816
 20
209.458279996305
 30
0.0
 11
-423.5418783651816
 21
117.9385169776711
 31
0.0
  0
LINE
  5
211
330
1F
100
AcDbEntity
  8
B-2
  6
Continuous
 62
     3
370
     9
100
AcDbLine
 10
-448.542208284945
 20
309.4588573558912
 30
0.0
 11
-448.542208284945
 21
217.9385375976562
 31
0.0
  0
LINE
  5
212
330
1F
100
AcDbEntity
  8
B-2
  6
Continuous
 62
     3
370
     9
100
AcDbLine
 10
-448.542208284945
 20
209.458279996305
 30
0.0
 11
-448.542208284945
 21
117.9385169776711
 31
0.0
  0
LINE
  5
213
330
1F
100
AcDbEntity
  8
B-2
  6
Continuous
 62
     3
370
     9
100
AcDbLine
 10
-453.5416061813766
 20
309.4588573558912
 30
0.0
 11
-453.5416061813766
 21
217.9385375976562
 31
0.0
  0
LINE
  5
214
330
1F
100
AcDbEntity
  8
B-2
  6
Continuous
 62
     3
370
     9
100
AcDbLine
 10
-453.5416061813766
 20
209.458279996305
 30
0.0
 11
-453.5416061813766
 21
117.9385169776711
 31
0.0
  0
LINE
  5
215
330
1F
100
AcDbEntity
  8
B-2
  6
Continuous
 62
     3
370
     9
100
AcDbLine
 10
-478.5419361011402
 20
309.4588573558912
 30
0.0
 11
-478.5419361011402
 21
217.9385375976562
 31
0.0
  0
LINE
  5
216
330
1F
100
AcDbEntity
  8
B-2
  6
Continuous
 62
     3
370
     9
100
AcDbLine
 10
-478.5419361011402
 20
209.458279996305
 30
0.0
 11
-478.5419361011402
 21
117.9385169776711
 31
0.0
  0
LINE
  5
217
330
1F
100
AcDbEntity
  8
B-2
  6
Continuous
 62
     3
370
     9
100
AcDbLine
 10
-483.542200036951
 20
309.4588573558912
 30
0.0
 11
-483.542200036951
 21
217.9385375976562
 31
0.0
  0
LINE
  5
218
330
1F
100
AcDbEntity
  8
B-2
  6
Continuous
 62
     3
370
     9
100
AcDbLine
 10
-483.542200036951
 20
209.458279996305
 30
0.0
 11
-483.542200036951
 21
117.9385169776711
 31
0.0
  0
LINE
  5
219
330
1F
100
AcDbEntity
  8
B-2
  6
Continuous
 62
     3
370
     9
100
AcDbLine
 10
-508.541540197424
 20
309.4588573558912
 30
0.0
 11
-508.541540197424
 21
217.9385375976562
 31
0.0
  0
LINE
  5
21A
330
1F
100
AcDbEntity
  8
B-2
  6
Continuous
 62
     3
370
     9
100
AcDbLine
 10
-508.541540197424
 20
209.458279996305
 30
0.0
 11
-508.541540197424
 21
117.9385169776711
 31
0.0
  0
LINE
  5
21B
330
1F
100
AcDbEntity
  8
B-2
  6
Continuous
 62
     3
370
     9
100
AcDbLine
 10
-513.5418041332348
 20
309.4588573558912
 30
0.0
 11
-513.5418041332348
 21
217.9385375976562
 31
0.0
  0
LINE
  5
21C
330
1F
100
AcDbEntity
  8
B-2
  6
Continuous
 62
     3
370
     9
100
AcDbLine
 10
-513.5418041332348
 20
209.458279996305
 30
0.0
 11
-513.5418041332348
 21
117.9385169776711
 31
0.0
  0
LINE
  5
21D
330
1F
100
AcDbEntity
  8
B-2
  6
Continuous
 62
     3
370
     9
100
AcDbLine
 10
-538.5421340529983
 20
309.4588573558912
 30
0.0
 11
-538.5421340529983
 21
217.9385375976562
 31
0.0
  0
LINE
  5
21E
330
1F
100
AcDbEntity
  8
B-2
  6
Continuous
 62
     3
370
     9
100
AcDbLine
 10
-538.5421340529983
 20
209.458279996305
 30
0.0
 11
-538.5421340529983
 21
117.9385169776711
 31
0.0
  0
LINE
  5
21F
330
1F
100
AcDbEntity
  8
B-2
  6
Continuous
 62
     3
370
     9
100
AcDbLine
 10
-543.5415319494299
 20
309.4588573558912
 30
0.0
 11
-543.5415319494299
 21
217.9385375976562
 31
0.0
  0
LINE
  5
220
330
1F
100
AcDbEntity
  8
B-2
  6
Continuous
 62
     3
370
     9
100
AcDbLine
 10
-543.5415319494299
 20
209.458279996305
 30
0.0
 11
-543.5415319494299
 21
117.9385169776711
 31
0.0
  0
LINE
  5
221
330
1F
100
AcDbEntity
  8
B-2
  6
Continuous
 62
     3
370
     9
100
AcDbLine
 10
-568.5418618691933
 20
117.9385169776711
 30
0.0
 11
-568.5418618691933
 21
209.458279996305
 31
0.0
  0
LINE
  5
222
330
1F
100
AcDbEntity
  8
B-2
  6
Continuous
 62
     3
370
     9
100
AcDbLine
 10
-568.5418618691933
 20
217.9385375976562
 30
0.0
 11
-568.5418618691933
 21
309.4588573558912
 31
0.0
  0
LINE
  5
223
330
1F
100
AcDbEntity
  8
B-2
  6
Continuous
 62
     3
370
     9
100
AcDbLine
 10
-93.5419031091638
 20
309.4588573558912
 30
0.0
 11
-93.5419031091638
 21
217.9385375976562
 31
0.0
  0
LINE
  5
224
330
1F
100
AcDbEntity
  8
B-2
  6
Continuous
 62
     3
370
     9
100
AcDbLine
 10
-93.5419031091638
 20
209.458279996305
 30
0.0
 11
-93.5419031091638
 21
117.9385169776711
 31
0.0
  0
LINE
  5
225
330
1F
100
AcDbEntity
  8
B-2
  6
Continuous
 62
     3
370
     9
100
AcDbLine
 10
-148.5418371252111
 20
309.4588573558912
 30
0.0
 11
-148.5418371252111
 21
217.9385375976562
 31
0.0
  0
LINE
  5
226
330
1F
100
AcDbEntity
  8
B-2
  6
Continuous
 62
     3
370
     9
100
AcDbLine
 10
-148.5418371252111
 20
209.458279996305
 30
0.0
 11
-148.5418371252111
 21
117.9385169776711
 31
0.0
  0
LINE
  5
227
330
1F
100
AcDbEntity
  8
B-2
  6
Continuous
 62
     3
370
     9
100
AcDbLine
 10
-153.5416061813767
 20
309.4588573558912
 30
0.0
 11
-153.5416061813767
 21
217.9385375976562
 31
0.0
  0
LINE
  5
228
330
1F
100
AcDbEntity
  8
B-2
  6
Continuous
 62
     3
370
     9
100
AcDbLine
 10
-153.5416061813767
 20
209.458279996305
 30
0.0
 11
-153.5416061813767
 21
117.9385169776711
 31
0.0
  0
LINE
  5
229
330
1F
100
AcDbEntity
  8
B-2
  6
Continuous
 62
     3
370
     9
100
AcDbLine
 10
-118.5416144293707
 20
309.4588573558912
 30
0.0
 11
-118.5416144293707
 21
217.9385375976562
 31
0.0
  0
LINE
  5
22A
330
1F
100
AcDbEntity
  8
B-2
  6
Continuous
 62
     3
370
     9
100
AcDbLine
 10
-118.5416144293707
 20
209.458279996305
 30
0.0
 11
-118.5416144293707
 21
117.9385169776711
 31
0.0
  0
LINE
  5
22B
330
1F
100
AcDbEntity
  8
B-2
  6
Continuous
 62
     3
370
     9
100
AcDbLine
 10
-123.5413834855363
 20
309.4588573558912
 30
0.0
 11
-123.5413834855363
 21
217.9385375976562
 31
0.0
  0
LINE
  5
22C
330
1F
100
AcDbEntity
  8
B-2
  6
Continuous
 62
     3
370
     9
100
AcDbLine
 10
-123.5413834855363
 20
209.458279996305
 30
0.0
 11
-123.5413834855363
 21
117.9385169776711
 31
0.0
  0
LINE
  5
22D
330
1F
100
AcDbEntity
  8
B-2
  6
Continuous
 62
     3
370
     9
100
AcDbLine
 10
-88.54151545344166
 20
217.9385375976562
 30
0.0
 11
-118.5422330289273
 21
209.4588985958616
 31
0.0
  0
LINE
  5
22E
330
1F
100
AcDbEntity
  8
B-2
  6
Continuous
 62
     3
370
     9
100
AcDbLine
 10
-178.5420598210514
 20
217.9385375976562
 30
0.0
 11
-208.5422825168918
 21
209.4588985958616
 31
0.0
  0
LINE
  5
22F
330
1F
100
AcDbEntity
  8
B-2
  6
Continuous
 62
     3
370
     9
100
AcDbLine
 10
-208.5422825168918
 20
217.9385375976562
 30
0.0
 11
-238.541639173353
 21
209.4588985958616
 31
0.0
  0
LINE
  5
230
330
1F
100
AcDbEntity
  8
B-2
  6
Continuous
 62
     3
370
     9
100
AcDbLine
 10
-238.541639173353
 20
217.9385375976562
 30
0.0
 11
-268.5419855891047
 21
209.4588985958616
 31
0.0
  0
LINE
  5
231
330
1F
100
AcDbEntity
  8
B-2
  6
Continuous
 62
     3
370
     9
100
AcDbLine
 10
-268.5419855891047
 20
217.9385375976562
 30
0.0
 11
-298.5419608451224
 21
209.4588985958616
 31
0.0
  0
LINE
  5
232
330
1F
100
AcDbEntity
  8
B-2
  6
Continuous
 62
     3
370
     9
100
AcDbLine
 10
-298.5419608451224
 20
217.9385375976562
 30
0.0
 11
-328.5421835409628
 21
209.4588985958616
 31
0.0
  0
LINE
  5
233
330
1F
100
AcDbEntity
  8
B-2
  6
Continuous
 62
     3
370
     9
100
AcDbLine
 10
-328.5416886613176
 20
217.9385375976562
 30
0.0
 11
-358.5422825168918
 21
209.4588985958616
 31
0.0
  0
LINE
  5
234
330
1F
100
AcDbEntity
  8
B-2
  6
Continuous
 62
     3
370
     9
100
AcDbLine
 10
-358.5419113571579
 20
217.9385375976562
 30
0.0
 11
-388.542010333087
 21
209.4588985958616
 31
0.0
  0
LINE
  5
235
330
1F
100
AcDbEntity
  8
B-2
  6
Continuous
 62
     3
370
     9
100
AcDbLine
 10
-388.542010333087
 20
217.9385375976562
 30
0.0
 11
-418.5416144293708
 21
209.4588985958616
 31
0.0
  0
LINE
  5
236
330
1F
100
AcDbEntity
  8
B-2
  6
Continuous
 62
     3
370
     9
100
AcDbLine
 10
-418.5416144293708
 20
217.9385375976562
 30
0.0
 11
-448.542208284945
 21
209.4588985958616
 31
0.0
  0
LINE
  5
237
330
1F
100
AcDbEntity
  8
B-2
  6
Continuous
 62
     3
370
     9
100
AcDbLine
 10
-448.542208284945
 20
217.9385375976562
 30
0.0
 11
-478.5419361011402
 21
209.4588985958616
 31
0.0
  0
LINE
  5
238
330
1F
100
AcDbEntity
  8
B-2
  6
Continuous
 62
     3
370
     9
100
AcDbLine
 10
-478.5419361011402
 20
217.9385375976562
 30
0.0
 11
-508.541540197424
 21
209.4588985958616
 31
0.0
  0
LINE
  5
239
330
1F
100
AcDbEntity
  8
B-2
  6
Continuous
 62
     3
370
     9
100
AcDbLine
 10
-508.541540197424
 20
217.9385375976562
 30
0.0
 11
-538.5421340529983
 21
209.4588985958616
 31
0.0
  0
LINE
  5
23A
330
1F
100
AcDbEntity
  8
B-2
  6
Continuous
 62
     3
370
     9
100
AcDbLine
 10
-538.5421340529983
 20
217.9385375976562
 30
0.0
 11
-568.5418618691933
 21
209.4588985958616
 31
0.0
  0
LINE
  5
23B
330
1F
100
AcDbEntity
  8
B-2
  6
Continuous
 62
     3
370
     9
100
AcDbLine
 10
-148.5418371252111
 20
217.9385375976562
 30
0.0
 11
-178.5420598210514
 21
209.4588985958616
 31
0.0
  0
LINE
  5
23C
330
1F
100
AcDbEntity
  8
B-2
  6
Continuous
 62
     3
370
     9
100
AcDbLine
 10
-118.5416144293707
 20
217.9385375976562
 30
0.0
 11
-148.5418371252111
 21
209.4588985958616
 31
0.0
  0
LINE
  5
23D
330
1F
100
AcDbEntity
  8
B-2
  6
Continuous
 62
     3
370
     9
100
AcDbLine
 10
463.8647955817146
 20
117.6841488400022
 30
0.0
 11
463.8647955817146
 21
209.713885333087
 31
0.0
  0
LINE
  5
23E
330
1F
100
AcDbEntity
  8
B-2
  6
Continuous
 62
     3
370
     9
100
AcDbLine
 10
464.8646999049831
 20
116.6842445167336
 30
0.0
 11
464.8646999049831
 21
210.7137896563556
 31
0.0
  0
LINE
  5
23F
330
1F
100
AcDbEntity
  8
B-2
  6
Continuous
 62
     3
370
     9
100
AcDbLine
 10
464.8646999049831
 20
216.6843269966745
 30
0.0
 11
464.8646999049831
 21
310.7137484163852
 31
0.0
  0
LINE
  5
240
330
1F
100
AcDbEntity
  8
B-2
  6
Continuous
 62
     3
370
     9
100
AcDbLine
 10
463.8647955817146
 20
217.6841694599874
 30
0.0
 11
463.8647955817146
 21
309.7138440931167
 31
0.0
  0
LINE
  5
241
330
1F
100
AcDbEntity
  8
B-2
  6
Continuous
 62
     3
370
     9
100
AcDbLine
 10
459.3647312473607
 20
468.6987552127323
 30
0.0
 11
478.3647691881336
 21
468.6987552127323
 31
0.0
  0
LINE
  5
242
330
1F
100
AcDbEntity
  8
B-2
  6
Continuous
 62
     3
370
     9
100
AcDbLine
 10
457.8646273226352
 20
464.1986908783784
 30
0.0
 11
484.3646900073904
 21
464.1986908783784
 31
0.0
  0
LINE
  5
243
330
1F
100
AcDbEntity
  8
B-A
  6
Continuous
 62
     3
370
     9
100
AcDbLine
 10
457.8646273226352
 20
464.1986908783784
 30
0.0
 11
457.8646273226352
 21
459.910311312289
 31
0.0
  0
LINE
  5
244
330
1F
100
AcDbEntity
  8
B-A
  6
Continuous
 62
     3
370
     9
100
AcDbLine
 10
459.3647312473607
 20
468.6987552127323
 30
0.0
 11
459.3647312473607
 21
464.1986908783784
 31
0.0
  0
LINE
  5
245
330
1F
100
AcDbEntity
  8
B-A
  6
Continuous
 62
     3
370
     9
100
AcDbLine
 10
457.8646273226352
 20
139.1477595148861
 30
0.0
 11
457.8646273226352
 21
134.740361394109
 31
0.0
  0
LINE
  5
246
330
1F
100
AcDbEntity
  8
B-A
  6
Continuous
 62
     3
370
     9
100
AcDbLine
 10
457.8646273226352
 20
134.740361394109
 30
0.0
 11
459.3647312473607
 21
134.2290270006335
 31
0.0
  0
LINE
  5
247
330
1F
100
AcDbEntity
  8
B-A
  6
Continuous
 62
     3
370
     9
100
AcDbLine
 10
457.8646273226352
 20
139.1477595148861
 30
0.0
 11
459.3647312473607
 21
139.6590939083616
 31
0.0
  0
LINE
  5
248
330
1F
100
AcDbEntity
  8
B-A
  6
Continuous
 62
     3
370
     9
100
AcDbLine
 10
459.3647312473607
 20
144.7723141232053
 30
0.0
 11
459.3647312473607
 21
139.6590939083616
 31
0.0
  0
LINE
  5
249
330
1F
100
AcDbEntity
  8
B-A
  6
Continuous
 62
     3
370
     9
100
AcDbLine
 10
459.3647312473607
 20
134.2290270006335
 30
0.0
 11
459.3647312473607
 21
129.115930505701
 31
0.0
  0
LINE
  5
24A
330
1F
100
AcDbEntity
  8
B-A
  6
Continuous
 62
     3
370
     9
100
AcDbLine
 10
457.8646273226352
 20
128.6044723923142
 30
0.0
 11
459.3647312473607
 21
129.115930505701
 31
0.0
  0
LINE
  5
24B
330
1F
100
AcDbEntity
  8
B-A
  6
Continuous
 62
     3
370
     9
100
AcDbLine
 10
457.8646273226352
 20
128.6044723923142
 30
0.0
 11
457.8646273226352
 21
122.0570909654772
 31
0.0
  0
LINE
  5
24C
330
1F
100
AcDbEntity
  8
B-A
  6
Continuous
 62
     3
370
     9
100
AcDbLine
 10
457.8646273226352
 20
122.0570909654772
 30
0.0
 11
459.3647312473607
 21
121.545880291913
 31
0.0
  0
LINE
  5
24D
330
1F
100
AcDbEntity
  8
B-A
  6
Continuous
 62
     3
370
     9
100
AcDbLine
 10
457.8646273226352
 20
115.9213256835938
 30
0.0
 11
457.8646273226352
 21
111.5139275628168
 31
0.0
  0
LINE
  5
24E
330
1F
100
AcDbEntity
  8
B-A
  6
Continuous
 62
     3
370
     9
100
AcDbLine
 10
457.8646273226352
 20
111.5139275628168
 30
0.0
 11
459.3647312473607
 21
111.0025931693413
 31
0.0
  0
LINE
  5
24F
330
1F
100
AcDbEntity
  8
B-A
  6
Continuous
 62
     3
370
     9
100
AcDbLine
 10
457.8646273226352
 20
115.9213256835938
 30
0.0
 11
459.3647312473607
 21
116.4326600770693
 31
0.0
  0
LINE
  5
250
330
1F
100
AcDbEntity
  8
B-A
  6
Continuous
 62
     3
370
     9
100
AcDbLine
 10
459.3647312473607
 20
121.545880291913
 30
0.0
 11
459.3647312473607
 21
116.4326600770693
 31
0.0
  0
LINE
  5
251
330
1F
100
AcDbEntity
  8
B-A
  6
Continuous
 62
     3
370
     9
100
AcDbLine
 10
459.3647312473607
 20
111.0025931693413
 30
0.0
 11
459.3647312473607
 21
105.8894966744089
 31
0.0
  0
LINE
  5
252
330
1F
100
AcDbEntity
  8
B-A
  6
Continuous
 62
     3
370
     9
100
AcDbLine
 10
457.8646273226352
 20
105.378038561022
 30
0.0
 11
459.3647312473607
 21
105.8894966744089
 31
0.0
  0
LINE
  5
253
330
1F
100
AcDbEntity
  8
B-A
  6
Continuous
 62
     3
370
     9
100
AcDbLine
 10
457.8646273226352
 20
105.378038561022
 30
0.0
 11
457.8646273226352
 21
98.83065713418503
 31
0.0
  0
LINE
  5
254
330
1F
100
AcDbEntity
  8
B-A
  6
Continuous
 62
     3
370
     9
100
AcDbLine
 10
457.8646273226352
 20
98.83065713418503
 30
0.0
 11
459.3647312473607
 21
98.31944646062084
 31
0.0
  0
LINE
  5
255
330
1F
100
AcDbEntity
  8
B-A
  6
Continuous
 62
     3
370
     9
100
AcDbLine
 10
457.8646273226352
 20
92.69489185230157
 30
0.0
 11
457.8646273226352
 21
88.28749373152448
 31
0.0
  0
LINE
  5
256
330
1F
100
AcDbEntity
  8
B-A
  6
Continuous
 62
     3
370
     9
100
AcDbLine
 10
457.8646273226352
 20
88.28749373152448
 30
0.0
 11
459.3647312473607
 21
87.7761593380491
 31
0.0
  0
LINE
  5
257
330
1F
100
AcDbEntity
  8
B-A
  6
Continuous
 62
     3
370
     9
100
AcDbLine
 10
457.8646273226352
 20
92.69489185230157
 30
0.0
 11
459.3647312473607
 21
93.20622624577709
 31
0.0
  0
LINE
  5
258
330
1F
100
AcDbEntity
  8
B-A
  6
Continuous
 62
     3
370
     9
100
AcDbLine
 10
459.3647312473607
 20
98.31944646062084
 30
0.0
 11
459.3647312473607
 21
93.20622624577709
 31
0.0
  0
LINE
  5
259
330
1F
100
AcDbEntity
  8
B-A
  6
Continuous
 62
     3
370
     9
100
AcDbLine
 10
459.3647312473607
 20
87.7761593380491
 30
0.0
 11
459.3647312473607
 21
82.66306284311653
 31
0.0
  0
LINE
  5
25A
330
1F
100
AcDbEntity
  8
B-A
  6
Continuous
 62
     3
370
     9
100
AcDbLine
 10
457.8646273226352
 20
82.15160472972983
 30
0.0
 11
459.3647312473607
 21
82.66306284311653
 31
0.0
  0
LINE
  5
25B
330
1F
100
AcDbEntity
  8
B-A
  6
Continuous
 62
     3
370
     9
100
AcDbLine
 10
457.8646273226352
 20
82.15160472972983
 30
0.0
 11
457.8646273226352
 21
75.60422330289285
 31
0.0
  0
LINE
  5
25C
330
1F
100
AcDbEntity
  8
B-A
  6
Continuous
 62
     3
370
     9
100
AcDbLine
 10
457.8646273226352
 20
75.60422330289285
 30
0.0
 11
459.3647312473607
 21
75.09301262932865
 31
0.0
  0
LINE
  5
25D
330
1F
100
AcDbEntity
  8
B-A
  6
Continuous
 62
     3
370
     9
100
AcDbLine
 10
457.8646273226352
 20
69.46845802100938
 30
0.0
 11
457.8646273226352
 21
65.0610599002323
 31
0.0
  0
LINE
  5
25E
330
1F
100
AcDbEntity
  8
B-A
  6
Continuous
 62
     3
370
     9
100
AcDbLine
 10
457.8646273226352
 20
65.0610599002323
 30
0.0
 11
459.3647312473607
 21
64.54972550675677
 31
0.0
  0
LINE
  5
25F
330
1F
100
AcDbEntity
  8
B-A
  6
Continuous
 62
     3
370
     9
100
AcDbLine
 10
457.8646273226352
 20
69.46845802100938
 30
0.0
 11
459.3647312473607
 21
69.9797924144849
 31
0.0
  0
LINE
  5
260
330
1F
100
AcDbEntity
  8
B-A
  6
Continuous
 62
     3
370
     9
100
AcDbLine
 10
459.3647312473607
 20
75.09301262932865
 30
0.0
 11
459.3647312473607
 21
69.9797924144849
 31
0.0
  0
LINE
  5
261
330
1F
100
AcDbEntity
  8
B-A
  6
Continuous
 62
     3
370
     9
100
AcDbLine
 10
459.3647312473607
 20
64.54972550675677
 30
0.0
 11
459.3647312473607
 21
59.43662901182435
 31
0.0
  0
LINE
  5
262
330
1F
100
AcDbEntity
  8
B-2
  6
Continuous
 62
     3
370
     9
100
AcDbLine
 10
459.3647312473607
 20
63.19895151499153
 30
0.0
 11
484.3646900073904
 21
63.19895151499153
 31
0.0
  0
LINE
  5
263
330
1F
100
AcDbEntity
  8
B-2
  6
Continuous
 62
     3
370
     9
100
AcDbLine
 10
459.3647312473607
 20
63.19895151499153
 30
0.0
 11
459.3647312473607
 21
58.69888718063777
 31
0.0
  0
LINE
  5
264
330
1F
100
AcDbEntity
  8
B-4
  6
Continuous
 62
     7
370
     9
100
AcDbLine
 10
-493.842686833562
 20
468.6987552127323
 30
0.0
 11
-491.441840094489
 21
480.9660792995145
 31
0.0
  0
LINE
  5
265
330
1F
100
AcDbEntity
  8
B-4
  6
Continuous
 62
     7
370
     9
100
AcDbLine
 10
-493.842686833562
 20
468.6987552127323
 30
0.0
 11
-488.3485948717271
 21
479.9265846046242
 31
0.0
  0
LINE
  5
266
330
1F
100
AcDbEntity
  8
B-4
  6
Continuous
 62
     7
370
     9
100
AcDbLine
 10
-466.0412762616131
 20
417.9384551177155
 30
0.0
 11
-463.8680122994087
 21
430.2480914141681
 31
0.0
  0
LINE
  5
267
330
1F
100
AcDbEntity
  8
B-4
  6
Continuous
 62
     7
370
     9
100
AcDbLine
 10
-466.0412762616131
 20
417.9384551177155
 30
0.0
 11
-460.756085370038
 21
429.2661264780406
 31
0.0
  0
LINE
  5
268
330
1F
100
AcDbEntity
  8
B-4
  6
Continuous
 62
     7
370
     9
100
AcDbLine
 10
-181.0419443491342
 20
491.1295462943413
 30
0.0
 11
-151.0417216532939
 21
491.1295462943413
 31
0.0
  0
LINE
  5
269
330
1F
100
AcDbEntity
  8
B-4
  6
Continuous
 62
     7
370
     9
100
AcDbLine
 10
459.3647312473607
 20
8.69890780062292
 30
0.0
 11
554.3645497914908
 21
8.69890780062292
 31
0.0
  0
LINE
  5
26A
330
1F
100
AcDbEntity
  8
B-4
  6
Continuous
 62
     7
370
     9
100
AcDbLine
 10
459.3647312473607
 20
50.69897213497683
 30
0.0
 11
459.3647312473607
 21
-31.30110044737123
 31
0.0
  0
ARC
  5
26B
330
1F
100
AcDbEntity
  8
B-1
  6
Continuous
 62
     2
370
     9
100
AcDbCircle
 10
490.7647210198482
 20
428.0988291147594
 30
0.0
 40
6.399999599199038
100
AcDbArc
 50
180.0
 51
270.0
  0
ARC
  5
26C
330
1F
100
AcDbEntity
  8
B-1
  6
Continuous
 62
     2
370
     9
100
AcDbCircle
 10
547.9646424989443
 20
428.0988291147594
 30
0.0
 40
6.399999599199038
100
AcDbArc
 50
270.0
 51
0.0
  0
ARC
  5
26D
330
1F
100
AcDbEntity
  8
B-1
  6
Continuous
 62
     2
370
     9
100
AcDbCircle
 10
547.9646424989443
 20
428.0988291147594
 30
0.0
 40
3.199999799599519
100
AcDbArc
 50
270.0
 51
0.0
  0
ARC
  5
26E
330
1F
100
AcDbEntity
  8
B-1
  6
Continuous
 62
     2
370
     9
100
AcDbCircle
 10
490.7647210198482
 20
455.2988990577492
 30
0.0
 40
6.399999599199038
100
AcDbArc
 50
90.0
 51
180.0
  0
ARC
  5
26F
330
1F
100
AcDbEntity
  8
B-1
  6
Continuous
 62
     2
370
     9
100
AcDbCircle
 10
490.7645972999367
 20
455.2986516179266
 30
0.0
 40
3.199999799599519
100
AcDbArc
 50
90.0
 51
180.0
  0
ARC
  5
270
330
1F
100
AcDbEntity
  8
B-1
  6
Continuous
 62
     2
370
     9
100
AcDbCircle
 10
547.9646424989443
 20
455.2986516179266
 30
0.0
 40
3.199999799599519
100
AcDbArc
 50
0.0
 51
90.0
  0
ARC
  5
271
330
1F
100
AcDbEntity
  8
B-1
  6
Continuous
 62
     2
370
     9
100
AcDbCircle
 10
547.9646424989443
 20
455.2988990577492
 30
0.0
 40
6.399999599199038
100
AcDbArc
 50
0.0
 51
90.0
  0
ARC
  5
272
330
1F
100
AcDbEntity
  8
B-1
  6
Continuous
 62
     2
370
     9
100
AcDbCircle
 10
490.7647210198482
 20
428.0988291147594
 30
0.0
 40
3.199999799599519
100
AcDbArc
 50
180.0
 51
270.0
  0
ARC
  5
273
330
1F
100
AcDbEntity
  8
B-1
  6
Continuous
 62
     2
370
     9
100
AcDbCircle
 10
490.7647210198482
 20
99.29881327861068
 30
0.0
 40
6.399999599199038
100
AcDbArc
 50
90.0
 51
180.0
  0
ARC
  5
274
330
1F
100
AcDbEntity
  8
B-1
  6
Continuous
 62
     2
370
     9
100
AcDbCircle
 10
547.9646424989443
 20
99.29881327861068
 30
0.0
 40
6.399999599199038
100
AcDbArc
 50
0.0
 51
90.0
  0
ARC
  5
275
330
1F
100
AcDbEntity
  8
B-1
  6
Continuous
 62
     2
370
     9
100
AcDbCircle
 10
547.9646424989443
 20
99.29881327861068
 30
0.0
 40
3.199999799599519
100
AcDbArc
 50
0.0
 51
90.0
  0
ARC
  5
276
330
1F
100
AcDbEntity
  8
B-1
  6
Continuous
 62
     2
370
     9
100
AcDbCircle
 10
490.7647210198482
 20
72.09874333562084
 30
0.0
 40
6.399999599199038
100
AcDbArc
 50
180.0
 51
270.0
  0
ARC
  5
277
330
1F
100
AcDbEntity
  8
B-1
  6
Continuous
 62
     2
370
     9
100
AcDbCircle
 10
490.7645972999367
 20
72.0989907754435
 30
0.0
 40
3.199999799599519
100
AcDbArc
 50
180.0
 51
270.0
  0
ARC
  5
278
330
1F
100
AcDbEntity
  8
B-1
  6
Continuous
 62
     2
370
     9
100
AcDbCircle
 10
547.9646424989443
 20
72.0989907754435
 30
0.0
 40
3.199999799599519
100
AcDbArc
 50
270.0
 51
0.0
  0
ARC
  5
279
330
1F
100
AcDbEntity
  8
B-1
  6
Continuous
 62
     2
370
     9
100
AcDbCircle
 10
547.9646424989443
 20
72.09874333562084
 30
0.0
 40
6.399999599199038
100
AcDbArc
 50
270.0
 51
0.0
  0
ARC
  5
27A
330
1F
100
AcDbEntity
  8
B-1
  6
Continuous
 62
     2
370
     9
100
AcDbCircle
 10
490.7647210198482
 20
99.29881327861068
 30
0.0
 40
3.199999799599519
100
AcDbArc
 50
90.0
 51
180.0
  0
TEXT
  5
27B
330
1F
100
AcDbEntity
  8
B-4
  6
Continuous
 62
     7
370
     9
100
AcDbText
 10
-416.8910052325274
 20
566.8030856075802
 30
0.0
 40
11.43
  1
クロスバー □６ ＠100
 41
1.158730158730159
  7
ＭＳ ゴシック
100
AcDbText
  0
TEXT
  5
27C
330
1F
100
AcDbEntity
  8
B-4
  6
Continuous
 62
     7
370
     9
100
AcDbText
 10
-393.4123683620143
 20
528.0494317461994
 30
0.0
 40
11.43
  1
メインバー ＤⅠ－２５ ＠30
 41
1.160256431405113
  7
ＭＳ ゴシック
100
AcDbText
  0
TEXT
  5
27D
330
1F
100
AcDbEntity
  8
B-4
  6
Continuous
 62
     2
370
     9
100
AcDbText
 10
601.5447147513727
 20
38.12463708826016
 30
0.0
 40
15.24
  1
7
 50
90.0
 41
0.9999999999999998
  7
ＭＳ ゴシック
100
AcDbText
  0
TEXT
  5
27E
330
1F
100
AcDbEntity
  8
B-4
  6
Continuous
 62
     2
370
     9
100
AcDbText
 10
601.5447147513727
 20
75.07389790303009
 30
0.0
 40
15.24
  1
40
 50
90.0
 41
1.0625
  7
ＭＳ ゴシック
100
AcDbText
  0
TEXT
  5
27F
330
1F
100
AcDbEntity
  8
B-4
  6
Continuous
 62
     2
370
     9
100
AcDbText
 10
601.5447147513727
 20
431.0737981023016
 30
0.0
 40
15.24
  1
40
 50
90.0
 41
1.0625
  7
ＭＳ ゴシック
100
AcDbText
  0
TEXT
  5
280
330
1F
100
AcDbEntity
  8
B-4
  6
Continuous
 62
     2
370
     9
100
AcDbText
 10
601.5447147513727
 20
479.1298283757391
 30
0.0
 40
15.24
  1
7
 50
90.0
 41
0.9999999999999998
  7
ＭＳ ゴシック
100
AcDbText
  0
TEXT
  5
281
330
1F
100
AcDbEntity
  8
B-4
  6
Continuous
 62
     2
370
     9
100
AcDbText
 10
508.7396157754435
 20
14.5189300702069
 30
0.0
 40
15.24
  1
70
 41
1.0625
  7
ＭＳ ゴシック
100
AcDbText
  0
TEXT
  5
282
330
1F
100
AcDbEntity
  8
B-4
  6
Continuous
 62
     2
370
     9
100
AcDbText
 10
496.2396982553844
 20
-25.4810781777871
 30
0.0
 40
15.24
  1
95
 41
1.0625
  7
ＭＳ ゴシック
100
AcDbText
  0
TEXT
  5
283
330
1F
100
AcDbEntity
  8
B-4
  6
Continuous
 62
     2
370
     9
100
AcDbText
 10
403.544729597762
 20
247.4488294446792
 30
0.0
 40
15.24
  1
410
 50
90.0
 41
1.083333333333333
  7
ＭＳ ゴシック
100
AcDbText
  0
TEXT
  5
284
330
1F
100
AcDbEntity
  8
B-4
  6
Continuous
 62
     2
370
     9
100
AcDbText
 10
603.5447708377322
 20
247.4488294446792
 30
0.0
 40
15.24
  1
316
 50
90.0
 41
1.083333333333333
  7
ＭＳ ゴシック
100
AcDbText
  0
TEXT
  5
285
330
1F
100
AcDbEntity
  8
B-4
  6
Continuous
 62
     7
370
     9
100
AcDbText
 10
204.1534423828125
 20
528.6179247387037
 30
0.0
 40
11.43
  1
かさ上げ材：□７０×４０×３．２
 41
1.15625
  7
ＭＳ ゴシック
100
AcDbText
  0
TEXT
  5
286
330
1F
100
AcDbEntity
  8
B-4
  6
Continuous
 62
     2
370
     9
100
AcDbText
 10
-347.2921216810072
 20
14.51899193016263
 30
0.0
 40
15.24
  1
485
 41
1.083333333333333
  7
ＭＳ ゴシック
100
AcDbText
  0
TEXT
  5
287
330
1F
100
AcDbEntity
  8
B-4
  6
Continuous
 62
     7
370
     9
100
AcDbText
 10
283.9979429502745
 20
500.6151600110854
 30
0.0
 40
11.43
  1
（Ｌ＝４７５）
 41
1.142857142857143
  7
ＭＳ ゴシック
100
AcDbText
  0
TEXT
  5
288
330
1F
100
AcDbEntity
  8
B-4
  6
Continuous
 62
     2
370
     9
100
AcDbText
 10
-176.6668371252111
 20
496.9495067039697
 30
0.0
 40
15.24
  1
30
 41
1.0625
  7
ＭＳ ゴシック
100
AcDbText
  0
TEXT
  5
289
330
1F
100
AcDbEntity
  8
B-4
  6
Continuous
 62
     2
370
     9
100
AcDbText
 10
461.2397065033784
 20
14.5189300702069
 30
0.0
 40
15.24
  1
25
 41
1.0625
  7
ＭＳ ゴシック
100
AcDbText
  0
TEXT
  5
28A
330
1F
100
AcDbEntity
  8
B-4
  6
Continuous
 62
     7
370
     9
100
AcDbText
 10
-443.8196336900865
 20
608.1888805822425
 30
0.0
 40
11.43
  1
エンドプレート ＦＢ4.5×19
 41
1.16025641025641
  7
ＭＳ ゴシック
100
AcDbText
  0
LINE
  5
28B
330
1F
100
AcDbEntity
  8
B-4
  6
Continuous
 62
     7
370
     9
100
AcDbLine
 10
-181.0419443491342
 20
455.7882352941176
 30
0.0
 11
-181.0419443491342
 21
492.6295264991555
 31
0.0
  0
LINE
  5
28C
330
1F
100
AcDbEntity
  8
B-4
  6
Continuous
 62
     7
370
     9
100
AcDbLine
 10
-151.0417216532939
 20
455.7882352941176
 30
0.0
 11
-151.0417216532939
 21
492.6295264991555
 31
0.0
  0
LINE
  5
28D
330
1F
100
AcDbEntity
  8
F-4ﾚｲﾔ
  6
Continuous
 62
     2
370
     9
100
AcDbLine
 10
208.9414582562989
 20
-376.7689952821634
 30
0.0
 11
208.9414582562989
 21
-351.7685416424885
 31
0.0
  0
LINE
  5
28E
330
1F
100
AcDbEntity
  8
F-4ﾚｲﾔ
  6
Continuous
 62
     2
370
     9
100
AcDbLine
 10
208.9414582562989
 20
-351.7685416424885
 30
0.0
 11
321.4414582562987
 21
-351.7685416424885
 31
0.0
  0
LINE
  5
28F
330
1F
100
AcDbEntity
  8
F-4ﾚｲﾔ
  6
Continuous
 62
     2
370
     9
100
AcDbLine
 10
321.4414582562987
 20
-351.7685416424885
 30
0.0
 11
321.4414582562987
 21
-376.7689952821634
 31
0.0
  0
LINE
  5
290
330
1F
100
AcDbEntity
  8
F-4ﾚｲﾔ
  6
Continuous
 62
     2
370
     9
100
AcDbLine
 10
321.4414582562987
 20
-376.7689952821634
 30
0.0
 11
208.9414582562989
 21
-376.7689952821634
 31
0.0
  0
TEXT
  5
291
330
1F
100
AcDbEntity
  8
F-4ﾚｲﾔ
  6
Continuous
 62
     2
370
     9
100
AcDbText
 10
232.6915984721983
 20
-371.4487395943467
 30
0.0
 40
15.24
  1
仕　様
 41
1.083333333333333
  7
ＭＳ ゴシック
100
AcDbText
  0
TEXT
  5
292
330
1F
100
AcDbEntity
  8
F-4ﾚｲﾔ
  6
Continuous
 62
     2
370
     9
100
AcDbText
 10
289.8424031465016
 20
-485.4085108279826
 30
0.0
 40
15.24
  1
処理：溶融亜鉛めっき
 41
1.1125
  7
ＭＳ ゴシック
100
AcDbText
  0
TEXT
  5
293
330
1F
100
AcDbEntity
  8
F-4ﾚｲﾔ
  6
Continuous
 62
     2
370
     9
100
AcDbText
 10
289.8424031465016
 20
-512.9090964355628
 30
0.0
 40
15.24
  1
定尺：４８５
 41
1.104166666666667
  7
ＭＳ ゴシック
100
AcDbText
  0
TEXT
  5
294
330
1F
100
AcDbEntity
  8
F-4ﾚｲﾔ
  6
Continuous
 62
     2
370
     9
100
AcDbText
 10
259.9861904274349
 20
-402.9089809636457
 30
0.0
 40
15.24
  1
スチール製グレーチング　かさあげ型　滑り止め模様付
 41
1.12
  7
ＭＳ ゴシック
100
AcDbText
  0
TEXT
  5
295
330
1F
100
AcDbEntity
  8
F-5ﾚｲﾔ
  6
Continuous
 62
     3
370
     9
100
AcDbText
 10
346.4414582562987
 20
-373.2439952821634
 30
0.0
 40
19.05
  1
※適用荷重：Ｔ－２
 41
1.088888888888889
  7
ＭＳ ゴシック
100
AcDbText
  0
TEXT
  5
296
330
1F
100
AcDbEntity
  8
F-5ﾚｲﾔ
  6
Continuous
 62
     2
370
     9
100
AcDbText
 10
-429.8278875665118
 20
-662.5531326891459
 30
0.0
 40
15.24
  1
スチール製グレーチング　かさあげ型　滑り止め模様付　ＪＩＳ型側溝用
 41
0.8992424242424241
  7
ＭＳ ゴシック
100
AcDbText
  0
TEXT
  5
297
330
1F
100
AcDbEntity
  8
F-5ﾚｲﾔ
  6
Continuous
 62
     2
370
     9
100
AcDbText
 10
36.83157406004113
 20
-686.8497120312591
 30
0.0
 40
15.24
  1
ＨＸＪ　４１２５Ａ
 41
0.897222222222222
  7
ＭＳ ゴシック
100
AcDbText
  0
TEXT
  5
298
330
1F
100
AcDbEntity
  8
F-4ﾚｲﾔ
  6
Continuous
 62
     2
370
     9
100
AcDbText
 10
289.8424031465016
 20
-457.9079252204024
 30
0.0
 40
15.24
  1
材質：ＳＳ４００＋ＳＴＫＲ４００
 41
1.1171875
  7
ＭＳ ゴシック
100
AcDbText
  0
TEXT
  5
299
330
1F
100
AcDbEntity
  8
F-4ﾚｲﾔ
  6
Continuous
 62
     2
370
     9
100
AcDbText
 10
259.986190427435
 20
-430.4095665712259
 30
0.0
 40
15.24
  1
ＪＩＳ型側溝用　ＨＸＪ　４１２５Ａ
 41
1.117647058823529
  7
ＭＳ ゴシック
100
AcDbText
  0
LINE
  5
29A
330
1F
100
AcDbEntity
  8
D-0
  6
Continuous
 62
     3
370
     9
100
AcDbLine
 10
-260.9345129904389
 20
-425.5576898745705
 30
0.0
 11
-460.9345082220673
 21
-425.5576898745705
 31
0.0
  0
LINE
  5
29B
330
1F
100
AcDbEntity
  8
D-0
  6
Continuous
 62
     3
370
     9
100
AcDbLine
 10
-260.9345129904389
 20
-414.3075945071388
 30
0.0
 11
-460.9345082220673
 21
-414.3075945071388
 31
0.0
  0
LINE
  5
29C
330
1F
100
AcDbEntity
  8
D-0
  6
Continuous
 62
     3
370
     9
100
AcDbLine
 10
-260.9345129904389
 20
-411.8077089480568
 30
0.0
 11
-460.9345082220673
 21
-411.8077089480568
 31
0.0
  0
LINE
  5
29D
330
1F
100
AcDbEntity
  8
D-0
  6
Continuous
 62
     3
370
     9
100
AcDbLine
 10
-260.9345129904389
 20
-374.3075849703957
 30
0.0
 11
-460.9345082220673
 21
-374.3075849703957
 31
0.0
  0
LINE
  5
29E
330
1F
100
AcDbEntity
  8
D-0
  6
Continuous
 62
     3
370
     9
100
AcDbLine
 10
-260.9345129904389
 20
-376.8074705294777
 30
0.0
 11
-460.9345082220673
 21
-376.8074705294777
 31
0.0
  0
LINE
  5
29F
330
1F
100
AcDbEntity
  8
D-0
  6
Continuous
 62
     3
370
     9
100
AcDbLine
 10
-457.4960497793793
 20
-363.057489602964
 30
0.0
 11
-456.2460497793793
 21
-359.3077852420021
 31
0.0
  0
LINE
  5
2A0
330
1F
100
AcDbEntity
  8
D-0
  6
Continuous
 62
     3
370
     9
100
AcDbLine
 10
-439.8210505423187
 20
-359.3077852420021
 30
0.0
 11
-438.5710505423187
 21
-363.057489602964
 31
0.0
  0
LINE
  5
2A1
330
1F
100
AcDbEntity
  8
D-0
  6
Continuous
 62
     3
370
     9
100
AcDbLine
 10
-439.8210505423187
 20
-359.3077852420021
 30
0.0
 11
-456.2460497793793
 21
-359.3077852420021
 31
0.0
  0
LINE
  5
2A2
330
1F
100
AcDbEntity
  8
D-0
  6
Continuous
 62
     3
370
     9
100
AcDbLine
 10
-457.4960497793793
 20
-363.057489602964
 30
0.0
 11
-460.9345082220673
 21
-363.057489602964
 31
0.0
  0
LINE
  5
2A3
330
1F
100
AcDbEntity
  8
D-0
  6
Continuous
 62
     3
370
     9
100
AcDbLine
 10
-413.4630373892426
 20
-359.3077852420021
 30
0.0
 11
-412.2130373892426
 21
-363.057489602964
 31
0.0
  0
LINE
  5
2A4
330
1F
100
AcDbEntity
  8
D-0
  6
Continuous
 62
     3
370
     9
100
AcDbLine
 10
-425.788038152182
 20
-363.057489602964
 30
0.0
 11
-424.538038152182
 21
-359.3077852420021
 31
0.0
  0
LINE
  5
2A5
330
1F
100
AcDbEntity
  8
D-0
  6
Continuous
 62
     3
370
     9
100
AcDbLine
 10
-425.788038152182
 20
-363.057489602964
 30
0.0
 11
-438.5710505423187
 21
-363.057489602964
 31
0.0
  0
LINE
  5
2A6
330
1F
100
AcDbEntity
  8
D-0
  6
Continuous
 62
     3
370
     9
100
AcDbLine
 10
-399.4300249991059
 20
-363.057489602964
 30
0.0
 11
-398.1800249991059
 21
-359.3077852420021
 31
0.0
  0
LINE
  5
2A7
330
1F
100
AcDbEntity
  8
D-0
  6
Continuous
 62
     3
370
     9
100
AcDbLine
 10
-380.5050257620453
 20
-363.057489602964
 30
0.0
 11
-381.7550257620453
 21
-359.3077852420021
 31
0.0
  0
LINE
  5
2A8
330
1F
100
AcDbEntity
  8
D-0
  6
Continuous
 62
     3
370
     9
100
AcDbLine
 10
-413.4630373892426
 20
-359.3077852420021
 30
0.0
 11
-424.538038152182
 21
-359.3077852420021
 31
0.0
  0
LINE
  5
2A9
330
1F
100
AcDbEntity
  8
D-0
  6
Continuous
 62
     3
370
     9
100
AcDbLine
 10
-399.4300249991059
 20
-363.057489602964
 30
0.0
 11
-412.2130373892426
 21
-363.057489602964
 31
0.0
  0
LINE
  5
2AA
330
1F
100
AcDbEntity
  8
D-0
  6
Continuous
 62
     3
370
     9
100
AcDbLine
 10
-355.397003072226
 20
-359.3077852420021
 30
0.0
 11
-354.147003072226
 21
-363.057489602964
 31
0.0
  0
LINE
  5
2AB
330
1F
100
AcDbEntity
  8
D-0
  6
Continuous
 62
     3
370
     9
100
AcDbLine
 10
-367.7220038351654
 20
-363.057489602964
 30
0.0
 11
-366.4720038351654
 21
-359.3077852420021
 31
0.0
  0
LINE
  5
2AC
330
1F
100
AcDbEntity
  8
D-0
  6
Continuous
 62
     3
370
     9
100
AcDbLine
 10
-367.7220038351654
 20
-363.057489602964
 30
0.0
 11
-380.5050257620453
 21
-363.057489602964
 31
0.0
  0
LINE
  5
2AD
330
1F
100
AcDbEntity
  8
D-0
  6
Continuous
 62
     3
370
     9
100
AcDbLine
 10
-341.3639906820893
 20
-363.057489602964
 30
0.0
 11
-340.1139906820893
 21
-359.3077852420021
 31
0.0
  0
LINE
  5
2AE
330
1F
100
AcDbEntity
  8
D-0
  6
Continuous
 62
     3
370
     9
100
AcDbLine
 10
-322.4389914450287
 20
-363.057489602964
 30
0.0
 11
-323.6889914450287
 21
-359.3077852420021
 31
0.0
  0
LINE
  5
2AF
330
1F
100
AcDbEntity
  8
D-0
  6
Continuous
 62
     3
370
     9
100
AcDbLine
 10
-355.397003072226
 20
-359.3077852420021
 30
0.0
 11
-366.4720038351654
 21
-359.3077852420021
 31
0.0
  0
LINE
  5
2B0
330
1F
100
AcDbEntity
  8
D-0
  6
Continuous
 62
     3
370
     9
100
AcDbLine
 10
-341.3639906820893
 20
-363.057489602964
 30
0.0
 11
-354.147003072226
 21
-363.057489602964
 31
0.0
  0
LINE
  5
2B1
330
1F
100
AcDbEntity
  8
D-0
  6
Continuous
 62
     3
370
     9
100
AcDbLine
 10
-297.3309782919525
 20
-359.3077852420021
 30
0.0
 11
-296.0809782919525
 21
-363.057489602964
 31
0.0
  0
LINE
  5
2B2
330
1F
100
AcDbEntity
  8
D-0
  6
Continuous
 62
     3
370
     9
100
AcDbLine
 10
-309.655979054892
 20
-363.057489602964
 30
0.0
 11
-308.405979054892
 21
-359.3077852420021
 31
0.0
  0
LINE
  5
2B3
330
1F
100
AcDbEntity
  8
D-0
  6
Continuous
 62
     3
370
     9
100
AcDbLine
 10
-309.655979054892
 20
-363.057489602964
 30
0.0
 11
-322.4389914450287
 21
-363.057489602964
 31
0.0
  0
LINE
  5
2B4
330
1F
100
AcDbEntity
  8
D-0
  6
Continuous
 62
     3
370
     9
100
AcDbLine
 10
-283.2979659018158
 20
-363.057489602964
 30
0.0
 11
-282.0479659018158
 21
-359.3077852420021
 31
0.0
  0
LINE
  5
2B5
330
1F
100
AcDbEntity
  8
D-0
  6
Continuous
 62
     3
370
     9
100
AcDbLine
 10
-264.3729666647553
 20
-363.057489602964
 30
0.0
 11
-265.6229666647553
 21
-359.3077852420021
 31
0.0
  0
LINE
  5
2B6
330
1F
100
AcDbEntity
  8
D-0
  6
Continuous
 62
     3
370
     9
100
AcDbLine
 10
-297.3309782919525
 20
-359.3077852420021
 30
0.0
 11
-308.405979054892
 21
-359.3077852420021
 31
0.0
  0
LINE
  5
2B7
330
1F
100
AcDbEntity
  8
D-0
  6
Continuous
 62
     3
370
     9
100
AcDbLine
 10
-283.2979659018158
 20
-363.057489602964
 30
0.0
 11
-296.0809782919525
 21
-363.057489602964
 31
0.0
  0
LINE
  5
2B8
330
1F
100
AcDbEntity
  8
D-0
  6
Continuous
 62
     3
370
     9
100
AcDbLine
 10
-381.7550257620453
 20
-359.3077852420021
 30
0.0
 11
-398.1800249991059
 21
-359.3077852420021
 31
0.0
  0
LINE
  5
2B9
330
1F
100
AcDbEntity
  8
D-0
  6
Continuous
 62
     3
370
     9
100
AcDbLine
 10
-260.9345129904389
 20
-363.057489602964
 30
0.0
 11
-264.3729666647553
 21
-363.057489602964
 31
0.0
  0
LINE
  5
2BA
330
1F
100
AcDbEntity
  8
D-0
  6
Continuous
 62
     3
370
     9
100
AcDbLine
 10
-340.1139906820893
 20
-359.3077852420021
 30
0.0
 11
-323.6889914450287
 21
-359.3077852420021
 31
0.0
  0
LINE
  5
2BB
330
1F
100
AcDbEntity
  8
D-0
  6
Continuous
 62
     3
370
     9
100
AcDbLine
 10
-282.0479659018158
 20
-359.3077852420021
 30
0.0
 11
-265.6229666647553
 21
-359.3077852420021
 31
0.0
  0
LINE
  5
2BC
330
1F
100
AcDbEntity
  8
D-0
  6
Continuous
 62
     3
370
     9
100
AcDbLine
 10
-210.9345129904389
 20
-363.057489602964
 30
0.0
 11
-198.4345892843842
 21
-363.057489602964
 31
0.0
  0
LINE
  5
2BD
330
1F
100
AcDbEntity
  8
D-0
  6
Continuous
 62
     3
370
     9
100
AcDbLine
 10
-198.4345892843842
 20
-425.5576898745705
 30
0.0
 11
-210.9345129904389
 21
-425.5576898745705
 31
0.0
  0
LINE
  5
2BE
330
1F
100
AcDbEntity
  8
D-0
  6
Continuous
 62
     3
370
     9
100
AcDbLine
 10
-198.4345892843842
 20
-414.3075945071388
 30
0.0
 11
-198.4345892843842
 21
-425.5576898745705
 31
0.0
  0
LINE
  5
2BF
330
1F
100
AcDbEntity
  8
D-0
  6
Continuous
 62
     3
370
     9
100
AcDbLine
 10
-200.9347037253021
 20
-411.8074609927345
 30
0.0
 11
-198.4345892843842
 21
-414.3075945071388
 31
0.0
  0
LINE
  5
2C0
330
1F
100
AcDbEntity
  8
D-0
  6
Continuous
 62
     3
370
     9
100
AcDbLine
 10
-210.9345129904389
 20
-425.5576898745705
 30
0.0
 11
-210.9345129904389
 21
-414.3075945071388
 31
0.0
  0
LINE
  5
2C1
330
1F
100
AcDbEntity
  8
D-0
  6
Continuous
 62
     3
370
     9
100
AcDbLine
 10
-210.9345129904389
 20
-414.3075945071388
 30
0.0
 11
-208.4346274313568
 21
-411.8074609927345
 31
0.0
  0
LINE
  5
2C2
330
1F
100
AcDbEntity
  8
D-0
  6
Continuous
 62
     3
370
     9
100
AcDbLine
 10
-210.9345129904389
 20
-374.3075849703957
 30
0.0
 11
-210.9345129904389
 21
-363.057489602964
 31
0.0
  0
LINE
  5
2C3
330
1F
100
AcDbEntity
  8
D-0
  6
Continuous
 62
     3
370
     9
100
AcDbLine
 10
-210.9345129904389
 20
-374.3075849703957
 30
0.0
 11
-208.4346274313568
 21
-376.8074705294777
 31
0.0
  0
LINE
  5
2C4
330
1F
100
AcDbEntity
  8
D-0
  6
Continuous
 62
     3
370
     9
100
AcDbLine
 10
-208.4346274313568
 20
-411.8074609927345
 30
0.0
 11
-208.4346274313568
 21
-376.8074705294777
 31
0.0
  0
LINE
  5
2C5
330
1F
100
AcDbEntity
  8
D-0
  6
Continuous
 62
     3
370
     9
100
AcDbLine
 10
-200.9347037253021
 20
-376.8074705294777
 30
0.0
 11
-200.9347037253021
 21
-411.8074609927345
 31
0.0
  0
LINE
  5
2C6
330
1F
100
AcDbEntity
  8
D-0
  6
Continuous
 62
     3
370
     9
100
AcDbLine
 10
-200.9347037253021
 20
-376.8074705294777
 30
0.0
 11
-198.4345892843842
 21
-374.3075849703957
 31
0.0
  0
LINE
  5
2C7
330
1F
100
AcDbEntity
  8
D-0
  6
Continuous
 62
     3
370
     9
100
AcDbLine
 10
-198.4345892843842
 20
-363.057489602964
 30
0.0
 11
-198.4345892843842
 21
-374.3075849703957
 31
0.0
  0
LINE
  5
2C8
330
1F
100
AcDbEntity
  8
D-0
  6
Continuous
 62
     3
370
     9
100
AcDbLine
 10
-210.9345129904389
 20
-359.3077852420021
 30
0.0
 11
-198.4345892843842
 21
-359.3077852420021
 31
0.0
  0
LINE
  5
2C9
330
1F
100
AcDbEntity
  8
D-0
  6
Continuous
 62
     3
370
     9
100
AcDbLine
 10
-210.9345129904389
 20
-359.3077852420021
 30
0.0
 11
-210.9345129904389
 21
-363.057489602964
 31
0.0
  0
LINE
  5
2CA
330
1F
100
AcDbEntity
  8
D-0
  6
Continuous
 62
     3
370
     9
100
AcDbLine
 10
-198.4345892843842
 20
-359.3077852420021
 30
0.0
 11
-198.4345892843842
 21
-363.057489602964
 31
0.0
  0
LINE
  5
2CB
330
1F
100
AcDbEntity
  8
D-0
  6
Continuous
 62
     3
370
     9
100
AcDbLine
 10
-457.4960497793793
 20
-309.307775705259
 30
0.0
 11
-454.8210505423187
 21
-296.8076231173683
 31
0.0
  0
LINE
  5
2CC
330
1F
100
AcDbEntity
  8
D-0
  6
Continuous
 62
     3
370
     9
100
AcDbLine
 10
-441.2460497793793
 20
-296.8076231173683
 30
0.0
 11
-438.5710505423187
 21
-309.307775705259
 31
0.0
  0
LINE
  5
2CD
330
1F
100
AcDbEntity
  8
D-0
  6
Continuous
 62
     3
370
     9
100
AcDbLine
 10
-456.2460497793793
 20
-309.307775705259
 30
0.0
 11
-453.5710505423187
 21
-296.8076231173683
 31
0.0
  0
LINE
  5
2CE
330
1F
100
AcDbEntity
  8
D-0
  6
Continuous
 62
     3
370
     9
100
AcDbLine
 10
-442.4960497793793
 20
-296.8076231173683
 30
0.0
 11
-439.8210505423187
 21
-309.307775705259
 31
0.0
  0
LINE
  5
2CF
330
1F
100
AcDbEntity
  8
D-0
  6
Continuous
 62
     3
370
     9
100
AcDbLine
 10
-409.538038152182
 20
-296.8076231173683
 30
0.0
 11
-412.2130373892426
 21
-309.307775705259
 31
0.0
  0
LINE
  5
2D0
330
1F
100
AcDbEntity
  8
D-0
  6
Continuous
 62
     3
370
     9
100
AcDbLine
 10
-425.788038152182
 20
-309.307775705259
 30
0.0
 11
-428.4630373892426
 21
-296.8076231173683
 31
0.0
  0
LINE
  5
2D1
330
1F
100
AcDbEntity
  8
D-0
  6
Continuous
 62
     3
370
     9
100
AcDbLine
 10
-410.788038152182
 20
-296.8076231173683
 30
0.0
 11
-413.4630373892426
 21
-309.307775705259
 31
0.0
  0
LINE
  5
2D2
330
1F
100
AcDbEntity
  8
D-0
  6
Continuous
 62
     3
370
     9
100
AcDbLine
 10
-424.538038152182
 20
-309.307775705259
 30
0.0
 11
-427.2130373892426
 21
-296.8076231173683
 31
0.0
  0
LINE
  5
2D3
330
1F
100
AcDbEntity
  8
D-0
  6
Continuous
 62
     3
370
     9
100
AcDbLine
 10
-399.4300249991059
 20
-309.307775705259
 30
0.0
 11
-396.7550257620453
 21
-296.8076231173683
 31
0.0
  0
LINE
  5
2D4
330
1F
100
AcDbEntity
  8
D-0
  6
Continuous
 62
     3
370
     9
100
AcDbLine
 10
-383.1800249991059
 20
-296.8076231173683
 30
0.0
 11
-380.5050257620453
 21
-309.307775705259
 31
0.0
  0
LINE
  5
2D5
330
1F
100
AcDbEntity
  8
D-0
  6
Continuous
 62
     3
370
     9
100
AcDbLine
 10
-398.1800249991059
 20
-309.307775705259
 30
0.0
 11
-395.5050257620453
 21
-296.8076231173683
 31
0.0
  0
LINE
  5
2D6
330
1F
100
AcDbEntity
  8
D-0
  6
Continuous
 62
     3
370
     9
100
AcDbLine
 10
-384.4300249991059
 20
-296.8076231173683
 30
0.0
 11
-381.7550257620453
 21
-309.307775705259
 31
0.0
  0
LINE
  5
2D7
330
1F
100
AcDbEntity
  8
D-0
  6
Continuous
 62
     3
370
     9
100
AcDbLine
 10
-351.4720038351654
 20
-296.8076231173683
 30
0.0
 11
-354.147003072226
 21
-309.307775705259
 31
0.0
  0
LINE
  5
2D8
330
1F
100
AcDbEntity
  8
D-0
  6
Continuous
 62
     3
370
     9
100
AcDbLine
 10
-367.7220038351654
 20
-309.307775705259
 30
0.0
 11
-370.397003072226
 21
-296.8076231173683
 31
0.0
  0
LINE
  5
2D9
330
1F
100
AcDbEntity
  8
D-0
  6
Continuous
 62
     3
370
     9
100
AcDbLine
 10
-352.7220038351654
 20
-296.8076231173683
 30
0.0
 11
-355.397003072226
 21
-309.307775705259
 31
0.0
  0
LINE
  5
2DA
330
1F
100
AcDbEntity
  8
D-0
  6
Continuous
 62
     3
370
     9
100
AcDbLine
 10
-366.4720038351654
 20
-309.307775705259
 30
0.0
 11
-369.147003072226
 21
-296.8076231173683
 31
0.0
  0
LINE
  5
2DB
330
1F
100
AcDbEntity
  8
D-0
  6
Continuous
 62
     3
370
     9
100
AcDbLine
 10
-341.3639906820893
 20
-309.307775705259
 30
0.0
 11
-338.6889914450287
 21
-296.8076231173683
 31
0.0
  0
LINE
  5
2DC
330
1F
100
AcDbEntity
  8
D-0
  6
Continuous
 62
     3
370
     9
100
AcDbLine
 10
-325.1139906820893
 20
-296.8076231173683
 30
0.0
 11
-322.4389914450287
 21
-309.307775705259
 31
0.0
  0
LINE
  5
2DD
330
1F
100
AcDbEntity
  8
D-0
  6
Continuous
 62
     3
370
     9
100
AcDbLine
 10
-340.1139906820893
 20
-309.307775705259
 30
0.0
 11
-337.4389914450287
 21
-296.8076231173683
 31
0.0
  0
LINE
  5
2DE
330
1F
100
AcDbEntity
  8
D-0
  6
Continuous
 62
     3
370
     9
100
AcDbLine
 10
-326.3639906820893
 20
-296.8076231173683
 30
0.0
 11
-323.6889914450287
 21
-309.307775705259
 31
0.0
  0
LINE
  5
2DF
330
1F
100
AcDbEntity
  8
D-0
  6
Continuous
 62
     3
370
     9
100
AcDbLine
 10
-293.405979054892
 20
-296.8076231173683
 30
0.0
 11
-296.0809782919525
 21
-309.307775705259
 31
0.0
  0
LINE
  5
2E0
330
1F
100
AcDbEntity
  8
D-0
  6
Continuous
 62
     3
370
     9
100
AcDbLine
 10
-309.655979054892
 20
-309.307775705259
 30
0.0
 11
-312.3309782919525
 21
-296.8076231173683
 31
0.0
  0
LINE
  5
2E1
330
1F
100
AcDbEntity
  8
D-0
  6
Continuous
 62
     3
370
     9
100
AcDbLine
 10
-294.655979054892
 20
-296.8076231173683
 30
0.0
 11
-297.3309782919525
 21
-309.307775705259
 31
0.0
  0
LINE
  5
2E2
330
1F
100
AcDbEntity
  8
D-0
  6
Continuous
 62
     3
370
     9
100
AcDbLine
 10
-308.405979054892
 20
-309.307775705259
 30
0.0
 11
-311.0809782919525
 21
-296.8076231173683
 31
0.0
  0
LINE
  5
2E3
330
1F
100
AcDbEntity
  8
D-0
  6
Continuous
 62
     3
370
     9
100
AcDbLine
 10
-283.2979659018158
 20
-309.307775705259
 30
0.0
 11
-280.6229666647553
 21
-296.8076231173683
 31
0.0
  0
LINE
  5
2E4
330
1F
100
AcDbEntity
  8
D-0
  6
Continuous
 62
     3
370
     9
100
AcDbLine
 10
-267.0479659018158
 20
-296.8076231173683
 30
0.0
 11
-264.3729666647553
 21
-309.307775705259
 31
0.0
  0
LINE
  5
2E5
330
1F
100
AcDbEntity
  8
D-0
  6
Continuous
 62
     3
370
     9
100
AcDbLine
 10
-282.0479659018158
 20
-309.307775705259
 30
0.0
 11
-279.3729666647553
 21
-296.8076231173683
 31
0.0
  0
LINE
  5
2E6
330
1F
100
AcDbEntity
  8
D-0
  6
Continuous
 62
     3
370
     9
100
AcDbLine
 10
-268.2979659018158
 20
-296.8076231173683
 30
0.0
 11
-265.6229666647553
 21
-309.307775705259
 31
0.0
  0
LINE
  5
2E7
330
1F
100
AcDbEntity
  8
D-0
  6
Continuous
 62
     3
370
     9
100
AcDbLine
 10
-400.2287272390961
 20
-309.307775705259
 30
0.0
 11
-399.2125681814789
 21
-308.2916166476418
 31
0.0
  0
LINE
  5
2E8
330
1F
100
AcDbEntity
  8
D-0
  6
Continuous
 62
     3
370
     9
100
AcDbLine
 10
-403.7642554220795
 20
-309.307775705259
 30
0.0
 11
-398.2499770102143
 21
-303.7934972933937
 31
0.0
  0
LINE
  5
2E9
330
1F
100
AcDbEntity
  8
D-0
  6
Continuous
 62
     3
370
     9
100
AcDbLine
 10
-407.299793141806
 20
-309.307775705259
 30
0.0
 11
-397.2873953756928
 21
-299.2953779391457
 31
0.0
  0
LINE
  5
2EA
330
1F
100
AcDbEntity
  8
D-0
  6
Continuous
 62
     3
370
     9
100
AcDbLine
 10
-410.8353308615326
 20
-309.307775705259
 30
0.0
 11
-398.3351592001557
 21
-296.8076231173683
 31
0.0
  0
LINE
  5
2EB
330
1F
100
AcDbEntity
  8
D-0
  6
Continuous
 62
     3
370
     9
100
AcDbLine
 10
-411.6255454001068
 20
-306.5624715975929
 30
0.0
 11
-401.8706969198822
 21
-296.8076231173683
 31
0.0
  0
LINE
  5
2EC
330
1F
100
AcDbEntity
  8
D-0
  6
Continuous
 62
     3
370
     9
100
AcDbLine
 10
-410.6629637655853
 20
-302.0643522433449
 30
0.0
 11
-405.4062346396088
 21
-296.8076231173683
 31
0.0
  0
LINE
  5
2ED
330
1F
100
AcDbEntity
  8
D-0
  6
Continuous
 62
     3
370
     9
100
AcDbLine
 10
-409.7003725943207
 20
-297.5662328890969
 30
0.0
 11
-408.9417628225922
 21
-296.8076231173683
 31
0.0
  0
LINE
  5
2EE
330
1F
100
AcDbEntity
  8
D-0
  6
Continuous
 62
     3
370
     9
100
AcDbLine
 10
-428.5130003866791
 20
-309.307775705259
 30
0.0
 11
-426.2683752951264
 21
-307.0631696871926
 31
0.0
  0
LINE
  5
2EF
330
1F
100
AcDbEntity
  8
D-0
  6
Continuous
 62
     3
370
     9
100
AcDbLine
 10
-432.0485285696625
 20
-309.307775705259
 30
0.0
 11
-426.8916014608978
 21
-304.1508581332375
 31
0.0
  0
LINE
  5
2F0
330
1F
100
AcDbEntity
  8
D-0
  6
Continuous
 62
     3
370
     9
100
AcDbLine
 10
-435.5840662893891
 20
-309.307775705259
 30
0.0
 11
-427.5148276266693
 21
-301.2385465792824
 31
0.0
  0
LINE
  5
2F1
330
1F
100
AcDbEntity
  8
D-0
  6
Continuous
 62
     3
370
     9
100
AcDbLine
 10
-438.6677435812592
 20
-308.8559248141457
 30
0.0
 11
-428.1380537924408
 21
-298.3262350253273
 31
0.0
  0
LINE
  5
2F2
330
1F
100
AcDbEntity
  8
D-0
  6
Continuous
 62
     3
370
     9
100
AcDbLine
 10
-439.2909697470307
 20
-305.9436132601906
 30
0.0
 11
-430.1549700674652
 21
-296.8076231173683
 31
0.0
  0
LINE
  5
2F3
330
1F
100
AcDbEntity
  8
D-0
  6
Continuous
 62
     3
370
     9
100
AcDbLine
 10
-439.9141959128021
 20
-303.0313207797219
 30
0.0
 11
-433.6904982504486
 21
-296.8076231173683
 31
0.0
  0
LINE
  5
2F4
330
1F
100
AcDbEntity
  8
D-0
  6
Continuous
 62
     3
370
     9
100
AcDbLine
 10
-440.5374220785736
 20
-300.1190092257668
 30
0.0
 11
-437.2260359701752
 21
-296.8076231173683
 31
0.0
  0
LINE
  5
2F5
330
1F
100
AcDbEntity
  8
D-0
  6
Continuous
 62
     3
370
     9
100
AcDbLine
 10
-441.1606482443451
 20
-297.2066976718117
 30
0.0
 11
-440.7615736899018
 21
-296.8076231173683
 31
0.0
  0
LINE
  5
2F6
330
1F
100
AcDbEntity
  8
D-0
  6
Continuous
 62
     3
370
     9
100
AcDbLine
 10
-342.1626929220795
 20
-309.307775705259
 30
0.0
 11
-341.1465338644623
 21
-308.2916166476418
 31
0.0
  0
LINE
  5
2F7
330
1F
100
AcDbEntity
  8
D-0
  6
Continuous
 62
     3
370
     9
100
AcDbLine
 10
-345.698230641806
 20
-309.307775705259
 30
0.0
 11
-340.1839522299408
 21
-303.7934972933937
 31
0.0
  0
LINE
  5
2F8
330
1F
100
AcDbEntity
  8
D-0
  6
Continuous
 62
     3
370
     9
100
AcDbLine
 10
-349.2337683615326
 20
-309.307775705259
 30
0.0
 11
-339.2213705954193
 21
-299.2953779391457
 31
0.0
  0
LINE
  5
2F9
330
1F
100
AcDbEntity
  8
D-0
  6
Continuous
 62
     3
370
     9
100
AcDbLine
 10
-352.7693060812592
 20
-309.307775705259
 30
0.0
 11
-340.2691344198822
 21
-296.8076231173683
 31
0.0
  0
LINE
  5
2FA
330
1F
100
AcDbEntity
  8
D-0
  6
Continuous
 62
     3
370
     9
100
AcDbLine
 10
-353.5595206198334
 20
-306.5624715975929
 30
0.0
 11
-343.8046721396088
 21
-296.8076231173683
 31
0.0
  0
LINE
  5
2FB
330
1F
100
AcDbEntity
  8
D-0
  6
Continuous
 62
     3
370
     9
100
AcDbLine
 10
-352.5969389853119
 20
-302.0643522433449
 30
0.0
 11
-347.3402098593353
 21
-296.8076231173683
 31
0.0
  0
LINE
  5
2FC
330
1F
100
AcDbEntity
  8
D-0
  6
Continuous
 62
     3
370
     9
100
AcDbLine
 10
-351.6343573507904
 20
-297.5662328890969
 30
0.0
 11
-350.8757285055756
 21
-296.8076231173683
 31
0.0
  0
LINE
  5
2FD
330
1F
100
AcDbEntity
  8
D-0
  6
Continuous
 62
     3
370
     9
100
AcDbLine
 10
-370.4469660696625
 20
-309.307775705259
 30
0.0
 11
-368.2023505148529
 21
-307.0631696871926
 31
0.0
  0
LINE
  5
2FE
330
1F
100
AcDbEntity
  8
D-0
  6
Continuous
 62
     3
370
     9
100
AcDbLine
 10
-373.9825037893891
 20
-309.307775705259
 30
0.0
 11
-368.8255766806244
 21
-304.1508581332375
 31
0.0
  0
LINE
  5
2FF
330
1F
100
AcDbEntity
  8
D-0
  6
Continuous
 62
     3
370
     9
100
AcDbLine
 10
-377.5180415091156
 20
-309.307775705259
 30
0.0
 11
-369.4488028463959
 21
-301.2385465792824
 31
0.0
  0
LINE
  5
300
330
1F
100
AcDbEntity
  8
D-0
  6
Continuous
 62
     3
370
     9
100
AcDbLine
 10
-380.6017188009857
 20
-308.8559248141457
 30
0.0
 11
-370.0720290121674
 21
-298.3262350253273
 31
0.0
  0
LINE
  5
301
330
1F
100
AcDbEntity
  8
D-0
  6
Continuous
 62
     3
370
     9
100
AcDbLine
 10
-381.2249449667572
 20
-305.9436132601906
 30
0.0
 11
-372.0889357504486
 21
-296.8076231173683
 31
0.0
  0
LINE
  5
302
330
1F
100
AcDbEntity
  8
D-0
  6
Continuous
 62
     3
370
     9
100
AcDbLine
 10
-381.8481711325287
 20
-303.0313207797219
 30
0.0
 11
-375.6244734701752
 21
-296.8076231173683
 31
0.0
  0
LINE
  5
303
330
1F
100
AcDbEntity
  8
D-0
  6
Continuous
 62
     3
370
     9
100
AcDbLine
 10
-382.4713972983002
 20
-300.1190092257668
 30
0.0
 11
-379.1600111899018
 21
-296.8076231173683
 31
0.0
  0
LINE
  5
304
330
1F
100
AcDbEntity
  8
D-0
  6
Continuous
 62
     3
370
     9
100
AcDbLine
 10
-383.0946234640717
 20
-297.2066976718117
 30
0.0
 11
-382.6955393728852
 21
-296.8076231173683
 31
0.0
  0
LINE
  5
305
330
1F
100
AcDbEntity
  8
D-0
  6
Continuous
 62
     3
370
     9
100
AcDbLine
 10
-284.096668141806
 20
-309.307775705259
 30
0.0
 11
-283.0805090841889
 21
-308.2916166476418
 31
0.0
  0
LINE
  5
306
330
1F
100
AcDbEntity
  8
D-0
  6
Continuous
 62
     3
370
     9
100
AcDbLine
 10
-287.6322058615326
 20
-309.307775705259
 30
0.0
 11
-282.1179274496674
 21
-303.7934972933937
 31
0.0
  0
LINE
  5
307
330
1F
100
AcDbEntity
  8
D-0
  6
Continuous
 62
     3
370
     9
100
AcDbLine
 10
-291.1677435812592
 20
-309.307775705259
 30
0.0
 11
-281.1553458151459
 21
-299.2953779391457
 31
0.0
  0
LINE
  5
308
330
1F
100
AcDbEntity
  8
D-0
  6
Continuous
 62
     3
370
     9
100
AcDbLine
 10
-294.7032813009857
 20
-309.307775705259
 30
0.0
 11
-282.2031096396088
 21
-296.8076231173683
 31
0.0
  0
LINE
  5
309
330
1F
100
AcDbEntity
  8
D-0
  6
Continuous
 62
     3
370
     9
100
AcDbLine
 10
-295.49349583956
 20
-306.5624715975929
 30
0.0
 11
-285.7386473593353
 21
-296.8076231173683
 31
0.0
  0
LINE
  5
30A
330
1F
100
AcDbEntity
  8
D-0
  6
Continuous
 62
     3
370
     9
100
AcDbLine
 10
-294.5309142050385
 20
-302.0643522433449
 30
0.0
 11
-289.2741850790619
 21
-296.8076231173683
 31
0.0
  0
LINE
  5
30B
330
1F
100
AcDbEntity
  8
D-0
  6
Continuous
 62
     3
370
     9
100
AcDbLine
 10
-293.5683134970307
 20
-297.5662328890969
 30
0.0
 11
-292.8097037253021
 21
-296.8076231173683
 31
0.0
  0
LINE
  5
30C
330
1F
100
AcDbEntity
  8
D-0
  6
Continuous
 62
     3
370
     9
100
AcDbLine
 10
-312.3809508261322
 20
-309.307775705259
 30
0.0
 11
-310.1363257345795
 21
-307.0631696871926
 31
0.0
  0
LINE
  5
30D
330
1F
100
AcDbEntity
  8
D-0
  6
Continuous
 62
     3
370
     9
100
AcDbLine
 10
-315.9164694723725
 20
-309.307775705259
 30
0.0
 11
-310.759551900351
 21
-304.1508581332375
 31
0.0
  0
LINE
  5
30E
330
1F
100
AcDbEntity
  8
D-0
  6
Continuous
 62
     3
370
     9
100
AcDbLine
 10
-319.452007192099
 20
-309.307775705259
 30
0.0
 11
-311.3827780661225
 21
-301.2385465792824
 31
0.0
  0
LINE
  5
30F
330
1F
100
AcDbEntity
  8
D-0
  6
Continuous
 62
     3
370
     9
100
AcDbLine
 10
-322.5356940207123
 20
-308.8559248141457
 30
0.0
 11
-312.0060042318939
 21
-298.3262350253273
 31
0.0
  0
LINE
  5
310
330
1F
100
AcDbEntity
  8
D-0
  6
Continuous
 62
     3
370
     9
100
AcDbLine
 10
-323.1589201864838
 20
-305.9436132601906
 30
0.0
 11
-314.0229109701752
 21
-296.8076231173683
 31
0.0
  0
LINE
  5
311
330
1F
100
AcDbEntity
  8
D-0
  6
Continuous
 62
     3
370
     9
100
AcDbLine
 10
-323.7821463522553
 20
-303.0313207797219
 30
0.0
 11
-317.5584486899018
 21
-296.8076231173683
 31
0.0
  0
LINE
  5
312
330
1F
100
AcDbEntity
  8
D-0
  6
Continuous
 62
     3
370
     9
100
AcDbLine
 10
-324.4053725180268
 20
-300.1190092257668
 30
0.0
 11
-321.0939864096283
 21
-296.8076231173683
 31
0.0
  0
LINE
  5
313
330
1F
100
AcDbEntity
  8
D-0
  6
Continuous
 62
     3
370
     9
100
AcDbLine
 10
-325.0285986837982
 20
-297.2066976718117
 30
0.0
 11
-324.6295241293549
 21
-296.8076231173683
 31
0.0
  0
LINE
  5
314
330
1F
100
AcDbEntity
  8
D-0
  6
Continuous
 62
     3
370
     9
100
AcDbLine
 10
-266.3393477377533
 20
-300.1190092257668
 30
0.0
 11
-263.0279616293549
 21
-296.8076231173683
 31
0.0
  0
LINE
  5
315
330
1F
100
AcDbEntity
  8
D-0
  6
Continuous
 62
     3
370
     9
100
AcDbLine
 10
-266.9625739035248
 20
-297.2066976718117
 30
0.0
 11
-266.5634802755951
 21
-296.8076231173683
 31
0.0
  0
LINE
  5
316
330
1F
100
AcDbEntity
  8
D-0
  6
Continuous
 62
     3
370
     9
100
AcDbLine
 10
-458.2947520193695
 20
-309.307775705259
 30
0.0
 11
-457.2785929617523
 21
-308.2916166476418
 31
0.0
  0
LINE
  5
317
330
1F
100
AcDbEntity
  8
D-0
  6
Continuous
 62
     3
370
     9
100
AcDbLine
 10
-460.9345082220673
 20
-308.4120084933449
 30
0.0
 11
-456.3160065588593
 21
-303.7934972933937
 31
0.0
  0
LINE
  5
318
330
1F
100
AcDbEntity
  8
D-0
  6
Continuous
 62
     3
370
     9
100
AcDbLine
 10
-460.9345082220673
 20
-304.8764707736183
 30
0.0
 11
-455.3534249243378
 21
-299.2953779391457
 31
0.0
  0
LINE
  5
319
330
1F
100
AcDbEntity
  8
D-0
  6
Continuous
 62
     3
370
     9
100
AcDbLine
 10
-460.9345082220673
 20
-301.3409330538918
 30
0.0
 11
-456.4011887488007
 21
-296.8076231173683
 31
0.0
  0
LINE
  5
31A
330
1F
100
AcDbEntity
  8
D-0
  6
Continuous
 62
     3
370
     9
100
AcDbLine
 10
-460.9345082220673
 20
-297.8053953341652
 30
0.0
 11
-459.9367217001557
 21
-296.8076231173683
 31
0.0
  0
LINE
  5
31B
330
1F
100
AcDbEntity
  8
D-0
  6
Continuous
 62
     3
370
     9
100
AcDbLine
 10
-260.9345129904389
 20
-296.8076231173683
 30
0.0
 11
-460.9345082220673
 21
-296.8076231173683
 31
0.0
  0
LINE
  5
31C
330
1F
100
AcDbEntity
  8
D-0
  6
Continuous
 62
     3
370
     9
100
AcDbLine
 10
-260.9345129904389
 20
-309.307775705259
 30
0.0
 11
-460.9345082220673
 21
-309.307775705259
 31
0.0
  0
LINE
  5
31D
330
1F
100
AcDbEntity
  8
D-0
  6
Continuous
 62
     3
370
     9
100
AcDbLine
 10
-264.4696692404389
 20
-308.8559248141457
 30
0.0
 11
-260.9345129904389
 21
-305.3207685641457
 31
0.0
  0
LINE
  5
31E
330
1F
100
AcDbEntity
  8
D-0
  6
Continuous
 62
     3
370
     9
100
AcDbLine
 10
-265.0928954062103
 20
-305.9436132601906
 30
0.0
 11
-260.9345129904389
 21
-301.7852308444191
 31
0.0
  0
LINE
  5
31F
330
1F
100
AcDbEntity
  8
D-0
  6
Continuous
 62
     3
370
     9
100
AcDbLine
 10
-265.7161215719818
 20
-303.0313207797219
 30
0.0
 11
-260.9345129904389
 21
-298.2497121981789
 31
0.0
  0
LINE
  5
320
330
1F
100
AcDbEntity
  8
D-0
  6
Continuous
 62
     3
370
     9
100
AcDbLine
 10
-261.3859824118256
 20
-309.307775705259
 30
0.0
 11
-260.9345129904389
 21
-308.8563062838722
 31
0.0
  0
LINE
  5
321
330
1F
100
AcDbEntity
  8
D-4
  6
Continuous
 62
     7
370
     9
100
AcDbLine
 10
-200.9347037253021
 20
-406.8074609927345
 30
0.0
 11
-208.4346274313568
 21
-406.8074609927345
 31
0.0
  0
LINE
  5
322
330
1F
100
AcDbEntity
  8
D-4
  6
Continuous
 62
     7
370
     9
100
AcDbLine
 10
-200.9347037253021
 20
-406.8074609927345
 30
0.0
 11
-188.5416678366303
 21
-405.1758863619972
 31
0.0
  0
LINE
  5
323
330
1F
100
AcDbEntity
  8
D-4
  6
Continuous
 62
     7
370
     9
100
AcDbLine
 10
-200.9347037253021
 20
-406.8074609927345
 30
0.0
 11
-188.5416678366303
 21
-408.439045160215
 31
0.0
  0
LINE
  5
324
330
1F
100
AcDbEntity
  8
D-4
  6
Continuous
 62
     7
370
     9
100
AcDbLine
 10
-208.4346274313568
 20
-406.8074609927345
 30
0.0
 11
-220.827682393515
 21
-405.1758863619972
 31
0.0
  0
LINE
  5
325
330
1F
100
AcDbEntity
  8
D-4
  6
Continuous
 62
     7
370
     9
100
AcDbLine
 10
-208.4346274313568
 20
-406.8074609927345
 30
0.0
 11
-220.827682393515
 21
-408.439045160215
 31
0.0
  0
LINE
  5
326
330
1F
100
AcDbEntity
  8
D-4
  6
Continuous
 62
     7
370
     9
100
AcDbLine
 10
-208.4346274313568
 20
-406.8074609927345
 30
0.0
 11
-223.4346274313568
 21
-406.8074609927345
 31
0.0
  0
LINE
  5
327
330
1F
100
AcDbEntity
  8
D-4
  6
Continuous
 62
     7
370
     9
100
AcDbLine
 10
-200.9347037253021
 20
-406.8074609927345
 30
0.0
 11
-180.9347037253021
 21
-406.8074609927345
 31
0.0
  0
LINE
  5
328
330
1F
100
AcDbEntity
  8
D-4
  6
Continuous
 62
     7
370
     9
100
AcDbLine
 10
-198.4345892843842
 20
-336.807775705259
 30
0.0
 11
-210.9345129904389
 21
-336.807775705259
 31
0.0
  0
LINE
  5
329
330
1F
100
AcDbEntity
  8
D-4
  6
Continuous
 62
     7
370
     9
100
AcDbLine
 10
-198.4345892843842
 20
-336.807775705259
 30
0.0
 11
-186.0415152487396
 21
-335.1762106112648
 31
0.0
  0
LINE
  5
32A
330
1F
100
AcDbEntity
  8
D-4
  6
Continuous
 62
     7
370
     9
100
AcDbLine
 10
-198.4345892843842
 20
-336.807775705259
 30
0.0
 11
-186.0415152487396
 21
-338.4393598727394
 31
0.0
  0
LINE
  5
32B
330
1F
100
AcDbEntity
  8
D-4
  6
Continuous
 62
     7
370
     9
100
AcDbLine
 10
-210.9345129904389
 20
-336.807775705259
 30
0.0
 11
-223.3275679525971
 21
-335.1762106112648
 31
0.0
  0
LINE
  5
32C
330
1F
100
AcDbEntity
  8
D-4
  6
Continuous
 62
     7
370
     9
100
AcDbLine
 10
-210.9345129904389
 20
-336.807775705259
 30
0.0
 11
-223.3275679525971
 21
-338.4393598727394
 31
0.0
  0
LINE
  5
32D
330
1F
100
AcDbEntity
  8
D-4
  6
Continuous
 62
     7
370
     9
100
AcDbLine
 10
-198.4345892843842
 20
-335.3077795199562
 30
0.0
 11
-198.4345892843842
 21
-349.3077852420021
 31
0.0
  0
LINE
  5
32E
330
1F
100
AcDbEntity
  8
D-4
  6
Continuous
 62
     7
370
     9
100
AcDbLine
 10
-210.9345129904389
 20
-335.3077795199562
 30
0.0
 11
-210.9345129904389
 21
-349.3077852420021
 31
0.0
  0
LINE
  5
32F
330
1F
100
AcDbEntity
  8
D-4
  6
Continuous
 62
     7
370
     9
100
AcDbLine
 10
-210.9345129904389
 20
-336.807775705259
 30
0.0
 11
-225.9345129904389
 21
-336.807775705259
 31
0.0
  0
LINE
  5
330
330
1F
100
AcDbEntity
  8
D-4
  6
Continuous
 62
     7
370
     9
100
AcDbLine
 10
-198.4345892843842
 20
-336.807775705259
 30
0.0
 11
-183.4345892843842
 21
-336.807775705259
 31
0.0
  0
LINE
  5
331
330
1F
100
AcDbEntity
  8
D-4
  6
Continuous
 62
     7
370
     9
100
AcDbLine
 10
-303.3782080587982
 20
-338.6435796908547
 30
0.0
 11
-315.6014517721771
 21
-341.2593366793801
 31
0.0
  0
LINE
  5
332
330
1F
100
AcDbEntity
  8
D-4
  6
Continuous
 62
     7
370
     9
100
AcDbLine
 10
-303.3782080587982
 20
-338.6435796908547
 30
0.0
 11
-291.6009406027435
 21
-334.4547750643898
 31
0.0
  0
LINE
  5
333
330
1F
100
AcDbEntity
  8
D-4
  6
Continuous
 62
     7
370
     9
100
AcDbLine
 10
-303.3782080587982
 20
-338.6435796908547
 30
0.0
 11
-290.9180907187103
 21
-337.6456739596535
 31
0.0
  0
LINE
  5
334
330
1F
100
AcDbEntity
  8
D-4
  6
Continuous
 62
     7
370
     9
100
AcDbLine
 10
-315.6014517721771
 20
-341.2593366793801
 30
0.0
 11
-328.0615500387787
 21
-342.2572424105812
 31
0.0
  0
LINE
  5
335
330
1F
100
AcDbEntity
  8
D-4
  6
Continuous
 62
     7
370
     9
100
AcDbLine
 10
-315.6014517721771
 20
-341.2593366793801
 30
0.0
 11
-327.3787192282318
 21
-345.4481413058449
 31
0.0
  0
LINE
  5
336
330
1F
100
AcDbEntity
  8
D-4
  6
Continuous
 62
     7
370
     9
100
AcDbLine
 10
-303.0643156942963
 20
-340.1103880099465
 30
0.0
 11
-307.5633887228607
 21
-319.0863897494484
 31
0.0
  0
LINE
  5
337
330
1F
100
AcDbEntity
  8
D-4
  6
Continuous
 62
     7
370
     9
100
AcDbLine
 10
-315.2875594076752
 20
-342.7261259249855
 30
0.0
 11
-320.3464011129975
 21
-319.0863897494484
 31
0.0
  0
LINE
  5
338
330
1F
100
AcDbEntity
  8
D-4
  6
Continuous
 62
     7
370
     9
100
AcDbLine
 10
-303.3782080587982
 20
-338.6435796908547
 30
0.0
 11
-288.7102965292572
 21
-335.5046941928078
 31
0.0
  0
LINE
  5
339
330
1F
100
AcDbEntity
  8
D-4
  6
Continuous
 62
     7
370
     9
100
AcDbLine
 10
-315.6014517721771
 20
-341.2593366793801
 30
0.0
 11
-330.2693633017182
 21
-344.3982221774269
 31
0.0
  0
LINE
  5
33A
330
1F
100
AcDbEntity
  8
D-4
  6
Continuous
 62
     7
370
     9
100
AcDbLine
 10
-483.4345082220673
 20
-296.8076231173683
 30
0.0
 11
-483.4345082220673
 21
-309.307775705259
 31
0.0
  0
LINE
  5
33B
330
1F
100
AcDbEntity
  8
D-4
  6
Continuous
 62
     7
370
     9
100
AcDbLine
 10
-483.4345082220673
 20
-296.8076231173683
 30
0.0
 11
-485.0660876211762
 21
-284.4145490817238
 31
0.0
  0
LINE
  5
33C
330
1F
100
AcDbEntity
  8
D-4
  6
Continuous
 62
     7
370
     9
100
AcDbLine
 10
-483.4345082220673
 20
-296.8076231173683
 30
0.0
 11
-481.8029288229584
 21
-284.4145490817238
 31
0.0
  0
LINE
  5
33D
330
1F
100
AcDbEntity
  8
D-4
  6
Continuous
 62
     7
370
     9
100
AcDbLine
 10
-483.4345082220673
 20
-309.307775705259
 30
0.0
 11
-485.0660876211762
 21
-321.7008497409035
 31
0.0
  0
LINE
  5
33E
330
1F
100
AcDbEntity
  8
D-4
  6
Continuous
 62
     7
370
     9
100
AcDbLine
 10
-483.4345082220673
 20
-309.307775705259
 30
0.0
 11
-481.8029288229584
 21
-321.7008497409035
 31
0.0
  0
LINE
  5
33F
330
1F
100
AcDbEntity
  8
D-4
  6
Continuous
 62
     7
370
     9
100
AcDbLine
 10
-484.9345091757416
 20
-296.8076231173683
 30
0.0
 11
-470.9345082220673
 21
-296.8076231173683
 31
0.0
  0
LINE
  5
340
330
1F
100
AcDbEntity
  8
D-4
  6
Continuous
 62
     7
370
     9
100
AcDbLine
 10
-484.9345091757416
 20
-309.307775705259
 30
0.0
 11
-470.9345082220673
 21
-309.307775705259
 31
0.0
  0
LINE
  5
341
330
1F
100
AcDbEntity
  8
D-4
  6
Continuous
 62
     7
370
     9
100
AcDbLine
 10
-483.4345082220673
 20
-309.307775705259
 30
0.0
 11
-483.4345082220673
 21
-324.307775705259
 31
0.0
  0
LINE
  5
342
330
1F
100
AcDbEntity
  8
D-4
  6
Continuous
 62
     7
370
     9
100
AcDbLine
 10
-483.4345082220673
 20
-296.8076231173683
 30
0.0
 11
-483.4345082220673
 21
-281.8076231173683
 31
0.0
  0
LINE
  5
343
330
1F
100
AcDbEntity
  8
D-4
  6
Continuous
 62
     7
370
     9
100
AcDbLine
 10
-293.405979054892
 20
-274.3076231173683
 30
0.0
 11
-312.3309782919525
 21
-274.3076231173683
 31
0.0
  0
LINE
  5
344
330
1F
100
AcDbEntity
  8
D-4
  6
Continuous
 62
     7
370
     9
100
AcDbLine
 10
-293.405979054892
 20
-274.3076231173683
 30
0.0
 11
-281.0129240927338
 21
-272.6760389498879
 31
0.0
  0
LINE
  5
345
330
1F
100
AcDbEntity
  8
D-4
  6
Continuous
 62
     7
370
     9
100
AcDbLine
 10
-312.3309782919525
 20
-274.3076231173683
 30
0.0
 11
-324.7240332541107
 21
-272.6760389498879
 31
0.0
  0
LINE
  5
346
330
1F
100
AcDbEntity
  8
D-4
  6
Continuous
 62
     7
370
     9
100
AcDbLine
 10
-293.405979054892
 20
-272.8076269320656
 30
0.0
 11
-293.405979054892
 21
-286.8076231173683
 31
0.0
  0
LINE
  5
347
330
1F
100
AcDbEntity
  8
D-4
  6
Continuous
 62
     7
370
     9
100
AcDbLine
 10
-312.3309782919525
 20
-272.8076269320656
 30
0.0
 11
-312.3309782919525
 21
-286.8076231173683
 31
0.0
  0
LINE
  5
348
330
1F
100
AcDbEntity
  8
D-4
  6
Continuous
 62
     7
370
     9
100
AcDbLine
 10
-312.3309782919525
 20
-274.3076231173683
 30
0.0
 11
-324.7240332541107
 21
-275.9391882113625
 31
0.0
  0
LINE
  5
349
330
1F
100
AcDbEntity
  8
D-4
  6
Continuous
 62
     7
370
     9
100
AcDbLine
 10
-293.405979054892
 20
-274.3076231173683
 30
0.0
 11
-281.0129240927338
 21
-275.9391882113625
 31
0.0
  0
LINE
  5
34A
330
1F
100
AcDbEntity
  8
D-4
  6
Continuous
 62
     7
370
     9
100
AcDbLine
 10
-383.1800249991059
 20
-274.3076231173683
 30
0.0
 11
-396.7550257620453
 21
-274.3076231173683
 31
0.0
  0
LINE
  5
34B
330
1F
100
AcDbEntity
  8
D-4
  6
Continuous
 62
     7
370
     9
100
AcDbLine
 10
-383.1800249991059
 20
-274.3076231173683
 30
0.0
 11
-370.7869605002045
 21
-272.6760389498879
 31
0.0
  0
LINE
  5
34C
330
1F
100
AcDbEntity
  8
D-4
  6
Continuous
 62
     7
370
     9
100
AcDbLine
 10
-383.1800249991059
 20
-274.3076231173683
 30
0.0
 11
-370.7869605002045
 21
-275.9391882113625
 31
0.0
  0
LINE
  5
34D
330
1F
100
AcDbEntity
  8
D-4
  6
Continuous
 62
     7
370
     9
100
AcDbLine
 10
-396.7550257620453
 20
-274.3076231173683
 30
0.0
 11
-409.1480807242035
 21
-272.6760389498879
 31
0.0
  0
LINE
  5
34E
330
1F
100
AcDbEntity
  8
D-4
  6
Continuous
 62
     7
370
     9
100
AcDbLine
 10
-396.7550257620453
 20
-274.3076231173683
 30
0.0
 11
-409.1480807242035
 21
-275.9391882113625
 31
0.0
  0
LINE
  5
34F
330
1F
100
AcDbEntity
  8
D-4
  6
Continuous
 62
     7
370
     9
100
AcDbLine
 10
-383.1800249991059
 20
-272.8076269320656
 30
0.0
 11
-383.1800249991059
 21
-286.8076231173683
 31
0.0
  0
LINE
  5
350
330
1F
100
AcDbEntity
  8
D-4
  6
Continuous
 62
     7
370
     9
100
AcDbLine
 10
-396.7550257620453
 20
-272.8076269320656
 30
0.0
 11
-396.7550257620453
 21
-286.8076231173683
 31
0.0
  0
LINE
  5
351
330
1F
100
AcDbEntity
  8
D-4
  6
Continuous
 62
     7
370
     9
100
AcDbLine
 10
-396.7550257620453
 20
-274.3076231173683
 30
0.0
 11
-411.7550257620453
 21
-274.3076231173683
 31
0.0
  0
LINE
  5
352
330
1F
100
AcDbEntity
  8
D-4
  6
Continuous
 62
     7
370
     9
100
AcDbLine
 10
-383.1800249991059
 20
-274.3076231173683
 30
0.0
 11
-368.1800249991059
 21
-274.3076231173683
 31
0.0
  0
LINE
  5
353
330
1F
100
AcDbEntity
  8
D-4
  6
Continuous
 62
     7
370
     9
100
AcDbLine
 10
-293.405979054892
 20
-274.3076231173683
 30
0.0
 11
-278.405979054892
 21
-274.3076231173683
 31
0.0
  0
LINE
  5
354
330
1F
100
AcDbEntity
  8
D-4
  6
Continuous
 62
     7
370
     9
100
AcDbLine
 10
-312.3309782919525
 20
-274.3076231173683
 30
0.0
 11
-327.3309782919525
 21
-274.3076231173683
 31
0.0
  0
LINE
  5
355
330
1F
100
AcDbEntity
  8
D-4
  6
Continuous
 62
     7
370
     9
100
AcDbLine
 10
-150.9345892843842
 20
-425.5576898745705
 30
0.0
 11
-150.9345892843842
 21
-363.057489602964
 31
0.0
  0
LINE
  5
356
330
1F
100
AcDbEntity
  8
D-4
  6
Continuous
 62
     7
370
     9
100
AcDbLine
 10
-150.9345892843842
 20
-425.5576898745705
 30
0.0
 11
-152.5661734518646
 21
-413.1646349124123
 31
0.0
  0
LINE
  5
357
330
1F
100
AcDbEntity
  8
D-4
  6
Continuous
 62
     7
370
     9
100
AcDbLine
 10
-150.9345892843842
 20
-425.5576898745705
 30
0.0
 11
-149.3030051169037
 21
-413.1646349124123
 31
0.0
  0
LINE
  5
358
330
1F
100
AcDbEntity
  8
D-4
  6
Continuous
 62
     7
370
     9
100
AcDbLine
 10
-150.9345892843842
 20
-363.057489602964
 30
0.0
 11
-152.5661734518646
 21
-375.4505445651222
 31
0.0
  0
LINE
  5
359
330
1F
100
AcDbEntity
  8
D-4
  6
Continuous
 62
     7
370
     9
100
AcDbLine
 10
-150.9345892843842
 20
-363.057489602964
 30
0.0
 11
-149.3030051169037
 21
-375.4505445651222
 31
0.0
  0
LINE
  5
35A
330
1F
100
AcDbEntity
  8
D-4
  6
Continuous
 62
     7
370
     9
100
AcDbLine
 10
-149.4345740255951
 20
-425.5576898745705
 30
0.0
 11
-188.4345892843842
 21
-425.5576898745705
 31
0.0
  0
LINE
  5
35B
330
1F
100
AcDbEntity
  8
D-4
  6
Continuous
 62
     7
370
     9
100
AcDbLine
 10
-149.4345740255951
 20
-363.057489602964
 30
0.0
 11
-188.4345892843842
 21
-363.057489602964
 31
0.0
  0
LINE
  5
35C
330
1F
100
AcDbEntity
  8
D-0
  6
Continuous
 62
     7
370
     9
100
AcDbLine
 10
-526.7615012106537
 20
-475.5576922587563
 30
0.0
 11
-526.7615012106537
 21
-508.7832929782082
 31
0.0
  0
LINE
  5
35D
330
1F
100
AcDbEntity
  8
D-0
  6
Continuous
 62
     7
370
     9
100
AcDbLine
 10
-526.7615012106537
 20
-508.7832929782082
 30
0.0
 11
-107.6076010641693
 21
-508.7832929782082
 31
0.0
  0
LINE
  5
35E
330
1F
100
AcDbEntity
  8
D-0
  6
Continuous
 62
     7
370
     9
100
AcDbLine
 10
-107.6076010641693
 20
-508.7832929782082
 30
0.0
 11
-107.6076010641693
 21
-475.5576922587563
 31
0.0
  0
LINE
  5
35F
330
1F
100
AcDbEntity
  8
D-0
  6
Continuous
 62
     7
370
     9
100
AcDbLine
 10
-107.6076010641693
 20
-475.5576922587563
 30
0.0
 11
-526.7615012106537
 21
-475.5576922587563
 31
0.0
  0
TEXT
  5
360
330
1F
100
AcDbEntity
  8
D-4
  6
Continuous
 62
     2
370
     9
100
AcDbText
 10
-197.1846655783295
 20
-400.9874686221291
 30
0.0
 40
15.24
  1
3
 41
0.9999999999999998
  7
ＭＳ ゴシック
100
AcDbText
  0
TEXT
  5
361
330
1F
100
AcDbEntity
  8
D-4
  6
Continuous
 62
     2
370
     9
100
AcDbText
 10
-209.6845511374115
 20
-330.9877833346535
 30
0.0
 40
15.24
  1
5
 41
0.9999999999999998
  7
ＭＳ ゴシック
100
AcDbText
  0
TEXT
  5
362
330
1F
100
AcDbEntity
  8
D-4
  6
Continuous
 62
     2
370
     9
100
AcDbText
 10
-315.5970270907293
 20
-335.3066194685197
 30
0.0
 40
15.24
  1
5
 50
12.079026476401
 41
0.9999999999999988
  7
ＭＳ ゴシック
100
AcDbText
  0
TEXT
  5
363
330
1F
100
AcDbEntity
  8
D-4
  6
Continuous
 62
     2
370
     9
100
AcDbText
 10
-489.2545101294159
 20
-308.0576995345798
 30
0.0
 40
15.24
  1
5
 50
90.00000250447816
 41
1.000000000000001
  7
ＭＳ ゴシック
100
AcDbText
  0
TEXT
  5
364
330
1F
100
AcDbEntity
  8
D-4
  6
Continuous
 62
     2
370
     9
100
AcDbText
 10
-319.1184882101654
 20
-268.4876116732765
 30
0.0
 40
15.24
  1
7.6
 41
1.083333333333333
  7
ＭＳ ゴシック
100
AcDbText
  0
TEXT
  5
365
330
1F
100
AcDbEntity
  8
D-4
  6
Continuous
 62
     2
370
     9
100
AcDbText
 10
-406.2175253805756
 20
-268.4876116732765
 30
0.0
 40
15.24
  1
5.4
 41
1.083333333333333
  7
ＭＳ ゴシック
100
AcDbText
  0
TEXT
  5
366
330
1F
100
AcDbEntity
  8
D-4
  6
Continuous
 62
     2
370
     9
100
AcDbText
 10
-156.7545816549896
 20
-404.9325850936618
 30
0.0
 40
15.24
  1
25
 50
90.00000250447829
 41
1.062499999999997
  7
ＭＳ ゴシック
100
AcDbText
  0
TEXT
  5
367
330
1F
100
AcDbEntity
  8
D-0
  6
Continuous
 62
     2
370
     9
100
AcDbText
 10
-518.4345493492722
 20
-499.3504926184822
 30
0.0
 40
15.24
  1
ＤＩ－２５　バー形状詳細　Ｓ＝１：２
 41
1.118055555555555
  7
ＭＳ ゴシック
100
AcDbText
  0
ENDSEC
  0
SECTION
  2
OBJECTS
  0
DICTIONARY
  5
C
330
0
100
AcDbDictionary
281
     1
  3
ACAD_DETAILVIEWSTYLE
350
3AD
  3
ACAD_GROUP
350
D
  3
ACAD_LAYOUT
350
1A
  3
ACAD_MATERIAL
350
43
  3
ACAD_MLEADERSTYLE
350
6B
  3
ACAD_MLINESTYLE
350
17
  3
ACAD_PLOTSETTINGS
350
19
  3
ACAD_PLOTSTYLENAME
350
E
  3
ACAD_SCALELIST
350
47
  3
ACAD_SECTIONVIEWSTYLE
350
3AE
  3
ACAD_TABLESTYLE
350
69
  3
ACAD_VISUALSTYLE
350
2A
  3
ACDB_RECOMPOSE_DATA
350
3AA
  3
AcDbVariableDictionary
350
36A
  0
DICTIONARY
  5
368
330
8
100
AcDbDictionary
280
     1
281
     1
  3
ACAD_XREC_ROUNDTRIP
360
369
  0
DICTIONARY
  5
3AD
102
{ACAD_REACTORS
330
C
102
}
330
C
100
AcDbDictionary
281
     1
  0
DICTIONARY
  5
D
102
{ACAD_REACTORS
330
C
102
}
330
C
100
AcDbDictionary
281
     1
  0
DICTIONARY
  5
1A
102
{ACAD_REACTORS
330
C
102
}
330
C
100
AcDbDictionary
281
     1
  3
Layout1
350
1E
  3
Layout2
350
26
  3
Model
350
22
  0
DICTIONARY
  5
43
102
{ACAD_REACTORS
330
C
102
}
330
C
100
AcDbDictionary
281
     1
  3
ByBlock
350
45
  3
ByLayer
350
44
  3
Global
350
46
  0
DICTIONARY
  5
6B
102
{ACAD_REACTORS
330
C
102
}
330
C
100
AcDbDictionary
281
     1
  3
Standard
350
6C
  0
DICTIONARY
  5
17
102
{ACAD_REACTORS
330
C
102
}
330
C
100
AcDbDictionary
281
     1
  3
Standard
350
18
  0
DICTIONARY
  5
19
102
{ACAD_REACTORS
330
C
102
}
330
C
100
AcDbDictionary
281
     1
  0
ACDBDICTIONARYWDFLT
  5
E
102
{ACAD_REACTORS
330
C
102
}
330
C
100
AcDbDictionary
281
     1
  3
Normal
350
F
100
AcDbDictionaryWithDefault
340
F
  0
DICTIONARY
  5
47
102
{ACAD_REACTORS
330
C
102
}
330
C
100
AcDbDictionary
281
     1
  3
A0
350
48
  3
A1
350
49
  3
A2
350
4A
  3
A3
350
4B
  3
A4
350
4C
  3
A5
350
4D
  3
A6
350
4E
  3
A7
350
4F
  3
A8
350
50
  3
A9
350
51
  3
B0
350
52
  3
B1
350
53
  3
B2
350
54
  3
B3
350
55
  3
B4
350
56
  3
B5
350
57
  3
B6
350
58
  3
B7
350
59
  3
B8
350
5A
  3
B9
350
5B
  3
C0
350
5C
  3
C1
350
5D
  3
C2
350
5E
  3
C3
350
5F
  3
C4
350
60
  3
C5
350
61
  3
C6
350
62
  3
C7
350
63
  3
C8
350
64
  3
C9
350
65
  3
D0
350
66
  3
D1
350
67
  3
D2
350
68
  0
DICTIONARY
  5
3AE
102
{ACAD_REACTORS
330
C
102
}
330
C
100
AcDbDictionary
281
     1
  0
DICTIONARY
  5
69
102
{ACAD_REACTORS
330
C
102
}
330
C
100
AcDbDictionary
281
     1
  3
Standard
350
6A
  0
DICTIONARY
  5
2A
102
{ACAD_REACTORS
330
C
102
}
330
C
100
AcDbDictionary
281
     1
  3
2dWireframe
350
2F
  3
Basic
350
32
  3
Brighten
350
36
  3
ColorChange
350
3A
  3
Conceptual
350
34
  3
Dim
350
35
  3
EdgeColorOff
350
3D
  3
Facepattern
350
39
  3
Flat
350
2B
  3
FlatWithEdges
350
2C
  3
Gouraud
350
2D
  3
GouraudWithEdges
350
2E
  3
Hidden
350
31
  3
JitterOff
350
3B
  3
Linepattern
350
38
  3
OverhangOff
350
3C
  3
Realistic
350
33
  3
Shaded
350
42
  3
Shaded with edges
350
41
  3
Shades of Gray
350
3E
  3
Sketchy
350
3F
  3
Thicken
350
37
  3
Wireframe
350
30
  3
X-Ray
350
40
  0
XRECORD
  5
3AA
102
{ACAD_REACTORS
330
C
102
}
330
C
100
AcDbXrecord
280
     1
 90
        1
330
6A
  0
DICTIONARY
  5
36A
102
{ACAD_REACTORS
330
C
102
}
330
C
100
AcDbDictionary
281
     1
  3
CANNOSCALE
350
36B
  3
CENTEREXE
350
3AF
  3
CENTERLTYPEFILE
350
3B0
  3
CMLEADERSTYLE
350
3AC
  3
CTABLESTYLE
350
3AB
  3
MSLTSCALE
350
36C
  3
XCLIPFRAME
350
36D
  0
XRECORD
  5
369
102
{ACAD_REACTORS
330
368
102
}
330
368
100
AcDbXrecord
280
     1
102
VTR_0.000_0.000_1.000_1.000_VISUALSTYLE
340
2F
102
VTR_0.000_0.000_1.000_1.000_GRIDDISPLAY
 70
     3
102
VTR_0.000_0.000_1.000_1.000_GRIDMAJOR
 70
     5
102
VTR_0.000_0.000_1.000_1.000_DEFAULTLIGHTING
280
     1
102
VTR_0.000_0.000_1.000_1.000_DEFAULTLIGHTINGTYPE
 70
     1
102
VTR_0.000_0.000_1.000_1.000_BRIGHTNESS
141
0.0
102
VTR_0.000_0.000_1.000_1.000_CONTRAST
142
0.0
  0
LAYOUT
  5
1E
102
{ACAD_REACTORS
330
1A
102
}
330
1A
100
AcDbPlotSettings
  1

  2
none_device
  4

  6

 40
0.0
 41
0.0
 42
0.0
 43
0.0
 44
0.0
 45
0.0
 46
0.0
 47
0.0
 48
0.0
 49
0.0
140
0.0
141
0.0
142
1.0
143
1.0
 70
   688
 72
     1
 73
     0
 74
     5
  7

 75
    16
 76
     0
 77
     5
 78
   300
147
1.0
148
0.0
149
0.0
100
AcDbLayout
  1
Layout1
 70
     1
 71
     1
 10
0.0
 20
0.0
 11
420.0
 21
297.0
 12
0.0
 22
0.0
 32
0.0
 14
1.000000000000000E+20
 24
1.000000000000000E+20
 34
1.000000000000000E+20
 15
-1.000000000000000E+20
 25
-1.000000000000000E+20
 35
-1.000000000000000E+20
146
0.0
 13
0.0
 23
0.0
 33
0.0
 16
1.0
 26
0.0
 36
0.0
 17
0.0
 27
1.0
 37
0.0
 76
     0
330
1B
  0
LAYOUT
  5
26
102
{ACAD_REACTORS
330
1A
102
}
330
1A
100
AcDbPlotSettings
  1

  2
none_device
  4

  6

 40
0.0
 41
0.0
 42
0.0
 43
0.0
 44
0.0
 45
0.0
 46
0.0
 47
0.0
 48
0.0
 49
0.0
140
0.0
141
0.0
142
1.0
143
1.0
 70
   688
 72
     1
 73
     0
 74
     5
  7

 75
    16
 76
     0
 77
     5
 78
   300
147
1.0
148
0.0
149
0.0
100
AcDbLayout
  1
Layout2
 70
     1
 71
     2
 10
0.0
 20
0.0
 11
0.0
 21
0.0
 12
0.0
 22
0.0
 32
0.0
 14
0.0
 24
0.0
 34
0.0
 15
0.0
 25
0.0
 35
0.0
146
0.0
 13
0.0
 23
0.0
 33
0.0
 16
1.0
 26
0.0
 36
0.0
 17
0.0
 27
1.0
 37
0.0
 76
     0
330
23
  0
LAYOUT
  5
22
102
{ACAD_REACTORS
330
1A
102
}
330
1A
100
AcDbPlotSettings
  1

  2
none_device
  4
Letter_(8.50_x_11.00_Inches)
  6

 40
6.35
 41
6.35
 42
6.35000508
 43
6.35000508
 44
215.9
 45
279.4
 46
0.0
 47
0.0
 48
0.0
 49
0.0
140
0.0
141
0.0
142
1.0
143
1.0
 70
  1712
 72
     1
 73
     0
 74
     0
  7

 75
     0
 76
     0
 77
     5
 78
   300
147
1.0
148
0.0
149
0.0
100
AcDbLayout
  1
Model
 70
     1
 71
     0
 10
-1050.0
 20
-742.5
 11
1050.0
 21
742.5
 12
0.0
 22
0.0
 32
0.0
 14
-1050.0
 24
-742.5
 34
0.0
 15
1050.0
 25
742.5
 35
0.0
146
0.0
 13
0.0
 23
0.0
 33
0.0
 16
1.0
 26
0.0
 36
0.0
 17
0.0
 27
1.0
 37
0.0
 76
     0
330
1F
331
29
  0
MATERIAL
  5
45
102
{ACAD_REACTORS
330
43
102
}
102
{ACAD_XDICTIONARY
360
3A0
102
}
330
43
100
AcDbMaterial
  1
ByBlock
  0
MATERIAL
  5
44
102
{ACAD_REACTORS
330
43
102
}
102
{ACAD_XDICTIONARY
360
39E
102
}
330
43
100
AcDbMaterial
  1
ByLayer
  0
MATERIAL
  5
46
102
{ACAD_REACTORS
330
43
102
}
102
{ACAD_XDICTIONARY
360
3A2
102
}
330
43
100
AcDbMaterial
  1
Global
  0
MLEADERSTYLE
  5
6C
102
{ACAD_REACTORS
330
6B
102
}
102
{ACAD_XDICTIONARY
360
3A8
102
}
330
6B
100
AcDbMLeaderStyle
170
     2
171
     1
172
     0
 90
        2
 40
0.0
 41
0.0
173
     1
 91
-1056964608
340
14
 92
       -2
290
     1
 42
2.0
291
     1
 43
8.0
  3
Standard
341
0
 44
4.0
300

342
11
174
     1
178
     6
175
     1
176
     0
 93
-1056964608
 45
4.0
292
     0
297
     0
 46
4.0
343
0
 94
-1056964608
 47
1.0
 49
1.0
140
1.0
293
     1
141
0.0
294
     1
177
     0
142
1.0
295
     0
296
     0
143
3.75
1001
ACAD_MLEADERVER
1070
     2
  0
MLINESTYLE
  5
18
102
{ACAD_REACTORS
330
17
102
}
330
17
100
AcDbMlineStyle
  2
Standard
 70
     0
  3

 62
   256
 51
90.0
 52
90.0
 71
     2
 49
0.5
 62
   256
  6
BYLAYER
 49
-0.5
 62
   256
  6
BYLAYER
  0
ACDBPLACEHOLDER
  5
F
102
{ACAD_REACTORS
330
E
102
}
330
E
  0
SCALE
  5
48
102
{ACAD_REACTORS
330
47
102
}
330
47
100
AcDbScale
 70
     0
300
1:1
140
1.0
141
1.0
290
     1
  0
SCALE
  5
49
102
{ACAD_REACTORS
330
47
102
}
330
47
100
AcDbScale
 70
     0
300
1:2
140
1.0
141
2.0
290
     0
  0
SCALE
  5
4A
102
{ACAD_REACTORS
330
47
102
}
330
47
100
AcDbScale
 70
     0
300
1:4
140
1.0
141
4.0
290
     0
  0
SCALE
  5
4B
102
{ACAD_REACTORS
330
47
102
}
330
47
100
AcDbScale
 70
     0
300
1:5
140
1.0
141
5.0
290
     0
  0
SCALE
  5
4C
102
{ACAD_REACTORS
330
47
102
}
330
47
100
AcDbScale
 70
     0
300
1:8
140
1.0
141
8.0
290
     0
  0
SCALE
  5
4D
102
{ACAD_REACTORS
330
47
102
}
330
47
100
AcDbScale
 70
     0
300
1:10
140
1.0
141
10.0
290
     0
  0
SCALE
  5
4E
102
{ACAD_REACTORS
330
47
102
}
330
47
100
AcDbScale
 70
     0
300
1:16
140
1.0
141
16.0
290
     0
  0
SCALE
  5
4F
102
{ACAD_REACTORS
330
47
102
}
330
47
100
AcDbScale
 70
     0
300
1:20
140
1.0
141
20.0
290
     0
  0
SCALE
  5
50
102
{ACAD_REACTORS
330
47
102
}
330
47
100
AcDbScale
 70
     0
300
1:30
140
1.0
141
30.0
290
     0
  0
SCALE
  5
51
102
{ACAD_REACTORS
330
47
102
}
330
47
100
AcDbScale
 70
     0
300
1:40
140
1.0
141
40.0
290
     0
  0
SCALE
  5
52
102
{ACAD_REACTORS
330
47
102
}
330
47
100
AcDbScale
 70
     0
300
1:50
140
1.0
141
50.0
290
     0
  0
SCALE
  5
53
102
{ACAD_REACTORS
330
47
102
}
330
47
100
AcDbScale
 70
     0
300
1:100
140
1.0
141
100.0
290
     0
  0
SCALE
  5
54
102
{ACAD_REACTORS
330
47
102
}
330
47
100
AcDbScale
 70
     0
300
2:1
140
2.0
141
1.0
290
     0
  0
SCALE
  5
55
102
{ACAD_REACTORS
330
47
102
}
330
47
100
AcDbScale
 70
     0
300
4:1
140
4.0
141
1.0
290
     0
  0
SCALE
  5
56
102
{ACAD_REACTORS
330
47
102
}
330
47
100
AcDbScale
 70
     0
300
8:1
140
8.0
141
1.0
290
     0
  0
SCALE
  5
57
102
{ACAD_REACTORS
330
47
102
}
330
47
100
AcDbScale
 70
     0
300
10:1
140
10.0
141
1.0
290
     0
  0
SCALE
  5
58
102
{ACAD_REACTORS
330
47
102
}
330
47
100
AcDbScale
 70
     0
300
100:1
140
100.0
141
1.0
290
     0
  0
SCALE
  5
59
102
{ACAD_REACTORS
330
47
102
}
330
47
100
AcDbScale
 70
     0
300
1/128" = 1'-0"
140
0.0078125
141
12.0
290
     0
  0
SCALE
  5
5A
102
{ACAD_REACTORS
330
47
102
}
330
47
100
AcDbScale
 70
     0
300
1/64" = 1'-0"
140
0.015625
141
12.0
290
     0
  0
SCALE
  5
5B
102
{ACAD_REACTORS
330
47
102
}
330
47
100
AcDbScale
 70
     0
300
1/32" = 1'-0"
140
0.03125
141
12.0
290
     0
  0
SCALE
  5
5C
102
{ACAD_REACTORS
330
47
102
}
330
47
100
AcDbScale
 70
     0
300
1/16" = 1'-0"
140
0.0625
141
12.0
290
     0
  0
SCALE
  5
5D
102
{ACAD_REACTORS
330
47
102
}
330
47
100
AcDbScale
 70
     0
300
3/32" = 1'-0"
140
0.09375
141
12.0
290
     0
  0
SCALE
  5
5E
102
{ACAD_REACTORS
330
47
102
}
330
47
100
AcDbScale
 70
     0
300
1/8" = 1'-0"
140
0.125
141
12.0
290
     0
  0
SCALE
  5
5F
102
{ACAD_REACTORS
330
47
102
}
330
47
100
AcDbScale
 70
     0
300
3/16" = 1'-0"
140
0.1875
141
12.0
290
     0
  0
SCALE
  5
60
102
{ACAD_REACTORS
330
47
102
}
330
47
100
AcDbScale
 70
     0
300
1/4" = 1'-0"
140
0.25
141
12.0
290
     0
  0
SCALE
  5
61
102
{ACAD_REACTORS
330
47
102
}
330
47
100
AcDbScale
 70
     0
300
3/8" = 1'-0"
140
0.375
141
12.0
290
     0
  0
SCALE
  5
62
102
{ACAD_REACTORS
330
47
102
}
330
47
100
AcDbScale
 70
     0
300
1/2" = 1'-0"
140
0.5
141
12.0
290
     0
  0
SCALE
  5
63
102
{ACAD_REACTORS
330
47
102
}
330
47
100
AcDbScale
 70
     0
300
3/4" = 1'-0"
140
0.75
141
12.0
290
     0
  0
SCALE
  5
64
102
{ACAD_REACTORS
330
47
102
}
330
47
100
AcDbScale
 70
     0
300
1" = 1'-0"
140
1.0
141
12.0
290
     0
  0
SCALE
  5
65
102
{ACAD_REACTORS
330
47
102
}
330
47
100
AcDbScale
 70
     0
300
1-1/2" = 1'-0"
140
1.5
141
12.0
290
     0
  0
SCALE
  5
66
102
{ACAD_REACTORS
330
47
102
}
330
47
100
AcDbScale
 70
     0
300
3" = 1'-0"
140
3.0
141
12.0
290
     0
  0
SCALE
  5
67
102
{ACAD_REACTORS
330
47
102
}
330
47
100
AcDbScale
 70
     0
300
6" = 1'-0"
140
6.0
141
12.0
290
     0
  0
SCALE
  5
68
102
{ACAD_REACTORS
330
47
102
}
330
47
100
AcDbScale
 70
     0
300
1'-0" = 1'-0"
140
12.0
141
12.0
290
     0
  0
TABLESTYLE
  5
6A
102
{ACAD_REACTORS
330
69
102
}
102
{ACAD_XDICTIONARY
360
3A4
102
}
330
69
100
AcDbTableStyle
  3
Standard
 70
     0
 71
     0
 40
0.06
 41
0.06
280
     0
281
     0
  7
Standard
140
4.5
170
     2
 62
     0
 63
   257
283
     0
274
    -2
284
     1
 64
     0
275
    -2
285
     1
 65
     0
276
    -2
286
     1
 66
     0
277
    -2
287
     1
 67
     0
278
    -2
288
     1
 68
     0
279
    -2
289
     1
 69
     0
  7
Standard
140
6.0
170
     5
 62
     0
 63
   257
283
     0
274
    -2
284
     1
 64
     0
275
    -2
285
     1
 65
     0
276
    -2
286
     1
 66
     0
277
    -2
287
     1
 67
     0
278
    -2
288
     1
 68
     0
279
    -2
289
     1
 69
     0
  7
Standard
140
4.5
170
     5
 62
     0
 63
   257
283
     0
274
    -2
284
     1
 64
     0
275
    -2
285
     1
 65
     0
276
    -2
286
     1
 66
     0
277
    -2
287
     1
 67
     0
278
    -2
288
     1
 68
     0
279
    -2
289
     1
 69
     0
  0
VISUALSTYLE
  5
2F
102
{ACAD_REACTORS
330
2A
102
}
102
{ACAD_XDICTIONARY
360
376
102
}
330
2A
100
AcDbVisualStyle
  2
2dWireframe
 70
     4
 71
     0
 72
     2
 73
     0
 90
        0
 40
0.6
 41
30.0
 62
     5
 63
     7
421
 16777215
 74
     1
 91
        4
 64
     7
 65
   257
 75
     1
175
     1
 42
1.0
 92
        0
 66
   257
 43
1.0
 76
     1
 77
     6
 78
     2
 67
     7
 79
     5
170
     0
171
     0
290
     0
174
     0
 93
        1
 44
0.0
173
     0
291
     0
 45
0.0
1001
ACAD
1000
AcDbSavedByObjectVersion
1070
     0
  0
VISUALSTYLE
  5
32
102
{ACAD_REACTORS
330
2A
102
}
102
{ACAD_XDICTIONARY
360
37C
102
}
330
2A
100
AcDbVisualStyle
  2
Basic
 70
     7
 71
     1
 72
     0
 73
     1
 90
        0
 40
0.6
 41
30.0
 62
     5
 63
     7
421
 16777215
 74
     0
 91
        4
 64
     7
 65
   257
 75
     1
175
     1
 42
1.0
 92
        8
 66
     7
 43
1.0
 76
     1
 77
     6
 78
     2
 67
     7
 79
     5
170
     0
171
     0
290
     0
174
     0
 93
        1
 44
0.0
173
     0
291
     1
 45
0.0
1001
ACAD
1000
AcDbSavedByObjectVersion
1070
     0
  0
VISUALSTYLE
  5
36
102
{ACAD_REACTORS
330
2A
102
}
102
{ACAD_XDICTIONARY
360
384
102
}
330
2A
100
AcDbVisualStyle
  2
Brighten
 70
    12
 71
     2
 72
     2
 73
     0
 90
        0
 40
0.6
 41
30.0
 62
     5
 63
     7
421
 16777215
 74
     1
 91
        4
 64
     7
 65
   257
 75
     1
175
     1
 42
1.0
 92
        8
 66
     7
 43
1.0
 76
     1
 77
     6
 78
     2
 67
     7
 79
     5
170
     0
171
     0
290
     0
174
     0
 93
        1
 44
50.0
173
     0
291
     1
 45
0.0
1001
ACAD
1000
AcDbSavedByObjectVersion
1070
     0
  0
VISUALSTYLE
  5
3A
102
{ACAD_REACTORS
330
2A
102
}
102
{ACAD_XDICTIONARY
360
38C
102
}
330
2A
100
AcDbVisualStyle
  2
ColorChange
 70
    16
 71
     2
 72
     2
 73
     3
 90
        0
 40
0.6
 41
30.0
 62
     5
 63
     8
421
  8421504
 74
     1
 91
        4
 64
     7
 65
   257
 75
     1
175
     1
 42
1.0
 92
        8
 66
     8
424
  8421504
 43
1.0
 76
     1
 77
     6
 78
     2
 67
     7
 79
     5
170
     0
171
     0
290
     0
174
     0
 93
        1
 44
0.0
173
     0
291
     1
 45
0.0
1001
ACAD
1000
AcDbSavedByObjectVersion
1070
     0
  0
VISUALSTYLE
  5
34
102
{ACAD_REACTORS
330
2A
102
}
102
{ACAD_XDICTIONARY
360
380
102
}
330
2A
100
AcDbVisualStyle
  2
Conceptual
 70
     9
 71
     3
 72
     2
 73
     0
 90
        0
 40
0.6
 41
30.0
 62
     5
 63
     7
421
 16777215
 74
     2
 91
        2
 64
     7
 65
   257
 75
     1
175
     1
 42
179.0
 92
        8
 66
     7
 43
1.0
 76
     1
 77
     6
 78
     2
 67
     7
 79
     3
170
     0
171
     0
290
     0
174
     0
 93
        1
 44
0.0
173
     0
291
     0
 45
0.0
1001
ACAD
1000
AcDbSavedByObjectVersion
1070
     0
  0
VISUALSTYLE
  5
35
102
{ACAD_REACTORS
330
2A
102
}
102
{ACAD_XDICTIONARY
360
382
102
}
330
2A
100
AcDbVisualStyle
  2
Dim
 70
    11
 71
     2
 72
     2
 73
     0
 90
        0
 40
0.6
 41
30.0
 62
     5
 63
     7
421
 16777215
 74
     1
 91
        4
 64
     7
 65
   257
 75
     1
175
     1
 42
1.0
 92
        8
 66
     7
 43
1.0
 76
     1
 77
     6
 78
     2
 67
     7
 79
     5
170
     0
171
     0
290
     0
174
     0
 93
        1
 44
-50.0
173
     0
291
     1
 45
0.0
1001
ACAD
1000
AcDbSavedByObjectVersion
1070
     0
  0
VISUALSTYLE
  5
3D
102
{ACAD_REACTORS
330
2A
102
}
102
{ACAD_XDICTIONARY
360
392
102
}
330
2A
100
AcDbVisualStyle
  2
EdgeColorOff
 70
    22
 71
     2
 72
     2
 73
     0
 90
        0
 40
0.6
 41
30.0
 62
     5
 63
     7
421
 16777215
 74
     1
 91
        4
 64
     7
 65
   257
 75
     1
175
     1
 42
1.0
 92
        8
 66
     7
 43
1.0
 76
     1
 77
     6
 78
     2
 67
     7
 79
     5
170
     0
171
     0
290
     0
174
     0
 93
        1
 44
0.0
173
     0
291
     1
 45
0.0
1001
ACAD
1000
AcDbSavedByObjectVersion
1070
     0
  0
VISUALSTYLE
  5
39
102
{ACAD_REACTORS
330
2A
102
}
102
{ACAD_XDICTIONARY
360
38A
102
}
330
2A
100
AcDbVisualStyle
  2
Facepattern
 70
    15
 71
     2
 72
     2
 73
     0
 90
        0
 40
0.6
 41
30.0
 62
     5
 63
     7
421
 16777215
 74
     1
 91
        4
 64
     7
 65
   257
 75
     1
175
     1
 42
1.0
 92
        8
 66
     7
 43
1.0
 76
     1
 77
     6
 78
     2
 67
     7
 79
     5
170
     0
171
     0
290
     0
174
     0
 93
        1
 44
0.0
173
     0
291
     1
 45
0.0
1001
ACAD
1000
AcDbSavedByObjectVersion
1070
     0
  0
VISUALSTYLE
  5
2B
102
{ACAD_REACTORS
330
2A
102
}
102
{ACAD_XDICTIONARY
360
36E
102
}
330
2A
100
AcDbVisualStyle
  2
Flat
 70
     0
 71
     2
 72
     1
 73
     1
 90
        2
 40
0.6
 41
30.0
 62
     5
 63
     7
421
 16777215
 74
     0
 91
        0
 64
     7
 65
   257
 75
     1
175
     1
 42
1.0
 92
        8
 66
     7
 43
1.0
 76
     1
 77
     6
 78
     2
 67
     7
 79
     5
170
     0
171
     0
290
     0
174
     0
 93
       13
 44
0.0
173
     0
291
     1
 45
0.0
1001
ACAD
1000
AcDbSavedByObjectVersion
1070
     0
  0
VISUALSTYLE
  5
2C
102
{ACAD_REACTORS
330
2A
102
}
102
{ACAD_XDICTIONARY
360
370
102
}
330
2A
100
AcDbVisualStyle
  2
FlatWithEdges
 70
     1
 71
     2
 72
     1
 73
     1
 90
        2
 40
0.6
 41
30.0
 62
     5
 63
     7
421
 16777215
 74
     1
 91
        0
 64
     7
 65
   257
 75
     1
175
     1
 42
1.0
 92
        0
 66
   257
 43
1.0
 76
     1
 77
     6
 78
     2
 67
     7
 79
     5
170
     0
171
     0
290
     0
174
     0
 93
       13
 44
0.0
173
     0
291
     1
 45
0.0
1001
ACAD
1000
AcDbSavedByObjectVersion
1070
     0
  0
VISUALSTYLE
  5
2D
102
{ACAD_REACTORS
330
2A
102
}
102
{ACAD_XDICTIONARY
360
372
102
}
330
2A
100
AcDbVisualStyle
  2
Gouraud
 70
     2
 71
     2
 72
     2
 73
     1
 90
        2
 40
0.6
 41
30.0
 62
     5
 63
     7
421
 16777215
 74
     0
 91
        0
 64
     7
 65
   257
 75
     1
175
     1
 42
1.0
 92
        0
 66
     7
 43
1.0
 76
     1
 77
     6
 78
     2
 67
     7
 79
     5
170
     0
171
     0
290
     0
174
     0
 93
       13
 44
0.0
173
     0
291
     1
 45
0.0
1001
ACAD
1000
AcDbSavedByObjectVersion
1070
     0
  0
VISUALSTYLE
  5
2E
102
{ACAD_REACTORS
330
2A
102
}
102
{ACAD_XDICTIONARY
360
374
102
}
330
2A
100
AcDbVisualStyle
  2
GouraudWithEdges
 70
     3
 71
     2
 72
     2
 73
     1
 90
        2
 40
0.6
 41
30.0
 62
     5
 63
     7
421
 16777215
 74
     1
 91
        0
 64
     7
 65
   257
 75
     1
175
     1
 42
1.0
 92
        0
 66
   257
 43
1.0
 76
     1
 77
     6
 78
     2
 67
     7
 79
     5
170
     0
171
     0
290
     0
174
     0
 93
       13
 44
0.0
173
     0
291
     1
 45
0.0
1001
ACAD
1000
AcDbSavedByObjectVersion
1070
     0
  0
VISUALSTYLE
  5
31
102
{ACAD_REACTORS
330
2A
102
}
102
{ACAD_XDICTIONARY
360
37A
102
}
330
2A
100
AcDbVisualStyle
  2
Hidden
 70
     6
 71
     1
 72
     2
 73
     2
 90
        0
 40
0.6
 41
30.0
 62
     5
 63
     7
421
 16777215
 74
     2
 91
        2
 64
     7
 65
   257
 75
     2
175
     1
 42
40.0
 92
        0
 66
   257
 43
1.0
 76
     1
 77
     6
 78
     2
 67
     7
 79
     3
170
     0
171
     0
290
     0
174
     0
 93
        1
 44
0.0
173
     0
291
     0
 45
0.0
1001
ACAD
1000
AcDbSavedByObjectVersion
1070
     0
  0
VISUALSTYLE
  5
3B
102
{ACAD_REACTORS
330
2A
102
}
102
{ACAD_XDICTIONARY
360
38E
102
}
330
2A
100
AcDbVisualStyle
  2
JitterOff
 70
    20
 71
     2
 72
     2
 73
     0
 90
        0
 40
0.6
 41
30.0
 62
     5
 63
     7
421
 16777215
 74
     1
 91
        4
 64
     7
 65
   257
 75
     1
175
     1
 42
1.0
 92
       10
 66
     7
 43
1.0
 76
     1
 77
     6
 78
     2
 67
     7
 79
     5
170
     0
171
     0
290
     0
174
     0
 93
        1
 44
0.0
173
     0
291
     1
 45
0.0
1001
ACAD
1000
AcDbSavedByObjectVersion
1070
     0
  0
VISUALSTYLE
  5
38
102
{ACAD_REACTORS
330
2A
102
}
102
{ACAD_XDICTIONARY
360
388
102
}
330
2A
100
AcDbVisualStyle
  2
Linepattern
 70
    14
 71
     2
 72
     2
 73
     0
 90
        0
 40
0.6
 41
30.0
 62
     5
 63
     7
421
 16777215
 74
     1
 91
        4
 64
     7
 65
   257
 75
     7
175
     7
 42
1.0
 92
        8
 66
     7
 43
1.0
 76
     1
 77
     6
 78
     2
 67
     7
 79
     5
170
     0
171
     0
290
     0
174
     0
 93
        1
 44
0.0
173
     0
291
     1
 45
0.0
1001
ACAD
1000
AcDbSavedByObjectVersion
1070
     0
  0
VISUALSTYLE
  5
3C
102
{ACAD_REACTORS
330
2A
102
}
102
{ACAD_XDICTIONARY
360
390
102
}
330
2A
100
AcDbVisualStyle
  2
OverhangOff
 70
    21
 71
     2
 72
     2
 73
     0
 90
        0
 40
0.6
 41
30.0
 62
     5
 63
     7
421
 16777215
 74
     1
 91
        4
 64
     7
 65
   257
 75
     1
175
     1
 42
1.0
 92
        9
 66
     7
 43
1.0
 76
     1
 77
     6
 78
     2
 67
     7
 79
     5
170
     0
171
     0
290
     0
174
     0
 93
        1
 44
0.0
173
     0
291
     1
 45
0.0
1001
ACAD
1000
AcDbSavedByObjectVersion
1070
     0
  0
VISUALSTYLE
  5
33
102
{ACAD_REACTORS
330
2A
102
}
102
{ACAD_XDICTIONARY
360
37E
102
}
330
2A
100
AcDbVisualStyle
  2
Realistic
 70
     8
 71
     2
 72
     3
 73
     0
 90
        2
 40
0.6
 41
30.0
 62
     5
 63
     7
421
 16777215
 74
     0
 91
        0
 64
     7
 65
   257
 75
     1
175
     1
 42
1.0
 92
        8
 66
   257
 43
1.0
 76
     1
 77
     6
 78
     2
 67
     7
 79
     3
170
     0
171
     0
290
     0
174
     0
 93
       13
 44
0.0
173
     0
291
     0
 45
0.0
1001
ACAD
1000
AcDbSavedByObjectVersion
1070
     0
  0
VISUALSTYLE
  5
42
102
{ACAD_REACTORS
330
2A
102
}
102
{ACAD_XDICTIONARY
360
39C
102
}
330
2A
100
AcDbVisualStyle
  2
Shaded
 70
    27
 71
     2
 72
     2
 73
     1
 90
        2
 40
0.6
 41
30.0
 62
     5
 63
     7
421
 16777215
 74
     0
 91
        4
 64
     7
 65
   257
 75
     1
175
     1
 42
1.0
 92
        8
 66
   257
 43
1.0
 76
     1
 77
     6
 78
     2
 67
     8
425
  7895160
 79
     3
170
     0
171
     0
290
     0
174
     0
 93
        5
 44
0.0
173
     0
291
     0
 45
0.0
1001
ACAD
1000
AcDbSavedByObjectVersion
1070
     0
  0
VISUALSTYLE
  5
41
102
{ACAD_REACTORS
330
2A
102
}
102
{ACAD_XDICTIONARY
360
39A
102
}
330
2A
100
AcDbVisualStyle
  2
Shaded with edges
 70
    26
 71
     2
 72
     2
 73
     1
 90
        2
 40
0.6
 41
30.0
 62
     5
 63
     7
421
 16777215
 74
     1
 91
       10
 64
     7
 65
   257
 75
     2
175
     1
 42
1.0
 92
        8
 66
   257
 43
1.0
 76
     1
 77
     6
 78
     2
 67
     7
 79
     3
170
     0
171
     0
290
     0
174
     0
 93
        5
 44
0.0
173
     0
291
     0
 45
0.0
1001
ACAD
1000
AcDbSavedByObjectVersion
1070
     0
  0
VISUALSTYLE
  5
3E
102
{ACAD_REACTORS
330
2A
102
}
102
{ACAD_XDICTIONARY
360
394
102
}
330
2A
100
AcDbVisualStyle
  2
Shades of Gray
 70
    23
 71
     2
 72
     2
 73
     3
 90
        0
 40
0.6
 41
30.0
 62
     5
 63
     7
421
 16777215
 74
     2
 91
        2
 64
     7
 65
     7
 75
     1
175
     1
 42
40.0
 92
        8
 66
     7
 43
1.0
 76
     1
 77
     6
 78
     2
 67
     7
 79
     3
170
     0
171
     0
290
     0
174
     0
 93
        1
 44
0.0
173
     0
291
     0
 45
0.0
1001
ACAD
1000
AcDbSavedByObjectVersion
1070
     0
  0
VISUALSTYLE
  5
3F
102
{ACAD_REACTORS
330
2A
102
}
102
{ACAD_XDICTIONARY
360
396
102
}
330
2A
100
AcDbVisualStyle
  2
Sketchy
 70
    24
 71
     1
 72
     2
 73
     2
 90
        0
 40
0.6
 41
30.0
 62
     5
 63
     7
421
 16777215
 74
     2
 91
        2
 64
     7
 65
     7
 75
     1
175
     1
 42
40.0
 92
       11
 66
     7
 43
1.0
 76
     1
 77
     6
 78
     2
 67
     7
 79
     6
170
     0
171
     0
290
     0
174
     0
 93
        1
 44
0.0
173
     0
291
     0
 45
0.0
1001
ACAD
1000
AcDbSavedByObjectVersion
1070
     0
  0
VISUALSTYLE
  5
37
102
{ACAD_REACTORS
330
2A
102
}
102
{ACAD_XDICTIONARY
360
386
102
}
330
2A
100
AcDbVisualStyle
  2
Thicken
 70
    13
 71
     2
 72
     2
 73
     0
 90
        0
 40
0.6
 41
30.0
 62
     5
 63
     7
421
 16777215
 74
     1
 91
        4
 64
     7
 65
   257
 75
     1
175
     1
 42
1.0
 92
       12
 66
     7
 43
1.0
 76
     1
 77
     6
 78
     2
 67
     7
 79
     5
170
     0
171
     0
290
     0
174
     0
 93
        1
 44
0.0
173
     0
291
     1
 45
0.0
1001
ACAD
1000
AcDbSavedByObjectVersion
1070
     0
  0
VISUALSTYLE
  5
30
102
{ACAD_REACTORS
330
2A
102
}
102
{ACAD_XDICTIONARY
360
378
102
}
330
2A
100
AcDbVisualStyle
  2
Wireframe
 70
     5
 71
     0
 72
     2
 73
     0
 90
        0
 40
0.6
 41
30.0
 62
     5
 63
     7
421
 16777215
 74
     1
 91
        4
 64
     7
 65
   257
 75
     1
175
     1
 42
1.0
 92
        0
 66
   257
 43
1.0
 76
     1
 77
     6
 78
     2
 67
     7
 79
     3
170
     0
171
     0
290
     0
174
     0
 93
        1
 44
0.0
173
     0
291
     0
 45
0.0
1001
ACAD
1000
AcDbSavedByObjectVersion
1070
     0
  0
VISUALSTYLE
  5
40
102
{ACAD_REACTORS
330
2A
102
}
102
{ACAD_XDICTIONARY
360
398
102
}
330
2A
100
AcDbVisualStyle
  2
X-Ray
 70
    25
 71
     2
 72
     2
 73
     1
 90
        1
 40
0.5
 41
30.0
 62
     5
 63
     7
421
 16777215
 74
     1
 91
        0
 64
     7
 65
   257
 75
     1
175
     1
 42
1.0
 92
        8
 66
     7
 43
1.0
 76
     1
 77
     6
 78
     2
 67
     7
 79
     3
170
     0
171
     0
290
     0
174
     0
 93
       13
 44
0.0
173
     0
291
     0
 45
0.0
1001
ACAD
1000
AcDbSavedByObjectVersion
1070
     0
  0
DICTIONARYVAR
  5
36B
102
{ACAD_REACTORS
330
36A
102
}
330
36A
100
DictionaryVariables
280
     0
  1
1:1
  0
DICTIONARYVAR
  5
3AF
102
{ACAD_REACTORS
330
36A
102
}
330
36A
100
DictionaryVariables
280
     0
  1
3.500000
  0
DICTIONARYVAR
  5
3B0
102
{ACAD_REACTORS
330
36A
102
}
330
36A
100
DictionaryVariables
280
     0
  1
acadiso.lin
  0
DICTIONARYVAR
  5
3AC
102
{ACAD_REACTORS
330
36A
102
}
330
36A
100
DictionaryVariables
280
     0
  1
Standard
  0
DICTIONARYVAR
  5
3AB
102
{ACAD_REACTORS
330
36A
102
}
330
36A
100
DictionaryVariables
280
     0
  1
Standard
  0
DICTIONARYVAR
  5
36C
102
{ACAD_REACTORS
330
36A
102
}
330
36A
100
DictionaryVariables
280
     0
  1
1
  0
DICTIONARYVAR
  5
36D
102
{ACAD_REACTORS
330
36A
102
}
330
36A
100
DictionaryVariables
280
     0
  1
2
  0
DICTIONARY
  5
3A0
330
45
100
AcDbDictionary
280
     1
281
     1
  3
ACAD_XREC_ROUNDTRIP
360
3A1
  0
DICTIONARY
  5
39E
330
44
100
AcDbDictionary
280
     1
281
     1
  3
ACAD_XREC_ROUNDTRIP
360
39F
  0
DICTIONARY
  5
3A2
330
46
100
AcDbDictionary
280
     1
281
     1
  3
ACAD_XREC_ROUNDTRIP
360
3A3
  0
DICTIONARY
  5
3A8
330
6C
100
AcDbDictionary
280
     1
281
     1
  3
ACAD_XREC_ROUNDTRIP
360
3A9
  0
DICTIONARY
  5
3A4
330
6A
100
AcDbDictionary
280
     1
281
     1
  3
ACAD_ROUNDTRIP_2008_TABLESTYLE_CELLSTYLEMAP
360
3A6
  3
ACAD_XREC_ROUNDTRIP
360
3A5
  0
DICTIONARY
  5
376
330
2F
100
AcDbDictionary
280
     1
281
     1
  3
ACAD_XREC_ROUNDTRIP
360
377
  0
DICTIONARY
  5
37C
330
32
100
AcDbDictionary
280
     1
281
     1
  3
ACAD_XREC_ROUNDTRIP
360
37D
  0
DICTIONARY
  5
384
330
36
100
AcDbDictionary
280
     1
281
     1
  3
ACAD_XREC_ROUNDTRIP
360
385
  0
DICTIONARY
  5
38C
330
3A
100
AcDbDictionary
280
     1
281
     1
  3
ACAD_XREC_ROUNDTRIP
360
38D
  0
DICTIONARY
  5
380
330
34
100
AcDbDictionary
280
     1
281
     1
  3
ACAD_XREC_ROUNDTRIP
360
381
  0
DICTIONARY
  5
382
330
35
100
AcDbDictionary
280
     1
281
     1
  3
ACAD_XREC_ROUNDTRIP
360
383
  0
DICTIONARY
  5
392
330
3D
100
AcDbDictionary
280
     1
281
     1
  3
ACAD_XREC_ROUNDTRIP
360
393
  0
DICTIONARY
  5
38A
330
39
100
AcDbDictionary
280
     1
281
     1
  3
ACAD_XREC_ROUNDTRIP
360
38B
  0
DICTIONARY
  5
36E
330
2B
100
AcDbDictionary
280
     1
281
     1
  3
ACAD_XREC_ROUNDTRIP
360
36F
  0
DICTIONARY
  5
370
330
2C
100
AcDbDictionary
280
     1
281
     1
  3
ACAD_XREC_ROUNDTRIP
360
371
  0
DICTIONARY
  5
372
330
2D
100
AcDbDictionary
280
     1
281
     1
  3
ACAD_XREC_ROUNDTRIP
360
373
  0
DICTIONARY
  5
374
330
2E
100
AcDbDictionary
280
     1
281
     1
  3
ACAD_XREC_ROUNDTRIP
360
375
  0
DICTIONARY
  5
37A
330
31
100
AcDbDictionary
280
     1
281
     1
  3
ACAD_XREC_ROUNDTRIP
360
37B
  0
DICTIONARY
  5
38E
330
3B
100
AcDbDictionary
280
     1
281
     1
  3
ACAD_XREC_ROUNDTRIP
360
38F
  0
DICTIONARY
  5
388
330
38
100
AcDbDictionary
280
     1
281
     1
  3
ACAD_XREC_ROUNDTRIP
360
389
  0
DICTIONARY
  5
390
330
3C
100
AcDbDictionary
280
     1
281
     1
  3
ACAD_XREC_ROUNDTRIP
360
391
  0
DICTIONARY
  5
37E
330
33
100
AcDbDictionary
280
     1
281
     1
  3
ACAD_XREC_ROUNDTRIP
360
37F
  0
DICTIONARY
  5
39C
330
42
100
AcDbDictionary
280
     1
281
     1
  3
ACAD_XREC_ROUNDTRIP
360
39D
  0
DICTIONARY
  5
39A
330
41
100
AcDbDictionary
280
     1
281
     1
  3
ACAD_XREC_ROUNDTRIP
360
39B
  0
DICTIONARY
  5
394
330
3E
100
AcDbDictionary
280
     1
281
     1
  3
ACAD_XREC_ROUNDTRIP
360
395
  0
DICTIONARY
  5
396
330
3F
100
AcDbDictionary
280
     1
281
     1
  3
ACAD_XREC_ROUNDTRIP
360
397
  0
DICTIONARY
  5
386
330
37
100
AcDbDictionary
280
     1
281
     1
  3
ACAD_XREC_ROUNDTRIP
360
387
  0
DICTIONARY
  5
378
330
30
100
AcDbDictionary
280
     1
281
     1
  3
ACAD_XREC_ROUNDTRIP
360
379
  0
DICTIONARY
  5
398
330
40
100
AcDbDictionary
280
     1
281
     1
  3
ACAD_XREC_ROUNDTRIP
360
399
  0
XRECORD
  5
3A1
102
{ACAD_REACTORS
330
3A0
102
}
330
3A0
100
AcDbXrecord
280
     1
102
MATERIAL
148
0.0
149
0.0
149
0.0
 93
        0
 94
      127
282
     0
 72
     1
 77
     1
171
     1
175
     1
179
     1
273
     0
  0
XRECORD
  5
39F
102
{ACAD_REACTORS
330
39E
102
}
330
39E
100
AcDbXrecord
280
     1
102
MATERIAL
148
0.0
149
0.0
149
0.0
 93
        0
 94
      127
282
     0
 72
     1
 77
     1
171
     1
175
     1
179
     1
273
     0
  0
XRECORD
  5
3A3
102
{ACAD_REACTORS
330
3A2
102
}
330
3A2
100
AcDbXrecord
280
     1
102
MATERIAL
148
0.0
149
0.0
149
0.0
 93
        0
 94
      127
282
     0
 72
     1
 77
     1
171
     1
175
     1
179
     1
273
     0
  0
XRECORD
  5
3A9
102
{ACAD_REACTORS
330
3A8
102
}
330
3A8
100
AcDbXrecord
280
     1
102
ACAD_ROUNDTRIP_2010_MLEADER_STYLE
  0
CELLSTYLEMAP
  5
3A6
102
{ACAD_REACTORS
330
3A4
102
}
330
3A4
100
AcDbCellStyleMap
 90
        3
300
CELLSTYLE
  1
TABLEFORMAT_BEGIN
 90
        5
170
     1
 91
        0
 92
    32768
 62
   257
 93
        1
300
CONTENTFORMAT
  1
CONTENTFORMAT_BEGIN
 90
        0
 91
        0
 92
        4
 93
        0
300

 40
0.0
140
1.0
 94
        5
 62
     0
340
11
144
6.0
309
CONTENTFORMAT_END
171
     1
301
MARGIN
  1
CELLMARGIN_BEGIN
 40
1.5
 40
1.5
 40
1.5
 40
1.5
 40
1.5
 40
1.5
309
CELLMARGIN_END
 94
        6
 95
        1
302
GRIDFORMAT
  1
GRIDFORMAT_BEGIN
 90
        0
 91
        1
 62
     0
 92
       -2
340
14
 93
        0
 40
0.045
309
GRIDFORMAT_END
 95
        2
302
GRIDFORMAT
  1
GRIDFORMAT_BEGIN
 90
        0
 91
        1
 62
     0
 92
       -2
340
14
 93
        0
 40
0.045
309
GRIDFORMAT_END
 95
        4
302
GRIDFORMAT
  1
GRIDFORMAT_BEGIN
 90
        0
 91
        1
 62
     0
 92
       -2
340
14
 93
        0
 40
0.045
309
GRIDFORMAT_END
 95
        8
302
GRIDFORMAT
  1
GRIDFORMAT_BEGIN
 90
        0
 91
        1
 62
     0
 92
       -2
340
14
 93
        0
 40
0.045
309
GRIDFORMAT_END
 95
       16
302
GRIDFORMAT
  1
GRIDFORMAT_BEGIN
 90
        0
 91
        1
 62
     0
 92
       -2
340
14
 93
        0
 40
0.045
309
GRIDFORMAT_END
 95
       32
302
GRIDFORMAT
  1
GRIDFORMAT_BEGIN
 90
        0
 91
        1
 62
     0
 92
       -2
340
14
 93
        0
 40
0.045
309
GRIDFORMAT_END
309
TABLEFORMAT_END
  1
CELLSTYLE_BEGIN
 90
        1
 91
        1
300
_TITLE
309
CELLSTYLE_END
300
CELLSTYLE
  1
TABLEFORMAT_BEGIN
 90
        5
170
     1
 91
        0
 92
        0
 62
   257
 93
        1
300
CONTENTFORMAT
  1
CONTENTFORMAT_BEGIN
 90
        0
 91
        0
 92
        4
 93
        0
300

 40
0.0
140
1.0
 94
        5
 62
     0
340
11
144
4.5
309
CONTENTFORMAT_END
171
     1
301
MARGIN
  1
CELLMARGIN_BEGIN
 40
1.5
 40
1.5
 40
1.5
 40
1.5
 40
1.5
 40
1.5
309
CELLMARGIN_END
 94
        6
 95
        1
302
GRIDFORMAT
  1
GRIDFORMAT_BEGIN
 90
        0
 91
        1
 62
     0
 92
       -2
340
14
 93
        0
 40
0.045
309
GRIDFORMAT_END
 95
        2
302
GRIDFORMAT
  1
GRIDFORMAT_BEGIN
 90
        0
 91
        1
 62
     0
 92
       -2
340
14
 93
        0
 40
0.045
309
GRIDFORMAT_END
 95
        4
302
GRIDFORMAT
  1
GRIDFORMAT_BEGIN
 90
        0
 91
        1
 62
     0
 92
       -2
340
14
 93
        0
 40
0.045
309
GRIDFORMAT_END
 95
        8
302
GRIDFORMAT
  1
GRIDFORMAT_BEGIN
 90
        0
 91
        1
 62
     0
 92
       -2
340
14
 93
        0
 40
0.045
309
GRIDFORMAT_END
 95
       16
302
GRIDFORMAT
  1
GRIDFORMAT_BEGIN
 90
        0
 91
        1
 62
     0
 92
       -2
340
14
 93
        0
 40
0.045
309
GRIDFORMAT_END
 95
       32
302
GRIDFORMAT
  1
GRIDFORMAT_BEGIN
 90
        0
 91
        1
 62
     0
 92
       -2
340
14
 93
        0
 40
0.045
309
GRIDFORMAT_END
309
TABLEFORMAT_END
  1
CELLSTYLE_BEGIN
 90
        2
 91
        1
300
_HEADER
309
CELLSTYLE_END
300
CELLSTYLE
  1
TABLEFORMAT_BEGIN
 90
        5
170
     1
 91
        0
 92
        0
 62
   257
 93
        1
300
CONTENTFORMAT
  1
CONTENTFORMAT_BEGIN
 90
        0
 91
        0
 92
        4
 93
        0
300

 40
0.0
140
1.0
 94
        2
 62
     0
340
11
144
4.5
309
CONTENTFORMAT_END
171
     1
301
MARGIN
  1
CELLMARGIN_BEGIN
 40
1.5
 40
1.5
 40
1.5
 40
1.5
 40
1.5
 40
1.5
309
CELLMARGIN_END
 94
        6
 95
        1
302
GRIDFORMAT
  1
GRIDFORMAT_BEGIN
 90
        0
 91
        1
 62
     0
 92
       -2
340
14
 93
        0
 40
0.045
309
GRIDFORMAT_END
 95
        2
302
GRIDFORMAT
  1
GRIDFORMAT_BEGIN
 90
        0
 91
        1
 62
     0
 92
       -2
340
14
 93
        0
 40
0.045
309
GRIDFORMAT_END
 95
        4
302
GRIDFORMAT
  1
GRIDFORMAT_BEGIN
 90
        0
 91
        1
 62
     0
 92
       -2
340
14
 93
        0
 40
0.045
309
GRIDFORMAT_END
 95
        8
302
GRIDFORMAT
  1
GRIDFORMAT_BEGIN
 90
        0
 91
        1
 62
     0
 92
       -2
340
14
 93
        0
 40
0.045
309
GRIDFORMAT_END
 95
       16
302
GRIDFORMAT
  1
GRIDFORMAT_BEGIN
 90
        0
 91
        1
 62
     0
 92
       -2
340
14
 93
        0
 40
0.045
309
GRIDFORMAT_END
 95
       32
302
GRIDFORMAT
  1
GRIDFORMAT_BEGIN
 90
        0
 91
        1
 62
     0
 92
       -2
340
14
 93
        0
 40
0.045
309
GRIDFORMAT_END
309
TABLEFORMAT_END
  1
CELLSTYLE_BEGIN
 90
        3
 91
        2
300
_DATA
309
CELLSTYLE_END
  0
XRECORD
  5
3A5
102
{ACAD_REACTORS
330
3A4
102
}
330
3A4
100
AcDbXrecord
280
     1
102
ACAD_ROUNDTRIP_PRE2007_TABLESTYLE
 90
        4
 91
        0
  1

 92
        4
 93
        0
  2

 94
        4
 95
        0
  3

  0
XRECORD
  5
377
102
{ACAD_REACTORS
330
376
102
}
330
376
100
AcDbXrecord
280
     1
102
RTVSPropertyOp0
 70
     1
102
RTVSPropertyOp1
 70
     1
102
RTVSPropertyOp2
 70
     1
102
RTVSPropertyOp3
 70
     1
102
RTVSPropertyOp4
 70
     1
102
RTVSPropertyOp5
 70
     1
102
RTVSPropertyOp6
 70
     1
102
RTVSPropertyOp7
 70
     1
102
RTVSPropertyOp8
 70
     1
102
RTVSPropertyOp9
 70
     1
102
RTVSPropertyOp10
 70
     1
102
RTVSPropertyOp11
 70
     1
102
RTVSPropertyOp12
 70
     1
102
RTVSPropertyOp13
 70
     1
102
RTVSPropertyOp14
 70
     1
102
RTVSPropertyOp15
 70
     1
102
RTVSPropertyOp16
 70
     1
102
RTVSPropertyOp17
 70
     1
102
RTVSPropertyOp18
 70
     1
102
RTVSPropertyOp19
 70
     1
102
RTVSPropertyOp20
 70
     1
102
RTVSPropertyOp21
 70
     1
102
RTVSPropertyOp22
 70
     1
102
RTVSPropertyOp23
 70
     1
102
RTVSPropertyOp24
 70
     1
102
RTVSPropertyOp25
 70
     1
102
RTVSPropertyOp26
 70
     1
102
RTVSPropertyOp27
 70
     1
102
RTVSPropertyOp28
 70
     1
102
RTVSPropertyOp29
 70
     1
102
RTVSPropertyOp30
 70
     1
102
RTVSPropertyOp31
 70
     1
102
RTVSPropertyOp32
 70
     1
102
RTVSPropertyOp33
 70
     1
102
RTVSPropertyOp34
 70
     1
102
RTVSPropertyOp35
 70
     1
102
RTVSPropertyOp36
 70
     1
102
RTVSPropertyOp37
 70
     1
102
RTVSPropertyOp38
 70
     1
102
RTVSPropertyOp39
 70
     1
102
RTVSPropertyOp40
 70
     1
102
RTVSPropertyOp41
 70
     1
102
RTVSPropertyOp42
 70
     1
102
RTVSPropertyOp43
 70
     1
102
RTVSPropertyOp44
 70
     1
102
RTVSPropertyOp45
 70
     1
102
RTVSPropertyOp46
 70
     1
102
RTVSPropertyOp47
 70
     1
102
RTVSPropertyOp48
 70
     1
102
RTVSPropertyOp49
 70
     1
102
RTVSPropertyOp50
 70
     1
102
RTVSPropertyOp51
 70
     0
102
RTVSPropertyOp52
 70
     0
102
RTVSPropertyOp53
 70
     1
102
RTVSPropertyOp54
 70
     1
102
RTVSPropertyOp55
 70
     1
102
RTVSPropertyOp56
 70
     1
102
RTVSPropertyOp57
 70
     1
102
RTVSPost2010Prop28
280
     1
102
RTVSPost2010PropOp28
 70
     1
102
RTVSPost2010Prop29
280
     1
102
RTVSPost2010PropOp29
 70
     1
102
RTVSPost2010Prop30
280
     0
102
RTVSPost2010PropOp30
 70
     1
102
RTVSPost2010Prop31
280
     0
102
RTVSPost2010PropOp31
 70
     1
102
RTVSPost2010Prop32
280
     0
102
RTVSPost2010PropOp32
 70
     1
102
RTVSPost2010Prop33
280
     0
102
RTVSPost2010PropOp33
 70
     1
102
RTVSPost2010Prop34
280
     0
102
RTVSPost2010PropOp34
 70
     1
102
RTVSPost2010Prop35
280
     0
102
RTVSPost2010PropOp35
 70
     1
102
RTVSPost2010Prop36
280
     0
102
RTVSPost2010PropOp36
 70
     1
102
RTVSPost2010Prop37
 90
       50
102
RTVSPost2010PropOp37
 70
     1
102
RTVSPost2010Prop38
140
0.0
102
RTVSPost2010PropOp38
 70
     1
102
RTVSPost2010Prop39
140
1.0
102
RTVSPost2010PropOp39
 70
     1
102
RTVSPost2010Prop40
 90
        0
102
RTVSPost2010PropOp40
 70
     1
102
RTVSPost2010Prop41ColorIndex
 90
       18
102
RTVSPost2010Prop41ColorRGB
 90
        0
102
RTVSPost2010PropOp41
 70
     1
102
RTVSPost2010Prop42
 90
       50
102
RTVSPost2010PropOp42
 70
     1
102
RTVSPost2010Prop43
 90
        3
102
RTVSPost2010PropOp43
 70
     1
102
RTVSPost2010Prop44ColorIndex
 90
        5
102
RTVSPost2010Prop44ColorRGB
 90
      255
102
RTVSPost2010PropOp44
 70
     1
102
RTVSPost2010Prop45
280
     0
102
RTVSPost2010PropOp45
 70
     1
102
RTVSPost2010Prop46
 90
       50
102
RTVSPost2010PropOp46
 70
     1
102
RTVSPost2010Prop47
 90
       50
102
RTVSPost2010PropOp47
 70
     1
102
RTVSPost2010Prop48
 90
       50
102
RTVSPost2010PropOp48
 70
     1
102
RTVSPost2010Prop49
280
     0
102
RTVSPost2010PropOp49
 70
     1
102
RTVSPost2010Prop50
 90
       50
102
RTVSPost2010PropOp50
 70
     1
102
RTVSPost2010Prop51ColorIndex
 90
      256
102
RTVSPost2010Prop51ColorRGB
 90
-16777216
102
RTVSPost2010PropOp51
 70
     0
102
RTVSPost2010Prop52
140
1.0
102
RTVSPost2010PropOp52
 70
     0
102
RTVSPost2010Prop53
 90
        2
102
RTVSPost2010PropOp53
 70
     1
102
RTVSPost2010Prop54
  1
strokes_ogs.tif
102
RTVSPost2010PropOp54
 70
     1
102
RTVSPost2010Prop55
280
     0
102
RTVSPost2010PropOp55
 70
     1
102
RTVSPost2010Prop56
140
1.0
102
RTVSPost2010PropOp56
 70
     1
102
RTVSPost2010Prop57
140
1.0
102
RTVSPost2010PropOp57
 70
     1
  0
XRECORD
  5
37D
102
{ACAD_REACTORS
330
37C
102
}
330
37C
100
AcDbXrecord
280
     1
102
RTVSPropertyOp0
 70
     1
102
RTVSPropertyOp1
 70
     1
102
RTVSPropertyOp2
 70
     1
102
RTVSPropertyOp3
 70
     1
102
RTVSPropertyOp4
 70
     1
102
RTVSPropertyOp5
 70
     1
102
RTVSPropertyOp6
 70
     1
102
RTVSPropertyOp7
 70
     1
102
RTVSPropertyOp8
 70
     1
102
RTVSPropertyOp9
 70
     1
102
RTVSPropertyOp10
 70
     1
102
RTVSPropertyOp11
 70
     1
102
RTVSPropertyOp12
 70
     1
102
RTVSPropertyOp13
 70
     1
102
RTVSPropertyOp14
 70
     1
102
RTVSPropertyOp15
 70
     1
102
RTVSPropertyOp16
 70
     1
102
RTVSPropertyOp17
 70
     1
102
RTVSPropertyOp18
 70
     1
102
RTVSPropertyOp19
 70
     1
102
RTVSPropertyOp20
 70
     1
102
RTVSPropertyOp21
 70
     1
102
RTVSPropertyOp22
 70
     1
102
RTVSPropertyOp23
 70
     1
102
RTVSPropertyOp24
 70
     1
102
RTVSPropertyOp25
 70
     1
102
RTVSPropertyOp26
 70
     1
102
RTVSPropertyOp27
 70
     1
102
RTVSPropertyOp28
 70
     1
102
RTVSPropertyOp29
 70
     1
102
RTVSPropertyOp30
 70
     1
102
RTVSPropertyOp31
 70
     1
102
RTVSPropertyOp32
 70
     1
102
RTVSPropertyOp33
 70
     1
102
RTVSPropertyOp34
 70
     1
102
RTVSPropertyOp35
 70
     1
102
RTVSPropertyOp36
 70
     1
102
RTVSPropertyOp37
 70
     1
102
RTVSPropertyOp38
 70
     1
102
RTVSPropertyOp39
 70
     1
102
RTVSPropertyOp40
 70
     1
102
RTVSPropertyOp41
 70
     1
102
RTVSPropertyOp42
 70
     1
102
RTVSPropertyOp43
 70
     1
102
RTVSPropertyOp44
 70
     1
102
RTVSPropertyOp45
 70
     1
102
RTVSPropertyOp46
 70
     1
102
RTVSPropertyOp47
 70
     1
102
RTVSPropertyOp48
 70
     1
102
RTVSPropertyOp49
 70
     1
102
RTVSPropertyOp50
 70
     1
102
RTVSPropertyOp51
 70
     0
102
RTVSPropertyOp52
 70
     0
102
RTVSPropertyOp53
 70
     1
102
RTVSPropertyOp54
 70
     1
102
RTVSPropertyOp55
 70
     1
102
RTVSPropertyOp56
 70
     1
102
RTVSPropertyOp57
 70
     1
102
RTVSPost2010Prop28
280
     0
102
RTVSPost2010PropOp28
 70
     1
102
RTVSPost2010Prop29
280
     1
102
RTVSPost2010PropOp29
 70
     1
102
RTVSPost2010Prop30
280
     1
102
RTVSPost2010PropOp30
 70
     1
102
RTVSPost2010Prop31
280
     0
102
RTVSPost2010PropOp31
 70
     1
102
RTVSPost2010Prop32
280
     0
102
RTVSPost2010PropOp32
 70
     1
102
RTVSPost2010Prop33
280
     0
102
RTVSPost2010PropOp33
 70
     1
102
RTVSPost2010Prop34
280
     0
102
RTVSPost2010PropOp34
 70
     1
102
RTVSPost2010Prop35
280
     0
102
RTVSPost2010PropOp35
 70
     1
102
RTVSPost2010Prop36
280
     0
102
RTVSPost2010PropOp36
 70
     1
102
RTVSPost2010Prop37
 90
       50
102
RTVSPost2010PropOp37
 70
     1
102
RTVSPost2010Prop38
140
0.0
102
RTVSPost2010PropOp38
 70
     1
102
RTVSPost2010Prop39
140
1.0
102
RTVSPost2010PropOp39
 70
     1
102
RTVSPost2010Prop40
 90
        0
102
RTVSPost2010PropOp40
 70
     1
102
RTVSPost2010Prop41ColorIndex
 90
       18
102
RTVSPost2010Prop41ColorRGB
 90
        0
102
RTVSPost2010PropOp41
 70
     1
102
RTVSPost2010Prop42
 90
       50
102
RTVSPost2010PropOp42
 70
     1
102
RTVSPost2010Prop43
 90
        3
102
RTVSPost2010PropOp43
 70
     1
102
RTVSPost2010Prop44ColorIndex
 90
        5
102
RTVSPost2010Prop44ColorRGB
 90
      255
102
RTVSPost2010PropOp44
 70
     1
102
RTVSPost2010Prop45
280
     0
102
RTVSPost2010PropOp45
 70
     1
102
RTVSPost2010Prop46
 90
       50
102
RTVSPost2010PropOp46
 70
     1
102
RTVSPost2010Prop47
 90
       50
102
RTVSPost2010PropOp47
 70
     1
102
RTVSPost2010Prop48
 90
       50
102
RTVSPost2010PropOp48
 70
     1
102
RTVSPost2010Prop49
280
     0
102
RTVSPost2010PropOp49
 70
     1
102
RTVSPost2010Prop50
 90
       50
102
RTVSPost2010PropOp50
 70
     1
102
RTVSPost2010Prop51ColorIndex
 90
      256
102
RTVSPost2010Prop51ColorRGB
 90
-16777216
102
RTVSPost2010PropOp51
 70
     0
102
RTVSPost2010Prop52
140
1.0
102
RTVSPost2010PropOp52
 70
     0
102
RTVSPost2010Prop53
 90
        2
102
RTVSPost2010PropOp53
 70
     1
102
RTVSPost2010Prop54
  1
strokes_ogs.tif
102
RTVSPost2010PropOp54
 70
     1
102
RTVSPost2010Prop55
280
     0
102
RTVSPost2010PropOp55
 70
     1
102
RTVSPost2010Prop56
140
1.0
102
RTVSPost2010PropOp56
 70
     1
102
RTVSPost2010Prop57
140
1.0
102
RTVSPost2010PropOp57
 70
     1
  0
XRECORD
  5
385
102
{ACAD_REACTORS
330
384
102
}
330
384
100
AcDbXrecord
280
     1
102
RTVSPropertyOp0
 70
     1
102
RTVSPropertyOp1
 70
     1
102
RTVSPropertyOp2
 70
     1
102
RTVSPropertyOp3
 70
     1
102
RTVSPropertyOp4
 70
     1
102
RTVSPropertyOp5
 70
     1
102
RTVSPropertyOp6
 70
     1
102
RTVSPropertyOp7
 70
     1
102
RTVSPropertyOp8
 70
     1
102
RTVSPropertyOp9
 70
     1
102
RTVSPropertyOp10
 70
     1
102
RTVSPropertyOp11
 70
     1
102
RTVSPropertyOp12
 70
     1
102
RTVSPropertyOp13
 70
     1
102
RTVSPropertyOp14
 70
     1
102
RTVSPropertyOp15
 70
     1
102
RTVSPropertyOp16
 70
     1
102
RTVSPropertyOp17
 70
     1
102
RTVSPropertyOp18
 70
     1
102
RTVSPropertyOp19
 70
     1
102
RTVSPropertyOp20
 70
     1
102
RTVSPropertyOp21
 70
     1
102
RTVSPropertyOp22
 70
     1
102
RTVSPropertyOp23
 70
     1
102
RTVSPropertyOp24
 70
     1
102
RTVSPropertyOp25
 70
     1
102
RTVSPropertyOp26
 70
     1
102
RTVSPropertyOp27
 70
     1
102
RTVSPropertyOp28
 70
     1
102
RTVSPropertyOp29
 70
     1
102
RTVSPropertyOp30
 70
     1
102
RTVSPropertyOp31
 70
     1
102
RTVSPropertyOp32
 70
     1
102
RTVSPropertyOp33
 70
     1
102
RTVSPropertyOp34
 70
     1
102
RTVSPropertyOp35
 70
     1
102
RTVSPropertyOp36
 70
     1
102
RTVSPropertyOp37
 70
     1
102
RTVSPropertyOp38
 70
     1
102
RTVSPropertyOp39
 70
     1
102
RTVSPropertyOp40
 70
     1
102
RTVSPropertyOp41
 70
     1
102
RTVSPropertyOp42
 70
     1
102
RTVSPropertyOp43
 70
     1
102
RTVSPropertyOp44
 70
     1
102
RTVSPropertyOp45
 70
     1
102
RTVSPropertyOp46
 70
     1
102
RTVSPropertyOp47
 70
     1
102
RTVSPropertyOp48
 70
     1
102
RTVSPropertyOp49
 70
     1
102
RTVSPropertyOp50
 70
     1
102
RTVSPropertyOp51
 70
     0
102
RTVSPropertyOp52
 70
     0
102
RTVSPropertyOp53
 70
     1
102
RTVSPropertyOp54
 70
     1
102
RTVSPropertyOp55
 70
     1
102
RTVSPropertyOp56
 70
     1
102
RTVSPropertyOp57
 70
     1
102
RTVSPost2010Prop28
280
     0
102
RTVSPost2010PropOp28
 70
     1
102
RTVSPost2010Prop29
280
     1
102
RTVSPost2010PropOp29
 70
     1
102
RTVSPost2010Prop30
280
     1
102
RTVSPost2010PropOp30
 70
     1
102
RTVSPost2010Prop31
280
     0
102
RTVSPost2010PropOp31
 70
     1
102
RTVSPost2010Prop32
280
     0
102
RTVSPost2010PropOp32
 70
     1
102
RTVSPost2010Prop33
280
     0
102
RTVSPost2010PropOp33
 70
     1
102
RTVSPost2010Prop34
280
     0
102
RTVSPost2010PropOp34
 70
     1
102
RTVSPost2010Prop35
280
     0
102
RTVSPost2010PropOp35
 70
     1
102
RTVSPost2010Prop36
280
     0
102
RTVSPost2010PropOp36
 70
     1
102
RTVSPost2010Prop37
 90
       50
102
RTVSPost2010PropOp37
 70
     1
102
RTVSPost2010Prop38
140
0.0
102
RTVSPost2010PropOp38
 70
     1
102
RTVSPost2010Prop39
140
1.0
102
RTVSPost2010PropOp39
 70
     1
102
RTVSPost2010Prop40
 90
        0
102
RTVSPost2010PropOp40
 70
     1
102
RTVSPost2010Prop41ColorIndex
 90
       18
102
RTVSPost2010Prop41ColorRGB
 90
        0
102
RTVSPost2010PropOp41
 70
     1
102
RTVSPost2010Prop42
 90
       50
102
RTVSPost2010PropOp42
 70
     1
102
RTVSPost2010Prop43
 90
        3
102
RTVSPost2010PropOp43
 70
     1
102
RTVSPost2010Prop44ColorIndex
 90
        5
102
RTVSPost2010Prop44ColorRGB
 90
      255
102
RTVSPost2010PropOp44
 70
     1
102
RTVSPost2010Prop45
280
     0
102
RTVSPost2010PropOp45
 70
     1
102
RTVSPost2010Prop46
 90
       50
102
RTVSPost2010PropOp46
 70
     1
102
RTVSPost2010Prop47
 90
       50
102
RTVSPost2010PropOp47
 70
     1
102
RTVSPost2010Prop48
 90
       50
102
RTVSPost2010PropOp48
 70
     1
102
RTVSPost2010Prop49
280
     0
102
RTVSPost2010PropOp49
 70
     1
102
RTVSPost2010Prop50
 90
       50
102
RTVSPost2010PropOp50
 70
     1
102
RTVSPost2010Prop51ColorIndex
 90
      256
102
RTVSPost2010Prop51ColorRGB
 90
-16777216
102
RTVSPost2010PropOp51
 70
     0
102
RTVSPost2010Prop52
140
1.0
102
RTVSPost2010PropOp52
 70
     0
102
RTVSPost2010Prop53
 90
        2
102
RTVSPost2010PropOp53
 70
     1
102
RTVSPost2010Prop54
  1
strokes_ogs.tif
102
RTVSPost2010PropOp54
 70
     1
102
RTVSPost2010Prop55
280
     0
102
RTVSPost2010PropOp55
 70
     1
102
RTVSPost2010Prop56
140
1.0
102
RTVSPost2010PropOp56
 70
     1
102
RTVSPost2010Prop57
140
1.0
102
RTVSPost2010PropOp57
 70
     1
  0
XRECORD
  5
38D
102
{ACAD_REACTORS
330
38C
102
}
330
38C
100
AcDbXrecord
280
     1
102
RTVSPropertyOp0
 70
     1
102
RTVSPropertyOp1
 70
     1
102
RTVSPropertyOp2
 70
     1
102
RTVSPropertyOp3
 70
     1
102
RTVSPropertyOp4
 70
     1
102
RTVSPropertyOp5
 70
     1
102
RTVSPropertyOp6
 70
     1
102
RTVSPropertyOp7
 70
     1
102
RTVSPropertyOp8
 70
     1
102
RTVSPropertyOp9
 70
     1
102
RTVSPropertyOp10
 70
     1
102
RTVSPropertyOp11
 70
     1
102
RTVSPropertyOp12
 70
     1
102
RTVSPropertyOp13
 70
     1
102
RTVSPropertyOp14
 70
     1
102
RTVSPropertyOp15
 70
     1
102
RTVSPropertyOp16
 70
     1
102
RTVSPropertyOp17
 70
     1
102
RTVSPropertyOp18
 70
     1
102
RTVSPropertyOp19
 70
     1
102
RTVSPropertyOp20
 70
     1
102
RTVSPropertyOp21
 70
     1
102
RTVSPropertyOp22
 70
     1
102
RTVSPropertyOp23
 70
     1
102
RTVSPropertyOp24
 70
     1
102
RTVSPropertyOp25
 70
     1
102
RTVSPropertyOp26
 70
     1
102
RTVSPropertyOp27
 70
     1
102
RTVSPropertyOp28
 70
     1
102
RTVSPropertyOp29
 70
     1
102
RTVSPropertyOp30
 70
     1
102
RTVSPropertyOp31
 70
     1
102
RTVSPropertyOp32
 70
     1
102
RTVSPropertyOp33
 70
     1
102
RTVSPropertyOp34
 70
     1
102
RTVSPropertyOp35
 70
     1
102
RTVSPropertyOp36
 70
     1
102
RTVSPropertyOp37
 70
     1
102
RTVSPropertyOp38
 70
     1
102
RTVSPropertyOp39
 70
     1
102
RTVSPropertyOp40
 70
     1
102
RTVSPropertyOp41
 70
     1
102
RTVSPropertyOp42
 70
     1
102
RTVSPropertyOp43
 70
     1
102
RTVSPropertyOp44
 70
     1
102
RTVSPropertyOp45
 70
     1
102
RTVSPropertyOp46
 70
     1
102
RTVSPropertyOp47
 70
     1
102
RTVSPropertyOp48
 70
     1
102
RTVSPropertyOp49
 70
     1
102
RTVSPropertyOp50
 70
     1
102
RTVSPropertyOp51
 70
     0
102
RTVSPropertyOp52
 70
     0
102
RTVSPropertyOp53
 70
     1
102
RTVSPropertyOp54
 70
     1
102
RTVSPropertyOp55
 70
     1
102
RTVSPropertyOp56
 70
     1
102
RTVSPropertyOp57
 70
     1
102
RTVSPost2010Prop28
280
     0
102
RTVSPost2010PropOp28
 70
     1
102
RTVSPost2010Prop29
280
     1
102
RTVSPost2010PropOp29
 70
     1
102
RTVSPost2010Prop30
280
     1
102
RTVSPost2010PropOp30
 70
     1
102
RTVSPost2010Prop31
280
     0
102
RTVSPost2010PropOp31
 70
     1
102
RTVSPost2010Prop32
280
     0
102
RTVSPost2010PropOp32
 70
     1
102
RTVSPost2010Prop33
280
     0
102
RTVSPost2010PropOp33
 70
     1
102
RTVSPost2010Prop34
280
     0
102
RTVSPost2010PropOp34
 70
     1
102
RTVSPost2010Prop35
280
     0
102
RTVSPost2010PropOp35
 70
     1
102
RTVSPost2010Prop36
280
     0
102
RTVSPost2010PropOp36
 70
     1
102
RTVSPost2010Prop37
 90
       50
102
RTVSPost2010PropOp37
 70
     1
102
RTVSPost2010Prop38
140
0.0
102
RTVSPost2010PropOp38
 70
     1
102
RTVSPost2010Prop39
140
1.0
102
RTVSPost2010PropOp39
 70
     1
102
RTVSPost2010Prop40
 90
        0
102
RTVSPost2010PropOp40
 70
     1
102
RTVSPost2010Prop41ColorIndex
 90
       18
102
RTVSPost2010Prop41ColorRGB
 90
        0
102
RTVSPost2010PropOp41
 70
     1
102
RTVSPost2010Prop42
 90
       50
102
RTVSPost2010PropOp42
 70
     1
102
RTVSPost2010Prop43
 90
        3
102
RTVSPost2010PropOp43
 70
     1
102
RTVSPost2010Prop44ColorIndex
 90
        5
102
RTVSPost2010Prop44ColorRGB
 90
      255
102
RTVSPost2010PropOp44
 70
     1
102
RTVSPost2010Prop45
280
     0
102
RTVSPost2010PropOp45
 70
     1
102
RTVSPost2010Prop46
 90
       50
102
RTVSPost2010PropOp46
 70
     1
102
RTVSPost2010Prop47
 90
       50
102
RTVSPost2010PropOp47
 70
     1
102
RTVSPost2010Prop48
 90
       50
102
RTVSPost2010PropOp48
 70
     1
102
RTVSPost2010Prop49
280
     0
102
RTVSPost2010PropOp49
 70
     1
102
RTVSPost2010Prop50
 90
       50
102
RTVSPost2010PropOp50
 70
     1
102
RTVSPost2010Prop51ColorIndex
 90
      256
102
RTVSPost2010Prop51ColorRGB
 90
-16777216
102
RTVSPost2010PropOp51
 70
     0
102
RTVSPost2010Prop52
140
1.0
102
RTVSPost2010PropOp52
 70
     0
102
RTVSPost2010Prop53
 90
        2
102
RTVSPost2010PropOp53
 70
     1
102
RTVSPost2010Prop54
  1
strokes_ogs.tif
102
RTVSPost2010PropOp54
 70
     1
102
RTVSPost2010Prop55
280
     0
102
RTVSPost2010PropOp55
 70
     1
102
RTVSPost2010Prop56
140
1.0
102
RTVSPost2010PropOp56
 70
     1
102
RTVSPost2010Prop57
140
1.0
102
RTVSPost2010PropOp57
 70
     1
  0
XRECORD
  5
381
102
{ACAD_REACTORS
330
380
102
}
330
380
100
AcDbXrecord
280
     1
102
RTVSPropertyOp0
 70
     1
102
RTVSPropertyOp1
 70
     1
102
RTVSPropertyOp2
 70
     1
102
RTVSPropertyOp3
 70
     1
102
RTVSPropertyOp4
 70
     1
102
RTVSPropertyOp5
 70
     1
102
RTVSPropertyOp6
 70
     1
102
RTVSPropertyOp7
 70
     1
102
RTVSPropertyOp8
 70
     1
102
RTVSPropertyOp9
 70
     1
102
RTVSPropertyOp10
 70
     1
102
RTVSPropertyOp11
 70
     1
102
RTVSPropertyOp12
 70
     1
102
RTVSPropertyOp13
 70
     1
102
RTVSPropertyOp14
 70
     1
102
RTVSPropertyOp15
 70
     1
102
RTVSPropertyOp16
 70
     1
102
RTVSPropertyOp17
 70
     1
102
RTVSPropertyOp18
 70
     1
102
RTVSPropertyOp19
 70
     1
102
RTVSPropertyOp20
 70
     1
102
RTVSPropertyOp21
 70
     1
102
RTVSPropertyOp22
 70
     1
102
RTVSPropertyOp23
 70
     1
102
RTVSPropertyOp24
 70
     1
102
RTVSPropertyOp25
 70
     1
102
RTVSPropertyOp26
 70
     1
102
RTVSPropertyOp27
 70
     1
102
RTVSPropertyOp28
 70
     1
102
RTVSPropertyOp29
 70
     1
102
RTVSPropertyOp30
 70
     1
102
RTVSPropertyOp31
 70
     1
102
RTVSPropertyOp32
 70
     1
102
RTVSPropertyOp33
 70
     1
102
RTVSPropertyOp34
 70
     1
102
RTVSPropertyOp35
 70
     1
102
RTVSPropertyOp36
 70
     1
102
RTVSPropertyOp37
 70
     1
102
RTVSPropertyOp38
 70
     1
102
RTVSPropertyOp39
 70
     1
102
RTVSPropertyOp40
 70
     1
102
RTVSPropertyOp41
 70
     1
102
RTVSPropertyOp42
 70
     1
102
RTVSPropertyOp43
 70
     1
102
RTVSPropertyOp44
 70
     1
102
RTVSPropertyOp45
 70
     1
102
RTVSPropertyOp46
 70
     1
102
RTVSPropertyOp47
 70
     1
102
RTVSPropertyOp48
 70
     1
102
RTVSPropertyOp49
 70
     1
102
RTVSPropertyOp50
 70
     1
102
RTVSPropertyOp51
 70
     0
102
RTVSPropertyOp52
 70
     0
102
RTVSPropertyOp53
 70
     1
102
RTVSPropertyOp54
 70
     1
102
RTVSPropertyOp55
 70
     1
102
RTVSPropertyOp56
 70
     1
102
RTVSPropertyOp57
 70
     1
102
RTVSPost2010Prop28
280
     0
102
RTVSPost2010PropOp28
 70
     1
102
RTVSPost2010Prop29
280
     1
102
RTVSPost2010PropOp29
 70
     1
102
RTVSPost2010Prop30
280
     1
102
RTVSPost2010PropOp30
 70
     1
102
RTVSPost2010Prop31
280
     0
102
RTVSPost2010PropOp31
 70
     1
102
RTVSPost2010Prop32
280
     0
102
RTVSPost2010PropOp32
 70
     1
102
RTVSPost2010Prop33
280
     0
102
RTVSPost2010PropOp33
 70
     1
102
RTVSPost2010Prop34
280
     0
102
RTVSPost2010PropOp34
 70
     1
102
RTVSPost2010Prop35
280
     0
102
RTVSPost2010PropOp35
 70
     1
102
RTVSPost2010Prop36
280
     0
102
RTVSPost2010PropOp36
 70
     1
102
RTVSPost2010Prop37
 90
       50
102
RTVSPost2010PropOp37
 70
     1
102
RTVSPost2010Prop38
140
0.0
102
RTVSPost2010PropOp38
 70
     1
102
RTVSPost2010Prop39
140
1.0
102
RTVSPost2010PropOp39
 70
     1
102
RTVSPost2010Prop40
 90
        0
102
RTVSPost2010PropOp40
 70
     1
102
RTVSPost2010Prop41ColorIndex
 90
       18
102
RTVSPost2010Prop41ColorRGB
 90
        0
102
RTVSPost2010PropOp41
 70
     1
102
RTVSPost2010Prop42
 90
       50
102
RTVSPost2010PropOp42
 70
     1
102
RTVSPost2010Prop43
 90
        3
102
RTVSPost2010PropOp43
 70
     1
102
RTVSPost2010Prop44ColorIndex
 90
        5
102
RTVSPost2010Prop44ColorRGB
 90
      255
102
RTVSPost2010PropOp44
 70
     1
102
RTVSPost2010Prop45
280
     0
102
RTVSPost2010PropOp45
 70
     1
102
RTVSPost2010Prop46
 90
       50
102
RTVSPost2010PropOp46
 70
     1
102
RTVSPost2010Prop47
 90
       50
102
RTVSPost2010PropOp47
 70
     1
102
RTVSPost2010Prop48
 90
       50
102
RTVSPost2010PropOp48
 70
     1
102
RTVSPost2010Prop49
280
     0
102
RTVSPost2010PropOp49
 70
     1
102
RTVSPost2010Prop50
 90
       50
102
RTVSPost2010PropOp50
 70
     1
102
RTVSPost2010Prop51ColorIndex
 90
      256
102
RTVSPost2010Prop51ColorRGB
 90
-16777216
102
RTVSPost2010PropOp51
 70
     0
102
RTVSPost2010Prop52
140
1.0
102
RTVSPost2010PropOp52
 70
     0
102
RTVSPost2010Prop53
 90
        2
102
RTVSPost2010PropOp53
 70
     1
102
RTVSPost2010Prop54
  1
strokes_ogs.tif
102
RTVSPost2010PropOp54
 70
     1
102
RTVSPost2010Prop55
280
     0
102
RTVSPost2010PropOp55
 70
     1
102
RTVSPost2010Prop56
140
1.0
102
RTVSPost2010PropOp56
 70
     1
102
RTVSPost2010Prop57
140
1.0
102
RTVSPost2010PropOp57
 70
     1
  0
XRECORD
  5
383
102
{ACAD_REACTORS
330
382
102
}
330
382
100
AcDbXrecord
280
     1
102
RTVSPropertyOp0
 70
     1
102
RTVSPropertyOp1
 70
     1
102
RTVSPropertyOp2
 70
     1
102
RTVSPropertyOp3
 70
     1
102
RTVSPropertyOp4
 70
     1
102
RTVSPropertyOp5
 70
     1
102
RTVSPropertyOp6
 70
     1
102
RTVSPropertyOp7
 70
     1
102
RTVSPropertyOp8
 70
     1
102
RTVSPropertyOp9
 70
     1
102
RTVSPropertyOp10
 70
     1
102
RTVSPropertyOp11
 70
     1
102
RTVSPropertyOp12
 70
     1
102
RTVSPropertyOp13
 70
     1
102
RTVSPropertyOp14
 70
     1
102
RTVSPropertyOp15
 70
     1
102
RTVSPropertyOp16
 70
     1
102
RTVSPropertyOp17
 70
     1
102
RTVSPropertyOp18
 70
     1
102
RTVSPropertyOp19
 70
     1
102
RTVSPropertyOp20
 70
     1
102
RTVSPropertyOp21
 70
     1
102
RTVSPropertyOp22
 70
     1
102
RTVSPropertyOp23
 70
     1
102
RTVSPropertyOp24
 70
     1
102
RTVSPropertyOp25
 70
     1
102
RTVSPropertyOp26
 70
     1
102
RTVSPropertyOp27
 70
     1
102
RTVSPropertyOp28
 70
     1
102
RTVSPropertyOp29
 70
     1
102
RTVSPropertyOp30
 70
     1
102
RTVSPropertyOp31
 70
     1
102
RTVSPropertyOp32
 70
     1
102
RTVSPropertyOp33
 70
     1
102
RTVSPropertyOp34
 70
     1
102
RTVSPropertyOp35
 70
     1
102
RTVSPropertyOp36
 70
     1
102
RTVSPropertyOp37
 70
     1
102
RTVSPropertyOp38
 70
     1
102
RTVSPropertyOp39
 70
     1
102
RTVSPropertyOp40
 70
     1
102
RTVSPropertyOp41
 70
     1
102
RTVSPropertyOp42
 70
     1
102
RTVSPropertyOp43
 70
     1
102
RTVSPropertyOp44
 70
     1
102
RTVSPropertyOp45
 70
     1
102
RTVSPropertyOp46
 70
     1
102
RTVSPropertyOp47
 70
     1
102
RTVSPropertyOp48
 70
     1
102
RTVSPropertyOp49
 70
     1
102
RTVSPropertyOp50
 70
     1
102
RTVSPropertyOp51
 70
     0
102
RTVSPropertyOp52
 70
     0
102
RTVSPropertyOp53
 70
     1
102
RTVSPropertyOp54
 70
     1
102
RTVSPropertyOp55
 70
     1
102
RTVSPropertyOp56
 70
     1
102
RTVSPropertyOp57
 70
     1
102
RTVSPost2010Prop28
280
     0
102
RTVSPost2010PropOp28
 70
     1
102
RTVSPost2010Prop29
280
     1
102
RTVSPost2010PropOp29
 70
     1
102
RTVSPost2010Prop30
280
     1
102
RTVSPost2010PropOp30
 70
     1
102
RTVSPost2010Prop31
280
     0
102
RTVSPost2010PropOp31
 70
     1
102
RTVSPost2010Prop32
280
     0
102
RTVSPost2010PropOp32
 70
     1
102
RTVSPost2010Prop33
280
     0
102
RTVSPost2010PropOp33
 70
     1
102
RTVSPost2010Prop34
280
     0
102
RTVSPost2010PropOp34
 70
     1
102
RTVSPost2010Prop35
280
     0
102
RTVSPost2010PropOp35
 70
     1
102
RTVSPost2010Prop36
280
     0
102
RTVSPost2010PropOp36
 70
     1
102
RTVSPost2010Prop37
 90
       50
102
RTVSPost2010PropOp37
 70
     1
102
RTVSPost2010Prop38
140
0.0
102
RTVSPost2010PropOp38
 70
     1
102
RTVSPost2010Prop39
140
1.0
102
RTVSPost2010PropOp39
 70
     1
102
RTVSPost2010Prop40
 90
        0
102
RTVSPost2010PropOp40
 70
     1
102
RTVSPost2010Prop41ColorIndex
 90
       18
102
RTVSPost2010Prop41ColorRGB
 90
        0
102
RTVSPost2010PropOp41
 70
     1
102
RTVSPost2010Prop42
 90
       50
102
RTVSPost2010PropOp42
 70
     1
102
RTVSPost2010Prop43
 90
        3
102
RTVSPost2010PropOp43
 70
     1
102
RTVSPost2010Prop44ColorIndex
 90
        5
102
RTVSPost2010Prop44ColorRGB
 90
      255
102
RTVSPost2010PropOp44
 70
     1
102
RTVSPost2010Prop45
280
     0
102
RTVSPost2010PropOp45
 70
     1
102
RTVSPost2010Prop46
 90
       50
102
RTVSPost2010PropOp46
 70
     1
102
RTVSPost2010Prop47
 90
       50
102
RTVSPost2010PropOp47
 70
     1
102
RTVSPost2010Prop48
 90
       50
102
RTVSPost2010PropOp48
 70
     1
102
RTVSPost2010Prop49
280
     0
102
RTVSPost2010PropOp49
 70
     1
102
RTVSPost2010Prop50
 90
       50
102
RTVSPost2010PropOp50
 70
     1
102
RTVSPost2010Prop51ColorIndex
 90
      256
102
RTVSPost2010Prop51ColorRGB
 90
-16777216
102
RTVSPost2010PropOp51
 70
     0
102
RTVSPost2010Prop52
140
1.0
102
RTVSPost2010PropOp52
 70
     0
102
RTVSPost2010Prop53
 90
        2
102
RTVSPost2010PropOp53
 70
     1
102
RTVSPost2010Prop54
  1
strokes_ogs.tif
102
RTVSPost2010PropOp54
 70
     1
102
RTVSPost2010Prop55
280
     0
102
RTVSPost2010PropOp55
 70
     1
102
RTVSPost2010Prop56
140
1.0
102
RTVSPost2010PropOp56
 70
     1
102
RTVSPost2010Prop57
140
1.0
102
RTVSPost2010PropOp57
 70
     1
  0
XRECORD
  5
393
102
{ACAD_REACTORS
330
392
102
}
330
392
100
AcDbXrecord
280
     1
102
RTVSPropertyOp0
 70
     0
102
RTVSPropertyOp1
 70
     0
102
RTVSPropertyOp2
 70
     0
102
RTVSPropertyOp3
 70
     0
102
RTVSPropertyOp4
 70
     0
102
RTVSPropertyOp5
 70
     0
102
RTVSPropertyOp6
 70
     0
102
RTVSPropertyOp7
 70
     0
102
RTVSPropertyOp8
 70
     0
102
RTVSPropertyOp9
 70
     0
102
RTVSPropertyOp10
 70
     0
102
RTVSPropertyOp11
 70
     0
102
RTVSPropertyOp12
 70
     0
102
RTVSPropertyOp13
 70
     0
102
RTVSPropertyOp14
 70
     2
102
RTVSPropertyOp15
 70
     0
102
RTVSPropertyOp16
 70
     0
102
RTVSPropertyOp17
 70
     0
102
RTVSPropertyOp18
 70
     0
102
RTVSPropertyOp19
 70
     0
102
RTVSPropertyOp20
 70
     0
102
RTVSPropertyOp21
 70
     0
102
RTVSPropertyOp22
 70
     0
102
RTVSPropertyOp23
 70
     0
102
RTVSPropertyOp24
 70
     0
102
RTVSPropertyOp25
 70
     0
102
RTVSPropertyOp26
 70
     0
102
RTVSPropertyOp27
 70
     0
102
RTVSPropertyOp28
 70
     0
102
RTVSPropertyOp29
 70
     0
102
RTVSPropertyOp30
 70
     0
102
RTVSPropertyOp31
 70
     0
102
RTVSPropertyOp32
 70
     0
102
RTVSPropertyOp33
 70
     0
102
RTVSPropertyOp34
 70
     0
102
RTVSPropertyOp35
 70
     0
102
RTVSPropertyOp36
 70
     0
102
RTVSPropertyOp37
 70
     0
102
RTVSPropertyOp38
 70
     0
102
RTVSPropertyOp39
 70
     0
102
RTVSPropertyOp40
 70
     0
102
RTVSPropertyOp41
 70
     0
102
RTVSPropertyOp42
 70
     0
102
RTVSPropertyOp43
 70
     0
102
RTVSPropertyOp44
 70
     0
102
RTVSPropertyOp45
 70
     0
102
RTVSPropertyOp46
 70
     0
102
RTVSPropertyOp47
 70
     0
102
RTVSPropertyOp48
 70
     0
102
RTVSPropertyOp49
 70
     0
102
RTVSPropertyOp50
 70
     0
102
RTVSPropertyOp51
 70
     0
102
RTVSPropertyOp52
 70
     0
102
RTVSPropertyOp53
 70
     0
102
RTVSPropertyOp54
 70
     0
102
RTVSPropertyOp55
 70
     0
102
RTVSPropertyOp56
 70
     0
102
RTVSPropertyOp57
 70
     0
102
RTVSPost2010Prop28
280
     0
102
RTVSPost2010PropOp28
 70
     0
102
RTVSPost2010Prop29
280
     1
102
RTVSPost2010PropOp29
 70
     0
102
RTVSPost2010Prop30
280
     1
102
RTVSPost2010PropOp30
 70
     0
102
RTVSPost2010Prop31
280
     0
102
RTVSPost2010PropOp31
 70
     0
102
RTVSPost2010Prop32
280
     0
102
RTVSPost2010PropOp32
 70
     0
102
RTVSPost2010Prop33
280
     0
102
RTVSPost2010PropOp33
 70
     0
102
RTVSPost2010Prop34
280
     0
102
RTVSPost2010PropOp34
 70
     0
102
RTVSPost2010Prop35
280
     0
102
RTVSPost2010PropOp35
 70
     0
102
RTVSPost2010Prop36
280
     0
102
RTVSPost2010PropOp36
 70
     0
102
RTVSPost2010Prop37
 90
       50
102
RTVSPost2010PropOp37
 70
     0
102
RTVSPost2010Prop38
140
0.0
102
RTVSPost2010PropOp38
 70
     0
102
RTVSPost2010Prop39
140
1.0
102
RTVSPost2010PropOp39
 70
     0
102
RTVSPost2010Prop40
 90
        0
102
RTVSPost2010PropOp40
 70
     0
102
RTVSPost2010Prop41ColorIndex
 90
       18
102
RTVSPost2010Prop41ColorRGB
 90
        0
102
RTVSPost2010PropOp41
 70
     0
102
RTVSPost2010Prop42
 90
       50
102
RTVSPost2010PropOp42
 70
     0
102
RTVSPost2010Prop43
 90
        3
102
RTVSPost2010PropOp43
 70
     0
102
RTVSPost2010Prop44ColorIndex
 90
        5
102
RTVSPost2010Prop44ColorRGB
 90
      255
102
RTVSPost2010PropOp44
 70
     0
102
RTVSPost2010Prop45
280
     0
102
RTVSPost2010PropOp45
 70
     0
102
RTVSPost2010Prop46
 90
       50
102
RTVSPost2010PropOp46
 70
     0
102
RTVSPost2010Prop47
 90
       50
102
RTVSPost2010PropOp47
 70
     0
102
RTVSPost2010Prop48
 90
       50
102
RTVSPost2010PropOp48
 70
     0
102
RTVSPost2010Prop49
280
     0
102
RTVSPost2010PropOp49
 70
     0
102
RTVSPost2010Prop50
 90
       50
102
RTVSPost2010PropOp50
 70
     0
102
RTVSPost2010Prop51ColorIndex
 90
      256
102
RTVSPost2010Prop51ColorRGB
 90
-16777216
102
RTVSPost2010PropOp51
 70
     0
102
RTVSPost2010Prop52
140
1.0
102
RTVSPost2010PropOp52
 70
     0
102
RTVSPost2010Prop53
 90
        2
102
RTVSPost2010PropOp53
 70
     0
102
RTVSPost2010Prop54
  1
strokes_ogs.tif
102
RTVSPost2010PropOp54
 70
     0
102
RTVSPost2010Prop55
280
     0
102
RTVSPost2010PropOp55
 70
     0
102
RTVSPost2010Prop56
140
1.0
102
RTVSPost2010PropOp56
 70
     0
102
RTVSPost2010Prop57
140
1.0
102
RTVSPost2010PropOp57
 70
     0
  0
XRECORD
  5
38B
102
{ACAD_REACTORS
330
38A
102
}
330
38A
100
AcDbXrecord
280
     1
102
RTVSPropertyOp0
 70
     1
102
RTVSPropertyOp1
 70
     1
102
RTVSPropertyOp2
 70
     1
102
RTVSPropertyOp3
 70
     1
102
RTVSPropertyOp4
 70
     1
102
RTVSPropertyOp5
 70
     1
102
RTVSPropertyOp6
 70
     1
102
RTVSPropertyOp7
 70
     1
102
RTVSPropertyOp8
 70
     1
102
RTVSPropertyOp9
 70
     1
102
RTVSPropertyOp10
 70
     1
102
RTVSPropertyOp11
 70
     1
102
RTVSPropertyOp12
 70
     1
102
RTVSPropertyOp13
 70
     1
102
RTVSPropertyOp14
 70
     1
102
RTVSPropertyOp15
 70
     1
102
RTVSPropertyOp16
 70
     1
102
RTVSPropertyOp17
 70
     1
102
RTVSPropertyOp18
 70
     1
102
RTVSPropertyOp19
 70
     1
102
RTVSPropertyOp20
 70
     1
102
RTVSPropertyOp21
 70
     1
102
RTVSPropertyOp22
 70
     1
102
RTVSPropertyOp23
 70
     1
102
RTVSPropertyOp24
 70
     1
102
RTVSPropertyOp25
 70
     1
102
RTVSPropertyOp26
 70
     1
102
RTVSPropertyOp27
 70
     1
102
RTVSPropertyOp28
 70
     1
102
RTVSPropertyOp29
 70
     1
102
RTVSPropertyOp30
 70
     1
102
RTVSPropertyOp31
 70
     1
102
RTVSPropertyOp32
 70
     1
102
RTVSPropertyOp33
 70
     1
102
RTVSPropertyOp34
 70
     1
102
RTVSPropertyOp35
 70
     1
102
RTVSPropertyOp36
 70
     1
102
RTVSPropertyOp37
 70
     1
102
RTVSPropertyOp38
 70
     1
102
RTVSPropertyOp39
 70
     1
102
RTVSPropertyOp40
 70
     1
102
RTVSPropertyOp41
 70
     1
102
RTVSPropertyOp42
 70
     1
102
RTVSPropertyOp43
 70
     1
102
RTVSPropertyOp44
 70
     1
102
RTVSPropertyOp45
 70
     1
102
RTVSPropertyOp46
 70
     1
102
RTVSPropertyOp47
 70
     1
102
RTVSPropertyOp48
 70
     1
102
RTVSPropertyOp49
 70
     1
102
RTVSPropertyOp50
 70
     1
102
RTVSPropertyOp51
 70
     0
102
RTVSPropertyOp52
 70
     0
102
RTVSPropertyOp53
 70
     1
102
RTVSPropertyOp54
 70
     1
102
RTVSPropertyOp55
 70
     1
102
RTVSPropertyOp56
 70
     1
102
RTVSPropertyOp57
 70
     1
102
RTVSPost2010Prop28
280
     0
102
RTVSPost2010PropOp28
 70
     1
102
RTVSPost2010Prop29
280
     1
102
RTVSPost2010PropOp29
 70
     1
102
RTVSPost2010Prop30
280
     1
102
RTVSPost2010PropOp30
 70
     1
102
RTVSPost2010Prop31
280
     0
102
RTVSPost2010PropOp31
 70
     1
102
RTVSPost2010Prop32
280
     0
102
RTVSPost2010PropOp32
 70
     1
102
RTVSPost2010Prop33
280
     0
102
RTVSPost2010PropOp33
 70
     1
102
RTVSPost2010Prop34
280
     0
102
RTVSPost2010PropOp34
 70
     1
102
RTVSPost2010Prop35
280
     0
102
RTVSPost2010PropOp35
 70
     1
102
RTVSPost2010Prop36
280
     0
102
RTVSPost2010PropOp36
 70
     1
102
RTVSPost2010Prop37
 90
       50
102
RTVSPost2010PropOp37
 70
     1
102
RTVSPost2010Prop38
140
0.0
102
RTVSPost2010PropOp38
 70
     1
102
RTVSPost2010Prop39
140
1.0
102
RTVSPost2010PropOp39
 70
     1
102
RTVSPost2010Prop40
 90
        0
102
RTVSPost2010PropOp40
 70
     1
102
RTVSPost2010Prop41ColorIndex
 90
       18
102
RTVSPost2010Prop41ColorRGB
 90
        0
102
RTVSPost2010PropOp41
 70
     1
102
RTVSPost2010Prop42
 90
       50
102
RTVSPost2010PropOp42
 70
     1
102
RTVSPost2010Prop43
 90
        3
102
RTVSPost2010PropOp43
 70
     1
102
RTVSPost2010Prop44ColorIndex
 90
        5
102
RTVSPost2010Prop44ColorRGB
 90
      255
102
RTVSPost2010PropOp44
 70
     1
102
RTVSPost2010Prop45
280
     0
102
RTVSPost2010PropOp45
 70
     1
102
RTVSPost2010Prop46
 90
       50
102
RTVSPost2010PropOp46
 70
     1
102
RTVSPost2010Prop47
 90
       50
102
RTVSPost2010PropOp47
 70
     1
102
RTVSPost2010Prop48
 90
       50
102
RTVSPost2010PropOp48
 70
     1
102
RTVSPost2010Prop49
280
     0
102
RTVSPost2010PropOp49
 70
     1
102
RTVSPost2010Prop50
 90
       50
102
RTVSPost2010PropOp50
 70
     1
102
RTVSPost2010Prop51ColorIndex
 90
      256
102
RTVSPost2010Prop51ColorRGB
 90
-16777216
102
RTVSPost2010PropOp51
 70
     0
102
RTVSPost2010Prop52
140
1.0
102
RTVSPost2010PropOp52
 70
     0
102
RTVSPost2010Prop53
 90
        2
102
RTVSPost2010PropOp53
 70
     1
102
RTVSPost2010Prop54
  1
strokes_ogs.tif
102
RTVSPost2010PropOp54
 70
     1
102
RTVSPost2010Prop55
280
     0
102
RTVSPost2010PropOp55
 70
     1
102
RTVSPost2010Prop56
140
1.0
102
RTVSPost2010PropOp56
 70
     1
102
RTVSPost2010Prop57
140
1.0
102
RTVSPost2010PropOp57
 70
     1
  0
XRECORD
  5
36F
102
{ACAD_REACTORS
330
36E
102
}
330
36E
100
AcDbXrecord
280
     1
102
RTVSPropertyOp0
 70
     1
102
RTVSPropertyOp1
 70
     1
102
RTVSPropertyOp2
 70
     1
102
RTVSPropertyOp3
 70
     1
102
RTVSPropertyOp4
 70
     1
102
RTVSPropertyOp5
 70
     1
102
RTVSPropertyOp6
 70
     1
102
RTVSPropertyOp7
 70
     1
102
RTVSPropertyOp8
 70
     1
102
RTVSPropertyOp9
 70
     1
102
RTVSPropertyOp10
 70
     1
102
RTVSPropertyOp11
 70
     1
102
RTVSPropertyOp12
 70
     1
102
RTVSPropertyOp13
 70
     1
102
RTVSPropertyOp14
 70
     1
102
RTVSPropertyOp15
 70
     1
102
RTVSPropertyOp16
 70
     1
102
RTVSPropertyOp17
 70
     1
102
RTVSPropertyOp18
 70
     1
102
RTVSPropertyOp19
 70
     1
102
RTVSPropertyOp20
 70
     1
102
RTVSPropertyOp21
 70
     1
102
RTVSPropertyOp22
 70
     1
102
RTVSPropertyOp23
 70
     1
102
RTVSPropertyOp24
 70
     1
102
RTVSPropertyOp25
 70
     1
102
RTVSPropertyOp26
 70
     1
102
RTVSPropertyOp27
 70
     1
102
RTVSPropertyOp28
 70
     1
102
RTVSPropertyOp29
 70
     1
102
RTVSPropertyOp30
 70
     1
102
RTVSPropertyOp31
 70
     1
102
RTVSPropertyOp32
 70
     1
102
RTVSPropertyOp33
 70
     1
102
RTVSPropertyOp34
 70
     1
102
RTVSPropertyOp35
 70
     1
102
RTVSPropertyOp36
 70
     1
102
RTVSPropertyOp37
 70
     1
102
RTVSPropertyOp38
 70
     1
102
RTVSPropertyOp39
 70
     1
102
RTVSPropertyOp40
 70
     1
102
RTVSPropertyOp41
 70
     1
102
RTVSPropertyOp42
 70
     1
102
RTVSPropertyOp43
 70
     1
102
RTVSPropertyOp44
 70
     1
102
RTVSPropertyOp45
 70
     1
102
RTVSPropertyOp46
 70
     1
102
RTVSPropertyOp47
 70
     1
102
RTVSPropertyOp48
 70
     1
102
RTVSPropertyOp49
 70
     1
102
RTVSPropertyOp50
 70
     1
102
RTVSPropertyOp51
 70
     0
102
RTVSPropertyOp52
 70
     0
102
RTVSPropertyOp53
 70
     1
102
RTVSPropertyOp54
 70
     1
102
RTVSPropertyOp55
 70
     1
102
RTVSPropertyOp56
 70
     1
102
RTVSPropertyOp57
 70
     1
102
RTVSPost2010Prop28
280
     0
102
RTVSPost2010PropOp28
 70
     1
102
RTVSPost2010Prop29
280
     1
102
RTVSPost2010PropOp29
 70
     1
102
RTVSPost2010Prop30
280
     1
102
RTVSPost2010PropOp30
 70
     1
102
RTVSPost2010Prop31
280
     0
102
RTVSPost2010PropOp31
 70
     1
102
RTVSPost2010Prop32
280
     0
102
RTVSPost2010PropOp32
 70
     1
102
RTVSPost2010Prop33
280
     0
102
RTVSPost2010PropOp33
 70
     1
102
RTVSPost2010Prop34
280
     0
102
RTVSPost2010PropOp34
 70
     1
102
RTVSPost2010Prop35
280
     0
102
RTVSPost2010PropOp35
 70
     1
102
RTVSPost2010Prop36
280
     0
102
RTVSPost2010PropOp36
 70
     1
102
RTVSPost2010Prop37
 90
       50
102
RTVSPost2010PropOp37
 70
     1
102
RTVSPost2010Prop38
140
0.0
102
RTVSPost2010PropOp38
 70
     1
102
RTVSPost2010Prop39
140
1.0
102
RTVSPost2010PropOp39
 70
     1
102
RTVSPost2010Prop40
 90
        0
102
RTVSPost2010PropOp40
 70
     1
102
RTVSPost2010Prop41ColorIndex
 90
       18
102
RTVSPost2010Prop41ColorRGB
 90
        0
102
RTVSPost2010PropOp41
 70
     1
102
RTVSPost2010Prop42
 90
       50
102
RTVSPost2010PropOp42
 70
     1
102
RTVSPost2010Prop43
 90
        3
102
RTVSPost2010PropOp43
 70
     1
102
RTVSPost2010Prop44ColorIndex
 90
        5
102
RTVSPost2010Prop44ColorRGB
 90
      255
102
RTVSPost2010PropOp44
 70
     1
102
RTVSPost2010Prop45
280
     0
102
RTVSPost2010PropOp45
 70
     1
102
RTVSPost2010Prop46
 90
       50
102
RTVSPost2010PropOp46
 70
     1
102
RTVSPost2010Prop47
 90
       50
102
RTVSPost2010PropOp47
 70
     1
102
RTVSPost2010Prop48
 90
       50
102
RTVSPost2010PropOp48
 70
     1
102
RTVSPost2010Prop49
280
     0
102
RTVSPost2010PropOp49
 70
     1
102
RTVSPost2010Prop50
 90
       50
102
RTVSPost2010PropOp50
 70
     1
102
RTVSPost2010Prop51ColorIndex
 90
      256
102
RTVSPost2010Prop51ColorRGB
 90
-16777216
102
RTVSPost2010PropOp51
 70
     0
102
RTVSPost2010Prop52
140
1.0
102
RTVSPost2010PropOp52
 70
     0
102
RTVSPost2010Prop53
 90
        2
102
RTVSPost2010PropOp53
 70
     1
102
RTVSPost2010Prop54
  1
strokes_ogs.tif
102
RTVSPost2010PropOp54
 70
     1
102
RTVSPost2010Prop55
280
     0
102
RTVSPost2010PropOp55
 70
     1
102
RTVSPost2010Prop56
140
1.0
102
RTVSPost2010PropOp56
 70
     1
102
RTVSPost2010Prop57
140
1.0
102
RTVSPost2010PropOp57
 70
     1
  0
XRECORD
  5
371
102
{ACAD_REACTORS
330
370
102
}
330
370
100
AcDbXrecord
280
     1
102
RTVSPropertyOp0
 70
     1
102
RTVSPropertyOp1
 70
     1
102
RTVSPropertyOp2
 70
     1
102
RTVSPropertyOp3
 70
     1
102
RTVSPropertyOp4
 70
     1
102
RTVSPropertyOp5
 70
     1
102
RTVSPropertyOp6
 70
     1
102
RTVSPropertyOp7
 70
     1
102
RTVSPropertyOp8
 70
     1
102
RTVSPropertyOp9
 70
     1
102
RTVSPropertyOp10
 70
     1
102
RTVSPropertyOp11
 70
     1
102
RTVSPropertyOp12
 70
     1
102
RTVSPropertyOp13
 70
     1
102
RTVSPropertyOp14
 70
     1
102
RTVSPropertyOp15
 70
     1
102
RTVSPropertyOp16
 70
     1
102
RTVSPropertyOp17
 70
     1
102
RTVSPropertyOp18
 70
     1
102
RTVSPropertyOp19
 70
     1
102
RTVSPropertyOp20
 70
     1
102
RTVSPropertyOp21
 70
     1
102
RTVSPropertyOp22
 70
     1
102
RTVSPropertyOp23
 70
     1
102
RTVSPropertyOp24
 70
     1
102
RTVSPropertyOp25
 70
     1
102
RTVSPropertyOp26
 70
     1
102
RTVSPropertyOp27
 70
     1
102
RTVSPropertyOp28
 70
     1
102
RTVSPropertyOp29
 70
     1
102
RTVSPropertyOp30
 70
     1
102
RTVSPropertyOp31
 70
     1
102
RTVSPropertyOp32
 70
     1
102
RTVSPropertyOp33
 70
     1
102
RTVSPropertyOp34
 70
     1
102
RTVSPropertyOp35
 70
     1
102
RTVSPropertyOp36
 70
     1
102
RTVSPropertyOp37
 70
     1
102
RTVSPropertyOp38
 70
     1
102
RTVSPropertyOp39
 70
     1
102
RTVSPropertyOp40
 70
     1
102
RTVSPropertyOp41
 70
     1
102
RTVSPropertyOp42
 70
     1
102
RTVSPropertyOp43
 70
     1
102
RTVSPropertyOp44
 70
     1
102
RTVSPropertyOp45
 70
     1
102
RTVSPropertyOp46
 70
     1
102
RTVSPropertyOp47
 70
     1
102
RTVSPropertyOp48
 70
     1
102
RTVSPropertyOp49
 70
     1
102
RTVSPropertyOp50
 70
     1
102
RTVSPropertyOp51
 70
     0
102
RTVSPropertyOp52
 70
     0
102
RTVSPropertyOp53
 70
     1
102
RTVSPropertyOp54
 70
     1
102
RTVSPropertyOp55
 70
     1
102
RTVSPropertyOp56
 70
     1
102
RTVSPropertyOp57
 70
     1
102
RTVSPost2010Prop28
280
     0
102
RTVSPost2010PropOp28
 70
     1
102
RTVSPost2010Prop29
280
     1
102
RTVSPost2010PropOp29
 70
     1
102
RTVSPost2010Prop30
280
     1
102
RTVSPost2010PropOp30
 70
     1
102
RTVSPost2010Prop31
280
     0
102
RTVSPost2010PropOp31
 70
     1
102
RTVSPost2010Prop32
280
     0
102
RTVSPost2010PropOp32
 70
     1
102
RTVSPost2010Prop33
280
     0
102
RTVSPost2010PropOp33
 70
     1
102
RTVSPost2010Prop34
280
     0
102
RTVSPost2010PropOp34
 70
     1
102
RTVSPost2010Prop35
280
     0
102
RTVSPost2010PropOp35
 70
     1
102
RTVSPost2010Prop36
280
     0
102
RTVSPost2010PropOp36
 70
     1
102
RTVSPost2010Prop37
 90
       50
102
RTVSPost2010PropOp37
 70
     1
102
RTVSPost2010Prop38
140
0.0
102
RTVSPost2010PropOp38
 70
     1
102
RTVSPost2010Prop39
140
1.0
102
RTVSPost2010PropOp39
 70
     1
102
RTVSPost2010Prop40
 90
        0
102
RTVSPost2010PropOp40
 70
     1
102
RTVSPost2010Prop41ColorIndex
 90
       18
102
RTVSPost2010Prop41ColorRGB
 90
        0
102
RTVSPost2010PropOp41
 70
     1
102
RTVSPost2010Prop42
 90
       50
102
RTVSPost2010PropOp42
 70
     1
102
RTVSPost2010Prop43
 90
        3
102
RTVSPost2010PropOp43
 70
     1
102
RTVSPost2010Prop44ColorIndex
 90
        5
102
RTVSPost2010Prop44ColorRGB
 90
      255
102
RTVSPost2010PropOp44
 70
     1
102
RTVSPost2010Prop45
280
     0
102
RTVSPost2010PropOp45
 70
     1
102
RTVSPost2010Prop46
 90
       50
102
RTVSPost2010PropOp46
 70
     1
102
RTVSPost2010Prop47
 90
       50
102
RTVSPost2010PropOp47
 70
     1
102
RTVSPost2010Prop48
 90
       50
102
RTVSPost2010PropOp48
 70
     1
102
RTVSPost2010Prop49
280
     0
102
RTVSPost2010PropOp49
 70
     1
102
RTVSPost2010Prop50
 90
       50
102
RTVSPost2010PropOp50
 70
     1
102
RTVSPost2010Prop51ColorIndex
 90
      256
102
RTVSPost2010Prop51ColorRGB
 90
-16777216
102
RTVSPost2010PropOp51
 70
     0
102
RTVSPost2010Prop52
140
1.0
102
RTVSPost2010PropOp52
 70
     0
102
RTVSPost2010Prop53
 90
        2
102
RTVSPost2010PropOp53
 70
     1
102
RTVSPost2010Prop54
  1
strokes_ogs.tif
102
RTVSPost2010PropOp54
 70
     1
102
RTVSPost2010Prop55
280
     0
102
RTVSPost2010PropOp55
 70
     1
102
RTVSPost2010Prop56
140
1.0
102
RTVSPost2010PropOp56
 70
     1
102
RTVSPost2010Prop57
140
1.0
102
RTVSPost2010PropOp57
 70
     1
  0
XRECORD
  5
373
102
{ACAD_REACTORS
330
372
102
}
330
372
100
AcDbXrecord
280
     1
102
RTVSPropertyOp0
 70
     1
102
RTVSPropertyOp1
 70
     1
102
RTVSPropertyOp2
 70
     1
102
RTVSPropertyOp3
 70
     1
102
RTVSPropertyOp4
 70
     1
102
RTVSPropertyOp5
 70
     1
102
RTVSPropertyOp6
 70
     1
102
RTVSPropertyOp7
 70
     1
102
RTVSPropertyOp8
 70
     1
102
RTVSPropertyOp9
 70
     1
102
RTVSPropertyOp10
 70
     1
102
RTVSPropertyOp11
 70
     1
102
RTVSPropertyOp12
 70
     1
102
RTVSPropertyOp13
 70
     1
102
RTVSPropertyOp14
 70
     1
102
RTVSPropertyOp15
 70
     1
102
RTVSPropertyOp16
 70
     1
102
RTVSPropertyOp17
 70
     1
102
RTVSPropertyOp18
 70
     1
102
RTVSPropertyOp19
 70
     1
102
RTVSPropertyOp20
 70
     1
102
RTVSPropertyOp21
 70
     1
102
RTVSPropertyOp22
 70
     1
102
RTVSPropertyOp23
 70
     1
102
RTVSPropertyOp24
 70
     1
102
RTVSPropertyOp25
 70
     1
102
RTVSPropertyOp26
 70
     1
102
RTVSPropertyOp27
 70
     1
102
RTVSPropertyOp28
 70
     1
102
RTVSPropertyOp29
 70
     1
102
RTVSPropertyOp30
 70
     1
102
RTVSPropertyOp31
 70
     1
102
RTVSPropertyOp32
 70
     1
102
RTVSPropertyOp33
 70
     1
102
RTVSPropertyOp34
 70
     1
102
RTVSPropertyOp35
 70
     1
102
RTVSPropertyOp36
 70
     1
102
RTVSPropertyOp37
 70
     1
102
RTVSPropertyOp38
 70
     1
102
RTVSPropertyOp39
 70
     1
102
RTVSPropertyOp40
 70
     1
102
RTVSPropertyOp41
 70
     1
102
RTVSPropertyOp42
 70
     1
102
RTVSPropertyOp43
 70
     1
102
RTVSPropertyOp44
 70
     1
102
RTVSPropertyOp45
 70
     1
102
RTVSPropertyOp46
 70
     1
102
RTVSPropertyOp47
 70
     1
102
RTVSPropertyOp48
 70
     1
102
RTVSPropertyOp49
 70
     1
102
RTVSPropertyOp50
 70
     1
102
RTVSPropertyOp51
 70
     0
102
RTVSPropertyOp52
 70
     0
102
RTVSPropertyOp53
 70
     1
102
RTVSPropertyOp54
 70
     1
102
RTVSPropertyOp55
 70
     1
102
RTVSPropertyOp56
 70
     1
102
RTVSPropertyOp57
 70
     1
102
RTVSPost2010Prop28
280
     0
102
RTVSPost2010PropOp28
 70
     1
102
RTVSPost2010Prop29
280
     1
102
RTVSPost2010PropOp29
 70
     1
102
RTVSPost2010Prop30
280
     1
102
RTVSPost2010PropOp30
 70
     1
102
RTVSPost2010Prop31
280
     0
102
RTVSPost2010PropOp31
 70
     1
102
RTVSPost2010Prop32
280
     0
102
RTVSPost2010PropOp32
 70
     1
102
RTVSPost2010Prop33
280
     0
102
RTVSPost2010PropOp33
 70
     1
102
RTVSPost2010Prop34
280
     0
102
RTVSPost2010PropOp34
 70
     1
102
RTVSPost2010Prop35
280
     0
102
RTVSPost2010PropOp35
 70
     1
102
RTVSPost2010Prop36
280
     0
102
RTVSPost2010PropOp36
 70
     1
102
RTVSPost2010Prop37
 90
       50
102
RTVSPost2010PropOp37
 70
     1
102
RTVSPost2010Prop38
140
0.0
102
RTVSPost2010PropOp38
 70
     1
102
RTVSPost2010Prop39
140
1.0
102
RTVSPost2010PropOp39
 70
     1
102
RTVSPost2010Prop40
 90
        0
102
RTVSPost2010PropOp40
 70
     1
102
RTVSPost2010Prop41ColorIndex
 90
       18
102
RTVSPost2010Prop41ColorRGB
 90
        0
102
RTVSPost2010PropOp41
 70
     1
102
RTVSPost2010Prop42
 90
       50
102
RTVSPost2010PropOp42
 70
     1
102
RTVSPost2010Prop43
 90
        3
102
RTVSPost2010PropOp43
 70
     1
102
RTVSPost2010Prop44ColorIndex
 90
        5
102
RTVSPost2010Prop44ColorRGB
 90
      255
102
RTVSPost2010PropOp44
 70
     1
102
RTVSPost2010Prop45
280
     0
102
RTVSPost2010PropOp45
 70
     1
102
RTVSPost2010Prop46
 90
       50
102
RTVSPost2010PropOp46
 70
     1
102
RTVSPost2010Prop47
 90
       50
102
RTVSPost2010PropOp47
 70
     1
102
RTVSPost2010Prop48
 90
       50
102
RTVSPost2010PropOp48
 70
     1
102
RTVSPost2010Prop49
280
     0
102
RTVSPost2010PropOp49
 70
     1
102
RTVSPost2010Prop50
 90
       50
102
RTVSPost2010PropOp50
 70
     1
102
RTVSPost2010Prop51ColorIndex
 90
      256
102
RTVSPost2010Prop51ColorRGB
 90
-16777216
102
RTVSPost2010PropOp51
 70
     0
102
RTVSPost2010Prop52
140
1.0
102
RTVSPost2010PropOp52
 70
     0
102
RTVSPost2010Prop53
 90
        2
102
RTVSPost2010PropOp53
 70
     1
102
RTVSPost2010Prop54
  1
strokes_ogs.tif
102
RTVSPost2010PropOp54
 70
     1
102
RTVSPost2010Prop55
280
     0
102
RTVSPost2010PropOp55
 70
     1
102
RTVSPost2010Prop56
140
1.0
102
RTVSPost2010PropOp56
 70
     1
102
RTVSPost2010Prop57
140
1.0
102
RTVSPost2010PropOp57
 70
     1
  0
XRECORD
  5
375
102
{ACAD_REACTORS
330
374
102
}
330
374
100
AcDbXrecord
280
     1
102
RTVSPropertyOp0
 70
     1
102
RTVSPropertyOp1
 70
     1
102
RTVSPropertyOp2
 70
     1
102
RTVSPropertyOp3
 70
     1
102
RTVSPropertyOp4
 70
     1
102
RTVSPropertyOp5
 70
     1
102
RTVSPropertyOp6
 70
     1
102
RTVSPropertyOp7
 70
     1
102
RTVSPropertyOp8
 70
     1
102
RTVSPropertyOp9
 70
     1
102
RTVSPropertyOp10
 70
     1
102
RTVSPropertyOp11
 70
     1
102
RTVSPropertyOp12
 70
     1
102
RTVSPropertyOp13
 70
     1
102
RTVSPropertyOp14
 70
     1
102
RTVSPropertyOp15
 70
     1
102
RTVSPropertyOp16
 70
     1
102
RTVSPropertyOp17
 70
     1
102
RTVSPropertyOp18
 70
     1
102
RTVSPropertyOp19
 70
     1
102
RTVSPropertyOp20
 70
     1
102
RTVSPropertyOp21
 70
     1
102
RTVSPropertyOp22
 70
     1
102
RTVSPropertyOp23
 70
     1
102
RTVSPropertyOp24
 70
     1
102
RTVSPropertyOp25
 70
     1
102
RTVSPropertyOp26
 70
     1
102
RTVSPropertyOp27
 70
     1
102
RTVSPropertyOp28
 70
     1
102
RTVSPropertyOp29
 70
     1
102
RTVSPropertyOp30
 70
     1
102
RTVSPropertyOp31
 70
     1
102
RTVSPropertyOp32
 70
     1
102
RTVSPropertyOp33
 70
     1
102
RTVSPropertyOp34
 70
     1
102
RTVSPropertyOp35
 70
     1
102
RTVSPropertyOp36
 70
     1
102
RTVSPropertyOp37
 70
     1
102
RTVSPropertyOp38
 70
     1
102
RTVSPropertyOp39
 70
     1
102
RTVSPropertyOp40
 70
     1
102
RTVSPropertyOp41
 70
     1
102
RTVSPropertyOp42
 70
     1
102
RTVSPropertyOp43
 70
     1
102
RTVSPropertyOp44
 70
     1
102
RTVSPropertyOp45
 70
     1
102
RTVSPropertyOp46
 70
     1
102
RTVSPropertyOp47
 70
     1
102
RTVSPropertyOp48
 70
     1
102
RTVSPropertyOp49
 70
     1
102
RTVSPropertyOp50
 70
     1
102
RTVSPropertyOp51
 70
     0
102
RTVSPropertyOp52
 70
     0
102
RTVSPropertyOp53
 70
     1
102
RTVSPropertyOp54
 70
     1
102
RTVSPropertyOp55
 70
     1
102
RTVSPropertyOp56
 70
     1
102
RTVSPropertyOp57
 70
     1
102
RTVSPost2010Prop28
280
     0
102
RTVSPost2010PropOp28
 70
     1
102
RTVSPost2010Prop29
280
     1
102
RTVSPost2010PropOp29
 70
     1
102
RTVSPost2010Prop30
280
     1
102
RTVSPost2010PropOp30
 70
     1
102
RTVSPost2010Prop31
280
     0
102
RTVSPost2010PropOp31
 70
     1
102
RTVSPost2010Prop32
280
     0
102
RTVSPost2010PropOp32
 70
     1
102
RTVSPost2010Prop33
280
     0
102
RTVSPost2010PropOp33
 70
     1
102
RTVSPost2010Prop34
280
     0
102
RTVSPost2010PropOp34
 70
     1
102
RTVSPost2010Prop35
280
     0
102
RTVSPost2010PropOp35
 70
     1
102
RTVSPost2010Prop36
280
     0
102
RTVSPost2010PropOp36
 70
     1
102
RTVSPost2010Prop37
 90
       50
102
RTVSPost2010PropOp37
 70
     1
102
RTVSPost2010Prop38
140
0.0
102
RTVSPost2010PropOp38
 70
     1
102
RTVSPost2010Prop39
140
1.0
102
RTVSPost2010PropOp39
 70
     1
102
RTVSPost2010Prop40
 90
        0
102
RTVSPost2010PropOp40
 70
     1
102
RTVSPost2010Prop41ColorIndex
 90
       18
102
RTVSPost2010Prop41ColorRGB
 90
        0
102
RTVSPost2010PropOp41
 70
     1
102
RTVSPost2010Prop42
 90
       50
102
RTVSPost2010PropOp42
 70
     1
102
RTVSPost2010Prop43
 90
        3
102
RTVSPost2010PropOp43
 70
     1
102
RTVSPost2010Prop44ColorIndex
 90
        5
102
RTVSPost2010Prop44ColorRGB
 90
      255
102
RTVSPost2010PropOp44
 70
     1
102
RTVSPost2010Prop45
280
     0
102
RTVSPost2010PropOp45
 70
     1
102
RTVSPost2010Prop46
 90
       50
102
RTVSPost2010PropOp46
 70
     1
102
RTVSPost2010Prop47
 90
       50
102
RTVSPost2010PropOp47
 70
     1
102
RTVSPost2010Prop48
 90
       50
102
RTVSPost2010PropOp48
 70
     1
102
RTVSPost2010Prop49
280
     0
102
RTVSPost2010PropOp49
 70
     1
102
RTVSPost2010Prop50
 90
       50
102
RTVSPost2010PropOp50
 70
     1
102
RTVSPost2010Prop51ColorIndex
 90
      256
102
RTVSPost2010Prop51ColorRGB
 90
-16777216
102
RTVSPost2010PropOp51
 70
     0
102
RTVSPost2010Prop52
140
1.0
102
RTVSPost2010PropOp52
 70
     0
102
RTVSPost2010Prop53
 90
        2
102
RTVSPost2010PropOp53
 70
     1
102
RTVSPost2010Prop54
  1
strokes_ogs.tif
102
RTVSPost2010PropOp54
 70
     1
102
RTVSPost2010Prop55
280
     0
102
RTVSPost2010PropOp55
 70
     1
102
RTVSPost2010Prop56
140
1.0
102
RTVSPost2010PropOp56
 70
     1
102
RTVSPost2010Prop57
140
1.0
102
RTVSPost2010PropOp57
 70
     1
  0
XRECORD
  5
37B
102
{ACAD_REACTORS
330
37A
102
}
330
37A
100
AcDbXrecord
280
     1
102
RTVSPropertyOp0
 70
     1
102
RTVSPropertyOp1
 70
     1
102
RTVSPropertyOp2
 70
     1
102
RTVSPropertyOp3
 70
     1
102
RTVSPropertyOp4
 70
     1
102
RTVSPropertyOp5
 70
     1
102
RTVSPropertyOp6
 70
     1
102
RTVSPropertyOp7
 70
     1
102
RTVSPropertyOp8
 70
     1
102
RTVSPropertyOp9
 70
     1
102
RTVSPropertyOp10
 70
     1
102
RTVSPropertyOp11
 70
     1
102
RTVSPropertyOp12
 70
     1
102
RTVSPropertyOp13
 70
     1
102
RTVSPropertyOp14
 70
     1
102
RTVSPropertyOp15
 70
     1
102
RTVSPropertyOp16
 70
     1
102
RTVSPropertyOp17
 70
     1
102
RTVSPropertyOp18
 70
     1
102
RTVSPropertyOp19
 70
     1
102
RTVSPropertyOp20
 70
     1
102
RTVSPropertyOp21
 70
     1
102
RTVSPropertyOp22
 70
     1
102
RTVSPropertyOp23
 70
     1
102
RTVSPropertyOp24
 70
     1
102
RTVSPropertyOp25
 70
     1
102
RTVSPropertyOp26
 70
     1
102
RTVSPropertyOp27
 70
     1
102
RTVSPropertyOp28
 70
     1
102
RTVSPropertyOp29
 70
     1
102
RTVSPropertyOp30
 70
     1
102
RTVSPropertyOp31
 70
     1
102
RTVSPropertyOp32
 70
     1
102
RTVSPropertyOp33
 70
     1
102
RTVSPropertyOp34
 70
     1
102
RTVSPropertyOp35
 70
     1
102
RTVSPropertyOp36
 70
     1
102
RTVSPropertyOp37
 70
     1
102
RTVSPropertyOp38
 70
     1
102
RTVSPropertyOp39
 70
     1
102
RTVSPropertyOp40
 70
     1
102
RTVSPropertyOp41
 70
     1
102
RTVSPropertyOp42
 70
     1
102
RTVSPropertyOp43
 70
     1
102
RTVSPropertyOp44
 70
     1
102
RTVSPropertyOp45
 70
     1
102
RTVSPropertyOp46
 70
     1
102
RTVSPropertyOp47
 70
     1
102
RTVSPropertyOp48
 70
     1
102
RTVSPropertyOp49
 70
     1
102
RTVSPropertyOp50
 70
     1
102
RTVSPropertyOp51
 70
     0
102
RTVSPropertyOp52
 70
     0
102
RTVSPropertyOp53
 70
     1
102
RTVSPropertyOp54
 70
     1
102
RTVSPropertyOp55
 70
     1
102
RTVSPropertyOp56
 70
     1
102
RTVSPropertyOp57
 70
     1
102
RTVSPost2010Prop28
280
     0
102
RTVSPost2010PropOp28
 70
     1
102
RTVSPost2010Prop29
280
     1
102
RTVSPost2010PropOp29
 70
     1
102
RTVSPost2010Prop30
280
     1
102
RTVSPost2010PropOp30
 70
     1
102
RTVSPost2010Prop31
280
     0
102
RTVSPost2010PropOp31
 70
     1
102
RTVSPost2010Prop32
280
     0
102
RTVSPost2010PropOp32
 70
     1
102
RTVSPost2010Prop33
280
     0
102
RTVSPost2010PropOp33
 70
     1
102
RTVSPost2010Prop34
280
     0
102
RTVSPost2010PropOp34
 70
     1
102
RTVSPost2010Prop35
280
     0
102
RTVSPost2010PropOp35
 70
     1
102
RTVSPost2010Prop36
280
     0
102
RTVSPost2010PropOp36
 70
     1
102
RTVSPost2010Prop37
 90
       50
102
RTVSPost2010PropOp37
 70
     1
102
RTVSPost2010Prop38
140
0.0
102
RTVSPost2010PropOp38
 70
     1
102
RTVSPost2010Prop39
140
1.0
102
RTVSPost2010PropOp39
 70
     1
102
RTVSPost2010Prop40
 90
        0
102
RTVSPost2010PropOp40
 70
     1
102
RTVSPost2010Prop41ColorIndex
 90
       18
102
RTVSPost2010Prop41ColorRGB
 90
        0
102
RTVSPost2010PropOp41
 70
     1
102
RTVSPost2010Prop42
 90
       50
102
RTVSPost2010PropOp42
 70
     1
102
RTVSPost2010Prop43
 90
        3
102
RTVSPost2010PropOp43
 70
     1
102
RTVSPost2010Prop44ColorIndex
 90
        5
102
RTVSPost2010Prop44ColorRGB
 90
      255
102
RTVSPost2010PropOp44
 70
     1
102
RTVSPost2010Prop45
280
     0
102
RTVSPost2010PropOp45
 70
     1
102
RTVSPost2010Prop46
 90
       50
102
RTVSPost2010PropOp46
 70
     1
102
RTVSPost2010Prop47
 90
       50
102
RTVSPost2010PropOp47
 70
     1
102
RTVSPost2010Prop48
 90
       50
102
RTVSPost2010PropOp48
 70
     1
102
RTVSPost2010Prop49
280
     0
102
RTVSPost2010PropOp49
 70
     1
102
RTVSPost2010Prop50
 90
       50
102
RTVSPost2010PropOp50
 70
     1
102
RTVSPost2010Prop51ColorIndex
 90
      256
102
RTVSPost2010Prop51ColorRGB
 90
-16777216
102
RTVSPost2010PropOp51
 70
     0
102
RTVSPost2010Prop52
140
1.0
102
RTVSPost2010PropOp52
 70
     0
102
RTVSPost2010Prop53
 90
        2
102
RTVSPost2010PropOp53
 70
     1
102
RTVSPost2010Prop54
  1
strokes_ogs.tif
102
RTVSPost2010PropOp54
 70
     1
102
RTVSPost2010Prop55
280
     0
102
RTVSPost2010PropOp55
 70
     1
102
RTVSPost2010Prop56
140
1.0
102
RTVSPost2010PropOp56
 70
     1
102
RTVSPost2010Prop57
140
1.0
102
RTVSPost2010PropOp57
 70
     1
  0
XRECORD
  5
38F
102
{ACAD_REACTORS
330
38E
102
}
330
38E
100
AcDbXrecord
280
     1
102
RTVSPropertyOp0
 70
     0
102
RTVSPropertyOp1
 70
     0
102
RTVSPropertyOp2
 70
     0
102
RTVSPropertyOp3
 70
     0
102
RTVSPropertyOp4
 70
     0
102
RTVSPropertyOp5
 70
     0
102
RTVSPropertyOp6
 70
     0
102
RTVSPropertyOp7
 70
     0
102
RTVSPropertyOp8
 70
     0
102
RTVSPropertyOp9
 70
     0
102
RTVSPropertyOp10
 70
     0
102
RTVSPropertyOp11
 70
     0
102
RTVSPropertyOp12
 70
     0
102
RTVSPropertyOp13
 70
     0
102
RTVSPropertyOp14
 70
     2
102
RTVSPropertyOp15
 70
     0
102
RTVSPropertyOp16
 70
     0
102
RTVSPropertyOp17
 70
     0
102
RTVSPropertyOp18
 70
     0
102
RTVSPropertyOp19
 70
     0
102
RTVSPropertyOp20
 70
     0
102
RTVSPropertyOp21
 70
     0
102
RTVSPropertyOp22
 70
     0
102
RTVSPropertyOp23
 70
     0
102
RTVSPropertyOp24
 70
     0
102
RTVSPropertyOp25
 70
     0
102
RTVSPropertyOp26
 70
     0
102
RTVSPropertyOp27
 70
     0
102
RTVSPropertyOp28
 70
     0
102
RTVSPropertyOp29
 70
     0
102
RTVSPropertyOp30
 70
     0
102
RTVSPropertyOp31
 70
     0
102
RTVSPropertyOp32
 70
     0
102
RTVSPropertyOp33
 70
     0
102
RTVSPropertyOp34
 70
     0
102
RTVSPropertyOp35
 70
     0
102
RTVSPropertyOp36
 70
     0
102
RTVSPropertyOp37
 70
     0
102
RTVSPropertyOp38
 70
     0
102
RTVSPropertyOp39
 70
     0
102
RTVSPropertyOp40
 70
     0
102
RTVSPropertyOp41
 70
     0
102
RTVSPropertyOp42
 70
     0
102
RTVSPropertyOp43
 70
     0
102
RTVSPropertyOp44
 70
     0
102
RTVSPropertyOp45
 70
     0
102
RTVSPropertyOp46
 70
     0
102
RTVSPropertyOp47
 70
     0
102
RTVSPropertyOp48
 70
     0
102
RTVSPropertyOp49
 70
     0
102
RTVSPropertyOp50
 70
     0
102
RTVSPropertyOp51
 70
     0
102
RTVSPropertyOp52
 70
     0
102
RTVSPropertyOp53
 70
     0
102
RTVSPropertyOp54
 70
     0
102
RTVSPropertyOp55
 70
     0
102
RTVSPropertyOp56
 70
     0
102
RTVSPropertyOp57
 70
     0
102
RTVSPost2010Prop28
280
     0
102
RTVSPost2010PropOp28
 70
     0
102
RTVSPost2010Prop29
280
     1
102
RTVSPost2010PropOp29
 70
     0
102
RTVSPost2010Prop30
280
     1
102
RTVSPost2010PropOp30
 70
     0
102
RTVSPost2010Prop31
280
     0
102
RTVSPost2010PropOp31
 70
     0
102
RTVSPost2010Prop32
280
     0
102
RTVSPost2010PropOp32
 70
     0
102
RTVSPost2010Prop33
280
     0
102
RTVSPost2010PropOp33
 70
     0
102
RTVSPost2010Prop34
280
     0
102
RTVSPost2010PropOp34
 70
     0
102
RTVSPost2010Prop35
280
     0
102
RTVSPost2010PropOp35
 70
     0
102
RTVSPost2010Prop36
280
     0
102
RTVSPost2010PropOp36
 70
     0
102
RTVSPost2010Prop37
 90
       50
102
RTVSPost2010PropOp37
 70
     0
102
RTVSPost2010Prop38
140
0.0
102
RTVSPost2010PropOp38
 70
     0
102
RTVSPost2010Prop39
140
1.0
102
RTVSPost2010PropOp39
 70
     0
102
RTVSPost2010Prop40
 90
        0
102
RTVSPost2010PropOp40
 70
     0
102
RTVSPost2010Prop41ColorIndex
 90
       18
102
RTVSPost2010Prop41ColorRGB
 90
        0
102
RTVSPost2010PropOp41
 70
     0
102
RTVSPost2010Prop42
 90
       50
102
RTVSPost2010PropOp42
 70
     0
102
RTVSPost2010Prop43
 90
        3
102
RTVSPost2010PropOp43
 70
     0
102
RTVSPost2010Prop44ColorIndex
 90
        5
102
RTVSPost2010Prop44ColorRGB
 90
      255
102
RTVSPost2010PropOp44
 70
     0
102
RTVSPost2010Prop45
280
     0
102
RTVSPost2010PropOp45
 70
     0
102
RTVSPost2010Prop46
 90
       50
102
RTVSPost2010PropOp46
 70
     0
102
RTVSPost2010Prop47
 90
       50
102
RTVSPost2010PropOp47
 70
     0
102
RTVSPost2010Prop48
 90
       50
102
RTVSPost2010PropOp48
 70
     0
102
RTVSPost2010Prop49
280
     0
102
RTVSPost2010PropOp49
 70
     0
102
RTVSPost2010Prop50
 90
       50
102
RTVSPost2010PropOp50
 70
     0
102
RTVSPost2010Prop51ColorIndex
 90
      256
102
RTVSPost2010Prop51ColorRGB
 90
-16777216
102
RTVSPost2010PropOp51
 70
     0
102
RTVSPost2010Prop52
140
1.0
102
RTVSPost2010PropOp52
 70
     0
102
RTVSPost2010Prop53
 90
        2
102
RTVSPost2010PropOp53
 70
     0
102
RTVSPost2010Prop54
  1
strokes_ogs.tif
102
RTVSPost2010PropOp54
 70
     0
102
RTVSPost2010Prop55
280
     0
102
RTVSPost2010PropOp55
 70
     0
102
RTVSPost2010Prop56
140
1.0
102
RTVSPost2010PropOp56
 70
     0
102
RTVSPost2010Prop57
140
1.0
102
RTVSPost2010PropOp57
 70
     0
  0
XRECORD
  5
389
102
{ACAD_REACTORS
330
388
102
}
330
388
100
AcDbXrecord
280
     1
102
RTVSPropertyOp0
 70
     1
102
RTVSPropertyOp1
 70
     1
102
RTVSPropertyOp2
 70
     1
102
RTVSPropertyOp3
 70
     1
102
RTVSPropertyOp4
 70
     1
102
RTVSPropertyOp5
 70
     1
102
RTVSPropertyOp6
 70
     1
102
RTVSPropertyOp7
 70
     1
102
RTVSPropertyOp8
 70
     1
102
RTVSPropertyOp9
 70
     1
102
RTVSPropertyOp10
 70
     1
102
RTVSPropertyOp11
 70
     1
102
RTVSPropertyOp12
 70
     1
102
RTVSPropertyOp13
 70
     1
102
RTVSPropertyOp14
 70
     1
102
RTVSPropertyOp15
 70
     1
102
RTVSPropertyOp16
 70
     1
102
RTVSPropertyOp17
 70
     1
102
RTVSPropertyOp18
 70
     1
102
RTVSPropertyOp19
 70
     1
102
RTVSPropertyOp20
 70
     1
102
RTVSPropertyOp21
 70
     1
102
RTVSPropertyOp22
 70
     1
102
RTVSPropertyOp23
 70
     1
102
RTVSPropertyOp24
 70
     1
102
RTVSPropertyOp25
 70
     1
102
RTVSPropertyOp26
 70
     1
102
RTVSPropertyOp27
 70
     1
102
RTVSPropertyOp28
 70
     1
102
RTVSPropertyOp29
 70
     1
102
RTVSPropertyOp30
 70
     1
102
RTVSPropertyOp31
 70
     1
102
RTVSPropertyOp32
 70
     1
102
RTVSPropertyOp33
 70
     1
102
RTVSPropertyOp34
 70
     1
102
RTVSPropertyOp35
 70
     1
102
RTVSPropertyOp36
 70
     1
102
RTVSPropertyOp37
 70
     1
102
RTVSPropertyOp38
 70
     1
102
RTVSPropertyOp39
 70
     1
102
RTVSPropertyOp40
 70
     1
102
RTVSPropertyOp41
 70
     1
102
RTVSPropertyOp42
 70
     1
102
RTVSPropertyOp43
 70
     1
102
RTVSPropertyOp44
 70
     1
102
RTVSPropertyOp45
 70
     1
102
RTVSPropertyOp46
 70
     1
102
RTVSPropertyOp47
 70
     1
102
RTVSPropertyOp48
 70
     1
102
RTVSPropertyOp49
 70
     1
102
RTVSPropertyOp50
 70
     1
102
RTVSPropertyOp51
 70
     0
102
RTVSPropertyOp52
 70
     0
102
RTVSPropertyOp53
 70
     1
102
RTVSPropertyOp54
 70
     1
102
RTVSPropertyOp55
 70
     1
102
RTVSPropertyOp56
 70
     1
102
RTVSPropertyOp57
 70
     1
102
RTVSPost2010Prop28
280
     0
102
RTVSPost2010PropOp28
 70
     1
102
RTVSPost2010Prop29
280
     1
102
RTVSPost2010PropOp29
 70
     1
102
RTVSPost2010Prop30
280
     1
102
RTVSPost2010PropOp30
 70
     1
102
RTVSPost2010Prop31
280
     0
102
RTVSPost2010PropOp31
 70
     1
102
RTVSPost2010Prop32
280
     0
102
RTVSPost2010PropOp32
 70
     1
102
RTVSPost2010Prop33
280
     0
102
RTVSPost2010PropOp33
 70
     1
102
RTVSPost2010Prop34
280
     0
102
RTVSPost2010PropOp34
 70
     1
102
RTVSPost2010Prop35
280
     0
102
RTVSPost2010PropOp35
 70
     1
102
RTVSPost2010Prop36
280
     0
102
RTVSPost2010PropOp36
 70
     1
102
RTVSPost2010Prop37
 90
       50
102
RTVSPost2010PropOp37
 70
     1
102
RTVSPost2010Prop38
140
0.0
102
RTVSPost2010PropOp38
 70
     1
102
RTVSPost2010Prop39
140
1.0
102
RTVSPost2010PropOp39
 70
     1
102
RTVSPost2010Prop40
 90
        0
102
RTVSPost2010PropOp40
 70
     1
102
RTVSPost2010Prop41ColorIndex
 90
       18
102
RTVSPost2010Prop41ColorRGB
 90
        0
102
RTVSPost2010PropOp41
 70
     1
102
RTVSPost2010Prop42
 90
       50
102
RTVSPost2010PropOp42
 70
     1
102
RTVSPost2010Prop43
 90
        3
102
RTVSPost2010PropOp43
 70
     1
102
RTVSPost2010Prop44ColorIndex
 90
        5
102
RTVSPost2010Prop44ColorRGB
 90
      255
102
RTVSPost2010PropOp44
 70
     1
102
RTVSPost2010Prop45
280
     0
102
RTVSPost2010PropOp45
 70
     1
102
RTVSPost2010Prop46
 90
       50
102
RTVSPost2010PropOp46
 70
     1
102
RTVSPost2010Prop47
 90
       50
102
RTVSPost2010PropOp47
 70
     1
102
RTVSPost2010Prop48
 90
       50
102
RTVSPost2010PropOp48
 70
     1
102
RTVSPost2010Prop49
280
     0
102
RTVSPost2010PropOp49
 70
     1
102
RTVSPost2010Prop50
 90
       50
102
RTVSPost2010PropOp50
 70
     1
102
RTVSPost2010Prop51ColorIndex
 90
      256
102
RTVSPost2010Prop51ColorRGB
 90
-16777216
102
RTVSPost2010PropOp51
 70
     0
102
RTVSPost2010Prop52
140
1.0
102
RTVSPost2010PropOp52
 70
     0
102
RTVSPost2010Prop53
 90
        2
102
RTVSPost2010PropOp53
 70
     1
102
RTVSPost2010Prop54
  1
strokes_ogs.tif
102
RTVSPost2010PropOp54
 70
     1
102
RTVSPost2010Prop55
280
     0
102
RTVSPost2010PropOp55
 70
     1
102
RTVSPost2010Prop56
140
1.0
102
RTVSPost2010PropOp56
 70
     1
102
RTVSPost2010Prop57
140
1.0
102
RTVSPost2010PropOp57
 70
     1
  0
XRECORD
  5
391
102
{ACAD_REACTORS
330
390
102
}
330
390
100
AcDbXrecord
280
     1
102
RTVSPropertyOp0
 70
     0
102
RTVSPropertyOp1
 70
     0
102
RTVSPropertyOp2
 70
     0
102
RTVSPropertyOp3
 70
     0
102
RTVSPropertyOp4
 70
     0
102
RTVSPropertyOp5
 70
     0
102
RTVSPropertyOp6
 70
     0
102
RTVSPropertyOp7
 70
     0
102
RTVSPropertyOp8
 70
     0
102
RTVSPropertyOp9
 70
     0
102
RTVSPropertyOp10
 70
     0
102
RTVSPropertyOp11
 70
     0
102
RTVSPropertyOp12
 70
     0
102
RTVSPropertyOp13
 70
     0
102
RTVSPropertyOp14
 70
     2
102
RTVSPropertyOp15
 70
     0
102
RTVSPropertyOp16
 70
     0
102
RTVSPropertyOp17
 70
     0
102
RTVSPropertyOp18
 70
     0
102
RTVSPropertyOp19
 70
     0
102
RTVSPropertyOp20
 70
     0
102
RTVSPropertyOp21
 70
     0
102
RTVSPropertyOp22
 70
     0
102
RTVSPropertyOp23
 70
     0
102
RTVSPropertyOp24
 70
     0
102
RTVSPropertyOp25
 70
     0
102
RTVSPropertyOp26
 70
     0
102
RTVSPropertyOp27
 70
     0
102
RTVSPropertyOp28
 70
     0
102
RTVSPropertyOp29
 70
     0
102
RTVSPropertyOp30
 70
     0
102
RTVSPropertyOp31
 70
     0
102
RTVSPropertyOp32
 70
     0
102
RTVSPropertyOp33
 70
     0
102
RTVSPropertyOp34
 70
     0
102
RTVSPropertyOp35
 70
     0
102
RTVSPropertyOp36
 70
     0
102
RTVSPropertyOp37
 70
     0
102
RTVSPropertyOp38
 70
     0
102
RTVSPropertyOp39
 70
     0
102
RTVSPropertyOp40
 70
     0
102
RTVSPropertyOp41
 70
     0
102
RTVSPropertyOp42
 70
     0
102
RTVSPropertyOp43
 70
     0
102
RTVSPropertyOp44
 70
     0
102
RTVSPropertyOp45
 70
     0
102
RTVSPropertyOp46
 70
     0
102
RTVSPropertyOp47
 70
     0
102
RTVSPropertyOp48
 70
     0
102
RTVSPropertyOp49
 70
     0
102
RTVSPropertyOp50
 70
     0
102
RTVSPropertyOp51
 70
     0
102
RTVSPropertyOp52
 70
     0
102
RTVSPropertyOp53
 70
     0
102
RTVSPropertyOp54
 70
     0
102
RTVSPropertyOp55
 70
     0
102
RTVSPropertyOp56
 70
     0
102
RTVSPropertyOp57
 70
     0
102
RTVSPost2010Prop28
280
     0
102
RTVSPost2010PropOp28
 70
     0
102
RTVSPost2010Prop29
280
     1
102
RTVSPost2010PropOp29
 70
     0
102
RTVSPost2010Prop30
280
     1
102
RTVSPost2010PropOp30
 70
     0
102
RTVSPost2010Prop31
280
     0
102
RTVSPost2010PropOp31
 70
     0
102
RTVSPost2010Prop32
280
     0
102
RTVSPost2010PropOp32
 70
     0
102
RTVSPost2010Prop33
280
     0
102
RTVSPost2010PropOp33
 70
     0
102
RTVSPost2010Prop34
280
     0
102
RTVSPost2010PropOp34
 70
     0
102
RTVSPost2010Prop35
280
     0
102
RTVSPost2010PropOp35
 70
     0
102
RTVSPost2010Prop36
280
     0
102
RTVSPost2010PropOp36
 70
     0
102
RTVSPost2010Prop37
 90
       50
102
RTVSPost2010PropOp37
 70
     0
102
RTVSPost2010Prop38
140
0.0
102
RTVSPost2010PropOp38
 70
     0
102
RTVSPost2010Prop39
140
1.0
102
RTVSPost2010PropOp39
 70
     0
102
RTVSPost2010Prop40
 90
        0
102
RTVSPost2010PropOp40
 70
     0
102
RTVSPost2010Prop41ColorIndex
 90
       18
102
RTVSPost2010Prop41ColorRGB
 90
        0
102
RTVSPost2010PropOp41
 70
     0
102
RTVSPost2010Prop42
 90
       50
102
RTVSPost2010PropOp42
 70
     0
102
RTVSPost2010Prop43
 90
        3
102
RTVSPost2010PropOp43
 70
     0
102
RTVSPost2010Prop44ColorIndex
 90
        5
102
RTVSPost2010Prop44ColorRGB
 90
      255
102
RTVSPost2010PropOp44
 70
     0
102
RTVSPost2010Prop45
280
     0
102
RTVSPost2010PropOp45
 70
     0
102
RTVSPost2010Prop46
 90
       50
102
RTVSPost2010PropOp46
 70
     0
102
RTVSPost2010Prop47
 90
       50
102
RTVSPost2010PropOp47
 70
     0
102
RTVSPost2010Prop48
 90
       50
102
RTVSPost2010PropOp48
 70
     0
102
RTVSPost2010Prop49
280
     0
102
RTVSPost2010PropOp49
 70
     0
102
RTVSPost2010Prop50
 90
       50
102
RTVSPost2010PropOp50
 70
     0
102
RTVSPost2010Prop51ColorIndex
 90
      256
102
RTVSPost2010Prop51ColorRGB
 90
-16777216
102
RTVSPost2010PropOp51
 70
     0
102
RTVSPost2010Prop52
140
1.0
102
RTVSPost2010PropOp52
 70
     0
102
RTVSPost2010Prop53
 90
        2
102
RTVSPost2010PropOp53
 70
     0
102
RTVSPost2010Prop54
  1
strokes_ogs.tif
102
RTVSPost2010PropOp54
 70
     0
102
RTVSPost2010Prop55
280
     0
102
RTVSPost2010PropOp55
 70
     0
102
RTVSPost2010Prop56
140
1.0
102
RTVSPost2010PropOp56
 70
     0
102
RTVSPost2010Prop57
140
1.0
102
RTVSPost2010PropOp57
 70
     0
  0
XRECORD
  5
37F
102
{ACAD_REACTORS
330
37E
102
}
330
37E
100
AcDbXrecord
280
     1
102
RTVSPropertyOp0
 70
     1
102
RTVSPropertyOp1
 70
     1
102
RTVSPropertyOp2
 70
     1
102
RTVSPropertyOp3
 70
     1
102
RTVSPropertyOp4
 70
     1
102
RTVSPropertyOp5
 70
     1
102
RTVSPropertyOp6
 70
     1
102
RTVSPropertyOp7
 70
     1
102
RTVSPropertyOp8
 70
     1
102
RTVSPropertyOp9
 70
     1
102
RTVSPropertyOp10
 70
     1
102
RTVSPropertyOp11
 70
     1
102
RTVSPropertyOp12
 70
     1
102
RTVSPropertyOp13
 70
     1
102
RTVSPropertyOp14
 70
     1
102
RTVSPropertyOp15
 70
     1
102
RTVSPropertyOp16
 70
     1
102
RTVSPropertyOp17
 70
     1
102
RTVSPropertyOp18
 70
     1
102
RTVSPropertyOp19
 70
     1
102
RTVSPropertyOp20
 70
     1
102
RTVSPropertyOp21
 70
     1
102
RTVSPropertyOp22
 70
     1
102
RTVSPropertyOp23
 70
     1
102
RTVSPropertyOp24
 70
     1
102
RTVSPropertyOp25
 70
     1
102
RTVSPropertyOp26
 70
     1
102
RTVSPropertyOp27
 70
     1
102
RTVSPropertyOp28
 70
     1
102
RTVSPropertyOp29
 70
     1
102
RTVSPropertyOp30
 70
     1
102
RTVSPropertyOp31
 70
     1
102
RTVSPropertyOp32
 70
     1
102
RTVSPropertyOp33
 70
     1
102
RTVSPropertyOp34
 70
     1
102
RTVSPropertyOp35
 70
     1
102
RTVSPropertyOp36
 70
     1
102
RTVSPropertyOp37
 70
     1
102
RTVSPropertyOp38
 70
     1
102
RTVSPropertyOp39
 70
     1
102
RTVSPropertyOp40
 70
     1
102
RTVSPropertyOp41
 70
     1
102
RTVSPropertyOp42
 70
     1
102
RTVSPropertyOp43
 70
     1
102
RTVSPropertyOp44
 70
     1
102
RTVSPropertyOp45
 70
     1
102
RTVSPropertyOp46
 70
     1
102
RTVSPropertyOp47
 70
     1
102
RTVSPropertyOp48
 70
     1
102
RTVSPropertyOp49
 70
     1
102
RTVSPropertyOp50
 70
     1
102
RTVSPropertyOp51
 70
     0
102
RTVSPropertyOp52
 70
     0
102
RTVSPropertyOp53
 70
     1
102
RTVSPropertyOp54
 70
     1
102
RTVSPropertyOp55
 70
     1
102
RTVSPropertyOp56
 70
     1
102
RTVSPropertyOp57
 70
     1
102
RTVSPost2010Prop28
280
     0
102
RTVSPost2010PropOp28
 70
     1
102
RTVSPost2010Prop29
280
     1
102
RTVSPost2010PropOp29
 70
     1
102
RTVSPost2010Prop30
280
     1
102
RTVSPost2010PropOp30
 70
     1
102
RTVSPost2010Prop31
280
     0
102
RTVSPost2010PropOp31
 70
     1
102
RTVSPost2010Prop32
280
     0
102
RTVSPost2010PropOp32
 70
     1
102
RTVSPost2010Prop33
280
     0
102
RTVSPost2010PropOp33
 70
     1
102
RTVSPost2010Prop34
280
     0
102
RTVSPost2010PropOp34
 70
     1
102
RTVSPost2010Prop35
280
     0
102
RTVSPost2010PropOp35
 70
     1
102
RTVSPost2010Prop36
280
     0
102
RTVSPost2010PropOp36
 70
     1
102
RTVSPost2010Prop37
 90
       50
102
RTVSPost2010PropOp37
 70
     1
102
RTVSPost2010Prop38
140
0.0
102
RTVSPost2010PropOp38
 70
     1
102
RTVSPost2010Prop39
140
1.0
102
RTVSPost2010PropOp39
 70
     1
102
RTVSPost2010Prop40
 90
        0
102
RTVSPost2010PropOp40
 70
     1
102
RTVSPost2010Prop41ColorIndex
 90
       18
102
RTVSPost2010Prop41ColorRGB
 90
        0
102
RTVSPost2010PropOp41
 70
     1
102
RTVSPost2010Prop42
 90
       50
102
RTVSPost2010PropOp42
 70
     1
102
RTVSPost2010Prop43
 90
        3
102
RTVSPost2010PropOp43
 70
     1
102
RTVSPost2010Prop44ColorIndex
 90
        5
102
RTVSPost2010Prop44ColorRGB
 90
      255
102
RTVSPost2010PropOp44
 70
     1
102
RTVSPost2010Prop45
280
     0
102
RTVSPost2010PropOp45
 70
     1
102
RTVSPost2010Prop46
 90
       50
102
RTVSPost2010PropOp46
 70
     1
102
RTVSPost2010Prop47
 90
       50
102
RTVSPost2010PropOp47
 70
     1
102
RTVSPost2010Prop48
 90
       50
102
RTVSPost2010PropOp48
 70
     1
102
RTVSPost2010Prop49
280
     0
102
RTVSPost2010PropOp49
 70
     1
102
RTVSPost2010Prop50
 90
       50
102
RTVSPost2010PropOp50
 70
     1
102
RTVSPost2010Prop51ColorIndex
 90
      256
102
RTVSPost2010Prop51ColorRGB
 90
-16777216
102
RTVSPost2010PropOp51
 70
     0
102
RTVSPost2010Prop52
140
1.0
102
RTVSPost2010PropOp52
 70
     0
102
RTVSPost2010Prop53
 90
        2
102
RTVSPost2010PropOp53
 70
     1
102
RTVSPost2010Prop54
  1
strokes_ogs.tif
102
RTVSPost2010PropOp54
 70
     1
102
RTVSPost2010Prop55
280
     0
102
RTVSPost2010PropOp55
 70
     1
102
RTVSPost2010Prop56
140
1.0
102
RTVSPost2010PropOp56
 70
     1
102
RTVSPost2010Prop57
140
1.0
102
RTVSPost2010PropOp57
 70
     1
  0
XRECORD
  5
39D
102
{ACAD_REACTORS
330
39C
102
}
330
39C
100
AcDbXrecord
280
     1
102
RTVSPropertyOp0
 70
     1
102
RTVSPropertyOp1
 70
     1
102
RTVSPropertyOp2
 70
     1
102
RTVSPropertyOp3
 70
     1
102
RTVSPropertyOp4
 70
     1
102
RTVSPropertyOp5
 70
     1
102
RTVSPropertyOp6
 70
     1
102
RTVSPropertyOp7
 70
     1
102
RTVSPropertyOp8
 70
     1
102
RTVSPropertyOp9
 70
     1
102
RTVSPropertyOp10
 70
     1
102
RTVSPropertyOp11
 70
     1
102
RTVSPropertyOp12
 70
     1
102
RTVSPropertyOp13
 70
     1
102
RTVSPropertyOp14
 70
     1
102
RTVSPropertyOp15
 70
     1
102
RTVSPropertyOp16
 70
     1
102
RTVSPropertyOp17
 70
     1
102
RTVSPropertyOp18
 70
     1
102
RTVSPropertyOp19
 70
     1
102
RTVSPropertyOp20
 70
     1
102
RTVSPropertyOp21
 70
     1
102
RTVSPropertyOp22
 70
     1
102
RTVSPropertyOp23
 70
     1
102
RTVSPropertyOp24
 70
     1
102
RTVSPropertyOp25
 70
     1
102
RTVSPropertyOp26
 70
     1
102
RTVSPropertyOp27
 70
     1
102
RTVSPropertyOp28
 70
     1
102
RTVSPropertyOp29
 70
     1
102
RTVSPropertyOp30
 70
     1
102
RTVSPropertyOp31
 70
     1
102
RTVSPropertyOp32
 70
     1
102
RTVSPropertyOp33
 70
     1
102
RTVSPropertyOp34
 70
     1
102
RTVSPropertyOp35
 70
     1
102
RTVSPropertyOp36
 70
     1
102
RTVSPropertyOp37
 70
     1
102
RTVSPropertyOp38
 70
     1
102
RTVSPropertyOp39
 70
     1
102
RTVSPropertyOp40
 70
     1
102
RTVSPropertyOp41
 70
     1
102
RTVSPropertyOp42
 70
     1
102
RTVSPropertyOp43
 70
     1
102
RTVSPropertyOp44
 70
     1
102
RTVSPropertyOp45
 70
     1
102
RTVSPropertyOp46
 70
     1
102
RTVSPropertyOp47
 70
     1
102
RTVSPropertyOp48
 70
     1
102
RTVSPropertyOp49
 70
     1
102
RTVSPropertyOp50
 70
     1
102
RTVSPropertyOp51
 70
     0
102
RTVSPropertyOp52
 70
     0
102
RTVSPropertyOp53
 70
     1
102
RTVSPropertyOp54
 70
     1
102
RTVSPropertyOp55
 70
     1
102
RTVSPropertyOp56
 70
     1
102
RTVSPropertyOp57
 70
     1
102
RTVSPost2010Prop28
280
     0
102
RTVSPost2010PropOp28
 70
     1
102
RTVSPost2010Prop29
280
     1
102
RTVSPost2010PropOp29
 70
     1
102
RTVSPost2010Prop30
280
     1
102
RTVSPost2010PropOp30
 70
     1
102
RTVSPost2010Prop31
280
     0
102
RTVSPost2010PropOp31
 70
     1
102
RTVSPost2010Prop32
280
     0
102
RTVSPost2010PropOp32
 70
     1
102
RTVSPost2010Prop33
280
     0
102
RTVSPost2010PropOp33
 70
     1
102
RTVSPost2010Prop34
280
     0
102
RTVSPost2010PropOp34
 70
     1
102
RTVSPost2010Prop35
280
     0
102
RTVSPost2010PropOp35
 70
     1
102
RTVSPost2010Prop36
280
     0
102
RTVSPost2010PropOp36
 70
     1
102
RTVSPost2010Prop37
 90
       50
102
RTVSPost2010PropOp37
 70
     1
102
RTVSPost2010Prop38
140
0.0
102
RTVSPost2010PropOp38
 70
     1
102
RTVSPost2010Prop39
140
1.0
102
RTVSPost2010PropOp39
 70
     1
102
RTVSPost2010Prop40
 90
        0
102
RTVSPost2010PropOp40
 70
     1
102
RTVSPost2010Prop41ColorIndex
 90
       18
102
RTVSPost2010Prop41ColorRGB
 90
        0
102
RTVSPost2010PropOp41
 70
     1
102
RTVSPost2010Prop42
 90
       50
102
RTVSPost2010PropOp42
 70
     1
102
RTVSPost2010Prop43
 90
        3
102
RTVSPost2010PropOp43
 70
     1
102
RTVSPost2010Prop44ColorIndex
 90
        5
102
RTVSPost2010Prop44ColorRGB
 90
      255
102
RTVSPost2010PropOp44
 70
     1
102
RTVSPost2010Prop45
280
     0
102
RTVSPost2010PropOp45
 70
     1
102
RTVSPost2010Prop46
 90
       50
102
RTVSPost2010PropOp46
 70
     1
102
RTVSPost2010Prop47
 90
       50
102
RTVSPost2010PropOp47
 70
     1
102
RTVSPost2010Prop48
 90
       50
102
RTVSPost2010PropOp48
 70
     1
102
RTVSPost2010Prop49
280
     0
102
RTVSPost2010PropOp49
 70
     1
102
RTVSPost2010Prop50
 90
       50
102
RTVSPost2010PropOp50
 70
     1
102
RTVSPost2010Prop51ColorIndex
 90
      256
102
RTVSPost2010Prop51ColorRGB
 90
-16777216
102
RTVSPost2010PropOp51
 70
     0
102
RTVSPost2010Prop52
140
1.0
102
RTVSPost2010PropOp52
 70
     0
102
RTVSPost2010Prop53
 90
        2
102
RTVSPost2010PropOp53
 70
     1
102
RTVSPost2010Prop54
  1
strokes_ogs.tif
102
RTVSPost2010PropOp54
 70
     1
102
RTVSPost2010Prop55
280
     0
102
RTVSPost2010PropOp55
 70
     1
102
RTVSPost2010Prop56
140
1.0
102
RTVSPost2010PropOp56
 70
     1
102
RTVSPost2010Prop57
140
1.0
102
RTVSPost2010PropOp57
 70
     1
  0
XRECORD
  5
39B
102
{ACAD_REACTORS
330
39A
102
}
330
39A
100
AcDbXrecord
280
     1
102
RTVSPropertyOp0
 70
     1
102
RTVSPropertyOp1
 70
     1
102
RTVSPropertyOp2
 70
     1
102
RTVSPropertyOp3
 70
     1
102
RTVSPropertyOp4
 70
     1
102
RTVSPropertyOp5
 70
     1
102
RTVSPropertyOp6
 70
     1
102
RTVSPropertyOp7
 70
     1
102
RTVSPropertyOp8
 70
     1
102
RTVSPropertyOp9
 70
     1
102
RTVSPropertyOp10
 70
     1
102
RTVSPropertyOp11
 70
     1
102
RTVSPropertyOp12
 70
     1
102
RTVSPropertyOp13
 70
     1
102
RTVSPropertyOp14
 70
     1
102
RTVSPropertyOp15
 70
     1
102
RTVSPropertyOp16
 70
     1
102
RTVSPropertyOp17
 70
     1
102
RTVSPropertyOp18
 70
     1
102
RTVSPropertyOp19
 70
     1
102
RTVSPropertyOp20
 70
     1
102
RTVSPropertyOp21
 70
     1
102
RTVSPropertyOp22
 70
     1
102
RTVSPropertyOp23
 70
     1
102
RTVSPropertyOp24
 70
     1
102
RTVSPropertyOp25
 70
     1
102
RTVSPropertyOp26
 70
     1
102
RTVSPropertyOp27
 70
     1
102
RTVSPropertyOp28
 70
     1
102
RTVSPropertyOp29
 70
     1
102
RTVSPropertyOp30
 70
     1
102
RTVSPropertyOp31
 70
     1
102
RTVSPropertyOp32
 70
     1
102
RTVSPropertyOp33
 70
     1
102
RTVSPropertyOp34
 70
     1
102
RTVSPropertyOp35
 70
     1
102
RTVSPropertyOp36
 70
     1
102
RTVSPropertyOp37
 70
     1
102
RTVSPropertyOp38
 70
     1
102
RTVSPropertyOp39
 70
     1
102
RTVSPropertyOp40
 70
     1
102
RTVSPropertyOp41
 70
     1
102
RTVSPropertyOp42
 70
     1
102
RTVSPropertyOp43
 70
     1
102
RTVSPropertyOp44
 70
     1
102
RTVSPropertyOp45
 70
     1
102
RTVSPropertyOp46
 70
     1
102
RTVSPropertyOp47
 70
     1
102
RTVSPropertyOp48
 70
     1
102
RTVSPropertyOp49
 70
     1
102
RTVSPropertyOp50
 70
     1
102
RTVSPropertyOp51
 70
     0
102
RTVSPropertyOp52
 70
     0
102
RTVSPropertyOp53
 70
     1
102
RTVSPropertyOp54
 70
     1
102
RTVSPropertyOp55
 70
     1
102
RTVSPropertyOp56
 70
     1
102
RTVSPropertyOp57
 70
     1
102
RTVSPost2010Prop28
280
     0
102
RTVSPost2010PropOp28
 70
     1
102
RTVSPost2010Prop29
280
     1
102
RTVSPost2010PropOp29
 70
     1
102
RTVSPost2010Prop30
280
     1
102
RTVSPost2010PropOp30
 70
     1
102
RTVSPost2010Prop31
280
     0
102
RTVSPost2010PropOp31
 70
     1
102
RTVSPost2010Prop32
280
     0
102
RTVSPost2010PropOp32
 70
     1
102
RTVSPost2010Prop33
280
     0
102
RTVSPost2010PropOp33
 70
     1
102
RTVSPost2010Prop34
280
     0
102
RTVSPost2010PropOp34
 70
     1
102
RTVSPost2010Prop35
280
     0
102
RTVSPost2010PropOp35
 70
     1
102
RTVSPost2010Prop36
280
     0
102
RTVSPost2010PropOp36
 70
     1
102
RTVSPost2010Prop37
 90
       50
102
RTVSPost2010PropOp37
 70
     1
102
RTVSPost2010Prop38
140
0.0
102
RTVSPost2010PropOp38
 70
     1
102
RTVSPost2010Prop39
140
1.0
102
RTVSPost2010PropOp39
 70
     1
102
RTVSPost2010Prop40
 90
        0
102
RTVSPost2010PropOp40
 70
     1
102
RTVSPost2010Prop41ColorIndex
 90
       18
102
RTVSPost2010Prop41ColorRGB
 90
        0
102
RTVSPost2010PropOp41
 70
     1
102
RTVSPost2010Prop42
 90
       50
102
RTVSPost2010PropOp42
 70
     1
102
RTVSPost2010Prop43
 90
        3
102
RTVSPost2010PropOp43
 70
     1
102
RTVSPost2010Prop44ColorIndex
 90
        5
102
RTVSPost2010Prop44ColorRGB
 90
      255
102
RTVSPost2010PropOp44
 70
     1
102
RTVSPost2010Prop45
280
     0
102
RTVSPost2010PropOp45
 70
     1
102
RTVSPost2010Prop46
 90
       50
102
RTVSPost2010PropOp46
 70
     1
102
RTVSPost2010Prop47
 90
       50
102
RTVSPost2010PropOp47
 70
     1
102
RTVSPost2010Prop48
 90
       50
102
RTVSPost2010PropOp48
 70
     1
102
RTVSPost2010Prop49
280
     0
102
RTVSPost2010PropOp49
 70
     1
102
RTVSPost2010Prop50
 90
       50
102
RTVSPost2010PropOp50
 70
     1
102
RTVSPost2010Prop51ColorIndex
 90
      256
102
RTVSPost2010Prop51ColorRGB
 90
-16777216
102
RTVSPost2010PropOp51
 70
     0
102
RTVSPost2010Prop52
140
1.0
102
RTVSPost2010PropOp52
 70
     0
102
RTVSPost2010Prop53
 90
        2
102
RTVSPost2010PropOp53
 70
     1
102
RTVSPost2010Prop54
  1
strokes_ogs.tif
102
RTVSPost2010PropOp54
 70
     1
102
RTVSPost2010Prop55
280
     0
102
RTVSPost2010PropOp55
 70
     1
102
RTVSPost2010Prop56
140
1.0
102
RTVSPost2010PropOp56
 70
     1
102
RTVSPost2010Prop57
140
1.0
102
RTVSPost2010PropOp57
 70
     1
  0
XRECORD
  5
395
102
{ACAD_REACTORS
330
394
102
}
330
394
100
AcDbXrecord
280
     1
102
RTVSPropertyOp0
 70
     1
102
RTVSPropertyOp1
 70
     1
102
RTVSPropertyOp2
 70
     1
102
RTVSPropertyOp3
 70
     1
102
RTVSPropertyOp4
 70
     1
102
RTVSPropertyOp5
 70
     1
102
RTVSPropertyOp6
 70
     1
102
RTVSPropertyOp7
 70
     1
102
RTVSPropertyOp8
 70
     1
102
RTVSPropertyOp9
 70
     1
102
RTVSPropertyOp10
 70
     1
102
RTVSPropertyOp11
 70
     1
102
RTVSPropertyOp12
 70
     1
102
RTVSPropertyOp13
 70
     1
102
RTVSPropertyOp14
 70
     1
102
RTVSPropertyOp15
 70
     1
102
RTVSPropertyOp16
 70
     1
102
RTVSPropertyOp17
 70
     1
102
RTVSPropertyOp18
 70
     1
102
RTVSPropertyOp19
 70
     1
102
RTVSPropertyOp20
 70
     1
102
RTVSPropertyOp21
 70
     1
102
RTVSPropertyOp22
 70
     1
102
RTVSPropertyOp23
 70
     1
102
RTVSPropertyOp24
 70
     1
102
RTVSPropertyOp25
 70
     1
102
RTVSPropertyOp26
 70
     1
102
RTVSPropertyOp27
 70
     1
102
RTVSPropertyOp28
 70
     1
102
RTVSPropertyOp29
 70
     1
102
RTVSPropertyOp30
 70
     1
102
RTVSPropertyOp31
 70
     1
102
RTVSPropertyOp32
 70
     1
102
RTVSPropertyOp33
 70
     1
102
RTVSPropertyOp34
 70
     1
102
RTVSPropertyOp35
 70
     1
102
RTVSPropertyOp36
 70
     1
102
RTVSPropertyOp37
 70
     1
102
RTVSPropertyOp38
 70
     1
102
RTVSPropertyOp39
 70
     1
102
RTVSPropertyOp40
 70
     1
102
RTVSPropertyOp41
 70
     1
102
RTVSPropertyOp42
 70
     1
102
RTVSPropertyOp43
 70
     1
102
RTVSPropertyOp44
 70
     1
102
RTVSPropertyOp45
 70
     1
102
RTVSPropertyOp46
 70
     1
102
RTVSPropertyOp47
 70
     1
102
RTVSPropertyOp48
 70
     1
102
RTVSPropertyOp49
 70
     1
102
RTVSPropertyOp50
 70
     1
102
RTVSPropertyOp51
 70
     0
102
RTVSPropertyOp52
 70
     0
102
RTVSPropertyOp53
 70
     1
102
RTVSPropertyOp54
 70
     1
102
RTVSPropertyOp55
 70
     1
102
RTVSPropertyOp56
 70
     1
102
RTVSPropertyOp57
 70
     1
102
RTVSPost2010Prop28
280
     0
102
RTVSPost2010PropOp28
 70
     1
102
RTVSPost2010Prop29
280
     1
102
RTVSPost2010PropOp29
 70
     1
102
RTVSPost2010Prop30
280
     1
102
RTVSPost2010PropOp30
 70
     1
102
RTVSPost2010Prop31
280
     0
102
RTVSPost2010PropOp31
 70
     1
102
RTVSPost2010Prop32
280
     0
102
RTVSPost2010PropOp32
 70
     1
102
RTVSPost2010Prop33
280
     0
102
RTVSPost2010PropOp33
 70
     1
102
RTVSPost2010Prop34
280
     0
102
RTVSPost2010PropOp34
 70
     1
102
RTVSPost2010Prop35
280
     0
102
RTVSPost2010PropOp35
 70
     1
102
RTVSPost2010Prop36
280
     0
102
RTVSPost2010PropOp36
 70
     1
102
RTVSPost2010Prop37
 90
       50
102
RTVSPost2010PropOp37
 70
     1
102
RTVSPost2010Prop38
140
0.0
102
RTVSPost2010PropOp38
 70
     1
102
RTVSPost2010Prop39
140
1.0
102
RTVSPost2010PropOp39
 70
     1
102
RTVSPost2010Prop40
 90
        0
102
RTVSPost2010PropOp40
 70
     1
102
RTVSPost2010Prop41ColorIndex
 90
       18
102
RTVSPost2010Prop41ColorRGB
 90
        0
102
RTVSPost2010PropOp41
 70
     1
102
RTVSPost2010Prop42
 90
       50
102
RTVSPost2010PropOp42
 70
     1
102
RTVSPost2010Prop43
 90
        3
102
RTVSPost2010PropOp43
 70
     1
102
RTVSPost2010Prop44ColorIndex
 90
        5
102
RTVSPost2010Prop44ColorRGB
 90
      255
102
RTVSPost2010PropOp44
 70
     1
102
RTVSPost2010Prop45
280
     0
102
RTVSPost2010PropOp45
 70
     1
102
RTVSPost2010Prop46
 90
       50
102
RTVSPost2010PropOp46
 70
     1
102
RTVSPost2010Prop47
 90
       50
102
RTVSPost2010PropOp47
 70
     1
102
RTVSPost2010Prop48
 90
       50
102
RTVSPost2010PropOp48
 70
     1
102
RTVSPost2010Prop49
280
     0
102
RTVSPost2010PropOp49
 70
     1
102
RTVSPost2010Prop50
 90
       50
102
RTVSPost2010PropOp50
 70
     1
102
RTVSPost2010Prop51ColorIndex
 90
      256
102
RTVSPost2010Prop51ColorRGB
 90
-16777216
102
RTVSPost2010PropOp51
 70
     0
102
RTVSPost2010Prop52
140
1.0
102
RTVSPost2010PropOp52
 70
     0
102
RTVSPost2010Prop53
 90
        2
102
RTVSPost2010PropOp53
 70
     1
102
RTVSPost2010Prop54
  1
strokes_ogs.tif
102
RTVSPost2010PropOp54
 70
     1
102
RTVSPost2010Prop55
280
     0
102
RTVSPost2010PropOp55
 70
     1
102
RTVSPost2010Prop56
140
1.0
102
RTVSPost2010PropOp56
 70
     1
102
RTVSPost2010Prop57
140
1.0
102
RTVSPost2010PropOp57
 70
     1
  0
XRECORD
  5
397
102
{ACAD_REACTORS
330
396
102
}
330
396
100
AcDbXrecord
280
     1
102
RTVSPropertyOp0
 70
     1
102
RTVSPropertyOp1
 70
     1
102
RTVSPropertyOp2
 70
     1
102
RTVSPropertyOp3
 70
     1
102
RTVSPropertyOp4
 70
     1
102
RTVSPropertyOp5
 70
     1
102
RTVSPropertyOp6
 70
     1
102
RTVSPropertyOp7
 70
     1
102
RTVSPropertyOp8
 70
     1
102
RTVSPropertyOp9
 70
     1
102
RTVSPropertyOp10
 70
     1
102
RTVSPropertyOp11
 70
     1
102
RTVSPropertyOp12
 70
     1
102
RTVSPropertyOp13
 70
     1
102
RTVSPropertyOp14
 70
     1
102
RTVSPropertyOp15
 70
     1
102
RTVSPropertyOp16
 70
     1
102
RTVSPropertyOp17
 70
     1
102
RTVSPropertyOp18
 70
     1
102
RTVSPropertyOp19
 70
     1
102
RTVSPropertyOp20
 70
     1
102
RTVSPropertyOp21
 70
     1
102
RTVSPropertyOp22
 70
     1
102
RTVSPropertyOp23
 70
     1
102
RTVSPropertyOp24
 70
     1
102
RTVSPropertyOp25
 70
     1
102
RTVSPropertyOp26
 70
     1
102
RTVSPropertyOp27
 70
     1
102
RTVSPropertyOp28
 70
     1
102
RTVSPropertyOp29
 70
     1
102
RTVSPropertyOp30
 70
     1
102
RTVSPropertyOp31
 70
     1
102
RTVSPropertyOp32
 70
     1
102
RTVSPropertyOp33
 70
     1
102
RTVSPropertyOp34
 70
     1
102
RTVSPropertyOp35
 70
     1
102
RTVSPropertyOp36
 70
     1
102
RTVSPropertyOp37
 70
     1
102
RTVSPropertyOp38
 70
     1
102
RTVSPropertyOp39
 70
     1
102
RTVSPropertyOp40
 70
     1
102
RTVSPropertyOp41
 70
     1
102
RTVSPropertyOp42
 70
     1
102
RTVSPropertyOp43
 70
     1
102
RTVSPropertyOp44
 70
     1
102
RTVSPropertyOp45
 70
     1
102
RTVSPropertyOp46
 70
     1
102
RTVSPropertyOp47
 70
     1
102
RTVSPropertyOp48
 70
     1
102
RTVSPropertyOp49
 70
     1
102
RTVSPropertyOp50
 70
     1
102
RTVSPropertyOp51
 70
     0
102
RTVSPropertyOp52
 70
     0
102
RTVSPropertyOp53
 70
     1
102
RTVSPropertyOp54
 70
     1
102
RTVSPropertyOp55
 70
     1
102
RTVSPropertyOp56
 70
     1
102
RTVSPropertyOp57
 70
     1
102
RTVSPost2010Prop28
280
     0
102
RTVSPost2010PropOp28
 70
     1
102
RTVSPost2010Prop29
280
     1
102
RTVSPost2010PropOp29
 70
     1
102
RTVSPost2010Prop30
280
     1
102
RTVSPost2010PropOp30
 70
     1
102
RTVSPost2010Prop31
280
     0
102
RTVSPost2010PropOp31
 70
     1
102
RTVSPost2010Prop32
280
     0
102
RTVSPost2010PropOp32
 70
     1
102
RTVSPost2010Prop33
280
     0
102
RTVSPost2010PropOp33
 70
     1
102
RTVSPost2010Prop34
280
     0
102
RTVSPost2010PropOp34
 70
     1
102
RTVSPost2010Prop35
280
     0
102
RTVSPost2010PropOp35
 70
     1
102
RTVSPost2010Prop36
280
     0
102
RTVSPost2010PropOp36
 70
     1
102
RTVSPost2010Prop37
 90
       50
102
RTVSPost2010PropOp37
 70
     1
102
RTVSPost2010Prop38
140
0.0
102
RTVSPost2010PropOp38
 70
     1
102
RTVSPost2010Prop39
140
1.0
102
RTVSPost2010PropOp39
 70
     1
102
RTVSPost2010Prop40
 90
        0
102
RTVSPost2010PropOp40
 70
     1
102
RTVSPost2010Prop41ColorIndex
 90
       18
102
RTVSPost2010Prop41ColorRGB
 90
        0
102
RTVSPost2010PropOp41
 70
     1
102
RTVSPost2010Prop42
 90
       50
102
RTVSPost2010PropOp42
 70
     1
102
RTVSPost2010Prop43
 90
        3
102
RTVSPost2010PropOp43
 70
     1
102
RTVSPost2010Prop44ColorIndex
 90
        5
102
RTVSPost2010Prop44ColorRGB
 90
      255
102
RTVSPost2010PropOp44
 70
     1
102
RTVSPost2010Prop45
280
     0
102
RTVSPost2010PropOp45
 70
     1
102
RTVSPost2010Prop46
 90
       50
102
RTVSPost2010PropOp46
 70
     1
102
RTVSPost2010Prop47
 90
       50
102
RTVSPost2010PropOp47
 70
     1
102
RTVSPost2010Prop48
 90
       50
102
RTVSPost2010PropOp48
 70
     1
102
RTVSPost2010Prop49
280
     0
102
RTVSPost2010PropOp49
 70
     1
102
RTVSPost2010Prop50
 90
       50
102
RTVSPost2010PropOp50
 70
     1
102
RTVSPost2010Prop51ColorIndex
 90
      256
102
RTVSPost2010Prop51ColorRGB
 90
-16777216
102
RTVSPost2010PropOp51
 70
     0
102
RTVSPost2010Prop52
140
1.0
102
RTVSPost2010PropOp52
 70
     0
102
RTVSPost2010Prop53
 90
        2
102
RTVSPost2010PropOp53
 70
     1
102
RTVSPost2010Prop54
  1
strokes_ogs.tif
102
RTVSPost2010PropOp54
 70
     1
102
RTVSPost2010Prop55
280
     0
102
RTVSPost2010PropOp55
 70
     1
102
RTVSPost2010Prop56
140
1.0
102
RTVSPost2010PropOp56
 70
     1
102
RTVSPost2010Prop57
140
1.0
102
RTVSPost2010PropOp57
 70
     1
  0
XRECORD
  5
387
102
{ACAD_REACTORS
330
386
102
}
330
386
100
AcDbXrecord
280
     1
102
RTVSPropertyOp0
 70
     1
102
RTVSPropertyOp1
 70
     1
102
RTVSPropertyOp2
 70
     1
102
RTVSPropertyOp3
 70
     1
102
RTVSPropertyOp4
 70
     1
102
RTVSPropertyOp5
 70
     1
102
RTVSPropertyOp6
 70
     1
102
RTVSPropertyOp7
 70
     1
102
RTVSPropertyOp8
 70
     1
102
RTVSPropertyOp9
 70
     1
102
RTVSPropertyOp10
 70
     1
102
RTVSPropertyOp11
 70
     1
102
RTVSPropertyOp12
 70
     1
102
RTVSPropertyOp13
 70
     1
102
RTVSPropertyOp14
 70
     1
102
RTVSPropertyOp15
 70
     1
102
RTVSPropertyOp16
 70
     1
102
RTVSPropertyOp17
 70
     1
102
RTVSPropertyOp18
 70
     1
102
RTVSPropertyOp19
 70
     1
102
RTVSPropertyOp20
 70
     1
102
RTVSPropertyOp21
 70
     1
102
RTVSPropertyOp22
 70
     1
102
RTVSPropertyOp23
 70
     1
102
RTVSPropertyOp24
 70
     1
102
RTVSPropertyOp25
 70
     1
102
RTVSPropertyOp26
 70
     1
102
RTVSPropertyOp27
 70
     1
102
RTVSPropertyOp28
 70
     1
102
RTVSPropertyOp29
 70
     1
102
RTVSPropertyOp30
 70
     1
102
RTVSPropertyOp31
 70
     1
102
RTVSPropertyOp32
 70
     1
102
RTVSPropertyOp33
 70
     1
102
RTVSPropertyOp34
 70
     1
102
RTVSPropertyOp35
 70
     1
102
RTVSPropertyOp36
 70
     1
102
RTVSPropertyOp37
 70
     1
102
RTVSPropertyOp38
 70
     1
102
RTVSPropertyOp39
 70
     1
102
RTVSPropertyOp40
 70
     1
102
RTVSPropertyOp41
 70
     1
102
RTVSPropertyOp42
 70
     1
102
RTVSPropertyOp43
 70
     1
102
RTVSPropertyOp44
 70
     1
102
RTVSPropertyOp45
 70
     1
102
RTVSPropertyOp46
 70
     1
102
RTVSPropertyOp47
 70
     1
102
RTVSPropertyOp48
 70
     1
102
RTVSPropertyOp49
 70
     1
102
RTVSPropertyOp50
 70
     1
102
RTVSPropertyOp51
 70
     0
102
RTVSPropertyOp52
 70
     0
102
RTVSPropertyOp53
 70
     1
102
RTVSPropertyOp54
 70
     1
102
RTVSPropertyOp55
 70
     1
102
RTVSPropertyOp56
 70
     1
102
RTVSPropertyOp57
 70
     1
102
RTVSPost2010Prop28
280
     0
102
RTVSPost2010PropOp28
 70
     1
102
RTVSPost2010Prop29
280
     1
102
RTVSPost2010PropOp29
 70
     1
102
RTVSPost2010Prop30
280
     1
102
RTVSPost2010PropOp30
 70
     1
102
RTVSPost2010Prop31
280
     0
102
RTVSPost2010PropOp31
 70
     1
102
RTVSPost2010Prop32
280
     0
102
RTVSPost2010PropOp32
 70
     1
102
RTVSPost2010Prop33
280
     0
102
RTVSPost2010PropOp33
 70
     1
102
RTVSPost2010Prop34
280
     0
102
RTVSPost2010PropOp34
 70
     1
102
RTVSPost2010Prop35
280
     0
102
RTVSPost2010PropOp35
 70
     1
102
RTVSPost2010Prop36
280
     0
102
RTVSPost2010PropOp36
 70
     1
102
RTVSPost2010Prop37
 90
       50
102
RTVSPost2010PropOp37
 70
     1
102
RTVSPost2010Prop38
140
0.0
102
RTVSPost2010PropOp38
 70
     1
102
RTVSPost2010Prop39
140
1.0
102
RTVSPost2010PropOp39
 70
     1
102
RTVSPost2010Prop40
 90
        0
102
RTVSPost2010PropOp40
 70
     1
102
RTVSPost2010Prop41ColorIndex
 90
       18
102
RTVSPost2010Prop41ColorRGB
 90
        0
102
RTVSPost2010PropOp41
 70
     1
102
RTVSPost2010Prop42
 90
       50
102
RTVSPost2010PropOp42
 70
     1
102
RTVSPost2010Prop43
 90
        3
102
RTVSPost2010PropOp43
 70
     1
102
RTVSPost2010Prop44ColorIndex
 90
        5
102
RTVSPost2010Prop44ColorRGB
 90
      255
102
RTVSPost2010PropOp44
 70
     1
102
RTVSPost2010Prop45
280
     0
102
RTVSPost2010PropOp45
 70
     1
102
RTVSPost2010Prop46
 90
       50
102
RTVSPost2010PropOp46
 70
     1
102
RTVSPost2010Prop47
 90
       50
102
RTVSPost2010PropOp47
 70
     1
102
RTVSPost2010Prop48
 90
       50
102
RTVSPost2010PropOp48
 70
     1
102
RTVSPost2010Prop49
280
     0
102
RTVSPost2010PropOp49
 70
     1
102
RTVSPost2010Prop50
 90
       50
102
RTVSPost2010PropOp50
 70
     1
102
RTVSPost2010Prop51ColorIndex
 90
      256
102
RTVSPost2010Prop51ColorRGB
 90
-16777216
102
RTVSPost2010PropOp51
 70
     0
102
RTVSPost2010Prop52
140
1.0
102
RTVSPost2010PropOp52
 70
     0
102
RTVSPost2010Prop53
 90
        2
102
RTVSPost2010PropOp53
 70
     1
102
RTVSPost2010Prop54
  1
strokes_ogs.tif
102
RTVSPost2010PropOp54
 70
     1
102
RTVSPost2010Prop55
280
     0
102
RTVSPost2010PropOp55
 70
     1
102
RTVSPost2010Prop56
140
1.0
102
RTVSPost2010PropOp56
 70
     1
102
RTVSPost2010Prop57
140
1.0
102
RTVSPost2010PropOp57
 70
     1
  0
XRECORD
  5
379
102
{ACAD_REACTORS
330
378
102
}
330
378
100
AcDbXrecord
280
     1
102
RTVSPropertyOp0
 70
     1
102
RTVSPropertyOp1
 70
     1
102
RTVSPropertyOp2
 70
     1
102
RTVSPropertyOp3
 70
     1
102
RTVSPropertyOp4
 70
     1
102
RTVSPropertyOp5
 70
     1
102
RTVSPropertyOp6
 70
     1
102
RTVSPropertyOp7
 70
     1
102
RTVSPropertyOp8
 70
     1
102
RTVSPropertyOp9
 70
     1
102
RTVSPropertyOp10
 70
     1
102
RTVSPropertyOp11
 70
     1
102
RTVSPropertyOp12
 70
     1
102
RTVSPropertyOp13
 70
     1
102
RTVSPropertyOp14
 70
     1
102
RTVSPropertyOp15
 70
     1
102
RTVSPropertyOp16
 70
     1
102
RTVSPropertyOp17
 70
     1
102
RTVSPropertyOp18
 70
     1
102
RTVSPropertyOp19
 70
     1
102
RTVSPropertyOp20
 70
     1
102
RTVSPropertyOp21
 70
     1
102
RTVSPropertyOp22
 70
     1
102
RTVSPropertyOp23
 70
     1
102
RTVSPropertyOp24
 70
     1
102
RTVSPropertyOp25
 70
     1
102
RTVSPropertyOp26
 70
     1
102
RTVSPropertyOp27
 70
     1
102
RTVSPropertyOp28
 70
     1
102
RTVSPropertyOp29
 70
     1
102
RTVSPropertyOp30
 70
     1
102
RTVSPropertyOp31
 70
     1
102
RTVSPropertyOp32
 70
     1
102
RTVSPropertyOp33
 70
     1
102
RTVSPropertyOp34
 70
     1
102
RTVSPropertyOp35
 70
     1
102
RTVSPropertyOp36
 70
     1
102
RTVSPropertyOp37
 70
     1
102
RTVSPropertyOp38
 70
     1
102
RTVSPropertyOp39
 70
     1
102
RTVSPropertyOp40
 70
     1
102
RTVSPropertyOp41
 70
     1
102
RTVSPropertyOp42
 70
     1
102
RTVSPropertyOp43
 70
     1
102
RTVSPropertyOp44
 70
     1
102
RTVSPropertyOp45
 70
     1
102
RTVSPropertyOp46
 70
     1
102
RTVSPropertyOp47
 70
     1
102
RTVSPropertyOp48
 70
     1
102
RTVSPropertyOp49
 70
     1
102
RTVSPropertyOp50
 70
     1
102
RTVSPropertyOp51
 70
     0
102
RTVSPropertyOp52
 70
     0
102
RTVSPropertyOp53
 70
     1
102
RTVSPropertyOp54
 70
     1
102
RTVSPropertyOp55
 70
     1
102
RTVSPropertyOp56
 70
     1
102
RTVSPropertyOp57
 70
     1
102
RTVSPost2010Prop28
280
     0
102
RTVSPost2010PropOp28
 70
     1
102
RTVSPost2010Prop29
280
     1
102
RTVSPost2010PropOp29
 70
     1
102
RTVSPost2010Prop30
280
     1
102
RTVSPost2010PropOp30
 70
     1
102
RTVSPost2010Prop31
280
     0
102
RTVSPost2010PropOp31
 70
     1
102
RTVSPost2010Prop32
280
     0
102
RTVSPost2010PropOp32
 70
     1
102
RTVSPost2010Prop33
280
     0
102
RTVSPost2010PropOp33
 70
     1
102
RTVSPost2010Prop34
280
     0
102
RTVSPost2010PropOp34
 70
     1
102
RTVSPost2010Prop35
280
     0
102
RTVSPost2010PropOp35
 70
     1
102
RTVSPost2010Prop36
280
     0
102
RTVSPost2010PropOp36
 70
     1
102
RTVSPost2010Prop37
 90
       50
102
RTVSPost2010PropOp37
 70
     1
102
RTVSPost2010Prop38
140
0.0
102
RTVSPost2010PropOp38
 70
     1
102
RTVSPost2010Prop39
140
1.0
102
RTVSPost2010PropOp39
 70
     1
102
RTVSPost2010Prop40
 90
        0
102
RTVSPost2010PropOp40
 70
     1
102
RTVSPost2010Prop41ColorIndex
 90
       18
102
RTVSPost2010Prop41ColorRGB
 90
        0
102
RTVSPost2010PropOp41
 70
     1
102
RTVSPost2010Prop42
 90
       50
102
RTVSPost2010PropOp42
 70
     1
102
RTVSPost2010Prop43
 90
        3
102
RTVSPost2010PropOp43
 70
     1
102
RTVSPost2010Prop44ColorIndex
 90
        5
102
RTVSPost2010Prop44ColorRGB
 90
      255
102
RTVSPost2010PropOp44
 70
     1
102
RTVSPost2010Prop45
280
     0
102
RTVSPost2010PropOp45
 70
     1
102
RTVSPost2010Prop46
 90
       50
102
RTVSPost2010PropOp46
 70
     1
102
RTVSPost2010Prop47
 90
       50
102
RTVSPost2010PropOp47
 70
     1
102
RTVSPost2010Prop48
 90
       50
102
RTVSPost2010PropOp48
 70
     1
102
RTVSPost2010Prop49
280
     0
102
RTVSPost2010PropOp49
 70
     1
102
RTVSPost2010Prop50
 90
       50
102
RTVSPost2010PropOp50
 70
     1
102
RTVSPost2010Prop51ColorIndex
 90
      256
102
RTVSPost2010Prop51ColorRGB
 90
-16777216
102
RTVSPost2010PropOp51
 70
     0
102
RTVSPost2010Prop52
140
1.0
102
RTVSPost2010PropOp52
 70
     0
102
RTVSPost2010Prop53
 90
        2
102
RTVSPost2010PropOp53
 70
     1
102
RTVSPost2010Prop54
  1
strokes_ogs.tif
102
RTVSPost2010PropOp54
 70
     1
102
RTVSPost2010Prop55
280
     0
102
RTVSPost2010PropOp55
 70
     1
102
RTVSPost2010Prop56
140
1.0
102
RTVSPost2010PropOp56
 70
     1
102
RTVSPost2010Prop57
140
1.0
102
RTVSPost2010PropOp57
 70
     1
  0
XRECORD
  5
399
102
{ACAD_REACTORS
330
398
102
}
330
398
100
AcDbXrecord
280
     1
102
RTVSPropertyOp0
 70
     1
102
RTVSPropertyOp1
 70
     1
102
RTVSPropertyOp2
 70
     1
102
RTVSPropertyOp3
 70
     1
102
RTVSPropertyOp4
 70
     1
102
RTVSPropertyOp5
 70
     1
102
RTVSPropertyOp6
 70
     1
102
RTVSPropertyOp7
 70
     1
102
RTVSPropertyOp8
 70
     1
102
RTVSPropertyOp9
 70
     1
102
RTVSPropertyOp10
 70
     1
102
RTVSPropertyOp11
 70
     1
102
RTVSPropertyOp12
 70
     1
102
RTVSPropertyOp13
 70
     1
102
RTVSPropertyOp14
 70
     1
102
RTVSPropertyOp15
 70
     1
102
RTVSPropertyOp16
 70
     1
102
RTVSPropertyOp17
 70
     1
102
RTVSPropertyOp18
 70
     1
102
RTVSPropertyOp19
 70
     1
102
RTVSPropertyOp20
 70
     1
102
RTVSPropertyOp21
 70
     1
102
RTVSPropertyOp22
 70
     1
102
RTVSPropertyOp23
 70
     1
102
RTVSPropertyOp24
 70
     1
102
RTVSPropertyOp25
 70
     1
102
RTVSPropertyOp26
 70
     1
102
RTVSPropertyOp27
 70
     1
102
RTVSPropertyOp28
 70
     1
102
RTVSPropertyOp29
 70
     1
102
RTVSPropertyOp30
 70
     1
102
RTVSPropertyOp31
 70
     1
102
RTVSPropertyOp32
 70
     1
102
RTVSPropertyOp33
 70
     1
102
RTVSPropertyOp34
 70
     1
102
RTVSPropertyOp35
 70
     1
102
RTVSPropertyOp36
 70
     1
102
RTVSPropertyOp37
 70
     1
102
RTVSPropertyOp38
 70
     1
102
RTVSPropertyOp39
 70
     1
102
RTVSPropertyOp40
 70
     1
102
RTVSPropertyOp41
 70
     1
102
RTVSPropertyOp42
 70
     1
102
RTVSPropertyOp43
 70
     1
102
RTVSPropertyOp44
 70
     1
102
RTVSPropertyOp45
 70
     1
102
RTVSPropertyOp46
 70
     1
102
RTVSPropertyOp47
 70
     1
102
RTVSPropertyOp48
 70
     1
102
RTVSPropertyOp49
 70
     1
102
RTVSPropertyOp50
 70
     1
102
RTVSPropertyOp51
 70
     0
102
RTVSPropertyOp52
 70
     0
102
RTVSPropertyOp53
 70
     1
102
RTVSPropertyOp54
 70
     1
102
RTVSPropertyOp55
 70
     1
102
RTVSPropertyOp56
 70
     1
102
RTVSPropertyOp57
 70
     1
102
RTVSPost2010Prop28
280
     0
102
RTVSPost2010PropOp28
 70
     1
102
RTVSPost2010Prop29
280
     1
102
RTVSPost2010PropOp29
 70
     1
102
RTVSPost2010Prop30
280
     1
102
RTVSPost2010PropOp30
 70
     1
102
RTVSPost2010Prop31
280
     0
102
RTVSPost2010PropOp31
 70
     1
102
RTVSPost2010Prop32
280
     0
102
RTVSPost2010PropOp32
 70
     1
102
RTVSPost2010Prop33
280
     0
102
RTVSPost2010PropOp33
 70
     1
102
RTVSPost2010Prop34
280
     0
102
RTVSPost2010PropOp34
 70
     1
102
RTVSPost2010Prop35
280
     0
102
RTVSPost2010PropOp35
 70
     1
102
RTVSPost2010Prop36
280
     0
102
RTVSPost2010PropOp36
 70
     1
102
RTVSPost2010Prop37
 90
       50
102
RTVSPost2010PropOp37
 70
     1
102
RTVSPost2010Prop38
140
0.0
102
RTVSPost2010PropOp38
 70
     1
102
RTVSPost2010Prop39
140
1.0
102
RTVSPost2010PropOp39
 70
     1
102
RTVSPost2010Prop40
 90
        0
102
RTVSPost2010PropOp40
 70
     1
102
RTVSPost2010Prop41ColorIndex
 90
       18
102
RTVSPost2010Prop41ColorRGB
 90
        0
102
RTVSPost2010PropOp41
 70
     1
102
RTVSPost2010Prop42
 90
       50
102
RTVSPost2010PropOp42
 70
     1
102
RTVSPost2010Prop43
 90
        3
102
RTVSPost2010PropOp43
 70
     1
102
RTVSPost2010Prop44ColorIndex
 90
        5
102
RTVSPost2010Prop44ColorRGB
 90
      255
102
RTVSPost2010PropOp44
 70
     1
102
RTVSPost2010Prop45
280
     0
102
RTVSPost2010PropOp45
 70
     1
102
RTVSPost2010Prop46
 90
       50
102
RTVSPost2010PropOp46
 70
     1
102
RTVSPost2010Prop47
 90
       50
102
RTVSPost2010PropOp47
 70
     1
102
RTVSPost2010Prop48
 90
       50
102
RTVSPost2010PropOp48
 70
     1
102
RTVSPost2010Prop49
280
     0
102
RTVSPost2010PropOp49
 70
     1
102
RTVSPost2010Prop50
 90
       50
102
RTVSPost2010PropOp50
 70
     1
102
RTVSPost2010Prop51ColorIndex
 90
      256
102
RTVSPost2010Prop51ColorRGB
 90
-16777216
102
RTVSPost2010PropOp51
 70
     0
102
RTVSPost2010Prop52
140
1.0
102
RTVSPost2010PropOp52
 70
     0
102
RTVSPost2010Prop53
 90
        2
102
RTVSPost2010PropOp53
 70
     1
102
RTVSPost2010Prop54
  1
strokes_ogs.tif
102
RTVSPost2010PropOp54
 70
     1
102
RTVSPost2010Prop55
280
     0
102
RTVSPost2010PropOp55
 70
     1
102
RTVSPost2010Prop56
140
1.0
102
RTVSPost2010PropOp56
 70
     1
102
RTVSPost2010Prop57
140
1.0
102
RTVSPost2010PropOp57
 70
     1
  0
ENDSEC
  0
EOF
