  0
SECTION
  2
HEADER
  9
$ACADVER
  1
AC1018
  9
$ACADMAINTVER
 70
     0
  9
$DWGCODEPAGE
  3
ANSI_932
  9
$INSBASE
 10
0.0
 20
0.0
 30
0.0
  9
$EXTMIN
 10
-1260.0
 20
-891.0
 30
0.0
  9
$EXTMAX
 10
1260.0
 20
891.0
 30
0.0
  9
$LIMMIN
 10
-1260.0
 20
-891.0
  9
$LIMMAX
 10
1260.0
 20
891.0
  9
$ORTHOMODE
 70
     0
  9
$REGENMODE
 70
     1
  9
$FILLMODE
 70
     1
  9
$QTEXTMODE
 70
     0
  9
$MIRRTEXT
 70
     1
  9
$LTSCALE
 40
6.0
  9
$ATTMODE
 70
     1
  9
$TEXTSIZE
 40
2.5
  9
$TRACEWID
 40
1.0
  9
$TEXTSTYLE
  7
Standard
  9
$CLAYER
  8
0
  9
$CELTYPE
  6
ByLayer
  9
$CECOLOR
 62
   256
  9
$CELTSCALE
 40
1.0
  9
$DISPSILH
 70
     0
  9
$DIMSCALE
 40
1.0
  9
$DIMASZ
 40
2.5
  9
$DIMEXO
 40
0.625
  9
$DIMDLI
 40
3.75
  9
$DIMRND
 40
0.0
  9
$DIMDLE
 40
0.0
  9
$DIMEXE
 40
1.25
  9
$DIMTP
 40
0.0
  9
$DIMTM
 40
0.0
  9
$DIMTXT
 40
2.5
  9
$DIMCEN
 40
2.5
  9
$DIMTSZ
 40
0.0
  9
$DIMTOL
 70
     0
  9
$DIMLIM
 70
     0
  9
$DIMTIH
 70
     0
  9
$DIMTOH
 70
     0
  9
$DIMSE1
 70
     0
  9
$DIMSE2
 70
     0
  9
$DIMTAD
 70
     1
  9
$DIMZIN
 70
     8
  9
$DIMBLK
  1

  9
$DIMASO
 70
     1
  9
$DIMSHO
 70
     1
  9
$DIMPOST
  1

  9
$DIMAPOST
  1

  9
$DIMALT
 70
     0
  9
$DIMALTD
 70
     3
  9
$DIMALTF
 40
0.03937007874016
  9
$DIMLFAC
 40
1.0
  9
$DIMTOFL
 70
     1
  9
$DIMTVP
 40
0.0
  9
$DIMTIX
 70
     0
  9
$DIMSOXD
 70
     0
  9
$DIMSAH
 70
     0
  9
$DIMBLK1
  1

  9
$DIMBLK2
  1

  9
$DIMSTYLE
  2
ISO-25
  9
$DIMCLRD
 70
     0
  9
$DIMCLRE
 70
     0
  9
$DIMCLRT
 70
     0
  9
$DIMTFAC
 40
1.0
  9
$DIMGAP
 40
0.625
  9
$DIMJUST
 70
     0
  9
$DIMSD1
 70
     0
  9
$DIMSD2
 70
     0
  9
$DIMTOLJ
 70
     0
  9
$DIMTZIN
 70
     8
  9
$DIMALTZ
 70
     0
  9
$DIMALTTZ
 70
     0
  9
$DIMUPT
 70
     0
  9
$DIMDEC
 70
     2
  9
$DIMTDEC
 70
     2
  9
$DIMALTU
 70
     2
  9
$DIMALTTD
 70
     3
  9
$DIMTXSTY
  7
Standard
  9
$DIMAUNIT
 70
     0
  9
$DIMADEC
 70
     0
  9
$DIMALTRND
 40
0.0
  9
$DIMAZIN
 70
     0
  9
$DIMDSEP
 70
    44
  9
$DIMATFIT
 70
     3
  9
$DIMFRAC
 70
     0
  9
$DIMLDRBLK
  1

  9
$DIMLUNIT
 70
     2
  9
$DIMLWD
 70
    -2
  9
$DIMLWE
 70
    -2
  9
$DIMTMOVE
 70
     0
  9
$LUNITS
 70
     2
  9
$LUPREC
 70
     4
  9
$SKETCHINC
 40
1.0
  9
$FILLETRAD
 40
10.0
  9
$AUNITS
 70
     0
  9
$AUPREC
 70
     0
  9
$MENU
  1
.
  9
$ELEVATION
 40
0.0
  9
$PELEVATION
 40
0.0
  9
$THICKNESS
 40
0.0
  9
$LIMCHECK
 70
     0
  9
$CHAMFERA
 40
0.0
  9
$CHAMFERB
 40
0.0
  9
$CHAMFERC
 40
0.0
  9
$CHAMFERD
 40
0.0
  9
$SKPOLY
 70
     0
  9
$TDCREATE
 40
2459417.360545648
  9
$TDUCREATE
 40
2459416.985545648
  9
$TDUPDATE
 40
2459417.360545775
  9
$TDUUPDATE
 40
2459416.985545775
  9
$TDINDWG
 40
0.0000000116
  9
$TDUSRTIMER
 40
0.0000000116
  9
$USRTIMER
 70
     1
  9
$ANGBASE
 50
0.0
  9
$ANGDIR
 70
     0
  9
$PDMODE
 70
     0
  9
$PDSIZE
 40
0.0
  9
$PLINEWID
 40
0.0
  9
$SPLFRAME
 70
     0
  9
$SPLINETYPE
 70
     6
  9
$SPLINESEGS
 70
     8
  9
$HANDSEED
  5
369
  9
$SURFTAB1
 70
     6
  9
$SURFTAB2
 70
     6
  9
$SURFTYPE
 70
     6
  9
$SURFU
 70
     6
  9
$SURFV
 70
     6
  9
$UCSBASE
  2

  9
$UCSNAME
  2

  9
$UCSORG
 10
0.0
 20
0.0
 30
0.0
  9
$UCSXDIR
 10
1.0
 20
0.0
 30
0.0
  9
$UCSYDIR
 10
0.0
 20
1.0
 30
0.0
  9
$UCSORTHOREF
  2

  9
$UCSORTHOVIEW
 70
     0
  9
$UCSORGTOP
 10
0.0
 20
0.0
 30
0.0
  9
$UCSORGBOTTOM
 10
0.0
 20
0.0
 30
0.0
  9
$UCSORGLEFT
 10
0.0
 20
0.0
 30
0.0
  9
$UCSORGRIGHT
 10
0.0
 20
0.0
 30
0.0
  9
$UCSORGFRONT
 10
0.0
 20
0.0
 30
0.0
  9
$UCSORGBACK
 10
0.0
 20
0.0
 30
0.0
  9
$PUCSBASE
  2

  9
$PUCSNAME
  2

  9
$PUCSORG
 10
0.0
 20
0.0
 30
0.0
  9
$PUCSXDIR
 10
1.0
 20
0.0
 30
0.0
  9
$PUCSYDIR
 10
0.0
 20
1.0
 30
0.0
  9
$PUCSORTHOREF
  2

  9
$PUCSORTHOVIEW
 70
     0
  9
$PUCSORGTOP
 10
0.0
 20
0.0
 30
0.0
  9
$PUCSORGBOTTOM
 10
0.0
 20
0.0
 30
0.0
  9
$PUCSORGLEFT
 10
0.0
 20
0.0
 30
0.0
  9
$PUCSORGRIGHT
 10
0.0
 20
0.0
 30
0.0
  9
$PUCSORGFRONT
 10
0.0
 20
0.0
 30
0.0
  9
$PUCSORGBACK
 10
0.0
 20
0.0
 30
0.0
  9
$USERI1
 70
     0
  9
$USERI2
 70
     0
  9
$USERI3
 70
     0
  9
$USERI4
 70
     0
  9
$USERI5
 70
     0
  9
$USERR1
 40
0.0
  9
$USERR2
 40
0.0
  9
$USERR3
 40
0.0
  9
$USERR4
 40
0.0
  9
$USERR5
 40
0.0
  9
$WORLDVIEW
 70
     1
  9
$SHADEDGE
 70
     3
  9
$SHADEDIF
 70
    70
  9
$TILEMODE
 70
     1
  9
$MAXACTVP
 70
    64
  9
$PINSBASE
 10
0.0
 20
0.0
 30
0.0
  9
$PLIMCHECK
 70
     0
  9
$PEXTMIN
 10
1.000000000000000E+20
 20
1.000000000000000E+20
 30
1.000000000000000E+20
  9
$PEXTMAX
 10
-1.000000000000000E+20
 20
-1.000000000000000E+20
 30
-1.000000000000000E+20
  9
$PLIMMIN
 10
0.0
 20
0.0
  9
$PLIMMAX
 10
420.0
 20
297.0
  9
$UNITMODE
 70
     0
  9
$VISRETAIN
 70
     1
  9
$PLINEGEN
 70
     0
  9
$PSLTSCALE
 70
     1
  9
$TREEDEPTH
 70
  3020
  9
$CMLSTYLE
  2
Standard
  9
$CMLJUST
 70
     0
  9
$CMLSCALE
 40
20.0
  9
$PROXYGRAPHICS
 70
     1
  9
$MEASUREMENT
 70
     1
  9
$CELWEIGHT
370
    -1
  9
$ENDCAPS
280
     0
  9
$JOINSTYLE
280
     0
  9
$LWDISPLAY
290
     0
  9
$INSUNITS
 70
     4
  9
$HYPERLINKBASE
  1

  9
$STYLESHEET
  1

  9
$XEDIT
290
     1
  9
$CEPSNTYPE
380
     0
  9
$PSTYLEMODE
290
     1
  9
$FINGERPRINTGUID
  2
{1E2CFACD-8A94-4F89-ADA8-9C5FDF1E81E5}
  9
$VERSIONGUID
  2
{FAEB1C32-E019-11D5-929B-00C0DF256EC4}
  9
$EXTNAMES
290
     1
  9
$PSVPSCALE
 40
0.0
  9
$OLESTARTUP
290
     0
  9
$SORTENTS
280
   127
  9
$INDEXCTL
280
     0
  9
$HIDETEXT
280
     1
  9
$XCLIPFRAME
290
     0
  9
$HALOGAP
280
     0
  9
$OBSCOLOR
 70
   257
  9
$OBSLTYPE
280
     0
  9
$INTERSECTIONDISPLAY
280
     0
  9
$INTERSECTIONCOLOR
 70
   257
  9
$DIMASSOC
280
     2
  9
$PROJECTNAME
  1

  0
ENDSEC
  0
SECTION
  2
CLASSES
  0
CLASS
  1
ACDBDICTIONARYWDFLT
  2
AcDbDictionaryWithDefault
  3
ObjectDBX Classes
 90
        0
 91
        4
280
     0
281
     0
  0
CLASS
  1
VISUALSTYLE
  2
AcDbVisualStyle
  3
ObjectDBX Classes
 90
     4095
 91
        4
280
     0
281
     0
  0
CLASS
  1
MATERIAL
  2
AcDbMaterial
  3
ObjectDBX Classes
 90
     1153
 91
        4
280
     0
281
     0
  0
CLASS
  1
SCALE
  2
AcDbScale
  3
ObjectDBX Classes
 90
     1153
 91
        4
280
     0
281
     0
  0
CLASS
  1
TABLESTYLE
  2
AcDbTableStyle
  3
ObjectDBX Classes
 90
     4095
 91
        4
280
     0
281
     0
  0
CLASS
  1
MLEADERSTYLE
  2
AcDbMLeaderStyle
  3
ACDB_MLEADERSTYLE_CLASS
 90
     4095
 91
        4
280
     0
281
     0
  0
CLASS
  1
SUN
  2
AcDbSun
  3
SCENEOE
 90
     1153
 91
        4
280
     0
281
     0
  0
CLASS
  1
DICTIONARYVAR
  2
AcDbDictionaryVar
  3
ObjectDBX Classes
 90
        0
 91
        4
280
     0
281
     0
  0
CLASS
  1
CELLSTYLEMAP
  2
AcDbCellStyleMap
  3
ObjectDBX Classes
 90
     1152
 91
        4
280
     0
281
     0
  0
ENDSEC
  0
SECTION
  2
TABLES
  0
TABLE
  2
VPORT
  5
8
102
{ACAD_XDICTIONARY
360
320
102
}
330
0
100
AcDbSymbolTable
 70
     1
  0
VPORT
  5
29
330
8
100
AcDbSymbolTableRecord
100
AcDbViewportTableRecord
  2
*Active
 70
     0
 10
0.0
 20
0.0
 11
1.0
 21
1.0
 12
0.0
 22
0.0
 13
0.0
 23
0.0
 14
10.0
 24
10.0
 15
10.0
 25
10.0
 16
0.0
 26
0.0
 36
1.0
 17
0.0
 27
0.0
 37
0.0
 40
1960.2
 41
1.414141414141414
 42
50.0
 43
0.0
 44
0.0
 50
0.0
 51
0.0
 71
     0
 72
 10000
 73
     1
 74
     3
 75
     0
 76
     0
 77
     0
 78
     0
281
     0
 65
     1
110
0.0
120
0.0
130
0.0
111
1.0
121
0.0
131
0.0
112
0.0
122
1.0
132
0.0
 79
     0
146
0.0
  0
ENDTAB
  0
TABLE
  2
LTYPE
  5
5
330
0
100
AcDbSymbolTable
 70
     3
  0
LTYPE
  5
14
330
5
100
AcDbSymbolTableRecord
100
AcDbLinetypeTableRecord
  2
ByBlock
 70
     0
  3

 72
    65
 73
     0
 40
0.0
  0
LTYPE
  5
15
330
5
100
AcDbSymbolTableRecord
100
AcDbLinetypeTableRecord
  2
ByLayer
 70
     0
  3

 72
    65
 73
     0
 40
0.0
  0
LTYPE
  5
16
330
5
100
AcDbSymbolTableRecord
100
AcDbLinetypeTableRecord
  2
Continuous
 70
     0
  3
Solid line
 72
    65
 73
     0
 40
0.0
  0
LTYPE
  5
6F
330
5
100
AcDbSymbolTableRecord
100
AcDbLinetypeTableRecord
  2
JWW_CENTER1
 70
     0
  3
-----  --  ----------  --  -----
 72
    65
 73
     4
 40
6.773333333333333
 49
4.233333333333333
 74
     0
 49
-0.8466666666666667
 74
     0
 49
0.8466666666666667
 74
     0
 49
-0.8466666666666667
 74
     0
  0
LTYPE
  5
70
330
5
100
AcDbSymbolTableRecord
100
AcDbLinetypeTableRecord
  2
JWW_DASHED1
 70
     0
  3
-  --  --  --  --  --  --  --  -
 72
    65
 73
     2
 40
1.693333333333333
 49
0.8466666666666667
 74
     0
 49
-0.8466666666666667
 74
     0
  0
ENDTAB
  0
TABLE
  2
LAYER
  5
2
330
0
100
AcDbSymbolTable
 70
    13
  0
LAYER
  5
10
330
2
100
AcDbSymbolTableRecord
100
AcDbLayerTableRecord
  2
0
 70
     0
 62
     7
  6
Continuous
370
    -3
390
F
  0
LAYER
  5
71
330
2
100
AcDbSymbolTableRecord
100
AcDbLayerTableRecord
  2
1-E
 70
     0
 62
     7
  6
Continuous
370
    -3
390
F
  0
LAYER
  5
72
330
2
100
AcDbSymbolTableRecord
100
AcDbLayerTableRecord
  2
1-F
 70
     0
 62
     7
  6
Continuous
370
    -3
390
F
  0
LAYER
  5
73
330
2
100
AcDbSymbolTableRecord
100
AcDbLayerTableRecord
  2
1-3ﾚｲﾔ
 70
     0
 62
     7
  6
Continuous
370
    -3
390
F
  0
LAYER
  5
74
330
2
100
AcDbSymbolTableRecord
100
AcDbLayerTableRecord
  2
2-Fﾚｲﾔ
 70
     0
 62
     7
  6
Continuous
370
    -3
390
F
  0
LAYER
  5
75
330
2
100
AcDbSymbolTableRecord
100
AcDbLayerTableRecord
  2
2-1
 70
     0
 62
     7
  6
Continuous
370
    -3
390
F
  0
LAYER
  5
76
330
2
100
AcDbSymbolTableRecord
100
AcDbLayerTableRecord
  2
F-5ﾚｲﾔ
 70
     0
 62
     7
  6
Continuous
370
    -3
390
F
  0
LAYER
  5
77
330
2
100
AcDbSymbolTableRecord
100
AcDbLayerTableRecord
  2
1-1ﾚｲﾔ
 70
     0
 62
     7
  6
Continuous
370
    -3
390
F
  0
LAYER
  5
78
330
2
100
AcDbSymbolTableRecord
100
AcDbLayerTableRecord
  2
1-4ﾚｲﾔ
 70
     0
 62
     7
  6
Continuous
370
    -3
390
F
  0
LAYER
  5
79
330
2
100
AcDbSymbolTableRecord
100
AcDbLayerTableRecord
  2
1-0ﾚｲﾔ
 70
     0
 62
     7
  6
Continuous
370
    -3
390
F
  0
LAYER
  5
7A
330
2
100
AcDbSymbolTableRecord
100
AcDbLayerTableRecord
  2
1-7
 70
     0
 62
     7
  6
Continuous
370
    -3
390
F
  0
LAYER
  5
7B
330
2
100
AcDbSymbolTableRecord
100
AcDbLayerTableRecord
  2
1-5ﾚｲﾔ
 70
     0
 62
     7
  6
Continuous
370
    -3
390
F
  0
LAYER
  5
7C
330
2
100
AcDbSymbolTableRecord
100
AcDbLayerTableRecord
  2
1-A
 70
     0
 62
     7
  6
Continuous
370
    -3
390
F
  0
ENDTAB
  0
TABLE
  2
STYLE
  5
3
330
0
100
AcDbSymbolTable
 70
     2
  0
STYLE
  5
11
330
3
100
AcDbSymbolTableRecord
100
AcDbTextStyleTableRecord
  2
Standard
 70
     0
 40
0.0
 41
1.0
 50
0.0
 71
     0
 42
2.5
  3
txt
  4

  0
STYLE
  5
6E
330
3
100
AcDbSymbolTableRecord
100
AcDbTextStyleTableRecord
  2
ＭＳ ゴシック
 70
     0
 40
1.0
 41
1.0
 50
0.0
 71
     0
 42
2.5
  3

  4

1001
ACAD
1000
MS Gothic
1071
    32817
  0
ENDTAB
  0
TABLE
  2
VIEW
  5
6
330
0
100
AcDbSymbolTable
 70
     0
  0
ENDTAB
  0
TABLE
  2
UCS
  5
7
330
0
100
AcDbSymbolTable
 70
     0
  0
ENDTAB
  0
TABLE
  2
APPID
  5
9
330
0
100
AcDbSymbolTable
 70
     2
  0
APPID
  5
12
330
9
100
AcDbSymbolTableRecord
100
AcDbRegAppTableRecord
  2
ACAD
 70
     0
  0
APPID
  5
35F
330
9
100
AcDbSymbolTableRecord
100
AcDbRegAppTableRecord
  2
ACAD_MLEADERVER
 70
     0
  0
ENDTAB
  0
TABLE
  2
DIMSTYLE
  5
A
330
0
100
AcDbSymbolTable
 70
     1
100
AcDbDimStyleTable
  0
DIMSTYLE
105
27
330
A
100
AcDbSymbolTableRecord
100
AcDbDimStyleTableRecord
  2
ISO-25
 70
     0
 41
2.5
 42
0.625
 43
3.75
 44
1.25
 73
     0
 74
     0
 77
     1
 78
     8
140
2.5
141
2.5
143
0.03937007874016
147
0.625
171
     3
172
     1
178
     0
271
     2
272
     2
274
     3
278
    44
283
     0
284
     8
340
11
  0
ENDTAB
  0
TABLE
  2
BLOCK_RECORD
  5
1
330
0
100
AcDbSymbolTable
 70
     1
  0
BLOCK_RECORD
  5
1F
330
1
100
AcDbSymbolTableRecord
100
AcDbBlockTableRecord
  2
*Model_Space
340
22
  0
BLOCK_RECORD
  5
1B
330
1
100
AcDbSymbolTableRecord
100
AcDbBlockTableRecord
  2
*Paper_Space
340
1E
  0
BLOCK_RECORD
  5
23
330
1
100
AcDbSymbolTableRecord
100
AcDbBlockTableRecord
  2
*Paper_Space0
340
26
  0
ENDTAB
  0
ENDSEC
  0
SECTION
  2
BLOCKS
  0
BLOCK
  5
20
330
1F
100
AcDbEntity
  8
0
100
AcDbBlockBegin
  2
*Model_Space
 70
     0
 10
0.0
 20
0.0
 30
0.0
  3
*Model_Space
  1

  0
ENDBLK
  5
21
330
1F
100
AcDbEntity
  8
0
100
AcDbBlockEnd
  0
BLOCK
  5
1C
330
1B
100
AcDbEntity
 67
     1
  8
0
100
AcDbBlockBegin
  2
*Paper_Space
 70
     0
 10
0.0
 20
0.0
 30
0.0
  3
*Paper_Space
  1

  0
ENDBLK
  5
1D
330
1B
100
AcDbEntity
 67
     1
  8
0
100
AcDbBlockEnd
  0
BLOCK
  5
24
330
23
100
AcDbEntity
  8
0
100
AcDbBlockBegin
  2
*Paper_Space0
 70
     0
 10
0.0
 20
0.0
 30
0.0
  3
*Paper_Space0
  1

  0
ENDBLK
  5
25
330
23
100
AcDbEntity
  8
0
100
AcDbBlockEnd
  0
ENDSEC
  0
SECTION
  2
ENTITIES
  0
ELLIPSE
  5
7D
330
1F
100
AcDbEntity
  8
1-E
  6
Continuous
 62
     6
370
     5
100
AcDbEllipse
 10
869.1097184805664
 20
-182.7830135341388
 30
0.0
 11
8.835727968780935
 21
0.0
 31
0.0
210
0.0
220
0.0
230
1.0
 40
0.5773502691896226
 41
3.926990816987241
 42
7.068583470577035
  0
LINE
  5
7E
330
1F
100
AcDbEntity
  8
1-F
  6
Continuous
 62
     7
370
     9
100
AcDbLine
 10
898.3092303881191
 20
-513.1720844990498
 30
0.0
 11
896.0460129532563
 21
-538.9215276007006
 31
0.0
  0
LINE
  5
7F
330
1F
100
AcDbEntity
  8
1-F
  6
Continuous
 62
     7
370
     9
100
AcDbLine
 10
664.221755462021
 20
-576.4033021669129
 30
0.0
 11
651.9972384645547
 21
-571.3397926124367
 31
0.0
  0
LINE
  5
80
330
1F
100
AcDbEntity
  8
1-F
  6
Continuous
 62
     7
370
     9
100
AcDbLine
 10
677.9153226864719
 20
-584.3095612397065
 30
0.0
 11
688.0990550027728
 21
-588.5275689202385
 31
0.0
  0
LINE
  5
81
330
1F
100
AcDbEntity
  8
1-F
  6
Continuous
 62
     7
370
     9
100
AcDbLine
 10
664.221755462021
 20
-576.4033021669129
 30
0.0
 11
655.5550272103319
 21
-569.7531589817356
 31
0.0
  0
LINE
  5
82
330
1F
100
AcDbEntity
  8
1-F
  6
Continuous
 62
     7
370
     9
100
AcDbLine
 10
677.9153226864719
 20
-584.3095612397065
 30
0.0
 11
686.6420303511678
 21
-591.0058766957876
 31
0.0
  0
LINE
  5
83
330
1F
100
AcDbEntity
  8
1-F
  6
Continuous
 62
     7
370
     9
100
AcDbLine
 10
600.6826236788706
 20
-539.7192844700169
 30
0.0
 11
694.0500817130769
 21
-593.6249468004381
 31
0.0
  0
LINE
  5
84
330
1F
100
AcDbEntity
  8
1-F
  6
Continuous
 62
     7
370
     9
100
AcDbLine
 10
662.9079984677219
 20
-577.1583895296665
 30
0.0
 11
698.6486023528572
 21
-556.5236156566723
 31
0.0
  0
LINE
  5
85
330
1F
100
AcDbEntity
  8
1-F
  6
Continuous
 62
     7
370
     9
100
AcDbLine
 10
715.63109021181
 20
-562.531132878484
 30
0.0
 11
676.325571314006
 21
-585.224340077993
 31
0.0
  0
LINE
  5
86
330
1F
100
AcDbEntity
  8
1-F
  6
Continuous
 62
     7
370
     9
100
AcDbLine
 10
704.7014752941578
 20
-551.6233421531883
 30
0.0
 11
704.7014752941578
 21
-544.6397490630278
 31
0.0
  0
LINE
  5
87
330
1F
100
AcDbEntity
  8
1-F
  6
Continuous
 62
     7
370
     9
100
AcDbLine
 10
704.7014752941578
 20
-544.6397490630278
 30
0.0
 11
629.1012852603741
 21
-500.9919210897909
 31
0.0
  0
LINE
  5
88
330
1F
100
AcDbEntity
  8
1-F
  6
Continuous
 62
     7
370
     9
100
AcDbLine
 10
704.7014752941578
 20
-551.6233421531883
 30
0.0
 11
629.1012852603741
 21
-507.9755141799514
 31
0.0
  0
LINE
  5
89
330
1F
100
AcDbEntity
  8
1-F
  6
Continuous
 62
     7
370
     9
100
AcDbLine
 10
629.1012852603741
 20
-500.9919210897909
 30
0.0
 11
629.1012852603741
 21
-507.9755141799514
 31
0.0
  0
LINE
  5
8A
330
1F
100
AcDbEntity
  8
1-F
  6
Continuous
 62
     7
370
     9
100
AcDbLine
 10
715.2856147314466
 20
-542.0208459802576
 30
0.0
 11
712.2617021469872
 21
-547.2586521457981
 31
0.0
  0
LINE
  5
8B
330
1F
100
AcDbEntity
  8
1-F
  6
Continuous
 62
     7
370
     9
100
AcDbLine
 10
738.721085724901
 20
-531.9817917282517
 30
0.0
 11
735.697766996016
 21
-533.7275786528716
 31
0.0
  0
LINE
  5
8C
330
1F
100
AcDbEntity
  8
1-F
  6
Continuous
 62
     7
370
     9
100
AcDbLine
 10
712.2617021469872
 20
-547.2586521457981
 30
0.0
 11
704.7014752941578
 21
-551.6233421531883
 31
0.0
  0
LINE
  5
8D
330
1F
100
AcDbEntity
  8
1-F
  6
Continuous
 62
     7
370
     9
100
AcDbLine
 10
738.721085724901
 20
-531.9817917282517
 30
0.0
 11
738.721085724901
 21
-528.489772487331
 31
0.0
  0
LINE
  5
8E
330
1F
100
AcDbEntity
  8
1-F
  6
Continuous
 62
     7
370
     9
100
AcDbLine
 10
735.697766996016
 20
-532.8549078864021
 30
0.0
 11
735.697766996016
 21
-533.7275786528716
 31
0.0
  0
LINE
  5
8F
330
1F
100
AcDbEntity
  8
1-F
  6
Continuous
 62
     7
370
     9
100
AcDbLine
 10
733.4293871659906
 20
-531.5452336491765
 30
0.0
 11
715.2856147314466
 21
-542.0208459802576
 31
0.0
  0
LINE
  5
90
330
1F
100
AcDbEntity
  8
1-F
  6
Continuous
 62
     7
370
     9
100
AcDbLine
 10
735.697766996016
 20
-533.7275786528716
 30
0.0
 11
732.6735574837694
 21
-531.9817917282517
 31
0.0
  0
LINE
  5
91
330
1F
100
AcDbEntity
  8
1-F
  6
Continuous
 62
     7
370
     9
100
AcDbLine
 10
795.4210797863453
 20
-604.0005501412056
 30
0.0
 11
795.4210797863453
 21
-597.0171797468855
 31
0.0
  0
LINE
  5
92
330
1F
100
AcDbEntity
  8
1-F
  6
Continuous
 62
     7
370
     9
100
AcDbLine
 10
795.4210797863453
 20
-597.0171797468855
 30
0.0
 11
719.8213351442422
 21
-553.3691290778083
 31
0.0
  0
LINE
  5
93
330
1F
100
AcDbEntity
  8
1-F
  6
Continuous
 62
     7
370
     9
100
AcDbLine
 10
795.4210797863453
 20
-604.0005501412056
 30
0.0
 11
719.8213351442422
 21
-560.3527221679688
 31
0.0
  0
LINE
  5
94
330
1F
100
AcDbEntity
  8
1-F
  6
Continuous
 62
     7
370
     9
100
AcDbLine
 10
719.8213351442422
 20
-553.3691290778083
 30
0.0
 11
719.8213351442422
 21
-560.3527221679688
 31
0.0
  0
LINE
  5
95
330
1F
100
AcDbEntity
  8
1-F
  6
Continuous
 62
     7
370
     9
100
AcDbLine
 10
806.005664615315
 20
-594.3982766641153
 30
0.0
 11
802.9814551030685
 21
-599.6356374379751
 31
0.0
  0
LINE
  5
96
330
1F
100
AcDbEntity
  8
1-F
  6
Continuous
 62
     7
370
     9
100
AcDbLine
 10
829.4411356087694
 20
-584.358999716269
 30
0.0
 11
826.4178168798841
 21
-586.105213474583
 31
0.0
  0
LINE
  5
97
330
1F
100
AcDbEntity
  8
1-F
  6
Continuous
 62
     7
370
     9
100
AcDbLine
 10
802.9814551030685
 20
-599.6356374379751
 30
0.0
 11
795.4210797863453
 21
-604.0005501412056
 31
0.0
  0
LINE
  5
98
330
1F
100
AcDbEntity
  8
1-F
  6
Continuous
 62
     7
370
     9
100
AcDbLine
 10
867.2415275534485
 20
-562.5352898675042
 30
0.0
 11
867.2415275534485
 21
-559.0432706265835
 31
0.0
  0
LINE
  5
99
330
1F
100
AcDbEntity
  8
1-F
  6
Continuous
 62
     7
370
     9
100
AcDbLine
 10
870.265737065695
 20
-560.7895029428842
 30
0.0
 11
867.2415275534485
 21
-562.5352898675042
 31
0.0
  0
LINE
  5
9A
330
1F
100
AcDbEntity
  8
1-F
  6
Continuous
 62
     7
370
     9
100
AcDbLine
 10
867.2415275534485
 20
-559.0432706265835
 30
0.0
 11
829.4411356087694
 21
-580.8674073090424
 31
0.0
  0
LINE
  5
9B
330
1F
100
AcDbEntity
  8
1-F
  6
Continuous
 62
     7
370
     9
100
AcDbLine
 10
829.4411356087694
 20
-584.358999716269
 30
0.0
 11
829.4411356087694
 21
-580.8674073090424
 31
0.0
  0
LINE
  5
9C
330
1F
100
AcDbEntity
  8
1-F
  6
Continuous
 62
     7
370
     9
100
AcDbLine
 10
826.4178168798841
 20
-585.2320973164326
 30
0.0
 11
826.4178168798841
 21
-586.105213474583
 31
0.0
  0
LINE
  5
9D
330
1F
100
AcDbEntity
  8
1-F
  6
Continuous
 62
     7
370
     9
100
AcDbLine
 10
824.1494370498588
 20
-583.9226457750475
 30
0.0
 11
806.005664615315
 21
-594.3982766641153
 31
0.0
  0
LINE
  5
9E
330
1F
100
AcDbEntity
  8
1-F
  6
Continuous
 62
     7
370
     9
100
AcDbLine
 10
870.265737065695
 20
-558.170599860114
 30
0.0
 11
870.265737065695
 21
-560.7895029428842
 31
0.0
  0
LINE
  5
9F
330
1F
100
AcDbEntity
  8
1-F
  6
Continuous
 62
     7
370
     9
100
AcDbLine
 10
867.2415275534485
 20
-562.5352898675042
 30
0.0
 11
864.2180603606697
 21
-560.7895029428842
 31
0.0
  0
LINE
  5
A0
330
1F
100
AcDbEntity
  8
1-F
  6
Continuous
 62
     7
370
     9
100
AcDbLine
 10
826.4178168798841
 20
-586.105213474583
 30
0.0
 11
823.3936073676375
 21
-584.358999716269
 31
0.0
  0
LINE
  5
A1
330
1F
100
AcDbEntity
  8
1-F
  6
Continuous
 62
     7
370
     9
100
AcDbLine
 10
892.9455268408216
 20
-545.0760844462627
 30
0.0
 11
895.2139066708469
 21
-546.3855359876478
 31
0.0
  0
LINE
  5
A2
330
1F
100
AcDbEntity
  8
1-F
  6
Continuous
 62
     7
370
     9
100
AcDbLine
 10
891.4337190124857
 20
-545.0760844462627
 30
0.0
 11
871.0215667479163
 21
-556.861148318729
 31
0.0
  0
LINE
  5
A3
330
1F
100
AcDbEntity
  8
1-F
  6
Continuous
 62
     7
370
     9
100
AcDbLine
 10
905.0417710342338
 20
-540.7116171347128
 30
0.0
 11
895.2139066708469
 21
-546.3855359876478
 31
0.0
  0
LINE
  5
A4
330
1F
100
AcDbEntity
  8
1-F
  6
Continuous
 62
     7
370
     9
100
AcDbLine
 10
660.8535551083469
 20
-482.6600077861064
 30
0.0
 11
629.1012852603741
 21
-500.9919210897909
 31
0.0
  0
LINE
  5
A5
330
1F
100
AcDbEntity
  8
1-F
  6
Continuous
 62
     7
370
     9
100
AcDbLine
 10
901.2615833758725
 20
-511.467533420872
 30
0.0
 11
898.3092303881191
 21
-513.1720844990498
 31
0.0
  0
LINE
  5
A6
330
1F
100
AcDbEntity
  8
1-3ﾚｲﾔ
  6
Continuous
 62
     6
370
     5
100
AcDbLine
 10
823.8335058843185
 20
-540.7116171347128
 30
0.0
 11
823.8335058843185
 21
-533.3741974701752
 31
0.0
  0
LINE
  5
A7
330
1F
100
AcDbEntity
  8
1-3ﾚｲﾔ
  6
Continuous
 62
     6
370
     5
100
AcDbLine
 10
740.673534389386
 20
-492.6988764582453
 30
0.0
 11
740.673534389386
 21
-485.3616794895481
 31
0.0
  0
LINE
  5
A8
330
1F
100
AcDbEntity
  8
1-E
  6
Continuous
 62
     2
370
     9
100
AcDbLine
 10
728.566600795636
 20
-438.8234450881545
 30
0.0
 11
678.8987475175531
 21
-410.1477925068623
 31
0.0
  0
LINE
  5
A9
330
1F
100
AcDbEntity
  8
1-E
  6
Continuous
 62
     2
370
     9
100
AcDbLine
 10
901.2615833758725
 20
-538.5290494351773
 30
0.0
 11
960.3696617912019
 21
-572.6550713616448
 31
0.0
  0
ARC
  5
AA
330
1F
100
AcDbEntity
  8
1-F
  6
Continuous
 62
     7
370
     9
100
AcDbCircle
 10
734.1856622398925
 20
-532.8549078864021
 30
0.0
 40
1.512000077479594
100
AcDbArc
 50
0.0
 51
119.9989013671875
  0
ARC
  5
AB
330
1F
100
AcDbEntity
  8
1-F
  6
Continuous
 62
     7
370
     9
100
AcDbCircle
 10
824.9054151959738
 20
-585.2320973164326
 30
0.0
 40
1.512000077479594
100
AcDbArc
 50
0.0
 51
119.9989013671875
  0
ARC
  5
AC
330
1F
100
AcDbEntity
  8
1-F
  6
Continuous
 62
     7
370
     9
100
AcDbCircle
 10
871.7775448940313
 20
-558.170599860114
 30
0.0
 40
1.512000077479594
100
AcDbArc
 50
120.0012664794922
 51
180.0
  0
ARC
  5
AD
330
1F
100
AcDbEntity
  8
1-F
  6
Continuous
 62
     7
370
     9
100
AcDbCircle
 10
892.1896971586003
 20
-546.3855359876478
 30
0.0
 40
1.512000077479594
100
AcDbArc
 50
60.00119018554688
 51
119.9988098144531
  0
ELLIPSE
  5
AE
330
1F
100
AcDbEntity
  8
1-3ﾚｲﾔ
  6
Continuous
 62
     6
370
     5
100
AcDbEllipse
 10
806.7611973697491
 20
-534.4185296135979
 30
0.0
 11
-17.07074500416819
 21
-2.727728632733922E-5
 31
0.0
210
0.0
220
0.0
230
1.0
 40
0.5771999999999999
 41
0.0
 42
6.283185307179586
  0
ELLIPSE
  5
AF
330
1F
100
AcDbEntity
  8
1-3ﾚｲﾔ
  6
Continuous
 62
     6
370
     5
100
AcDbEllipse
 10
806.7611973697491
 20
-540.7116171347128
 30
0.0
 11
-17.07074500416819
 21
-2.727728632733922E-5
 31
0.0
210
0.0
220
0.0
230
1.0
 40
0.5771999999999999
 41
0.0
 42
3.141592653589793
  0
ELLIPSE
  5
B0
330
1F
100
AcDbEntity
  8
1-3ﾚｲﾔ
  6
Continuous
 62
     6
370
     5
100
AcDbEllipse
 10
723.6016712664975
 20
-486.4060487489442
 30
0.0
 11
-17.07074500416819
 21
-2.727728632733922E-5
 31
0.0
210
0.0
220
0.0
230
1.0
 40
0.5771999999999999
 41
0.0
 42
6.283185307179586
  0
ELLIPSE
  5
B1
330
1F
100
AcDbEntity
  8
1-3ﾚｲﾔ
  6
Continuous
 62
     6
370
     5
100
AcDbEllipse
 10
723.6016712664975
 20
-492.6988764582453
 30
0.0
 11
-17.07074500416819
 21
-2.727728632733922E-5
 31
0.0
210
0.0
220
0.0
230
1.0
 40
0.5771999999999999
 41
0.0
 42
3.141592653589793
  0
TEXT
  5
B2
330
1F
100
AcDbEntity
  8
1-F
  6
Continuous
 62
     7
370
     9
100
AcDbText
 10
604.2600804308192
 20
-533.9894619320002
 30
0.0
 40
13.716
  1
１０mm
 50
330.000460202943
 41
1.138888888888891
  7
ＭＳ ゴシック
100
AcDbText
  0
LINE
  5
B3
330
1F
100
AcDbEntity
  8
2-Fﾚｲﾔ
  6
Continuous
 62
     7
370
     9
100
AcDbLine
 10
-932.1536360739605
 20
532.3451182196117
 30
0.0
 11
-907.2100005278716
 21
439.254489057897
 31
0.0
  0
LINE
  5
B4
330
1F
100
AcDbEntity
  8
1-F
  6
Continuous
 62
     7
370
     9
100
AcDbLine
 10
36.76827095650344
 20
-20.13425754856422
 30
0.0
 11
36.76827095650344
 21
-269.7999374802048
 31
0.0
  0
LINE
  5
B5
330
1F
100
AcDbEntity
  8
1-F
  6
Continuous
 62
     7
370
     9
100
AcDbLine
 10
36.76827095650344
 20
-269.7999374802048
 30
0.0
 11
1116.768270956503
 21
-269.7999374802048
 31
0.0
  0
LINE
  5
B6
330
1F
100
AcDbEntity
  8
1-F
  6
Continuous
 62
     7
370
     9
100
AcDbLine
 10
1116.768270956503
 20
-20.13425754856422
 30
0.0
 11
1116.768270956503
 21
-269.7999374802048
 31
0.0
  0
LINE
  5
B7
330
1F
100
AcDbEntity
  8
1-F
  6
Continuous
 62
     7
370
     9
100
AcDbLine
 10
36.76827095650344
 20
-20.13425754856422
 30
0.0
 11
1116.768270956503
 21
-20.13425754856422
 31
0.0
  0
LINE
  5
B8
330
1F
100
AcDbEntity
  8
1-F
  6
Continuous
 62
     7
370
     9
100
AcDbLine
 10
684.3137338999156
 20
-20.13425754856422
 30
0.0
 11
684.3137338999156
 21
-269.7999374802048
 31
0.0
  0
LINE
  5
B9
330
1F
100
AcDbEntity
  8
1-F
  6
Continuous
 62
     7
370
     9
100
AcDbLine
 10
59.65561325485658
 20
-295.877843083562
 30
0.0
 11
59.65561325485658
 21
-338.0488264754011
 31
0.0
  0
LINE
  5
BA
330
1F
100
AcDbEntity
  8
1-F
  6
Continuous
 62
     7
370
     9
100
AcDbLine
 10
59.65561325485658
 20
-338.0488264754011
 30
0.0
 11
508.93853264886
 21
-338.0488264754011
 31
0.0
  0
LINE
  5
BB
330
1F
100
AcDbEntity
  8
1-F
  6
Continuous
 62
     7
370
     9
100
AcDbLine
 10
508.93853264886
 20
-338.0488264754011
 30
0.0
 11
508.93853264886
 21
-295.877843083562
 31
0.0
  0
LINE
  5
BC
330
1F
100
AcDbEntity
  8
1-F
  6
Continuous
 62
     7
370
     9
100
AcDbLine
 10
508.93853264886
 20
-295.877843083562
 30
0.0
 11
59.65561325485658
 21
-295.877843083562
 31
0.0
  0
LINE
  5
BD
330
1F
100
AcDbEntity
  8
1-F
  6
Continuous
 62
     7
370
     9
100
AcDbLine
 10
36.76827095650344
 20
-316.9633162214949
 30
0.0
 11
36.76827095650344
 21
-626.2592963141365
 31
0.0
  0
LINE
  5
BE
330
1F
100
AcDbEntity
  8
1-F
  6
Continuous
 62
     7
370
     9
100
AcDbLine
 10
36.76827095650344
 20
-626.2592963141365
 30
0.0
 11
1116.768270956503
 21
-626.2592963141365
 31
0.0
  0
LINE
  5
BF
330
1F
100
AcDbEntity
  8
1-F
  6
Continuous
 62
     7
370
     9
100
AcDbLine
 10
1116.768270956503
 20
-626.2592963141365
 30
0.0
 11
1116.768270956503
 21
-316.9633162214949
 31
0.0
  0
LINE
  5
C0
330
1F
100
AcDbEntity
  8
1-F
  6
Continuous
 62
     7
370
     9
100
AcDbLine
 10
1116.768270956503
 20
-316.9633162214949
 30
0.0
 11
508.93853264886
 21
-316.9633162214949
 31
0.0
  0
LINE
  5
C1
330
1F
100
AcDbEntity
  8
1-F
  6
Continuous
 62
     7
370
     9
100
AcDbLine
 10
59.65561325485658
 20
-316.9633162214949
 30
0.0
 11
36.76827095650344
 21
-316.9633162214949
 31
0.0
  0
LINE
  5
C2
330
1F
100
AcDbEntity
  8
1-F
  6
Continuous
 62
     7
370
     9
100
AcDbLine
 10
59.65561325485658
 20
258.9827616923564
 30
0.0
 11
59.65561325485658
 21
216.8115927206505
 31
0.0
  0
LINE
  5
C3
330
1F
100
AcDbEntity
  8
1-F
  6
Continuous
 62
     7
370
     9
100
AcDbLine
 10
59.65561325485658
 20
216.8115927206505
 30
0.0
 11
388.9385821368244
 21
216.8115927206505
 31
0.0
  0
LINE
  5
C4
330
1F
100
AcDbEntity
  8
1-F
  6
Continuous
 62
     7
370
     9
100
AcDbLine
 10
388.9385821368244
 20
216.8115927206505
 30
0.0
 11
388.9385821368244
 21
258.9827616923564
 31
0.0
  0
LINE
  5
C5
330
1F
100
AcDbEntity
  8
1-F
  6
Continuous
 62
     7
370
     9
100
AcDbLine
 10
388.9385821368244
 20
258.9827616923564
 30
0.0
 11
59.65561325485658
 21
258.9827616923564
 31
0.0
  0
LINE
  5
C6
330
1F
100
AcDbEntity
  8
1-F
  6
Continuous
 62
     7
370
     9
100
AcDbLine
 10
36.76827095650344
 20
237.8970287426098
 30
0.0
 11
36.76827095650344
 21
33.82197529560813
 31
0.0
  0
LINE
  5
C7
330
1F
100
AcDbEntity
  8
1-F
  6
Continuous
 62
     7
370
     9
100
AcDbLine
 10
36.76827095650344
 20
33.82197529560813
 30
0.0
 11
1116.768270956503
 21
33.82197529560813
 31
0.0
  0
LINE
  5
C8
330
1F
100
AcDbEntity
  8
1-F
  6
Continuous
 62
     7
370
     9
100
AcDbLine
 10
1116.768270956503
 20
33.82197529560813
 30
0.0
 11
1116.768270956503
 21
237.8970287426098
 31
0.0
  0
LINE
  5
C9
330
1F
100
AcDbEntity
  8
1-F
  6
Continuous
 62
     7
370
     9
100
AcDbLine
 10
1116.768270956503
 20
237.8970287426098
 30
0.0
 11
388.9385821368244
 21
237.8970287426098
 31
0.0
  0
LINE
  5
CA
330
1F
100
AcDbEntity
  8
1-F
  6
Continuous
 62
     7
370
     9
100
AcDbLine
 10
59.65561325485658
 20
237.8970287426098
 30
0.0
 11
36.76827095650344
 21
237.8970287426098
 31
0.0
  0
TEXT
  5
CB
330
1F
100
AcDbEntity
  8
1-F
  6
Continuous
 62
     2
370
     9
100
AcDbText
 10
38.81055017419774
 20
-3.730864864864841
 30
0.0
 40
18.288
  1
固定用釘ピッチ
 41
1.107142857142857
  7
ＭＳ ゴシック
100
AcDbText
  0
TEXT
  5
CC
330
1F
100
AcDbEntity
  8
1-F
  6
Continuous
 62
     2
370
     9
100
AcDbText
 10
58.37837342958204
 20
176.6790439453125
 30
0.0
 40
18.288
  1
現場にて本体にベースをたたきこみ組立ててください。
 41
1.12
  7
ＭＳ ゴシック
100
AcDbText
  0
TEXT
  5
CD
330
1F
100
AcDbEntity
  8
1-F
  6
Continuous
 62
     2
370
     9
100
AcDbText
 10
58.37838827597142
 20
140.6790736380913
 30
0.0
 40
18.288
  1
・定尺（２０２５ｍｍ）当たり１０ヶ
 41
1.117647058823529
  7
ＭＳ ゴシック
100
AcDbText
  0
TEXT
  5
CE
330
1F
100
AcDbEntity
  8
1-F
  6
Continuous
 62
     2
370
     9
100
AcDbText
 10
58.37840312236079
 20
104.67910333087
 30
0.0
 40
18.288
  1
・ベース取付位置：両端、ピッチ２２０ｍｍ（２１７．５ｍｍ）
 41
1.120689655172414
  7
ＭＳ ゴシック
100
AcDbText
  0
TEXT
  5
CF
330
1F
100
AcDbEntity
  8
1-F
  6
Continuous
 62
     2
370
     9
100
AcDbText
 10
68.23267921241555
 20
-101.8996452174831
 30
0.0
 40
18.288
  1
定尺（２０２５ｍｍ）に１０本必要となります。
 41
1.119318181818182
  7
ＭＳ ゴシック
100
AcDbText
  0
TEXT
  5
D0
330
1F
100
AcDbEntity
  8
1-F
  6
Continuous
 62
     2
370
     9
100
AcDbText
 10
131.2971719277872
 20
229.2811376161319
 30
0.0
 40
18.288
  1
組立てについて
 41
1.107142857142857
  7
ＭＳ ゴシック
100
AcDbText
  0
TEXT
  5
D1
330
1F
100
AcDbEntity
  8
1-F
  6
Continuous
 62
     2
370
     9
100
AcDbText
 10
68.23263467324759
 20
-65.89967491026171
 30
0.0
 40
18.288
  1
固定用釘は、ベースに全て打込んでください。
 41
1.119047619047619
  7
ＭＳ ゴシック
100
AcDbText
  0
TEXT
  5
D2
330
1F
100
AcDbEntity
  8
1-F
  6
Continuous
 62
     2
370
     9
100
AcDbText
 10
58.37835858319266
 20
-405.1325454761401
 30
0.0
 40
18.288
  1
アスファルト舗装は、見切材の熱膨張を
 41
1.118055555555556
  7
ＭＳ ゴシック
100
AcDbText
  0
TEXT
  5
D3
330
1F
100
AcDbEntity
  8
1-F
  6
Continuous
 62
     2
370
     9
100
AcDbText
 10
58.37835858319266
 20
-441.1325900153083
 30
0.0
 40
18.288
  1
考慮してジョイント部に１０mmの隙間を
 41
1.118055555555556
  7
ＭＳ ゴシック
100
AcDbText
  0
TEXT
  5
D4
330
1F
100
AcDbEntity
  8
1-F
  6
Continuous
 62
     2
370
     9
100
AcDbText
 10
58.37838827597142
 20
-477.1325603225295
 30
0.0
 40
18.288
  1
設けて施工してください。
 41
1.114583333333333
  7
ＭＳ ゴシック
100
AcDbText
  0
TEXT
  5
D5
330
1F
100
AcDbEntity
  8
1-F
  6
Continuous
 62
     2
370
     9
100
AcDbText
 10
69.79714718380492
 20
-325.5793558118665
 30
0.0
 40
18.288
  1
アスファルト舗装の場合の注意事項
 41
1.1171875
  7
ＭＳ ゴシック
100
AcDbText
  0
LINE
  5
D6
330
1F
100
AcDbEntity
  8
2-Fﾚｲﾔ
  6
Continuous
 62
     7
370
     9
100
AcDbLine
 10
-1067.559171109586
 20
795.5541749742824
 30
0.0
 11
-324.0833921690244
 21
795.5541749742824
 31
0.0
  0
LINE
  5
D7
330
1F
100
AcDbEntity
  8
2-Fﾚｲﾔ
  6
Continuous
 62
     7
370
     9
100
AcDbLine
 10
-1067.559171109586
 20
747.5541650766893
 30
0.0
 11
-324.0833921690244
 21
747.5541650766893
 31
0.0
  0
LINE
  5
D8
330
1F
100
AcDbEntity
  8
2-Fﾚｲﾔ
  6
Continuous
 62
     7
370
     9
100
AcDbLine
 10
-1067.559171109586
 20
795.5541749742824
 30
0.0
 11
-1067.559171109586
 21
747.5541650766893
 31
0.0
  0
LINE
  5
D9
330
1F
100
AcDbEntity
  8
2-Fﾚｲﾔ
  6
Continuous
 62
     7
370
     9
100
AcDbLine
 10
-324.0833921690244
 20
795.5541749742824
 30
0.0
 11
-324.0833921690244
 21
747.5541650766893
 31
0.0
  0
LINE
  5
DA
330
1F
100
AcDbEntity
  8
2-1
  6
Continuous
 62
     4
370
     9
100
AcDbLine
 10
-471.2065825591216
 20
503.1405809603464
 30
0.0
 11
-521.2065495671452
 21
503.1405809603464
 31
0.0
  0
LINE
  5
DB
330
1F
100
AcDbEntity
  8
2-1
  6
Continuous
 62
     4
370
     9
100
AcDbLine
 10
-471.2065825591216
 20
569.6576015209462
 30
0.0
 11
-521.2065495671452
 21
569.6576015209462
 31
0.0
  0
LINE
  5
DC
330
1F
100
AcDbEntity
  8
2-1
  6
Continuous
 62
     4
370
     9
100
AcDbLine
 10
-471.2065825591216
 20
571.1466943735644
 30
0.0
 11
-521.2065495671452
 21
571.1466943735644
 31
0.0
  0
LINE
  5
DD
330
1F
100
AcDbEntity
  8
2-1
  6
Continuous
 62
     4
370
     9
100
AcDbLine
 10
-521.2065495671452
 20
503.1405809603464
 30
0.0
 11
-521.2065495671452
 21
573.1407129282519
 31
0.0
  0
LINE
  5
DE
330
1F
100
AcDbEntity
  8
2-1
  6
Continuous
 62
     4
370
     9
100
AcDbLine
 10
-471.2065825591216
 20
503.1405809603464
 30
0.0
 11
-471.2065825591216
 21
573.1407129282519
 31
0.0
  0
LINE
  5
DF
330
1F
100
AcDbEntity
  8
2-1
  6
Continuous
 62
     4
370
     9
100
AcDbLine
 10
-471.2065825591216
 20
580.132174604772
 30
0.0
 11
-521.2065495671452
 21
580.132174604772
 31
0.0
  0
LINE
  5
E0
330
1F
100
AcDbEntity
  8
2-1
  6
Continuous
 62
     4
370
     9
100
AcDbLine
 10
-471.2065825591216
 20
582.1407426210305
 30
0.0
 11
-521.2065495671452
 21
582.1407426210305
 31
0.0
  0
LINE
  5
E1
330
1F
100
AcDbEntity
  8
2-1
  6
Continuous
 62
     4
370
     9
100
AcDbLine
 10
-521.2065495671452
 20
578.1405314723819
 30
0.0
 11
-521.2065495671452
 21
582.1407426210305
 31
0.0
  0
LINE
  5
E2
330
1F
100
AcDbEntity
  8
2-1
  6
Continuous
 62
     4
370
     9
100
AcDbLine
 10
-471.2065825591216
 20
578.1405314723819
 30
0.0
 11
-471.2065825591216
 21
582.1407426210305
 31
0.0
  0
LINE
  5
E3
330
1F
100
AcDbEntity
  8
2-1
  6
Continuous
 62
     4
370
     9
100
AcDbLine
 10
-691.2066155510979
 20
503.1405809603464
 30
0.0
 11
-741.2065825591216
 21
503.1405809603464
 31
0.0
  0
LINE
  5
E4
330
1F
100
AcDbEntity
  8
2-1
  6
Continuous
 62
     4
370
     9
100
AcDbLine
 10
-691.2066155510979
 20
569.6576015209462
 30
0.0
 11
-741.2065825591216
 21
569.6576015209462
 31
0.0
  0
LINE
  5
E5
330
1F
100
AcDbEntity
  8
2-1
  6
Continuous
 62
     4
370
     9
100
AcDbLine
 10
-691.2066155510979
 20
571.1466943735644
 30
0.0
 11
-741.2065825591216
 21
571.1466943735644
 31
0.0
  0
LINE
  5
E6
330
1F
100
AcDbEntity
  8
2-1
  6
Continuous
 62
     4
370
     9
100
AcDbLine
 10
-741.2065825591216
 20
503.1405809603464
 30
0.0
 11
-741.2065825591216
 21
573.1407129282519
 31
0.0
  0
LINE
  5
E7
330
1F
100
AcDbEntity
  8
2-1
  6
Continuous
 62
     4
370
     9
100
AcDbLine
 10
-691.2066155510979
 20
503.1405809603464
 30
0.0
 11
-691.2066155510979
 21
573.1407129282519
 31
0.0
  0
LINE
  5
E8
330
1F
100
AcDbEntity
  8
2-1
  6
Continuous
 62
     4
370
     9
100
AcDbLine
 10
-691.2066155510979
 20
580.132174604772
 30
0.0
 11
-741.2065825591216
 21
580.132174604772
 31
0.0
  0
LINE
  5
E9
330
1F
100
AcDbEntity
  8
2-1
  6
Continuous
 62
     4
370
     9
100
AcDbLine
 10
-691.2066155510979
 20
582.1407426210305
 30
0.0
 11
-741.2065825591216
 21
582.1407426210305
 31
0.0
  0
LINE
  5
EA
330
1F
100
AcDbEntity
  8
2-1
  6
Continuous
 62
     4
370
     9
100
AcDbLine
 10
-741.2065825591216
 20
578.1405314723819
 30
0.0
 11
-741.2065825591216
 21
582.1407426210305
 31
0.0
  0
LINE
  5
EB
330
1F
100
AcDbEntity
  8
2-1
  6
Continuous
 62
     4
370
     9
100
AcDbLine
 10
-691.2066155510979
 20
578.1405314723819
 30
0.0
 11
-691.2066155510979
 21
582.1407426210305
 31
0.0
  0
LINE
  5
EC
330
1F
100
AcDbEntity
  8
2-1
  6
Continuous
 62
     4
370
     9
100
AcDbLine
 10
-908.7063681112753
 20
503.1405809603464
 30
0.0
 11
-958.7064835831925
 21
503.1405809603464
 31
0.0
  0
LINE
  5
ED
330
1F
100
AcDbEntity
  8
2-1
  6
Continuous
 62
     4
370
     9
100
AcDbLine
 10
-908.7063681112753
 20
569.6576015209462
 30
0.0
 11
-958.7064835831925
 21
569.6576015209462
 31
0.0
  0
LINE
  5
EE
330
1F
100
AcDbEntity
  8
2-1
  6
Continuous
 62
     4
370
     9
100
AcDbLine
 10
-908.7063681112753
 20
571.1466943735644
 30
0.0
 11
-958.7064835831925
 21
571.1466943735644
 31
0.0
  0
LINE
  5
EF
330
1F
100
AcDbEntity
  8
2-1
  6
Continuous
 62
     4
370
     9
100
AcDbLine
 10
-958.7064835831925
 20
503.1405809603464
 30
0.0
 11
-958.7064835831925
 21
573.1407129282519
 31
0.0
  0
LINE
  5
F0
330
1F
100
AcDbEntity
  8
2-1
  6
Continuous
 62
     4
370
     9
100
AcDbLine
 10
-908.7063681112753
 20
503.1405809603464
 30
0.0
 11
-908.7063681112753
 21
573.1407129282519
 31
0.0
  0
LINE
  5
F1
330
1F
100
AcDbEntity
  8
2-1
  6
Continuous
 62
     4
370
     9
100
AcDbLine
 10
-908.7063681112753
 20
580.132174604772
 30
0.0
 11
-958.7064835831925
 21
580.132174604772
 31
0.0
  0
LINE
  5
F2
330
1F
100
AcDbEntity
  8
2-1
  6
Continuous
 62
     4
370
     9
100
AcDbLine
 10
-908.7063681112753
 20
582.1407426210305
 30
0.0
 11
-958.7064835831925
 21
582.1407426210305
 31
0.0
  0
LINE
  5
F3
330
1F
100
AcDbEntity
  8
2-1
  6
Continuous
 62
     4
370
     9
100
AcDbLine
 10
-958.7064835831925
 20
578.1405314723819
 30
0.0
 11
-958.7064835831925
 21
582.1407426210305
 31
0.0
  0
LINE
  5
F4
330
1F
100
AcDbEntity
  8
2-1
  6
Continuous
 62
     4
370
     9
100
AcDbLine
 10
-908.7063681112753
 20
578.1405314723819
 30
0.0
 11
-908.7063681112753
 21
582.1407426210305
 31
0.0
  0
LINE
  5
F5
330
1F
100
AcDbEntity
  8
2-1
  6
Continuous
 62
     2
370
     9
100
AcDbLine
 10
-958.7064835831925
 20
578.1405314723819
 30
0.0
 11
-958.7064835831925
 21
573.1407129282519
 31
0.0
  0
LINE
  5
F6
330
1F
100
AcDbEntity
  8
2-1
  6
JWW_CENTER1
 62
     4
370
     9
100
AcDbLine
 10
-716.2065990551098
 20
526.7913245994935
 30
0.0
 11
-716.2065990551098
 21
549.4899692891049
 31
0.0
  0
LINE
  5
F7
330
1F
100
AcDbEntity
  8
2-1
  6
JWW_CENTER1
 62
     4
370
     9
100
AcDbLine
 10
-704.8572767103041
 20
538.1406469442991
 30
0.0
 11
-727.5559213999155
 21
538.1406469442991
 31
0.0
  0
LINE
  5
F8
330
1F
100
AcDbEntity
  8
2-1
  6
JWW_CENTER1
 62
     4
370
     9
100
AcDbLine
 10
-933.7066485430744
 20
526.7913245994935
 30
0.0
 11
-933.7066485430744
 21
549.4899692891049
 31
0.0
  0
LINE
  5
F9
330
1F
100
AcDbEntity
  8
2-1
  6
JWW_CENTER1
 62
     4
370
     9
100
AcDbLine
 10
-922.357177734375
 20
538.1406469442991
 30
0.0
 11
-945.05597088788
 21
538.1406469442991
 31
0.0
  0
LINE
  5
FA
330
1F
100
AcDbEntity
  8
2-1
  6
Continuous
 62
     4
370
     9
100
AcDbLine
 10
-251.206623799092
 20
503.1405809603464
 30
0.0
 11
-301.2065908071156
 21
503.1405809603464
 31
0.0
  0
LINE
  5
FB
330
1F
100
AcDbEntity
  8
2-1
  6
Continuous
 62
     4
370
     9
100
AcDbLine
 10
-251.206623799092
 20
569.6576015209462
 30
0.0
 11
-301.2065908071156
 21
569.6576015209462
 31
0.0
  0
LINE
  5
FC
330
1F
100
AcDbEntity
  8
2-1
  6
Continuous
 62
     4
370
     9
100
AcDbLine
 10
-251.206623799092
 20
571.1466943735644
 30
0.0
 11
-301.2065908071156
 21
571.1466943735644
 31
0.0
  0
LINE
  5
FD
330
1F
100
AcDbEntity
  8
2-1
  6
Continuous
 62
     4
370
     9
100
AcDbLine
 10
-301.2065908071156
 20
503.1405809603464
 30
0.0
 11
-301.2065908071156
 21
573.1407129282519
 31
0.0
  0
LINE
  5
FE
330
1F
100
AcDbEntity
  8
2-1
  6
Continuous
 62
     4
370
     9
100
AcDbLine
 10
-251.206623799092
 20
503.1405809603464
 30
0.0
 11
-251.206623799092
 21
573.1407129282519
 31
0.0
  0
LINE
  5
FF
330
1F
100
AcDbEntity
  8
2-1
  6
Continuous
 62
     4
370
     9
100
AcDbLine
 10
-251.206623799092
 20
580.132174604772
 30
0.0
 11
-301.2065908071156
 21
580.132174604772
 31
0.0
  0
LINE
  5
100
330
1F
100
AcDbEntity
  8
2-1
  6
Continuous
 62
     4
370
     9
100
AcDbLine
 10
-251.206623799092
 20
582.1407426210305
 30
0.0
 11
-301.2065908071156
 21
582.1407426210305
 31
0.0
  0
LINE
  5
101
330
1F
100
AcDbEntity
  8
2-1
  6
Continuous
 62
     4
370
     9
100
AcDbLine
 10
-301.2065908071156
 20
578.1405314723819
 30
0.0
 11
-301.2065908071156
 21
582.1407426210305
 31
0.0
  0
LINE
  5
102
330
1F
100
AcDbEntity
  8
2-1
  6
Continuous
 62
     4
370
     9
100
AcDbLine
 10
-251.206623799092
 20
578.1405314723819
 30
0.0
 11
-251.206623799092
 21
582.1407426210305
 31
0.0
  0
LINE
  5
103
330
1F
100
AcDbEntity
  8
2-1
  6
Continuous
 62
     4
370
     9
100
AcDbLine
 10
-31.2066650390625
 20
503.1405809603464
 30
0.0
 11
-81.20663204708609
 21
503.1405809603464
 31
0.0
  0
LINE
  5
104
330
1F
100
AcDbEntity
  8
2-1
  6
Continuous
 62
     4
370
     9
100
AcDbLine
 10
-31.2066650390625
 20
569.6576015209462
 30
0.0
 11
-81.20663204708609
 21
569.6576015209462
 31
0.0
  0
LINE
  5
105
330
1F
100
AcDbEntity
  8
2-1
  6
Continuous
 62
     4
370
     9
100
AcDbLine
 10
-31.2066650390625
 20
571.1466943735644
 30
0.0
 11
-81.20663204708609
 21
571.1466943735644
 31
0.0
  0
LINE
  5
106
330
1F
100
AcDbEntity
  8
2-1
  6
Continuous
 62
     4
370
     9
100
AcDbLine
 10
-81.20663204708609
 20
503.1405809603464
 30
0.0
 11
-81.20663204708609
 21
573.1407129282519
 31
0.0
  0
LINE
  5
107
330
1F
100
AcDbEntity
  8
2-1
  6
Continuous
 62
     4
370
     9
100
AcDbLine
 10
-31.2066650390625
 20
503.1405809603464
 30
0.0
 11
-31.2066650390625
 21
573.1407129282519
 31
0.0
  0
LINE
  5
108
330
1F
100
AcDbEntity
  8
2-1
  6
Continuous
 62
     4
370
     9
100
AcDbLine
 10
-31.2066650390625
 20
580.132174604772
 30
0.0
 11
-81.20663204708609
 21
580.132174604772
 31
0.0
  0
LINE
  5
109
330
1F
100
AcDbEntity
  8
2-1
  6
Continuous
 62
     4
370
     9
100
AcDbLine
 10
-31.2066650390625
 20
582.1407426210305
 30
0.0
 11
-81.20663204708609
 21
582.1407426210305
 31
0.0
  0
LINE
  5
10A
330
1F
100
AcDbEntity
  8
2-1
  6
Continuous
 62
     4
370
     9
100
AcDbLine
 10
-81.20663204708609
 20
578.1405314723819
 30
0.0
 11
-81.20663204708609
 21
582.1407426210305
 31
0.0
  0
LINE
  5
10B
330
1F
100
AcDbEntity
  8
2-1
  6
Continuous
 62
     4
370
     9
100
AcDbLine
 10
-31.2066650390625
 20
578.1405314723819
 30
0.0
 11
-31.2066650390625
 21
582.1407426210305
 31
0.0
  0
LINE
  5
10C
330
1F
100
AcDbEntity
  8
2-1
  6
Continuous
 62
     4
370
     9
100
AcDbLine
 10
188.7933679529139
 20
503.1405809603464
 30
0.0
 11
138.7934009448903
 21
503.1405809603464
 31
0.0
  0
LINE
  5
10D
330
1F
100
AcDbEntity
  8
2-1
  6
Continuous
 62
     4
370
     9
100
AcDbLine
 10
188.7933679529139
 20
569.6576015209462
 30
0.0
 11
138.7934009448903
 21
569.6576015209462
 31
0.0
  0
LINE
  5
10E
330
1F
100
AcDbEntity
  8
2-1
  6
Continuous
 62
     4
370
     9
100
AcDbLine
 10
188.7933679529139
 20
571.1466943735644
 30
0.0
 11
138.7934009448903
 21
571.1466943735644
 31
0.0
  0
LINE
  5
10F
330
1F
100
AcDbEntity
  8
2-1
  6
Continuous
 62
     4
370
     9
100
AcDbLine
 10
138.7934009448903
 20
503.1405809603464
 30
0.0
 11
138.7934009448903
 21
573.1407129282519
 31
0.0
  0
LINE
  5
110
330
1F
100
AcDbEntity
  8
2-1
  6
Continuous
 62
     4
370
     9
100
AcDbLine
 10
188.7933679529139
 20
503.1405809603464
 30
0.0
 11
188.7933679529139
 21
573.1407129282519
 31
0.0
  0
LINE
  5
111
330
1F
100
AcDbEntity
  8
2-1
  6
Continuous
 62
     4
370
     9
100
AcDbLine
 10
188.7933679529139
 20
580.132174604772
 30
0.0
 11
138.7934009448903
 21
580.132174604772
 31
0.0
  0
LINE
  5
112
330
1F
100
AcDbEntity
  8
2-1
  6
Continuous
 62
     4
370
     9
100
AcDbLine
 10
188.7933679529139
 20
582.1407426210305
 30
0.0
 11
138.7934009448903
 21
582.1407426210305
 31
0.0
  0
LINE
  5
113
330
1F
100
AcDbEntity
  8
2-1
  6
Continuous
 62
     4
370
     9
100
AcDbLine
 10
138.7934009448903
 20
578.1405314723819
 30
0.0
 11
138.7934009448903
 21
582.1407426210305
 31
0.0
  0
LINE
  5
114
330
1F
100
AcDbEntity
  8
2-1
  6
Continuous
 62
     4
370
     9
100
AcDbLine
 10
188.7933679529139
 20
578.1405314723819
 30
0.0
 11
188.7933679529139
 21
582.1407426210305
 31
0.0
  0
LINE
  5
115
330
1F
100
AcDbEntity
  8
2-1
  6
Continuous
 62
     4
370
     9
100
AcDbLine
 10
408.7932524809966
 20
503.1405809603464
 30
0.0
 11
358.7932854729731
 21
503.1405809603464
 31
0.0
  0
LINE
  5
116
330
1F
100
AcDbEntity
  8
2-1
  6
Continuous
 62
     4
370
     9
100
AcDbLine
 10
408.7932524809966
 20
569.6576015209462
 30
0.0
 11
358.7932854729731
 21
569.6576015209462
 31
0.0
  0
LINE
  5
117
330
1F
100
AcDbEntity
  8
2-1
  6
Continuous
 62
     4
370
     9
100
AcDbLine
 10
408.7932524809966
 20
571.1466943735644
 30
0.0
 11
358.7932854729731
 21
571.1466943735644
 31
0.0
  0
LINE
  5
118
330
1F
100
AcDbEntity
  8
2-1
  6
Continuous
 62
     4
370
     9
100
AcDbLine
 10
358.7932854729731
 20
503.1405809603464
 30
0.0
 11
358.7932854729731
 21
573.1407129282519
 31
0.0
  0
LINE
  5
119
330
1F
100
AcDbEntity
  8
2-1
  6
Continuous
 62
     4
370
     9
100
AcDbLine
 10
408.7932524809966
 20
503.1405809603464
 30
0.0
 11
408.7932524809966
 21
573.1407129282519
 31
0.0
  0
LINE
  5
11A
330
1F
100
AcDbEntity
  8
2-1
  6
Continuous
 62
     4
370
     9
100
AcDbLine
 10
408.7932524809966
 20
580.132174604772
 30
0.0
 11
358.7932854729731
 21
580.132174604772
 31
0.0
  0
LINE
  5
11B
330
1F
100
AcDbEntity
  8
2-1
  6
Continuous
 62
     4
370
     9
100
AcDbLine
 10
408.7932524809966
 20
582.1407426210305
 30
0.0
 11
358.7932854729731
 21
582.1407426210305
 31
0.0
  0
LINE
  5
11C
330
1F
100
AcDbEntity
  8
2-1
  6
Continuous
 62
     4
370
     9
100
AcDbLine
 10
358.7932854729731
 20
578.1405314723819
 30
0.0
 11
358.7932854729731
 21
582.1407426210305
 31
0.0
  0
LINE
  5
11D
330
1F
100
AcDbEntity
  8
2-1
  6
Continuous
 62
     4
370
     9
100
AcDbLine
 10
408.7932524809966
 20
578.1405314723819
 30
0.0
 11
408.7932524809966
 21
582.1407426210305
 31
0.0
  0
LINE
  5
11E
330
1F
100
AcDbEntity
  8
2-1
  6
Continuous
 62
     4
370
     9
100
AcDbLine
 10
628.7931370090794
 20
503.1405809603464
 30
0.0
 11
578.793170001056
 21
503.1405809603464
 31
0.0
  0
LINE
  5
11F
330
1F
100
AcDbEntity
  8
2-1
  6
Continuous
 62
     4
370
     9
100
AcDbLine
 10
628.7931370090794
 20
569.6576015209462
 30
0.0
 11
578.793170001056
 21
569.6576015209462
 31
0.0
  0
LINE
  5
120
330
1F
100
AcDbEntity
  8
2-1
  6
Continuous
 62
     4
370
     9
100
AcDbLine
 10
628.7931370090794
 20
571.1466943735644
 30
0.0
 11
578.793170001056
 21
571.1466943735644
 31
0.0
  0
LINE
  5
121
330
1F
100
AcDbEntity
  8
2-1
  6
Continuous
 62
     4
370
     9
100
AcDbLine
 10
578.793170001056
 20
503.1405809603464
 30
0.0
 11
578.793170001056
 21
573.1407129282519
 31
0.0
  0
LINE
  5
122
330
1F
100
AcDbEntity
  8
2-1
  6
Continuous
 62
     4
370
     9
100
AcDbLine
 10
628.7931370090794
 20
503.1405809603464
 30
0.0
 11
628.7931370090794
 21
573.1407129282519
 31
0.0
  0
LINE
  5
123
330
1F
100
AcDbEntity
  8
2-1
  6
Continuous
 62
     4
370
     9
100
AcDbLine
 10
628.7931370090794
 20
580.132174604772
 30
0.0
 11
578.793170001056
 21
580.132174604772
 31
0.0
  0
LINE
  5
124
330
1F
100
AcDbEntity
  8
2-1
  6
Continuous
 62
     4
370
     9
100
AcDbLine
 10
628.7931370090794
 20
582.1407426210305
 30
0.0
 11
578.793170001056
 21
582.1407426210305
 31
0.0
  0
LINE
  5
125
330
1F
100
AcDbEntity
  8
2-1
  6
Continuous
 62
     4
370
     9
100
AcDbLine
 10
578.793170001056
 20
578.1405314723819
 30
0.0
 11
578.793170001056
 21
582.1407426210305
 31
0.0
  0
LINE
  5
126
330
1F
100
AcDbEntity
  8
2-1
  6
Continuous
 62
     4
370
     9
100
AcDbLine
 10
628.7931370090794
 20
578.1405314723819
 30
0.0
 11
628.7931370090794
 21
582.1407426210305
 31
0.0
  0
LINE
  5
127
330
1F
100
AcDbEntity
  8
2-1
  6
Continuous
 62
     4
370
     9
100
AcDbLine
 10
1066.293516416808
 20
503.1405809603464
 30
0.0
 11
1016.293549408784
 21
503.1405809603464
 31
0.0
  0
LINE
  5
128
330
1F
100
AcDbEntity
  8
2-1
  6
Continuous
 62
     4
370
     9
100
AcDbLine
 10
1066.293516416808
 20
569.6576015209462
 30
0.0
 11
1016.293549408784
 21
569.6576015209462
 31
0.0
  0
LINE
  5
129
330
1F
100
AcDbEntity
  8
2-1
  6
Continuous
 62
     4
370
     9
100
AcDbLine
 10
1066.293516416808
 20
571.1466943735644
 30
0.0
 11
1016.293549408784
 21
571.1466943735644
 31
0.0
  0
LINE
  5
12A
330
1F
100
AcDbEntity
  8
2-1
  6
Continuous
 62
     4
370
     9
100
AcDbLine
 10
1016.293549408784
 20
503.1405809603464
 30
0.0
 11
1016.293549408784
 21
573.1407129282519
 31
0.0
  0
LINE
  5
12B
330
1F
100
AcDbEntity
  8
2-1
  6
Continuous
 62
     4
370
     9
100
AcDbLine
 10
1066.293516416808
 20
503.1405809603464
 30
0.0
 11
1066.293516416808
 21
573.1407129282519
 31
0.0
  0
LINE
  5
12C
330
1F
100
AcDbEntity
  8
2-1
  6
Continuous
 62
     4
370
     9
100
AcDbLine
 10
1066.293516416808
 20
580.132174604772
 30
0.0
 11
1016.293549408784
 21
580.132174604772
 31
0.0
  0
LINE
  5
12D
330
1F
100
AcDbEntity
  8
2-1
  6
Continuous
 62
     4
370
     9
100
AcDbLine
 10
1066.293516416808
 20
582.1407426210305
 30
0.0
 11
1016.293549408784
 21
582.1407426210305
 31
0.0
  0
LINE
  5
12E
330
1F
100
AcDbEntity
  8
2-1
  6
Continuous
 62
     4
370
     9
100
AcDbLine
 10
1016.293549408784
 20
578.1405314723819
 30
0.0
 11
1016.293549408784
 21
582.1407426210305
 31
0.0
  0
LINE
  5
12F
330
1F
100
AcDbEntity
  8
2-1
  6
Continuous
 62
     4
370
     9
100
AcDbLine
 10
1066.293516416808
 20
578.1405314723819
 30
0.0
 11
1066.293516416808
 21
582.1407426210305
 31
0.0
  0
LINE
  5
130
330
1F
100
AcDbEntity
  8
2-1
  6
Continuous
 62
     2
370
     9
100
AcDbLine
 10
1066.293516416808
 20
578.1405314723819
 30
0.0
 11
-958.7064835831925
 21
578.1405314723819
 31
0.0
  0
LINE
  5
131
330
1F
100
AcDbEntity
  8
2-1
  6
Continuous
 62
     2
370
     9
100
AcDbLine
 10
1066.293516416808
 20
573.1407129282519
 30
0.0
 11
-958.7064835831925
 21
573.1407129282519
 31
0.0
  0
LINE
  5
132
330
1F
100
AcDbEntity
  8
2-1
  6
Continuous
 62
     2
370
     9
100
AcDbLine
 10
1066.293516416808
 20
578.1405314723819
 30
0.0
 11
1066.293516416808
 21
573.1407129282519
 31
0.0
  0
LINE
  5
133
330
1F
100
AcDbEntity
  8
2-1
  6
JWW_CENTER1
 62
     4
370
     9
100
AcDbLine
 10
-496.206714527027
 20
526.7913245994935
 30
0.0
 11
-496.206714527027
 21
549.4899692891049
 31
0.0
  0
LINE
  5
134
330
1F
100
AcDbEntity
  8
2-1
  6
JWW_CENTER1
 62
     4
370
     9
100
AcDbLine
 10
-484.8572437183277
 20
538.1406469442991
 30
0.0
 11
-507.5558884079392
 21
538.1406469442991
 31
0.0
  0
LINE
  5
135
330
1F
100
AcDbEntity
  8
2-1
  6
JWW_CENTER1
 62
     4
370
     9
100
AcDbLine
 10
-276.2066073031039
 20
526.7913245994935
 30
0.0
 11
-276.2066073031039
 21
549.4899692891049
 31
0.0
  0
LINE
  5
136
330
1F
100
AcDbEntity
  8
2-1
  6
JWW_CENTER1
 62
     4
370
     9
100
AcDbLine
 10
-264.8572849582981
 20
538.1406469442991
 30
0.0
 11
-287.5558554159628
 21
538.1406469442991
 31
0.0
  0
LINE
  5
137
330
1F
100
AcDbEntity
  8
2-1
  6
JWW_CENTER1
 62
     4
370
     9
100
AcDbLine
 10
-56.2065743111275
 20
526.7913245994935
 30
0.0
 11
-56.2065743111275
 21
549.4899692891049
 31
0.0
  0
LINE
  5
138
330
1F
100
AcDbEntity
  8
2-1
  6
JWW_CENTER1
 62
     4
370
     9
100
AcDbLine
 10
-44.85725196632171
 20
538.1406469442991
 30
0.0
 11
-67.5558224239864
 21
538.1406469442991
 31
0.0
  0
LINE
  5
139
330
1F
100
AcDbEntity
  8
2-1
  6
JWW_CENTER1
 62
     4
370
     9
100
AcDbLine
 10
163.7935329127956
 20
526.7913245994935
 30
0.0
 11
163.7935329127956
 21
549.4899692891049
 31
0.0
  0
LINE
  5
13A
330
1F
100
AcDbEntity
  8
2-1
  6
JWW_CENTER1
 62
     4
370
     9
100
AcDbLine
 10
175.1427067937078
 20
538.1406469442991
 30
0.0
 11
152.44421056799
 21
538.1406469442991
 31
0.0
  0
LINE
  5
13B
330
1F
100
AcDbEntity
  8
2-1
  6
JWW_CENTER1
 62
     4
370
     9
100
AcDbLine
 10
383.7935659047722
 20
526.7913245994935
 30
0.0
 11
383.7935659047722
 21
549.4899692891049
 31
0.0
  0
LINE
  5
13C
330
1F
100
AcDbEntity
  8
2-1
  6
JWW_CENTER1
 62
     4
370
     9
100
AcDbLine
 10
395.1427397856841
 20
538.1406469442991
 30
0.0
 11
372.4442435599663
 21
538.1406469442991
 31
0.0
  0
LINE
  5
13D
330
1F
100
AcDbEntity
  8
2-1
  6
JWW_CENTER1
 62
     4
370
     9
100
AcDbLine
 10
603.7935988967484
 20
526.7913245994935
 30
0.0
 11
603.7935988967484
 21
549.4899692891049
 31
0.0
  0
LINE
  5
13E
330
1F
100
AcDbEntity
  8
2-1
  6
JWW_CENTER1
 62
     4
370
     9
100
AcDbLine
 10
615.1427727776606
 20
538.1406469442991
 30
0.0
 11
592.4442765519428
 21
538.1406469442991
 31
0.0
  0
LINE
  5
13F
330
1F
100
AcDbEntity
  8
2-1
  6
JWW_CENTER1
 62
     4
370
     9
100
AcDbLine
 10
1041.293978304477
 20
526.7913245994935
 30
0.0
 11
1041.293978304477
 21
549.4899692891049
 31
0.0
  0
LINE
  5
140
330
1F
100
AcDbEntity
  8
2-1
  6
JWW_CENTER1
 62
     4
370
     9
100
AcDbLine
 10
1052.643152185389
 20
538.1406469442991
 30
0.0
 11
1029.944655959671
 21
538.1406469442991
 31
0.0
  0
LINE
  5
141
330
1F
100
AcDbEntity
  8
2-1
  6
Continuous
 62
     4
370
     9
100
AcDbLine
 10
848.793170001056
 20
503.1405809603464
 30
0.0
 11
798.7932029930322
 21
503.1405809603464
 31
0.0
  0
LINE
  5
142
330
1F
100
AcDbEntity
  8
2-1
  6
Continuous
 62
     4
370
     9
100
AcDbLine
 10
848.793170001056
 20
569.6576015209462
 30
0.0
 11
798.7932029930322
 21
569.6576015209462
 31
0.0
  0
LINE
  5
143
330
1F
100
AcDbEntity
  8
2-1
  6
Continuous
 62
     4
370
     9
100
AcDbLine
 10
848.793170001056
 20
571.1466943735644
 30
0.0
 11
798.7932029930322
 21
571.1466943735644
 31
0.0
  0
LINE
  5
144
330
1F
100
AcDbEntity
  8
2-1
  6
Continuous
 62
     4
370
     9
100
AcDbLine
 10
798.7932029930322
 20
503.1405809603464
 30
0.0
 11
798.7932029930322
 21
573.1407129282519
 31
0.0
  0
LINE
  5
145
330
1F
100
AcDbEntity
  8
2-1
  6
Continuous
 62
     4
370
     9
100
AcDbLine
 10
848.793170001056
 20
503.1405809603464
 30
0.0
 11
848.793170001056
 21
573.1407129282519
 31
0.0
  0
LINE
  5
146
330
1F
100
AcDbEntity
  8
2-1
  6
Continuous
 62
     4
370
     9
100
AcDbLine
 10
848.793170001056
 20
580.132174604772
 30
0.0
 11
798.7932029930322
 21
580.132174604772
 31
0.0
  0
LINE
  5
147
330
1F
100
AcDbEntity
  8
2-1
  6
Continuous
 62
     4
370
     9
100
AcDbLine
 10
848.793170001056
 20
582.1407426210305
 30
0.0
 11
798.7932029930322
 21
582.1407426210305
 31
0.0
  0
LINE
  5
148
330
1F
100
AcDbEntity
  8
2-1
  6
Continuous
 62
     4
370
     9
100
AcDbLine
 10
798.7932029930322
 20
578.1405314723819
 30
0.0
 11
798.7932029930322
 21
582.1407426210305
 31
0.0
  0
LINE
  5
149
330
1F
100
AcDbEntity
  8
2-1
  6
Continuous
 62
     4
370
     9
100
AcDbLine
 10
848.793170001056
 20
578.1405314723819
 30
0.0
 11
848.793170001056
 21
582.1407426210305
 31
0.0
  0
LINE
  5
14A
330
1F
100
AcDbEntity
  8
2-1
  6
JWW_CENTER1
 62
     4
370
     9
100
AcDbLine
 10
823.7936318887247
 20
526.7913245994935
 30
0.0
 11
823.7936318887247
 21
549.4899692891049
 31
0.0
  0
LINE
  5
14B
330
1F
100
AcDbEntity
  8
2-1
  6
JWW_CENTER1
 62
     4
370
     9
100
AcDbLine
 10
835.1428057696369
 20
538.1406469442991
 30
0.0
 11
812.4443095439191
 21
538.1406469442991
 31
0.0
  0
LINE
  5
14C
330
1F
100
AcDbEntity
  8
2-Fﾚｲﾔ
  6
Continuous
 62
     7
370
     9
100
AcDbLine
 10
-958.7064835831925
 20
600.140802006588
 30
0.0
 11
-958.7064835831925
 21
710.1200335574749
 31
0.0
  0
LINE
  5
14D
330
1F
100
AcDbEntity
  8
2-Fﾚｲﾔ
  6
Continuous
 62
     7
370
     9
100
AcDbLine
 10
-958.7064835831925
 20
641.0213743513938
 30
0.0
 11
-976.5524374472128
 21
643.3708154673144
 31
0.0
  0
LINE
  5
14E
330
1F
100
AcDbEntity
  8
2-Fﾚｲﾔ
  6
Continuous
 62
     7
370
     9
100
AcDbLine
 10
-958.7064835831925
 20
641.0213743513938
 30
0.0
 11
-976.5524374472128
 21
638.6719332354731
 31
0.0
  0
LINE
  5
14F
330
1F
100
AcDbEntity
  8
2-Fﾚｲﾔ
  6
Continuous
 62
     7
370
     9
100
AcDbLine
 10
-1009.025499498522
 20
641.0213743513938
 30
0.0
 11
1130.574967667863
 21
641.0213743513938
 31
0.0
  0
LINE
  5
150
330
1F
100
AcDbEntity
  8
2-Fﾚｲﾔ
  6
Continuous
 62
     7
370
     9
100
AcDbLine
 10
-933.7066485430744
 20
641.0213743513938
 30
0.0
 11
-915.8603977512669
 21
643.3708154673144
 31
0.0
  0
LINE
  5
151
330
1F
100
AcDbEntity
  8
2-Fﾚｲﾔ
  6
Continuous
 62
     7
370
     9
100
AcDbLine
 10
-933.7066485430744
 20
641.0213743513938
 30
0.0
 11
-915.8603977512669
 21
638.6719332354731
 31
0.0
  0
LINE
  5
152
330
1F
100
AcDbEntity
  8
2-Fﾚｲﾔ
  6
Continuous
 62
     7
370
     9
100
AcDbLine
 10
-698.3606451910896
 20
638.6719332354731
 30
0.0
 11
-734.0525529191301
 21
643.3708154673144
 31
0.0
  0
LINE
  5
153
330
1F
100
AcDbEntity
  8
2-Fﾚｲﾔ
  6
Continuous
 62
     7
370
     9
100
AcDbLine
 10
-698.3606451910896
 20
643.3708154673144
 30
0.0
 11
-734.0525529191301
 21
638.6719332354731
 31
0.0
  0
LINE
  5
154
330
1F
100
AcDbEntity
  8
2-Fﾚｲﾔ
  6
Continuous
 62
     7
370
     9
100
AcDbLine
 10
-478.3606121991131
 20
638.6719332354731
 30
0.0
 11
-514.0526683910473
 21
643.3708154673144
 31
0.0
  0
LINE
  5
155
330
1F
100
AcDbEntity
  8
2-Fﾚｲﾔ
  6
Continuous
 62
     7
370
     9
100
AcDbLine
 10
-478.3606121991131
 20
643.3708154673144
 30
0.0
 11
-514.0526683910473
 21
638.6719332354731
 31
0.0
  0
LINE
  5
156
330
1F
100
AcDbEntity
  8
2-Fﾚｲﾔ
  6
Continuous
 62
     7
370
     9
100
AcDbLine
 10
-258.3607276710303
 20
638.6719332354731
 30
0.0
 11
-294.0526353990709
 21
643.3708154673144
 31
0.0
  0
LINE
  5
157
330
1F
100
AcDbEntity
  8
2-Fﾚｲﾔ
  6
Continuous
 62
     7
370
     9
100
AcDbLine
 10
-258.3607276710303
 20
643.3708154673144
 30
0.0
 11
-294.0526353990709
 21
638.6719332354731
 31
0.0
  0
LINE
  5
158
330
1F
100
AcDbEntity
  8
2-Fﾚｲﾔ
  6
Continuous
 62
     7
370
     9
100
AcDbLine
 10
-38.36069467905406
 20
638.6719332354731
 30
0.0
 11
-74.05275087098812
 21
643.3708154673144
 31
0.0
  0
LINE
  5
159
330
1F
100
AcDbEntity
  8
2-Fﾚｲﾔ
  6
Continuous
 62
     7
370
     9
100
AcDbLine
 10
-38.36069467905406
 20
643.3708154673144
 30
0.0
 11
-74.05275087098812
 21
638.6719332354731
 31
0.0
  0
LINE
  5
15A
330
1F
100
AcDbEntity
  8
2-Fﾚｲﾔ
  6
Continuous
 62
     7
370
     9
100
AcDbLine
 10
181.6391898490288
 20
638.6719332354731
 30
0.0
 11
145.9472821209883
 21
643.3708154673144
 31
0.0
  0
LINE
  5
15B
330
1F
100
AcDbEntity
  8
2-Fﾚｲﾔ
  6
Continuous
 62
     7
370
     9
100
AcDbLine
 10
181.6391898490288
 20
643.3708154673144
 30
0.0
 11
145.9472821209883
 21
638.6719332354731
 31
0.0
  0
LINE
  5
15C
330
1F
100
AcDbEntity
  8
2-Fﾚｲﾔ
  6
Continuous
 62
     7
370
     9
100
AcDbLine
 10
401.639222841005
 20
638.6719332354731
 30
0.0
 11
365.9473151129647
 21
643.3708154673144
 31
0.0
  0
LINE
  5
15D
330
1F
100
AcDbEntity
  8
2-Fﾚｲﾔ
  6
Continuous
 62
     7
370
     9
100
AcDbLine
 10
401.639222841005
 20
643.3708154673144
 30
0.0
 11
365.9473151129647
 21
638.6719332354731
 31
0.0
  0
LINE
  5
15E
330
1F
100
AcDbEntity
  8
2-Fﾚｲﾔ
  6
Continuous
 62
     7
370
     9
100
AcDbLine
 10
621.6392558329816
 20
638.6719332354731
 30
0.0
 11
585.9473481049409
 21
643.3708154673144
 31
0.0
  0
LINE
  5
15F
330
1F
100
AcDbEntity
  8
2-Fﾚｲﾔ
  6
Continuous
 62
     7
370
     9
100
AcDbLine
 10
621.6392558329816
 20
643.3708154673144
 30
0.0
 11
585.9473481049409
 21
638.6719332354731
 31
0.0
  0
LINE
  5
160
330
1F
100
AcDbEntity
  8
2-Fﾚｲﾔ
  6
Continuous
 62
     7
370
     9
100
AcDbLine
 10
841.6392888249578
 20
638.6719332354731
 30
0.0
 11
805.9473810969172
 21
643.3708154673144
 31
0.0
  0
LINE
  5
161
330
1F
100
AcDbEntity
  8
2-Fﾚｲﾔ
  6
Continuous
 62
     7
370
     9
100
AcDbLine
 10
841.6392888249578
 20
643.3708154673144
 30
0.0
 11
805.9473810969172
 21
638.6719332354731
 31
0.0
  0
LINE
  5
162
330
1F
100
AcDbEntity
  8
2-Fﾚｲﾔ
  6
Continuous
 62
     7
370
     9
100
AcDbLine
 10
1041.293978304477
 20
641.0213743513938
 30
0.0
 11
1023.448024440456
 21
643.3708154673144
 31
0.0
  0
LINE
  5
163
330
1F
100
AcDbEntity
  8
2-Fﾚｲﾔ
  6
Continuous
 62
     7
370
     9
100
AcDbLine
 10
1041.293978304477
 20
641.0213743513938
 30
0.0
 11
1023.448024440456
 21
638.6719332354731
 31
0.0
  0
LINE
  5
164
330
1F
100
AcDbEntity
  8
2-Fﾚｲﾔ
  6
Continuous
 62
     7
370
     9
100
AcDbLine
 10
1066.293516416808
 20
600.140802006588
 30
0.0
 11
1066.293516416808
 21
710.1200335574749
 31
0.0
  0
LINE
  5
165
330
1F
100
AcDbEntity
  8
2-Fﾚｲﾔ
  6
Continuous
 62
     7
370
     9
100
AcDbLine
 10
1066.293516416808
 20
641.0213743513938
 30
0.0
 11
1084.139470280828
 21
643.3708154673144
 31
0.0
  0
LINE
  5
166
330
1F
100
AcDbEntity
  8
2-Fﾚｲﾔ
  6
Continuous
 62
     7
370
     9
100
AcDbLine
 10
1066.293516416808
 20
641.0213743513938
 30
0.0
 11
1084.139470280828
 21
638.6719332354731
 31
0.0
  0
LINE
  5
167
330
1F
100
AcDbEntity
  8
2-Fﾚｲﾔ
  6
Continuous
 62
     7
370
     9
100
AcDbLine
 10
1041.293978304477
 20
600.140802006588
 30
0.0
 11
1041.293978304477
 21
642.8213505971707
 31
0.0
  0
LINE
  5
168
330
1F
100
AcDbEntity
  8
2-Fﾚｲﾔ
  6
Continuous
 62
     7
370
     9
100
AcDbLine
 10
823.7933349609375
 20
600.140802006588
 30
0.0
 11
823.7933349609375
 21
642.8213505971707
 31
0.0
  0
LINE
  5
169
330
1F
100
AcDbEntity
  8
2-Fﾚｲﾔ
  6
Continuous
 62
     7
370
     9
100
AcDbLine
 10
-933.7066485430744
 20
600.140802006588
 30
0.0
 11
-933.7066485430744
 21
642.8213505971707
 31
0.0
  0
LINE
  5
16A
330
1F
100
AcDbEntity
  8
2-Fﾚｲﾔ
  6
Continuous
 62
     7
370
     9
100
AcDbLine
 10
-716.2065990551098
 20
600.140802006588
 30
0.0
 11
-716.2065990551098
 21
642.8213505971707
 31
0.0
  0
LINE
  5
16B
330
1F
100
AcDbEntity
  8
2-Fﾚｲﾔ
  6
Continuous
 62
     7
370
     9
100
AcDbLine
 10
-496.206714527027
 20
600.140802006588
 30
0.0
 11
-496.206714527027
 21
642.8213505971707
 31
0.0
  0
LINE
  5
16C
330
1F
100
AcDbEntity
  8
2-Fﾚｲﾔ
  6
Continuous
 62
     7
370
     9
100
AcDbLine
 10
-276.2066815350506
 20
600.140802006588
 30
0.0
 11
-276.2066815350506
 21
642.8213505971707
 31
0.0
  0
LINE
  5
16D
330
1F
100
AcDbEntity
  8
2-Fﾚｲﾔ
  6
Continuous
 62
     7
370
     9
100
AcDbLine
 10
-56.20672277502109
 20
600.140802006588
 30
0.0
 11
-56.20672277502109
 21
642.8213505971707
 31
0.0
  0
LINE
  5
16E
330
1F
100
AcDbEntity
  8
2-Fﾚｲﾔ
  6
Continuous
 62
     7
370
     9
100
AcDbLine
 10
163.7932359850086
 20
600.140802006588
 30
0.0
 11
163.7932359850086
 21
642.8213505971707
 31
0.0
  0
LINE
  5
16F
330
1F
100
AcDbEntity
  8
2-Fﾚｲﾔ
  6
Continuous
 62
     7
370
     9
100
AcDbLine
 10
383.793268976985
 20
600.140802006588
 30
0.0
 11
383.793268976985
 21
642.8213505971707
 31
0.0
  0
LINE
  5
170
330
1F
100
AcDbEntity
  8
2-Fﾚｲﾔ
  6
Continuous
 62
     7
370
     9
100
AcDbLine
 10
603.7933019689613
 20
600.140802006588
 30
0.0
 11
603.7933019689613
 21
642.8213505971707
 31
0.0
  0
LINE
  5
171
330
1F
100
AcDbEntity
  8
2-Fﾚｲﾔ
  6
Continuous
 62
     7
370
     9
100
AcDbLine
 10
-958.7064835831925
 20
708.3200573116978
 30
0.0
 11
1066.293516416808
 21
708.3200573116978
 31
0.0
  0
LINE
  5
172
330
1F
100
AcDbEntity
  8
2-Fﾚｲﾔ
  6
Continuous
 62
     7
370
     9
100
AcDbLine
 10
-958.7064835831925
 20
708.3200573116978
 30
0.0
 11
-940.8605297191722
 21
710.6694984276185
 31
0.0
  0
LINE
  5
173
330
1F
100
AcDbEntity
  8
2-Fﾚｲﾔ
  6
Continuous
 62
     7
370
     9
100
AcDbLine
 10
-958.7064835831925
 20
708.3200573116978
 30
0.0
 11
-940.8605297191722
 21
705.9706161957772
 31
0.0
  0
LINE
  5
174
330
1F
100
AcDbEntity
  8
2-Fﾚｲﾔ
  6
Continuous
 62
     7
370
     9
100
AcDbLine
 10
1066.293516416808
 20
708.3200573116978
 30
0.0
 11
1048.447562552787
 21
710.6694984276185
 31
0.0
  0
LINE
  5
175
330
1F
100
AcDbEntity
  8
2-Fﾚｲﾔ
  6
Continuous
 62
     7
370
     9
100
AcDbLine
 10
1066.293516416808
 20
708.3200573116978
 30
0.0
 11
1048.447562552787
 21
705.9706161957772
 31
0.0
  0
LINE
  5
176
330
1F
100
AcDbEntity
  8
2-Fﾚｲﾔ
  6
Continuous
 62
     7
370
     9
100
AcDbLine
 10
-907.2100005278716
 20
439.254489057897
 30
0.0
 11
-729.4394828177786
 21
439.254489057897
 31
0.0
  0
LINE
  5
177
330
1F
100
AcDbEntity
  8
2-Fﾚｲﾔ
  6
Continuous
 62
     7
370
     9
100
AcDbLine
 10
-1012.708591770481
 20
503.1405809603464
 30
0.0
 11
-1012.708591770481
 21
582.1407426210305
 31
0.0
  0
LINE
  5
178
330
1F
100
AcDbEntity
  8
2-Fﾚｲﾔ
  6
Continuous
 62
     7
370
     9
100
AcDbLine
 10
-976.70654296875
 20
503.1405809603464
 30
0.0
 11
-1014.508568016258
 21
503.1405809603464
 31
0.0
  0
LINE
  5
179
330
1F
100
AcDbEntity
  8
2-Fﾚｲﾔ
  6
Continuous
 62
     7
370
     9
100
AcDbLine
 10
-976.70654296875
 20
582.1407426210305
 30
0.0
 11
-1014.508568016258
 21
582.1407426210305
 31
0.0
  0
LINE
  5
17A
330
1F
100
AcDbEntity
  8
2-Fﾚｲﾔ
  6
Continuous
 62
     7
370
     9
100
AcDbLine
 10
-1012.708591770481
 20
503.1405809603464
 30
0.0
 11
-1015.058032886402
 21
520.9865348243668
 31
0.0
  0
LINE
  5
17B
330
1F
100
AcDbEntity
  8
2-Fﾚｲﾔ
  6
Continuous
 62
     7
370
     9
100
AcDbLine
 10
-1012.708591770481
 20
503.1405809603464
 30
0.0
 11
-1010.359002190667
 21
520.9865348243668
 31
0.0
  0
LINE
  5
17C
330
1F
100
AcDbEntity
  8
2-Fﾚｲﾔ
  6
Continuous
 62
     7
370
     9
100
AcDbLine
 10
-1012.708591770481
 20
582.1407426210305
 30
0.0
 11
-1015.058032886402
 21
564.2947887570103
 31
0.0
  0
LINE
  5
17D
330
1F
100
AcDbEntity
  8
2-Fﾚｲﾔ
  6
Continuous
 62
     7
370
     9
100
AcDbLine
 10
-1012.708591770481
 20
582.1407426210305
 30
0.0
 11
-1010.359002190667
 21
564.2947887570103
 31
0.0
  0
LINE
  5
17E
330
1F
100
AcDbEntity
  8
2-Fﾚｲﾔ
  6
Continuous
 62
     7
370
     9
100
AcDbLine
 10
-691.2066155510979
 20
503.1405809603464
 30
0.0
 11
-674.0884316934121
 21
439.254489057897
 31
0.0
  0
LINE
  5
17F
330
1F
100
AcDbEntity
  8
2-Fﾚｲﾔ
  6
Continuous
 62
     7
370
     9
100
AcDbLine
 10
-691.2066155510979
 20
503.1405809603464
 30
0.0
 11
-684.3183362806166
 21
486.5106948486488
 31
0.0
  0
LINE
  5
180
330
1F
100
AcDbEntity
  8
2-Fﾚｲﾔ
  6
Continuous
 62
     7
370
     9
100
AcDbLine
 10
-691.2066155510979
 20
503.1405809603464
 30
0.0
 11
-688.8571744351773
 21
485.2946270963261
 31
0.0
  0
LINE
  5
181
330
1F
100
AcDbEntity
  8
2-Fﾚｲﾔ
  6
Continuous
 62
     7
370
     9
100
AcDbLine
 10
-378.4411456133867
 20
573.1407129282519
 30
0.0
 11
-342.5664046004011
 21
439.254489057897
 31
0.0
  0
LINE
  5
182
330
1F
100
AcDbEntity
  8
2-Fﾚｲﾔ
  6
Continuous
 62
     7
370
     9
100
AcDbLine
 10
-378.4411456133867
 20
573.1407129282519
 30
0.0
 11
-371.5528663429053
 21
556.5108268165543
 31
0.0
  0
LINE
  5
183
330
1F
100
AcDbEntity
  8
2-Fﾚｲﾔ
  6
Continuous
 62
     7
370
     9
100
AcDbLine
 10
-378.4411456133867
 20
573.1407129282519
 30
0.0
 11
-376.0917044974661
 21
555.2947590642316
 31
0.0
  0
LINE
  5
184
330
1F
100
AcDbEntity
  8
2-Fﾚｲﾔ
  6
Continuous
 62
     7
370
     9
100
AcDbLine
 10
-342.5664046004011
 20
439.254489057897
 30
0.0
 11
-250.4720244536528
 21
439.254489057897
 31
0.0
  0
LINE
  5
185
330
1F
100
AcDbEntity
  8
2-Fﾚｲﾔ
  6
Continuous
 62
     7
370
     9
100
AcDbLine
 10
-674.0884316934121
 20
439.254489057897
 30
0.0
 11
-567.6085683461782
 21
439.254489057897
 31
0.0
  0
CIRCLE
  5
186
330
1F
100
AcDbEntity
  8
2-1
  6
Continuous
 62
     4
370
     9
100
AcDbCircle
 10
-716.2065990551098
 20
538.1406469442991
 30
0.0
 40
6.000000077324945
  0
CIRCLE
  5
187
330
1F
100
AcDbEntity
  8
2-1
  6
Continuous
 62
     4
370
     9
100
AcDbCircle
 10
-933.7066485430744
 20
538.1406469442991
 30
0.0
 40
6.000000077324945
  0
CIRCLE
  5
188
330
1F
100
AcDbEntity
  8
2-1
  6
Continuous
 62
     4
370
     9
100
AcDbCircle
 10
-496.206714527027
 20
538.1406469442991
 30
0.0
 40
6.000000077324945
  0
CIRCLE
  5
189
330
1F
100
AcDbEntity
  8
2-1
  6
Continuous
 62
     4
370
     9
100
AcDbCircle
 10
-276.2066073031039
 20
538.1406469442991
 30
0.0
 40
6.000000077324945
  0
CIRCLE
  5
18A
330
1F
100
AcDbEntity
  8
2-1
  6
Continuous
 62
     4
370
     9
100
AcDbCircle
 10
-56.2065743111275
 20
538.1406469442991
 30
0.0
 40
6.000000077324945
  0
CIRCLE
  5
18B
330
1F
100
AcDbEntity
  8
2-1
  6
Continuous
 62
     4
370
     9
100
AcDbCircle
 10
163.7935329127956
 20
538.1406469442991
 30
0.0
 40
6.000000077324945
  0
CIRCLE
  5
18C
330
1F
100
AcDbEntity
  8
2-1
  6
Continuous
 62
     4
370
     9
100
AcDbCircle
 10
383.7935659047722
 20
538.1406469442991
 30
0.0
 40
6.000000077324945
  0
CIRCLE
  5
18D
330
1F
100
AcDbEntity
  8
2-1
  6
Continuous
 62
     4
370
     9
100
AcDbCircle
 10
603.7935988967484
 20
538.1406469442991
 30
0.0
 40
6.000000077324945
  0
CIRCLE
  5
18E
330
1F
100
AcDbEntity
  8
2-1
  6
Continuous
 62
     4
370
     9
100
AcDbCircle
 10
1041.293978304477
 20
538.1406469442991
 30
0.0
 40
6.000000077324945
  0
CIRCLE
  5
18F
330
1F
100
AcDbEntity
  8
2-1
  6
Continuous
 62
     4
370
     9
100
AcDbCircle
 10
823.7936318887247
 20
538.1406469442991
 30
0.0
 40
6.000000077324945
  0
TEXT
  5
190
330
1F
100
AcDbEntity
  8
2-Fﾚｲﾔ
  6
Continuous
 62
     2
370
     9
100
AcDbText
 10
1078.816307274071
 20
647.4053842489866
 30
0.0
 40
18.288
  1
２５
 41
1.0625
  7
ＭＳ ゴシック
100
AcDbText
  0
TEXT
  5
191
330
1F
100
AcDbEntity
  8
2-Fﾚｲﾔ
  6
Continuous
 62
     2
370
     9
100
AcDbText
 10
866.5438050966006
 20
647.4053842489866
 30
0.0
 40
18.288
  1
２１７．５
 41
1.1
  7
ＭＳ ゴシック
100
AcDbText
  0
TEXT
  5
192
330
1F
100
AcDbEntity
  8
2-Fﾚｲﾔ
  6
Continuous
 62
     2
370
     9
100
AcDbText
 10
-1013.122063095505
 20
647.4053842489866
 30
0.0
 40
18.288
  1
２５
 41
1.0625
  7
ＭＳ ゴシック
100
AcDbText
  0
TEXT
  5
193
330
1F
100
AcDbEntity
  8
2-Fﾚｲﾔ
  6
Continuous
 62
     2
370
     9
100
AcDbText
 10
-890.9566237990921
 20
647.4053842489866
 30
0.0
 40
18.288
  1
２１７．５
 41
1.1
  7
ＭＳ ゴシック
100
AcDbText
  0
TEXT
  5
194
330
1F
100
AcDbEntity
  8
2-Fﾚｲﾔ
  6
Continuous
 62
     2
370
     9
100
AcDbText
 10
-645.2065454431482
 20
647.4053842489866
 30
0.0
 40
18.288
  1
２２０
 41
1.083333333333333
  7
ＭＳ ゴシック
100
AcDbText
  0
TEXT
  5
195
330
1F
100
AcDbEntity
  8
2-Fﾚｲﾔ
  6
Continuous
 62
     2
370
     9
100
AcDbText
 10
-425.2066609150654
 20
647.4053842489866
 30
0.0
 40
18.288
  1
２２０
 41
1.083333333333333
  7
ＭＳ ゴシック
100
AcDbText
  0
TEXT
  5
196
330
1F
100
AcDbEntity
  8
2-Fﾚｲﾔ
  6
Continuous
 62
     2
370
     9
100
AcDbText
 10
-205.206627923089
 20
647.4053842489866
 30
0.0
 40
18.288
  1
２２０
 41
1.083333333333333
  7
ＭＳ ゴシック
100
AcDbText
  0
TEXT
  5
197
330
1F
100
AcDbEntity
  8
2-Fﾚｲﾔ
  6
Continuous
 62
     2
370
     9
100
AcDbText
 10
14.79321948902032
 20
647.4053842489866
 30
0.0
 40
18.288
  1
２２０
 41
1.083333333333333
  7
ＭＳ ゴシック
100
AcDbText
  0
TEXT
  5
198
330
1F
100
AcDbEntity
  8
2-Fﾚｲﾔ
  6
Continuous
 62
     2
370
     9
100
AcDbText
 10
234.7932524809967
 20
647.4053842489866
 30
0.0
 40
18.288
  1
２２０
 41
1.083333333333333
  7
ＭＳ ゴシック
100
AcDbText
  0
TEXT
  5
199
330
1F
100
AcDbEntity
  8
2-Fﾚｲﾔ
  6
Continuous
 62
     2
370
     9
100
AcDbText
 10
454.7931370090795
 20
647.4053842489866
 30
0.0
 40
18.288
  1
２２０
 41
1.083333333333333
  7
ＭＳ ゴシック
100
AcDbText
  0
TEXT
  5
19A
330
1F
100
AcDbEntity
  8
2-Fﾚｲﾔ
  6
Continuous
 62
     2
370
     9
100
AcDbText
 10
674.7931700010558
 20
647.4053842489866
 30
0.0
 40
18.288
  1
２２０
 41
1.083333333333333
  7
ＭＳ ゴシック
100
AcDbText
  0
TEXT
  5
19B
330
1F
100
AcDbEntity
  8
2-Fﾚｲﾔ
  6
Continuous
 62
     2
370
     9
100
AcDbText
 10
1.293590648754304
 20
714.7040672092907
 30
0.0
 40
18.288
  1
２０２５
 41
1.09375
  7
ＭＳ ゴシック
100
AcDbText
  0
TEXT
  5
19C
330
1F
100
AcDbEntity
  8
2-Fﾚｲﾔ
  6
Continuous
 62
     2
370
     9
100
AcDbText
 10
-1019.092600553434
 20
517.1405874108223
 30
0.0
 40
18.288
  1
７９
 50
90.00000250447816
 41
1.062500000000001
  7
ＭＳ ゴシック
100
AcDbText
  0
TEXT
  5
19D
330
1F
100
AcDbEntity
  8
2-Fﾚｲﾔ
  6
Continuous
 62
     2
370
     9
100
AcDbText
 10
-663.4092580434439
 20
448.3981458093752
 30
0.0
 40
18.288
  1
ベース
 41
1.083333333333333
  7
ＭＳ ゴシック
100
AcDbText
  0
TEXT
  5
19E
330
1F
100
AcDbEntity
  8
2-Fﾚｲﾔ
  6
Continuous
 62
     2
370
     9
100
AcDbText
 10
-330.1818336280617
 20
448.3981458093752
 30
0.0
 40
18.288
  1
本体
 41
1.0625
  7
ＭＳ ゴシック
100
AcDbText
  0
TEXT
  5
19F
330
1F
100
AcDbEntity
  8
2-Fﾚｲﾔ
  6
Continuous
 62
     3
370
     9
100
AcDbText
 10
-1033.321318755279
 20
760.7840463055745
 30
0.0
 40
22.86
  1
ガーデンエッジ　ＩＡ－３０　平面図　S=1:6
 41
1.097560975609756
  7
ＭＳ ゴシック
100
AcDbText
  0
LINE
  5
1A0
330
1F
100
AcDbEntity
  8
1-F
  6
Continuous
 62
     7
370
     9
100
AcDbLine
 10
842.2819890202703
 20
-215.721778663429
 30
0.0
 11
842.2819890202703
 21
-210.8720571157095
 31
0.0
  0
LINE
  5
1A1
330
1F
100
AcDbEntity
  8
1-F
  6
Continuous
 62
     7
370
     9
100
AcDbLine
 10
842.2819890202703
 20
-210.8720571157095
 30
0.0
 11
789.7818900443413
 21
-180.5610747466216
 31
0.0
  0
LINE
  5
1A2
330
1F
100
AcDbEntity
  8
1-F
  6
Continuous
 62
     7
370
     9
100
AcDbLine
 10
842.2819890202703
 20
-215.721778663429
 30
0.0
 11
789.7818900443413
 21
-185.4107962943412
 31
0.0
  0
LINE
  5
1A3
330
1F
100
AcDbEntity
  8
1-F
  6
Continuous
 62
     7
370
     9
100
AcDbLine
 10
789.7818900443413
 20
-180.5610747466216
 30
0.0
 11
789.7818900443413
 21
-185.4107962943412
 31
0.0
  0
LINE
  5
1A4
330
1F
100
AcDbEntity
  8
1-F
  6
Continuous
 62
     7
370
     9
100
AcDbLine
 10
849.6321394636825
 20
-209.0533744193412
 30
0.0
 11
847.5322661528716
 21
-212.6907398120777
 31
0.0
  0
LINE
  5
1A5
330
1F
100
AcDbEntity
  8
1-F
  6
Continuous
 62
     7
370
     9
100
AcDbLine
 10
865.9067514780406
 20
-202.0818069045608
 30
0.0
 11
863.8071750950169
 21
-203.2941630595439
 31
0.0
  0
LINE
  5
1A6
330
1F
100
AcDbEntity
  8
1-F
  6
Continuous
 62
     7
370
     9
100
AcDbLine
 10
847.5322661528716
 20
-212.6907398120777
 30
0.0
 11
842.2819890202703
 21
-215.721778663429
 31
0.0
  0
LINE
  5
1A7
330
1F
100
AcDbEntity
  8
1-F
  6
Continuous
 62
     7
370
     9
100
AcDbLine
 10
865.9067514780406
 20
-202.0818069045608
 30
0.0
 11
865.9067514780406
 21
-199.6567976668074
 31
0.0
  0
LINE
  5
1A8
330
1F
100
AcDbEntity
  8
1-F
  6
Continuous
 62
     7
370
     9
100
AcDbLine
 10
863.8071750950169
 20
-202.6881334459459
 30
0.0
 11
863.8071750950169
 21
-203.2941630595439
 31
0.0
  0
LINE
  5
1A9
330
1F
100
AcDbEntity
  8
1-F
  6
Continuous
 62
     7
370
     9
100
AcDbLine
 10
862.2319731841216
 20
-201.7786436338682
 30
0.0
 11
849.6321394636825
 21
-209.0533744193412
 31
0.0
  0
LINE
  5
1AA
330
1F
100
AcDbEntity
  8
1-F
  6
Continuous
 62
     7
370
     9
100
AcDbLine
 10
863.8071750950169
 20
-203.2941630595439
 30
0.0
 11
861.7070048564191
 21
-202.0818069045608
 31
0.0
  0
LINE
  5
1AB
330
1F
100
AcDbEntity
  8
1-F
  6
Continuous
 62
     7
370
     9
100
AcDbLine
 10
905.2817514780406
 20
-252.0948387352195
 30
0.0
 11
905.2817514780406
 21
-247.2452656513935
 31
0.0
  0
LINE
  5
1AC
330
1F
100
AcDbEntity
  8
1-F
  6
Continuous
 62
     7
370
     9
100
AcDbLine
 10
905.2817514780406
 20
-247.2452656513935
 30
0.0
 11
852.7819494298988
 21
-216.9341348184121
 31
0.0
  0
LINE
  5
1AD
330
1F
100
AcDbEntity
  8
1-F
  6
Continuous
 62
     7
370
     9
100
AcDbLine
 10
905.2817514780406
 20
-252.0948387352195
 30
0.0
 11
852.7819494298988
 21
-221.7838563661317
 31
0.0
  0
LINE
  5
1AE
330
1F
100
AcDbEntity
  8
1-F
  6
Continuous
 62
     7
370
     9
100
AcDbLine
 10
852.7819494298988
 20
-216.9341348184121
 30
0.0
 11
852.7819494298988
 21
-221.7838563661317
 31
0.0
  0
LINE
  5
1AF
330
1F
100
AcDbEntity
  8
1-F
  6
Continuous
 62
     7
370
     9
100
AcDbLine
 10
912.63219884924
 20
-245.4265829550253
 30
0.0
 11
910.5320286106419
 21
-249.0636514199746
 31
0.0
  0
LINE
  5
1B0
330
1F
100
AcDbEntity
  8
1-F
  6
Continuous
 62
     7
370
     9
100
AcDbLine
 10
928.9068108635981
 20
-238.4548669763513
 30
0.0
 11
926.8072344805744
 21
-239.6675200591216
 31
0.0
  0
LINE
  5
1B1
330
1F
100
AcDbEntity
  8
1-F
  6
Continuous
 62
     7
370
     9
100
AcDbLine
 10
910.5320286106419
 20
-249.0636514199746
 30
0.0
 11
905.2817514780406
 21
-252.0948387352195
 31
0.0
  0
LINE
  5
1B2
330
1F
100
AcDbEntity
  8
1-F
  6
Continuous
 62
     7
370
     9
100
AcDbLine
 10
955.1570088154563
 20
-223.299524255701
 30
0.0
 11
955.1570088154563
 21
-220.8745150179476
 31
0.0
  0
LINE
  5
1B3
330
1F
100
AcDbEntity
  8
1-F
  6
Continuous
 62
     7
370
     9
100
AcDbLine
 10
957.2571790540541
 20
-222.0871681007179
 30
0.0
 11
955.1570088154563
 21
-223.299524255701
 31
0.0
  0
LINE
  5
1B4
330
1F
100
AcDbEntity
  8
1-F
  6
Continuous
 62
     7
370
     9
100
AcDbLine
 10
955.1570088154563
 20
-220.8745150179476
 30
0.0
 11
928.9068108635981
 21
-236.0301546663851
 31
0.0
  0
LINE
  5
1B5
330
1F
100
AcDbEntity
  8
1-F
  6
Continuous
 62
     7
370
     9
100
AcDbLine
 10
928.9068108635981
 20
-238.4548669763513
 30
0.0
 11
928.9068108635981
 21
-236.0301546663851
 31
0.0
  0
LINE
  5
1B6
330
1F
100
AcDbEntity
  8
1-F
  6
Continuous
 62
     7
370
     9
100
AcDbLine
 10
926.8072344805744
 20
-239.0611935177365
 30
0.0
 11
926.8072344805744
 21
-239.6675200591216
 31
0.0
  0
LINE
  5
1B7
330
1F
100
AcDbEntity
  8
1-F
  6
Continuous
 62
     7
370
     9
100
AcDbLine
 10
925.2320325696791
 20
-238.1518521695523
 30
0.0
 11
912.63219884924
 21
-245.4265829550253
 31
0.0
  0
LINE
  5
1B8
330
1F
100
AcDbEntity
  8
1-F
  6
Continuous
 62
     7
370
     9
100
AcDbLine
 10
957.2571790540541
 20
-220.2684854043496
 30
0.0
 11
957.2571790540541
 21
-222.0871681007179
 31
0.0
  0
LINE
  5
1B9
330
1F
100
AcDbEntity
  8
1-F
  6
Continuous
 62
     7
370
     9
100
AcDbLine
 10
955.1570088154563
 20
-223.299524255701
 30
0.0
 11
953.0574324324325
 21
-222.0871681007179
 31
0.0
  0
LINE
  5
1BA
330
1F
100
AcDbEntity
  8
1-F
  6
Continuous
 62
     7
370
     9
100
AcDbLine
 10
926.8072344805744
 20
-239.6675200591216
 30
0.0
 11
924.7070642419762
 21
-238.4548669763513
 31
0.0
  0
LINE
  5
1BB
330
1F
100
AcDbEntity
  8
1-F
  6
Continuous
 62
     7
370
     9
100
AcDbLine
 10
973.0071196684966
 20
-211.1750719225084
 30
0.0
 11
974.5823215793919
 21
-212.0844132706925
 31
0.0
  0
LINE
  5
1BC
330
1F
100
AcDbEntity
  8
1-F
  6
Continuous
 62
     7
370
     9
100
AcDbLine
 10
971.9571830130913
 20
-211.1750719225084
 30
0.0
 11
957.7821473817569
 21
-219.3591440561655
 31
0.0
  0
LINE
  5
1BD
330
1F
100
AcDbEntity
  8
1-F
  6
Continuous
 62
     7
370
     9
100
AcDbLine
 10
981.4072067673144
 20
-208.1441815350506
 30
0.0
 11
974.5823215793919
 21
-212.0844132706925
 31
0.0
  0
LINE
  5
1BE
330
1F
100
AcDbEntity
  8
1-F
  6
Continuous
 62
     7
370
     9
100
AcDbLine
 10
811.8320444467906
 20
-167.830592799831
 30
0.0
 11
789.7818900443413
 21
-180.5610747466216
 31
0.0
  0
LINE
  5
1BF
330
1F
100
AcDbEntity
  8
1-3ﾚｲﾔ
  6
Continuous
 62
     6
370
     5
100
AcDbLine
 10
925.0126029349663
 20
-208.1441815350506
 30
0.0
 11
925.0126029349663
 21
-203.0487522434544
 31
0.0
  0
LINE
  5
1C0
330
1F
100
AcDbEntity
  8
1-3ﾚｲﾔ
  6
Continuous
 62
     6
370
     5
100
AcDbLine
 10
901.3032160578547
 20
-208.1441815350506
 30
0.0
 11
901.3032160578547
 21
-203.0487522434544
 31
0.0
  0
LINE
  5
1C1
330
1F
100
AcDbEntity
  8
1-3ﾚｲﾔ
  6
Continuous
 62
     6
370
     5
100
AcDbLine
 10
867.2625237542231
 20
-174.8020118507179
 30
0.0
 11
867.2625237542231
 21
-169.7067310230152
 31
0.0
  0
LINE
  5
1C2
330
1F
100
AcDbEntity
  8
1-3ﾚｲﾔ
  6
Continuous
 62
     6
370
     5
100
AcDbLine
 10
843.5531368771116
 20
-174.8020118507179
 30
0.0
 11
843.5531368771116
 21
-169.7067310230152
 31
0.0
  0
LINE
  5
1C3
330
1F
100
AcDbEntity
  8
1-F
  6
Continuous
 62
     7
370
     9
100
AcDbLine
 10
792.5210488809122
 20
-239.2063912056587
 30
0.0
 11
701.5536581503378
 21
-239.2063912056587
 31
0.0
  0
ARC
  5
1C4
330
1F
100
AcDbEntity
  8
1-F
  6
Continuous
 62
     7
370
     9
100
AcDbCircle
 10
862.7572384396116
 20
-202.6881334459459
 30
0.0
 40
1.050000013531865
100
AcDbArc
 50
0.0
 51
119.9989013671875
  0
ARC
  5
1C5
330
1F
100
AcDbEntity
  8
1-F
  6
Continuous
 62
     7
370
     9
100
AcDbCircle
 10
925.7570008973819
 20
-239.0611935177365
 30
0.0
 40
1.050000013531865
100
AcDbArc
 50
0.0
 51
119.9989013671875
  0
ARC
  5
1C6
330
1F
100
AcDbEntity
  8
1-F
  6
Continuous
 62
     7
370
     9
100
AcDbCircle
 10
958.3071157094594
 20
-220.2684854043496
 30
0.0
 40
1.050000013531865
100
AcDbArc
 50
120.0012664794922
 51
180.0
  0
ARC
  5
1C7
330
1F
100
AcDbEntity
  8
1-F
  6
Continuous
 62
     7
370
     9
100
AcDbCircle
 10
972.4821513407941
 20
-212.0844132706925
 30
0.0
 40
1.050000013531865
100
AcDbArc
 50
60.00119018554688
 51
119.9988098144531
  0
ELLIPSE
  5
1C8
330
1F
100
AcDbEntity
  8
1-3ﾚｲﾔ
  6
Continuous
 62
     6
370
     5
100
AcDbEllipse
 10
913.1568702491553
 20
-203.773998363598
 30
0.0
 11
-11.85468299967309
 21
-1.894255830211085E-5
 31
0.0
210
0.0
220
0.0
230
1.0
 40
0.5772
 41
0.0
 42
6.283185307179586
  0
ELLIPSE
  5
1C9
330
1F
100
AcDbEntity
  8
1-3ﾚｲﾔ
  6
Continuous
 62
     6
370
     5
100
AcDbEllipse
 10
913.1568702491553
 20
-208.1441815350506
 30
0.0
 11
-11.85468299967309
 21
-1.894255830211085E-5
 31
0.0
210
0.0
220
0.0
230
1.0
 40
0.5772
 41
0.0
 42
3.141592653589793
  0
ELLIPSE
  5
1CA
330
1F
100
AcDbEntity
  8
1-3ﾚｲﾔ
  6
Continuous
 62
     6
370
     5
100
AcDbEllipse
 10
855.4070879961994
 20
-170.4319771431587
 30
0.0
 11
-11.85468299967309
 21
-1.894255830211085E-5
 31
0.0
210
0.0
220
0.0
230
1.0
 40
0.5772
 41
0.0
 42
6.283185307179586
  0
ELLIPSE
  5
1CB
330
1F
100
AcDbEntity
  8
1-3ﾚｲﾔ
  6
Continuous
 62
     6
370
     5
100
AcDbEllipse
 10
855.4070879961994
 20
-174.8020118507179
 30
0.0
 11
-11.85468299967309
 21
-1.894255830211085E-5
 31
0.0
210
0.0
220
0.0
230
1.0
 40
0.5772
 41
0.0
 42
3.141592653589793
  0
TEXT
  5
1CC
330
1F
100
AcDbEntity
  8
1-F
  6
Continuous
 62
     7
370
     9
100
AcDbText
 10
702.7005268818623
 20
-233.0959045344172
 30
0.0
 40
13.716
  1
固定用釘
 41
1.125
  7
ＭＳ ゴシック
100
AcDbText
  0
LINE
  5
1CD
330
1F
100
AcDbEntity
  8
1-F
  6
Continuous
 62
     7
370
     9
100
AcDbLine
 10
840.8203187924676
 20
-33.30508340371625
 30
0.0
 11
705.9010831505757
 21
-33.30508340371625
 31
0.0
  0
LINE
  5
1CE
330
1F
100
AcDbEntity
  8
1-F
  6
Continuous
 62
     7
370
     9
100
AcDbLine
 10
840.8203187924676
 20
-63.30488545185813
 30
0.0
 11
705.9010831505757
 21
-63.30488545185813
 31
0.0
  0
LINE
  5
1CF
330
1F
100
AcDbEntity
  8
1-F
  6
Continuous
 62
     7
370
     9
100
AcDbLine
 10
840.8203187924676
 20
-33.30508340371625
 30
0.0
 11
840.8203187924676
 21
-63.30488545185813
 31
0.0
  0
LINE
  5
1D0
330
1F
100
AcDbEntity
  8
1-F
  6
Continuous
 62
     7
370
     9
100
AcDbLine
 10
705.9010831505757
 20
-33.30508340371625
 30
0.0
 11
705.9010831505757
 21
-63.30488545185813
 31
0.0
  0
TEXT
  5
1D1
330
1F
100
AcDbEntity
  8
1-F
  6
Continuous
 62
     7
370
     9
100
AcDbText
 10
711.860552507628
 20
-54.76686565667217
 30
0.0
 40
13.716
  1
ジョイント部
 41
1.138888888888889
  7
ＭＳ ゴシック
100
AcDbText
  0
TEXT
  5
1D2
330
1F
100
AcDbEntity
  8
F-5ﾚｲﾔ
  6
Continuous
 62
     2
370
     9
100
AcDbText
 10
-348.376560062033
 20
-793.1003213915013
 30
0.0
 40
18.288
  1
アルミ製　舗装用見切材　ＩＡ－３０　
 41
1.118055555555556
  7
ＭＳ ゴシック
100
AcDbText
  0
LINE
  5
1D3
330
1F
100
AcDbEntity
  8
2-Fﾚｲﾔ
  6
Continuous
 62
     7
370
     9
100
AcDbLine
 10
-932.1536360739605
 20
532.3451182196117
 30
0.0
 11
-925.2653568034791
 21
515.7152321079141
 31
0.0
  0
LINE
  5
1D4
330
1F
100
AcDbEntity
  8
2-Fﾚｲﾔ
  6
Continuous
 62
     7
370
     9
100
AcDbLine
 10
-932.1536360739605
 20
532.3451182196117
 30
0.0
 11
-929.8041949580398
 21
514.4991643555913
 31
0.0
  0
TEXT
  5
1D5
330
1F
100
AcDbEntity
  8
2-Fﾚｲﾔ
  6
Continuous
 62
     2
370
     9
100
AcDbText
 10
-896.4226115458721
 20
448.3981458093752
 30
0.0
 40
18.288
  1
１０－φ１２
 41
1.104166666666667
  7
ＭＳ ゴシック
100
AcDbText
  0
LINE
  5
1D6
330
1F
100
AcDbEntity
  8
1-F
  6
Continuous
 62
     7
370
     9
100
AcDbLine
 10
795.4210797863453
 20
-597.0171797468855
 30
0.0
 11
896.0460129532563
 21
-538.9215276007008
 31
0.0
  0
LINE
  5
1D7
330
1F
100
AcDbEntity
  8
1-F
  6
Continuous
 62
     7
370
     9
100
AcDbLine
 10
898.3092303881191
 20
-513.1720844990498
 30
0.0
 11
896.0460467943691
 21
-511.8654313337056
 31
0.0
  0
LINE
  5
1D8
330
1F
100
AcDbEntity
  8
1-F
  6
Continuous
 62
     7
370
     9
100
AcDbLine
 10
901.2615833758725
 20
-511.467533420872
 30
0.0
 11
896.0460467943691
 21
-508.4563338867246
 31
0.0
  0
LINE
  5
1D9
330
1F
100
AcDbEntity
  8
1-E
  6
Continuous
 62
     2
370
     9
100
AcDbLine
 10
901.2615833758725
 20
-511.467533420872
 30
0.0
 11
901.2615833758725
 21
-538.5290494351773
 31
0.0
  0
LINE
  5
1DA
330
1F
100
AcDbEntity
  8
1-F
  6
Continuous
 62
     7
370
     9
100
AcDbLine
 10
901.2615833758725
 20
-511.467533420872
 30
0.0
 11
901.2615833758725
 21
-538.5290494351773
 31
0.0
  0
LINE
  5
1DB
330
1F
100
AcDbEntity
  8
1-F
  6
Continuous
 62
     7
370
     9
100
AcDbLine
 10
901.2615833758725
 20
-538.5290494351773
 30
0.0
 11
905.0417710342338
 21
-540.7116171347128
 31
0.0
  0
ELLIPSE
  5
1DC
330
1F
100
AcDbEntity
  8
1-E
  6
Continuous
 62
     6
370
     5
100
AcDbEllipse
 10
742.7904716627327
 20
-503.840350358936
 30
0.0
 11
12.72792206135786
 21
0.0
 31
0.0
210
0.0
220
0.0
230
1.0
 40
0.5773502691896226
 41
3.926990816987241
 42
7.068583470577035
  0
ELLIPSE
  5
1DD
330
1F
100
AcDbEntity
  8
1-E
  6
Continuous
 62
     6
370
     5
100
AcDbEllipse
 10
703.1604175199865
 20
-480.959927931622
 30
0.0
 11
-12.72792206135792
 21
5.808204941384006E-14
 31
0.0
210
0.0
220
0.0
230
1.0
 40
0.5773502691896246
 41
3.92699081698724
 42
7.068583470577038
  0
ELLIPSE
  5
1DE
330
1F
100
AcDbEntity
  8
1-E
  6
Continuous
 62
     6
370
     5
100
AcDbEllipse
 10
702.3324175199865
 20
-482.3940660002891
 30
0.0
 11
-12.72792206135792
 21
5.808204941384006E-14
 31
0.0
210
0.0
220
0.0
230
1.0
 40
0.5773502691896246
 41
3.92699081698724
 42
5.858393381887097
  0
ELLIPSE
  5
1DF
330
1F
100
AcDbEntity
  8
1-E
  6
Continuous
 62
     6
370
     5
100
AcDbEllipse
 10
741.9624716627327
 20
-505.274488427603
 30
0.0
 11
12.72792206135786
 21
0.0
 31
0.0
210
0.0
220
0.0
230
1.0
 40
0.5773502691896226
 41
6.064476123678737
 42
7.068583470577035
  0
LINE
  5
1E0
330
1F
100
AcDbEntity
  8
1-E
  6
Continuous
 62
     6
370
     5
100
AcDbLine
 10
694.1604175199865
 20
-486.1560803543287
 30
0.0
 11
706.5646185485007
 21
-493.3176491572236
 31
0.0
  0
LINE
  5
1E1
330
1F
100
AcDbEntity
  8
1-E
  6
Continuous
 62
     6
370
     5
100
AcDbLine
 10
722.5252116618452
 20
-502.5325018876391
 30
0.0
 11
733.7904716627328
 21
-509.0365027816426
 31
0.0
  0
LINE
  5
1E2
330
1F
100
AcDbEntity
  8
1-E
  6
Continuous
 62
     6
370
     5
100
AcDbLine
 10
740.673534389386
 20
-492.2258312088985
 30
0.0
 11
751.7904716627327
 21
-498.6441979362294
 31
0.0
  0
LINE
  5
1E3
330
1F
100
AcDbEntity
  8
1-E
  6
Continuous
 62
     6
370
     5
100
AcDbLine
 10
712.1604175199866
 20
-475.7637755089154
 30
0.0
 11
715.5465489162777
 21
-477.7187593820756
 31
0.0
  0
LINE
  5
1E4
330
1F
100
AcDbEntity
  8
1-3ﾚｲﾔ
  6
Continuous
 62
     6
370
     5
100
AcDbLine
 10
789.692006596945
 20
-540.7116171347128
 30
0.0
 11
789.692006596945
 21
-534.5515061180897
 31
0.0
  0
LINE
  5
1E5
330
1F
100
AcDbEntity
  8
1-3ﾚｲﾔ
  6
Continuous
 62
     6
370
     5
100
AcDbLine
 10
706.5318866381191
 20
-492.6988764582453
 30
0.0
 11
706.5318866381191
 21
-486.301551112562
 31
0.0
  0
ELLIPSE
  5
1E6
330
1F
100
AcDbEntity
  8
1-E
  6
Continuous
 62
     6
370
     5
100
AcDbEllipse
 10
825.9499977659842
 20
-551.8528312235898
 30
0.0
 11
12.72792206135786
 21
0.0
 31
0.0
210
0.0
220
0.0
230
1.0
 40
0.5773502691896226
 41
3.926990816987241
 42
7.068583470577035
  0
ELLIPSE
  5
1E7
330
1F
100
AcDbEntity
  8
1-E
  6
Continuous
 62
     6
370
     5
100
AcDbEllipse
 10
786.3199436232381
 20
-528.9724087962758
 30
0.0
 11
-12.72792206135792
 21
5.808204941384006E-14
 31
0.0
210
0.0
220
0.0
230
1.0
 40
0.5773502691896246
 41
3.92699081698724
 42
7.068583470577038
  0
ELLIPSE
  5
1E8
330
1F
100
AcDbEntity
  8
1-E
  6
Continuous
 62
     6
370
     5
100
AcDbEllipse
 10
785.4919436232381
 20
-530.4065468649428
 30
0.0
 11
-12.72792206135792
 21
5.808204941384006E-14
 31
0.0
210
0.0
220
0.0
230
1.0
 40
0.5773502691896246
 41
3.92699081698724
 42
5.858393381887097
  0
ELLIPSE
  5
1E9
330
1F
100
AcDbEntity
  8
1-E
  6
Continuous
 62
     6
370
     5
100
AcDbEllipse
 10
825.1219977659841
 20
-553.2869692922568
 30
0.0
 11
12.72792206135786
 21
0.0
 31
0.0
210
0.0
220
0.0
230
1.0
 40
0.5773502691896226
 41
6.064476123678737
 42
7.068583470577035
  0
LINE
  5
1EA
330
1F
100
AcDbEntity
  8
1-E
  6
Continuous
 62
     6
370
     5
100
AcDbLine
 10
777.3199436232381
 20
-534.1685612189824
 30
0.0
 11
789.7241446517523
 21
-541.3301300218773
 31
0.0
  0
LINE
  5
1EB
330
1F
100
AcDbEntity
  8
1-E
  6
Continuous
 62
     6
370
     5
100
AcDbLine
 10
805.6847377650968
 20
-550.5449827522929
 30
0.0
 11
816.9499977659842
 21
-557.0489836462964
 31
0.0
  0
LINE
  5
1EC
330
1F
100
AcDbEntity
  8
1-E
  6
Continuous
 62
     6
370
     5
100
AcDbLine
 10
823.8330604926375
 20
-540.2383120735522
 30
0.0
 11
834.9499977659842
 21
-546.6566788008831
 31
0.0
  0
LINE
  5
1ED
330
1F
100
AcDbEntity
  8
1-E
  6
Continuous
 62
     6
370
     5
100
AcDbLine
 10
795.3199436232381
 20
-523.7762563735691
 30
0.0
 11
798.7060750195294
 21
-525.7312402467294
 31
0.0
  0
ELLIPSE
  5
1EE
330
1F
100
AcDbEntity
  8
1-E
  6
Continuous
 62
     6
370
     5
100
AcDbEllipse
 10
841.5985209649516
 20
-166.8994162427697
 30
0.0
 11
-8.835727968780978
 21
4.032057911857087E-14
 31
0.0
210
0.0
220
0.0
230
1.0
 40
0.5773502691896246
 41
3.92699081698724
 42
7.068583470577038
  0
ELLIPSE
  5
1EF
330
1F
100
AcDbEntity
  8
1-E
  6
Continuous
 62
     6
370
     5
100
AcDbEllipse
 10
841.0237230739147
 20
-167.8949953941291
 30
0.0
 11
-8.835727968780978
 21
4.032057911857087E-14
 31
0.0
210
0.0
220
0.0
230
1.0
 40
0.5773502691896246
 41
3.92699081698724
 42
5.858393381887097
  0
ELLIPSE
  5
1F0
330
1F
100
AcDbEntity
  8
1-E
  6
Continuous
 62
     6
370
     5
100
AcDbEllipse
 10
868.5349205895294
 20
-183.7785926854982
 30
0.0
 11
8.835727968780935
 21
0.0
 31
0.0
210
0.0
220
0.0
230
1.0
 40
0.5773502691896226
 41
6.064476123678737
 42
7.068583470577035
  0
LINE
  5
1F1
330
1F
100
AcDbEntity
  8
1-E
  6
Continuous
 62
     6
370
     5
100
AcDbLine
 10
835.3507178015069
 20
-170.5065870810282
 30
0.0
 11
843.5786377566872
 21
-175.2569788820222
 31
0.0
  0
LINE
  5
1F2
330
1F
100
AcDbEntity
  8
1-E
  6
Continuous
 62
     6
370
     5
100
AcDbLine
 10
854.6157778218658
 20
-181.6292746697367
 30
0.0
 11
862.8619153171217
 21
-186.3901843723973
 31
0.0
  0
ELLIPSE
  5
1F3
330
1F
100
AcDbEntity
  8
1-E
  6
Continuous
 62
     6
370
     5
100
AcDbEllipse
 10
926.8583393330227
 20
-216.115009041092
 30
0.0
 11
8.835727968780935
 21
0.0
 31
0.0
210
0.0
220
0.0
230
1.0
 40
0.5773502691896226
 41
3.926990816987241
 42
7.068583470577035
  0
ELLIPSE
  5
1F4
330
1F
100
AcDbEntity
  8
1-E
  6
Continuous
 62
     6
370
     5
100
AcDbEllipse
 10
899.3471418174081
 20
-200.2314117497229
 30
0.0
 11
-8.835727968780978
 21
4.032057911857087E-14
 31
0.0
210
0.0
220
0.0
230
1.0
 40
0.5773502691896246
 41
3.92699081698724
 42
7.068583470577038
  0
ELLIPSE
  5
1F5
330
1F
100
AcDbEntity
  8
1-E
  6
Continuous
 62
     6
370
     5
100
AcDbEllipse
 10
898.7723439263711
 20
-201.2269909010823
 30
0.0
 11
-8.835727968780978
 21
4.032057911857087E-14
 31
0.0
210
0.0
220
0.0
230
1.0
 40
0.5773502691896246
 41
3.92699081698724
 42
5.858393381887097
  0
ELLIPSE
  5
1F6
330
1F
100
AcDbEntity
  8
1-E
  6
Continuous
 62
     6
370
     5
100
AcDbEllipse
 10
926.2835414419858
 20
-217.1105881924514
 30
0.0
 11
8.835727968780935
 21
0.0
 31
0.0
210
0.0
220
0.0
230
1.0
 40
0.5773502691896226
 41
6.064476123678737
 42
7.068583470577035
  0
LINE
  5
1F7
330
1F
100
AcDbEntity
  8
1-E
  6
Continuous
 62
     6
370
     5
100
AcDbLine
 10
893.0993386539633
 20
-203.8385825879814
 30
0.0
 11
901.3272586091435
 21
-208.5889743889754
 31
0.0
  0
LINE
  5
1F8
330
1F
100
AcDbEntity
  8
1-E
  6
Continuous
 62
     6
370
     5
100
AcDbLine
 10
912.3643986743222
 20
-214.9612701766899
 30
0.0
 11
920.610536169578
 21
-219.7221798793506
 31
0.0
  0
LINE
  5
1F9
330
1F
100
AcDbEntity
  8
1-F
  6
Continuous
 62
     7
370
     9
100
AcDbLine
 10
978.7103089999515
 20
-188.1221073878857
 30
0.0
 11
976.6919165355647
 21
-189.2874331689247
 31
0.0
  0
LINE
  5
1FA
330
1F
100
AcDbEntity
  8
1-F
  6
Continuous
 62
     7
370
     9
100
AcDbLine
 10
976.6919165355647
 20
-189.2874331689247
 30
0.0
 11
975.1446785426494
 21
-188.3941324987684
 31
0.0
  0
LINE
  5
1FB
330
1F
100
AcDbEntity
  8
1-F
  6
Continuous
 62
     7
370
     9
100
AcDbLine
 10
978.7103089999515
 20
-188.1221073878857
 30
0.0
 11
975.1446785426494
 21
-186.0634841562805
 31
0.0
  0
LINE
  5
1FC
330
1F
100
AcDbEntity
  8
1-E
  6
Continuous
 62
     2
370
     9
100
AcDbLine
 10
858.6620103990709
 20
-137.2770867191518
 30
0.0
 11
811.0828956397803
 21
-109.8073400548986
 31
0.0
  0
LINE
  5
1FD
330
1F
100
AcDbEntity
  8
1-F
  6
Continuous
 62
     7
370
     9
100
AcDbLine
 10
902.6667869220324
 20
-211.3314480896043
 30
0.0
 11
792.5210488809122
 21
-239.2063912056587
 31
0.0
  0
LINE
  5
1FE
330
1F
100
AcDbEntity
  8
1-F
  6
Continuous
 62
     7
370
     9
100
AcDbLine
 10
792.5210488809122
 20
-239.2063912056587
 30
0.0
 11
849.0836404182527
 21
-180.5897984386978
 31
0.0
  0
LINE
  5
1FF
330
1F
100
AcDbEntity
  8
1-F
  6
Continuous
 62
     7
370
     9
100
AcDbLine
 10
849.0836404182527
 20
-180.5897984386978
 30
0.0
 11
835.0009493287255
 21
-191.8004555068988
 31
0.0
  0
LINE
  5
200
330
1F
100
AcDbEntity
  8
1-F
  6
Continuous
 62
     7
370
     9
100
AcDbLine
 10
849.0836404182527
 20
-180.5897984386978
 30
0.0
 11
838.3823629689283
 21
-195.0632464961302
 31
0.0
  0
LINE
  5
201
330
1F
100
AcDbEntity
  8
1-F
  6
Continuous
 62
     7
370
     9
100
AcDbLine
 10
902.6667869220324
 20
-211.3314480896043
 30
0.0
 11
884.7896556403599
 21
-213.4320637198829
 31
0.0
  0
LINE
  5
202
330
1F
100
AcDbEntity
  8
1-F
  6
Continuous
 62
     7
370
     9
100
AcDbLine
 10
902.6667869220324
 20
-211.3314480896043
 30
0.0
 11
885.9426262379109
 21
-217.9873813666313
 31
0.0
  0
LINE
  5
203
330
1F
100
AcDbEntity
  8
1-F
  6
Continuous
 62
     7
370
     9
100
AcDbLine
 10
905.2817514780406
 20
-247.2452656513935
 30
0.0
 11
975.1429103455057
 21
-206.9110366904496
 31
0.0
  0
LINE
  5
204
330
1F
100
AcDbEntity
  8
1-F
  6
Continuous
 62
     7
370
     9
100
AcDbLine
 10
976.6919165355647
 20
-189.2874331689247
 30
0.0
 11
975.1429103455057
 21
-206.9110366904495
 31
0.0
  0
LINE
  5
205
330
1F
100
AcDbEntity
  8
1-E
  6
Continuous
 62
     2
370
     9
100
AcDbLine
 10
1031.351648279138
 20
-236.9795812658361
 30
0.0
 11
978.7103089999515
 21
-206.5870834426802
 31
0.0
  0
LINE
  5
206
330
1F
100
AcDbEntity
  8
1-E
  6
Continuous
 62
     2
370
     9
100
AcDbLine
 10
978.7103089999515
 20
-188.1221073878857
 30
0.0
 11
978.7103089999515
 21
-206.5870834426802
 31
0.0
  0
LINE
  5
207
330
1F
100
AcDbEntity
  8
1-F
  6
Continuous
 62
     7
370
     9
100
AcDbLine
 10
978.7103089999515
 20
-188.1221073878857
 30
0.0
 11
978.7103089999515
 21
-206.5871268830868
 31
0.0
  0
LINE
  5
208
330
1F
100
AcDbEntity
  8
1-F
  6
Continuous
 62
     7
370
     9
100
AcDbLine
 10
981.4072067673144
 20
-208.1441815350506
 30
0.0
 11
978.7103089999515
 21
-206.5871268830868
 31
0.0
  0
LINE
  5
209
330
1F
100
AcDbEntity
  8
1-F
  6
Continuous
 62
     7
370
     9
100
AcDbLine
 10
-624.7259644224484
 20
-184.7438530009013
 30
0.0
 11
-631.6142436929299
 21
-168.1141153530972
 31
0.0
  0
LINE
  5
20A
330
1F
100
AcDbEntity
  8
1-F
  6
Continuous
 62
     7
370
     9
100
AcDbLine
 10
-624.7259644224484
 20
-184.7438530009013
 30
0.0
 11
-635.6836390159872
 21
-170.4635564690178
 31
0.0
  0
LINE
  5
20B
330
1F
100
AcDbEntity
  8
1-F
  6
Continuous
 62
     7
370
     9
100
AcDbLine
 10
-258.2528224553139
 20
-34.74380602599755
 30
0.0
 11
-265.1411017257953
 21
-18.11391991429972
 31
0.0
  0
LINE
  5
20C
330
1F
100
AcDbEntity
  8
1-F
  6
Continuous
 62
     7
370
     9
100
AcDbLine
 10
-258.2528224553139
 20
-34.74380602599755
 30
0.0
 11
-269.2104970488527
 21
-20.46336103022035
 31
0.0
  0
LINE
  5
20D
330
1F
100
AcDbEntity
  8
1-1ﾚｲﾔ
  6
Continuous
 62
     2
370
     9
100
AcDbLine
 10
-447.72585060013
 20
-626.2592963141365
 30
0.0
 11
-476.2261673231029
 21
-547.956321097709
 31
0.0
  0
LINE
  5
20E
330
1F
100
AcDbEntity
  8
1-1ﾚｲﾔ
  6
Continuous
 62
     2
370
     9
100
AcDbLine
 10
-442.5299112525794
 20
-548.9777155695734
 30
0.0
 11
-428.4643677427609
 21
-573.3393043311866
 31
0.0
  0
LINE
  5
20F
330
1F
100
AcDbEntity
  8
1-1ﾚｲﾔ
  6
Continuous
 62
     2
370
     9
100
AcDbLine
 10
-452.922383803255
 20
-548.9777155695734
 30
0.0
 11
-466.9872592255523
 21
-573.3393043311866
 31
0.0
  0
LINE
  5
210
330
1F
100
AcDbEntity
  8
1-1ﾚｲﾔ
  6
Continuous
 62
     2
370
     9
100
AcDbLine
 10
-419.225905036891
 20
-547.956321097709
 30
0.0
 11
-419.225905036891
 21
-370.7510425464527
 31
0.0
  0
LINE
  5
211
330
1F
100
AcDbEntity
  8
1-1ﾚｲﾔ
  6
Continuous
 62
     2
370
     9
100
AcDbLine
 10
-476.2261673231029
 20
-547.956321097709
 30
0.0
 11
-476.2261673231029
 21
-370.7510425464527
 31
0.0
  0
LINE
  5
212
330
1F
100
AcDbEntity
  8
1-1ﾚｲﾔ
  6
Continuous
 62
     2
370
     9
100
AcDbLine
 10
-447.72585060013
 20
-626.2592963141365
 30
0.0
 11
-419.225905036891
 21
-547.956321097709
 31
0.0
  0
ARC
  5
213
330
1F
100
AcDbEntity
  8
1-1ﾚｲﾔ
  6
Continuous
 62
     2
370
     9
100
AcDbCircle
 10
-447.72585060013
 20
-551.9775398872994
 30
0.0
 40
6.000000077324945
100
AcDbArc
 50
29.99998474121094
 51
150.0000152587891
  0
ARC
  5
214
330
1F
100
AcDbEntity
  8
1-1ﾚｲﾔ
  6
Continuous
 62
     2
370
     9
100
AcDbCircle
 10
-461.9757120338294
 20
-383.1584670608108
 30
0.0
 40
18.89449635067502
100
AcDbArc
 50
41.04600524902344
 51
138.9539947509766
  0
ARC
  5
215
330
1F
100
AcDbEntity
  8
1-1ﾚｲﾔ
  6
Continuous
 62
     2
370
     9
100
AcDbCircle
 10
-433.4759891664307
 20
-383.1584670608108
 30
0.0
 40
18.89449635067502
100
AcDbArc
 50
41.04600524902344
 51
138.9539947509766
  0
ARC
  5
216
330
1F
100
AcDbEntity
  8
1-1ﾚｲﾔ
  6
Continuous
 62
     2
370
     9
100
AcDbCircle
 10
-433.4759891664307
 20
-358.3434695682009
 30
0.0
 40
18.89449635067502
100
AcDbArc
 50
221.0460052490234
 51
318.9539947509766
  0
LINE
  5
217
330
1F
100
AcDbEntity
  8
1-F
  6
Continuous
 62
     7
370
     9
100
AcDbLine
 10
-476.2263157869962
 20
-470.2191360784574
 30
0.0
 11
-595.3273174233981
 21
-538.9821926530987
 31
0.0
  0
LINE
  5
218
330
1F
100
AcDbEntity
  8
1-4ﾚｲﾔ
  6
Continuous
 62
     7
370
     9
100
AcDbLine
 10
-476.2263157869962
 20
-470.2191360784574
 30
0.0
 11
-492.8560534348003
 21
-477.1074895808858
 31
0.0
  0
LINE
  5
219
330
1F
100
AcDbEntity
  8
1-4ﾚｲﾔ
  6
Continuous
 62
     7
370
     9
100
AcDbLine
 10
-476.2263157869962
 20
-470.2191360784574
 30
0.0
 11
-490.5066123188797
 21
-481.1768849039433
 31
0.0
  0
LINE
  5
21A
330
1F
100
AcDbEntity
  8
1-4ﾚｲﾔ
  6
Continuous
 62
     7
370
     9
100
AcDbLine
 10
-651.5990609379804
 20
-330.8561712591659
 30
0.0
 11
-177.599044657027
 21
-330.8561712591659
 31
0.0
  0
LINE
  5
21B
330
1F
100
AcDbEntity
  8
1-4ﾚｲﾔ
  6
Continuous
 62
     7
370
     9
100
AcDbLine
 10
-651.5990609379804
 20
-330.8561712591659
 30
0.0
 11
-636.7273880173732
 21
-328.8982783758651
 31
0.0
  0
LINE
  5
21C
330
1F
100
AcDbEntity
  8
1-4ﾚｲﾔ
  6
Continuous
 62
     7
370
     9
100
AcDbLine
 10
-651.5990609379804
 20
-330.8561712591659
 30
0.0
 11
-636.7273880173732
 21
-332.8140641424666
 31
0.0
  0
LINE
  5
21D
330
1F
100
AcDbEntity
  8
1-4ﾚｲﾔ
  6
Continuous
 62
     7
370
     9
100
AcDbLine
 10
-177.599044657027
 20
-330.8561712591659
 30
0.0
 11
-192.4707175776341
 21
-328.8982783758651
 31
0.0
  0
LINE
  5
21E
330
1F
100
AcDbEntity
  8
1-4ﾚｲﾔ
  6
Continuous
 62
     7
370
     9
100
AcDbLine
 10
-177.599044657027
 20
-330.8561712591659
 30
0.0
 11
-192.4707175776341
 21
-332.8140641424666
 31
0.0
  0
LINE
  5
21F
330
1F
100
AcDbEntity
  8
1-4ﾚｲﾔ
  6
Continuous
 62
     7
370
     9
100
AcDbLine
 10
-651.5990609379804
 20
-332.6561712591658
 30
0.0
 11
-651.5990609379804
 21
-214.7437169476614
 31
0.0
  0
LINE
  5
220
330
1F
100
AcDbEntity
  8
1-4ﾚｲﾔ
  6
Continuous
 62
     7
370
     9
100
AcDbLine
 10
-177.599044657027
 20
-332.6561712591658
 30
0.0
 11
-177.599044657027
 21
-208.7438109747939
 31
0.0
  0
TEXT
  5
221
330
1F
100
AcDbEntity
  8
1-4ﾚｲﾔ
  6
Continuous
 62
     2
370
   211
100
AcDbText
 10
-395.361270859446
 20
-323.8721712591658
 30
0.0
 40
18.288
  1
79
 41
1.0625
  7
ＭＳ ゴシック
100
AcDbText
  0
LINE
  5
222
330
1F
100
AcDbEntity
  8
1-4ﾚｲﾔ
  6
Continuous
 62
     7
370
     9
100
AcDbLine
 10
-447.72585060013
 20
-265.4409484716804
 30
0.0
 11
-177.599044657027
 21
-265.4409484716804
 31
0.0
  0
LINE
  5
223
330
1F
100
AcDbEntity
  8
1-4ﾚｲﾔ
  6
Continuous
 62
     7
370
     9
100
AcDbLine
 10
-447.72585060013
 20
-265.4409484716804
 30
0.0
 11
-432.8541776795229
 21
-263.4830555883796
 31
0.0
  0
LINE
  5
224
330
1F
100
AcDbEntity
  8
1-4ﾚｲﾔ
  6
Continuous
 62
     7
370
     9
100
AcDbLine
 10
-447.72585060013
 20
-265.4409484716804
 30
0.0
 11
-432.8541776795229
 21
-267.3988413549812
 31
0.0
  0
LINE
  5
225
330
1F
100
AcDbEntity
  8
1-4ﾚｲﾔ
  6
Continuous
 62
     7
370
     9
100
AcDbLine
 10
-177.599044657027
 20
-265.4409484716804
 30
0.0
 11
-192.4707175776341
 21
-263.4830555883796
 31
0.0
  0
LINE
  5
226
330
1F
100
AcDbEntity
  8
1-4ﾚｲﾔ
  6
Continuous
 62
     7
370
     9
100
AcDbLine
 10
-177.599044657027
 20
-265.4409484716804
 30
0.0
 11
-192.4707175776341
 21
-267.3988413549812
 31
0.0
  0
TEXT
  5
227
330
1F
100
AcDbEntity
  8
1-4ﾚｲﾔ
  6
Continuous
 62
     2
370
   211
100
AcDbText
 10
-325.4124476285785
 20
-258.4569484716803
 30
0.0
 40
18.288
  1
45
 41
1.0625
  7
ＭＳ ゴシック
100
AcDbText
  0
LINE
  5
228
330
1F
100
AcDbEntity
  8
1-F
  6
Continuous
 62
     7
370
     9
100
AcDbLine
 10
-258.2528224553139
 20
-34.74380602599755
 30
0.0
 11
-321.0333383844734
 21
73.99524574938098
 31
0.0
  0
LINE
  5
229
330
1F
100
AcDbEntity
  8
1-F
  6
Continuous
 62
     7
370
     9
100
AcDbLine
 10
-321.0333383844734
 20
73.99524574938098
 30
0.0
 11
-569.6348236036847
 21
73.99524574938098
 31
0.0
  0
TEXT
  5
22A
330
1F
100
AcDbEntity
  8
1-F
  6
Continuous
 62
     2
370
     9
100
AcDbText
 10
-568.2025206647594
 20
87.36730265394196
 30
0.0
 40
18.288
  1
ジョイント金具
 41
1.107142857142857
  7
ＭＳ ゴシック
100
AcDbText
  0
LINE
  5
22B
330
1F
100
AcDbEntity
  8
1-F
  6
Continuous
 62
     7
370
     9
100
AcDbLine
 10
-463.1989389880565
 20
153.5416060745501
 30
0.0
 11
-463.1989389880565
 21
117.3843382720794
 31
0.0
  0
LINE
  5
22C
330
1F
100
AcDbEntity
  8
1-F
  6
Continuous
 62
     7
370
     9
100
AcDbLine
 10
-463.1989389880565
 20
117.3843382720794
 30
0.0
 11
-564.6285431833162
 21
117.3843382720794
 31
0.0
  0
LINE
  5
22D
330
1F
100
AcDbEntity
  8
1-F
  6
Continuous
 62
     7
370
     9
100
AcDbLine
 10
-564.6285431833162
 20
117.3843382720794
 30
0.0
 11
-564.6285431833162
 21
153.5416060745501
 31
0.0
  0
LINE
  5
22E
330
1F
100
AcDbEntity
  8
1-F
  6
Continuous
 62
     7
370
     9
100
AcDbLine
 10
-564.6285431833162
 20
153.5416060745501
 30
0.0
 11
-463.1989389880565
 21
153.5416060745501
 31
0.0
  0
TEXT
  5
22F
330
1F
100
AcDbEntity
  8
1-F
  6
Continuous
 62
     7
370
     9
100
AcDbText
 10
-554.4137225276995
 20
129.0009795965095
 30
0.0
 40
13.716
  1
付属部品
 41
1.125
  7
ＭＳ ゴシック
100
AcDbText
  0
TEXT
  5
230
330
1F
100
AcDbEntity
  8
1-F
  6
Continuous
 62
     2
370
     9
100
AcDbText
 10
-568.2025206647594
 20
44.06914426606161
 30
0.0
 40
18.288
  1
ＳＧＭＣＣ（t=1.2）
 41
1.111842105263158
  7
ＭＳ ゴシック
100
AcDbText
  0
LINE
  5
231
330
1F
100
AcDbEntity
  8
1-F
  6
Continuous
 62
     7
370
     9
100
AcDbLine
 10
-624.7259838801369
 20
-184.7438060259975
 30
0.0
 11
-687.5064998092964
 21
-76.00475425061899
 31
0.0
  0
LINE
  5
232
330
1F
100
AcDbEntity
  8
1-F
  6
Continuous
 62
     7
370
     9
100
AcDbLine
 10
-687.5064998092964
 20
-76.00475425061899
 30
0.0
 11
-1040.566258176062
 21
-76.00475425061899
 31
0.0
  0
TEXT
  5
233
330
1F
100
AcDbEntity
  8
1-F
  6
Continuous
 62
     2
370
     9
100
AcDbText
 10
-1038.20451435216
 20
-63.67728930129495
 30
0.0
 40
18.288
  1
ガーデンエッジ　ＩＡ－３０
 41
1.115384615384616
  7
ＭＳ ゴシック
100
AcDbText
  0
TEXT
  5
234
330
1F
100
AcDbEntity
  8
1-F
  6
Continuous
 62
     2
370
     9
100
AcDbText
 10
-1035.193954381955
 20
-101.8823938198759
 30
0.0
 40
18.288
  1
Ａ６０６３Ｓ
 41
1.104166666666667
  7
ＭＳ ゴシック
100
AcDbText
  0
TEXT
  5
235
330
1F
100
AcDbEntity
  8
1-F
  6
Continuous
 62
     7
370
     9
100
AcDbText
 10
-1038.20451435216
 20
-30.04982474787432
 30
0.0
 40
13.716
  1
アルミ製舗装用見切材
 41
1.15
  7
ＭＳ ゴシック
100
AcDbText
  0
LINE
  5
236
330
1F
100
AcDbEntity
  8
1-F
  6
Continuous
 62
     7
370
     9
100
AcDbLine
 10
-1067.559245341533
 20
256.3386567397757
 30
0.0
 11
-324.0833179370777
 21
256.3386567397757
 31
0.0
  0
LINE
  5
237
330
1F
100
AcDbEntity
  8
1-F
  6
Continuous
 62
     7
370
     9
100
AcDbLine
 10
-1067.559245341533
 20
208.3386468421829
 30
0.0
 11
-324.0833179370777
 21
208.3386468421829
 31
0.0
  0
LINE
  5
238
330
1F
100
AcDbEntity
  8
1-F
  6
Continuous
 62
     7
370
     9
100
AcDbLine
 10
-1067.559245341533
 20
256.3386567397757
 30
0.0
 11
-1067.559245341533
 21
208.3386468421829
 31
0.0
  0
LINE
  5
239
330
1F
100
AcDbEntity
  8
1-F
  6
Continuous
 62
     7
370
     9
100
AcDbLine
 10
-324.0833179370777
 20
256.3386567397757
 30
0.0
 11
-324.0833179370777
 21
208.3386468421829
 31
0.0
  0
TEXT
  5
23A
330
1F
100
AcDbEntity
  8
1-F
  6
Continuous
 62
     3
370
     9
100
AcDbText
 10
-1033.321318755279
 20
221.5686023030148
 30
0.0
 40
22.86
  1
ガーデンエッジ　ＩＡ－３０　断面図　S=1:1
 41
1.097560975609756
  7
ＭＳ ゴシック
100
AcDbText
  0
LINE
  5
23B
330
1F
100
AcDbEntity
  8
1-3ﾚｲﾔ
  6
Continuous
 62
     6
370
     5
100
AcDbLine
 10
894.6084709128235
 20
-538.0052688186233
 30
0.0
 11
827.1736465621053
 21
-576.9390341269003
 31
0.0
  0
LINE
  5
23C
330
1F
100
AcDbEntity
  8
1-3ﾚｲﾔ
  6
Continuous
 62
     6
370
     5
100
AcDbLine
 10
827.1736465621053
 20
-576.9390341269003
 30
0.0
 11
827.1736465621053
 21
-578.6848210515203
 31
0.0
  0
LINE
  5
23D
330
1F
100
AcDbEntity
  8
1-3ﾚｲﾔ
  6
Continuous
 62
     6
370
     5
100
AcDbLine
 10
894.6084709128235
 20
-538.0052688186233
 30
0.0
 11
728.2886763868522
 21
-441.9804555532095
 31
0.0
  0
LINE
  5
23E
330
1F
100
AcDbEntity
  8
1-3ﾚｲﾔ
  6
Continuous
 62
     6
370
     5
100
AcDbLine
 10
827.1736465621053
 20
-576.9390341269003
 30
0.0
 11
660.8535551083469
 21
-480.9140352816195
 31
0.0
  0
LINE
  5
23F
330
1F
100
AcDbEntity
  8
1-3ﾚｲﾔ
  6
Continuous
 62
     6
370
     5
100
AcDbLine
 10
827.1736465621053
 20
-578.6848210515203
 30
0.0
 11
660.8535551083469
 21
-482.6600077861064
 31
0.0
  0
LINE
  5
240
330
1F
100
AcDbEntity
  8
1-3ﾚｲﾔ
  6
Continuous
 62
     6
370
     5
100
AcDbLine
 10
660.8535551083469
 20
-480.9140352816195
 30
0.0
 11
660.8535551083469
 21
-482.6600077861064
 31
0.0
  0
LINE
  5
241
330
1F
100
AcDbEntity
  8
1-3ﾚｲﾔ
  6
Continuous
 62
     6
370
     5
100
AcDbLine
 10
728.2886763868522
 20
-441.9804555532095
 30
0.0
 11
660.8535551083469
 21
-480.9140352816195
 31
0.0
  0
LINE
  5
242
330
1F
100
AcDbEntity
  8
1-3ﾚｲﾔ
  6
Continuous
 62
     6
370
     5
100
AcDbLine
 10
974.1618718327703
 20
-206.2647771062077
 30
0.0
 11
927.3322028082772
 21
-233.3021306218327
 31
0.0
  0
LINE
  5
243
330
1F
100
AcDbEntity
  8
1-3ﾚｲﾔ
  6
Continuous
 62
     6
370
     5
100
AcDbLine
 10
927.3322028082772
 20
-233.3021306218327
 30
0.0
 11
927.3322028082772
 21
-234.5144867768159
 31
0.0
  0
LINE
  5
244
330
1F
100
AcDbEntity
  8
1-3ﾚｲﾔ
  6
Continuous
 62
     6
370
     5
100
AcDbLine
 10
974.1618718327703
 20
-206.2647771062077
 30
0.0
 11
858.6620103990709
 21
-139.580883129223
 31
0.0
  0
LINE
  5
245
330
1F
100
AcDbEntity
  8
1-3ﾚｲﾔ
  6
Continuous
 62
     6
370
     5
100
AcDbLine
 10
927.3322028082772
 20
-233.3021306218327
 30
0.0
 11
811.8320444467906
 21
-166.6180881809544
 31
0.0
  0
LINE
  5
246
330
1F
100
AcDbEntity
  8
1-3ﾚｲﾔ
  6
Continuous
 62
     6
370
     5
100
AcDbLine
 10
927.3322028082772
 20
-234.5144867768159
 30
0.0
 11
811.8320444467906
 21
-167.830592799831
 31
0.0
  0
LINE
  5
247
330
1F
100
AcDbEntity
  8
1-3ﾚｲﾔ
  6
Continuous
 62
     6
370
     5
100
AcDbLine
 10
811.8320444467906
 20
-166.6180881809544
 30
0.0
 11
811.8320444467906
 21
-167.830592799831
 31
0.0
  0
LINE
  5
248
330
1F
100
AcDbEntity
  8
1-3ﾚｲﾔ
  6
Continuous
 62
     6
370
     5
100
AcDbLine
 10
858.6620103990709
 20
-139.580883129223
 30
0.0
 11
811.8320444467906
 21
-166.6180881809544
 31
0.0
  0
LINE
  5
249
330
1F
100
AcDbEntity
  8
1-3ﾚｲﾔ
  6
Continuous
 62
     6
370
     5
100
AcDbLine
 10
894.6084709128235
 20
-538.0052688186233
 30
0.0
 11
894.6084709128235
 21
-489.7510930914831
 31
0.0
  0
LINE
  5
24A
330
1F
100
AcDbEntity
  8
1-3ﾚｲﾔ
  6
Continuous
 62
     6
370
     5
100
AcDbLine
 10
896.0460467943691
 20
-488.921142578125
 30
0.0
 11
894.6084709128235
 21
-489.7510930914831
 31
0.0
  0
LINE
  5
24B
330
1F
100
AcDbEntity
  8
1-3ﾚｲﾔ
  6
Continuous
 62
     6
370
     5
100
AcDbLine
 10
894.6084709128235
 20
-489.7510930914831
 30
0.0
 11
728.2886763868522
 21
-393.7260571302288
 31
0.0
  0
LINE
  5
24C
330
1F
100
AcDbEntity
  8
1-3ﾚｲﾔ
  6
Continuous
 62
     6
370
     5
100
AcDbLine
 10
896.0460467943691
 20
-488.921142578125
 30
0.0
 11
729.7262522683978
 21
-392.8961066168708
 31
0.0
  0
LINE
  5
24D
330
1F
100
AcDbEntity
  8
1-3ﾚｲﾔ
  6
Continuous
 62
     6
370
     5
100
AcDbLine
 10
728.2886763868522
 20
-441.9804555532095
 30
0.0
 11
728.2886763868522
 21
-393.7262798260692
 31
0.0
  0
LINE
  5
24E
330
1F
100
AcDbEntity
  8
1-3ﾚｲﾔ
  6
Continuous
 62
     6
370
     5
100
AcDbLine
 10
728.2886763868522
 20
-393.7262798260692
 30
0.0
 11
729.7262522683978
 21
-392.8961066168708
 31
0.0
  0
LINE
  5
24F
330
1F
100
AcDbEntity
  8
1-3ﾚｲﾔ
  6
Continuous
 62
     6
370
     5
100
AcDbLine
 10
827.1736465621053
 20
-578.6848210515203
 30
0.0
 11
896.0460467943691
 21
-538.921142578125
 31
0.0
  0
LINE
  5
250
330
1F
100
AcDbEntity
  8
1-3ﾚｲﾔ
  6
Continuous
 62
     6
370
     5
100
AcDbLine
 10
896.0460467943691
 20
-488.921142578125
 30
0.0
 11
896.0460467943691
 21
-538.921142578125
 31
0.0
  0
LINE
  5
251
330
1F
100
AcDbEntity
  8
1-3ﾚｲﾔ
  6
Continuous
 62
     6
370
     5
100
AcDbLine
 10
740.5123634465897
 20
-494.0449632132456
 30
0.0
 11
750.9624716627327
 21
-500.0783360048964
 31
0.0
  0
LINE
  5
252
330
1F
100
AcDbEntity
  8
1-3ﾚｲﾔ
  6
Continuous
 62
     6
370
     5
100
AcDbLine
 10
711.3324175199866
 20
-477.1979135775824
 30
0.0
 11
713.5138034686502
 21
-478.4573373422499
 31
0.0
  0
LINE
  5
253
330
1F
100
AcDbEntity
  8
1-3ﾚｲﾔ
  6
Continuous
 62
     6
370
     5
100
AcDbLine
 10
823.6718895498412
 20
-542.0574440778994
 30
0.0
 11
834.1219977659841
 21
-548.0908168695502
 31
0.0
  0
LINE
  5
254
330
1F
100
AcDbEntity
  8
1-3ﾚｲﾔ
  6
Continuous
 62
     6
370
     5
100
AcDbLine
 10
794.4919436232381
 20
-525.2103944422362
 30
0.0
 11
796.6733295719018
 21
-526.4698182069037
 31
0.0
  0
LINE
  5
255
330
1F
100
AcDbEntity
  8
1-3ﾚｲﾔ
  6
Continuous
 62
     6
370
     5
100
AcDbLine
 10
847.2715262373595
 20
-164.2878245558705
 30
0.0
 11
848.3734184887592
 21
-164.9240023438341
 31
0.0
  0
LINE
  5
256
330
1F
100
AcDbEntity
  8
1-3ﾚｲﾔ
  6
Continuous
 62
     6
370
     5
100
AcDbLine
 10
867.1446252115722
 20
-175.7615635982645
 30
0.0
 11
874.782723752974
 21
-180.1714218472397
 31
0.0
  0
LINE
  5
257
330
1F
100
AcDbEntity
  8
1-3ﾚｲﾔ
  6
Continuous
 62
     6
370
     5
100
AcDbLine
 10
867.3923489147869
 20
-174.5771480765208
 30
0.0
 11
875.357521644011
 21
-179.1758426958802
 31
0.0
  0
LINE
  5
258
330
1F
100
AcDbEntity
  8
1-3ﾚｲﾔ
  6
Continuous
 62
     6
370
     5
100
AcDbLine
 10
847.8463241283964
 20
-163.2922454045112
 30
0.0
 11
849.7808958524909
 21
-164.4091709101837
 31
0.0
  0
LINE
  5
259
330
1F
100
AcDbEntity
  8
1-3ﾚｲﾔ
  6
Continuous
 62
     6
370
     5
100
AcDbLine
 10
905.020147089816
 20
-197.6198200628237
 30
0.0
 11
906.1220393412156
 21
-198.2559978507873
 31
0.0
  0
LINE
  5
25A
330
1F
100
AcDbEntity
  8
1-3ﾚｲﾔ
  6
Continuous
 62
     6
370
     5
100
AcDbLine
 10
924.8932460640287
 20
-209.0935591052177
 30
0.0
 11
932.5313446054304
 21
-213.5034173541929
 31
0.0
  0
LINE
  5
25B
330
1F
100
AcDbEntity
  8
1-3ﾚｲﾔ
  6
Continuous
 62
     6
370
     5
100
AcDbLine
 10
925.1409697672434
 20
-207.909143583474
 30
0.0
 11
933.1061424964673
 21
-212.5078382028335
 31
0.0
  0
LINE
  5
25C
330
1F
100
AcDbEntity
  8
1-3ﾚｲﾔ
  6
Continuous
 62
     6
370
     5
100
AcDbLine
 10
905.5949449808529
 20
-196.6242409114644
 30
0.0
 11
907.5295167049474
 21
-197.741166417137
 31
0.0
  0
LINE
  5
25D
330
1F
100
AcDbEntity
  8
1-3ﾚｲﾔ
  6
Continuous
 62
     6
370
     5
100
AcDbLine
 10
974.1618718327703
 20
-206.2647771062077
 30
0.0
 11
974.1618718327703
 21
-173.2755427338746
 31
0.0
  0
LINE
  5
25E
330
1F
100
AcDbEntity
  8
1-3ﾚｲﾔ
  6
Continuous
 62
     6
370
     5
100
AcDbLine
 10
858.6620103990709
 20
-139.580883129223
 30
0.0
 11
858.6620103990709
 21
-106.5914876020064
 31
0.0
  0
LINE
  5
25F
330
1F
100
AcDbEntity
  8
1-3ﾚｲﾔ
  6
Continuous
 62
     6
370
     5
100
AcDbLine
 10
974.1618718327703
 20
-173.2755427338746
 30
0.0
 11
858.6621499472697
 21
-106.5915681704128
 31
0.0
  0
LINE
  5
260
330
1F
100
AcDbEntity
  8
1-3ﾚｲﾔ
  6
Continuous
 62
     6
370
     5
100
AcDbLine
 10
858.6621499472697
 20
-106.5915681704128
 30
0.0
 11
858.6620103990709
 21
-106.5914876020064
 31
0.0
  0
LINE
  5
261
330
1F
100
AcDbEntity
  8
1-3ﾚｲﾔ
  6
Continuous
 62
     6
370
     5
100
AcDbLine
 10
975.1446785426494
 20
-172.708142470788
 30
0.0
 11
859.6448248223062
 21
-106.02409179224
 31
0.0
  0
LINE
  5
262
330
1F
100
AcDbEntity
  8
1-3ﾚｲﾔ
  6
Continuous
 62
     6
370
     5
100
AcDbLine
 10
858.6621499472697
 20
-106.5915681704128
 30
0.0
 11
859.6448248223062
 21
-106.0240917922401
 31
0.0
  0
LINE
  5
263
330
1F
100
AcDbEntity
  8
1-3ﾚｲﾔ
  6
Continuous
 62
     6
370
     5
100
AcDbLine
 10
927.3322028082772
 20
-234.5144867768159
 30
0.0
 11
975.1446785426494
 21
-206.9097249355411
 31
0.0
  0
LINE
  5
264
330
1F
100
AcDbEntity
  8
1-3ﾚｲﾔ
  6
Continuous
 62
     6
370
     5
100
AcDbLine
 10
975.1446785426494
 20
-172.708142470788
 30
0.0
 11
975.1446785426494
 21
-206.9097249355411
 31
0.0
  0
LINE
  5
265
330
1F
100
AcDbEntity
  8
1-0ﾚｲﾔ
  6
Continuous
 62
     3
370
     9
100
AcDbLine
 10
-189.3521456104445
 20
-103.4111281332609
 30
0.0
 11
-177.970919461644
 21
-205.4110249290742
 31
0.0
  0
ARC
  5
266
330
1F
100
AcDbEntity
  8
1-0ﾚｲﾔ
  6
Continuous
 62
     3
370
     9
100
AcDbCircle
 10
-180.9524296713611
 20
-205.7437268452542
 30
0.0
 40
3.000000038662472
100
AcDbArc
 50
270.0
 51
6.367202758789119
  0
LINE
  5
267
330
1F
100
AcDbEntity
  8
1-7
  6
Continuous
 62
    30
370
     5
100
AcDbLine
 10
-201.5990806558417
 20
-31.74382087238693
 30
0.0
 11
-201.5990806558417
 21
-52.74374169164364
 31
0.0
  0
LINE
  5
268
330
1F
100
AcDbEntity
  8
1-7
  6
Continuous
 62
    30
370
     5
100
AcDbLine
 10
-228.5989470383373
 20
-28.74381097479395
 30
0.0
 11
-204.5991647853814
 21
-28.74381097479395
 31
0.0
  0
LINE
  5
269
330
1F
100
AcDbEntity
  8
1-7
  6
Continuous
 62
    30
370
     5
100
AcDbLine
 10
-201.5990806558417
 20
-52.74374169164364
 30
0.0
 11
-216.5991301438061
 21
-67.74349425182106
 31
0.0
  0
LINE
  5
26A
330
1F
100
AcDbEntity
  8
1-7
  6
Continuous
 62
    30
370
     5
100
AcDbLine
 10
-231.599031167877
 20
-31.74382087238693
 30
0.0
 11
-231.599031167877
 21
-109.743855513962
 31
0.0
  0
LINE
  5
26B
330
1F
100
AcDbEntity
  8
1-7
  6
Continuous
 62
    30
370
     5
100
AcDbLine
 10
-216.5989074479654
 20
-82.74369220367902
 30
0.0
 11
-201.5990806558417
 21
-97.74374169164363
 31
0.0
  0
LINE
  5
26C
330
1F
100
AcDbEntity
  8
1-7
  6
Continuous
 62
    30
370
     5
100
AcDbLine
 10
-225.5989371407445
 20
-193.7436872548826
 30
0.0
 11
-207.5989519871335
 21
-193.7436872548826
 31
0.0
  0
LINE
  5
26D
330
1F
100
AcDbEntity
  8
1-7
  6
Continuous
 62
    30
370
     5
100
AcDbLine
 10
-201.5990806558417
 20
-175.7437763332187
 30
0.0
 11
-198.5989965263017
 21
-172.7437664356259
 31
0.0
  0
LINE
  5
26E
330
1F
100
AcDbEntity
  8
1-7
  6
Continuous
 62
    30
370
     5
100
AcDbLine
 10
-198.5989965263017
 20
-172.7437664356259
 30
0.0
 11
-201.5990806558417
 21
-169.743756538033
 31
0.0
  0
LINE
  5
26F
330
1F
100
AcDbEntity
  8
1-7
  6
Continuous
 62
    30
370
     5
100
AcDbLine
 10
-201.5990806558417
 20
-169.743756538033
 30
0.0
 11
-198.5989965263017
 21
-166.7435981765464
 31
0.0
  0
LINE
  5
270
330
1F
100
AcDbEntity
  8
1-7
  6
Continuous
 62
    30
370
     5
100
AcDbLine
 10
-198.5989965263017
 20
-166.7435981765464
 30
0.0
 11
-201.5990806558417
 21
-163.7438852067408
 31
0.0
  0
LINE
  5
271
330
1F
100
AcDbEntity
  8
1-7
  6
Continuous
 62
    30
370
     5
100
AcDbLine
 10
-201.5990806558417
 20
-181.7437218964578
 30
0.0
 11
-198.5989965263017
 21
-178.7436377669181
 31
0.0
  0
LINE
  5
272
330
1F
100
AcDbEntity
  8
1-7
  6
Continuous
 62
    30
370
     5
100
AcDbLine
 10
-198.5989965263017
 20
-178.7436377669181
 30
0.0
 11
-201.5990806558417
 21
-175.7437763332187
 31
0.0
  0
LINE
  5
273
330
1F
100
AcDbEntity
  8
1-7
  6
Continuous
 62
    30
370
     5
100
AcDbLine
 10
-201.5990806558417
 20
-157.7437169476614
 30
0.0
 11
-198.5989965263017
 21
-154.743855513962
 31
0.0
  0
LINE
  5
274
330
1F
100
AcDbEntity
  8
1-7
  6
Continuous
 62
    30
370
     5
100
AcDbLine
 10
-198.5989965263017
 20
-154.743855513962
 30
0.0
 11
-201.5990806558417
 21
-151.7438456163691
 31
0.0
  0
LINE
  5
275
330
1F
100
AcDbEntity
  8
1-7
  6
Continuous
 62
    30
370
     5
100
AcDbLine
 10
-201.5990806558417
 20
-151.7438456163691
 30
0.0
 11
-198.5989965263017
 21
-148.7436872548827
 31
0.0
  0
LINE
  5
276
330
1F
100
AcDbEntity
  8
1-7
  6
Continuous
 62
    30
370
     5
100
AcDbLine
 10
-198.5989965263017
 20
-148.7436872548827
 30
0.0
 11
-201.5990806558417
 21
-145.7436773572897
 31
0.0
  0
LINE
  5
277
330
1F
100
AcDbEntity
  8
1-7
  6
Continuous
 62
    30
370
     5
100
AcDbLine
 10
-201.5990806558417
 20
-163.7438852067408
 30
0.0
 11
-198.5989965263017
 21
-160.7437268452542
 31
0.0
  0
LINE
  5
278
330
1F
100
AcDbEntity
  8
1-7
  6
Continuous
 62
    30
370
     5
100
AcDbLine
 10
-198.5989965263017
 20
-160.7437268452542
 30
0.0
 11
-201.5990806558417
 21
-157.7437169476614
 31
0.0
  0
LINE
  5
279
330
1F
100
AcDbEntity
  8
1-7
  6
Continuous
 62
    30
370
     5
100
AcDbLine
 10
-201.5990806558417
 20
-139.7438060259975
 30
0.0
 11
-198.5989965263017
 21
-136.7436476645109
 31
0.0
  0
LINE
  5
27A
330
1F
100
AcDbEntity
  8
1-7
  6
Continuous
 62
    30
370
     5
100
AcDbLine
 10
-198.5989965263017
 20
-136.7436476645109
 30
0.0
 11
-201.5990806558417
 21
-133.7439346947053
 31
0.0
  0
LINE
  5
27B
330
1F
100
AcDbEntity
  8
1-7
  6
Continuous
 62
    30
370
     5
100
AcDbLine
 10
-201.5990806558417
 20
-133.7439346947053
 30
0.0
 11
-198.5989965263017
 21
-130.7437763332188
 31
0.0
  0
LINE
  5
27C
330
1F
100
AcDbEntity
  8
1-7
  6
Continuous
 62
    30
370
     5
100
AcDbLine
 10
-198.5989965263017
 20
-130.7437763332188
 30
0.0
 11
-201.5990806558417
 21
-127.7437664356259
 31
0.0
  0
LINE
  5
27D
330
1F
100
AcDbEntity
  8
1-7
  6
Continuous
 62
    30
370
     5
100
AcDbLine
 10
-201.5990806558417
 20
-145.7436773572897
 30
0.0
 11
-198.5989965263017
 21
-142.7438159235905
 31
0.0
  0
LINE
  5
27E
330
1F
100
AcDbEntity
  8
1-7
  6
Continuous
 62
    30
370
     5
100
AcDbLine
 10
-198.5989965263017
 20
-142.7438159235905
 30
0.0
 11
-201.5990806558417
 21
-139.7438060259975
 31
0.0
  0
LINE
  5
27F
330
1F
100
AcDbEntity
  8
1-7
  6
Continuous
 62
    30
370
     5
100
AcDbLine
 10
-201.5990806558417
 20
-121.7438951043335
 30
0.0
 11
-198.5989965263017
 21
-118.7437367428471
 31
0.0
  0
LINE
  5
280
330
1F
100
AcDbEntity
  8
1-7
  6
Continuous
 62
    30
370
     5
100
AcDbLine
 10
-198.5989965263017
 20
-118.7437367428471
 30
0.0
 11
-201.5990806558417
 21
-115.7437268452542
 31
0.0
  0
LINE
  5
281
330
1F
100
AcDbEntity
  8
1-7
  6
Continuous
 62
    30
370
     5
100
AcDbLine
 10
-201.5990806558417
 20
-115.7437268452542
 30
0.0
 11
-198.5989965263017
 21
-112.7437169476614
 31
0.0
  0
LINE
  5
282
330
1F
100
AcDbEntity
  8
1-7
  6
Continuous
 62
    30
370
     5
100
AcDbLine
 10
-198.5989965263017
 20
-112.7437169476614
 30
0.0
 11
-201.5990806558417
 21
-109.743855513962
 31
0.0
  0
LINE
  5
283
330
1F
100
AcDbEntity
  8
1-7
  6
Continuous
 62
    30
370
     5
100
AcDbLine
 10
-201.5990806558417
 20
-127.7437664356259
 30
0.0
 11
-198.5989965263017
 21
-124.7437565380329
 31
0.0
  0
LINE
  5
284
330
1F
100
AcDbEntity
  8
1-7
  6
Continuous
 62
    30
370
     5
100
AcDbLine
 10
-198.5989965263017
 20
-124.7437565380329
 30
0.0
 11
-201.5990806558417
 21
-121.7438951043335
 31
0.0
  0
LINE
  5
285
330
1F
100
AcDbEntity
  8
1-7
  6
Continuous
 62
    30
370
     5
100
AcDbLine
 10
-231.599031167877
 20
-175.7437763332187
 30
0.0
 11
-234.5990410654698
 21
-172.7437664356259
 31
0.0
  0
LINE
  5
286
330
1F
100
AcDbEntity
  8
1-7
  6
Continuous
 62
    30
370
     5
100
AcDbLine
 10
-234.5990410654698
 20
-172.7437664356259
 30
0.0
 11
-231.599031167877
 21
-169.743756538033
 31
0.0
  0
LINE
  5
287
330
1F
100
AcDbEntity
  8
1-7
  6
Continuous
 62
    30
370
     5
100
AcDbLine
 10
-231.599031167877
 20
-169.743756538033
 30
0.0
 11
-234.5990410654698
 21
-166.7435981765464
 31
0.0
  0
LINE
  5
288
330
1F
100
AcDbEntity
  8
1-7
  6
Continuous
 62
    30
370
     5
100
AcDbLine
 10
-234.5990410654698
 20
-166.7435981765464
 30
0.0
 11
-231.599031167877
 21
-163.7438852067408
 31
0.0
  0
LINE
  5
289
330
1F
100
AcDbEntity
  8
1-7
  6
Continuous
 62
    30
370
     5
100
AcDbLine
 10
-231.599031167877
 20
-181.7437218964578
 30
0.0
 11
-234.5990410654698
 21
-178.7436377669181
 31
0.0
  0
LINE
  5
28A
330
1F
100
AcDbEntity
  8
1-7
  6
Continuous
 62
    30
370
     5
100
AcDbLine
 10
-234.5990410654698
 20
-178.7436377669181
 30
0.0
 11
-231.599031167877
 21
-175.7437763332187
 31
0.0
  0
LINE
  5
28B
330
1F
100
AcDbEntity
  8
1-7
  6
Continuous
 62
    30
370
     5
100
AcDbLine
 10
-231.599031167877
 20
-157.7437169476614
 30
0.0
 11
-234.5990410654698
 21
-154.743855513962
 31
0.0
  0
LINE
  5
28C
330
1F
100
AcDbEntity
  8
1-7
  6
Continuous
 62
    30
370
     5
100
AcDbLine
 10
-234.5990410654698
 20
-154.743855513962
 30
0.0
 11
-231.599031167877
 21
-151.7438456163691
 31
0.0
  0
LINE
  5
28D
330
1F
100
AcDbEntity
  8
1-7
  6
Continuous
 62
    30
370
     5
100
AcDbLine
 10
-231.599031167877
 20
-151.7438456163691
 30
0.0
 11
-234.5990410654698
 21
-148.7436872548827
 31
0.0
  0
LINE
  5
28E
330
1F
100
AcDbEntity
  8
1-7
  6
Continuous
 62
    30
370
     5
100
AcDbLine
 10
-234.5990410654698
 20
-148.7436872548827
 30
0.0
 11
-231.599031167877
 21
-145.7436773572897
 31
0.0
  0
LINE
  5
28F
330
1F
100
AcDbEntity
  8
1-7
  6
Continuous
 62
    30
370
     5
100
AcDbLine
 10
-231.599031167877
 20
-163.7438852067408
 30
0.0
 11
-234.5990410654698
 21
-160.7437268452542
 31
0.0
  0
LINE
  5
290
330
1F
100
AcDbEntity
  8
1-7
  6
Continuous
 62
    30
370
     5
100
AcDbLine
 10
-234.5990410654698
 20
-160.7437268452542
 30
0.0
 11
-231.599031167877
 21
-157.7437169476614
 31
0.0
  0
LINE
  5
291
330
1F
100
AcDbEntity
  8
1-7
  6
Continuous
 62
    30
370
     5
100
AcDbLine
 10
-231.599031167877
 20
-139.7438060259975
 30
0.0
 11
-234.5990410654698
 21
-136.7436476645109
 31
0.0
  0
LINE
  5
292
330
1F
100
AcDbEntity
  8
1-7
  6
Continuous
 62
    30
370
     5
100
AcDbLine
 10
-234.5990410654698
 20
-136.7436476645109
 30
0.0
 11
-231.599031167877
 21
-133.7439346947053
 31
0.0
  0
LINE
  5
293
330
1F
100
AcDbEntity
  8
1-7
  6
Continuous
 62
    30
370
     5
100
AcDbLine
 10
-231.599031167877
 20
-133.7439346947053
 30
0.0
 11
-234.5990410654698
 21
-130.7437763332188
 31
0.0
  0
LINE
  5
294
330
1F
100
AcDbEntity
  8
1-7
  6
Continuous
 62
    30
370
     5
100
AcDbLine
 10
-234.5990410654698
 20
-130.7437763332188
 30
0.0
 11
-231.599031167877
 21
-127.7437664356259
 31
0.0
  0
LINE
  5
295
330
1F
100
AcDbEntity
  8
1-7
  6
Continuous
 62
    30
370
     5
100
AcDbLine
 10
-231.599031167877
 20
-145.7436773572897
 30
0.0
 11
-234.5990410654698
 21
-142.7438159235905
 31
0.0
  0
LINE
  5
296
330
1F
100
AcDbEntity
  8
1-7
  6
Continuous
 62
    30
370
     5
100
AcDbLine
 10
-234.5990410654698
 20
-142.7438159235905
 30
0.0
 11
-231.599031167877
 21
-139.7438060259975
 31
0.0
  0
LINE
  5
297
330
1F
100
AcDbEntity
  8
1-7
  6
Continuous
 62
    30
370
     5
100
AcDbLine
 10
-231.599031167877
 20
-121.7438951043335
 30
0.0
 11
-234.5990410654698
 21
-118.7437367428471
 31
0.0
  0
LINE
  5
298
330
1F
100
AcDbEntity
  8
1-7
  6
Continuous
 62
    30
370
     5
100
AcDbLine
 10
-234.5990410654698
 20
-118.7437367428471
 30
0.0
 11
-231.599031167877
 21
-115.7437268452542
 31
0.0
  0
LINE
  5
299
330
1F
100
AcDbEntity
  8
1-7
  6
Continuous
 62
    30
370
     5
100
AcDbLine
 10
-231.599031167877
 20
-115.7437268452542
 30
0.0
 11
-234.5990410654698
 21
-112.7437169476614
 31
0.0
  0
LINE
  5
29A
330
1F
100
AcDbEntity
  8
1-7
  6
Continuous
 62
    30
370
     5
100
AcDbLine
 10
-234.5990410654698
 20
-112.7437169476614
 30
0.0
 11
-231.599031167877
 21
-109.743855513962
 31
0.0
  0
LINE
  5
29B
330
1F
100
AcDbEntity
  8
1-7
  6
Continuous
 62
    30
370
     5
100
AcDbLine
 10
-231.599031167877
 20
-127.7437664356259
 30
0.0
 11
-234.5990410654698
 21
-124.7437565380329
 31
0.0
  0
LINE
  5
29C
330
1F
100
AcDbEntity
  8
1-7
  6
Continuous
 62
    30
370
     5
100
AcDbLine
 10
-234.5990410654698
 20
-124.7437565380329
 30
0.0
 11
-231.599031167877
 21
-121.7438951043335
 31
0.0
  0
LINE
  5
29D
330
1F
100
AcDbEntity
  8
1-7
  6
Continuous
 62
    30
370
     5
100
AcDbLine
 10
-201.5990806558417
 20
-187.7438159235905
 30
0.0
 11
-201.5990806558417
 21
-181.7437218964578
 31
0.0
  0
LINE
  5
29E
330
1F
100
AcDbEntity
  8
1-7
  6
Continuous
 62
    30
370
     5
100
AcDbLine
 10
-201.5990806558417
 20
-109.743855513962
 30
0.0
 11
-201.5990806558417
 21
-97.74374169164363
 31
0.0
  0
LINE
  5
29F
330
1F
100
AcDbEntity
  8
1-7
  6
Continuous
 62
    30
370
     5
100
AcDbLine
 10
-231.599031167877
 20
-187.7438159235905
 30
0.0
 11
-231.599031167877
 21
-181.7437218964578
 31
0.0
  0
LINE
  5
2A0
330
1F
100
AcDbEntity
  8
1-7
  6
Continuous
 62
    30
370
     5
100
AcDbLine
 10
-216.5991301438061
 20
-67.74349425182106
 30
0.0
 11
-216.5991301438061
 21
-82.74369220367902
 31
0.0
  0
ARC
  5
2A1
330
1F
100
AcDbEntity
  8
1-7
  6
Continuous
 62
    30
370
     5
100
AcDbCircle
 10
-204.5991647853814
 20
-31.74382087238693
 30
0.0
 40
3.000000038662472
100
AcDbArc
 50
0.0
 51
90.0
  0
ARC
  5
2A2
330
1F
100
AcDbEntity
  8
1-7
  6
Continuous
 62
    30
370
     5
100
AcDbCircle
 10
-228.5989470383373
 20
-31.74382087238693
 30
0.0
 40
3.000000038662472
100
AcDbArc
 50
90.0
 51
180.0
  0
ARC
  5
2A3
330
1F
100
AcDbEntity
  8
1-7
  6
Continuous
 62
    30
370
     5
100
AcDbCircle
 10
-207.5989519871335
 20
-187.7438159235905
 30
0.0
 40
6.000000077324945
100
AcDbArc
 50
270.0
 51
0.0
  0
ARC
  5
2A4
330
1F
100
AcDbEntity
  8
1-7
  6
Continuous
 62
    30
370
     5
100
AcDbCircle
 10
-225.5989371407445
 20
-187.7438159235905
 30
0.0
 40
6.000000077324945
100
AcDbArc
 50
180.0
 51
270.0
  0
LINE
  5
2A5
330
1F
100
AcDbEntity
  8
1-0ﾚｲﾔ
  6
Continuous
 62
     3
370
     9
100
AcDbLine
 10
-651.5991548877879
 20
-202.7437169476614
 30
0.0
 11
-651.5991548877879
 21
-190.7439000531301
 31
0.0
  0
LINE
  5
2A6
330
1F
100
AcDbEntity
  8
1-0ﾚｲﾔ
  6
Continuous
 62
     3
370
     9
100
AcDbLine
 10
-620.7205208215929
 20
-207.865275884528
 30
0.0
 11
-611.3564576617532
 21
-198.5010642607948
 31
0.0
  0
LINE
  5
2A7
330
1F
100
AcDbEntity
  8
1-0ﾚｲﾔ
  6
Continuous
 62
     3
370
     9
100
AcDbLine
 10
-622.841847165026
 20
-208.7438109747939
 30
0.0
 11
-645.5990608606554
 21
-208.7438109747939
 31
0.0
  0
LINE
  5
2A8
330
1F
100
AcDbEntity
  8
1-0ﾚｲﾔ
  6
Continuous
 62
     3
370
     9
100
AcDbLine
 10
-228.5989470383373
 20
-193.7436872548826
 30
0.0
 11
-204.5991647853814
 21
-193.7436872548826
 31
0.0
  0
LINE
  5
2A9
330
1F
100
AcDbEntity
  8
1-0ﾚｲﾔ
  6
Continuous
 62
     3
370
     9
100
AcDbLine
 10
-201.5990806558417
 20
-190.7439000531301
 30
0.0
 11
-201.5990806558417
 21
-181.6962876824586
 31
0.0
  0
LINE
  5
2AA
330
1F
100
AcDbEntity
  8
1-0ﾚｲﾔ
  6
Continuous
 62
     3
370
     9
100
AcDbLine
 10
-231.599031167877
 20
-190.7439000531301
 30
0.0
 11
-231.599031167877
 21
-181.6962876824586
 31
0.0
  0
LINE
  5
2AB
330
1F
100
AcDbEntity
  8
1-0ﾚｲﾔ
  6
Continuous
 62
     3
370
     9
100
AcDbLine
 10
-256.4779423666736
 20
-207.8651274206344
 30
0.0
 11
-265.8418570626195
 21
-198.5010642607948
 31
0.0
  0
LINE
  5
2AC
330
1F
100
AcDbEntity
  8
1-0ﾚｲﾔ
  6
Continuous
 62
     3
370
     9
100
AcDbLine
 10
-201.6102154478598
 20
-106.7448848636242
 30
0.0
 11
-201.6097700561795
 21
-109.1646978651021
 31
0.0
  0
LINE
  5
2AD
330
1F
100
AcDbEntity
  8
1-0ﾚｲﾔ
  6
Continuous
 62
     3
370
     9
100
AcDbLine
 10
-192.3336717532867
 20
-100.7438258211832
 30
0.0
 11
-195.6102698846207
 21
-100.7438258211832
 31
0.0
  0
LINE
  5
2AE
330
1F
100
AcDbEntity
  8
1-0ﾚｲﾔ
  6
Continuous
 62
     3
370
     9
100
AcDbLine
 10
-231.5881190716989
 20
-106.7448848636242
 30
0.0
 11
-231.5884902314326
 21
-109.1646978651021
 31
0.0
  0
LINE
  5
2AF
330
1F
100
AcDbEntity
  8
1-0ﾚｲﾔ
  6
Continuous
 62
     3
370
     9
100
AcDbLine
 10
-240.8645885343254
 20
-100.7438258211832
 30
0.0
 11
-237.5879904029907
 21
-100.7438258211832
 31
0.0
  0
LINE
  5
2B0
330
1F
100
AcDbEntity
  8
1-0ﾚｲﾔ
  6
Continuous
 62
     3
370
     9
100
AcDbLine
 10
-243.8484900994645
 20
-103.4264199142999
 30
0.0
 11
-252.4982192353389
 21
-184.7438060259975
 31
0.0
  0
ARC
  5
2B1
330
1F
100
AcDbEntity
  8
1-0ﾚｲﾔ
  6
Continuous
 62
     3
370
     9
100
AcDbCircle
 10
-645.5990608606554
 20
-190.7439000531301
 30
0.0
 40
6.000000077324945
100
AcDbArc
 50
90.0
 51
180.0
  0
ARC
  5
2B2
330
1F
100
AcDbEntity
  8
1-0ﾚｲﾔ
  6
Continuous
 62
     3
370
     9
100
AcDbCircle
 10
-607.113804974887
 20
-202.7437169476614
 30
0.0
 40
6.000000077324945
100
AcDbArc
 50
90.0
 51
135.0
  0
ARC
  5
2B3
330
1F
100
AcDbEntity
  8
1-0ﾚｲﾔ
  6
Continuous
 62
     3
370
     9
100
AcDbCircle
 10
-645.5990608606554
 20
-202.7437169476614
 30
0.0
 40
6.000000077324945
100
AcDbArc
 50
180.0
 51
270.0
  0
ARC
  5
2B4
330
1F
100
AcDbEntity
  8
1-0ﾚｲﾔ
  6
Continuous
 62
     3
370
     9
100
AcDbCircle
 10
-270.0846582133795
 20
-202.7437169476614
 30
0.0
 40
6.000000077324945
100
AcDbArc
 50
45.0
 51
90.0
  0
ARC
  5
2B5
330
1F
100
AcDbEntity
  8
1-0ﾚｲﾔ
  6
Continuous
 62
     3
370
     9
100
AcDbCircle
 10
-622.841847165026
 20
-205.7437268452542
 30
0.0
 40
3.000000038662472
100
AcDbArc
 50
270.0
 51
314.9980010986328
  0
ARC
  5
2B6
330
1F
100
AcDbEntity
  8
1-0ﾚｲﾔ
  6
Continuous
 62
     3
370
     9
100
AcDbCircle
 10
-204.5991647853814
 20
-190.7439000531301
 30
0.0
 40
3.000000038662472
100
AcDbArc
 50
270.0
 51
0.0
  0
ARC
  5
2B7
330
1F
100
AcDbEntity
  8
1-0ﾚｲﾔ
  6
Continuous
 62
     3
370
     9
100
AcDbCircle
 10
-228.5989470383373
 20
-190.7439000531301
 30
0.0
 40
3.000000038662472
100
AcDbArc
 50
180.0
 51
270.0
  0
ARC
  5
2B8
330
1F
100
AcDbEntity
  8
1-0ﾚｲﾔ
  6
Continuous
 62
     3
370
     9
100
AcDbCircle
 10
-254.3566160232405
 20
-205.7437268452542
 30
0.0
 40
3.000000038662472
100
AcDbArc
 50
225.0
 51
270.0
  0
ARC
  5
2B9
330
1F
100
AcDbEntity
  8
1-0ﾚｲﾔ
  6
Continuous
 62
     3
370
     9
100
AcDbCircle
 10
-195.6102698846207
 20
-106.7438456163691
 30
0.0
 40
6.000000077324945
100
AcDbArc
 50
90.0
 51
180.010025024414
  0
ARC
  5
2BA
330
1F
100
AcDbEntity
  8
1-0ﾚｲﾔ
  6
Continuous
 62
     3
370
     9
100
AcDbCircle
 10
-192.3336717532867
 20
-103.7436872548826
 30
0.0
 40
3.000000038662472
100
AcDbArc
 50
6.365219116210941
 51
90.0
  0
ARC
  5
2BB
330
1F
100
AcDbEntity
  8
1-0ﾚｲﾔ
  6
Continuous
 62
     3
370
     9
100
AcDbCircle
 10
-237.5879904029907
 20
-106.7438456163691
 30
0.0
 40
6.000000077324945
100
AcDbArc
 50
359.9899749755859
 51
90.0
  0
ARC
  5
2BC
330
1F
100
AcDbEntity
  8
1-0ﾚｲﾔ
  6
Continuous
 62
     3
370
     9
100
AcDbCircle
 10
-240.8645885343254
 20
-103.7436872548826
 30
0.0
 40
3.000000038662472
100
AcDbArc
 50
90.0
 51
173.9287719726562
  0
LINE
  5
2BD
330
1F
100
AcDbEntity
  8
1-5ﾚｲﾔ
  6
Continuous
 62
     4
370
     9
100
AcDbLine
 10
-603.8528679842415
 20
-184.7438060259975
 30
0.0
 11
-603.8528679842415
 21
-177.5437862308119
 31
0.0
  0
ARC
  5
2BE
330
1F
100
AcDbEntity
  8
1-5ﾚｲﾔ
  6
Continuous
 62
     4
370
     9
100
AcDbCircle
 10
-265.4528224553142
 20
-170.3437862308117
 30
0.0
 40
7.199999999999999
100
AcDbArc
 50
270.0
 51
0.0
  0
ARC
  5
2BF
330
1F
100
AcDbEntity
  8
1-5ﾚｲﾔ
  6
Continuous
 62
     4
370
     9
100
AcDbCircle
 10
-265.4528224553142
 20
-170.3437862308117
 30
0.0
 40
14.4
100
AcDbArc
 50
270.0
 51
0.0
  0
LINE
  5
2C0
330
1F
100
AcDbEntity
  8
1-5ﾚｲﾔ
  6
Continuous
 62
     4
370
     9
100
AcDbLine
 10
-251.0528224553143
 20
-34.74380602599751
 30
0.0
 11
-258.2528224553139
 21
-34.74380602599751
 31
0.0
  0
LINE
  5
2C1
330
1F
100
AcDbEntity
  8
1-5ﾚｲﾔ
  6
Continuous
 62
     4
370
     9
100
AcDbLine
 10
-258.2528224553139
 20
-170.3437862308117
 30
0.0
 11
-258.2528224553139
 21
-34.74380602599751
 31
0.0
  0
LINE
  5
2C2
330
1F
100
AcDbEntity
  8
1-5ﾚｲﾔ
  6
Continuous
 62
     4
370
     9
100
AcDbLine
 10
-251.0528224553143
 20
-34.74380602599751
 30
0.0
 11
-251.0528224553143
 21
-170.3437862308117
 31
0.0
  0
LINE
  5
2C3
330
1F
100
AcDbEntity
  8
1-5ﾚｲﾔ
  6
Continuous
 62
     4
370
     9
100
AcDbLine
 10
-489.8527195203474
 20
-184.7438060259975
 30
0.0
 11
-489.8527195203474
 21
-177.5437862308119
 31
0.0
  0
LINE
  5
2C4
330
1F
100
AcDbEntity
  8
1-5ﾚｲﾔ
  6
Continuous
 62
     4
370
     9
100
AcDbLine
 10
-417.8527195203474
 20
-184.7438060259975
 30
0.0
 11
-417.8527195203474
 21
-177.5437862308119
 31
0.0
  0
LINE
  5
2C5
330
1F
100
AcDbEntity
  8
1-5ﾚｲﾔ
  6
Continuous
 62
     4
370
     9
100
AcDbLine
 10
-265.4528224553142
 20
-177.5437862308119
 30
0.0
 11
-419.0992588125132
 21
-177.5437862308119
 31
0.0
  0
LINE
  5
2C6
330
1F
100
AcDbEntity
  8
1-5ﾚｲﾔ
  6
Continuous
 62
     4
370
     9
100
AcDbLine
 10
-476.0994468667782
 20
-177.5437862308119
 30
0.0
 11
-603.8528679842415
 21
-177.5437862308119
 31
0.0
  0
LINE
  5
2C7
330
1F
100
AcDbEntity
  8
1-0ﾚｲﾔ
  6
Continuous
 62
     3
370
     9
100
AcDbLine
 10
-540.5992142733458
 20
-196.743845616369
 30
0.0
 11
-607.113804974887
 21
-196.743845616369
 31
0.0
  0
LINE
  5
2C8
330
1F
100
AcDbEntity
  8
1-0ﾚｲﾔ
  6
Continuous
 62
     3
370
     9
100
AcDbLine
 10
-531.5991103486201
 20
-208.7438109747939
 30
0.0
 11
-522.5991548877882
 21
-208.7438109747939
 31
0.0
  0
LINE
  5
2C9
330
1F
100
AcDbEntity
  8
1-0ﾚｲﾔ
  6
Continuous
 62
     3
370
     9
100
AcDbLine
 10
-534.5991202462133
 20
-205.7437268452542
 30
0.0
 11
-534.5991202462133
 21
-202.7437169476614
 31
0.0
  0
ARC
  5
2CA
330
1F
100
AcDbEntity
  8
1-0ﾚｲﾔ
  6
Continuous
 62
     3
370
     9
100
AcDbCircle
 10
-516.5989866287092
 20
-208.7438109747939
 30
0.0
 40
6.000000077324945
100
AcDbArc
 50
90.0
 51
180.0
  0
ARC
  5
2CB
330
1F
100
AcDbEntity
  8
1-0ﾚｲﾔ
  6
Continuous
 62
     3
370
     9
100
AcDbCircle
 10
-540.5992142733458
 20
-202.7437169476614
 30
0.0
 40
6.000000077324945
100
AcDbArc
 50
0.0
 51
90.0
  0
ARC
  5
2CC
330
1F
100
AcDbEntity
  8
1-0ﾚｲﾔ
  6
Continuous
 62
     3
370
     9
100
AcDbCircle
 10
-531.5991103486201
 20
-205.7437268452542
 30
0.0
 40
3.000000038662472
100
AcDbArc
 50
180.0
 51
270.0
  0
LINE
  5
2CD
330
1F
100
AcDbEntity
  8
1-0ﾚｲﾔ
  6
Continuous
 62
     3
370
     9
100
AcDbLine
 10
-360.5992142733458
 20
-205.7437268452542
 30
0.0
 11
-360.5992142733458
 21
-202.7437169476614
 31
0.0
  0
LINE
  5
2CE
330
1F
100
AcDbEntity
  8
1-0ﾚｲﾔ
  6
Continuous
 62
     3
370
     9
100
AcDbLine
 10
-363.5992984028851
 20
-208.7438109747939
 30
0.0
 11
-372.599031167877
 21
-208.7438109747939
 31
0.0
  0
LINE
  5
2CF
330
1F
100
AcDbEntity
  8
1-0ﾚｲﾔ
  6
Continuous
 62
     3
370
     9
100
AcDbLine
 10
-270.0846582133795
 20
-196.743845616369
 30
0.0
 11
-354.5991202462133
 21
-196.743845616369
 31
0.0
  0
ARC
  5
2D0
330
1F
100
AcDbEntity
  8
1-0ﾚｲﾔ
  6
Continuous
 62
     3
370
     9
100
AcDbCircle
 10
-354.5991202462133
 20
-202.7437169476614
 30
0.0
 40
6.000000077324945
100
AcDbArc
 50
90.0
 51
180.0
  0
ARC
  5
2D1
330
1F
100
AcDbEntity
  8
1-0ﾚｲﾔ
  6
Continuous
 62
     3
370
     9
100
AcDbCircle
 10
-378.5991251950098
 20
-208.7438109747939
 30
0.0
 40
6.000000077324945
100
AcDbArc
 50
0.0
 51
90.0
  0
ARC
  5
2D2
330
1F
100
AcDbEntity
  8
1-0ﾚｲﾔ
  6
Continuous
 62
     3
370
     9
100
AcDbCircle
 10
-363.5992984028851
 20
-205.7437268452542
 30
0.0
 40
3.000000038662472
100
AcDbArc
 50
270.0
 51
0.0
  0
LINE
  5
2D3
330
1F
100
AcDbEntity
  8
1-0ﾚｲﾔ
  6
Continuous
 62
     3
370
     9
100
AcDbLine
 10
-477.5990163214876
 20
-184.7435090982103
 30
0.0
 11
-477.5990163214876
 21
-202.7434200198742
 31
0.0
  0
LINE
  5
2D4
330
1F
100
AcDbEntity
  8
1-0ﾚｲﾔ
  6
Continuous
 62
     3
370
     9
100
AcDbLine
 10
-405.5989470383377
 20
-184.7435090982103
 30
0.0
 11
-405.5989470383377
 21
-202.7434200198742
 31
0.0
  0
LINE
  5
2D5
330
1F
100
AcDbEntity
  8
1-5ﾚｲﾔ
  6
JWW_CENTER1
 62
     4
370
     9
100
AcDbLine
 10
-453.8527195203474
 20
-193.0275121653846
 30
0.0
 11
-453.8527195203474
 21
-169.1914889731059
 31
0.0
  0
LINE
  5
2D6
330
1F
100
AcDbEntity
  8
1-0ﾚｲﾔ
  6
JWW_CENTER1
 62
     3
370
     9
100
AcDbLine
 10
-441.5989816799126
 20
-211.6614761551816
 30
0.0
 11
-441.5989816799126
 21
-175.8254529629029
 31
0.0
  0
ARC
  5
2D7
330
1F
100
AcDbEntity
  8
1-A
  6
Continuous
 62
     2
370
     9
100
AcDbCircle
 10
-433.4759891664306
 20
-332.1196077310225
 30
0.0
 40
18.89449751054919
100
AcDbArc
 50
221.0460052490234
 51
318.9539947509765
  0
ARC
  5
2D8
330
1F
100
AcDbEntity
  8
1-A
  6
Continuous
 62
     2
370
     9
100
AcDbCircle
 10
-461.9757120338294
 20
-332.1196077310225
 30
0.0
 40
18.89449751054919
100
AcDbArc
 50
221.0460052490234
 51
318.9539947509765
  0
ARC
  5
2D9
330
1F
100
AcDbEntity
  8
1-A
  6
Continuous
 62
     2
370
     9
100
AcDbCircle
 10
-461.9757120338294
 20
-356.9341598319519
 30
0.0
 40
18.89449751054919
100
AcDbArc
 50
41.04600524902342
 51
138.9539947509766
  0
LINE
  5
2DA
330
1F
100
AcDbEntity
  8
1-A
  6
Continuous
 62
     2
370
     9
100
AcDbLine
 10
-402.72585060013
 20
-177.5437862308119
 30
0.0
 11
-492.7259990640231
 21
-177.5437862308119
 31
0.0
  0
LINE
  5
2DB
330
1F
100
AcDbEntity
  8
1-A
  6
Continuous
 62
     2
370
     9
100
AcDbLine
 10
-402.7264444557044
 20
-147.5441326465634
 30
0.0
 11
-492.7259990640231
 21
-147.5441326465634
 31
0.0
  0
LINE
  5
2DC
330
1F
100
AcDbEntity
  8
1-A
  6
Continuous
 62
     2
370
     9
100
AcDbLine
 10
-419.2261277327312
 20
-344.5268837814875
 30
0.0
 11
-419.2261277327312
 21
-177.5437862308119
 31
0.0
  0
LINE
  5
2DD
330
1F
100
AcDbEntity
  8
1-A
  6
Continuous
 62
     2
370
     9
100
AcDbLine
 10
-476.2263157869962
 20
-344.5268837814875
 30
0.0
 11
-476.2263157869962
 21
-177.5437862308119
 31
0.0
  0
ARC
  5
2DE
330
1F
100
AcDbEntity
  8
1-A
  6
Continuous
 62
     2
370
     9
100
AcDbCircle
 10
-418.4757912145725
 20
-162.5443305984213
 30
0.0
 40
21.74996504912505
100
AcDbArc
 50
316.397216796875
 51
43.60289001464842
  0
ARC
  5
2DF
330
1F
100
AcDbEntity
  8
1-A
  6
Continuous
 62
     2
370
     9
100
AcDbCircle
 10
-476.9760584495813
 20
-162.5443305984213
 30
0.0
 40
21.74996504912505
100
AcDbArc
 50
136.3971099853515
 51
223.602783203125
  0
LINE
  5
2E0
330
1F
100
AcDbEntity
  8
1-5ﾚｲﾔ
  6
Continuous
 62
     4
370
     9
100
AcDbLine
 10
-476.2263157869962
 20
-184.7438060259975
 30
0.0
 11
-603.8528679842415
 21
-184.7438060259975
 31
0.0
  0
LINE
  5
2E1
330
1F
100
AcDbEntity
  8
1-0ﾚｲﾔ
  6
Continuous
 62
     3
370
     9
100
AcDbLine
 10
-645.5990608606554
 20
-184.7438060259975
 30
0.0
 11
-476.2263157869962
 21
-184.7438060259975
 31
0.0
  0
LINE
  5
2E2
330
1F
100
AcDbEntity
  8
1-0ﾚｲﾔ
  6
Continuous
 62
     3
370
     9
100
AcDbLine
 10
-419.2261277327312
 20
-184.7438060259975
 30
0.0
 11
-252.4982192353389
 21
-184.7438060259975
 31
0.0
  0
LINE
  5
2E3
330
1F
100
AcDbEntity
  8
1-5ﾚｲﾔ
  6
Continuous
 62
     4
370
     9
100
AcDbLine
 10
-265.4528224553142
 20
-184.7438060259975
 30
0.0
 11
-419.2261277327312
 21
-184.7438060259975
 31
0.0
  0
LINE
  5
2E4
330
1F
100
AcDbEntity
  8
1-5ﾚｲﾔ
  6
JWW_DASHED1
 62
     4
370
     9
100
AcDbLine
 10
-476.2263157869962
 20
-184.7438060259975
 30
0.0
 11
-419.2261277327312
 21
-184.7438060259975
 31
0.0
  0
LINE
  5
2E5
330
1F
100
AcDbEntity
  8
1-0ﾚｲﾔ
  6
Continuous
 62
     3
370
     9
100
AcDbLine
 10
-419.2261277327312
 20
-202.7437169476614
 30
0.0
 11
-378.5991251950098
 21
-202.7437169476614
 31
0.0
  0
LINE
  5
2E6
330
1F
100
AcDbEntity
  8
1-0ﾚｲﾔ
  6
Continuous
 62
     3
370
     9
100
AcDbLine
 10
-516.5989866287092
 20
-202.7437169476614
 30
0.0
 11
-476.2263157869962
 21
-202.7437169476614
 31
0.0
  0
LINE
  5
2E7
330
1F
100
AcDbEntity
  8
1-0ﾚｲﾔ
  6
JWW_DASHED1
 62
     3
370
     9
100
AcDbLine
 10
-476.2263157869962
 20
-202.7437169476614
 30
0.0
 11
-419.2261277327312
 21
-202.7437169476614
 31
0.0
  0
LINE
  5
2E8
330
1F
100
AcDbEntity
  8
1-0ﾚｲﾔ
  6
Continuous
 62
     3
370
     9
100
AcDbLine
 10
-180.9524296713611
 20
-208.7438109747939
 30
0.0
 11
-254.3566160232405
 21
-208.7438109747939
 31
0.0
  0
LINE
  5
2E9
330
1F
100
AcDbEntity
  8
1-4ﾚｲﾔ
  6
Continuous
 62
     7
370
     9
100
AcDbLine
 10
-103.344609623877
 20
-208.7437268839167
 30
0.0
 11
-103.344609623877
 21
-28.74381097479395
 31
0.0
  0
LINE
  5
2EA
330
1F
100
AcDbEntity
  8
1-4ﾚｲﾔ
  6
Continuous
 62
     7
370
     9
100
AcDbLine
 10
-103.344609623877
 20
-208.7437268839167
 30
0.0
 11
-105.3025025071778
 21
-193.8720539633094
 31
0.0
  0
LINE
  5
2EB
330
1F
100
AcDbEntity
  8
1-4ﾚｲﾔ
  6
Continuous
 62
     7
370
     9
100
AcDbLine
 10
-103.344609623877
 20
-208.7437268839167
 30
0.0
 11
-101.3867167405762
 21
-193.8720539633094
 31
0.0
  0
LINE
  5
2EC
330
1F
100
AcDbEntity
  8
1-4ﾚｲﾔ
  6
Continuous
 62
     7
370
     9
100
AcDbLine
 10
-103.344609623877
 20
-28.74381097479395
 30
0.0
 11
-105.3025025071778
 21
-43.61548389540111
 31
0.0
  0
LINE
  5
2ED
330
1F
100
AcDbEntity
  8
1-4ﾚｲﾔ
  6
Continuous
 62
     7
370
     9
100
AcDbLine
 10
-103.344609623877
 20
-28.74381097479395
 30
0.0
 11
-101.3867167405762
 21
-43.61548389540111
 31
0.0
  0
LINE
  5
2EE
330
1F
100
AcDbEntity
  8
1-4ﾚｲﾔ
  6
Continuous
 62
     7
370
     9
100
AcDbLine
 10
-101.544609623877
 20
-208.7437268839167
 30
0.0
 11
-168.9524296713611
 21
-208.7437268839167
 31
0.0
  0
LINE
  5
2EF
330
1F
100
AcDbEntity
  8
1-4ﾚｲﾔ
  6
Continuous
 62
     7
370
     9
100
AcDbLine
 10
-101.544609623877
 20
-28.74381097479395
 30
0.0
 11
-192.5991647853814
 21
-28.74381097479395
 31
0.0
  0
TEXT
  5
2F0
330
1F
100
AcDbEntity
  8
1-4ﾚｲﾔ
  6
Continuous
 62
     2
370
   211
100
AcDbText
 10
-110.328609623877
 20
-131.4937689293553
 30
0.0
 40
18.288
  1
30
 50
90.0
 41
1.0625
  7
ＭＳ ゴシック
100
AcDbText
  0
LINE
  5
2F1
330
1F
100
AcDbEntity
  8
1-A
  6
JWW_CENTER1
 62
     2
370
     9
100
AcDbLine
 10
-447.72585060013
 20
-642.9915480217251
 30
0.0
 11
-447.72585060013
 21
-120.0882395786808
 31
0.0
  0
LINE
  5
2F2
330
1F
100
AcDbEntity
  8
1-E
  6
Continuous
 62
     2
370
     9
100
AcDbLine
 10
820.5209610847955
 20
-434.4725717476568
 30
0.0
 11
828.0800383963426
 21
-430.1073458483748
 31
0.0
  0
LINE
  5
2F3
330
1F
100
AcDbEntity
  8
1-E
  6
Continuous
 62
     2
370
     9
100
AcDbLine
 10
685.0789639374441
 20
-356.2749517799068
 30
0.0
 11
805.4007058905725
 21
-425.7426741564515
 31
0.0
  0
LINE
  5
2F4
330
1F
100
AcDbEntity
  8
1-E
  6
Continuous
 62
     2
370
     9
100
AcDbLine
 10
820.521057514876
 20
-434.472404725695
 30
0.0
 11
970.1574409033216
 21
-520.8649267248204
 31
0.0
  0
LINE
  5
2F5
330
1F
100
AcDbEntity
  8
1-E
  6
Continuous
 62
     2
370
     9
100
AcDbLine
 10
828.0800457380868
 20
-430.1073331320639
 30
0.0
 11
972.0810875724519
 21
-513.2461308659733
 31
0.0
  0
LINE
  5
2F6
330
1F
100
AcDbEntity
  8
1-E
  6
Continuous
 62
     2
370
     9
100
AcDbLine
 10
805.4007058905725
 20
-425.7426741564515
 30
0.0
 11
805.4007058905725
 21
-436.5868344188519
 31
0.0
  0
LINE
  5
2F7
330
1F
100
AcDbEntity
  8
1-E
  6
Continuous
 62
     2
370
     9
100
AcDbLine
 10
820.5209610847955
 20
-434.4725717476568
 30
0.0
 11
820.5209610847955
 21
-445.3167082737905
 31
0.0
  0
LINE
  5
2F8
330
1F
100
AcDbEntity
  8
1-E
  6
Continuous
 62
     2
370
     9
100
AcDbLine
 10
812.0596357066847
 20
-421.8973779511123
 30
0.0
 11
805.400609460492
 21
-425.7428411784132
 31
0.0
  0
ARC
  5
2F9
330
1F
100
AcDbEntity
  8
1-E
  6
Continuous
 62
     2
370
     9
100
AcDbCircle
 10
812.3596867720391
 20
-422.4169637074411
 30
0.0
 40
0.6000000000000001
100
AcDbArc
 50
0.0
 51
120.0056309208276
  0
LINE
  5
2FA
330
1F
100
AcDbEntity
  8
1-E
  6
Continuous
 62
     2
370
     9
100
AcDbLine
 10
686.5062698340703
 20
-349.0628517098529
 30
0.0
 11
812.6596861156695
 21
-421.8973480862159
 31
0.0
  0
LINE
  5
2FB
330
1F
100
AcDbEntity
  8
1-E
  6
Continuous
 62
     2
370
     9
100
AcDbLine
 10
812.959686772039
 20
-428.3058134566834
 30
0.0
 11
810.275926770682
 21
-431.8081667171609
 31
0.0
  0
LINE
  5
2FC
330
1F
100
AcDbEntity
  8
1-E
  6
Continuous
 62
     2
370
     9
100
AcDbLine
 10
810.275926770682
 20
-431.8081667171609
 30
0.0
 11
810.275926770682
 21
-436.3754216764137
 31
0.0
  0
LINE
  5
2FD
330
1F
100
AcDbEntity
  8
1-E
  6
Continuous
 62
     2
370
     9
100
AcDbLine
 10
810.275926770682
 20
-436.3754216764137
 30
0.0
 11
812.959686772039
 21
-439.8777749368913
 31
0.0
  0
LINE
  5
2FE
330
1F
100
AcDbEntity
  8
1-E
  6
Continuous
 62
     2
370
     9
100
AcDbLine
 10
812.959686772039
 20
-422.4169637074411
 30
0.0
 11
812.959686772039
 21
-428.3058134566834
 31
0.0
  0
LINE
  5
2FF
330
1F
100
AcDbEntity
  8
1-E
  6
Continuous
 62
     2
370
     9
100
AcDbLine
 10
812.959686772039
 20
-439.8777749368913
 30
0.0
 11
812.959686772039
 21
-440.9510814571794
 31
0.0
  0
LINE
  5
300
330
1F
100
AcDbEntity
  8
1-F
  6
Continuous
 62
     7
370
     9
100
AcDbLine
 10
736.4535966782371
 20
-526.3076501794765
 30
0.0
 11
704.7014752941578
 21
-544.6397490630278
 31
0.0
  0
LINE
  5
301
330
1F
100
AcDbEntity
  8
1-F
  6
Continuous
 62
     7
370
     9
100
AcDbLine
 10
751.5736394469515
 20
-535.0371985505735
 30
0.0
 11
719.8213351442422
 21
-553.3691290778083
 31
0.0
  0
LINE
  5
302
330
1F
100
AcDbEntity
  8
1-3ﾚｲﾔ
  6
Continuous
 62
     6
370
     5
100
AcDbLine
 10
912.2120486191125
 20
-128.3047660919239
 30
0.0
 11
912.2119090709137
 21
-128.3046855235175
 31
0.0
  0
LINE
  5
303
330
1F
100
AcDbEntity
  8
1-E
  6
Continuous
 62
     2
370
     9
100
AcDbLine
 10
922.712285392076
 20
-134.3670614928809
 30
0.0
 11
927.9615525310022
 21
-131.3357078074134
 31
0.0
  0
LINE
  5
304
330
1F
100
AcDbEntity
  8
1-F
  6
Continuous
 62
     7
370
     9
100
AcDbLine
 10
955.3727545209647
 20
-106.1350086866187
 30
0.0
 11
1110.313533923414
 21
-106.1350086866187
 31
0.0
  0
TEXT
  5
305
330
1F
100
AcDbEntity
  8
1-F
  6
Continuous
 62
     7
370
     9
100
AcDbText
 10
961.0089041593726
 20
-100.5702752881812
 30
0.0
 40
13.716
  1
ジョイント金具
 41
1.142857142857143
  7
ＭＳ ゴシック
100
AcDbText
  0
LINE
  5
306
330
1F
100
AcDbEntity
  8
1-F
  6
Continuous
 62
     7
370
     9
100
AcDbLine
 10
935.294242637982
 20
-149.7004207998727
 30
0.0
 11
955.3727545209647
 21
-106.1350086866187
 31
0.0
  0
LINE
  5
307
330
1F
100
AcDbEntity
  8
1-F
  6
Continuous
 62
     7
370
     9
100
AcDbLine
 10
935.2942426379818
 20
-149.7004207998728
 30
0.0
 11
944.8977780581674
 21
-134.4763392964946
 31
0.0
  0
LINE
  5
308
330
1F
100
AcDbEntity
  8
1-F
  6
Continuous
 62
     7
370
     9
100
AcDbLine
 10
935.2942426379818
 20
-149.7004207998728
 30
0.0
 11
940.6300349732859
 21
-132.5094896343324
 31
0.0
  0
LINE
  5
309
330
1F
100
AcDbEntity
  8
1-E
  6
Continuous
 62
     2
370
     9
100
AcDbLine
 10
820.0381225551853
 20
-75.08829296397703
 30
0.0
 11
912.2119090707099
 21
-128.3046855238703
 31
0.0
  0
LINE
  5
30A
330
1F
100
AcDbEntity
  8
1-E
  6
Continuous
 62
     2
370
     9
100
AcDbLine
 10
922.712285392076
 20
-134.3670614928809
 30
0.0
 11
1036.854017103041
 21
-200.2666131096917
 31
0.0
  0
LINE
  5
30B
330
1F
100
AcDbEntity
  8
1-E
  6
Continuous
 62
     2
370
     9
100
AcDbLine
 10
927.9615575774072
 20
-131.335699066739
 30
0.0
 11
1035.822193042652
 21
-193.6087498020481
 31
0.0
  0
LINE
  5
30C
330
1F
100
AcDbEntity
  8
1-E
  6
Continuous
 62
     2
370
     9
100
AcDbLine
 10
912.2120486191125
 20
-128.3047660919239
 30
0.0
 11
912.2120486191125
 21
-136.3738740887987
 31
0.0
  0
LINE
  5
30D
330
1F
100
AcDbEntity
  8
1-E
  6
Continuous
 62
     2
370
     9
100
AcDbLine
 10
922.712285392076
 20
-134.3670614928809
 30
0.0
 11
922.712285392076
 21
-142.436204893134
 31
0.0
  0
LINE
  5
30E
330
1F
100
AcDbEntity
  8
1-E
  6
Continuous
 62
     2
370
     9
100
AcDbLine
 10
916.7412749057553
 20
-125.6892225440412
 30
0.0
 11
912.2120486191125
 21
-128.3047660919239
 31
0.0
  0
ARC
  5
30F
330
1F
100
AcDbEntity
  8
1-E
  6
Continuous
 62
     2
370
     9
100
AcDbCircle
 10
916.9813157580386
 20
-126.1048911491042
 30
0.0
 40
0.48
100
AcDbArc
 50
0.0
 51
120.0056309208298
  0
LINE
  5
310
330
1F
100
AcDbEntity
  8
1-E
  6
Continuous
 62
     2
370
     9
100
AcDbLine
 10
822.3732572096203
 20
-70.9300517391699
 30
0.0
 11
917.2117125783603
 21
-125.6847814638885
 31
0.0
  0
LINE
  5
311
330
1F
100
AcDbEntity
  8
1-E
  6
Continuous
 62
     2
370
     9
100
AcDbLine
 10
917.4613157580386
 20
-131.3714447439835
 30
0.0
 11
915.5950936263087
 21
-133.4358233724818
 31
0.0
  0
LINE
  5
312
330
1F
100
AcDbEntity
  8
1-E
  6
Continuous
 62
     2
370
     9
100
AcDbLine
 10
915.5950936263087
 20
-133.4358233724818
 30
0.0
 11
915.5950936263087
 21
-136.2643566754015
 31
0.0
  0
LINE
  5
313
330
1F
100
AcDbEntity
  8
1-E
  6
Continuous
 62
     2
370
     9
100
AcDbLine
 10
917.4613157580386
 20
-138.3287353038998
 30
0.0
 11
915.5950936263087
 21
-136.2643566754015
 31
0.0
  0
LINE
  5
314
330
1F
100
AcDbEntity
  8
1-E
  6
Continuous
 62
     2
370
     9
100
AcDbLine
 10
917.4613157580386
 20
-126.1048911491042
 30
0.0
 11
917.4613157580386
 21
-131.3714447439835
 31
0.0
  0
LINE
  5
315
330
1F
100
AcDbEntity
  8
1-E
  6
Continuous
 62
     2
370
     9
100
AcDbLine
 10
917.4613157580386
 20
-138.3287353038998
 30
0.0
 11
917.4613157580386
 21
-139.4045480216415
 31
0.0
  0
LINE
  5
316
330
1F
100
AcDbEntity
  8
1-F
  6
Continuous
 62
     7
370
     9
100
AcDbLine
 10
864.3321065489436
 20
-198.1414479940561
 30
0.0
 11
842.2819890202703
 21
-210.8720571157095
 31
0.0
  0
LINE
  5
317
330
1F
100
AcDbEntity
  8
1-F
  6
Continuous
 62
     7
370
     9
100
AcDbLine
 10
874.8321208176085
 20
-204.2036200999773
 30
0.0
 11
852.7819494298988
 21
-216.9341348184121
 31
0.0
  0
TEXT
  5
318
330
1F
100
AcDbEntity
  8
1-F
  6
Continuous
 62
     2
370
     9
100
AcDbText
 10
-835.3273174233981
 20
-526.6548019357211
 30
0.0
 40
18.288
  1
φ９．５×２００
 41
1.109375
  7
ＭＳ ゴシック
100
AcDbText
  0
LINE
  5
319
330
1F
100
AcDbEntity
  8
1-F
  6
Continuous
 62
     7
370
     9
100
AcDbLine
 10
-739.8913144522245
 20
-439.3887041746873
 30
0.0
 11
-739.8913144522245
 21
-469.2460551169379
 31
0.0
  0
LINE
  5
31A
330
1F
100
AcDbEntity
  8
1-F
  6
Continuous
 62
     7
370
     9
100
AcDbLine
 10
-739.8913144522245
 20
-469.2460551169379
 30
0.0
 11
-841.3209557634576
 21
-469.2460551169379
 31
0.0
  0
LINE
  5
31B
330
1F
100
AcDbEntity
  8
1-F
  6
Continuous
 62
     7
370
     9
100
AcDbLine
 10
-841.3209557634576
 20
-469.2460551169379
 30
0.0
 11
-841.3209557634576
 21
-439.3887041746873
 31
0.0
  0
LINE
  5
31C
330
1F
100
AcDbEntity
  8
1-F
  6
Continuous
 62
     7
370
     9
100
AcDbLine
 10
-841.3209557634576
 20
-439.3887041746873
 30
0.0
 11
-739.8913144522245
 21
-439.3887041746873
 31
0.0
  0
TEXT
  5
31D
330
1F
100
AcDbEntity
  8
1-F
  6
Continuous
 62
     7
370
     9
100
AcDbText
 10
-820.6061722238145
 20
-460.7793722226179
 30
0.0
 40
13.716
  1
別　売
 41
1.111111111111111
  7
ＭＳ ゴシック
100
AcDbText
  0
TEXT
  5
31E
330
1F
100
AcDbEntity
  8
1-F
  6
Continuous
 62
     2
370
     9
100
AcDbText
 10
-835.3273174233981
 20
-497.985903413699
 30
0.0
 40
18.288
  1
スチール製固定用釘
 41
1.111111111111111
  7
ＭＳ ゴシック
100
AcDbText
  0
LINE
  5
31F
330
1F
100
AcDbEntity
  8
1-F
  6
Continuous
 62
     7
370
     9
100
AcDbLine
 10
-595.3273174233981
 20
-538.9821926530987
 30
0.0
 11
-841.3209557634576
 21
-538.9821926530987
 31
0.0
  0
ENDSEC
  0
SECTION
  2
OBJECTS
  0
DICTIONARY
  5
C
330
0
100
AcDbDictionary
281
     1
  3
ACAD_DETAILVIEWSTYLE
350
365
  3
ACAD_GROUP
350
D
  3
ACAD_LAYOUT
350
1A
  3
ACAD_MATERIAL
350
43
  3
ACAD_MLEADERSTYLE
350
6B
  3
ACAD_MLINESTYLE
350
17
  3
ACAD_PLOTSETTINGS
350
19
  3
ACAD_PLOTSTYLENAME
350
E
  3
ACAD_SCALELIST
350
47
  3
ACAD_SECTIONVIEWSTYLE
350
366
  3
ACAD_TABLESTYLE
350
69
  3
ACAD_VISUALSTYLE
350
2A
  3
ACDB_RECOMPOSE_DATA
350
362
  3
AcDbVariableDictionary
350
322
  0
DICTIONARY
  5
320
330
8
100
AcDbDictionary
280
     1
281
     1
  3
ACAD_XREC_ROUNDTRIP
360
321
  0
DICTIONARY
  5
365
102
{ACAD_REACTORS
330
C
102
}
330
C
100
AcDbDictionary
281
     1
  0
DICTIONARY
  5
D
102
{ACAD_REACTORS
330
C
102
}
330
C
100
AcDbDictionary
281
     1
  0
DICTIONARY
  5
1A
102
{ACAD_REACTORS
330
C
102
}
330
C
100
AcDbDictionary
281
     1
  3
Layout1
350
1E
  3
Layout2
350
26
  3
Model
350
22
  0
DICTIONARY
  5
43
102
{ACAD_REACTORS
330
C
102
}
330
C
100
AcDbDictionary
281
     1
  3
ByBlock
350
45
  3
ByLayer
350
44
  3
Global
350
46
  0
DICTIONARY
  5
6B
102
{ACAD_REACTORS
330
C
102
}
330
C
100
AcDbDictionary
281
     1
  3
Standard
350
6C
  0
DICTIONARY
  5
17
102
{ACAD_REACTORS
330
C
102
}
330
C
100
AcDbDictionary
281
     1
  3
Standard
350
18
  0
DICTIONARY
  5
19
102
{ACAD_REACTORS
330
C
102
}
330
C
100
AcDbDictionary
281
     1
  0
ACDBDICTIONARYWDFLT
  5
E
102
{ACAD_REACTORS
330
C
102
}
330
C
100
AcDbDictionary
281
     1
  3
Normal
350
F
100
AcDbDictionaryWithDefault
340
F
  0
DICTIONARY
  5
47
102
{ACAD_REACTORS
330
C
102
}
330
C
100
AcDbDictionary
281
     1
  3
A0
350
48
  3
A1
350
49
  3
A2
350
4A
  3
A3
350
4B
  3
A4
350
4C
  3
A5
350
4D
  3
A6
350
4E
  3
A7
350
4F
  3
A8
350
50
  3
A9
350
51
  3
B0
350
52
  3
B1
350
53
  3
B2
350
54
  3
B3
350
55
  3
B4
350
56
  3
B5
350
57
  3
B6
350
58
  3
B7
350
59
  3
B8
350
5A
  3
B9
350
5B
  3
C0
350
5C
  3
C1
350
5D
  3
C2
350
5E
  3
C3
350
5F
  3
C4
350
60
  3
C5
350
61
  3
C6
350
62
  3
C7
350
63
  3
C8
350
64
  3
C9
350
65
  3
D0
350
66
  3
D1
350
67
  3
D2
350
68
  0
DICTIONARY
  5
366
102
{ACAD_REACTORS
330
C
102
}
330
C
100
AcDbDictionary
281
     1
  0
DICTIONARY
  5
69
102
{ACAD_REACTORS
330
C
102
}
330
C
100
AcDbDictionary
281
     1
  3
Standard
350
6A
  0
DICTIONARY
  5
2A
102
{ACAD_REACTORS
330
C
102
}
330
C
100
AcDbDictionary
281
     1
  3
2dWireframe
350
2F
  3
Basic
350
32
  3
Brighten
350
36
  3
ColorChange
350
3A
  3
Conceptual
350
34
  3
Dim
350
35
  3
EdgeColorOff
350
3D
  3
Facepattern
350
39
  3
Flat
350
2B
  3
FlatWithEdges
350
2C
  3
Gouraud
350
2D
  3
GouraudWithEdges
350
2E
  3
Hidden
350
31
  3
JitterOff
350
3B
  3
Linepattern
350
38
  3
OverhangOff
350
3C
  3
Realistic
350
33
  3
Shaded
350
42
  3
Shaded with edges
350
41
  3
Shades of Gray
350
3E
  3
Sketchy
350
3F
  3
Thicken
350
37
  3
Wireframe
350
30
  3
X-Ray
350
40
  0
XRECORD
  5
362
102
{ACAD_REACTORS
330
C
102
}
330
C
100
AcDbXrecord
280
     1
 90
        1
330
6A
  0
DICTIONARY
  5
322
102
{ACAD_REACTORS
330
C
102
}
330
C
100
AcDbDictionary
281
     1
  3
CANNOSCALE
350
323
  3
CENTEREXE
350
367
  3
CENTERLTYPEFILE
350
368
  3
CMLEADERSTYLE
350
364
  3
CTABLESTYLE
350
363
  3
MSLTSCALE
350
324
  3
XCLIPFRAME
350
325
  0
XRECORD
  5
321
102
{ACAD_REACTORS
330
320
102
}
330
320
100
AcDbXrecord
280
     1
102
VTR_0.000_0.000_1.000_1.000_VISUALSTYLE
340
2F
102
VTR_0.000_0.000_1.000_1.000_GRIDDISPLAY
 70
     3
102
VTR_0.000_0.000_1.000_1.000_GRIDMAJOR
 70
     5
102
VTR_0.000_0.000_1.000_1.000_DEFAULTLIGHTING
280
     1
102
VTR_0.000_0.000_1.000_1.000_DEFAULTLIGHTINGTYPE
 70
     1
102
VTR_0.000_0.000_1.000_1.000_BRIGHTNESS
141
0.0
102
VTR_0.000_0.000_1.000_1.000_CONTRAST
142
0.0
  0
LAYOUT
  5
1E
102
{ACAD_REACTORS
330
1A
102
}
330
1A
100
AcDbPlotSettings
  1

  2
none_device
  4

  6

 40
0.0
 41
0.0
 42
0.0
 43
0.0
 44
0.0
 45
0.0
 46
0.0
 47
0.0
 48
0.0
 49
0.0
140
0.0
141
0.0
142
1.0
143
1.0
 70
   688
 72
     1
 73
     0
 74
     5
  7

 75
    16
 76
     0
 77
     5
 78
   300
147
1.0
148
0.0
149
0.0
100
AcDbLayout
  1
Layout1
 70
     1
 71
     1
 10
0.0
 20
0.0
 11
420.0
 21
297.0
 12
0.0
 22
0.0
 32
0.0
 14
1.000000000000000E+20
 24
1.000000000000000E+20
 34
1.000000000000000E+20
 15
-1.000000000000000E+20
 25
-1.000000000000000E+20
 35
-1.000000000000000E+20
146
0.0
 13
0.0
 23
0.0
 33
0.0
 16
1.0
 26
0.0
 36
0.0
 17
0.0
 27
1.0
 37
0.0
 76
     0
330
1B
  0
LAYOUT
  5
26
102
{ACAD_REACTORS
330
1A
102
}
330
1A
100
AcDbPlotSettings
  1

  2
none_device
  4

  6

 40
0.0
 41
0.0
 42
0.0
 43
0.0
 44
0.0
 45
0.0
 46
0.0
 47
0.0
 48
0.0
 49
0.0
140
0.0
141
0.0
142
1.0
143
1.0
 70
   688
 72
     1
 73
     0
 74
     5
  7

 75
    16
 76
     0
 77
     5
 78
   300
147
1.0
148
0.0
149
0.0
100
AcDbLayout
  1
Layout2
 70
     1
 71
     2
 10
0.0
 20
0.0
 11
0.0
 21
0.0
 12
0.0
 22
0.0
 32
0.0
 14
0.0
 24
0.0
 34
0.0
 15
0.0
 25
0.0
 35
0.0
146
0.0
 13
0.0
 23
0.0
 33
0.0
 16
1.0
 26
0.0
 36
0.0
 17
0.0
 27
1.0
 37
0.0
 76
     0
330
23
  0
LAYOUT
  5
22
102
{ACAD_REACTORS
330
1A
102
}
330
1A
100
AcDbPlotSettings
  1

  2
none_device
  4
Letter_(8.50_x_11.00_Inches)
  6

 40
6.35
 41
6.35
 42
6.35000508
 43
6.35000508
 44
215.9
 45
279.4
 46
0.0
 47
0.0
 48
0.0
 49
0.0
140
0.0
141
0.0
142
1.0
143
1.0
 70
  1712
 72
     1
 73
     0
 74
     0
  7

 75
     0
 76
     0
 77
     5
 78
   300
147
1.0
148
0.0
149
0.0
100
AcDbLayout
  1
Model
 70
     1
 71
     0
 10
-1260.0
 20
-891.0
 11
1260.0
 21
891.0
 12
0.0
 22
0.0
 32
0.0
 14
-1260.0
 24
-891.0
 34
0.0
 15
1260.0
 25
891.0
 35
0.0
146
0.0
 13
0.0
 23
0.0
 33
0.0
 16
1.0
 26
0.0
 36
0.0
 17
0.0
 27
1.0
 37
0.0
 76
     0
330
1F
331
29
  0
MATERIAL
  5
45
102
{ACAD_REACTORS
330
43
102
}
102
{ACAD_XDICTIONARY
360
358
102
}
330
43
100
AcDbMaterial
  1
ByBlock
  0
MATERIAL
  5
44
102
{ACAD_REACTORS
330
43
102
}
102
{ACAD_XDICTIONARY
360
356
102
}
330
43
100
AcDbMaterial
  1
ByLayer
  0
MATERIAL
  5
46
102
{ACAD_REACTORS
330
43
102
}
102
{ACAD_XDICTIONARY
360
35A
102
}
330
43
100
AcDbMaterial
  1
Global
  0
MLEADERSTYLE
  5
6C
102
{ACAD_REACTORS
330
6B
102
}
102
{ACAD_XDICTIONARY
360
360
102
}
330
6B
100
AcDbMLeaderStyle
170
     2
171
     1
172
     0
 90
        2
 40
0.0
 41
0.0
173
     1
 91
-1056964608
340
14
 92
       -2
290
     1
 42
2.0
291
     1
 43
8.0
  3
Standard
341
0
 44
4.0
300

342
11
174
     1
178
     6
175
     1
176
     0
 93
-1056964608
 45
4.0
292
     0
297
     0
 46
4.0
343
0
 94
-1056964608
 47
1.0
 49
1.0
140
1.0
293
     1
141
0.0
294
     1
177
     0
142
1.0
295
     0
296
     0
143
3.75
1001
ACAD_MLEADERVER
1070
     2
  0
MLINESTYLE
  5
18
102
{ACAD_REACTORS
330
17
102
}
330
17
100
AcDbMlineStyle
  2
Standard
 70
     0
  3

 62
   256
 51
90.0
 52
90.0
 71
     2
 49
0.5
 62
   256
  6
BYLAYER
 49
-0.5
 62
   256
  6
BYLAYER
  0
ACDBPLACEHOLDER
  5
F
102
{ACAD_REACTORS
330
E
102
}
330
E
  0
SCALE
  5
48
102
{ACAD_REACTORS
330
47
102
}
330
47
100
AcDbScale
 70
     0
300
1:1
140
1.0
141
1.0
290
     1
  0
SCALE
  5
49
102
{ACAD_REACTORS
330
47
102
}
330
47
100
AcDbScale
 70
     0
300
1:2
140
1.0
141
2.0
290
     0
  0
SCALE
  5
4A
102
{ACAD_REACTORS
330
47
102
}
330
47
100
AcDbScale
 70
     0
300
1:4
140
1.0
141
4.0
290
     0
  0
SCALE
  5
4B
102
{ACAD_REACTORS
330
47
102
}
330
47
100
AcDbScale
 70
     0
300
1:5
140
1.0
141
5.0
290
     0
  0
SCALE
  5
4C
102
{ACAD_REACTORS
330
47
102
}
330
47
100
AcDbScale
 70
     0
300
1:8
140
1.0
141
8.0
290
     0
  0
SCALE
  5
4D
102
{ACAD_REACTORS
330
47
102
}
330
47
100
AcDbScale
 70
     0
300
1:10
140
1.0
141
10.0
290
     0
  0
SCALE
  5
4E
102
{ACAD_REACTORS
330
47
102
}
330
47
100
AcDbScale
 70
     0
300
1:16
140
1.0
141
16.0
290
     0
  0
SCALE
  5
4F
102
{ACAD_REACTORS
330
47
102
}
330
47
100
AcDbScale
 70
     0
300
1:20
140
1.0
141
20.0
290
     0
  0
SCALE
  5
50
102
{ACAD_REACTORS
330
47
102
}
330
47
100
AcDbScale
 70
     0
300
1:30
140
1.0
141
30.0
290
     0
  0
SCALE
  5
51
102
{ACAD_REACTORS
330
47
102
}
330
47
100
AcDbScale
 70
     0
300
1:40
140
1.0
141
40.0
290
     0
  0
SCALE
  5
52
102
{ACAD_REACTORS
330
47
102
}
330
47
100
AcDbScale
 70
     0
300
1:50
140
1.0
141
50.0
290
     0
  0
SCALE
  5
53
102
{ACAD_REACTORS
330
47
102
}
330
47
100
AcDbScale
 70
     0
300
1:100
140
1.0
141
100.0
290
     0
  0
SCALE
  5
54
102
{ACAD_REACTORS
330
47
102
}
330
47
100
AcDbScale
 70
     0
300
2:1
140
2.0
141
1.0
290
     0
  0
SCALE
  5
55
102
{ACAD_REACTORS
330
47
102
}
330
47
100
AcDbScale
 70
     0
300
4:1
140
4.0
141
1.0
290
     0
  0
SCALE
  5
56
102
{ACAD_REACTORS
330
47
102
}
330
47
100
AcDbScale
 70
     0
300
8:1
140
8.0
141
1.0
290
     0
  0
SCALE
  5
57
102
{ACAD_REACTORS
330
47
102
}
330
47
100
AcDbScale
 70
     0
300
10:1
140
10.0
141
1.0
290
     0
  0
SCALE
  5
58
102
{ACAD_REACTORS
330
47
102
}
330
47
100
AcDbScale
 70
     0
300
100:1
140
100.0
141
1.0
290
     0
  0
SCALE
  5
59
102
{ACAD_REACTORS
330
47
102
}
330
47
100
AcDbScale
 70
     0
300
1/128" = 1'-0"
140
0.0078125
141
12.0
290
     0
  0
SCALE
  5
5A
102
{ACAD_REACTORS
330
47
102
}
330
47
100
AcDbScale
 70
     0
300
1/64" = 1'-0"
140
0.015625
141
12.0
290
     0
  0
SCALE
  5
5B
102
{ACAD_REACTORS
330
47
102
}
330
47
100
AcDbScale
 70
     0
300
1/32" = 1'-0"
140
0.03125
141
12.0
290
     0
  0
SCALE
  5
5C
102
{ACAD_REACTORS
330
47
102
}
330
47
100
AcDbScale
 70
     0
300
1/16" = 1'-0"
140
0.0625
141
12.0
290
     0
  0
SCALE
  5
5D
102
{ACAD_REACTORS
330
47
102
}
330
47
100
AcDbScale
 70
     0
300
3/32" = 1'-0"
140
0.09375
141
12.0
290
     0
  0
SCALE
  5
5E
102
{ACAD_REACTORS
330
47
102
}
330
47
100
AcDbScale
 70
     0
300
1/8" = 1'-0"
140
0.125
141
12.0
290
     0
  0
SCALE
  5
5F
102
{ACAD_REACTORS
330
47
102
}
330
47
100
AcDbScale
 70
     0
300
3/16" = 1'-0"
140
0.1875
141
12.0
290
     0
  0
SCALE
  5
60
102
{ACAD_REACTORS
330
47
102
}
330
47
100
AcDbScale
 70
     0
300
1/4" = 1'-0"
140
0.25
141
12.0
290
     0
  0
SCALE
  5
61
102
{ACAD_REACTORS
330
47
102
}
330
47
100
AcDbScale
 70
     0
300
3/8" = 1'-0"
140
0.375
141
12.0
290
     0
  0
SCALE
  5
62
102
{ACAD_REACTORS
330
47
102
}
330
47
100
AcDbScale
 70
     0
300
1/2" = 1'-0"
140
0.5
141
12.0
290
     0
  0
SCALE
  5
63
102
{ACAD_REACTORS
330
47
102
}
330
47
100
AcDbScale
 70
     0
300
3/4" = 1'-0"
140
0.75
141
12.0
290
     0
  0
SCALE
  5
64
102
{ACAD_REACTORS
330
47
102
}
330
47
100
AcDbScale
 70
     0
300
1" = 1'-0"
140
1.0
141
12.0
290
     0
  0
SCALE
  5
65
102
{ACAD_REACTORS
330
47
102
}
330
47
100
AcDbScale
 70
     0
300
1-1/2" = 1'-0"
140
1.5
141
12.0
290
     0
  0
SCALE
  5
66
102
{ACAD_REACTORS
330
47
102
}
330
47
100
AcDbScale
 70
     0
300
3" = 1'-0"
140
3.0
141
12.0
290
     0
  0
SCALE
  5
67
102
{ACAD_REACTORS
330
47
102
}
330
47
100
AcDbScale
 70
     0
300
6" = 1'-0"
140
6.0
141
12.0
290
     0
  0
SCALE
  5
68
102
{ACAD_REACTORS
330
47
102
}
330
47
100
AcDbScale
 70
     0
300
1'-0" = 1'-0"
140
12.0
141
12.0
290
     0
  0
TABLESTYLE
  5
6A
102
{ACAD_REACTORS
330
69
102
}
102
{ACAD_XDICTIONARY
360
35C
102
}
330
69
100
AcDbTableStyle
  3
Standard
 70
     0
 71
     0
 40
0.06
 41
0.06
280
     0
281
     0
  7
Standard
140
4.5
170
     2
 62
     0
 63
   257
283
     0
274
    -2
284
     1
 64
     0
275
    -2
285
     1
 65
     0
276
    -2
286
     1
 66
     0
277
    -2
287
     1
 67
     0
278
    -2
288
     1
 68
     0
279
    -2
289
     1
 69
     0
  7
Standard
140
6.0
170
     5
 62
     0
 63
   257
283
     0
274
    -2
284
     1
 64
     0
275
    -2
285
     1
 65
     0
276
    -2
286
     1
 66
     0
277
    -2
287
     1
 67
     0
278
    -2
288
     1
 68
     0
279
    -2
289
     1
 69
     0
  7
Standard
140
4.5
170
     5
 62
     0
 63
   257
283
     0
274
    -2
284
     1
 64
     0
275
    -2
285
     1
 65
     0
276
    -2
286
     1
 66
     0
277
    -2
287
     1
 67
     0
278
    -2
288
     1
 68
     0
279
    -2
289
     1
 69
     0
  0
VISUALSTYLE
  5
2F
102
{ACAD_REACTORS
330
2A
102
}
102
{ACAD_XDICTIONARY
360
32E
102
}
330
2A
100
AcDbVisualStyle
  2
2dWireframe
 70
     4
 71
     0
 72
     2
 73
     0
 90
        0
 40
0.6
 41
30.0
 62
     5
 63
     7
421
 16777215
 74
     1
 91
        4
 64
     7
 65
   257
 75
     1
175
     1
 42
1.0
 92
        0
 66
   257
 43
1.0
 76
     1
 77
     6
 78
     2
 67
     7
 79
     5
170
     0
171
     0
290
     0
174
     0
 93
        1
 44
0.0
173
     0
291
     0
 45
0.0
1001
ACAD
1000
AcDbSavedByObjectVersion
1070
     0
  0
VISUALSTYLE
  5
32
102
{ACAD_REACTORS
330
2A
102
}
102
{ACAD_XDICTIONARY
360
334
102
}
330
2A
100
AcDbVisualStyle
  2
Basic
 70
     7
 71
     1
 72
     0
 73
     1
 90
        0
 40
0.6
 41
30.0
 62
     5
 63
     7
421
 16777215
 74
     0
 91
        4
 64
     7
 65
   257
 75
     1
175
     1
 42
1.0
 92
        8
 66
     7
 43
1.0
 76
     1
 77
     6
 78
     2
 67
     7
 79
     5
170
     0
171
     0
290
     0
174
     0
 93
        1
 44
0.0
173
     0
291
     1
 45
0.0
1001
ACAD
1000
AcDbSavedByObjectVersion
1070
     0
  0
VISUALSTYLE
  5
36
102
{ACAD_REACTORS
330
2A
102
}
102
{ACAD_XDICTIONARY
360
33C
102
}
330
2A
100
AcDbVisualStyle
  2
Brighten
 70
    12
 71
     2
 72
     2
 73
     0
 90
        0
 40
0.6
 41
30.0
 62
     5
 63
     7
421
 16777215
 74
     1
 91
        4
 64
     7
 65
   257
 75
     1
175
     1
 42
1.0
 92
        8
 66
     7
 43
1.0
 76
     1
 77
     6
 78
     2
 67
     7
 79
     5
170
     0
171
     0
290
     0
174
     0
 93
        1
 44
50.0
173
     0
291
     1
 45
0.0
1001
ACAD
1000
AcDbSavedByObjectVersion
1070
     0
  0
VISUALSTYLE
  5
3A
102
{ACAD_REACTORS
330
2A
102
}
102
{ACAD_XDICTIONARY
360
344
102
}
330
2A
100
AcDbVisualStyle
  2
ColorChange
 70
    16
 71
     2
 72
     2
 73
     3
 90
        0
 40
0.6
 41
30.0
 62
     5
 63
     8
421
  8421504
 74
     1
 91
        4
 64
     7
 65
   257
 75
     1
175
     1
 42
1.0
 92
        8
 66
     8
424
  8421504
 43
1.0
 76
     1
 77
     6
 78
     2
 67
     7
 79
     5
170
     0
171
     0
290
     0
174
     0
 93
        1
 44
0.0
173
     0
291
     1
 45
0.0
1001
ACAD
1000
AcDbSavedByObjectVersion
1070
     0
  0
VISUALSTYLE
  5
34
102
{ACAD_REACTORS
330
2A
102
}
102
{ACAD_XDICTIONARY
360
338
102
}
330
2A
100
AcDbVisualStyle
  2
Conceptual
 70
     9
 71
     3
 72
     2
 73
     0
 90
        0
 40
0.6
 41
30.0
 62
     5
 63
     7
421
 16777215
 74
     2
 91
        2
 64
     7
 65
   257
 75
     1
175
     1
 42
179.0
 92
        8
 66
     7
 43
1.0
 76
     1
 77
     6
 78
     2
 67
     7
 79
     3
170
     0
171
     0
290
     0
174
     0
 93
        1
 44
0.0
173
     0
291
     0
 45
0.0
1001
ACAD
1000
AcDbSavedByObjectVersion
1070
     0
  0
VISUALSTYLE
  5
35
102
{ACAD_REACTORS
330
2A
102
}
102
{ACAD_XDICTIONARY
360
33A
102
}
330
2A
100
AcDbVisualStyle
  2
Dim
 70
    11
 71
     2
 72
     2
 73
     0
 90
        0
 40
0.6
 41
30.0
 62
     5
 63
     7
421
 16777215
 74
     1
 91
        4
 64
     7
 65
   257
 75
     1
175
     1
 42
1.0
 92
        8
 66
     7
 43
1.0
 76
     1
 77
     6
 78
     2
 67
     7
 79
     5
170
     0
171
     0
290
     0
174
     0
 93
        1
 44
-50.0
173
     0
291
     1
 45
0.0
1001
ACAD
1000
AcDbSavedByObjectVersion
1070
     0
  0
VISUALSTYLE
  5
3D
102
{ACAD_REACTORS
330
2A
102
}
102
{ACAD_XDICTIONARY
360
34A
102
}
330
2A
100
AcDbVisualStyle
  2
EdgeColorOff
 70
    22
 71
     2
 72
     2
 73
     0
 90
        0
 40
0.6
 41
30.0
 62
     5
 63
     7
421
 16777215
 74
     1
 91
        4
 64
     7
 65
   257
 75
     1
175
     1
 42
1.0
 92
        8
 66
     7
 43
1.0
 76
     1
 77
     6
 78
     2
 67
     7
 79
     5
170
     0
171
     0
290
     0
174
     0
 93
        1
 44
0.0
173
     0
291
     1
 45
0.0
1001
ACAD
1000
AcDbSavedByObjectVersion
1070
     0
  0
VISUALSTYLE
  5
39
102
{ACAD_REACTORS
330
2A
102
}
102
{ACAD_XDICTIONARY
360
342
102
}
330
2A
100
AcDbVisualStyle
  2
Facepattern
 70
    15
 71
     2
 72
     2
 73
     0
 90
        0
 40
0.6
 41
30.0
 62
     5
 63
     7
421
 16777215
 74
     1
 91
        4
 64
     7
 65
   257
 75
     1
175
     1
 42
1.0
 92
        8
 66
     7
 43
1.0
 76
     1
 77
     6
 78
     2
 67
     7
 79
     5
170
     0
171
     0
290
     0
174
     0
 93
        1
 44
0.0
173
     0
291
     1
 45
0.0
1001
ACAD
1000
AcDbSavedByObjectVersion
1070
     0
  0
VISUALSTYLE
  5
2B
102
{ACAD_REACTORS
330
2A
102
}
102
{ACAD_XDICTIONARY
360
326
102
}
330
2A
100
AcDbVisualStyle
  2
Flat
 70
     0
 71
     2
 72
     1
 73
     1
 90
        2
 40
0.6
 41
30.0
 62
     5
 63
     7
421
 16777215
 74
     0
 91
        0
 64
     7
 65
   257
 75
     1
175
     1
 42
1.0
 92
        8
 66
     7
 43
1.0
 76
     1
 77
     6
 78
     2
 67
     7
 79
     5
170
     0
171
     0
290
     0
174
     0
 93
       13
 44
0.0
173
     0
291
     1
 45
0.0
1001
ACAD
1000
AcDbSavedByObjectVersion
1070
     0
  0
VISUALSTYLE
  5
2C
102
{ACAD_REACTORS
330
2A
102
}
102
{ACAD_XDICTIONARY
360
328
102
}
330
2A
100
AcDbVisualStyle
  2
FlatWithEdges
 70
     1
 71
     2
 72
     1
 73
     1
 90
        2
 40
0.6
 41
30.0
 62
     5
 63
     7
421
 16777215
 74
     1
 91
        0
 64
     7
 65
   257
 75
     1
175
     1
 42
1.0
 92
        0
 66
   257
 43
1.0
 76
     1
 77
     6
 78
     2
 67
     7
 79
     5
170
     0
171
     0
290
     0
174
     0
 93
       13
 44
0.0
173
     0
291
     1
 45
0.0
1001
ACAD
1000
AcDbSavedByObjectVersion
1070
     0
  0
VISUALSTYLE
  5
2D
102
{ACAD_REACTORS
330
2A
102
}
102
{ACAD_XDICTIONARY
360
32A
102
}
330
2A
100
AcDbVisualStyle
  2
Gouraud
 70
     2
 71
     2
 72
     2
 73
     1
 90
        2
 40
0.6
 41
30.0
 62
     5
 63
     7
421
 16777215
 74
     0
 91
        0
 64
     7
 65
   257
 75
     1
175
     1
 42
1.0
 92
        0
 66
     7
 43
1.0
 76
     1
 77
     6
 78
     2
 67
     7
 79
     5
170
     0
171
     0
290
     0
174
     0
 93
       13
 44
0.0
173
     0
291
     1
 45
0.0
1001
ACAD
1000
AcDbSavedByObjectVersion
1070
     0
  0
VISUALSTYLE
  5
2E
102
{ACAD_REACTORS
330
2A
102
}
102
{ACAD_XDICTIONARY
360
32C
102
}
330
2A
100
AcDbVisualStyle
  2
GouraudWithEdges
 70
     3
 71
     2
 72
     2
 73
     1
 90
        2
 40
0.6
 41
30.0
 62
     5
 63
     7
421
 16777215
 74
     1
 91
        0
 64
     7
 65
   257
 75
     1
175
     1
 42
1.0
 92
        0
 66
   257
 43
1.0
 76
     1
 77
     6
 78
     2
 67
     7
 79
     5
170
     0
171
     0
290
     0
174
     0
 93
       13
 44
0.0
173
     0
291
     1
 45
0.0
1001
ACAD
1000
AcDbSavedByObjectVersion
1070
     0
  0
VISUALSTYLE
  5
31
102
{ACAD_REACTORS
330
2A
102
}
102
{ACAD_XDICTIONARY
360
332
102
}
330
2A
100
AcDbVisualStyle
  2
Hidden
 70
     6
 71
     1
 72
     2
 73
     2
 90
        0
 40
0.6
 41
30.0
 62
     5
 63
     7
421
 16777215
 74
     2
 91
        2
 64
     7
 65
   257
 75
     2
175
     1
 42
40.0
 92
        0
 66
   257
 43
1.0
 76
     1
 77
     6
 78
     2
 67
     7
 79
     3
170
     0
171
     0
290
     0
174
     0
 93
        1
 44
0.0
173
     0
291
     0
 45
0.0
1001
ACAD
1000
AcDbSavedByObjectVersion
1070
     0
  0
VISUALSTYLE
  5
3B
102
{ACAD_REACTORS
330
2A
102
}
102
{ACAD_XDICTIONARY
360
346
102
}
330
2A
100
AcDbVisualStyle
  2
JitterOff
 70
    20
 71
     2
 72
     2
 73
     0
 90
        0
 40
0.6
 41
30.0
 62
     5
 63
     7
421
 16777215
 74
     1
 91
        4
 64
     7
 65
   257
 75
     1
175
     1
 42
1.0
 92
       10
 66
     7
 43
1.0
 76
     1
 77
     6
 78
     2
 67
     7
 79
     5
170
     0
171
     0
290
     0
174
     0
 93
        1
 44
0.0
173
     0
291
     1
 45
0.0
1001
ACAD
1000
AcDbSavedByObjectVersion
1070
     0
  0
VISUALSTYLE
  5
38
102
{ACAD_REACTORS
330
2A
102
}
102
{ACAD_XDICTIONARY
360
340
102
}
330
2A
100
AcDbVisualStyle
  2
Linepattern
 70
    14
 71
     2
 72
     2
 73
     0
 90
        0
 40
0.6
 41
30.0
 62
     5
 63
     7
421
 16777215
 74
     1
 91
        4
 64
     7
 65
   257
 75
     7
175
     7
 42
1.0
 92
        8
 66
     7
 43
1.0
 76
     1
 77
     6
 78
     2
 67
     7
 79
     5
170
     0
171
     0
290
     0
174
     0
 93
        1
 44
0.0
173
     0
291
     1
 45
0.0
1001
ACAD
1000
AcDbSavedByObjectVersion
1070
     0
  0
VISUALSTYLE
  5
3C
102
{ACAD_REACTORS
330
2A
102
}
102
{ACAD_XDICTIONARY
360
348
102
}
330
2A
100
AcDbVisualStyle
  2
OverhangOff
 70
    21
 71
     2
 72
     2
 73
     0
 90
        0
 40
0.6
 41
30.0
 62
     5
 63
     7
421
 16777215
 74
     1
 91
        4
 64
     7
 65
   257
 75
     1
175
     1
 42
1.0
 92
        9
 66
     7
 43
1.0
 76
     1
 77
     6
 78
     2
 67
     7
 79
     5
170
     0
171
     0
290
     0
174
     0
 93
        1
 44
0.0
173
     0
291
     1
 45
0.0
1001
ACAD
1000
AcDbSavedByObjectVersion
1070
     0
  0
VISUALSTYLE
  5
33
102
{ACAD_REACTORS
330
2A
102
}
102
{ACAD_XDICTIONARY
360
336
102
}
330
2A
100
AcDbVisualStyle
  2
Realistic
 70
     8
 71
     2
 72
     3
 73
     0
 90
        2
 40
0.6
 41
30.0
 62
     5
 63
     7
421
 16777215
 74
     0
 91
        0
 64
     7
 65
   257
 75
     1
175
     1
 42
1.0
 92
        8
 66
   257
 43
1.0
 76
     1
 77
     6
 78
     2
 67
     7
 79
     3
170
     0
171
     0
290
     0
174
     0
 93
       13
 44
0.0
173
     0
291
     0
 45
0.0
1001
ACAD
1000
AcDbSavedByObjectVersion
1070
     0
  0
VISUALSTYLE
  5
42
102
{ACAD_REACTORS
330
2A
102
}
102
{ACAD_XDICTIONARY
360
354
102
}
330
2A
100
AcDbVisualStyle
  2
Shaded
 70
    27
 71
     2
 72
     2
 73
     1
 90
        2
 40
0.6
 41
30.0
 62
     5
 63
     7
421
 16777215
 74
     0
 91
        4
 64
     7
 65
   257
 75
     1
175
     1
 42
1.0
 92
        8
 66
   257
 43
1.0
 76
     1
 77
     6
 78
     2
 67
     8
425
  7895160
 79
     3
170
     0
171
     0
290
     0
174
     0
 93
        5
 44
0.0
173
     0
291
     0
 45
0.0
1001
ACAD
1000
AcDbSavedByObjectVersion
1070
     0
  0
VISUALSTYLE
  5
41
102
{ACAD_REACTORS
330
2A
102
}
102
{ACAD_XDICTIONARY
360
352
102
}
330
2A
100
AcDbVisualStyle
  2
Shaded with edges
 70
    26
 71
     2
 72
     2
 73
     1
 90
        2
 40
0.6
 41
30.0
 62
     5
 63
     7
421
 16777215
 74
     1
 91
       10
 64
     7
 65
   257
 75
     2
175
     1
 42
1.0
 92
        8
 66
   257
 43
1.0
 76
     1
 77
     6
 78
     2
 67
     7
 79
     3
170
     0
171
     0
290
     0
174
     0
 93
        5
 44
0.0
173
     0
291
     0
 45
0.0
1001
ACAD
1000
AcDbSavedByObjectVersion
1070
     0
  0
VISUALSTYLE
  5
3E
102
{ACAD_REACTORS
330
2A
102
}
102
{ACAD_XDICTIONARY
360
34C
102
}
330
2A
100
AcDbVisualStyle
  2
Shades of Gray
 70
    23
 71
     2
 72
     2
 73
     3
 90
        0
 40
0.6
 41
30.0
 62
     5
 63
     7
421
 16777215
 74
     2
 91
        2
 64
     7
 65
     7
 75
     1
175
     1
 42
40.0
 92
        8
 66
     7
 43
1.0
 76
     1
 77
     6
 78
     2
 67
     7
 79
     3
170
     0
171
     0
290
     0
174
     0
 93
        1
 44
0.0
173
     0
291
     0
 45
0.0
1001
ACAD
1000
AcDbSavedByObjectVersion
1070
     0
  0
VISUALSTYLE
  5
3F
102
{ACAD_REACTORS
330
2A
102
}
102
{ACAD_XDICTIONARY
360
34E
102
}
330
2A
100
AcDbVisualStyle
  2
Sketchy
 70
    24
 71
     1
 72
     2
 73
     2
 90
        0
 40
0.6
 41
30.0
 62
     5
 63
     7
421
 16777215
 74
     2
 91
        2
 64
     7
 65
     7
 75
     1
175
     1
 42
40.0
 92
       11
 66
     7
 43
1.0
 76
     1
 77
     6
 78
     2
 67
     7
 79
     6
170
     0
171
     0
290
     0
174
     0
 93
        1
 44
0.0
173
     0
291
     0
 45
0.0
1001
ACAD
1000
AcDbSavedByObjectVersion
1070
     0
  0
VISUALSTYLE
  5
37
102
{ACAD_REACTORS
330
2A
102
}
102
{ACAD_XDICTIONARY
360
33E
102
}
330
2A
100
AcDbVisualStyle
  2
Thicken
 70
    13
 71
     2
 72
     2
 73
     0
 90
        0
 40
0.6
 41
30.0
 62
     5
 63
     7
421
 16777215
 74
     1
 91
        4
 64
     7
 65
   257
 75
     1
175
     1
 42
1.0
 92
       12
 66
     7
 43
1.0
 76
     1
 77
     6
 78
     2
 67
     7
 79
     5
170
     0
171
     0
290
     0
174
     0
 93
        1
 44
0.0
173
     0
291
     1
 45
0.0
1001
ACAD
1000
AcDbSavedByObjectVersion
1070
     0
  0
VISUALSTYLE
  5
30
102
{ACAD_REACTORS
330
2A
102
}
102
{ACAD_XDICTIONARY
360
330
102
}
330
2A
100
AcDbVisualStyle
  2
Wireframe
 70
     5
 71
     0
 72
     2
 73
     0
 90
        0
 40
0.6
 41
30.0
 62
     5
 63
     7
421
 16777215
 74
     1
 91
        4
 64
     7
 65
   257
 75
     1
175
     1
 42
1.0
 92
        0
 66
   257
 43
1.0
 76
     1
 77
     6
 78
     2
 67
     7
 79
     3
170
     0
171
     0
290
     0
174
     0
 93
        1
 44
0.0
173
     0
291
     0
 45
0.0
1001
ACAD
1000
AcDbSavedByObjectVersion
1070
     0
  0
VISUALSTYLE
  5
40
102
{ACAD_REACTORS
330
2A
102
}
102
{ACAD_XDICTIONARY
360
350
102
}
330
2A
100
AcDbVisualStyle
  2
X-Ray
 70
    25
 71
     2
 72
     2
 73
     1
 90
        1
 40
0.5
 41
30.0
 62
     5
 63
     7
421
 16777215
 74
     1
 91
        0
 64
     7
 65
   257
 75
     1
175
     1
 42
1.0
 92
        8
 66
     7
 43
1.0
 76
     1
 77
     6
 78
     2
 67
     7
 79
     3
170
     0
171
     0
290
     0
174
     0
 93
       13
 44
0.0
173
     0
291
     0
 45
0.0
1001
ACAD
1000
AcDbSavedByObjectVersion
1070
     0
  0
DICTIONARYVAR
  5
323
102
{ACAD_REACTORS
330
322
102
}
330
322
100
DictionaryVariables
280
     0
  1
1:1
  0
DICTIONARYVAR
  5
367
102
{ACAD_REACTORS
330
322
102
}
330
322
100
DictionaryVariables
280
     0
  1
3.500000
  0
DICTIONARYVAR
  5
368
102
{ACAD_REACTORS
330
322
102
}
330
322
100
DictionaryVariables
280
     0
  1
acadiso.lin
  0
DICTIONARYVAR
  5
364
102
{ACAD_REACTORS
330
322
102
}
330
322
100
DictionaryVariables
280
     0
  1
Standard
  0
DICTIONARYVAR
  5
363
102
{ACAD_REACTORS
330
322
102
}
330
322
100
DictionaryVariables
280
     0
  1
Standard
  0
DICTIONARYVAR
  5
324
102
{ACAD_REACTORS
330
322
102
}
330
322
100
DictionaryVariables
280
     0
  1
1
  0
DICTIONARYVAR
  5
325
102
{ACAD_REACTORS
330
322
102
}
330
322
100
DictionaryVariables
280
     0
  1
2
  0
DICTIONARY
  5
358
330
45
100
AcDbDictionary
280
     1
281
     1
  3
ACAD_XREC_ROUNDTRIP
360
359
  0
DICTIONARY
  5
356
330
44
100
AcDbDictionary
280
     1
281
     1
  3
ACAD_XREC_ROUNDTRIP
360
357
  0
DICTIONARY
  5
35A
330
46
100
AcDbDictionary
280
     1
281
     1
  3
ACAD_XREC_ROUNDTRIP
360
35B
  0
DICTIONARY
  5
360
330
6C
100
AcDbDictionary
280
     1
281
     1
  3
ACAD_XREC_ROUNDTRIP
360
361
  0
DICTIONARY
  5
35C
330
6A
100
AcDbDictionary
280
     1
281
     1
  3
ACAD_ROUNDTRIP_2008_TABLESTYLE_CELLSTYLEMAP
360
35E
  3
ACAD_XREC_ROUNDTRIP
360
35D
  0
DICTIONARY
  5
32E
330
2F
100
AcDbDictionary
280
     1
281
     1
  3
ACAD_XREC_ROUNDTRIP
360
32F
  0
DICTIONARY
  5
334
330
32
100
AcDbDictionary
280
     1
281
     1
  3
ACAD_XREC_ROUNDTRIP
360
335
  0
DICTIONARY
  5
33C
330
36
100
AcDbDictionary
280
     1
281
     1
  3
ACAD_XREC_ROUNDTRIP
360
33D
  0
DICTIONARY
  5
344
330
3A
100
AcDbDictionary
280
     1
281
     1
  3
ACAD_XREC_ROUNDTRIP
360
345
  0
DICTIONARY
  5
338
330
34
100
AcDbDictionary
280
     1
281
     1
  3
ACAD_XREC_ROUNDTRIP
360
339
  0
DICTIONARY
  5
33A
330
35
100
AcDbDictionary
280
     1
281
     1
  3
ACAD_XREC_ROUNDTRIP
360
33B
  0
DICTIONARY
  5
34A
330
3D
100
AcDbDictionary
280
     1
281
     1
  3
ACAD_XREC_ROUNDTRIP
360
34B
  0
DICTIONARY
  5
342
330
39
100
AcDbDictionary
280
     1
281
     1
  3
ACAD_XREC_ROUNDTRIP
360
343
  0
DICTIONARY
  5
326
330
2B
100
AcDbDictionary
280
     1
281
     1
  3
ACAD_XREC_ROUNDTRIP
360
327
  0
DICTIONARY
  5
328
330
2C
100
AcDbDictionary
280
     1
281
     1
  3
ACAD_XREC_ROUNDTRIP
360
329
  0
DICTIONARY
  5
32A
330
2D
100
AcDbDictionary
280
     1
281
     1
  3
ACAD_XREC_ROUNDTRIP
360
32B
  0
DICTIONARY
  5
32C
330
2E
100
AcDbDictionary
280
     1
281
     1
  3
ACAD_XREC_ROUNDTRIP
360
32D
  0
DICTIONARY
  5
332
330
31
100
AcDbDictionary
280
     1
281
     1
  3
ACAD_XREC_ROUNDTRIP
360
333
  0
DICTIONARY
  5
346
330
3B
100
AcDbDictionary
280
     1
281
     1
  3
ACAD_XREC_ROUNDTRIP
360
347
  0
DICTIONARY
  5
340
330
38
100
AcDbDictionary
280
     1
281
     1
  3
ACAD_XREC_ROUNDTRIP
360
341
  0
DICTIONARY
  5
348
330
3C
100
AcDbDictionary
280
     1
281
     1
  3
ACAD_XREC_ROUNDTRIP
360
349
  0
DICTIONARY
  5
336
330
33
100
AcDbDictionary
280
     1
281
     1
  3
ACAD_XREC_ROUNDTRIP
360
337
  0
DICTIONARY
  5
354
330
42
100
AcDbDictionary
280
     1
281
     1
  3
ACAD_XREC_ROUNDTRIP
360
355
  0
DICTIONARY
  5
352
330
41
100
AcDbDictionary
280
     1
281
     1
  3
ACAD_XREC_ROUNDTRIP
360
353
  0
DICTIONARY
  5
34C
330
3E
100
AcDbDictionary
280
     1
281
     1
  3
ACAD_XREC_ROUNDTRIP
360
34D
  0
DICTIONARY
  5
34E
330
3F
100
AcDbDictionary
280
     1
281
     1
  3
ACAD_XREC_ROUNDTRIP
360
34F
  0
DICTIONARY
  5
33E
330
37
100
AcDbDictionary
280
     1
281
     1
  3
ACAD_XREC_ROUNDTRIP
360
33F
  0
DICTIONARY
  5
330
330
30
100
AcDbDictionary
280
     1
281
     1
  3
ACAD_XREC_ROUNDTRIP
360
331
  0
DICTIONARY
  5
350
330
40
100
AcDbDictionary
280
     1
281
     1
  3
ACAD_XREC_ROUNDTRIP
360
351
  0
XRECORD
  5
359
102
{ACAD_REACTORS
330
358
102
}
330
358
100
AcDbXrecord
280
     1
102
MATERIAL
148
0.0
149
0.0
149
0.0
 93
        0
 94
      127
282
     0
 72
     1
 77
     1
171
     1
175
     1
179
     1
273
     0
  0
XRECORD
  5
357
102
{ACAD_REACTORS
330
356
102
}
330
356
100
AcDbXrecord
280
     1
102
MATERIAL
148
0.0
149
0.0
149
0.0
 93
        0
 94
      127
282
     0
 72
     1
 77
     1
171
     1
175
     1
179
     1
273
     0
  0
XRECORD
  5
35B
102
{ACAD_REACTORS
330
35A
102
}
330
35A
100
AcDbXrecord
280
     1
102
MATERIAL
148
0.0
149
0.0
149
0.0
 93
        0
 94
      127
282
     0
 72
     1
 77
     1
171
     1
175
     1
179
     1
273
     0
  0
XRECORD
  5
361
102
{ACAD_REACTORS
330
360
102
}
330
360
100
AcDbXrecord
280
     1
102
ACAD_ROUNDTRIP_2010_MLEADER_STYLE
  0
CELLSTYLEMAP
  5
35E
102
{ACAD_REACTORS
330
35C
102
}
330
35C
100
AcDbCellStyleMap
 90
        3
300
CELLSTYLE
  1
TABLEFORMAT_BEGIN
 90
        5
170
     1
 91
        0
 92
    32768
 62
   257
 93
        1
300
CONTENTFORMAT
  1
CONTENTFORMAT_BEGIN
 90
        0
 91
        0
 92
        4
 93
        0
300

 40
0.0
140
1.0
 94
        5
 62
     0
340
11
144
6.0
309
CONTENTFORMAT_END
171
     1
301
MARGIN
  1
CELLMARGIN_BEGIN
 40
1.5
 40
1.5
 40
1.5
 40
1.5
 40
1.5
 40
1.5
309
CELLMARGIN_END
 94
        6
 95
        1
302
GRIDFORMAT
  1
GRIDFORMAT_BEGIN
 90
        0
 91
        1
 62
     0
 92
       -2
340
14
 93
        0
 40
0.045
309
GRIDFORMAT_END
 95
        2
302
GRIDFORMAT
  1
GRIDFORMAT_BEGIN
 90
        0
 91
        1
 62
     0
 92
       -2
340
14
 93
        0
 40
0.045
309
GRIDFORMAT_END
 95
        4
302
GRIDFORMAT
  1
GRIDFORMAT_BEGIN
 90
        0
 91
        1
 62
     0
 92
       -2
340
14
 93
        0
 40
0.045
309
GRIDFORMAT_END
 95
        8
302
GRIDFORMAT
  1
GRIDFORMAT_BEGIN
 90
        0
 91
        1
 62
     0
 92
       -2
340
14
 93
        0
 40
0.045
309
GRIDFORMAT_END
 95
       16
302
GRIDFORMAT
  1
GRIDFORMAT_BEGIN
 90
        0
 91
        1
 62
     0
 92
       -2
340
14
 93
        0
 40
0.045
309
GRIDFORMAT_END
 95
       32
302
GRIDFORMAT
  1
GRIDFORMAT_BEGIN
 90
        0
 91
        1
 62
     0
 92
       -2
340
14
 93
        0
 40
0.045
309
GRIDFORMAT_END
309
TABLEFORMAT_END
  1
CELLSTYLE_BEGIN
 90
        1
 91
        1
300
_TITLE
309
CELLSTYLE_END
300
CELLSTYLE
  1
TABLEFORMAT_BEGIN
 90
        5
170
     1
 91
        0
 92
        0
 62
   257
 93
        1
300
CONTENTFORMAT
  1
CONTENTFORMAT_BEGIN
 90
        0
 91
        0
 92
        4
 93
        0
300

 40
0.0
140
1.0
 94
        5
 62
     0
340
11
144
4.5
309
CONTENTFORMAT_END
171
     1
301
MARGIN
  1
CELLMARGIN_BEGIN
 40
1.5
 40
1.5
 40
1.5
 40
1.5
 40
1.5
 40
1.5
309
CELLMARGIN_END
 94
        6
 95
        1
302
GRIDFORMAT
  1
GRIDFORMAT_BEGIN
 90
        0
 91
        1
 62
     0
 92
       -2
340
14
 93
        0
 40
0.045
309
GRIDFORMAT_END
 95
        2
302
GRIDFORMAT
  1
GRIDFORMAT_BEGIN
 90
        0
 91
        1
 62
     0
 92
       -2
340
14
 93
        0
 40
0.045
309
GRIDFORMAT_END
 95
        4
302
GRIDFORMAT
  1
GRIDFORMAT_BEGIN
 90
        0
 91
        1
 62
     0
 92
       -2
340
14
 93
        0
 40
0.045
309
GRIDFORMAT_END
 95
        8
302
GRIDFORMAT
  1
GRIDFORMAT_BEGIN
 90
        0
 91
        1
 62
     0
 92
       -2
340
14
 93
        0
 40
0.045
309
GRIDFORMAT_END
 95
       16
302
GRIDFORMAT
  1
GRIDFORMAT_BEGIN
 90
        0
 91
        1
 62
     0
 92
       -2
340
14
 93
        0
 40
0.045
309
GRIDFORMAT_END
 95
       32
302
GRIDFORMAT
  1
GRIDFORMAT_BEGIN
 90
        0
 91
        1
 62
     0
 92
       -2
340
14
 93
        0
 40
0.045
309
GRIDFORMAT_END
309
TABLEFORMAT_END
  1
CELLSTYLE_BEGIN
 90
        2
 91
        1
300
_HEADER
309
CELLSTYLE_END
300
CELLSTYLE
  1
TABLEFORMAT_BEGIN
 90
        5
170
     1
 91
        0
 92
        0
 62
   257
 93
        1
300
CONTENTFORMAT
  1
CONTENTFORMAT_BEGIN
 90
        0
 91
        0
 92
        4
 93
        0
300

 40
0.0
140
1.0
 94
        2
 62
     0
340
11
144
4.5
309
CONTENTFORMAT_END
171
     1
301
MARGIN
  1
CELLMARGIN_BEGIN
 40
1.5
 40
1.5
 40
1.5
 40
1.5
 40
1.5
 40
1.5
309
CELLMARGIN_END
 94
        6
 95
        1
302
GRIDFORMAT
  1
GRIDFORMAT_BEGIN
 90
        0
 91
        1
 62
     0
 92
       -2
340
14
 93
        0
 40
0.045
309
GRIDFORMAT_END
 95
        2
302
GRIDFORMAT
  1
GRIDFORMAT_BEGIN
 90
        0
 91
        1
 62
     0
 92
       -2
340
14
 93
        0
 40
0.045
309
GRIDFORMAT_END
 95
        4
302
GRIDFORMAT
  1
GRIDFORMAT_BEGIN
 90
        0
 91
        1
 62
     0
 92
       -2
340
14
 93
        0
 40
0.045
309
GRIDFORMAT_END
 95
        8
302
GRIDFORMAT
  1
GRIDFORMAT_BEGIN
 90
        0
 91
        1
 62
     0
 92
       -2
340
14
 93
        0
 40
0.045
309
GRIDFORMAT_END
 95
       16
302
GRIDFORMAT
  1
GRIDFORMAT_BEGIN
 90
        0
 91
        1
 62
     0
 92
       -2
340
14
 93
        0
 40
0.045
309
GRIDFORMAT_END
 95
       32
302
GRIDFORMAT
  1
GRIDFORMAT_BEGIN
 90
        0
 91
        1
 62
     0
 92
       -2
340
14
 93
        0
 40
0.045
309
GRIDFORMAT_END
309
TABLEFORMAT_END
  1
CELLSTYLE_BEGIN
 90
        3
 91
        2
300
_DATA
309
CELLSTYLE_END
  0
XRECORD
  5
35D
102
{ACAD_REACTORS
330
35C
102
}
330
35C
100
AcDbXrecord
280
     1
102
ACAD_ROUNDTRIP_PRE2007_TABLESTYLE
 90
        4
 91
        0
  1

 92
        4
 93
        0
  2

 94
        4
 95
        0
  3

  0
XRECORD
  5
32F
102
{ACAD_REACTORS
330
32E
102
}
330
32E
100
AcDbXrecord
280
     1
102
RTVSPropertyOp0
 70
     1
102
RTVSPropertyOp1
 70
     1
102
RTVSPropertyOp2
 70
     1
102
RTVSPropertyOp3
 70
     1
102
RTVSPropertyOp4
 70
     1
102
RTVSPropertyOp5
 70
     1
102
RTVSPropertyOp6
 70
     1
102
RTVSPropertyOp7
 70
     1
102
RTVSPropertyOp8
 70
     1
102
RTVSPropertyOp9
 70
     1
102
RTVSPropertyOp10
 70
     1
102
RTVSPropertyOp11
 70
     1
102
RTVSPropertyOp12
 70
     1
102
RTVSPropertyOp13
 70
     1
102
RTVSPropertyOp14
 70
     1
102
RTVSPropertyOp15
 70
     1
102
RTVSPropertyOp16
 70
     1
102
RTVSPropertyOp17
 70
     1
102
RTVSPropertyOp18
 70
     1
102
RTVSPropertyOp19
 70
     1
102
RTVSPropertyOp20
 70
     1
102
RTVSPropertyOp21
 70
     1
102
RTVSPropertyOp22
 70
     1
102
RTVSPropertyOp23
 70
     1
102
RTVSPropertyOp24
 70
     1
102
RTVSPropertyOp25
 70
     1
102
RTVSPropertyOp26
 70
     1
102
RTVSPropertyOp27
 70
     1
102
RTVSPropertyOp28
 70
     1
102
RTVSPropertyOp29
 70
     1
102
RTVSPropertyOp30
 70
     1
102
RTVSPropertyOp31
 70
     1
102
RTVSPropertyOp32
 70
     1
102
RTVSPropertyOp33
 70
     1
102
RTVSPropertyOp34
 70
     1
102
RTVSPropertyOp35
 70
     1
102
RTVSPropertyOp36
 70
     1
102
RTVSPropertyOp37
 70
     1
102
RTVSPropertyOp38
 70
     1
102
RTVSPropertyOp39
 70
     1
102
RTVSPropertyOp40
 70
     1
102
RTVSPropertyOp41
 70
     1
102
RTVSPropertyOp42
 70
     1
102
RTVSPropertyOp43
 70
     1
102
RTVSPropertyOp44
 70
     1
102
RTVSPropertyOp45
 70
     1
102
RTVSPropertyOp46
 70
     1
102
RTVSPropertyOp47
 70
     1
102
RTVSPropertyOp48
 70
     1
102
RTVSPropertyOp49
 70
     1
102
RTVSPropertyOp50
 70
     1
102
RTVSPropertyOp51
 70
     0
102
RTVSPropertyOp52
 70
     0
102
RTVSPropertyOp53
 70
     1
102
RTVSPropertyOp54
 70
     1
102
RTVSPropertyOp55
 70
     1
102
RTVSPropertyOp56
 70
     1
102
RTVSPropertyOp57
 70
     1
102
RTVSPost2010Prop28
280
     1
102
RTVSPost2010PropOp28
 70
     1
102
RTVSPost2010Prop29
280
     1
102
RTVSPost2010PropOp29
 70
     1
102
RTVSPost2010Prop30
280
     0
102
RTVSPost2010PropOp30
 70
     1
102
RTVSPost2010Prop31
280
     0
102
RTVSPost2010PropOp31
 70
     1
102
RTVSPost2010Prop32
280
     0
102
RTVSPost2010PropOp32
 70
     1
102
RTVSPost2010Prop33
280
     0
102
RTVSPost2010PropOp33
 70
     1
102
RTVSPost2010Prop34
280
     0
102
RTVSPost2010PropOp34
 70
     1
102
RTVSPost2010Prop35
280
     0
102
RTVSPost2010PropOp35
 70
     1
102
RTVSPost2010Prop36
280
     0
102
RTVSPost2010PropOp36
 70
     1
102
RTVSPost2010Prop37
 90
       50
102
RTVSPost2010PropOp37
 70
     1
102
RTVSPost2010Prop38
140
0.0
102
RTVSPost2010PropOp38
 70
     1
102
RTVSPost2010Prop39
140
1.0
102
RTVSPost2010PropOp39
 70
     1
102
RTVSPost2010Prop40
 90
        0
102
RTVSPost2010PropOp40
 70
     1
102
RTVSPost2010Prop41ColorIndex
 90
       18
102
RTVSPost2010Prop41ColorRGB
 90
        0
102
RTVSPost2010PropOp41
 70
     1
102
RTVSPost2010Prop42
 90
       50
102
RTVSPost2010PropOp42
 70
     1
102
RTVSPost2010Prop43
 90
        3
102
RTVSPost2010PropOp43
 70
     1
102
RTVSPost2010Prop44ColorIndex
 90
        5
102
RTVSPost2010Prop44ColorRGB
 90
      255
102
RTVSPost2010PropOp44
 70
     1
102
RTVSPost2010Prop45
280
     0
102
RTVSPost2010PropOp45
 70
     1
102
RTVSPost2010Prop46
 90
       50
102
RTVSPost2010PropOp46
 70
     1
102
RTVSPost2010Prop47
 90
       50
102
RTVSPost2010PropOp47
 70
     1
102
RTVSPost2010Prop48
 90
       50
102
RTVSPost2010PropOp48
 70
     1
102
RTVSPost2010Prop49
280
     0
102
RTVSPost2010PropOp49
 70
     1
102
RTVSPost2010Prop50
 90
       50
102
RTVSPost2010PropOp50
 70
     1
102
RTVSPost2010Prop51ColorIndex
 90
      256
102
RTVSPost2010Prop51ColorRGB
 90
-16777216
102
RTVSPost2010PropOp51
 70
     0
102
RTVSPost2010Prop52
140
1.0
102
RTVSPost2010PropOp52
 70
     0
102
RTVSPost2010Prop53
 90
        2
102
RTVSPost2010PropOp53
 70
     1
102
RTVSPost2010Prop54
  1
strokes_ogs.tif
102
RTVSPost2010PropOp54
 70
     1
102
RTVSPost2010Prop55
280
     0
102
RTVSPost2010PropOp55
 70
     1
102
RTVSPost2010Prop56
140
1.0
102
RTVSPost2010PropOp56
 70
     1
102
RTVSPost2010Prop57
140
1.0
102
RTVSPost2010PropOp57
 70
     1
  0
XRECORD
  5
335
102
{ACAD_REACTORS
330
334
102
}
330
334
100
AcDbXrecord
280
     1
102
RTVSPropertyOp0
 70
     1
102
RTVSPropertyOp1
 70
     1
102
RTVSPropertyOp2
 70
     1
102
RTVSPropertyOp3
 70
     1
102
RTVSPropertyOp4
 70
     1
102
RTVSPropertyOp5
 70
     1
102
RTVSPropertyOp6
 70
     1
102
RTVSPropertyOp7
 70
     1
102
RTVSPropertyOp8
 70
     1
102
RTVSPropertyOp9
 70
     1
102
RTVSPropertyOp10
 70
     1
102
RTVSPropertyOp11
 70
     1
102
RTVSPropertyOp12
 70
     1
102
RTVSPropertyOp13
 70
     1
102
RTVSPropertyOp14
 70
     1
102
RTVSPropertyOp15
 70
     1
102
RTVSPropertyOp16
 70
     1
102
RTVSPropertyOp17
 70
     1
102
RTVSPropertyOp18
 70
     1
102
RTVSPropertyOp19
 70
     1
102
RTVSPropertyOp20
 70
     1
102
RTVSPropertyOp21
 70
     1
102
RTVSPropertyOp22
 70
     1
102
RTVSPropertyOp23
 70
     1
102
RTVSPropertyOp24
 70
     1
102
RTVSPropertyOp25
 70
     1
102
RTVSPropertyOp26
 70
     1
102
RTVSPropertyOp27
 70
     1
102
RTVSPropertyOp28
 70
     1
102
RTVSPropertyOp29
 70
     1
102
RTVSPropertyOp30
 70
     1
102
RTVSPropertyOp31
 70
     1
102
RTVSPropertyOp32
 70
     1
102
RTVSPropertyOp33
 70
     1
102
RTVSPropertyOp34
 70
     1
102
RTVSPropertyOp35
 70
     1
102
RTVSPropertyOp36
 70
     1
102
RTVSPropertyOp37
 70
     1
102
RTVSPropertyOp38
 70
     1
102
RTVSPropertyOp39
 70
     1
102
RTVSPropertyOp40
 70
     1
102
RTVSPropertyOp41
 70
     1
102
RTVSPropertyOp42
 70
     1
102
RTVSPropertyOp43
 70
     1
102
RTVSPropertyOp44
 70
     1
102
RTVSPropertyOp45
 70
     1
102
RTVSPropertyOp46
 70
     1
102
RTVSPropertyOp47
 70
     1
102
RTVSPropertyOp48
 70
     1
102
RTVSPropertyOp49
 70
     1
102
RTVSPropertyOp50
 70
     1
102
RTVSPropertyOp51
 70
     0
102
RTVSPropertyOp52
 70
     0
102
RTVSPropertyOp53
 70
     1
102
RTVSPropertyOp54
 70
     1
102
RTVSPropertyOp55
 70
     1
102
RTVSPropertyOp56
 70
     1
102
RTVSPropertyOp57
 70
     1
102
RTVSPost2010Prop28
280
     0
102
RTVSPost2010PropOp28
 70
     1
102
RTVSPost2010Prop29
280
     1
102
RTVSPost2010PropOp29
 70
     1
102
RTVSPost2010Prop30
280
     1
102
RTVSPost2010PropOp30
 70
     1
102
RTVSPost2010Prop31
280
     0
102
RTVSPost2010PropOp31
 70
     1
102
RTVSPost2010Prop32
280
     0
102
RTVSPost2010PropOp32
 70
     1
102
RTVSPost2010Prop33
280
     0
102
RTVSPost2010PropOp33
 70
     1
102
RTVSPost2010Prop34
280
     0
102
RTVSPost2010PropOp34
 70
     1
102
RTVSPost2010Prop35
280
     0
102
RTVSPost2010PropOp35
 70
     1
102
RTVSPost2010Prop36
280
     0
102
RTVSPost2010PropOp36
 70
     1
102
RTVSPost2010Prop37
 90
       50
102
RTVSPost2010PropOp37
 70
     1
102
RTVSPost2010Prop38
140
0.0
102
RTVSPost2010PropOp38
 70
     1
102
RTVSPost2010Prop39
140
1.0
102
RTVSPost2010PropOp39
 70
     1
102
RTVSPost2010Prop40
 90
        0
102
RTVSPost2010PropOp40
 70
     1
102
RTVSPost2010Prop41ColorIndex
 90
       18
102
RTVSPost2010Prop41ColorRGB
 90
        0
102
RTVSPost2010PropOp41
 70
     1
102
RTVSPost2010Prop42
 90
       50
102
RTVSPost2010PropOp42
 70
     1
102
RTVSPost2010Prop43
 90
        3
102
RTVSPost2010PropOp43
 70
     1
102
RTVSPost2010Prop44ColorIndex
 90
        5
102
RTVSPost2010Prop44ColorRGB
 90
      255
102
RTVSPost2010PropOp44
 70
     1
102
RTVSPost2010Prop45
280
     0
102
RTVSPost2010PropOp45
 70
     1
102
RTVSPost2010Prop46
 90
       50
102
RTVSPost2010PropOp46
 70
     1
102
RTVSPost2010Prop47
 90
       50
102
RTVSPost2010PropOp47
 70
     1
102
RTVSPost2010Prop48
 90
       50
102
RTVSPost2010PropOp48
 70
     1
102
RTVSPost2010Prop49
280
     0
102
RTVSPost2010PropOp49
 70
     1
102
RTVSPost2010Prop50
 90
       50
102
RTVSPost2010PropOp50
 70
     1
102
RTVSPost2010Prop51ColorIndex
 90
      256
102
RTVSPost2010Prop51ColorRGB
 90
-16777216
102
RTVSPost2010PropOp51
 70
     0
102
RTVSPost2010Prop52
140
1.0
102
RTVSPost2010PropOp52
 70
     0
102
RTVSPost2010Prop53
 90
        2
102
RTVSPost2010PropOp53
 70
     1
102
RTVSPost2010Prop54
  1
strokes_ogs.tif
102
RTVSPost2010PropOp54
 70
     1
102
RTVSPost2010Prop55
280
     0
102
RTVSPost2010PropOp55
 70
     1
102
RTVSPost2010Prop56
140
1.0
102
RTVSPost2010PropOp56
 70
     1
102
RTVSPost2010Prop57
140
1.0
102
RTVSPost2010PropOp57
 70
     1
  0
XRECORD
  5
33D
102
{ACAD_REACTORS
330
33C
102
}
330
33C
100
AcDbXrecord
280
     1
102
RTVSPropertyOp0
 70
     1
102
RTVSPropertyOp1
 70
     1
102
RTVSPropertyOp2
 70
     1
102
RTVSPropertyOp3
 70
     1
102
RTVSPropertyOp4
 70
     1
102
RTVSPropertyOp5
 70
     1
102
RTVSPropertyOp6
 70
     1
102
RTVSPropertyOp7
 70
     1
102
RTVSPropertyOp8
 70
     1
102
RTVSPropertyOp9
 70
     1
102
RTVSPropertyOp10
 70
     1
102
RTVSPropertyOp11
 70
     1
102
RTVSPropertyOp12
 70
     1
102
RTVSPropertyOp13
 70
     1
102
RTVSPropertyOp14
 70
     1
102
RTVSPropertyOp15
 70
     1
102
RTVSPropertyOp16
 70
     1
102
RTVSPropertyOp17
 70
     1
102
RTVSPropertyOp18
 70
     1
102
RTVSPropertyOp19
 70
     1
102
RTVSPropertyOp20
 70
     1
102
RTVSPropertyOp21
 70
     1
102
RTVSPropertyOp22
 70
     1
102
RTVSPropertyOp23
 70
     1
102
RTVSPropertyOp24
 70
     1
102
RTVSPropertyOp25
 70
     1
102
RTVSPropertyOp26
 70
     1
102
RTVSPropertyOp27
 70
     1
102
RTVSPropertyOp28
 70
     1
102
RTVSPropertyOp29
 70
     1
102
RTVSPropertyOp30
 70
     1
102
RTVSPropertyOp31
 70
     1
102
RTVSPropertyOp32
 70
     1
102
RTVSPropertyOp33
 70
     1
102
RTVSPropertyOp34
 70
     1
102
RTVSPropertyOp35
 70
     1
102
RTVSPropertyOp36
 70
     1
102
RTVSPropertyOp37
 70
     1
102
RTVSPropertyOp38
 70
     1
102
RTVSPropertyOp39
 70
     1
102
RTVSPropertyOp40
 70
     1
102
RTVSPropertyOp41
 70
     1
102
RTVSPropertyOp42
 70
     1
102
RTVSPropertyOp43
 70
     1
102
RTVSPropertyOp44
 70
     1
102
RTVSPropertyOp45
 70
     1
102
RTVSPropertyOp46
 70
     1
102
RTVSPropertyOp47
 70
     1
102
RTVSPropertyOp48
 70
     1
102
RTVSPropertyOp49
 70
     1
102
RTVSPropertyOp50
 70
     1
102
RTVSPropertyOp51
 70
     0
102
RTVSPropertyOp52
 70
     0
102
RTVSPropertyOp53
 70
     1
102
RTVSPropertyOp54
 70
     1
102
RTVSPropertyOp55
 70
     1
102
RTVSPropertyOp56
 70
     1
102
RTVSPropertyOp57
 70
     1
102
RTVSPost2010Prop28
280
     0
102
RTVSPost2010PropOp28
 70
     1
102
RTVSPost2010Prop29
280
     1
102
RTVSPost2010PropOp29
 70
     1
102
RTVSPost2010Prop30
280
     1
102
RTVSPost2010PropOp30
 70
     1
102
RTVSPost2010Prop31
280
     0
102
RTVSPost2010PropOp31
 70
     1
102
RTVSPost2010Prop32
280
     0
102
RTVSPost2010PropOp32
 70
     1
102
RTVSPost2010Prop33
280
     0
102
RTVSPost2010PropOp33
 70
     1
102
RTVSPost2010Prop34
280
     0
102
RTVSPost2010PropOp34
 70
     1
102
RTVSPost2010Prop35
280
     0
102
RTVSPost2010PropOp35
 70
     1
102
RTVSPost2010Prop36
280
     0
102
RTVSPost2010PropOp36
 70
     1
102
RTVSPost2010Prop37
 90
       50
102
RTVSPost2010PropOp37
 70
     1
102
RTVSPost2010Prop38
140
0.0
102
RTVSPost2010PropOp38
 70
     1
102
RTVSPost2010Prop39
140
1.0
102
RTVSPost2010PropOp39
 70
     1
102
RTVSPost2010Prop40
 90
        0
102
RTVSPost2010PropOp40
 70
     1
102
RTVSPost2010Prop41ColorIndex
 90
       18
102
RTVSPost2010Prop41ColorRGB
 90
        0
102
RTVSPost2010PropOp41
 70
     1
102
RTVSPost2010Prop42
 90
       50
102
RTVSPost2010PropOp42
 70
     1
102
RTVSPost2010Prop43
 90
        3
102
RTVSPost2010PropOp43
 70
     1
102
RTVSPost2010Prop44ColorIndex
 90
        5
102
RTVSPost2010Prop44ColorRGB
 90
      255
102
RTVSPost2010PropOp44
 70
     1
102
RTVSPost2010Prop45
280
     0
102
RTVSPost2010PropOp45
 70
     1
102
RTVSPost2010Prop46
 90
       50
102
RTVSPost2010PropOp46
 70
     1
102
RTVSPost2010Prop47
 90
       50
102
RTVSPost2010PropOp47
 70
     1
102
RTVSPost2010Prop48
 90
       50
102
RTVSPost2010PropOp48
 70
     1
102
RTVSPost2010Prop49
280
     0
102
RTVSPost2010PropOp49
 70
     1
102
RTVSPost2010Prop50
 90
       50
102
RTVSPost2010PropOp50
 70
     1
102
RTVSPost2010Prop51ColorIndex
 90
      256
102
RTVSPost2010Prop51ColorRGB
 90
-16777216
102
RTVSPost2010PropOp51
 70
     0
102
RTVSPost2010Prop52
140
1.0
102
RTVSPost2010PropOp52
 70
     0
102
RTVSPost2010Prop53
 90
        2
102
RTVSPost2010PropOp53
 70
     1
102
RTVSPost2010Prop54
  1
strokes_ogs.tif
102
RTVSPost2010PropOp54
 70
     1
102
RTVSPost2010Prop55
280
     0
102
RTVSPost2010PropOp55
 70
     1
102
RTVSPost2010Prop56
140
1.0
102
RTVSPost2010PropOp56
 70
     1
102
RTVSPost2010Prop57
140
1.0
102
RTVSPost2010PropOp57
 70
     1
  0
XRECORD
  5
345
102
{ACAD_REACTORS
330
344
102
}
330
344
100
AcDbXrecord
280
     1
102
RTVSPropertyOp0
 70
     1
102
RTVSPropertyOp1
 70
     1
102
RTVSPropertyOp2
 70
     1
102
RTVSPropertyOp3
 70
     1
102
RTVSPropertyOp4
 70
     1
102
RTVSPropertyOp5
 70
     1
102
RTVSPropertyOp6
 70
     1
102
RTVSPropertyOp7
 70
     1
102
RTVSPropertyOp8
 70
     1
102
RTVSPropertyOp9
 70
     1
102
RTVSPropertyOp10
 70
     1
102
RTVSPropertyOp11
 70
     1
102
RTVSPropertyOp12
 70
     1
102
RTVSPropertyOp13
 70
     1
102
RTVSPropertyOp14
 70
     1
102
RTVSPropertyOp15
 70
     1
102
RTVSPropertyOp16
 70
     1
102
RTVSPropertyOp17
 70
     1
102
RTVSPropertyOp18
 70
     1
102
RTVSPropertyOp19
 70
     1
102
RTVSPropertyOp20
 70
     1
102
RTVSPropertyOp21
 70
     1
102
RTVSPropertyOp22
 70
     1
102
RTVSPropertyOp23
 70
     1
102
RTVSPropertyOp24
 70
     1
102
RTVSPropertyOp25
 70
     1
102
RTVSPropertyOp26
 70
     1
102
RTVSPropertyOp27
 70
     1
102
RTVSPropertyOp28
 70
     1
102
RTVSPropertyOp29
 70
     1
102
RTVSPropertyOp30
 70
     1
102
RTVSPropertyOp31
 70
     1
102
RTVSPropertyOp32
 70
     1
102
RTVSPropertyOp33
 70
     1
102
RTVSPropertyOp34
 70
     1
102
RTVSPropertyOp35
 70
     1
102
RTVSPropertyOp36
 70
     1
102
RTVSPropertyOp37
 70
     1
102
RTVSPropertyOp38
 70
     1
102
RTVSPropertyOp39
 70
     1
102
RTVSPropertyOp40
 70
     1
102
RTVSPropertyOp41
 70
     1
102
RTVSPropertyOp42
 70
     1
102
RTVSPropertyOp43
 70
     1
102
RTVSPropertyOp44
 70
     1
102
RTVSPropertyOp45
 70
     1
102
RTVSPropertyOp46
 70
     1
102
RTVSPropertyOp47
 70
     1
102
RTVSPropertyOp48
 70
     1
102
RTVSPropertyOp49
 70
     1
102
RTVSPropertyOp50
 70
     1
102
RTVSPropertyOp51
 70
     0
102
RTVSPropertyOp52
 70
     0
102
RTVSPropertyOp53
 70
     1
102
RTVSPropertyOp54
 70
     1
102
RTVSPropertyOp55
 70
     1
102
RTVSPropertyOp56
 70
     1
102
RTVSPropertyOp57
 70
     1
102
RTVSPost2010Prop28
280
     0
102
RTVSPost2010PropOp28
 70
     1
102
RTVSPost2010Prop29
280
     1
102
RTVSPost2010PropOp29
 70
     1
102
RTVSPost2010Prop30
280
     1
102
RTVSPost2010PropOp30
 70
     1
102
RTVSPost2010Prop31
280
     0
102
RTVSPost2010PropOp31
 70
     1
102
RTVSPost2010Prop32
280
     0
102
RTVSPost2010PropOp32
 70
     1
102
RTVSPost2010Prop33
280
     0
102
RTVSPost2010PropOp33
 70
     1
102
RTVSPost2010Prop34
280
     0
102
RTVSPost2010PropOp34
 70
     1
102
RTVSPost2010Prop35
280
     0
102
RTVSPost2010PropOp35
 70
     1
102
RTVSPost2010Prop36
280
     0
102
RTVSPost2010PropOp36
 70
     1
102
RTVSPost2010Prop37
 90
       50
102
RTVSPost2010PropOp37
 70
     1
102
RTVSPost2010Prop38
140
0.0
102
RTVSPost2010PropOp38
 70
     1
102
RTVSPost2010Prop39
140
1.0
102
RTVSPost2010PropOp39
 70
     1
102
RTVSPost2010Prop40
 90
        0
102
RTVSPost2010PropOp40
 70
     1
102
RTVSPost2010Prop41ColorIndex
 90
       18
102
RTVSPost2010Prop41ColorRGB
 90
        0
102
RTVSPost2010PropOp41
 70
     1
102
RTVSPost2010Prop42
 90
       50
102
RTVSPost2010PropOp42
 70
     1
102
RTVSPost2010Prop43
 90
        3
102
RTVSPost2010PropOp43
 70
     1
102
RTVSPost2010Prop44ColorIndex
 90
        5
102
RTVSPost2010Prop44ColorRGB
 90
      255
102
RTVSPost2010PropOp44
 70
     1
102
RTVSPost2010Prop45
280
     0
102
RTVSPost2010PropOp45
 70
     1
102
RTVSPost2010Prop46
 90
       50
102
RTVSPost2010PropOp46
 70
     1
102
RTVSPost2010Prop47
 90
       50
102
RTVSPost2010PropOp47
 70
     1
102
RTVSPost2010Prop48
 90
       50
102
RTVSPost2010PropOp48
 70
     1
102
RTVSPost2010Prop49
280
     0
102
RTVSPost2010PropOp49
 70
     1
102
RTVSPost2010Prop50
 90
       50
102
RTVSPost2010PropOp50
 70
     1
102
RTVSPost2010Prop51ColorIndex
 90
      256
102
RTVSPost2010Prop51ColorRGB
 90
-16777216
102
RTVSPost2010PropOp51
 70
     0
102
RTVSPost2010Prop52
140
1.0
102
RTVSPost2010PropOp52
 70
     0
102
RTVSPost2010Prop53
 90
        2
102
RTVSPost2010PropOp53
 70
     1
102
RTVSPost2010Prop54
  1
strokes_ogs.tif
102
RTVSPost2010PropOp54
 70
     1
102
RTVSPost2010Prop55
280
     0
102
RTVSPost2010PropOp55
 70
     1
102
RTVSPost2010Prop56
140
1.0
102
RTVSPost2010PropOp56
 70
     1
102
RTVSPost2010Prop57
140
1.0
102
RTVSPost2010PropOp57
 70
     1
  0
XRECORD
  5
339
102
{ACAD_REACTORS
330
338
102
}
330
338
100
AcDbXrecord
280
     1
102
RTVSPropertyOp0
 70
     1
102
RTVSPropertyOp1
 70
     1
102
RTVSPropertyOp2
 70
     1
102
RTVSPropertyOp3
 70
     1
102
RTVSPropertyOp4
 70
     1
102
RTVSPropertyOp5
 70
     1
102
RTVSPropertyOp6
 70
     1
102
RTVSPropertyOp7
 70
     1
102
RTVSPropertyOp8
 70
     1
102
RTVSPropertyOp9
 70
     1
102
RTVSPropertyOp10
 70
     1
102
RTVSPropertyOp11
 70
     1
102
RTVSPropertyOp12
 70
     1
102
RTVSPropertyOp13
 70
     1
102
RTVSPropertyOp14
 70
     1
102
RTVSPropertyOp15
 70
     1
102
RTVSPropertyOp16
 70
     1
102
RTVSPropertyOp17
 70
     1
102
RTVSPropertyOp18
 70
     1
102
RTVSPropertyOp19
 70
     1
102
RTVSPropertyOp20
 70
     1
102
RTVSPropertyOp21
 70
     1
102
RTVSPropertyOp22
 70
     1
102
RTVSPropertyOp23
 70
     1
102
RTVSPropertyOp24
 70
     1
102
RTVSPropertyOp25
 70
     1
102
RTVSPropertyOp26
 70
     1
102
RTVSPropertyOp27
 70
     1
102
RTVSPropertyOp28
 70
     1
102
RTVSPropertyOp29
 70
     1
102
RTVSPropertyOp30
 70
     1
102
RTVSPropertyOp31
 70
     1
102
RTVSPropertyOp32
 70
     1
102
RTVSPropertyOp33
 70
     1
102
RTVSPropertyOp34
 70
     1
102
RTVSPropertyOp35
 70
     1
102
RTVSPropertyOp36
 70
     1
102
RTVSPropertyOp37
 70
     1
102
RTVSPropertyOp38
 70
     1
102
RTVSPropertyOp39
 70
     1
102
RTVSPropertyOp40
 70
     1
102
RTVSPropertyOp41
 70
     1
102
RTVSPropertyOp42
 70
     1
102
RTVSPropertyOp43
 70
     1
102
RTVSPropertyOp44
 70
     1
102
RTVSPropertyOp45
 70
     1
102
RTVSPropertyOp46
 70
     1
102
RTVSPropertyOp47
 70
     1
102
RTVSPropertyOp48
 70
     1
102
RTVSPropertyOp49
 70
     1
102
RTVSPropertyOp50
 70
     1
102
RTVSPropertyOp51
 70
     0
102
RTVSPropertyOp52
 70
     0
102
RTVSPropertyOp53
 70
     1
102
RTVSPropertyOp54
 70
     1
102
RTVSPropertyOp55
 70
     1
102
RTVSPropertyOp56
 70
     1
102
RTVSPropertyOp57
 70
     1
102
RTVSPost2010Prop28
280
     0
102
RTVSPost2010PropOp28
 70
     1
102
RTVSPost2010Prop29
280
     1
102
RTVSPost2010PropOp29
 70
     1
102
RTVSPost2010Prop30
280
     1
102
RTVSPost2010PropOp30
 70
     1
102
RTVSPost2010Prop31
280
     0
102
RTVSPost2010PropOp31
 70
     1
102
RTVSPost2010Prop32
280
     0
102
RTVSPost2010PropOp32
 70
     1
102
RTVSPost2010Prop33
280
     0
102
RTVSPost2010PropOp33
 70
     1
102
RTVSPost2010Prop34
280
     0
102
RTVSPost2010PropOp34
 70
     1
102
RTVSPost2010Prop35
280
     0
102
RTVSPost2010PropOp35
 70
     1
102
RTVSPost2010Prop36
280
     0
102
RTVSPost2010PropOp36
 70
     1
102
RTVSPost2010Prop37
 90
       50
102
RTVSPost2010PropOp37
 70
     1
102
RTVSPost2010Prop38
140
0.0
102
RTVSPost2010PropOp38
 70
     1
102
RTVSPost2010Prop39
140
1.0
102
RTVSPost2010PropOp39
 70
     1
102
RTVSPost2010Prop40
 90
        0
102
RTVSPost2010PropOp40
 70
     1
102
RTVSPost2010Prop41ColorIndex
 90
       18
102
RTVSPost2010Prop41ColorRGB
 90
        0
102
RTVSPost2010PropOp41
 70
     1
102
RTVSPost2010Prop42
 90
       50
102
RTVSPost2010PropOp42
 70
     1
102
RTVSPost2010Prop43
 90
        3
102
RTVSPost2010PropOp43
 70
     1
102
RTVSPost2010Prop44ColorIndex
 90
        5
102
RTVSPost2010Prop44ColorRGB
 90
      255
102
RTVSPost2010PropOp44
 70
     1
102
RTVSPost2010Prop45
280
     0
102
RTVSPost2010PropOp45
 70
     1
102
RTVSPost2010Prop46
 90
       50
102
RTVSPost2010PropOp46
 70
     1
102
RTVSPost2010Prop47
 90
       50
102
RTVSPost2010PropOp47
 70
     1
102
RTVSPost2010Prop48
 90
       50
102
RTVSPost2010PropOp48
 70
     1
102
RTVSPost2010Prop49
280
     0
102
RTVSPost2010PropOp49
 70
     1
102
RTVSPost2010Prop50
 90
       50
102
RTVSPost2010PropOp50
 70
     1
102
RTVSPost2010Prop51ColorIndex
 90
      256
102
RTVSPost2010Prop51ColorRGB
 90
-16777216
102
RTVSPost2010PropOp51
 70
     0
102
RTVSPost2010Prop52
140
1.0
102
RTVSPost2010PropOp52
 70
     0
102
RTVSPost2010Prop53
 90
        2
102
RTVSPost2010PropOp53
 70
     1
102
RTVSPost2010Prop54
  1
strokes_ogs.tif
102
RTVSPost2010PropOp54
 70
     1
102
RTVSPost2010Prop55
280
     0
102
RTVSPost2010PropOp55
 70
     1
102
RTVSPost2010Prop56
140
1.0
102
RTVSPost2010PropOp56
 70
     1
102
RTVSPost2010Prop57
140
1.0
102
RTVSPost2010PropOp57
 70
     1
  0
XRECORD
  5
33B
102
{ACAD_REACTORS
330
33A
102
}
330
33A
100
AcDbXrecord
280
     1
102
RTVSPropertyOp0
 70
     1
102
RTVSPropertyOp1
 70
     1
102
RTVSPropertyOp2
 70
     1
102
RTVSPropertyOp3
 70
     1
102
RTVSPropertyOp4
 70
     1
102
RTVSPropertyOp5
 70
     1
102
RTVSPropertyOp6
 70
     1
102
RTVSPropertyOp7
 70
     1
102
RTVSPropertyOp8
 70
     1
102
RTVSPropertyOp9
 70
     1
102
RTVSPropertyOp10
 70
     1
102
RTVSPropertyOp11
 70
     1
102
RTVSPropertyOp12
 70
     1
102
RTVSPropertyOp13
 70
     1
102
RTVSPropertyOp14
 70
     1
102
RTVSPropertyOp15
 70
     1
102
RTVSPropertyOp16
 70
     1
102
RTVSPropertyOp17
 70
     1
102
RTVSPropertyOp18
 70
     1
102
RTVSPropertyOp19
 70
     1
102
RTVSPropertyOp20
 70
     1
102
RTVSPropertyOp21
 70
     1
102
RTVSPropertyOp22
 70
     1
102
RTVSPropertyOp23
 70
     1
102
RTVSPropertyOp24
 70
     1
102
RTVSPropertyOp25
 70
     1
102
RTVSPropertyOp26
 70
     1
102
RTVSPropertyOp27
 70
     1
102
RTVSPropertyOp28
 70
     1
102
RTVSPropertyOp29
 70
     1
102
RTVSPropertyOp30
 70
     1
102
RTVSPropertyOp31
 70
     1
102
RTVSPropertyOp32
 70
     1
102
RTVSPropertyOp33
 70
     1
102
RTVSPropertyOp34
 70
     1
102
RTVSPropertyOp35
 70
     1
102
RTVSPropertyOp36
 70
     1
102
RTVSPropertyOp37
 70
     1
102
RTVSPropertyOp38
 70
     1
102
RTVSPropertyOp39
 70
     1
102
RTVSPropertyOp40
 70
     1
102
RTVSPropertyOp41
 70
     1
102
RTVSPropertyOp42
 70
     1
102
RTVSPropertyOp43
 70
     1
102
RTVSPropertyOp44
 70
     1
102
RTVSPropertyOp45
 70
     1
102
RTVSPropertyOp46
 70
     1
102
RTVSPropertyOp47
 70
     1
102
RTVSPropertyOp48
 70
     1
102
RTVSPropertyOp49
 70
     1
102
RTVSPropertyOp50
 70
     1
102
RTVSPropertyOp51
 70
     0
102
RTVSPropertyOp52
 70
     0
102
RTVSPropertyOp53
 70
     1
102
RTVSPropertyOp54
 70
     1
102
RTVSPropertyOp55
 70
     1
102
RTVSPropertyOp56
 70
     1
102
RTVSPropertyOp57
 70
     1
102
RTVSPost2010Prop28
280
     0
102
RTVSPost2010PropOp28
 70
     1
102
RTVSPost2010Prop29
280
     1
102
RTVSPost2010PropOp29
 70
     1
102
RTVSPost2010Prop30
280
     1
102
RTVSPost2010PropOp30
 70
     1
102
RTVSPost2010Prop31
280
     0
102
RTVSPost2010PropOp31
 70
     1
102
RTVSPost2010Prop32
280
     0
102
RTVSPost2010PropOp32
 70
     1
102
RTVSPost2010Prop33
280
     0
102
RTVSPost2010PropOp33
 70
     1
102
RTVSPost2010Prop34
280
     0
102
RTVSPost2010PropOp34
 70
     1
102
RTVSPost2010Prop35
280
     0
102
RTVSPost2010PropOp35
 70
     1
102
RTVSPost2010Prop36
280
     0
102
RTVSPost2010PropOp36
 70
     1
102
RTVSPost2010Prop37
 90
       50
102
RTVSPost2010PropOp37
 70
     1
102
RTVSPost2010Prop38
140
0.0
102
RTVSPost2010PropOp38
 70
     1
102
RTVSPost2010Prop39
140
1.0
102
RTVSPost2010PropOp39
 70
     1
102
RTVSPost2010Prop40
 90
        0
102
RTVSPost2010PropOp40
 70
     1
102
RTVSPost2010Prop41ColorIndex
 90
       18
102
RTVSPost2010Prop41ColorRGB
 90
        0
102
RTVSPost2010PropOp41
 70
     1
102
RTVSPost2010Prop42
 90
       50
102
RTVSPost2010PropOp42
 70
     1
102
RTVSPost2010Prop43
 90
        3
102
RTVSPost2010PropOp43
 70
     1
102
RTVSPost2010Prop44ColorIndex
 90
        5
102
RTVSPost2010Prop44ColorRGB
 90
      255
102
RTVSPost2010PropOp44
 70
     1
102
RTVSPost2010Prop45
280
     0
102
RTVSPost2010PropOp45
 70
     1
102
RTVSPost2010Prop46
 90
       50
102
RTVSPost2010PropOp46
 70
     1
102
RTVSPost2010Prop47
 90
       50
102
RTVSPost2010PropOp47
 70
     1
102
RTVSPost2010Prop48
 90
       50
102
RTVSPost2010PropOp48
 70
     1
102
RTVSPost2010Prop49
280
     0
102
RTVSPost2010PropOp49
 70
     1
102
RTVSPost2010Prop50
 90
       50
102
RTVSPost2010PropOp50
 70
     1
102
RTVSPost2010Prop51ColorIndex
 90
      256
102
RTVSPost2010Prop51ColorRGB
 90
-16777216
102
RTVSPost2010PropOp51
 70
     0
102
RTVSPost2010Prop52
140
1.0
102
RTVSPost2010PropOp52
 70
     0
102
RTVSPost2010Prop53
 90
        2
102
RTVSPost2010PropOp53
 70
     1
102
RTVSPost2010Prop54
  1
strokes_ogs.tif
102
RTVSPost2010PropOp54
 70
     1
102
RTVSPost2010Prop55
280
     0
102
RTVSPost2010PropOp55
 70
     1
102
RTVSPost2010Prop56
140
1.0
102
RTVSPost2010PropOp56
 70
     1
102
RTVSPost2010Prop57
140
1.0
102
RTVSPost2010PropOp57
 70
     1
  0
XRECORD
  5
34B
102
{ACAD_REACTORS
330
34A
102
}
330
34A
100
AcDbXrecord
280
     1
102
RTVSPropertyOp0
 70
     0
102
RTVSPropertyOp1
 70
     0
102
RTVSPropertyOp2
 70
     0
102
RTVSPropertyOp3
 70
     0
102
RTVSPropertyOp4
 70
     0
102
RTVSPropertyOp5
 70
     0
102
RTVSPropertyOp6
 70
     0
102
RTVSPropertyOp7
 70
     0
102
RTVSPropertyOp8
 70
     0
102
RTVSPropertyOp9
 70
     0
102
RTVSPropertyOp10
 70
     0
102
RTVSPropertyOp11
 70
     0
102
RTVSPropertyOp12
 70
     0
102
RTVSPropertyOp13
 70
     0
102
RTVSPropertyOp14
 70
     2
102
RTVSPropertyOp15
 70
     0
102
RTVSPropertyOp16
 70
     0
102
RTVSPropertyOp17
 70
     0
102
RTVSPropertyOp18
 70
     0
102
RTVSPropertyOp19
 70
     0
102
RTVSPropertyOp20
 70
     0
102
RTVSPropertyOp21
 70
     0
102
RTVSPropertyOp22
 70
     0
102
RTVSPropertyOp23
 70
     0
102
RTVSPropertyOp24
 70
     0
102
RTVSPropertyOp25
 70
     0
102
RTVSPropertyOp26
 70
     0
102
RTVSPropertyOp27
 70
     0
102
RTVSPropertyOp28
 70
     0
102
RTVSPropertyOp29
 70
     0
102
RTVSPropertyOp30
 70
     0
102
RTVSPropertyOp31
 70
     0
102
RTVSPropertyOp32
 70
     0
102
RTVSPropertyOp33
 70
     0
102
RTVSPropertyOp34
 70
     0
102
RTVSPropertyOp35
 70
     0
102
RTVSPropertyOp36
 70
     0
102
RTVSPropertyOp37
 70
     0
102
RTVSPropertyOp38
 70
     0
102
RTVSPropertyOp39
 70
     0
102
RTVSPropertyOp40
 70
     0
102
RTVSPropertyOp41
 70
     0
102
RTVSPropertyOp42
 70
     0
102
RTVSPropertyOp43
 70
     0
102
RTVSPropertyOp44
 70
     0
102
RTVSPropertyOp45
 70
     0
102
RTVSPropertyOp46
 70
     0
102
RTVSPropertyOp47
 70
     0
102
RTVSPropertyOp48
 70
     0
102
RTVSPropertyOp49
 70
     0
102
RTVSPropertyOp50
 70
     0
102
RTVSPropertyOp51
 70
     0
102
RTVSPropertyOp52
 70
     0
102
RTVSPropertyOp53
 70
     0
102
RTVSPropertyOp54
 70
     0
102
RTVSPropertyOp55
 70
     0
102
RTVSPropertyOp56
 70
     0
102
RTVSPropertyOp57
 70
     0
102
RTVSPost2010Prop28
280
     0
102
RTVSPost2010PropOp28
 70
     0
102
RTVSPost2010Prop29
280
     1
102
RTVSPost2010PropOp29
 70
     0
102
RTVSPost2010Prop30
280
     1
102
RTVSPost2010PropOp30
 70
     0
102
RTVSPost2010Prop31
280
     0
102
RTVSPost2010PropOp31
 70
     0
102
RTVSPost2010Prop32
280
     0
102
RTVSPost2010PropOp32
 70
     0
102
RTVSPost2010Prop33
280
     0
102
RTVSPost2010PropOp33
 70
     0
102
RTVSPost2010Prop34
280
     0
102
RTVSPost2010PropOp34
 70
     0
102
RTVSPost2010Prop35
280
     0
102
RTVSPost2010PropOp35
 70
     0
102
RTVSPost2010Prop36
280
     0
102
RTVSPost2010PropOp36
 70
     0
102
RTVSPost2010Prop37
 90
       50
102
RTVSPost2010PropOp37
 70
     0
102
RTVSPost2010Prop38
140
0.0
102
RTVSPost2010PropOp38
 70
     0
102
RTVSPost2010Prop39
140
1.0
102
RTVSPost2010PropOp39
 70
     0
102
RTVSPost2010Prop40
 90
        0
102
RTVSPost2010PropOp40
 70
     0
102
RTVSPost2010Prop41ColorIndex
 90
       18
102
RTVSPost2010Prop41ColorRGB
 90
        0
102
RTVSPost2010PropOp41
 70
     0
102
RTVSPost2010Prop42
 90
       50
102
RTVSPost2010PropOp42
 70
     0
102
RTVSPost2010Prop43
 90
        3
102
RTVSPost2010PropOp43
 70
     0
102
RTVSPost2010Prop44ColorIndex
 90
        5
102
RTVSPost2010Prop44ColorRGB
 90
      255
102
RTVSPost2010PropOp44
 70
     0
102
RTVSPost2010Prop45
280
     0
102
RTVSPost2010PropOp45
 70
     0
102
RTVSPost2010Prop46
 90
       50
102
RTVSPost2010PropOp46
 70
     0
102
RTVSPost2010Prop47
 90
       50
102
RTVSPost2010PropOp47
 70
     0
102
RTVSPost2010Prop48
 90
       50
102
RTVSPost2010PropOp48
 70
     0
102
RTVSPost2010Prop49
280
     0
102
RTVSPost2010PropOp49
 70
     0
102
RTVSPost2010Prop50
 90
       50
102
RTVSPost2010PropOp50
 70
     0
102
RTVSPost2010Prop51ColorIndex
 90
      256
102
RTVSPost2010Prop51ColorRGB
 90
-16777216
102
RTVSPost2010PropOp51
 70
     0
102
RTVSPost2010Prop52
140
1.0
102
RTVSPost2010PropOp52
 70
     0
102
RTVSPost2010Prop53
 90
        2
102
RTVSPost2010PropOp53
 70
     0
102
RTVSPost2010Prop54
  1
strokes_ogs.tif
102
RTVSPost2010PropOp54
 70
     0
102
RTVSPost2010Prop55
280
     0
102
RTVSPost2010PropOp55
 70
     0
102
RTVSPost2010Prop56
140
1.0
102
RTVSPost2010PropOp56
 70
     0
102
RTVSPost2010Prop57
140
1.0
102
RTVSPost2010PropOp57
 70
     0
  0
XRECORD
  5
343
102
{ACAD_REACTORS
330
342
102
}
330
342
100
AcDbXrecord
280
     1
102
RTVSPropertyOp0
 70
     1
102
RTVSPropertyOp1
 70
     1
102
RTVSPropertyOp2
 70
     1
102
RTVSPropertyOp3
 70
     1
102
RTVSPropertyOp4
 70
     1
102
RTVSPropertyOp5
 70
     1
102
RTVSPropertyOp6
 70
     1
102
RTVSPropertyOp7
 70
     1
102
RTVSPropertyOp8
 70
     1
102
RTVSPropertyOp9
 70
     1
102
RTVSPropertyOp10
 70
     1
102
RTVSPropertyOp11
 70
     1
102
RTVSPropertyOp12
 70
     1
102
RTVSPropertyOp13
 70
     1
102
RTVSPropertyOp14
 70
     1
102
RTVSPropertyOp15
 70
     1
102
RTVSPropertyOp16
 70
     1
102
RTVSPropertyOp17
 70
     1
102
RTVSPropertyOp18
 70
     1
102
RTVSPropertyOp19
 70
     1
102
RTVSPropertyOp20
 70
     1
102
RTVSPropertyOp21
 70
     1
102
RTVSPropertyOp22
 70
     1
102
RTVSPropertyOp23
 70
     1
102
RTVSPropertyOp24
 70
     1
102
RTVSPropertyOp25
 70
     1
102
RTVSPropertyOp26
 70
     1
102
RTVSPropertyOp27
 70
     1
102
RTVSPropertyOp28
 70
     1
102
RTVSPropertyOp29
 70
     1
102
RTVSPropertyOp30
 70
     1
102
RTVSPropertyOp31
 70
     1
102
RTVSPropertyOp32
 70
     1
102
RTVSPropertyOp33
 70
     1
102
RTVSPropertyOp34
 70
     1
102
RTVSPropertyOp35
 70
     1
102
RTVSPropertyOp36
 70
     1
102
RTVSPropertyOp37
 70
     1
102
RTVSPropertyOp38
 70
     1
102
RTVSPropertyOp39
 70
     1
102
RTVSPropertyOp40
 70
     1
102
RTVSPropertyOp41
 70
     1
102
RTVSPropertyOp42
 70
     1
102
RTVSPropertyOp43
 70
     1
102
RTVSPropertyOp44
 70
     1
102
RTVSPropertyOp45
 70
     1
102
RTVSPropertyOp46
 70
     1
102
RTVSPropertyOp47
 70
     1
102
RTVSPropertyOp48
 70
     1
102
RTVSPropertyOp49
 70
     1
102
RTVSPropertyOp50
 70
     1
102
RTVSPropertyOp51
 70
     0
102
RTVSPropertyOp52
 70
     0
102
RTVSPropertyOp53
 70
     1
102
RTVSPropertyOp54
 70
     1
102
RTVSPropertyOp55
 70
     1
102
RTVSPropertyOp56
 70
     1
102
RTVSPropertyOp57
 70
     1
102
RTVSPost2010Prop28
280
     0
102
RTVSPost2010PropOp28
 70
     1
102
RTVSPost2010Prop29
280
     1
102
RTVSPost2010PropOp29
 70
     1
102
RTVSPost2010Prop30
280
     1
102
RTVSPost2010PropOp30
 70
     1
102
RTVSPost2010Prop31
280
     0
102
RTVSPost2010PropOp31
 70
     1
102
RTVSPost2010Prop32
280
     0
102
RTVSPost2010PropOp32
 70
     1
102
RTVSPost2010Prop33
280
     0
102
RTVSPost2010PropOp33
 70
     1
102
RTVSPost2010Prop34
280
     0
102
RTVSPost2010PropOp34
 70
     1
102
RTVSPost2010Prop35
280
     0
102
RTVSPost2010PropOp35
 70
     1
102
RTVSPost2010Prop36
280
     0
102
RTVSPost2010PropOp36
 70
     1
102
RTVSPost2010Prop37
 90
       50
102
RTVSPost2010PropOp37
 70
     1
102
RTVSPost2010Prop38
140
0.0
102
RTVSPost2010PropOp38
 70
     1
102
RTVSPost2010Prop39
140
1.0
102
RTVSPost2010PropOp39
 70
     1
102
RTVSPost2010Prop40
 90
        0
102
RTVSPost2010PropOp40
 70
     1
102
RTVSPost2010Prop41ColorIndex
 90
       18
102
RTVSPost2010Prop41ColorRGB
 90
        0
102
RTVSPost2010PropOp41
 70
     1
102
RTVSPost2010Prop42
 90
       50
102
RTVSPost2010PropOp42
 70
     1
102
RTVSPost2010Prop43
 90
        3
102
RTVSPost2010PropOp43
 70
     1
102
RTVSPost2010Prop44ColorIndex
 90
        5
102
RTVSPost2010Prop44ColorRGB
 90
      255
102
RTVSPost2010PropOp44
 70
     1
102
RTVSPost2010Prop45
280
     0
102
RTVSPost2010PropOp45
 70
     1
102
RTVSPost2010Prop46
 90
       50
102
RTVSPost2010PropOp46
 70
     1
102
RTVSPost2010Prop47
 90
       50
102
RTVSPost2010PropOp47
 70
     1
102
RTVSPost2010Prop48
 90
       50
102
RTVSPost2010PropOp48
 70
     1
102
RTVSPost2010Prop49
280
     0
102
RTVSPost2010PropOp49
 70
     1
102
RTVSPost2010Prop50
 90
       50
102
RTVSPost2010PropOp50
 70
     1
102
RTVSPost2010Prop51ColorIndex
 90
      256
102
RTVSPost2010Prop51ColorRGB
 90
-16777216
102
RTVSPost2010PropOp51
 70
     0
102
RTVSPost2010Prop52
140
1.0
102
RTVSPost2010PropOp52
 70
     0
102
RTVSPost2010Prop53
 90
        2
102
RTVSPost2010PropOp53
 70
     1
102
RTVSPost2010Prop54
  1
strokes_ogs.tif
102
RTVSPost2010PropOp54
 70
     1
102
RTVSPost2010Prop55
280
     0
102
RTVSPost2010PropOp55
 70
     1
102
RTVSPost2010Prop56
140
1.0
102
RTVSPost2010PropOp56
 70
     1
102
RTVSPost2010Prop57
140
1.0
102
RTVSPost2010PropOp57
 70
     1
  0
XRECORD
  5
327
102
{ACAD_REACTORS
330
326
102
}
330
326
100
AcDbXrecord
280
     1
102
RTVSPropertyOp0
 70
     1
102
RTVSPropertyOp1
 70
     1
102
RTVSPropertyOp2
 70
     1
102
RTVSPropertyOp3
 70
     1
102
RTVSPropertyOp4
 70
     1
102
RTVSPropertyOp5
 70
     1
102
RTVSPropertyOp6
 70
     1
102
RTVSPropertyOp7
 70
     1
102
RTVSPropertyOp8
 70
     1
102
RTVSPropertyOp9
 70
     1
102
RTVSPropertyOp10
 70
     1
102
RTVSPropertyOp11
 70
     1
102
RTVSPropertyOp12
 70
     1
102
RTVSPropertyOp13
 70
     1
102
RTVSPropertyOp14
 70
     1
102
RTVSPropertyOp15
 70
     1
102
RTVSPropertyOp16
 70
     1
102
RTVSPropertyOp17
 70
     1
102
RTVSPropertyOp18
 70
     1
102
RTVSPropertyOp19
 70
     1
102
RTVSPropertyOp20
 70
     1
102
RTVSPropertyOp21
 70
     1
102
RTVSPropertyOp22
 70
     1
102
RTVSPropertyOp23
 70
     1
102
RTVSPropertyOp24
 70
     1
102
RTVSPropertyOp25
 70
     1
102
RTVSPropertyOp26
 70
     1
102
RTVSPropertyOp27
 70
     1
102
RTVSPropertyOp28
 70
     1
102
RTVSPropertyOp29
 70
     1
102
RTVSPropertyOp30
 70
     1
102
RTVSPropertyOp31
 70
     1
102
RTVSPropertyOp32
 70
     1
102
RTVSPropertyOp33
 70
     1
102
RTVSPropertyOp34
 70
     1
102
RTVSPropertyOp35
 70
     1
102
RTVSPropertyOp36
 70
     1
102
RTVSPropertyOp37
 70
     1
102
RTVSPropertyOp38
 70
     1
102
RTVSPropertyOp39
 70
     1
102
RTVSPropertyOp40
 70
     1
102
RTVSPropertyOp41
 70
     1
102
RTVSPropertyOp42
 70
     1
102
RTVSPropertyOp43
 70
     1
102
RTVSPropertyOp44
 70
     1
102
RTVSPropertyOp45
 70
     1
102
RTVSPropertyOp46
 70
     1
102
RTVSPropertyOp47
 70
     1
102
RTVSPropertyOp48
 70
     1
102
RTVSPropertyOp49
 70
     1
102
RTVSPropertyOp50
 70
     1
102
RTVSPropertyOp51
 70
     0
102
RTVSPropertyOp52
 70
     0
102
RTVSPropertyOp53
 70
     1
102
RTVSPropertyOp54
 70
     1
102
RTVSPropertyOp55
 70
     1
102
RTVSPropertyOp56
 70
     1
102
RTVSPropertyOp57
 70
     1
102
RTVSPost2010Prop28
280
     0
102
RTVSPost2010PropOp28
 70
     1
102
RTVSPost2010Prop29
280
     1
102
RTVSPost2010PropOp29
 70
     1
102
RTVSPost2010Prop30
280
     1
102
RTVSPost2010PropOp30
 70
     1
102
RTVSPost2010Prop31
280
     0
102
RTVSPost2010PropOp31
 70
     1
102
RTVSPost2010Prop32
280
     0
102
RTVSPost2010PropOp32
 70
     1
102
RTVSPost2010Prop33
280
     0
102
RTVSPost2010PropOp33
 70
     1
102
RTVSPost2010Prop34
280
     0
102
RTVSPost2010PropOp34
 70
     1
102
RTVSPost2010Prop35
280
     0
102
RTVSPost2010PropOp35
 70
     1
102
RTVSPost2010Prop36
280
     0
102
RTVSPost2010PropOp36
 70
     1
102
RTVSPost2010Prop37
 90
       50
102
RTVSPost2010PropOp37
 70
     1
102
RTVSPost2010Prop38
140
0.0
102
RTVSPost2010PropOp38
 70
     1
102
RTVSPost2010Prop39
140
1.0
102
RTVSPost2010PropOp39
 70
     1
102
RTVSPost2010Prop40
 90
        0
102
RTVSPost2010PropOp40
 70
     1
102
RTVSPost2010Prop41ColorIndex
 90
       18
102
RTVSPost2010Prop41ColorRGB
 90
        0
102
RTVSPost2010PropOp41
 70
     1
102
RTVSPost2010Prop42
 90
       50
102
RTVSPost2010PropOp42
 70
     1
102
RTVSPost2010Prop43
 90
        3
102
RTVSPost2010PropOp43
 70
     1
102
RTVSPost2010Prop44ColorIndex
 90
        5
102
RTVSPost2010Prop44ColorRGB
 90
      255
102
RTVSPost2010PropOp44
 70
     1
102
RTVSPost2010Prop45
280
     0
102
RTVSPost2010PropOp45
 70
     1
102
RTVSPost2010Prop46
 90
       50
102
RTVSPost2010PropOp46
 70
     1
102
RTVSPost2010Prop47
 90
       50
102
RTVSPost2010PropOp47
 70
     1
102
RTVSPost2010Prop48
 90
       50
102
RTVSPost2010PropOp48
 70
     1
102
RTVSPost2010Prop49
280
     0
102
RTVSPost2010PropOp49
 70
     1
102
RTVSPost2010Prop50
 90
       50
102
RTVSPost2010PropOp50
 70
     1
102
RTVSPost2010Prop51ColorIndex
 90
      256
102
RTVSPost2010Prop51ColorRGB
 90
-16777216
102
RTVSPost2010PropOp51
 70
     0
102
RTVSPost2010Prop52
140
1.0
102
RTVSPost2010PropOp52
 70
     0
102
RTVSPost2010Prop53
 90
        2
102
RTVSPost2010PropOp53
 70
     1
102
RTVSPost2010Prop54
  1
strokes_ogs.tif
102
RTVSPost2010PropOp54
 70
     1
102
RTVSPost2010Prop55
280
     0
102
RTVSPost2010PropOp55
 70
     1
102
RTVSPost2010Prop56
140
1.0
102
RTVSPost2010PropOp56
 70
     1
102
RTVSPost2010Prop57
140
1.0
102
RTVSPost2010PropOp57
 70
     1
  0
XRECORD
  5
329
102
{ACAD_REACTORS
330
328
102
}
330
328
100
AcDbXrecord
280
     1
102
RTVSPropertyOp0
 70
     1
102
RTVSPropertyOp1
 70
     1
102
RTVSPropertyOp2
 70
     1
102
RTVSPropertyOp3
 70
     1
102
RTVSPropertyOp4
 70
     1
102
RTVSPropertyOp5
 70
     1
102
RTVSPropertyOp6
 70
     1
102
RTVSPropertyOp7
 70
     1
102
RTVSPropertyOp8
 70
     1
102
RTVSPropertyOp9
 70
     1
102
RTVSPropertyOp10
 70
     1
102
RTVSPropertyOp11
 70
     1
102
RTVSPropertyOp12
 70
     1
102
RTVSPropertyOp13
 70
     1
102
RTVSPropertyOp14
 70
     1
102
RTVSPropertyOp15
 70
     1
102
RTVSPropertyOp16
 70
     1
102
RTVSPropertyOp17
 70
     1
102
RTVSPropertyOp18
 70
     1
102
RTVSPropertyOp19
 70
     1
102
RTVSPropertyOp20
 70
     1
102
RTVSPropertyOp21
 70
     1
102
RTVSPropertyOp22
 70
     1
102
RTVSPropertyOp23
 70
     1
102
RTVSPropertyOp24
 70
     1
102
RTVSPropertyOp25
 70
     1
102
RTVSPropertyOp26
 70
     1
102
RTVSPropertyOp27
 70
     1
102
RTVSPropertyOp28
 70
     1
102
RTVSPropertyOp29
 70
     1
102
RTVSPropertyOp30
 70
     1
102
RTVSPropertyOp31
 70
     1
102
RTVSPropertyOp32
 70
     1
102
RTVSPropertyOp33
 70
     1
102
RTVSPropertyOp34
 70
     1
102
RTVSPropertyOp35
 70
     1
102
RTVSPropertyOp36
 70
     1
102
RTVSPropertyOp37
 70
     1
102
RTVSPropertyOp38
 70
     1
102
RTVSPropertyOp39
 70
     1
102
RTVSPropertyOp40
 70
     1
102
RTVSPropertyOp41
 70
     1
102
RTVSPropertyOp42
 70
     1
102
RTVSPropertyOp43
 70
     1
102
RTVSPropertyOp44
 70
     1
102
RTVSPropertyOp45
 70
     1
102
RTVSPropertyOp46
 70
     1
102
RTVSPropertyOp47
 70
     1
102
RTVSPropertyOp48
 70
     1
102
RTVSPropertyOp49
 70
     1
102
RTVSPropertyOp50
 70
     1
102
RTVSPropertyOp51
 70
     0
102
RTVSPropertyOp52
 70
     0
102
RTVSPropertyOp53
 70
     1
102
RTVSPropertyOp54
 70
     1
102
RTVSPropertyOp55
 70
     1
102
RTVSPropertyOp56
 70
     1
102
RTVSPropertyOp57
 70
     1
102
RTVSPost2010Prop28
280
     0
102
RTVSPost2010PropOp28
 70
     1
102
RTVSPost2010Prop29
280
     1
102
RTVSPost2010PropOp29
 70
     1
102
RTVSPost2010Prop30
280
     1
102
RTVSPost2010PropOp30
 70
     1
102
RTVSPost2010Prop31
280
     0
102
RTVSPost2010PropOp31
 70
     1
102
RTVSPost2010Prop32
280
     0
102
RTVSPost2010PropOp32
 70
     1
102
RTVSPost2010Prop33
280
     0
102
RTVSPost2010PropOp33
 70
     1
102
RTVSPost2010Prop34
280
     0
102
RTVSPost2010PropOp34
 70
     1
102
RTVSPost2010Prop35
280
     0
102
RTVSPost2010PropOp35
 70
     1
102
RTVSPost2010Prop36
280
     0
102
RTVSPost2010PropOp36
 70
     1
102
RTVSPost2010Prop37
 90
       50
102
RTVSPost2010PropOp37
 70
     1
102
RTVSPost2010Prop38
140
0.0
102
RTVSPost2010PropOp38
 70
     1
102
RTVSPost2010Prop39
140
1.0
102
RTVSPost2010PropOp39
 70
     1
102
RTVSPost2010Prop40
 90
        0
102
RTVSPost2010PropOp40
 70
     1
102
RTVSPost2010Prop41ColorIndex
 90
       18
102
RTVSPost2010Prop41ColorRGB
 90
        0
102
RTVSPost2010PropOp41
 70
     1
102
RTVSPost2010Prop42
 90
       50
102
RTVSPost2010PropOp42
 70
     1
102
RTVSPost2010Prop43
 90
        3
102
RTVSPost2010PropOp43
 70
     1
102
RTVSPost2010Prop44ColorIndex
 90
        5
102
RTVSPost2010Prop44ColorRGB
 90
      255
102
RTVSPost2010PropOp44
 70
     1
102
RTVSPost2010Prop45
280
     0
102
RTVSPost2010PropOp45
 70
     1
102
RTVSPost2010Prop46
 90
       50
102
RTVSPost2010PropOp46
 70
     1
102
RTVSPost2010Prop47
 90
       50
102
RTVSPost2010PropOp47
 70
     1
102
RTVSPost2010Prop48
 90
       50
102
RTVSPost2010PropOp48
 70
     1
102
RTVSPost2010Prop49
280
     0
102
RTVSPost2010PropOp49
 70
     1
102
RTVSPost2010Prop50
 90
       50
102
RTVSPost2010PropOp50
 70
     1
102
RTVSPost2010Prop51ColorIndex
 90
      256
102
RTVSPost2010Prop51ColorRGB
 90
-16777216
102
RTVSPost2010PropOp51
 70
     0
102
RTVSPost2010Prop52
140
1.0
102
RTVSPost2010PropOp52
 70
     0
102
RTVSPost2010Prop53
 90
        2
102
RTVSPost2010PropOp53
 70
     1
102
RTVSPost2010Prop54
  1
strokes_ogs.tif
102
RTVSPost2010PropOp54
 70
     1
102
RTVSPost2010Prop55
280
     0
102
RTVSPost2010PropOp55
 70
     1
102
RTVSPost2010Prop56
140
1.0
102
RTVSPost2010PropOp56
 70
     1
102
RTVSPost2010Prop57
140
1.0
102
RTVSPost2010PropOp57
 70
     1
  0
XRECORD
  5
32B
102
{ACAD_REACTORS
330
32A
102
}
330
32A
100
AcDbXrecord
280
     1
102
RTVSPropertyOp0
 70
     1
102
RTVSPropertyOp1
 70
     1
102
RTVSPropertyOp2
 70
     1
102
RTVSPropertyOp3
 70
     1
102
RTVSPropertyOp4
 70
     1
102
RTVSPropertyOp5
 70
     1
102
RTVSPropertyOp6
 70
     1
102
RTVSPropertyOp7
 70
     1
102
RTVSPropertyOp8
 70
     1
102
RTVSPropertyOp9
 70
     1
102
RTVSPropertyOp10
 70
     1
102
RTVSPropertyOp11
 70
     1
102
RTVSPropertyOp12
 70
     1
102
RTVSPropertyOp13
 70
     1
102
RTVSPropertyOp14
 70
     1
102
RTVSPropertyOp15
 70
     1
102
RTVSPropertyOp16
 70
     1
102
RTVSPropertyOp17
 70
     1
102
RTVSPropertyOp18
 70
     1
102
RTVSPropertyOp19
 70
     1
102
RTVSPropertyOp20
 70
     1
102
RTVSPropertyOp21
 70
     1
102
RTVSPropertyOp22
 70
     1
102
RTVSPropertyOp23
 70
     1
102
RTVSPropertyOp24
 70
     1
102
RTVSPropertyOp25
 70
     1
102
RTVSPropertyOp26
 70
     1
102
RTVSPropertyOp27
 70
     1
102
RTVSPropertyOp28
 70
     1
102
RTVSPropertyOp29
 70
     1
102
RTVSPropertyOp30
 70
     1
102
RTVSPropertyOp31
 70
     1
102
RTVSPropertyOp32
 70
     1
102
RTVSPropertyOp33
 70
     1
102
RTVSPropertyOp34
 70
     1
102
RTVSPropertyOp35
 70
     1
102
RTVSPropertyOp36
 70
     1
102
RTVSPropertyOp37
 70
     1
102
RTVSPropertyOp38
 70
     1
102
RTVSPropertyOp39
 70
     1
102
RTVSPropertyOp40
 70
     1
102
RTVSPropertyOp41
 70
     1
102
RTVSPropertyOp42
 70
     1
102
RTVSPropertyOp43
 70
     1
102
RTVSPropertyOp44
 70
     1
102
RTVSPropertyOp45
 70
     1
102
RTVSPropertyOp46
 70
     1
102
RTVSPropertyOp47
 70
     1
102
RTVSPropertyOp48
 70
     1
102
RTVSPropertyOp49
 70
     1
102
RTVSPropertyOp50
 70
     1
102
RTVSPropertyOp51
 70
     0
102
RTVSPropertyOp52
 70
     0
102
RTVSPropertyOp53
 70
     1
102
RTVSPropertyOp54
 70
     1
102
RTVSPropertyOp55
 70
     1
102
RTVSPropertyOp56
 70
     1
102
RTVSPropertyOp57
 70
     1
102
RTVSPost2010Prop28
280
     0
102
RTVSPost2010PropOp28
 70
     1
102
RTVSPost2010Prop29
280
     1
102
RTVSPost2010PropOp29
 70
     1
102
RTVSPost2010Prop30
280
     1
102
RTVSPost2010PropOp30
 70
     1
102
RTVSPost2010Prop31
280
     0
102
RTVSPost2010PropOp31
 70
     1
102
RTVSPost2010Prop32
280
     0
102
RTVSPost2010PropOp32
 70
     1
102
RTVSPost2010Prop33
280
     0
102
RTVSPost2010PropOp33
 70
     1
102
RTVSPost2010Prop34
280
     0
102
RTVSPost2010PropOp34
 70
     1
102
RTVSPost2010Prop35
280
     0
102
RTVSPost2010PropOp35
 70
     1
102
RTVSPost2010Prop36
280
     0
102
RTVSPost2010PropOp36
 70
     1
102
RTVSPost2010Prop37
 90
       50
102
RTVSPost2010PropOp37
 70
     1
102
RTVSPost2010Prop38
140
0.0
102
RTVSPost2010PropOp38
 70
     1
102
RTVSPost2010Prop39
140
1.0
102
RTVSPost2010PropOp39
 70
     1
102
RTVSPost2010Prop40
 90
        0
102
RTVSPost2010PropOp40
 70
     1
102
RTVSPost2010Prop41ColorIndex
 90
       18
102
RTVSPost2010Prop41ColorRGB
 90
        0
102
RTVSPost2010PropOp41
 70
     1
102
RTVSPost2010Prop42
 90
       50
102
RTVSPost2010PropOp42
 70
     1
102
RTVSPost2010Prop43
 90
        3
102
RTVSPost2010PropOp43
 70
     1
102
RTVSPost2010Prop44ColorIndex
 90
        5
102
RTVSPost2010Prop44ColorRGB
 90
      255
102
RTVSPost2010PropOp44
 70
     1
102
RTVSPost2010Prop45
280
     0
102
RTVSPost2010PropOp45
 70
     1
102
RTVSPost2010Prop46
 90
       50
102
RTVSPost2010PropOp46
 70
     1
102
RTVSPost2010Prop47
 90
       50
102
RTVSPost2010PropOp47
 70
     1
102
RTVSPost2010Prop48
 90
       50
102
RTVSPost2010PropOp48
 70
     1
102
RTVSPost2010Prop49
280
     0
102
RTVSPost2010PropOp49
 70
     1
102
RTVSPost2010Prop50
 90
       50
102
RTVSPost2010PropOp50
 70
     1
102
RTVSPost2010Prop51ColorIndex
 90
      256
102
RTVSPost2010Prop51ColorRGB
 90
-16777216
102
RTVSPost2010PropOp51
 70
     0
102
RTVSPost2010Prop52
140
1.0
102
RTVSPost2010PropOp52
 70
     0
102
RTVSPost2010Prop53
 90
        2
102
RTVSPost2010PropOp53
 70
     1
102
RTVSPost2010Prop54
  1
strokes_ogs.tif
102
RTVSPost2010PropOp54
 70
     1
102
RTVSPost2010Prop55
280
     0
102
RTVSPost2010PropOp55
 70
     1
102
RTVSPost2010Prop56
140
1.0
102
RTVSPost2010PropOp56
 70
     1
102
RTVSPost2010Prop57
140
1.0
102
RTVSPost2010PropOp57
 70
     1
  0
XRECORD
  5
32D
102
{ACAD_REACTORS
330
32C
102
}
330
32C
100
AcDbXrecord
280
     1
102
RTVSPropertyOp0
 70
     1
102
RTVSPropertyOp1
 70
     1
102
RTVSPropertyOp2
 70
     1
102
RTVSPropertyOp3
 70
     1
102
RTVSPropertyOp4
 70
     1
102
RTVSPropertyOp5
 70
     1
102
RTVSPropertyOp6
 70
     1
102
RTVSPropertyOp7
 70
     1
102
RTVSPropertyOp8
 70
     1
102
RTVSPropertyOp9
 70
     1
102
RTVSPropertyOp10
 70
     1
102
RTVSPropertyOp11
 70
     1
102
RTVSPropertyOp12
 70
     1
102
RTVSPropertyOp13
 70
     1
102
RTVSPropertyOp14
 70
     1
102
RTVSPropertyOp15
 70
     1
102
RTVSPropertyOp16
 70
     1
102
RTVSPropertyOp17
 70
     1
102
RTVSPropertyOp18
 70
     1
102
RTVSPropertyOp19
 70
     1
102
RTVSPropertyOp20
 70
     1
102
RTVSPropertyOp21
 70
     1
102
RTVSPropertyOp22
 70
     1
102
RTVSPropertyOp23
 70
     1
102
RTVSPropertyOp24
 70
     1
102
RTVSPropertyOp25
 70
     1
102
RTVSPropertyOp26
 70
     1
102
RTVSPropertyOp27
 70
     1
102
RTVSPropertyOp28
 70
     1
102
RTVSPropertyOp29
 70
     1
102
RTVSPropertyOp30
 70
     1
102
RTVSPropertyOp31
 70
     1
102
RTVSPropertyOp32
 70
     1
102
RTVSPropertyOp33
 70
     1
102
RTVSPropertyOp34
 70
     1
102
RTVSPropertyOp35
 70
     1
102
RTVSPropertyOp36
 70
     1
102
RTVSPropertyOp37
 70
     1
102
RTVSPropertyOp38
 70
     1
102
RTVSPropertyOp39
 70
     1
102
RTVSPropertyOp40
 70
     1
102
RTVSPropertyOp41
 70
     1
102
RTVSPropertyOp42
 70
     1
102
RTVSPropertyOp43
 70
     1
102
RTVSPropertyOp44
 70
     1
102
RTVSPropertyOp45
 70
     1
102
RTVSPropertyOp46
 70
     1
102
RTVSPropertyOp47
 70
     1
102
RTVSPropertyOp48
 70
     1
102
RTVSPropertyOp49
 70
     1
102
RTVSPropertyOp50
 70
     1
102
RTVSPropertyOp51
 70
     0
102
RTVSPropertyOp52
 70
     0
102
RTVSPropertyOp53
 70
     1
102
RTVSPropertyOp54
 70
     1
102
RTVSPropertyOp55
 70
     1
102
RTVSPropertyOp56
 70
     1
102
RTVSPropertyOp57
 70
     1
102
RTVSPost2010Prop28
280
     0
102
RTVSPost2010PropOp28
 70
     1
102
RTVSPost2010Prop29
280
     1
102
RTVSPost2010PropOp29
 70
     1
102
RTVSPost2010Prop30
280
     1
102
RTVSPost2010PropOp30
 70
     1
102
RTVSPost2010Prop31
280
     0
102
RTVSPost2010PropOp31
 70
     1
102
RTVSPost2010Prop32
280
     0
102
RTVSPost2010PropOp32
 70
     1
102
RTVSPost2010Prop33
280
     0
102
RTVSPost2010PropOp33
 70
     1
102
RTVSPost2010Prop34
280
     0
102
RTVSPost2010PropOp34
 70
     1
102
RTVSPost2010Prop35
280
     0
102
RTVSPost2010PropOp35
 70
     1
102
RTVSPost2010Prop36
280
     0
102
RTVSPost2010PropOp36
 70
     1
102
RTVSPost2010Prop37
 90
       50
102
RTVSPost2010PropOp37
 70
     1
102
RTVSPost2010Prop38
140
0.0
102
RTVSPost2010PropOp38
 70
     1
102
RTVSPost2010Prop39
140
1.0
102
RTVSPost2010PropOp39
 70
     1
102
RTVSPost2010Prop40
 90
        0
102
RTVSPost2010PropOp40
 70
     1
102
RTVSPost2010Prop41ColorIndex
 90
       18
102
RTVSPost2010Prop41ColorRGB
 90
        0
102
RTVSPost2010PropOp41
 70
     1
102
RTVSPost2010Prop42
 90
       50
102
RTVSPost2010PropOp42
 70
     1
102
RTVSPost2010Prop43
 90
        3
102
RTVSPost2010PropOp43
 70
     1
102
RTVSPost2010Prop44ColorIndex
 90
        5
102
RTVSPost2010Prop44ColorRGB
 90
      255
102
RTVSPost2010PropOp44
 70
     1
102
RTVSPost2010Prop45
280
     0
102
RTVSPost2010PropOp45
 70
     1
102
RTVSPost2010Prop46
 90
       50
102
RTVSPost2010PropOp46
 70
     1
102
RTVSPost2010Prop47
 90
       50
102
RTVSPost2010PropOp47
 70
     1
102
RTVSPost2010Prop48
 90
       50
102
RTVSPost2010PropOp48
 70
     1
102
RTVSPost2010Prop49
280
     0
102
RTVSPost2010PropOp49
 70
     1
102
RTVSPost2010Prop50
 90
       50
102
RTVSPost2010PropOp50
 70
     1
102
RTVSPost2010Prop51ColorIndex
 90
      256
102
RTVSPost2010Prop51ColorRGB
 90
-16777216
102
RTVSPost2010PropOp51
 70
     0
102
RTVSPost2010Prop52
140
1.0
102
RTVSPost2010PropOp52
 70
     0
102
RTVSPost2010Prop53
 90
        2
102
RTVSPost2010PropOp53
 70
     1
102
RTVSPost2010Prop54
  1
strokes_ogs.tif
102
RTVSPost2010PropOp54
 70
     1
102
RTVSPost2010Prop55
280
     0
102
RTVSPost2010PropOp55
 70
     1
102
RTVSPost2010Prop56
140
1.0
102
RTVSPost2010PropOp56
 70
     1
102
RTVSPost2010Prop57
140
1.0
102
RTVSPost2010PropOp57
 70
     1
  0
XRECORD
  5
333
102
{ACAD_REACTORS
330
332
102
}
330
332
100
AcDbXrecord
280
     1
102
RTVSPropertyOp0
 70
     1
102
RTVSPropertyOp1
 70
     1
102
RTVSPropertyOp2
 70
     1
102
RTVSPropertyOp3
 70
     1
102
RTVSPropertyOp4
 70
     1
102
RTVSPropertyOp5
 70
     1
102
RTVSPropertyOp6
 70
     1
102
RTVSPropertyOp7
 70
     1
102
RTVSPropertyOp8
 70
     1
102
RTVSPropertyOp9
 70
     1
102
RTVSPropertyOp10
 70
     1
102
RTVSPropertyOp11
 70
     1
102
RTVSPropertyOp12
 70
     1
102
RTVSPropertyOp13
 70
     1
102
RTVSPropertyOp14
 70
     1
102
RTVSPropertyOp15
 70
     1
102
RTVSPropertyOp16
 70
     1
102
RTVSPropertyOp17
 70
     1
102
RTVSPropertyOp18
 70
     1
102
RTVSPropertyOp19
 70
     1
102
RTVSPropertyOp20
 70
     1
102
RTVSPropertyOp21
 70
     1
102
RTVSPropertyOp22
 70
     1
102
RTVSPropertyOp23
 70
     1
102
RTVSPropertyOp24
 70
     1
102
RTVSPropertyOp25
 70
     1
102
RTVSPropertyOp26
 70
     1
102
RTVSPropertyOp27
 70
     1
102
RTVSPropertyOp28
 70
     1
102
RTVSPropertyOp29
 70
     1
102
RTVSPropertyOp30
 70
     1
102
RTVSPropertyOp31
 70
     1
102
RTVSPropertyOp32
 70
     1
102
RTVSPropertyOp33
 70
     1
102
RTVSPropertyOp34
 70
     1
102
RTVSPropertyOp35
 70
     1
102
RTVSPropertyOp36
 70
     1
102
RTVSPropertyOp37
 70
     1
102
RTVSPropertyOp38
 70
     1
102
RTVSPropertyOp39
 70
     1
102
RTVSPropertyOp40
 70
     1
102
RTVSPropertyOp41
 70
     1
102
RTVSPropertyOp42
 70
     1
102
RTVSPropertyOp43
 70
     1
102
RTVSPropertyOp44
 70
     1
102
RTVSPropertyOp45
 70
     1
102
RTVSPropertyOp46
 70
     1
102
RTVSPropertyOp47
 70
     1
102
RTVSPropertyOp48
 70
     1
102
RTVSPropertyOp49
 70
     1
102
RTVSPropertyOp50
 70
     1
102
RTVSPropertyOp51
 70
     0
102
RTVSPropertyOp52
 70
     0
102
RTVSPropertyOp53
 70
     1
102
RTVSPropertyOp54
 70
     1
102
RTVSPropertyOp55
 70
     1
102
RTVSPropertyOp56
 70
     1
102
RTVSPropertyOp57
 70
     1
102
RTVSPost2010Prop28
280
     0
102
RTVSPost2010PropOp28
 70
     1
102
RTVSPost2010Prop29
280
     1
102
RTVSPost2010PropOp29
 70
     1
102
RTVSPost2010Prop30
280
     1
102
RTVSPost2010PropOp30
 70
     1
102
RTVSPost2010Prop31
280
     0
102
RTVSPost2010PropOp31
 70
     1
102
RTVSPost2010Prop32
280
     0
102
RTVSPost2010PropOp32
 70
     1
102
RTVSPost2010Prop33
280
     0
102
RTVSPost2010PropOp33
 70
     1
102
RTVSPost2010Prop34
280
     0
102
RTVSPost2010PropOp34
 70
     1
102
RTVSPost2010Prop35
280
     0
102
RTVSPost2010PropOp35
 70
     1
102
RTVSPost2010Prop36
280
     0
102
RTVSPost2010PropOp36
 70
     1
102
RTVSPost2010Prop37
 90
       50
102
RTVSPost2010PropOp37
 70
     1
102
RTVSPost2010Prop38
140
0.0
102
RTVSPost2010PropOp38
 70
     1
102
RTVSPost2010Prop39
140
1.0
102
RTVSPost2010PropOp39
 70
     1
102
RTVSPost2010Prop40
 90
        0
102
RTVSPost2010PropOp40
 70
     1
102
RTVSPost2010Prop41ColorIndex
 90
       18
102
RTVSPost2010Prop41ColorRGB
 90
        0
102
RTVSPost2010PropOp41
 70
     1
102
RTVSPost2010Prop42
 90
       50
102
RTVSPost2010PropOp42
 70
     1
102
RTVSPost2010Prop43
 90
        3
102
RTVSPost2010PropOp43
 70
     1
102
RTVSPost2010Prop44ColorIndex
 90
        5
102
RTVSPost2010Prop44ColorRGB
 90
      255
102
RTVSPost2010PropOp44
 70
     1
102
RTVSPost2010Prop45
280
     0
102
RTVSPost2010PropOp45
 70
     1
102
RTVSPost2010Prop46
 90
       50
102
RTVSPost2010PropOp46
 70
     1
102
RTVSPost2010Prop47
 90
       50
102
RTVSPost2010PropOp47
 70
     1
102
RTVSPost2010Prop48
 90
       50
102
RTVSPost2010PropOp48
 70
     1
102
RTVSPost2010Prop49
280
     0
102
RTVSPost2010PropOp49
 70
     1
102
RTVSPost2010Prop50
 90
       50
102
RTVSPost2010PropOp50
 70
     1
102
RTVSPost2010Prop51ColorIndex
 90
      256
102
RTVSPost2010Prop51ColorRGB
 90
-16777216
102
RTVSPost2010PropOp51
 70
     0
102
RTVSPost2010Prop52
140
1.0
102
RTVSPost2010PropOp52
 70
     0
102
RTVSPost2010Prop53
 90
        2
102
RTVSPost2010PropOp53
 70
     1
102
RTVSPost2010Prop54
  1
strokes_ogs.tif
102
RTVSPost2010PropOp54
 70
     1
102
RTVSPost2010Prop55
280
     0
102
RTVSPost2010PropOp55
 70
     1
102
RTVSPost2010Prop56
140
1.0
102
RTVSPost2010PropOp56
 70
     1
102
RTVSPost2010Prop57
140
1.0
102
RTVSPost2010PropOp57
 70
     1
  0
XRECORD
  5
347
102
{ACAD_REACTORS
330
346
102
}
330
346
100
AcDbXrecord
280
     1
102
RTVSPropertyOp0
 70
     0
102
RTVSPropertyOp1
 70
     0
102
RTVSPropertyOp2
 70
     0
102
RTVSPropertyOp3
 70
     0
102
RTVSPropertyOp4
 70
     0
102
RTVSPropertyOp5
 70
     0
102
RTVSPropertyOp6
 70
     0
102
RTVSPropertyOp7
 70
     0
102
RTVSPropertyOp8
 70
     0
102
RTVSPropertyOp9
 70
     0
102
RTVSPropertyOp10
 70
     0
102
RTVSPropertyOp11
 70
     0
102
RTVSPropertyOp12
 70
     0
102
RTVSPropertyOp13
 70
     0
102
RTVSPropertyOp14
 70
     2
102
RTVSPropertyOp15
 70
     0
102
RTVSPropertyOp16
 70
     0
102
RTVSPropertyOp17
 70
     0
102
RTVSPropertyOp18
 70
     0
102
RTVSPropertyOp19
 70
     0
102
RTVSPropertyOp20
 70
     0
102
RTVSPropertyOp21
 70
     0
102
RTVSPropertyOp22
 70
     0
102
RTVSPropertyOp23
 70
     0
102
RTVSPropertyOp24
 70
     0
102
RTVSPropertyOp25
 70
     0
102
RTVSPropertyOp26
 70
     0
102
RTVSPropertyOp27
 70
     0
102
RTVSPropertyOp28
 70
     0
102
RTVSPropertyOp29
 70
     0
102
RTVSPropertyOp30
 70
     0
102
RTVSPropertyOp31
 70
     0
102
RTVSPropertyOp32
 70
     0
102
RTVSPropertyOp33
 70
     0
102
RTVSPropertyOp34
 70
     0
102
RTVSPropertyOp35
 70
     0
102
RTVSPropertyOp36
 70
     0
102
RTVSPropertyOp37
 70
     0
102
RTVSPropertyOp38
 70
     0
102
RTVSPropertyOp39
 70
     0
102
RTVSPropertyOp40
 70
     0
102
RTVSPropertyOp41
 70
     0
102
RTVSPropertyOp42
 70
     0
102
RTVSPropertyOp43
 70
     0
102
RTVSPropertyOp44
 70
     0
102
RTVSPropertyOp45
 70
     0
102
RTVSPropertyOp46
 70
     0
102
RTVSPropertyOp47
 70
     0
102
RTVSPropertyOp48
 70
     0
102
RTVSPropertyOp49
 70
     0
102
RTVSPropertyOp50
 70
     0
102
RTVSPropertyOp51
 70
     0
102
RTVSPropertyOp52
 70
     0
102
RTVSPropertyOp53
 70
     0
102
RTVSPropertyOp54
 70
     0
102
RTVSPropertyOp55
 70
     0
102
RTVSPropertyOp56
 70
     0
102
RTVSPropertyOp57
 70
     0
102
RTVSPost2010Prop28
280
     0
102
RTVSPost2010PropOp28
 70
     0
102
RTVSPost2010Prop29
280
     1
102
RTVSPost2010PropOp29
 70
     0
102
RTVSPost2010Prop30
280
     1
102
RTVSPost2010PropOp30
 70
     0
102
RTVSPost2010Prop31
280
     0
102
RTVSPost2010PropOp31
 70
     0
102
RTVSPost2010Prop32
280
     0
102
RTVSPost2010PropOp32
 70
     0
102
RTVSPost2010Prop33
280
     0
102
RTVSPost2010PropOp33
 70
     0
102
RTVSPost2010Prop34
280
     0
102
RTVSPost2010PropOp34
 70
     0
102
RTVSPost2010Prop35
280
     0
102
RTVSPost2010PropOp35
 70
     0
102
RTVSPost2010Prop36
280
     0
102
RTVSPost2010PropOp36
 70
     0
102
RTVSPost2010Prop37
 90
       50
102
RTVSPost2010PropOp37
 70
     0
102
RTVSPost2010Prop38
140
0.0
102
RTVSPost2010PropOp38
 70
     0
102
RTVSPost2010Prop39
140
1.0
102
RTVSPost2010PropOp39
 70
     0
102
RTVSPost2010Prop40
 90
        0
102
RTVSPost2010PropOp40
 70
     0
102
RTVSPost2010Prop41ColorIndex
 90
       18
102
RTVSPost2010Prop41ColorRGB
 90
        0
102
RTVSPost2010PropOp41
 70
     0
102
RTVSPost2010Prop42
 90
       50
102
RTVSPost2010PropOp42
 70
     0
102
RTVSPost2010Prop43
 90
        3
102
RTVSPost2010PropOp43
 70
     0
102
RTVSPost2010Prop44ColorIndex
 90
        5
102
RTVSPost2010Prop44ColorRGB
 90
      255
102
RTVSPost2010PropOp44
 70
     0
102
RTVSPost2010Prop45
280
     0
102
RTVSPost2010PropOp45
 70
     0
102
RTVSPost2010Prop46
 90
       50
102
RTVSPost2010PropOp46
 70
     0
102
RTVSPost2010Prop47
 90
       50
102
RTVSPost2010PropOp47
 70
     0
102
RTVSPost2010Prop48
 90
       50
102
RTVSPost2010PropOp48
 70
     0
102
RTVSPost2010Prop49
280
     0
102
RTVSPost2010PropOp49
 70
     0
102
RTVSPost2010Prop50
 90
       50
102
RTVSPost2010PropOp50
 70
     0
102
RTVSPost2010Prop51ColorIndex
 90
      256
102
RTVSPost2010Prop51ColorRGB
 90
-16777216
102
RTVSPost2010PropOp51
 70
     0
102
RTVSPost2010Prop52
140
1.0
102
RTVSPost2010PropOp52
 70
     0
102
RTVSPost2010Prop53
 90
        2
102
RTVSPost2010PropOp53
 70
     0
102
RTVSPost2010Prop54
  1
strokes_ogs.tif
102
RTVSPost2010PropOp54
 70
     0
102
RTVSPost2010Prop55
280
     0
102
RTVSPost2010PropOp55
 70
     0
102
RTVSPost2010Prop56
140
1.0
102
RTVSPost2010PropOp56
 70
     0
102
RTVSPost2010Prop57
140
1.0
102
RTVSPost2010PropOp57
 70
     0
  0
XRECORD
  5
341
102
{ACAD_REACTORS
330
340
102
}
330
340
100
AcDbXrecord
280
     1
102
RTVSPropertyOp0
 70
     1
102
RTVSPropertyOp1
 70
     1
102
RTVSPropertyOp2
 70
     1
102
RTVSPropertyOp3
 70
     1
102
RTVSPropertyOp4
 70
     1
102
RTVSPropertyOp5
 70
     1
102
RTVSPropertyOp6
 70
     1
102
RTVSPropertyOp7
 70
     1
102
RTVSPropertyOp8
 70
     1
102
RTVSPropertyOp9
 70
     1
102
RTVSPropertyOp10
 70
     1
102
RTVSPropertyOp11
 70
     1
102
RTVSPropertyOp12
 70
     1
102
RTVSPropertyOp13
 70
     1
102
RTVSPropertyOp14
 70
     1
102
RTVSPropertyOp15
 70
     1
102
RTVSPropertyOp16
 70
     1
102
RTVSPropertyOp17
 70
     1
102
RTVSPropertyOp18
 70
     1
102
RTVSPropertyOp19
 70
     1
102
RTVSPropertyOp20
 70
     1
102
RTVSPropertyOp21
 70
     1
102
RTVSPropertyOp22
 70
     1
102
RTVSPropertyOp23
 70
     1
102
RTVSPropertyOp24
 70
     1
102
RTVSPropertyOp25
 70
     1
102
RTVSPropertyOp26
 70
     1
102
RTVSPropertyOp27
 70
     1
102
RTVSPropertyOp28
 70
     1
102
RTVSPropertyOp29
 70
     1
102
RTVSPropertyOp30
 70
     1
102
RTVSPropertyOp31
 70
     1
102
RTVSPropertyOp32
 70
     1
102
RTVSPropertyOp33
 70
     1
102
RTVSPropertyOp34
 70
     1
102
RTVSPropertyOp35
 70
     1
102
RTVSPropertyOp36
 70
     1
102
RTVSPropertyOp37
 70
     1
102
RTVSPropertyOp38
 70
     1
102
RTVSPropertyOp39
 70
     1
102
RTVSPropertyOp40
 70
     1
102
RTVSPropertyOp41
 70
     1
102
RTVSPropertyOp42
 70
     1
102
RTVSPropertyOp43
 70
     1
102
RTVSPropertyOp44
 70
     1
102
RTVSPropertyOp45
 70
     1
102
RTVSPropertyOp46
 70
     1
102
RTVSPropertyOp47
 70
     1
102
RTVSPropertyOp48
 70
     1
102
RTVSPropertyOp49
 70
     1
102
RTVSPropertyOp50
 70
     1
102
RTVSPropertyOp51
 70
     0
102
RTVSPropertyOp52
 70
     0
102
RTVSPropertyOp53
 70
     1
102
RTVSPropertyOp54
 70
     1
102
RTVSPropertyOp55
 70
     1
102
RTVSPropertyOp56
 70
     1
102
RTVSPropertyOp57
 70
     1
102
RTVSPost2010Prop28
280
     0
102
RTVSPost2010PropOp28
 70
     1
102
RTVSPost2010Prop29
280
     1
102
RTVSPost2010PropOp29
 70
     1
102
RTVSPost2010Prop30
280
     1
102
RTVSPost2010PropOp30
 70
     1
102
RTVSPost2010Prop31
280
     0
102
RTVSPost2010PropOp31
 70
     1
102
RTVSPost2010Prop32
280
     0
102
RTVSPost2010PropOp32
 70
     1
102
RTVSPost2010Prop33
280
     0
102
RTVSPost2010PropOp33
 70
     1
102
RTVSPost2010Prop34
280
     0
102
RTVSPost2010PropOp34
 70
     1
102
RTVSPost2010Prop35
280
     0
102
RTVSPost2010PropOp35
 70
     1
102
RTVSPost2010Prop36
280
     0
102
RTVSPost2010PropOp36
 70
     1
102
RTVSPost2010Prop37
 90
       50
102
RTVSPost2010PropOp37
 70
     1
102
RTVSPost2010Prop38
140
0.0
102
RTVSPost2010PropOp38
 70
     1
102
RTVSPost2010Prop39
140
1.0
102
RTVSPost2010PropOp39
 70
     1
102
RTVSPost2010Prop40
 90
        0
102
RTVSPost2010PropOp40
 70
     1
102
RTVSPost2010Prop41ColorIndex
 90
       18
102
RTVSPost2010Prop41ColorRGB
 90
        0
102
RTVSPost2010PropOp41
 70
     1
102
RTVSPost2010Prop42
 90
       50
102
RTVSPost2010PropOp42
 70
     1
102
RTVSPost2010Prop43
 90
        3
102
RTVSPost2010PropOp43
 70
     1
102
RTVSPost2010Prop44ColorIndex
 90
        5
102
RTVSPost2010Prop44ColorRGB
 90
      255
102
RTVSPost2010PropOp44
 70
     1
102
RTVSPost2010Prop45
280
     0
102
RTVSPost2010PropOp45
 70
     1
102
RTVSPost2010Prop46
 90
       50
102
RTVSPost2010PropOp46
 70
     1
102
RTVSPost2010Prop47
 90
       50
102
RTVSPost2010PropOp47
 70
     1
102
RTVSPost2010Prop48
 90
       50
102
RTVSPost2010PropOp48
 70
     1
102
RTVSPost2010Prop49
280
     0
102
RTVSPost2010PropOp49
 70
     1
102
RTVSPost2010Prop50
 90
       50
102
RTVSPost2010PropOp50
 70
     1
102
RTVSPost2010Prop51ColorIndex
 90
      256
102
RTVSPost2010Prop51ColorRGB
 90
-16777216
102
RTVSPost2010PropOp51
 70
     0
102
RTVSPost2010Prop52
140
1.0
102
RTVSPost2010PropOp52
 70
     0
102
RTVSPost2010Prop53
 90
        2
102
RTVSPost2010PropOp53
 70
     1
102
RTVSPost2010Prop54
  1
strokes_ogs.tif
102
RTVSPost2010PropOp54
 70
     1
102
RTVSPost2010Prop55
280
     0
102
RTVSPost2010PropOp55
 70
     1
102
RTVSPost2010Prop56
140
1.0
102
RTVSPost2010PropOp56
 70
     1
102
RTVSPost2010Prop57
140
1.0
102
RTVSPost2010PropOp57
 70
     1
  0
XRECORD
  5
349
102
{ACAD_REACTORS
330
348
102
}
330
348
100
AcDbXrecord
280
     1
102
RTVSPropertyOp0
 70
     0
102
RTVSPropertyOp1
 70
     0
102
RTVSPropertyOp2
 70
     0
102
RTVSPropertyOp3
 70
     0
102
RTVSPropertyOp4
 70
     0
102
RTVSPropertyOp5
 70
     0
102
RTVSPropertyOp6
 70
     0
102
RTVSPropertyOp7
 70
     0
102
RTVSPropertyOp8
 70
     0
102
RTVSPropertyOp9
 70
     0
102
RTVSPropertyOp10
 70
     0
102
RTVSPropertyOp11
 70
     0
102
RTVSPropertyOp12
 70
     0
102
RTVSPropertyOp13
 70
     0
102
RTVSPropertyOp14
 70
     2
102
RTVSPropertyOp15
 70
     0
102
RTVSPropertyOp16
 70
     0
102
RTVSPropertyOp17
 70
     0
102
RTVSPropertyOp18
 70
     0
102
RTVSPropertyOp19
 70
     0
102
RTVSPropertyOp20
 70
     0
102
RTVSPropertyOp21
 70
     0
102
RTVSPropertyOp22
 70
     0
102
RTVSPropertyOp23
 70
     0
102
RTVSPropertyOp24
 70
     0
102
RTVSPropertyOp25
 70
     0
102
RTVSPropertyOp26
 70
     0
102
RTVSPropertyOp27
 70
     0
102
RTVSPropertyOp28
 70
     0
102
RTVSPropertyOp29
 70
     0
102
RTVSPropertyOp30
 70
     0
102
RTVSPropertyOp31
 70
     0
102
RTVSPropertyOp32
 70
     0
102
RTVSPropertyOp33
 70
     0
102
RTVSPropertyOp34
 70
     0
102
RTVSPropertyOp35
 70
     0
102
RTVSPropertyOp36
 70
     0
102
RTVSPropertyOp37
 70
     0
102
RTVSPropertyOp38
 70
     0
102
RTVSPropertyOp39
 70
     0
102
RTVSPropertyOp40
 70
     0
102
RTVSPropertyOp41
 70
     0
102
RTVSPropertyOp42
 70
     0
102
RTVSPropertyOp43
 70
     0
102
RTVSPropertyOp44
 70
     0
102
RTVSPropertyOp45
 70
     0
102
RTVSPropertyOp46
 70
     0
102
RTVSPropertyOp47
 70
     0
102
RTVSPropertyOp48
 70
     0
102
RTVSPropertyOp49
 70
     0
102
RTVSPropertyOp50
 70
     0
102
RTVSPropertyOp51
 70
     0
102
RTVSPropertyOp52
 70
     0
102
RTVSPropertyOp53
 70
     0
102
RTVSPropertyOp54
 70
     0
102
RTVSPropertyOp55
 70
     0
102
RTVSPropertyOp56
 70
     0
102
RTVSPropertyOp57
 70
     0
102
RTVSPost2010Prop28
280
     0
102
RTVSPost2010PropOp28
 70
     0
102
RTVSPost2010Prop29
280
     1
102
RTVSPost2010PropOp29
 70
     0
102
RTVSPost2010Prop30
280
     1
102
RTVSPost2010PropOp30
 70
     0
102
RTVSPost2010Prop31
280
     0
102
RTVSPost2010PropOp31
 70
     0
102
RTVSPost2010Prop32
280
     0
102
RTVSPost2010PropOp32
 70
     0
102
RTVSPost2010Prop33
280
     0
102
RTVSPost2010PropOp33
 70
     0
102
RTVSPost2010Prop34
280
     0
102
RTVSPost2010PropOp34
 70
     0
102
RTVSPost2010Prop35
280
     0
102
RTVSPost2010PropOp35
 70
     0
102
RTVSPost2010Prop36
280
     0
102
RTVSPost2010PropOp36
 70
     0
102
RTVSPost2010Prop37
 90
       50
102
RTVSPost2010PropOp37
 70
     0
102
RTVSPost2010Prop38
140
0.0
102
RTVSPost2010PropOp38
 70
     0
102
RTVSPost2010Prop39
140
1.0
102
RTVSPost2010PropOp39
 70
     0
102
RTVSPost2010Prop40
 90
        0
102
RTVSPost2010PropOp40
 70
     0
102
RTVSPost2010Prop41ColorIndex
 90
       18
102
RTVSPost2010Prop41ColorRGB
 90
        0
102
RTVSPost2010PropOp41
 70
     0
102
RTVSPost2010Prop42
 90
       50
102
RTVSPost2010PropOp42
 70
     0
102
RTVSPost2010Prop43
 90
        3
102
RTVSPost2010PropOp43
 70
     0
102
RTVSPost2010Prop44ColorIndex
 90
        5
102
RTVSPost2010Prop44ColorRGB
 90
      255
102
RTVSPost2010PropOp44
 70
     0
102
RTVSPost2010Prop45
280
     0
102
RTVSPost2010PropOp45
 70
     0
102
RTVSPost2010Prop46
 90
       50
102
RTVSPost2010PropOp46
 70
     0
102
RTVSPost2010Prop47
 90
       50
102
RTVSPost2010PropOp47
 70
     0
102
RTVSPost2010Prop48
 90
       50
102
RTVSPost2010PropOp48
 70
     0
102
RTVSPost2010Prop49
280
     0
102
RTVSPost2010PropOp49
 70
     0
102
RTVSPost2010Prop50
 90
       50
102
RTVSPost2010PropOp50
 70
     0
102
RTVSPost2010Prop51ColorIndex
 90
      256
102
RTVSPost2010Prop51ColorRGB
 90
-16777216
102
RTVSPost2010PropOp51
 70
     0
102
RTVSPost2010Prop52
140
1.0
102
RTVSPost2010PropOp52
 70
     0
102
RTVSPost2010Prop53
 90
        2
102
RTVSPost2010PropOp53
 70
     0
102
RTVSPost2010Prop54
  1
strokes_ogs.tif
102
RTVSPost2010PropOp54
 70
     0
102
RTVSPost2010Prop55
280
     0
102
RTVSPost2010PropOp55
 70
     0
102
RTVSPost2010Prop56
140
1.0
102
RTVSPost2010PropOp56
 70
     0
102
RTVSPost2010Prop57
140
1.0
102
RTVSPost2010PropOp57
 70
     0
  0
XRECORD
  5
337
102
{ACAD_REACTORS
330
336
102
}
330
336
100
AcDbXrecord
280
     1
102
RTVSPropertyOp0
 70
     1
102
RTVSPropertyOp1
 70
     1
102
RTVSPropertyOp2
 70
     1
102
RTVSPropertyOp3
 70
     1
102
RTVSPropertyOp4
 70
     1
102
RTVSPropertyOp5
 70
     1
102
RTVSPropertyOp6
 70
     1
102
RTVSPropertyOp7
 70
     1
102
RTVSPropertyOp8
 70
     1
102
RTVSPropertyOp9
 70
     1
102
RTVSPropertyOp10
 70
     1
102
RTVSPropertyOp11
 70
     1
102
RTVSPropertyOp12
 70
     1
102
RTVSPropertyOp13
 70
     1
102
RTVSPropertyOp14
 70
     1
102
RTVSPropertyOp15
 70
     1
102
RTVSPropertyOp16
 70
     1
102
RTVSPropertyOp17
 70
     1
102
RTVSPropertyOp18
 70
     1
102
RTVSPropertyOp19
 70
     1
102
RTVSPropertyOp20
 70
     1
102
RTVSPropertyOp21
 70
     1
102
RTVSPropertyOp22
 70
     1
102
RTVSPropertyOp23
 70
     1
102
RTVSPropertyOp24
 70
     1
102
RTVSPropertyOp25
 70
     1
102
RTVSPropertyOp26
 70
     1
102
RTVSPropertyOp27
 70
     1
102
RTVSPropertyOp28
 70
     1
102
RTVSPropertyOp29
 70
     1
102
RTVSPropertyOp30
 70
     1
102
RTVSPropertyOp31
 70
     1
102
RTVSPropertyOp32
 70
     1
102
RTVSPropertyOp33
 70
     1
102
RTVSPropertyOp34
 70
     1
102
RTVSPropertyOp35
 70
     1
102
RTVSPropertyOp36
 70
     1
102
RTVSPropertyOp37
 70
     1
102
RTVSPropertyOp38
 70
     1
102
RTVSPropertyOp39
 70
     1
102
RTVSPropertyOp40
 70
     1
102
RTVSPropertyOp41
 70
     1
102
RTVSPropertyOp42
 70
     1
102
RTVSPropertyOp43
 70
     1
102
RTVSPropertyOp44
 70
     1
102
RTVSPropertyOp45
 70
     1
102
RTVSPropertyOp46
 70
     1
102
RTVSPropertyOp47
 70
     1
102
RTVSPropertyOp48
 70
     1
102
RTVSPropertyOp49
 70
     1
102
RTVSPropertyOp50
 70
     1
102
RTVSPropertyOp51
 70
     0
102
RTVSPropertyOp52
 70
     0
102
RTVSPropertyOp53
 70
     1
102
RTVSPropertyOp54
 70
     1
102
RTVSPropertyOp55
 70
     1
102
RTVSPropertyOp56
 70
     1
102
RTVSPropertyOp57
 70
     1
102
RTVSPost2010Prop28
280
     0
102
RTVSPost2010PropOp28
 70
     1
102
RTVSPost2010Prop29
280
     1
102
RTVSPost2010PropOp29
 70
     1
102
RTVSPost2010Prop30
280
     1
102
RTVSPost2010PropOp30
 70
     1
102
RTVSPost2010Prop31
280
     0
102
RTVSPost2010PropOp31
 70
     1
102
RTVSPost2010Prop32
280
     0
102
RTVSPost2010PropOp32
 70
     1
102
RTVSPost2010Prop33
280
     0
102
RTVSPost2010PropOp33
 70
     1
102
RTVSPost2010Prop34
280
     0
102
RTVSPost2010PropOp34
 70
     1
102
RTVSPost2010Prop35
280
     0
102
RTVSPost2010PropOp35
 70
     1
102
RTVSPost2010Prop36
280
     0
102
RTVSPost2010PropOp36
 70
     1
102
RTVSPost2010Prop37
 90
       50
102
RTVSPost2010PropOp37
 70
     1
102
RTVSPost2010Prop38
140
0.0
102
RTVSPost2010PropOp38
 70
     1
102
RTVSPost2010Prop39
140
1.0
102
RTVSPost2010PropOp39
 70
     1
102
RTVSPost2010Prop40
 90
        0
102
RTVSPost2010PropOp40
 70
     1
102
RTVSPost2010Prop41ColorIndex
 90
       18
102
RTVSPost2010Prop41ColorRGB
 90
        0
102
RTVSPost2010PropOp41
 70
     1
102
RTVSPost2010Prop42
 90
       50
102
RTVSPost2010PropOp42
 70
     1
102
RTVSPost2010Prop43
 90
        3
102
RTVSPost2010PropOp43
 70
     1
102
RTVSPost2010Prop44ColorIndex
 90
        5
102
RTVSPost2010Prop44ColorRGB
 90
      255
102
RTVSPost2010PropOp44
 70
     1
102
RTVSPost2010Prop45
280
     0
102
RTVSPost2010PropOp45
 70
     1
102
RTVSPost2010Prop46
 90
       50
102
RTVSPost2010PropOp46
 70
     1
102
RTVSPost2010Prop47
 90
       50
102
RTVSPost2010PropOp47
 70
     1
102
RTVSPost2010Prop48
 90
       50
102
RTVSPost2010PropOp48
 70
     1
102
RTVSPost2010Prop49
280
     0
102
RTVSPost2010PropOp49
 70
     1
102
RTVSPost2010Prop50
 90
       50
102
RTVSPost2010PropOp50
 70
     1
102
RTVSPost2010Prop51ColorIndex
 90
      256
102
RTVSPost2010Prop51ColorRGB
 90
-16777216
102
RTVSPost2010PropOp51
 70
     0
102
RTVSPost2010Prop52
140
1.0
102
RTVSPost2010PropOp52
 70
     0
102
RTVSPost2010Prop53
 90
        2
102
RTVSPost2010PropOp53
 70
     1
102
RTVSPost2010Prop54
  1
strokes_ogs.tif
102
RTVSPost2010PropOp54
 70
     1
102
RTVSPost2010Prop55
280
     0
102
RTVSPost2010PropOp55
 70
     1
102
RTVSPost2010Prop56
140
1.0
102
RTVSPost2010PropOp56
 70
     1
102
RTVSPost2010Prop57
140
1.0
102
RTVSPost2010PropOp57
 70
     1
  0
XRECORD
  5
355
102
{ACAD_REACTORS
330
354
102
}
330
354
100
AcDbXrecord
280
     1
102
RTVSPropertyOp0
 70
     1
102
RTVSPropertyOp1
 70
     1
102
RTVSPropertyOp2
 70
     1
102
RTVSPropertyOp3
 70
     1
102
RTVSPropertyOp4
 70
     1
102
RTVSPropertyOp5
 70
     1
102
RTVSPropertyOp6
 70
     1
102
RTVSPropertyOp7
 70
     1
102
RTVSPropertyOp8
 70
     1
102
RTVSPropertyOp9
 70
     1
102
RTVSPropertyOp10
 70
     1
102
RTVSPropertyOp11
 70
     1
102
RTVSPropertyOp12
 70
     1
102
RTVSPropertyOp13
 70
     1
102
RTVSPropertyOp14
 70
     1
102
RTVSPropertyOp15
 70
     1
102
RTVSPropertyOp16
 70
     1
102
RTVSPropertyOp17
 70
     1
102
RTVSPropertyOp18
 70
     1
102
RTVSPropertyOp19
 70
     1
102
RTVSPropertyOp20
 70
     1
102
RTVSPropertyOp21
 70
     1
102
RTVSPropertyOp22
 70
     1
102
RTVSPropertyOp23
 70
     1
102
RTVSPropertyOp24
 70
     1
102
RTVSPropertyOp25
 70
     1
102
RTVSPropertyOp26
 70
     1
102
RTVSPropertyOp27
 70
     1
102
RTVSPropertyOp28
 70
     1
102
RTVSPropertyOp29
 70
     1
102
RTVSPropertyOp30
 70
     1
102
RTVSPropertyOp31
 70
     1
102
RTVSPropertyOp32
 70
     1
102
RTVSPropertyOp33
 70
     1
102
RTVSPropertyOp34
 70
     1
102
RTVSPropertyOp35
 70
     1
102
RTVSPropertyOp36
 70
     1
102
RTVSPropertyOp37
 70
     1
102
RTVSPropertyOp38
 70
     1
102
RTVSPropertyOp39
 70
     1
102
RTVSPropertyOp40
 70
     1
102
RTVSPropertyOp41
 70
     1
102
RTVSPropertyOp42
 70
     1
102
RTVSPropertyOp43
 70
     1
102
RTVSPropertyOp44
 70
     1
102
RTVSPropertyOp45
 70
     1
102
RTVSPropertyOp46
 70
     1
102
RTVSPropertyOp47
 70
     1
102
RTVSPropertyOp48
 70
     1
102
RTVSPropertyOp49
 70
     1
102
RTVSPropertyOp50
 70
     1
102
RTVSPropertyOp51
 70
     0
102
RTVSPropertyOp52
 70
     0
102
RTVSPropertyOp53
 70
     1
102
RTVSPropertyOp54
 70
     1
102
RTVSPropertyOp55
 70
     1
102
RTVSPropertyOp56
 70
     1
102
RTVSPropertyOp57
 70
     1
102
RTVSPost2010Prop28
280
     0
102
RTVSPost2010PropOp28
 70
     1
102
RTVSPost2010Prop29
280
     1
102
RTVSPost2010PropOp29
 70
     1
102
RTVSPost2010Prop30
280
     1
102
RTVSPost2010PropOp30
 70
     1
102
RTVSPost2010Prop31
280
     0
102
RTVSPost2010PropOp31
 70
     1
102
RTVSPost2010Prop32
280
     0
102
RTVSPost2010PropOp32
 70
     1
102
RTVSPost2010Prop33
280
     0
102
RTVSPost2010PropOp33
 70
     1
102
RTVSPost2010Prop34
280
     0
102
RTVSPost2010PropOp34
 70
     1
102
RTVSPost2010Prop35
280
     0
102
RTVSPost2010PropOp35
 70
     1
102
RTVSPost2010Prop36
280
     0
102
RTVSPost2010PropOp36
 70
     1
102
RTVSPost2010Prop37
 90
       50
102
RTVSPost2010PropOp37
 70
     1
102
RTVSPost2010Prop38
140
0.0
102
RTVSPost2010PropOp38
 70
     1
102
RTVSPost2010Prop39
140
1.0
102
RTVSPost2010PropOp39
 70
     1
102
RTVSPost2010Prop40
 90
        0
102
RTVSPost2010PropOp40
 70
     1
102
RTVSPost2010Prop41ColorIndex
 90
       18
102
RTVSPost2010Prop41ColorRGB
 90
        0
102
RTVSPost2010PropOp41
 70
     1
102
RTVSPost2010Prop42
 90
       50
102
RTVSPost2010PropOp42
 70
     1
102
RTVSPost2010Prop43
 90
        3
102
RTVSPost2010PropOp43
 70
     1
102
RTVSPost2010Prop44ColorIndex
 90
        5
102
RTVSPost2010Prop44ColorRGB
 90
      255
102
RTVSPost2010PropOp44
 70
     1
102
RTVSPost2010Prop45
280
     0
102
RTVSPost2010PropOp45
 70
     1
102
RTVSPost2010Prop46
 90
       50
102
RTVSPost2010PropOp46
 70
     1
102
RTVSPost2010Prop47
 90
       50
102
RTVSPost2010PropOp47
 70
     1
102
RTVSPost2010Prop48
 90
       50
102
RTVSPost2010PropOp48
 70
     1
102
RTVSPost2010Prop49
280
     0
102
RTVSPost2010PropOp49
 70
     1
102
RTVSPost2010Prop50
 90
       50
102
RTVSPost2010PropOp50
 70
     1
102
RTVSPost2010Prop51ColorIndex
 90
      256
102
RTVSPost2010Prop51ColorRGB
 90
-16777216
102
RTVSPost2010PropOp51
 70
     0
102
RTVSPost2010Prop52
140
1.0
102
RTVSPost2010PropOp52
 70
     0
102
RTVSPost2010Prop53
 90
        2
102
RTVSPost2010PropOp53
 70
     1
102
RTVSPost2010Prop54
  1
strokes_ogs.tif
102
RTVSPost2010PropOp54
 70
     1
102
RTVSPost2010Prop55
280
     0
102
RTVSPost2010PropOp55
 70
     1
102
RTVSPost2010Prop56
140
1.0
102
RTVSPost2010PropOp56
 70
     1
102
RTVSPost2010Prop57
140
1.0
102
RTVSPost2010PropOp57
 70
     1
  0
XRECORD
  5
353
102
{ACAD_REACTORS
330
352
102
}
330
352
100
AcDbXrecord
280
     1
102
RTVSPropertyOp0
 70
     1
102
RTVSPropertyOp1
 70
     1
102
RTVSPropertyOp2
 70
     1
102
RTVSPropertyOp3
 70
     1
102
RTVSPropertyOp4
 70
     1
102
RTVSPropertyOp5
 70
     1
102
RTVSPropertyOp6
 70
     1
102
RTVSPropertyOp7
 70
     1
102
RTVSPropertyOp8
 70
     1
102
RTVSPropertyOp9
 70
     1
102
RTVSPropertyOp10
 70
     1
102
RTVSPropertyOp11
 70
     1
102
RTVSPropertyOp12
 70
     1
102
RTVSPropertyOp13
 70
     1
102
RTVSPropertyOp14
 70
     1
102
RTVSPropertyOp15
 70
     1
102
RTVSPropertyOp16
 70
     1
102
RTVSPropertyOp17
 70
     1
102
RTVSPropertyOp18
 70
     1
102
RTVSPropertyOp19
 70
     1
102
RTVSPropertyOp20
 70
     1
102
RTVSPropertyOp21
 70
     1
102
RTVSPropertyOp22
 70
     1
102
RTVSPropertyOp23
 70
     1
102
RTVSPropertyOp24
 70
     1
102
RTVSPropertyOp25
 70
     1
102
RTVSPropertyOp26
 70
     1
102
RTVSPropertyOp27
 70
     1
102
RTVSPropertyOp28
 70
     1
102
RTVSPropertyOp29
 70
     1
102
RTVSPropertyOp30
 70
     1
102
RTVSPropertyOp31
 70
     1
102
RTVSPropertyOp32
 70
     1
102
RTVSPropertyOp33
 70
     1
102
RTVSPropertyOp34
 70
     1
102
RTVSPropertyOp35
 70
     1
102
RTVSPropertyOp36
 70
     1
102
RTVSPropertyOp37
 70
     1
102
RTVSPropertyOp38
 70
     1
102
RTVSPropertyOp39
 70
     1
102
RTVSPropertyOp40
 70
     1
102
RTVSPropertyOp41
 70
     1
102
RTVSPropertyOp42
 70
     1
102
RTVSPropertyOp43
 70
     1
102
RTVSPropertyOp44
 70
     1
102
RTVSPropertyOp45
 70
     1
102
RTVSPropertyOp46
 70
     1
102
RTVSPropertyOp47
 70
     1
102
RTVSPropertyOp48
 70
     1
102
RTVSPropertyOp49
 70
     1
102
RTVSPropertyOp50
 70
     1
102
RTVSPropertyOp51
 70
     0
102
RTVSPropertyOp52
 70
     0
102
RTVSPropertyOp53
 70
     1
102
RTVSPropertyOp54
 70
     1
102
RTVSPropertyOp55
 70
     1
102
RTVSPropertyOp56
 70
     1
102
RTVSPropertyOp57
 70
     1
102
RTVSPost2010Prop28
280
     0
102
RTVSPost2010PropOp28
 70
     1
102
RTVSPost2010Prop29
280
     1
102
RTVSPost2010PropOp29
 70
     1
102
RTVSPost2010Prop30
280
     1
102
RTVSPost2010PropOp30
 70
     1
102
RTVSPost2010Prop31
280
     0
102
RTVSPost2010PropOp31
 70
     1
102
RTVSPost2010Prop32
280
     0
102
RTVSPost2010PropOp32
 70
     1
102
RTVSPost2010Prop33
280
     0
102
RTVSPost2010PropOp33
 70
     1
102
RTVSPost2010Prop34
280
     0
102
RTVSPost2010PropOp34
 70
     1
102
RTVSPost2010Prop35
280
     0
102
RTVSPost2010PropOp35
 70
     1
102
RTVSPost2010Prop36
280
     0
102
RTVSPost2010PropOp36
 70
     1
102
RTVSPost2010Prop37
 90
       50
102
RTVSPost2010PropOp37
 70
     1
102
RTVSPost2010Prop38
140
0.0
102
RTVSPost2010PropOp38
 70
     1
102
RTVSPost2010Prop39
140
1.0
102
RTVSPost2010PropOp39
 70
     1
102
RTVSPost2010Prop40
 90
        0
102
RTVSPost2010PropOp40
 70
     1
102
RTVSPost2010Prop41ColorIndex
 90
       18
102
RTVSPost2010Prop41ColorRGB
 90
        0
102
RTVSPost2010PropOp41
 70
     1
102
RTVSPost2010Prop42
 90
       50
102
RTVSPost2010PropOp42
 70
     1
102
RTVSPost2010Prop43
 90
        3
102
RTVSPost2010PropOp43
 70
     1
102
RTVSPost2010Prop44ColorIndex
 90
        5
102
RTVSPost2010Prop44ColorRGB
 90
      255
102
RTVSPost2010PropOp44
 70
     1
102
RTVSPost2010Prop45
280
     0
102
RTVSPost2010PropOp45
 70
     1
102
RTVSPost2010Prop46
 90
       50
102
RTVSPost2010PropOp46
 70
     1
102
RTVSPost2010Prop47
 90
       50
102
RTVSPost2010PropOp47
 70
     1
102
RTVSPost2010Prop48
 90
       50
102
RTVSPost2010PropOp48
 70
     1
102
RTVSPost2010Prop49
280
     0
102
RTVSPost2010PropOp49
 70
     1
102
RTVSPost2010Prop50
 90
       50
102
RTVSPost2010PropOp50
 70
     1
102
RTVSPost2010Prop51ColorIndex
 90
      256
102
RTVSPost2010Prop51ColorRGB
 90
-16777216
102
RTVSPost2010PropOp51
 70
     0
102
RTVSPost2010Prop52
140
1.0
102
RTVSPost2010PropOp52
 70
     0
102
RTVSPost2010Prop53
 90
        2
102
RTVSPost2010PropOp53
 70
     1
102
RTVSPost2010Prop54
  1
strokes_ogs.tif
102
RTVSPost2010PropOp54
 70
     1
102
RTVSPost2010Prop55
280
     0
102
RTVSPost2010PropOp55
 70
     1
102
RTVSPost2010Prop56
140
1.0
102
RTVSPost2010PropOp56
 70
     1
102
RTVSPost2010Prop57
140
1.0
102
RTVSPost2010PropOp57
 70
     1
  0
XRECORD
  5
34D
102
{ACAD_REACTORS
330
34C
102
}
330
34C
100
AcDbXrecord
280
     1
102
RTVSPropertyOp0
 70
     1
102
RTVSPropertyOp1
 70
     1
102
RTVSPropertyOp2
 70
     1
102
RTVSPropertyOp3
 70
     1
102
RTVSPropertyOp4
 70
     1
102
RTVSPropertyOp5
 70
     1
102
RTVSPropertyOp6
 70
     1
102
RTVSPropertyOp7
 70
     1
102
RTVSPropertyOp8
 70
     1
102
RTVSPropertyOp9
 70
     1
102
RTVSPropertyOp10
 70
     1
102
RTVSPropertyOp11
 70
     1
102
RTVSPropertyOp12
 70
     1
102
RTVSPropertyOp13
 70
     1
102
RTVSPropertyOp14
 70
     1
102
RTVSPropertyOp15
 70
     1
102
RTVSPropertyOp16
 70
     1
102
RTVSPropertyOp17
 70
     1
102
RTVSPropertyOp18
 70
     1
102
RTVSPropertyOp19
 70
     1
102
RTVSPropertyOp20
 70
     1
102
RTVSPropertyOp21
 70
     1
102
RTVSPropertyOp22
 70
     1
102
RTVSPropertyOp23
 70
     1
102
RTVSPropertyOp24
 70
     1
102
RTVSPropertyOp25
 70
     1
102
RTVSPropertyOp26
 70
     1
102
RTVSPropertyOp27
 70
     1
102
RTVSPropertyOp28
 70
     1
102
RTVSPropertyOp29
 70
     1
102
RTVSPropertyOp30
 70
     1
102
RTVSPropertyOp31
 70
     1
102
RTVSPropertyOp32
 70
     1
102
RTVSPropertyOp33
 70
     1
102
RTVSPropertyOp34
 70
     1
102
RTVSPropertyOp35
 70
     1
102
RTVSPropertyOp36
 70
     1
102
RTVSPropertyOp37
 70
     1
102
RTVSPropertyOp38
 70
     1
102
RTVSPropertyOp39
 70
     1
102
RTVSPropertyOp40
 70
     1
102
RTVSPropertyOp41
 70
     1
102
RTVSPropertyOp42
 70
     1
102
RTVSPropertyOp43
 70
     1
102
RTVSPropertyOp44
 70
     1
102
RTVSPropertyOp45
 70
     1
102
RTVSPropertyOp46
 70
     1
102
RTVSPropertyOp47
 70
     1
102
RTVSPropertyOp48
 70
     1
102
RTVSPropertyOp49
 70
     1
102
RTVSPropertyOp50
 70
     1
102
RTVSPropertyOp51
 70
     0
102
RTVSPropertyOp52
 70
     0
102
RTVSPropertyOp53
 70
     1
102
RTVSPropertyOp54
 70
     1
102
RTVSPropertyOp55
 70
     1
102
RTVSPropertyOp56
 70
     1
102
RTVSPropertyOp57
 70
     1
102
RTVSPost2010Prop28
280
     0
102
RTVSPost2010PropOp28
 70
     1
102
RTVSPost2010Prop29
280
     1
102
RTVSPost2010PropOp29
 70
     1
102
RTVSPost2010Prop30
280
     1
102
RTVSPost2010PropOp30
 70
     1
102
RTVSPost2010Prop31
280
     0
102
RTVSPost2010PropOp31
 70
     1
102
RTVSPost2010Prop32
280
     0
102
RTVSPost2010PropOp32
 70
     1
102
RTVSPost2010Prop33
280
     0
102
RTVSPost2010PropOp33
 70
     1
102
RTVSPost2010Prop34
280
     0
102
RTVSPost2010PropOp34
 70
     1
102
RTVSPost2010Prop35
280
     0
102
RTVSPost2010PropOp35
 70
     1
102
RTVSPost2010Prop36
280
     0
102
RTVSPost2010PropOp36
 70
     1
102
RTVSPost2010Prop37
 90
       50
102
RTVSPost2010PropOp37
 70
     1
102
RTVSPost2010Prop38
140
0.0
102
RTVSPost2010PropOp38
 70
     1
102
RTVSPost2010Prop39
140
1.0
102
RTVSPost2010PropOp39
 70
     1
102
RTVSPost2010Prop40
 90
        0
102
RTVSPost2010PropOp40
 70
     1
102
RTVSPost2010Prop41ColorIndex
 90
       18
102
RTVSPost2010Prop41ColorRGB
 90
        0
102
RTVSPost2010PropOp41
 70
     1
102
RTVSPost2010Prop42
 90
       50
102
RTVSPost2010PropOp42
 70
     1
102
RTVSPost2010Prop43
 90
        3
102
RTVSPost2010PropOp43
 70
     1
102
RTVSPost2010Prop44ColorIndex
 90
        5
102
RTVSPost2010Prop44ColorRGB
 90
      255
102
RTVSPost2010PropOp44
 70
     1
102
RTVSPost2010Prop45
280
     0
102
RTVSPost2010PropOp45
 70
     1
102
RTVSPost2010Prop46
 90
       50
102
RTVSPost2010PropOp46
 70
     1
102
RTVSPost2010Prop47
 90
       50
102
RTVSPost2010PropOp47
 70
     1
102
RTVSPost2010Prop48
 90
       50
102
RTVSPost2010PropOp48
 70
     1
102
RTVSPost2010Prop49
280
     0
102
RTVSPost2010PropOp49
 70
     1
102
RTVSPost2010Prop50
 90
       50
102
RTVSPost2010PropOp50
 70
     1
102
RTVSPost2010Prop51ColorIndex
 90
      256
102
RTVSPost2010Prop51ColorRGB
 90
-16777216
102
RTVSPost2010PropOp51
 70
     0
102
RTVSPost2010Prop52
140
1.0
102
RTVSPost2010PropOp52
 70
     0
102
RTVSPost2010Prop53
 90
        2
102
RTVSPost2010PropOp53
 70
     1
102
RTVSPost2010Prop54
  1
strokes_ogs.tif
102
RTVSPost2010PropOp54
 70
     1
102
RTVSPost2010Prop55
280
     0
102
RTVSPost2010PropOp55
 70
     1
102
RTVSPost2010Prop56
140
1.0
102
RTVSPost2010PropOp56
 70
     1
102
RTVSPost2010Prop57
140
1.0
102
RTVSPost2010PropOp57
 70
     1
  0
XRECORD
  5
34F
102
{ACAD_REACTORS
330
34E
102
}
330
34E
100
AcDbXrecord
280
     1
102
RTVSPropertyOp0
 70
     1
102
RTVSPropertyOp1
 70
     1
102
RTVSPropertyOp2
 70
     1
102
RTVSPropertyOp3
 70
     1
102
RTVSPropertyOp4
 70
     1
102
RTVSPropertyOp5
 70
     1
102
RTVSPropertyOp6
 70
     1
102
RTVSPropertyOp7
 70
     1
102
RTVSPropertyOp8
 70
     1
102
RTVSPropertyOp9
 70
     1
102
RTVSPropertyOp10
 70
     1
102
RTVSPropertyOp11
 70
     1
102
RTVSPropertyOp12
 70
     1
102
RTVSPropertyOp13
 70
     1
102
RTVSPropertyOp14
 70
     1
102
RTVSPropertyOp15
 70
     1
102
RTVSPropertyOp16
 70
     1
102
RTVSPropertyOp17
 70
     1
102
RTVSPropertyOp18
 70
     1
102
RTVSPropertyOp19
 70
     1
102
RTVSPropertyOp20
 70
     1
102
RTVSPropertyOp21
 70
     1
102
RTVSPropertyOp22
 70
     1
102
RTVSPropertyOp23
 70
     1
102
RTVSPropertyOp24
 70
     1
102
RTVSPropertyOp25
 70
     1
102
RTVSPropertyOp26
 70
     1
102
RTVSPropertyOp27
 70
     1
102
RTVSPropertyOp28
 70
     1
102
RTVSPropertyOp29
 70
     1
102
RTVSPropertyOp30
 70
     1
102
RTVSPropertyOp31
 70
     1
102
RTVSPropertyOp32
 70
     1
102
RTVSPropertyOp33
 70
     1
102
RTVSPropertyOp34
 70
     1
102
RTVSPropertyOp35
 70
     1
102
RTVSPropertyOp36
 70
     1
102
RTVSPropertyOp37
 70
     1
102
RTVSPropertyOp38
 70
     1
102
RTVSPropertyOp39
 70
     1
102
RTVSPropertyOp40
 70
     1
102
RTVSPropertyOp41
 70
     1
102
RTVSPropertyOp42
 70
     1
102
RTVSPropertyOp43
 70
     1
102
RTVSPropertyOp44
 70
     1
102
RTVSPropertyOp45
 70
     1
102
RTVSPropertyOp46
 70
     1
102
RTVSPropertyOp47
 70
     1
102
RTVSPropertyOp48
 70
     1
102
RTVSPropertyOp49
 70
     1
102
RTVSPropertyOp50
 70
     1
102
RTVSPropertyOp51
 70
     0
102
RTVSPropertyOp52
 70
     0
102
RTVSPropertyOp53
 70
     1
102
RTVSPropertyOp54
 70
     1
102
RTVSPropertyOp55
 70
     1
102
RTVSPropertyOp56
 70
     1
102
RTVSPropertyOp57
 70
     1
102
RTVSPost2010Prop28
280
     0
102
RTVSPost2010PropOp28
 70
     1
102
RTVSPost2010Prop29
280
     1
102
RTVSPost2010PropOp29
 70
     1
102
RTVSPost2010Prop30
280
     1
102
RTVSPost2010PropOp30
 70
     1
102
RTVSPost2010Prop31
280
     0
102
RTVSPost2010PropOp31
 70
     1
102
RTVSPost2010Prop32
280
     0
102
RTVSPost2010PropOp32
 70
     1
102
RTVSPost2010Prop33
280
     0
102
RTVSPost2010PropOp33
 70
     1
102
RTVSPost2010Prop34
280
     0
102
RTVSPost2010PropOp34
 70
     1
102
RTVSPost2010Prop35
280
     0
102
RTVSPost2010PropOp35
 70
     1
102
RTVSPost2010Prop36
280
     0
102
RTVSPost2010PropOp36
 70
     1
102
RTVSPost2010Prop37
 90
       50
102
RTVSPost2010PropOp37
 70
     1
102
RTVSPost2010Prop38
140
0.0
102
RTVSPost2010PropOp38
 70
     1
102
RTVSPost2010Prop39
140
1.0
102
RTVSPost2010PropOp39
 70
     1
102
RTVSPost2010Prop40
 90
        0
102
RTVSPost2010PropOp40
 70
     1
102
RTVSPost2010Prop41ColorIndex
 90
       18
102
RTVSPost2010Prop41ColorRGB
 90
        0
102
RTVSPost2010PropOp41
 70
     1
102
RTVSPost2010Prop42
 90
       50
102
RTVSPost2010PropOp42
 70
     1
102
RTVSPost2010Prop43
 90
        3
102
RTVSPost2010PropOp43
 70
     1
102
RTVSPost2010Prop44ColorIndex
 90
        5
102
RTVSPost2010Prop44ColorRGB
 90
      255
102
RTVSPost2010PropOp44
 70
     1
102
RTVSPost2010Prop45
280
     0
102
RTVSPost2010PropOp45
 70
     1
102
RTVSPost2010Prop46
 90
       50
102
RTVSPost2010PropOp46
 70
     1
102
RTVSPost2010Prop47
 90
       50
102
RTVSPost2010PropOp47
 70
     1
102
RTVSPost2010Prop48
 90
       50
102
RTVSPost2010PropOp48
 70
     1
102
RTVSPost2010Prop49
280
     0
102
RTVSPost2010PropOp49
 70
     1
102
RTVSPost2010Prop50
 90
       50
102
RTVSPost2010PropOp50
 70
     1
102
RTVSPost2010Prop51ColorIndex
 90
      256
102
RTVSPost2010Prop51ColorRGB
 90
-16777216
102
RTVSPost2010PropOp51
 70
     0
102
RTVSPost2010Prop52
140
1.0
102
RTVSPost2010PropOp52
 70
     0
102
RTVSPost2010Prop53
 90
        2
102
RTVSPost2010PropOp53
 70
     1
102
RTVSPost2010Prop54
  1
strokes_ogs.tif
102
RTVSPost2010PropOp54
 70
     1
102
RTVSPost2010Prop55
280
     0
102
RTVSPost2010PropOp55
 70
     1
102
RTVSPost2010Prop56
140
1.0
102
RTVSPost2010PropOp56
 70
     1
102
RTVSPost2010Prop57
140
1.0
102
RTVSPost2010PropOp57
 70
     1
  0
XRECORD
  5
33F
102
{ACAD_REACTORS
330
33E
102
}
330
33E
100
AcDbXrecord
280
     1
102
RTVSPropertyOp0
 70
     1
102
RTVSPropertyOp1
 70
     1
102
RTVSPropertyOp2
 70
     1
102
RTVSPropertyOp3
 70
     1
102
RTVSPropertyOp4
 70
     1
102
RTVSPropertyOp5
 70
     1
102
RTVSPropertyOp6
 70
     1
102
RTVSPropertyOp7
 70
     1
102
RTVSPropertyOp8
 70
     1
102
RTVSPropertyOp9
 70
     1
102
RTVSPropertyOp10
 70
     1
102
RTVSPropertyOp11
 70
     1
102
RTVSPropertyOp12
 70
     1
102
RTVSPropertyOp13
 70
     1
102
RTVSPropertyOp14
 70
     1
102
RTVSPropertyOp15
 70
     1
102
RTVSPropertyOp16
 70
     1
102
RTVSPropertyOp17
 70
     1
102
RTVSPropertyOp18
 70
     1
102
RTVSPropertyOp19
 70
     1
102
RTVSPropertyOp20
 70
     1
102
RTVSPropertyOp21
 70
     1
102
RTVSPropertyOp22
 70
     1
102
RTVSPropertyOp23
 70
     1
102
RTVSPropertyOp24
 70
     1
102
RTVSPropertyOp25
 70
     1
102
RTVSPropertyOp26
 70
     1
102
RTVSPropertyOp27
 70
     1
102
RTVSPropertyOp28
 70
     1
102
RTVSPropertyOp29
 70
     1
102
RTVSPropertyOp30
 70
     1
102
RTVSPropertyOp31
 70
     1
102
RTVSPropertyOp32
 70
     1
102
RTVSPropertyOp33
 70
     1
102
RTVSPropertyOp34
 70
     1
102
RTVSPropertyOp35
 70
     1
102
RTVSPropertyOp36
 70
     1
102
RTVSPropertyOp37
 70
     1
102
RTVSPropertyOp38
 70
     1
102
RTVSPropertyOp39
 70
     1
102
RTVSPropertyOp40
 70
     1
102
RTVSPropertyOp41
 70
     1
102
RTVSPropertyOp42
 70
     1
102
RTVSPropertyOp43
 70
     1
102
RTVSPropertyOp44
 70
     1
102
RTVSPropertyOp45
 70
     1
102
RTVSPropertyOp46
 70
     1
102
RTVSPropertyOp47
 70
     1
102
RTVSPropertyOp48
 70
     1
102
RTVSPropertyOp49
 70
     1
102
RTVSPropertyOp50
 70
     1
102
RTVSPropertyOp51
 70
     0
102
RTVSPropertyOp52
 70
     0
102
RTVSPropertyOp53
 70
     1
102
RTVSPropertyOp54
 70
     1
102
RTVSPropertyOp55
 70
     1
102
RTVSPropertyOp56
 70
     1
102
RTVSPropertyOp57
 70
     1
102
RTVSPost2010Prop28
280
     0
102
RTVSPost2010PropOp28
 70
     1
102
RTVSPost2010Prop29
280
     1
102
RTVSPost2010PropOp29
 70
     1
102
RTVSPost2010Prop30
280
     1
102
RTVSPost2010PropOp30
 70
     1
102
RTVSPost2010Prop31
280
     0
102
RTVSPost2010PropOp31
 70
     1
102
RTVSPost2010Prop32
280
     0
102
RTVSPost2010PropOp32
 70
     1
102
RTVSPost2010Prop33
280
     0
102
RTVSPost2010PropOp33
 70
     1
102
RTVSPost2010Prop34
280
     0
102
RTVSPost2010PropOp34
 70
     1
102
RTVSPost2010Prop35
280
     0
102
RTVSPost2010PropOp35
 70
     1
102
RTVSPost2010Prop36
280
     0
102
RTVSPost2010PropOp36
 70
     1
102
RTVSPost2010Prop37
 90
       50
102
RTVSPost2010PropOp37
 70
     1
102
RTVSPost2010Prop38
140
0.0
102
RTVSPost2010PropOp38
 70
     1
102
RTVSPost2010Prop39
140
1.0
102
RTVSPost2010PropOp39
 70
     1
102
RTVSPost2010Prop40
 90
        0
102
RTVSPost2010PropOp40
 70
     1
102
RTVSPost2010Prop41ColorIndex
 90
       18
102
RTVSPost2010Prop41ColorRGB
 90
        0
102
RTVSPost2010PropOp41
 70
     1
102
RTVSPost2010Prop42
 90
       50
102
RTVSPost2010PropOp42
 70
     1
102
RTVSPost2010Prop43
 90
        3
102
RTVSPost2010PropOp43
 70
     1
102
RTVSPost2010Prop44ColorIndex
 90
        5
102
RTVSPost2010Prop44ColorRGB
 90
      255
102
RTVSPost2010PropOp44
 70
     1
102
RTVSPost2010Prop45
280
     0
102
RTVSPost2010PropOp45
 70
     1
102
RTVSPost2010Prop46
 90
       50
102
RTVSPost2010PropOp46
 70
     1
102
RTVSPost2010Prop47
 90
       50
102
RTVSPost2010PropOp47
 70
     1
102
RTVSPost2010Prop48
 90
       50
102
RTVSPost2010PropOp48
 70
     1
102
RTVSPost2010Prop49
280
     0
102
RTVSPost2010PropOp49
 70
     1
102
RTVSPost2010Prop50
 90
       50
102
RTVSPost2010PropOp50
 70
     1
102
RTVSPost2010Prop51ColorIndex
 90
      256
102
RTVSPost2010Prop51ColorRGB
 90
-16777216
102
RTVSPost2010PropOp51
 70
     0
102
RTVSPost2010Prop52
140
1.0
102
RTVSPost2010PropOp52
 70
     0
102
RTVSPost2010Prop53
 90
        2
102
RTVSPost2010PropOp53
 70
     1
102
RTVSPost2010Prop54
  1
strokes_ogs.tif
102
RTVSPost2010PropOp54
 70
     1
102
RTVSPost2010Prop55
280
     0
102
RTVSPost2010PropOp55
 70
     1
102
RTVSPost2010Prop56
140
1.0
102
RTVSPost2010PropOp56
 70
     1
102
RTVSPost2010Prop57
140
1.0
102
RTVSPost2010PropOp57
 70
     1
  0
XRECORD
  5
331
102
{ACAD_REACTORS
330
330
102
}
330
330
100
AcDbXrecord
280
     1
102
RTVSPropertyOp0
 70
     1
102
RTVSPropertyOp1
 70
     1
102
RTVSPropertyOp2
 70
     1
102
RTVSPropertyOp3
 70
     1
102
RTVSPropertyOp4
 70
     1
102
RTVSPropertyOp5
 70
     1
102
RTVSPropertyOp6
 70
     1
102
RTVSPropertyOp7
 70
     1
102
RTVSPropertyOp8
 70
     1
102
RTVSPropertyOp9
 70
     1
102
RTVSPropertyOp10
 70
     1
102
RTVSPropertyOp11
 70
     1
102
RTVSPropertyOp12
 70
     1
102
RTVSPropertyOp13
 70
     1
102
RTVSPropertyOp14
 70
     1
102
RTVSPropertyOp15
 70
     1
102
RTVSPropertyOp16
 70
     1
102
RTVSPropertyOp17
 70
     1
102
RTVSPropertyOp18
 70
     1
102
RTVSPropertyOp19
 70
     1
102
RTVSPropertyOp20
 70
     1
102
RTVSPropertyOp21
 70
     1
102
RTVSPropertyOp22
 70
     1
102
RTVSPropertyOp23
 70
     1
102
RTVSPropertyOp24
 70
     1
102
RTVSPropertyOp25
 70
     1
102
RTVSPropertyOp26
 70
     1
102
RTVSPropertyOp27
 70
     1
102
RTVSPropertyOp28
 70
     1
102
RTVSPropertyOp29
 70
     1
102
RTVSPropertyOp30
 70
     1
102
RTVSPropertyOp31
 70
     1
102
RTVSPropertyOp32
 70
     1
102
RTVSPropertyOp33
 70
     1
102
RTVSPropertyOp34
 70
     1
102
RTVSPropertyOp35
 70
     1
102
RTVSPropertyOp36
 70
     1
102
RTVSPropertyOp37
 70
     1
102
RTVSPropertyOp38
 70
     1
102
RTVSPropertyOp39
 70
     1
102
RTVSPropertyOp40
 70
     1
102
RTVSPropertyOp41
 70
     1
102
RTVSPropertyOp42
 70
     1
102
RTVSPropertyOp43
 70
     1
102
RTVSPropertyOp44
 70
     1
102
RTVSPropertyOp45
 70
     1
102
RTVSPropertyOp46
 70
     1
102
RTVSPropertyOp47
 70
     1
102
RTVSPropertyOp48
 70
     1
102
RTVSPropertyOp49
 70
     1
102
RTVSPropertyOp50
 70
     1
102
RTVSPropertyOp51
 70
     0
102
RTVSPropertyOp52
 70
     0
102
RTVSPropertyOp53
 70
     1
102
RTVSPropertyOp54
 70
     1
102
RTVSPropertyOp55
 70
     1
102
RTVSPropertyOp56
 70
     1
102
RTVSPropertyOp57
 70
     1
102
RTVSPost2010Prop28
280
     0
102
RTVSPost2010PropOp28
 70
     1
102
RTVSPost2010Prop29
280
     1
102
RTVSPost2010PropOp29
 70
     1
102
RTVSPost2010Prop30
280
     1
102
RTVSPost2010PropOp30
 70
     1
102
RTVSPost2010Prop31
280
     0
102
RTVSPost2010PropOp31
 70
     1
102
RTVSPost2010Prop32
280
     0
102
RTVSPost2010PropOp32
 70
     1
102
RTVSPost2010Prop33
280
     0
102
RTVSPost2010PropOp33
 70
     1
102
RTVSPost2010Prop34
280
     0
102
RTVSPost2010PropOp34
 70
     1
102
RTVSPost2010Prop35
280
     0
102
RTVSPost2010PropOp35
 70
     1
102
RTVSPost2010Prop36
280
     0
102
RTVSPost2010PropOp36
 70
     1
102
RTVSPost2010Prop37
 90
       50
102
RTVSPost2010PropOp37
 70
     1
102
RTVSPost2010Prop38
140
0.0
102
RTVSPost2010PropOp38
 70
     1
102
RTVSPost2010Prop39
140
1.0
102
RTVSPost2010PropOp39
 70
     1
102
RTVSPost2010Prop40
 90
        0
102
RTVSPost2010PropOp40
 70
     1
102
RTVSPost2010Prop41ColorIndex
 90
       18
102
RTVSPost2010Prop41ColorRGB
 90
        0
102
RTVSPost2010PropOp41
 70
     1
102
RTVSPost2010Prop42
 90
       50
102
RTVSPost2010PropOp42
 70
     1
102
RTVSPost2010Prop43
 90
        3
102
RTVSPost2010PropOp43
 70
     1
102
RTVSPost2010Prop44ColorIndex
 90
        5
102
RTVSPost2010Prop44ColorRGB
 90
      255
102
RTVSPost2010PropOp44
 70
     1
102
RTVSPost2010Prop45
280
     0
102
RTVSPost2010PropOp45
 70
     1
102
RTVSPost2010Prop46
 90
       50
102
RTVSPost2010PropOp46
 70
     1
102
RTVSPost2010Prop47
 90
       50
102
RTVSPost2010PropOp47
 70
     1
102
RTVSPost2010Prop48
 90
       50
102
RTVSPost2010PropOp48
 70
     1
102
RTVSPost2010Prop49
280
     0
102
RTVSPost2010PropOp49
 70
     1
102
RTVSPost2010Prop50
 90
       50
102
RTVSPost2010PropOp50
 70
     1
102
RTVSPost2010Prop51ColorIndex
 90
      256
102
RTVSPost2010Prop51ColorRGB
 90
-16777216
102
RTVSPost2010PropOp51
 70
     0
102
RTVSPost2010Prop52
140
1.0
102
RTVSPost2010PropOp52
 70
     0
102
RTVSPost2010Prop53
 90
        2
102
RTVSPost2010PropOp53
 70
     1
102
RTVSPost2010Prop54
  1
strokes_ogs.tif
102
RTVSPost2010PropOp54
 70
     1
102
RTVSPost2010Prop55
280
     0
102
RTVSPost2010PropOp55
 70
     1
102
RTVSPost2010Prop56
140
1.0
102
RTVSPost2010PropOp56
 70
     1
102
RTVSPost2010Prop57
140
1.0
102
RTVSPost2010PropOp57
 70
     1
  0
XRECORD
  5
351
102
{ACAD_REACTORS
330
350
102
}
330
350
100
AcDbXrecord
280
     1
102
RTVSPropertyOp0
 70
     1
102
RTVSPropertyOp1
 70
     1
102
RTVSPropertyOp2
 70
     1
102
RTVSPropertyOp3
 70
     1
102
RTVSPropertyOp4
 70
     1
102
RTVSPropertyOp5
 70
     1
102
RTVSPropertyOp6
 70
     1
102
RTVSPropertyOp7
 70
     1
102
RTVSPropertyOp8
 70
     1
102
RTVSPropertyOp9
 70
     1
102
RTVSPropertyOp10
 70
     1
102
RTVSPropertyOp11
 70
     1
102
RTVSPropertyOp12
 70
     1
102
RTVSPropertyOp13
 70
     1
102
RTVSPropertyOp14
 70
     1
102
RTVSPropertyOp15
 70
     1
102
RTVSPropertyOp16
 70
     1
102
RTVSPropertyOp17
 70
     1
102
RTVSPropertyOp18
 70
     1
102
RTVSPropertyOp19
 70
     1
102
RTVSPropertyOp20
 70
     1
102
RTVSPropertyOp21
 70
     1
102
RTVSPropertyOp22
 70
     1
102
RTVSPropertyOp23
 70
     1
102
RTVSPropertyOp24
 70
     1
102
RTVSPropertyOp25
 70
     1
102
RTVSPropertyOp26
 70
     1
102
RTVSPropertyOp27
 70
     1
102
RTVSPropertyOp28
 70
     1
102
RTVSPropertyOp29
 70
     1
102
RTVSPropertyOp30
 70
     1
102
RTVSPropertyOp31
 70
     1
102
RTVSPropertyOp32
 70
     1
102
RTVSPropertyOp33
 70
     1
102
RTVSPropertyOp34
 70
     1
102
RTVSPropertyOp35
 70
     1
102
RTVSPropertyOp36
 70
     1
102
RTVSPropertyOp37
 70
     1
102
RTVSPropertyOp38
 70
     1
102
RTVSPropertyOp39
 70
     1
102
RTVSPropertyOp40
 70
     1
102
RTVSPropertyOp41
 70
     1
102
RTVSPropertyOp42
 70
     1
102
RTVSPropertyOp43
 70
     1
102
RTVSPropertyOp44
 70
     1
102
RTVSPropertyOp45
 70
     1
102
RTVSPropertyOp46
 70
     1
102
RTVSPropertyOp47
 70
     1
102
RTVSPropertyOp48
 70
     1
102
RTVSPropertyOp49
 70
     1
102
RTVSPropertyOp50
 70
     1
102
RTVSPropertyOp51
 70
     0
102
RTVSPropertyOp52
 70
     0
102
RTVSPropertyOp53
 70
     1
102
RTVSPropertyOp54
 70
     1
102
RTVSPropertyOp55
 70
     1
102
RTVSPropertyOp56
 70
     1
102
RTVSPropertyOp57
 70
     1
102
RTVSPost2010Prop28
280
     0
102
RTVSPost2010PropOp28
 70
     1
102
RTVSPost2010Prop29
280
     1
102
RTVSPost2010PropOp29
 70
     1
102
RTVSPost2010Prop30
280
     1
102
RTVSPost2010PropOp30
 70
     1
102
RTVSPost2010Prop31
280
     0
102
RTVSPost2010PropOp31
 70
     1
102
RTVSPost2010Prop32
280
     0
102
RTVSPost2010PropOp32
 70
     1
102
RTVSPost2010Prop33
280
     0
102
RTVSPost2010PropOp33
 70
     1
102
RTVSPost2010Prop34
280
     0
102
RTVSPost2010PropOp34
 70
     1
102
RTVSPost2010Prop35
280
     0
102
RTVSPost2010PropOp35
 70
     1
102
RTVSPost2010Prop36
280
     0
102
RTVSPost2010PropOp36
 70
     1
102
RTVSPost2010Prop37
 90
       50
102
RTVSPost2010PropOp37
 70
     1
102
RTVSPost2010Prop38
140
0.0
102
RTVSPost2010PropOp38
 70
     1
102
RTVSPost2010Prop39
140
1.0
102
RTVSPost2010PropOp39
 70
     1
102
RTVSPost2010Prop40
 90
        0
102
RTVSPost2010PropOp40
 70
     1
102
RTVSPost2010Prop41ColorIndex
 90
       18
102
RTVSPost2010Prop41ColorRGB
 90
        0
102
RTVSPost2010PropOp41
 70
     1
102
RTVSPost2010Prop42
 90
       50
102
RTVSPost2010PropOp42
 70
     1
102
RTVSPost2010Prop43
 90
        3
102
RTVSPost2010PropOp43
 70
     1
102
RTVSPost2010Prop44ColorIndex
 90
        5
102
RTVSPost2010Prop44ColorRGB
 90
      255
102
RTVSPost2010PropOp44
 70
     1
102
RTVSPost2010Prop45
280
     0
102
RTVSPost2010PropOp45
 70
     1
102
RTVSPost2010Prop46
 90
       50
102
RTVSPost2010PropOp46
 70
     1
102
RTVSPost2010Prop47
 90
       50
102
RTVSPost2010PropOp47
 70
     1
102
RTVSPost2010Prop48
 90
       50
102
RTVSPost2010PropOp48
 70
     1
102
RTVSPost2010Prop49
280
     0
102
RTVSPost2010PropOp49
 70
     1
102
RTVSPost2010Prop50
 90
       50
102
RTVSPost2010PropOp50
 70
     1
102
RTVSPost2010Prop51ColorIndex
 90
      256
102
RTVSPost2010Prop51ColorRGB
 90
-16777216
102
RTVSPost2010PropOp51
 70
     0
102
RTVSPost2010Prop52
140
1.0
102
RTVSPost2010PropOp52
 70
     0
102
RTVSPost2010Prop53
 90
        2
102
RTVSPost2010PropOp53
 70
     1
102
RTVSPost2010Prop54
  1
strokes_ogs.tif
102
RTVSPost2010PropOp54
 70
     1
102
RTVSPost2010Prop55
280
     0
102
RTVSPost2010PropOp55
 70
     1
102
RTVSPost2010Prop56
140
1.0
102
RTVSPost2010PropOp56
 70
     1
102
RTVSPost2010Prop57
140
1.0
102
RTVSPost2010PropOp57
 70
     1
  0
ENDSEC
  0
EOF
