  0
SECTION
  2
HEADER
  9
$ACADVER
  1
AC1015
  9
$ACADMAINTVER
 70
     6
  9
$DWGCODEPAGE
  3
ANSI_932
  9
$INSBASE
 10
0.0
 20
0.0
 30
0.0
  9
$EXTMIN
 10
-2100.0
 20
-1485.0
 30
0.0
  9
$EXTMAX
 10
2100.0
 20
1485.0
 30
0.0
  9
$LIMMIN
 10
-2100.0
 20
-1485.0
  9
$LIMMAX
 10
2100.0
 20
1485.0
  9
$ORTHOMODE
 70
     0
  9
$REGENMODE
 70
     1
  9
$FILLMODE
 70
     1
  9
$QTEXTMODE
 70
     0
  9
$MIRRTEXT
 70
     1
  9
$LTSCALE
 40
10.0
  9
$ATTMODE
 70
     1
  9
$TEXTSIZE
 40
2.5
  9
$TRACEWID
 40
1.0
  9
$TEXTSTYLE
  7
Standard
  9
$CLAYER
  8
0
  9
$CELTYPE
  6
ByLayer
  9
$CECOLOR
 62
   256
  9
$CELTSCALE
 40
1.0
  9
$DISPSILH
 70
     0
  9
$DIMSCALE
 40
1.0
  9
$DIMASZ
 40
2.5
  9
$DIMEXO
 40
0.625
  9
$DIMDLI
 40
3.75
  9
$DIMRND
 40
0.0
  9
$DIMDLE
 40
0.0
  9
$DIMEXE
 40
1.25
  9
$DIMTP
 40
0.0
  9
$DIMTM
 40
0.0
  9
$DIMTXT
 40
2.5
  9
$DIMCEN
 40
2.5
  9
$DIMTSZ
 40
0.0
  9
$DIMTOL
 70
     0
  9
$DIMLIM
 70
     0
  9
$DIMTIH
 70
     0
  9
$DIMTOH
 70
     0
  9
$DIMSE1
 70
     0
  9
$DIMSE2
 70
     0
  9
$DIMTAD
 70
     1
  9
$DIMZIN
 70
     8
  9
$DIMBLK
  1

  9
$DIMASO
 70
     1
  9
$DIMSHO
 70
     1
  9
$DIMPOST
  1

  9
$DIMAPOST
  1

  9
$DIMALT
 70
     0
  9
$DIMALTD
 70
     3
  9
$DIMALTF
 40
0.03937007874016
  9
$DIMLFAC
 40
1.0
  9
$DIMTOFL
 70
     1
  9
$DIMTVP
 40
0.0
  9
$DIMTIX
 70
     0
  9
$DIMSOXD
 70
     0
  9
$DIMSAH
 70
     0
  9
$DIMBLK1
  1

  9
$DIMBLK2
  1

  9
$DIMSTYLE
  2
ISO-25
  9
$DIMCLRD
 70
     0
  9
$DIMCLRE
 70
     0
  9
$DIMCLRT
 70
     0
  9
$DIMTFAC
 40
1.0
  9
$DIMGAP
 40
0.625
  9
$DIMJUST
 70
     0
  9
$DIMSD1
 70
     0
  9
$DIMSD2
 70
     0
  9
$DIMTOLJ
 70
     0
  9
$DIMTZIN
 70
     8
  9
$DIMALTZ
 70
     0
  9
$DIMALTTZ
 70
     0
  9
$DIMUPT
 70
     0
  9
$DIMDEC
 70
     2
  9
$DIMTDEC
 70
     2
  9
$DIMALTU
 70
     2
  9
$DIMALTTD
 70
     3
  9
$DIMTXSTY
  7
Standard
  9
$DIMAUNIT
 70
     0
  9
$DIMADEC
 70
     0
  9
$DIMALTRND
 40
0.0
  9
$DIMAZIN
 70
     0
  9
$DIMDSEP
 70
    44
  9
$DIMATFIT
 70
     3
  9
$DIMFRAC
 70
     0
  9
$DIMLDRBLK
  1

  9
$DIMLUNIT
 70
     2
  9
$DIMLWD
 70
    -2
  9
$DIMLWE
 70
    -2
  9
$DIMTMOVE
 70
     0
  9
$LUNITS
 70
     2
  9
$LUPREC
 70
     4
  9
$SKETCHINC
 40
1.0
  9
$FILLETRAD
 40
10.0
  9
$AUNITS
 70
     0
  9
$AUPREC
 70
     0
  9
$MENU
  1
.
  9
$ELEVATION
 40
0.0
  9
$PELEVATION
 40
0.0
  9
$THICKNESS
 40
0.0
  9
$LIMCHECK
 70
     0
  9
$CHAMFERA
 40
10.0
  9
$CHAMFERB
 40
10.0
  9
$CHAMFERC
 40
20.0
  9
$CHAMFERD
 40
0.0
  9
$SKPOLY
 70
     0
  9
$TDCREATE
 40
2456899.836160116
  9
$TDUCREATE
 40
2456899.461160116
  9
$TDUPDATE
 40
2456899.836160128
  9
$TDUUPDATE
 40
2456899.461160128
  9
$TDINDWG
 40
0.0000000116
  9
$TDUSRTIMER
 40
0.0000000116
  9
$USRTIMER
 70
     1
  9
$ANGBASE
 50
0.0
  9
$ANGDIR
 70
     0
  9
$PDMODE
 70
     0
  9
$PDSIZE
 40
0.0
  9
$PLINEWID
 40
0.0
  9
$SPLFRAME
 70
     0
  9
$SPLINETYPE
 70
     6
  9
$SPLINESEGS
 70
     8
  9
$HANDSEED
  5
26F
  9
$SURFTAB1
 70
     6
  9
$SURFTAB2
 70
     6
  9
$SURFTYPE
 70
     6
  9
$SURFU
 70
     6
  9
$SURFV
 70
     6
  9
$UCSBASE
  2

  9
$UCSNAME
  2

  9
$UCSORG
 10
0.0
 20
0.0
 30
0.0
  9
$UCSXDIR
 10
1.0
 20
0.0
 30
0.0
  9
$UCSYDIR
 10
0.0
 20
1.0
 30
0.0
  9
$UCSORTHOREF
  2

  9
$UCSORTHOVIEW
 70
     0
  9
$UCSORGTOP
 10
0.0
 20
0.0
 30
0.0
  9
$UCSORGBOTTOM
 10
0.0
 20
0.0
 30
0.0
  9
$UCSORGLEFT
 10
0.0
 20
0.0
 30
0.0
  9
$UCSORGRIGHT
 10
0.0
 20
0.0
 30
0.0
  9
$UCSORGFRONT
 10
0.0
 20
0.0
 30
0.0
  9
$UCSORGBACK
 10
0.0
 20
0.0
 30
0.0
  9
$PUCSBASE
  2

  9
$PUCSNAME
  2

  9
$PUCSORG
 10
0.0
 20
0.0
 30
0.0
  9
$PUCSXDIR
 10
1.0
 20
0.0
 30
0.0
  9
$PUCSYDIR
 10
0.0
 20
1.0
 30
0.0
  9
$PUCSORTHOREF
  2

  9
$PUCSORTHOVIEW
 70
     0
  9
$PUCSORGTOP
 10
0.0
 20
0.0
 30
0.0
  9
$PUCSORGBOTTOM
 10
0.0
 20
0.0
 30
0.0
  9
$PUCSORGLEFT
 10
0.0
 20
0.0
 30
0.0
  9
$PUCSORGRIGHT
 10
0.0
 20
0.0
 30
0.0
  9
$PUCSORGFRONT
 10
0.0
 20
0.0
 30
0.0
  9
$PUCSORGBACK
 10
0.0
 20
0.0
 30
0.0
  9
$USERI1
 70
     0
  9
$USERI2
 70
     0
  9
$USERI3
 70
     0
  9
$USERI4
 70
     0
  9
$USERI5
 70
     0
  9
$USERR1
 40
0.0
  9
$USERR2
 40
0.0
  9
$USERR3
 40
0.0
  9
$USERR4
 40
0.0
  9
$USERR5
 40
0.0
  9
$WORLDVIEW
 70
     1
  9
$SHADEDGE
 70
     3
  9
$SHADEDIF
 70
    70
  9
$TILEMODE
 70
     1
  9
$MAXACTVP
 70
    64
  9
$PINSBASE
 10
0.0
 20
0.0
 30
0.0
  9
$PLIMCHECK
 70
     0
  9
$PEXTMIN
 10
1.000000000000000E+20
 20
1.000000000000000E+20
 30
1.000000000000000E+20
  9
$PEXTMAX
 10
-1.000000000000000E+20
 20
-1.000000000000000E+20
 30
-1.000000000000000E+20
  9
$PLIMMIN
 10
0.0
 20
0.0
  9
$PLIMMAX
 10
420.0
 20
297.0
  9
$UNITMODE
 70
     0
  9
$VISRETAIN
 70
     1
  9
$PLINEGEN
 70
     0
  9
$PSLTSCALE
 70
     1
  9
$TREEDEPTH
 70
  3020
  9
$CMLSTYLE
  2
Standard
  9
$CMLJUST
 70
     0
  9
$CMLSCALE
 40
20.0
  9
$PROXYGRAPHICS
 70
     1
  9
$MEASUREMENT
 70
     1
  9
$CELWEIGHT
370
    -1
  9
$ENDCAPS
280
     0
  9
$JOINSTYLE
280
     0
  9
$LWDISPLAY
290
     0
  9
$INSUNITS
 70
     4
  9
$HYPERLINKBASE
  1

  9
$STYLESHEET
  1

  9
$XEDIT
290
     1
  9
$CEPSNTYPE
380
     0
  9
$PSTYLEMODE
290
     1
  9
$FINGERPRINTGUID
  2
{7111F9DB-2FCE-46D7-A3FB-2D75A8C5C8B7}
  9
$VERSIONGUID
  2
{FAEB1C32-E019-11D5-929B-00C0DF256EC4}
  9
$EXTNAMES
290
     1
  9
$PSVPSCALE
 40
0.0
  9
$OLESTARTUP
290
     0
  0
ENDSEC
  0
SECTION
  2
CLASSES
  0
CLASS
  1
ACDBDICTIONARYWDFLT
  2
AcDbDictionaryWithDefault
  3
ObjectDBX Classes
 90
        0
280
     0
281
     0
  0
CLASS
  1
VISUALSTYLE
  2
AcDbVisualStyle
  3
ObjectDBX Classes
 90
     4095
280
     0
281
     0
  0
CLASS
  1
DICTIONARYVAR
  2
AcDbDictionaryVar
  3
ObjectDBX Classes
 90
        0
280
     0
281
     0
  0
CLASS
  1
ACDBPLACEHOLDER
  2
AcDbPlaceHolder
  3
ObjectDBX Classes
 90
        0
280
     0
281
     0
  0
CLASS
  1
LAYOUT
  2
AcDbLayout
  3
ObjectDBX Classes
 90
        0
280
     0
281
     0
  0
ENDSEC
  0
SECTION
  2
TABLES
  0
TABLE
  2
VPORT
  5
8
330
0
100
AcDbSymbolTable
 70
     1
  0
VPORT
  5
29
330
8
100
AcDbSymbolTableRecord
100
AcDbViewportTableRecord
  2
*Active
 70
     0
 10
0.0
 20
0.0
 11
1.0
 21
1.0
 12
0.0
 22
0.0
 13
0.0
 23
0.0
 14
10.0
 24
10.0
 15
10.0
 25
10.0
 16
0.0
 26
0.0
 36
1.0
 17
0.0
 27
0.0
 37
0.0
 40
3267.0
 41
1.414141414141414
 42
50.0
 43
0.0
 44
0.0
 50
0.0
 51
0.0
 71
     0
 72
 10000
 73
     1
 74
     3
 75
     0
 76
     0
 77
     0
 78
     0
281
     0
 65
     1
110
0.0
120
0.0
130
0.0
111
1.0
121
0.0
131
0.0
112
0.0
122
1.0
132
0.0
 79
     0
146
0.0
  0
ENDTAB
  0
TABLE
  2
LTYPE
  5
5
330
0
100
AcDbSymbolTable
 70
     5
  0
LTYPE
  5
14
330
5
100
AcDbSymbolTableRecord
100
AcDbLinetypeTableRecord
  2
ByBlock
 70
     0
  3

 72
    65
 73
     0
 40
0.0
  0
LTYPE
  5
15
330
5
100
AcDbSymbolTableRecord
100
AcDbLinetypeTableRecord
  2
ByLayer
 70
     0
  3

 72
    65
 73
     0
 40
0.0
  0
LTYPE
  5
16
330
5
100
AcDbSymbolTableRecord
100
AcDbLinetypeTableRecord
  2
Continuous
 70
     0
  3
Solid line
 72
    65
 73
     0
 40
0.0
  0
LTYPE
  5
3C
330
5
100
AcDbSymbolTableRecord
100
AcDbLinetypeTableRecord
  2
JWW_CENTER1
 70
     0
  3
-----  --  ----------  --  -----
 72
    65
 73
     4
 40
6.773333333333333
 49
4.233333333333333
 74
     0
 49
-0.8466666666666667
 74
     0
 49
0.8466666666666667
 74
     0
 49
-0.8466666666666667
 74
     0
  0
LTYPE
  5
3D
330
5
100
AcDbSymbolTableRecord
100
AcDbLinetypeTableRecord
  2
JWW_DASHED2
 70
     0
  3
--    ----    ----    ----    --
 72
    65
 73
     2
 40
3.386666666666667
 49
1.693333333333333
 74
     0
 49
-1.693333333333333
 74
     0
  0
LTYPE
  5
3E
330
5
100
AcDbSymbolTableRecord
100
AcDbLinetypeTableRecord
  2
JWW_HOJO
 70
     0
  3
  -   -   -   -   -   -   -   - 
 72
    65
 73
     2
 40
1.693333333333333
 49
-1.27
 74
     0
 49
0.4233333333333333
 74
     0
  0
LTYPE
  5
3F
330
5
100
AcDbSymbolTableRecord
100
AcDbLinetypeTableRecord
  2
JWW_DASHED1
 70
     0
  3
-  --  --  --  --  --  --  --  -
 72
    65
 73
     2
 40
1.693333333333333
 49
0.8466666666666667
 74
     0
 49
-0.8466666666666667
 74
     0
  0
ENDTAB
  0
TABLE
  2
LAYER
  5
2
330
0
100
AcDbSymbolTable
 70
    15
  0
LAYER
  5
10
330
2
100
AcDbSymbolTableRecord
100
AcDbLayerTableRecord
  2
0
 70
     0
 62
     7
  6
Continuous
370
    -3
390
F
  0
LAYER
  5
40
330
2
100
AcDbSymbolTableRecord
100
AcDbLayerTableRecord
  2
F-5
 70
     0
 62
     7
  6
Continuous
370
    -3
390
F
  0
LAYER
  5
41
330
2
100
AcDbSymbolTableRecord
100
AcDbLayerTableRecord
  2
B-0
 70
     0
 62
     7
  6
Continuous
370
    -3
390
F
  0
LAYER
  5
42
330
2
100
AcDbSymbolTableRecord
100
AcDbLayerTableRecord
  2
B-F
 70
     0
 62
     7
  6
Continuous
370
    -3
390
F
  0
LAYER
  5
43
330
2
100
AcDbSymbolTableRecord
100
AcDbLayerTableRecord
  2
B-4
 70
     0
 62
     7
  6
Continuous
370
    -3
390
F
  0
LAYER
  5
44
330
2
100
AcDbSymbolTableRecord
100
AcDbLayerTableRecord
  2
F-F
 70
     0
 62
     7
  6
Continuous
370
    -3
390
F
  0
LAYER
  5
45
330
2
100
AcDbSymbolTableRecord
100
AcDbLayerTableRecord
  2
B-5
 70
     0
 62
     7
  6
Continuous
370
    -3
390
F
  0
LAYER
  5
46
330
2
100
AcDbSymbolTableRecord
100
AcDbLayerTableRecord
  2
F-0
 70
     0
 62
     7
  6
Continuous
370
    -3
390
F
  0
LAYER
  5
47
330
2
100
AcDbSymbolTableRecord
100
AcDbLayerTableRecord
  2
F-3
 70
     0
 62
     7
  6
Continuous
370
    -3
390
F
  0
LAYER
  5
48
330
2
100
AcDbSymbolTableRecord
100
AcDbLayerTableRecord
  2
D-4
 70
     0
 62
     7
  6
Continuous
370
    -3
390
F
  0
LAYER
  5
49
330
2
100
AcDbSymbolTableRecord
100
AcDbLayerTableRecord
  2
D-0
 70
     0
 62
     7
  6
Continuous
370
    -3
390
F
  0
LAYER
  5
4A
330
2
100
AcDbSymbolTableRecord
100
AcDbLayerTableRecord
  2
D-F
 70
     0
 62
     7
  6
Continuous
370
    -3
390
F
  0
LAYER
  5
4B
330
2
100
AcDbSymbolTableRecord
100
AcDbLayerTableRecord
  2
D-2
 70
     0
 62
     7
  6
Continuous
370
    -3
390
F
  0
LAYER
  5
4C
330
2
100
AcDbSymbolTableRecord
100
AcDbLayerTableRecord
  2
D-1
 70
     0
 62
     7
  6
Continuous
370
    -3
390
F
  0
LAYER
  5
4D
330
2
100
AcDbSymbolTableRecord
100
AcDbLayerTableRecord
  2
F-4
 70
     0
 62
     7
  6
Continuous
370
    -3
390
F
  0
ENDTAB
  0
TABLE
  2
STYLE
  5
3
330
0
100
AcDbSymbolTable
 70
     2
  0
STYLE
  5
11
330
3
100
AcDbSymbolTableRecord
100
AcDbTextStyleTableRecord
  2
Standard
 70
     0
 40
0.0
 41
1.0
 50
0.0
 71
     0
 42
2.5
  3
txt
  4

1001
ACAD
1000

1071
        0
  0
STYLE
  5
3B
330
3
100
AcDbSymbolTableRecord
100
AcDbTextStyleTableRecord
  2
ＭＳ ゴシック
 70
     0
 40
1.0
 41
1.0
 50
0.0
 71
     0
 42
10.0
  3
msgothic.ttc
  4

1001
ACAD
1000
MS Gothic
1071
    32817
  0
ENDTAB
  0
TABLE
  2
VIEW
  5
6
330
0
100
AcDbSymbolTable
 70
     0
  0
ENDTAB
  0
TABLE
  2
UCS
  5
7
330
0
100
AcDbSymbolTable
 70
     0
  0
ENDTAB
  0
TABLE
  2
APPID
  5
9
330
0
100
AcDbSymbolTable
 70
     1
  0
APPID
  5
12
330
9
100
AcDbSymbolTableRecord
100
AcDbRegAppTableRecord
  2
ACAD
 70
     0
  0
ENDTAB
  0
TABLE
  2
DIMSTYLE
  5
A
330
0
100
AcDbSymbolTable
 70
     1
100
AcDbDimStyleTable
  0
DIMSTYLE
105
27
330
A
100
AcDbSymbolTableRecord
100
AcDbDimStyleTableRecord
  2
ISO-25
 70
     0
 41
2.5
 42
0.625
 43
3.75
 44
1.25
 73
     0
 74
     0
 77
     1
 78
     8
140
2.5
141
2.5
143
0.03937007874016
147
0.625
171
     3
172
     1
271
     2
272
     2
274
     3
278
    44
283
     0
284
     8
340
11
  0
ENDTAB
  0
TABLE
  2
BLOCK_RECORD
  5
1
330
0
100
AcDbSymbolTable
 70
     1
  0
BLOCK_RECORD
  5
1F
330
1
100
AcDbSymbolTableRecord
100
AcDbBlockTableRecord
  2
*Model_Space
340
22
  0
BLOCK_RECORD
  5
1B
330
1
100
AcDbSymbolTableRecord
100
AcDbBlockTableRecord
  2
*Paper_Space
340
1E
  0
BLOCK_RECORD
  5
23
330
1
100
AcDbSymbolTableRecord
100
AcDbBlockTableRecord
  2
*Paper_Space0
340
26
  0
ENDTAB
  0
ENDSEC
  0
SECTION
  2
BLOCKS
  0
BLOCK
  5
20
330
1F
100
AcDbEntity
  8
0
100
AcDbBlockBegin
  2
*Model_Space
 70
     0
 10
0.0
 20
0.0
 30
0.0
  3
*Model_Space
  1

  0
ENDBLK
  5
21
330
1F
100
AcDbEntity
  8
0
100
AcDbBlockEnd
  0
BLOCK
  5
1C
330
1B
100
AcDbEntity
 67
     1
  8
0
100
AcDbBlockBegin
  2
*Paper_Space
 70
     0
 10
0.0
 20
0.0
 30
0.0
  3
*Paper_Space
  1

  0
ENDBLK
  5
1D
330
1B
100
AcDbEntity
 67
     1
  8
0
100
AcDbBlockEnd
  0
BLOCK
  5
24
330
23
100
AcDbEntity
  8
0
100
AcDbBlockBegin
  2
*Paper_Space0
 70
     0
 10
0.0
 20
0.0
 30
0.0
  3
*Paper_Space0
  1

  0
ENDBLK
  5
25
330
23
100
AcDbEntity
  8
0
100
AcDbBlockEnd
  0
ENDSEC
  0
SECTION
  2
ENTITIES
  0
TEXT
  5
4E
330
1F
100
AcDbEntity
  8
F-5
  6
Continuous
 62
     2
370
     9
100
AcDbText
 10
-940.5004123997044
 20
-1357.468297811972
 30
0.0
 40
30.48
  1
ステンレス製　舗装用見切材　ＩＳ－Ｈ－Ｓ（直線用）・ＩＳ－Ｈ－Ｒ（曲線用）
 41
0.8993243243243243
  7
ＭＳ ゴシック
100
AcDbText
  0
LINE
  5
4F
330
1F
100
AcDbEntity
  8
B-0
  6
Continuous
 62
     3
370
     9
100
AcDbLine
 10
-1666.270900417019
 20
1009.391858899916
 30
0.0
 11
-1666.270900417019
 21
884.3919413798565
 31
0.0
  0
LINE
  5
50
330
1F
100
AcDbEntity
  8
B-0
  6
Continuous
 62
     3
370
     9
100
AcDbLine
 10
-1666.270900417019
 20
1009.391858899916
 30
0.0
 11
1708.726625184755
 21
1009.391858899916
 31
0.0
  0
LINE
  5
51
330
1F
100
AcDbEntity
  8
B-0
  6
Continuous
 62
     3
370
     9
100
AcDbLine
 10
1708.726625184755
 20
1009.391858899916
 30
0.0
 11
1708.726625184755
 21
884.3919413798565
 31
0.0
  0
LINE
  5
52
330
1F
100
AcDbEntity
  8
B-0
  6
Continuous
 62
     3
370
     9
100
AcDbLine
 10
-1666.270900417019
 20
1005.391994167019
 30
0.0
 11
1708.726625184755
 21
1005.391994167019
 31
0.0
  0
LINE
  5
53
330
1F
100
AcDbEntity
  8
B-0
  6
Continuous
 62
     3
370
     9
100
AcDbLine
 10
-1666.270900417019
 20
884.3919413798565
 30
0.0
 11
1708.726625184755
 21
884.3919413798565
 31
0.0
  0
LINE
  5
54
330
1F
100
AcDbEntity
  8
B-0
  6
JWW_CENTER1
 62
     3
370
     9
100
AcDbLine
 10
-1654.128286000845
 20
951.0584155933279
 30
0.0
 11
-1628.413349873311
 21
951.0584155933279
 31
0.0
  0
LINE
  5
55
330
1F
100
AcDbEntity
  8
B-0
  6
JWW_CENTER1
 62
     3
370
     9
100
AcDbLine
 10
-1641.270817937077
 20
938.200947529561
 30
0.0
 11
-1641.270817937077
 21
963.9158836570948
 31
0.0
  0
LINE
  5
56
330
1F
100
AcDbEntity
  8
B-0
  6
JWW_CENTER1
 62
     3
370
     9
100
AcDbLine
 10
-822.8793170001054
 20
951.0584155933279
 30
0.0
 11
-797.1643808725717
 21
951.0584155933279
 31
0.0
  0
LINE
  5
57
330
1F
100
AcDbEntity
  8
B-0
  6
JWW_CENTER1
 62
     3
370
     9
100
AcDbLine
 10
-810.0218489363385
 20
938.200947529561
 30
0.0
 11
-810.0218489363385
 21
963.9158836570948
 31
0.0
  0
LINE
  5
58
330
1F
100
AcDbEntity
  8
B-0
  6
JWW_CENTER1
 62
     3
370
     9
100
AcDbLine
 10
8.369652000633607
 20
951.0584155933279
 30
0.0
 11
34.08458812816747
 21
951.0584155933279
 31
0.0
  0
LINE
  5
59
330
1F
100
AcDbEntity
  8
B-0
  6
JWW_CENTER1
 62
     3
370
     9
100
AcDbLine
 10
21.22712006440054
 20
938.200947529561
 30
0.0
 11
21.22712006440054
 21
963.9158836570948
 31
0.0
  0
LINE
  5
5A
330
1F
100
AcDbEntity
  8
B-0
  6
JWW_CENTER1
 62
     3
370
     9
100
AcDbLine
 10
839.6189921611068
 20
951.0584155933279
 30
0.0
 11
865.3339282886401
 21
951.0584155933279
 31
0.0
  0
LINE
  5
5B
330
1F
100
AcDbEntity
  8
B-0
  6
JWW_CENTER1
 62
     3
370
     9
100
AcDbLine
 10
852.4764602248734
 20
938.200947529561
 30
0.0
 11
852.4764602248734
 21
963.9158836570948
 31
0.0
  0
LINE
  5
5C
330
1F
100
AcDbEntity
  8
B-0
  6
JWW_CENTER1
 62
     3
370
     9
100
AcDbLine
 10
1670.86833232158
 20
951.0584155933279
 30
0.0
 11
1696.583268449114
 21
951.0584155933279
 31
0.0
  0
LINE
  5
5D
330
1F
100
AcDbEntity
  8
B-0
  6
JWW_CENTER1
 62
     3
370
     9
100
AcDbLine
 10
1683.725800385346
 20
938.200947529561
 30
0.0
 11
1683.725800385346
 21
963.9158836570948
 31
0.0
  0
LINE
  5
5E
330
1F
100
AcDbEntity
  8
B-0
  6
JWW_DASHED2
 62
     3
370
     9
100
AcDbLine
 10
-1666.270900417019
 20
1007.392050253378
 30
0.0
 11
1708.726625184755
 21
1007.392050253378
 31
0.0
  0
LINE
  5
5F
330
1F
100
AcDbEntity
  8
B-0
  6
Continuous
 62
     3
370
     9
100
AcDbLine
 10
-1666.270900417019
 20
426.0586630331505
 30
0.0
 11
-1666.270900417019
 21
301.05862179318
 31
0.0
  0
LINE
  5
60
330
1F
100
AcDbEntity
  8
B-0
  6
Continuous
 62
     3
370
     9
100
AcDbLine
 10
-1666.270900417019
 20
426.0586630331505
 30
0.0
 11
1708.726377744933
 21
426.0586630331505
 31
0.0
  0
LINE
  5
61
330
1F
100
AcDbEntity
  8
B-0
  6
Continuous
 62
     3
370
     9
100
AcDbLine
 10
1708.726377744933
 20
426.0586630331505
 30
0.0
 11
1708.726377744933
 21
301.05862179318
 31
0.0
  0
LINE
  5
62
330
1F
100
AcDbEntity
  8
B-0
  6
Continuous
 62
     3
370
     9
100
AcDbLine
 10
-1666.270900417019
 20
422.0586745803422
 30
0.0
 11
1708.726377744933
 21
422.0586745803422
 31
0.0
  0
LINE
  5
63
330
1F
100
AcDbEntity
  8
B-0
  6
Continuous
 62
     3
370
     9
100
AcDbLine
 10
-1616.270982896959
 20
301.05862179318
 30
0.0
 11
-1616.270982896959
 21
422.0586745803422
 31
0.0
  0
LINE
  5
64
330
1F
100
AcDbEntity
  8
B-0
  6
Continuous
 62
     3
370
     9
100
AcDbLine
 10
-1500.021032384924
 20
301.05862179318
 30
0.0
 11
-1500.021032384924
 21
422.0586745803422
 31
0.0
  0
LINE
  5
65
330
1F
100
AcDbEntity
  8
B-0
  6
Continuous
 62
     3
370
     9
100
AcDbLine
 10
-1450.021114864865
 20
301.05862179318
 30
0.0
 11
-1450.021114864865
 21
422.0586745803422
 31
0.0
  0
LINE
  5
66
330
1F
100
AcDbEntity
  8
B-0
  6
Continuous
 62
     3
370
     9
100
AcDbLine
 10
-1333.771164352829
 20
301.05862179318
 30
0.0
 11
-1333.771164352829
 21
422.0586745803422
 31
0.0
  0
LINE
  5
67
330
1F
100
AcDbEntity
  8
B-0
  6
Continuous
 62
     3
370
     9
100
AcDbLine
 10
-1283.77124683277
 20
301.05862179318
 30
0.0
 11
-1283.77124683277
 21
422.0586745803422
 31
0.0
  0
LINE
  5
68
330
1F
100
AcDbEntity
  8
B-0
  6
Continuous
 62
     3
370
     9
100
AcDbLine
 10
-1167.521296320735
 20
301.05862179318
 30
0.0
 11
-1167.521296320735
 21
422.0586745803422
 31
0.0
  0
LINE
  5
69
330
1F
100
AcDbEntity
  8
B-0
  6
Continuous
 62
     3
370
     9
100
AcDbLine
 10
-1117.521502520587
 20
301.05862179318
 30
0.0
 11
-1117.521502520587
 21
422.0586745803422
 31
0.0
  0
LINE
  5
6A
330
1F
100
AcDbEntity
  8
B-0
  6
Continuous
 62
     3
370
     9
100
AcDbLine
 10
-1001.271552008551
 20
301.05862179318
 30
0.0
 11
-1001.271552008551
 21
422.0586745803422
 31
0.0
  0
LINE
  5
6B
330
1F
100
AcDbEntity
  8
B-0
  6
Continuous
 62
     3
370
     9
100
AcDbLine
 10
-951.271510768581
 20
301.05862179318
 30
0.0
 11
-951.271510768581
 21
422.0586745803422
 31
0.0
  0
LINE
  5
6C
330
1F
100
AcDbEntity
  8
B-0
  6
Continuous
 62
     3
370
     9
100
AcDbLine
 10
-835.0214365366343
 20
301.05862179318
 30
0.0
 11
-835.0214365366343
 21
422.0586745803422
 31
0.0
  0
LINE
  5
6D
330
1F
100
AcDbEntity
  8
B-0
  6
Continuous
 62
     3
370
     9
100
AcDbLine
 10
-785.0216427364865
 20
301.05862179318
 30
0.0
 11
-785.0216427364865
 21
422.0586745803422
 31
0.0
  0
LINE
  5
6E
330
1F
100
AcDbEntity
  8
B-0
  6
Continuous
 62
     3
370
     9
100
AcDbLine
 10
-668.771692224451
 20
301.05862179318
 30
0.0
 11
-668.771692224451
 21
422.0586745803422
 31
0.0
  0
LINE
  5
6F
330
1F
100
AcDbEntity
  8
B-0
  6
Continuous
 62
     3
370
     9
100
AcDbLine
 10
-618.7717747043919
 20
301.05862179318
 30
0.0
 11
-618.7717747043919
 21
422.0586745803422
 31
0.0
  0
LINE
  5
70
330
1F
100
AcDbEntity
  8
B-0
  6
Continuous
 62
     3
370
     9
100
AcDbLine
 10
-502.5219479122677
 20
301.05862179318
 30
0.0
 11
-502.5219479122677
 21
422.0586745803422
 31
0.0
  0
LINE
  5
71
330
1F
100
AcDbEntity
  8
B-0
  6
Continuous
 62
     3
370
     9
100
AcDbLine
 10
-452.5219066722971
 20
301.05862179318
 30
0.0
 11
-452.5219066722971
 21
422.0586745803422
 31
0.0
  0
LINE
  5
72
330
1F
100
AcDbEntity
  8
B-0
  6
Continuous
 62
     3
370
     9
100
AcDbLine
 10
-336.2719561602617
 20
301.05862179318
 30
0.0
 11
-336.2719561602617
 21
422.0586745803422
 31
0.0
  0
LINE
  5
73
330
1F
100
AcDbEntity
  8
B-0
  6
Continuous
 62
     3
370
     9
100
AcDbLine
 10
-286.2719149202914
 20
301.05862179318
 30
0.0
 11
-286.2719149202914
 21
422.0586745803422
 31
0.0
  0
LINE
  5
74
330
1F
100
AcDbEntity
  8
B-0
  6
Continuous
 62
     3
370
     9
100
AcDbLine
 10
-120.0221706081081
 20
301.05862179318
 30
0.0
 11
-120.0221706081081
 21
422.0586745803422
 31
0.0
  0
LINE
  5
75
330
1F
100
AcDbEntity
  8
B-0
  6
Continuous
 62
     3
370
     9
100
AcDbLine
 10
-170.0220881281672
 20
301.05862179318
 30
0.0
 11
-170.0220881281672
 21
422.0586745803422
 31
0.0
  0
LINE
  5
76
330
1F
100
AcDbEntity
  8
B-0
  6
Continuous
 62
     3
370
     9
100
AcDbLine
 10
-3.772220096072658
 20
301.05862179318
 30
0.0
 11
-3.772220096072658
 21
422.0586745803422
 31
0.0
  0
LINE
  5
77
330
1F
100
AcDbEntity
  8
B-0
  6
Continuous
 62
     3
370
     9
100
AcDbLine
 10
46.22769742398674
 20
301.05862179318
 30
0.0
 11
46.22769742398674
 21
422.0586745803422
 31
0.0
  0
LINE
  5
78
330
1F
100
AcDbEntity
  8
B-0
  6
Continuous
 62
     3
370
     9
100
AcDbLine
 10
162.4776479360222
 20
301.05862179318
 30
0.0
 11
162.4776479360222
 21
422.0586745803422
 31
0.0
  0
LINE
  5
79
330
1F
100
AcDbEntity
  8
B-0
  6
Continuous
 62
     3
370
     9
100
AcDbLine
 10
212.4775654560813
 20
301.05862179318
 30
0.0
 11
212.4775654560813
 21
422.0586745803422
 31
0.0
  0
LINE
  5
7A
330
1F
100
AcDbEntity
  8
B-0
  6
Continuous
 62
     3
370
     9
100
AcDbLine
 10
328.7275159681167
 20
301.05862179318
 30
0.0
 11
328.7275159681167
 21
422.0586745803422
 31
0.0
  0
LINE
  5
7B
330
1F
100
AcDbEntity
  8
B-0
  6
Continuous
 62
     3
370
     9
100
AcDbLine
 10
378.7274334881758
 20
301.05862179318
 30
0.0
 11
378.7274334881758
 21
422.0586745803422
 31
0.0
  0
LINE
  5
7C
330
1F
100
AcDbEntity
  8
B-0
  6
Continuous
 62
     3
370
     9
100
AcDbLine
 10
544.9773015202703
 20
301.05862179318
 30
0.0
 11
544.9773015202703
 21
422.0586745803422
 31
0.0
  0
LINE
  5
7D
330
1F
100
AcDbEntity
  8
B-0
  6
Continuous
 62
     3
370
     9
100
AcDbLine
 10
494.9773840002115
 20
301.05862179318
 30
0.0
 11
494.9773840002115
 21
422.0586745803422
 31
0.0
  0
LINE
  5
7E
330
1F
100
AcDbEntity
  8
B-0
  6
Continuous
 62
     3
370
     9
100
AcDbLine
 10
661.2272520323057
 20
301.05862179318
 30
0.0
 11
661.2272520323057
 21
422.0586745803422
 31
0.0
  0
LINE
  5
7F
330
1F
100
AcDbEntity
  8
B-0
  6
Continuous
 62
     3
370
     9
100
AcDbLine
 10
711.2271695523651
 20
301.05862179318
 30
0.0
 11
711.2271695523651
 21
422.0586745803422
 31
0.0
  0
LINE
  5
80
330
1F
100
AcDbEntity
  8
B-0
  6
Continuous
 62
     3
370
     9
100
AcDbLine
 10
827.4771200644005
 20
301.05862179318
 30
0.0
 11
827.4771200644005
 21
422.0586745803422
 31
0.0
  0
LINE
  5
81
330
1F
100
AcDbEntity
  8
B-0
  6
Continuous
 62
     3
370
     9
100
AcDbLine
 10
877.4770375844594
 20
301.05862179318
 30
0.0
 11
877.4770375844594
 21
422.0586745803422
 31
0.0
  0
LINE
  5
82
330
1F
100
AcDbEntity
  8
B-0
  6
Continuous
 62
     3
370
     9
100
AcDbLine
 10
993.7269880964953
 20
301.05862179318
 30
0.0
 11
993.7269880964953
 21
422.0586745803422
 31
0.0
  0
LINE
  5
83
330
1F
100
AcDbEntity
  8
B-0
  6
Continuous
 62
     3
370
     9
100
AcDbLine
 10
1043.726905616554
 20
301.05862179318
 30
0.0
 11
1043.726905616554
 21
422.0586745803422
 31
0.0
  0
LINE
  5
84
330
1F
100
AcDbEntity
  8
B-0
  6
Continuous
 62
     3
370
     9
100
AcDbLine
 10
1159.97685612859
 20
301.05862179318
 30
0.0
 11
1159.97685612859
 21
422.0586745803422
 31
0.0
  0
LINE
  5
85
330
1F
100
AcDbEntity
  8
B-0
  6
Continuous
 62
     3
370
     9
100
AcDbLine
 10
1209.976773648649
 20
301.05862179318
 30
0.0
 11
1209.976773648649
 21
422.0586745803422
 31
0.0
  0
LINE
  5
86
330
1F
100
AcDbEntity
  8
B-0
  6
Continuous
 62
     3
370
     9
100
AcDbLine
 10
1326.226724160684
 20
301.05862179318
 30
0.0
 11
1326.226724160684
 21
422.0586745803422
 31
0.0
  0
LINE
  5
87
330
1F
100
AcDbEntity
  8
B-0
  6
Continuous
 62
     3
370
     9
100
AcDbLine
 10
1376.226641680743
 20
301.05862179318
 30
0.0
 11
1376.226641680743
 21
422.0586745803422
 31
0.0
  0
LINE
  5
88
330
1F
100
AcDbEntity
  8
B-0
  6
Continuous
 62
     3
370
     9
100
AcDbLine
 10
1492.476592192779
 20
301.05862179318
 30
0.0
 11
1492.476592192779
 21
422.0586745803422
 31
0.0
  0
LINE
  5
89
330
1F
100
AcDbEntity
  8
B-0
  6
Continuous
 62
     3
370
     9
100
AcDbLine
 10
1658.726460224873
 20
301.05862179318
 30
0.0
 11
1658.726460224873
 21
422.0586745803422
 31
0.0
  0
LINE
  5
8A
330
1F
100
AcDbEntity
  8
B-0
  6
Continuous
 62
     3
370
     9
100
AcDbLine
 10
1542.476509712838
 20
301.05862179318
 30
0.0
 11
1542.476509712838
 21
422.0586745803422
 31
0.0
  0
LINE
  5
8B
330
1F
100
AcDbEntity
  8
B-0
  6
Continuous
 62
     3
370
     9
100
AcDbLine
 10
-1616.270982896959
 20
301.05862179318
 30
0.0
 11
-1666.270900417019
 21
301.05862179318
 31
0.0
  0
LINE
  5
8C
330
1F
100
AcDbEntity
  8
B-0
  6
Continuous
 62
     3
370
     9
100
AcDbLine
 10
-1450.020867425042
 20
301.05862179318
 30
0.0
 11
-1500.021032384924
 21
301.05862179318
 31
0.0
  0
LINE
  5
8D
330
1F
100
AcDbEntity
  8
B-0
  6
Continuous
 62
     3
370
     9
100
AcDbLine
 10
-1283.770999392948
 20
301.05862179318
 30
0.0
 11
-1333.771164352829
 21
301.05862179318
 31
0.0
  0
LINE
  5
8E
330
1F
100
AcDbEntity
  8
B-0
  6
Continuous
 62
     3
370
     9
100
AcDbLine
 10
-1117.521255080764
 20
301.05862179318
 30
0.0
 11
-1167.521296320735
 21
301.05862179318
 31
0.0
  0
LINE
  5
8F
330
1F
100
AcDbEntity
  8
B-0
  6
Continuous
 62
     3
370
     9
100
AcDbLine
 10
-951.2712633287583
 20
301.05862179318
 30
0.0
 11
-1001.271552008551
 21
301.05862179318
 31
0.0
  0
LINE
  5
90
330
1F
100
AcDbEntity
  8
B-0
  6
Continuous
 62
     3
370
     9
100
AcDbLine
 10
-785.021519016575
 20
301.05862179318
 30
0.0
 11
-835.0214365366343
 21
301.05862179318
 31
0.0
  0
LINE
  5
91
330
1F
100
AcDbEntity
  8
B-0
  6
Continuous
 62
     3
370
     9
100
AcDbLine
 10
-618.7717747043919
 20
301.05862179318
 30
0.0
 11
-668.7719396642738
 21
301.05862179318
 31
0.0
  0
LINE
  5
92
330
1F
100
AcDbEntity
  8
B-0
  6
Continuous
 62
     3
370
     9
100
AcDbLine
 10
-452.5219066722971
 20
301.05862179318
 30
0.0
 11
-502.5219479122677
 21
301.05862179318
 31
0.0
  0
LINE
  5
93
330
1F
100
AcDbEntity
  8
B-0
  6
Continuous
 62
     3
370
     9
100
AcDbLine
 10
-286.2719149202914
 20
301.05862179318
 30
0.0
 11
-336.2719561602617
 21
301.05862179318
 31
0.0
  0
LINE
  5
94
330
1F
100
AcDbEntity
  8
B-0
  6
Continuous
 62
     3
370
     9
100
AcDbLine
 10
-120.0221706081081
 20
301.05862179318
 30
0.0
 11
-170.0220881281672
 21
301.05862179318
 31
0.0
  0
LINE
  5
95
330
1F
100
AcDbEntity
  8
B-0
  6
Continuous
 62
     3
370
     9
100
AcDbLine
 10
46.22769742398674
 20
301.05862179318
 30
0.0
 11
-3.772220096072658
 21
301.05862179318
 31
0.0
  0
LINE
  5
96
330
1F
100
AcDbEntity
  8
B-0
  6
Continuous
 62
     3
370
     9
100
AcDbLine
 10
212.4775654560813
 20
301.05862179318
 30
0.0
 11
162.4776479360222
 21
301.05862179318
 31
0.0
  0
LINE
  5
97
330
1F
100
AcDbEntity
  8
B-0
  6
Continuous
 62
     3
370
     9
100
AcDbLine
 10
378.7274334881758
 20
301.05862179318
 30
0.0
 11
328.7275159681167
 21
301.05862179318
 31
0.0
  0
LINE
  5
98
330
1F
100
AcDbEntity
  8
B-0
  6
Continuous
 62
     3
370
     9
100
AcDbLine
 10
544.9773015202703
 20
301.05862179318
 30
0.0
 11
494.9773840002115
 21
301.05862179318
 31
0.0
  0
LINE
  5
99
330
1F
100
AcDbEntity
  8
B-0
  6
Continuous
 62
     3
370
     9
100
AcDbLine
 10
711.2271695523651
 20
301.05862179318
 30
0.0
 11
661.2272520323057
 21
301.05862179318
 31
0.0
  0
LINE
  5
9A
330
1F
100
AcDbEntity
  8
B-0
  6
Continuous
 62
     3
370
     9
100
AcDbLine
 10
877.4770375844594
 20
301.05862179318
 30
0.0
 11
827.4771200644005
 21
301.05862179318
 31
0.0
  0
LINE
  5
9B
330
1F
100
AcDbEntity
  8
B-0
  6
Continuous
 62
     3
370
     9
100
AcDbLine
 10
1043.726905616554
 20
301.05862179318
 30
0.0
 11
993.7269880964953
 21
301.05862179318
 31
0.0
  0
LINE
  5
9C
330
1F
100
AcDbEntity
  8
B-0
  6
Continuous
 62
     3
370
     9
100
AcDbLine
 10
1209.976773648649
 20
301.05862179318
 30
0.0
 11
1159.97685612859
 21
301.05862179318
 31
0.0
  0
LINE
  5
9D
330
1F
100
AcDbEntity
  8
B-0
  6
Continuous
 62
     3
370
     9
100
AcDbLine
 10
1376.226641680743
 20
301.05862179318
 30
0.0
 11
1326.226724160684
 21
301.05862179318
 31
0.0
  0
LINE
  5
9E
330
1F
100
AcDbEntity
  8
B-0
  6
Continuous
 62
     3
370
     9
100
AcDbLine
 10
1708.726377744933
 20
301.05862179318
 30
0.0
 11
1658.726460224873
 21
301.05862179318
 31
0.0
  0
LINE
  5
9F
330
1F
100
AcDbEntity
  8
B-0
  6
Continuous
 62
     3
370
     9
100
AcDbLine
 10
1542.476509712838
 20
301.05862179318
 30
0.0
 11
1492.476592192779
 21
301.05862179318
 31
0.0
  0
LINE
  5
A0
330
1F
100
AcDbEntity
  8
B-0
  6
JWW_DASHED2
 62
     3
370
     9
100
AcDbLine
 10
-1666.270900417019
 20
424.0586069467906
 30
0.0
 11
1708.726377744933
 21
424.0586069467906
 31
0.0
  0
LINE
  5
A1
330
1F
100
AcDbEntity
  8
B-0
  6
JWW_CENTER1
 62
     3
370
     9
100
AcDbLine
 10
-1654.128533440667
 20
367.7250960066513
 30
0.0
 11
-1628.413597313133
 21
367.7250960066513
 31
0.0
  0
LINE
  5
A2
330
1F
100
AcDbEntity
  8
B-0
  6
JWW_CENTER1
 62
     3
370
     9
100
AcDbLine
 10
-1641.2710653769
 20
354.8676279428844
 30
0.0
 11
-1641.2710653769
 21
380.5825640704182
 31
0.0
  0
LINE
  5
A3
330
1F
100
AcDbEntity
  8
B-0
  6
JWW_CENTER1
 62
     3
370
     9
100
AcDbLine
 10
-1487.878665408573
 20
367.7250960066513
 30
0.0
 11
-1462.163729281039
 21
367.7250960066513
 31
0.0
  0
LINE
  5
A4
330
1F
100
AcDbEntity
  8
B-0
  6
JWW_CENTER1
 62
     3
370
     9
100
AcDbLine
 10
-1475.021197344806
 20
354.8676279428844
 30
0.0
 11
-1475.021197344806
 21
380.5825640704182
 31
0.0
  0
LINE
  5
A5
330
1F
100
AcDbEntity
  8
B-0
  6
JWW_CENTER1
 62
     3
370
     9
100
AcDbLine
 10
-1321.628797376478
 20
367.7250960066513
 30
0.0
 11
-1295.913861248944
 21
367.7250960066513
 31
0.0
  0
LINE
  5
A6
330
1F
100
AcDbEntity
  8
B-0
  6
JWW_CENTER1
 62
     3
370
     9
100
AcDbLine
 10
-1308.771329312711
 20
354.8676279428844
 30
0.0
 11
-1308.771329312711
 21
380.5825640704182
 31
0.0
  0
LINE
  5
A7
330
1F
100
AcDbEntity
  8
B-0
  6
JWW_CENTER1
 62
     3
370
     9
100
AcDbLine
 10
-1155.378929344383
 20
367.7250960066513
 30
0.0
 11
-1129.66399321685
 21
367.7250960066513
 31
0.0
  0
LINE
  5
A8
330
1F
100
AcDbEntity
  8
B-0
  6
JWW_CENTER1
 62
     3
370
     9
100
AcDbLine
 10
-1142.521461280616
 20
354.8676279428844
 30
0.0
 11
-1142.521461280616
 21
380.5825640704182
 31
0.0
  0
LINE
  5
A9
330
1F
100
AcDbEntity
  8
B-0
  6
JWW_CENTER1
 62
     3
370
     9
100
AcDbLine
 10
-989.1289375923775
 20
367.7250960066513
 30
0.0
 11
-963.4140014648438
 21
367.7250960066513
 31
0.0
  0
LINE
  5
AA
330
1F
100
AcDbEntity
  8
B-0
  6
JWW_CENTER1
 62
     3
370
     9
100
AcDbLine
 10
-976.2714695286105
 20
354.8676279428844
 30
0.0
 11
-976.2714695286105
 21
380.5825640704182
 31
0.0
  0
LINE
  5
AB
330
1F
100
AcDbEntity
  8
B-0
  6
JWW_CENTER1
 62
     3
370
     9
100
AcDbLine
 10
-822.8791932801942
 20
367.7250960066513
 30
0.0
 11
-797.1642571526604
 21
367.7250960066513
 31
0.0
  0
LINE
  5
AC
330
1F
100
AcDbEntity
  8
B-0
  6
JWW_CENTER1
 62
     3
370
     9
100
AcDbLine
 10
-810.0217252164273
 20
354.8676279428844
 30
0.0
 11
-810.0217252164273
 21
380.5825640704182
 31
0.0
  0
LINE
  5
AD
330
1F
100
AcDbEntity
  8
B-0
  6
JWW_CENTER1
 62
     3
370
     9
100
AcDbLine
 10
-656.6292015281883
 20
367.7250960066513
 30
0.0
 11
-630.9143891205658
 21
367.7250960066513
 31
0.0
  0
LINE
  5
AE
330
1F
100
AcDbEntity
  8
B-0
  6
JWW_CENTER1
 62
     3
370
     9
100
AcDbLine
 10
-643.7718571843328
 20
354.8676279428844
 30
0.0
 11
-643.7718571843328
 21
380.5825640704182
 31
0.0
  0
LINE
  5
AF
330
1F
100
AcDbEntity
  8
B-0
  6
JWW_CENTER1
 62
     3
370
     9
100
AcDbLine
 10
-490.3794572160049
 20
367.7250960066513
 30
0.0
 11
-464.6645210884711
 21
367.7250960066513
 31
0.0
  0
LINE
  5
B0
330
1F
100
AcDbEntity
  8
B-0
  6
JWW_CENTER1
 62
     3
370
     9
100
AcDbLine
 10
-477.521989152238
 20
354.8676279428844
 30
0.0
 11
-477.521989152238
 21
380.5825640704182
 31
0.0
  0
LINE
  5
B1
330
1F
100
AcDbEntity
  8
B-0
  6
JWW_CENTER1
 62
     3
370
     9
100
AcDbLine
 10
-324.1295891839104
 20
367.7250960066513
 30
0.0
 11
-298.4146530563766
 21
367.7250960066513
 31
0.0
  0
LINE
  5
B2
330
1F
100
AcDbEntity
  8
B-0
  6
JWW_CENTER1
 62
     3
370
     9
100
AcDbLine
 10
-311.2721211201435
 20
354.8676279428844
 30
0.0
 11
-311.2721211201435
 21
380.5825640704182
 31
0.0
  0
LINE
  5
B3
330
1F
100
AcDbEntity
  8
B-0
  6
JWW_CENTER1
 62
     3
370
     9
100
AcDbLine
 10
-157.8797211518159
 20
367.7250960066513
 30
0.0
 11
-132.164785024282
 21
367.7250960066513
 31
0.0
  0
LINE
  5
B4
330
1F
100
AcDbEntity
  8
B-0
  6
JWW_CENTER1
 62
     3
370
     9
100
AcDbLine
 10
-145.022253088049
 20
354.8676279428844
 30
0.0
 11
-145.022253088049
 21
380.5825640704182
 31
0.0
  0
LINE
  5
B5
330
1F
100
AcDbEntity
  8
B-0
  6
JWW_CENTER1
 62
     3
370
     9
100
AcDbLine
 10
8.370146880278924
 20
367.7250960066513
 30
0.0
 11
34.0850830078125
 21
367.7250960066513
 31
0.0
  0
LINE
  5
B6
330
1F
100
AcDbEntity
  8
B-0
  6
JWW_CENTER1
 62
     3
370
     9
100
AcDbLine
 10
21.22761494404585
 20
354.8676279428844
 30
0.0
 11
21.22761494404585
 21
380.5825640704182
 31
0.0
  0
LINE
  5
B7
330
1F
100
AcDbEntity
  8
B-0
  6
JWW_CENTER1
 62
     3
370
     9
100
AcDbLine
 10
174.6200149123734
 20
367.7250960066513
 30
0.0
 11
200.3349510399073
 21
367.7250960066513
 31
0.0
  0
LINE
  5
B8
330
1F
100
AcDbEntity
  8
B-0
  6
JWW_CENTER1
 62
     3
370
     9
100
AcDbLine
 10
187.4774829761404
 20
354.8676279428844
 30
0.0
 11
187.4774829761404
 21
380.5825640704182
 31
0.0
  0
LINE
  5
B9
330
1F
100
AcDbEntity
  8
B-0
  6
JWW_CENTER1
 62
     3
370
     9
100
AcDbLine
 10
340.869882944468
 20
367.7250960066513
 30
0.0
 11
366.5848190720018
 21
367.7250960066513
 31
0.0
  0
LINE
  5
BA
330
1F
100
AcDbEntity
  8
B-0
  6
JWW_CENTER1
 62
     3
370
     9
100
AcDbLine
 10
353.7273510082349
 20
354.8676279428844
 30
0.0
 11
353.7273510082349
 21
380.5825640704182
 31
0.0
  0
LINE
  5
BB
330
1F
100
AcDbEntity
  8
B-0
  6
JWW_CENTER1
 62
     3
370
     9
100
AcDbLine
 10
507.1197509765625
 20
367.7250960066513
 30
0.0
 11
532.8346871040964
 21
367.7250960066513
 31
0.0
  0
LINE
  5
BC
330
1F
100
AcDbEntity
  8
B-0
  6
JWW_CENTER1
 62
     3
370
     9
100
AcDbLine
 10
519.9772190403297
 20
354.8676279428844
 30
0.0
 11
519.9772190403297
 21
380.5825640704182
 31
0.0
  0
LINE
  5
BD
330
1F
100
AcDbEntity
  8
B-0
  6
JWW_CENTER1
 62
     3
370
     9
100
AcDbLine
 10
673.3696190086573
 20
367.7250960066513
 30
0.0
 11
699.0845551361912
 21
367.7250960066513
 31
0.0
  0
LINE
  5
BE
330
1F
100
AcDbEntity
  8
B-0
  6
JWW_CENTER1
 62
     3
370
     9
100
AcDbLine
 10
686.227087072424
 20
354.8676279428844
 30
0.0
 11
686.227087072424
 21
380.5825640704182
 31
0.0
  0
LINE
  5
BF
330
1F
100
AcDbEntity
  8
B-0
  6
JWW_CENTER1
 62
     3
370
     9
100
AcDbLine
 10
839.6194870407521
 20
367.7250960066513
 30
0.0
 11
865.3344231682854
 21
367.7250960066513
 31
0.0
  0
LINE
  5
C0
330
1F
100
AcDbEntity
  8
B-0
  6
JWW_CENTER1
 62
     3
370
     9
100
AcDbLine
 10
852.4769551045188
 20
354.8676279428844
 30
0.0
 11
852.4769551045188
 21
380.5825640704182
 31
0.0
  0
LINE
  5
C1
330
1F
100
AcDbEntity
  8
B-0
  6
JWW_CENTER1
 62
     3
370
     9
100
AcDbLine
 10
1005.869355072846
 20
367.7250960066513
 30
0.0
 11
1031.58429120038
 21
367.7250960066513
 31
0.0
  0
LINE
  5
C2
330
1F
100
AcDbEntity
  8
B-0
  6
JWW_CENTER1
 62
     3
370
     9
100
AcDbLine
 10
1018.726823136614
 20
354.8676279428844
 30
0.0
 11
1018.726823136614
 21
380.5825640704182
 31
0.0
  0
LINE
  5
C3
330
1F
100
AcDbEntity
  8
B-0
  6
JWW_CENTER1
 62
     3
370
     9
100
AcDbLine
 10
1172.119223104941
 20
367.7250960066513
 30
0.0
 11
1197.834159232475
 21
367.7250960066513
 31
0.0
  0
LINE
  5
C4
330
1F
100
AcDbEntity
  8
B-0
  6
JWW_CENTER1
 62
     3
370
     9
100
AcDbLine
 10
1184.976691168708
 20
354.8676279428844
 30
0.0
 11
1184.976691168708
 21
380.5825640704182
 31
0.0
  0
LINE
  5
C5
330
1F
100
AcDbEntity
  8
B-0
  6
JWW_CENTER1
 62
     3
370
     9
100
AcDbLine
 10
1338.369091137035
 20
367.7250960066513
 30
0.0
 11
1364.084027264569
 21
367.7250960066513
 31
0.0
  0
LINE
  5
C6
330
1F
100
AcDbEntity
  8
B-0
  6
JWW_CENTER1
 62
     3
370
     9
100
AcDbLine
 10
1351.226559200803
 20
354.8676279428844
 30
0.0
 11
1351.226559200803
 21
380.5825640704182
 31
0.0
  0
LINE
  5
C7
330
1F
100
AcDbEntity
  8
B-0
  6
JWW_CENTER1
 62
     3
370
     9
100
AcDbLine
 10
1504.61895916913
 20
367.7250960066513
 30
0.0
 11
1530.333895296664
 21
367.7250960066513
 31
0.0
  0
LINE
  5
C8
330
1F
100
AcDbEntity
  8
B-0
  6
JWW_CENTER1
 62
     3
370
     9
100
AcDbLine
 10
1517.476427232898
 20
354.8676279428844
 30
0.0
 11
1517.476427232898
 21
380.5825640704182
 31
0.0
  0
LINE
  5
C9
330
1F
100
AcDbEntity
  8
B-0
  6
JWW_CENTER1
 62
     3
370
     9
100
AcDbLine
 10
1670.868827201225
 20
367.7250960066513
 30
0.0
 11
1696.583763328759
 21
367.7250960066513
 31
0.0
  0
LINE
  5
CA
330
1F
100
AcDbEntity
  8
B-0
  6
JWW_CENTER1
 62
     3
370
     9
100
AcDbLine
 10
1683.726295264992
 20
354.8676279428844
 30
0.0
 11
1683.726295264992
 21
380.5825640704182
 31
0.0
  0
LINE
  5
CB
330
1F
100
AcDbEntity
  8
B-F
  6
Continuous
 62
     7
370
     9
100
AcDbLine
 10
-1842.968017990525
 20
1290.437721046242
 30
0.0
 11
-320.508307379645
 21
1290.437721046242
 31
0.0
  0
LINE
  5
CC
330
1F
100
AcDbEntity
  8
B-F
  6
Continuous
 62
     7
370
     9
100
AcDbLine
 10
-1842.968017990525
 20
1210.437704550254
 30
0.0
 11
-320.508307379645
 21
1210.437704550254
 31
0.0
  0
LINE
  5
CD
330
1F
100
AcDbEntity
  8
B-F
  6
Continuous
 62
     7
370
     9
100
AcDbLine
 10
-1842.968017990525
 20
1290.437721046242
 30
0.0
 11
-1842.968017990525
 21
1210.437704550254
 31
0.0
  0
LINE
  5
CE
330
1F
100
AcDbEntity
  8
B-F
  6
Continuous
 62
     7
370
     9
100
AcDbLine
 10
-320.508307379645
 20
1290.437721046242
 30
0.0
 11
-320.508307379645
 21
1210.437704550254
 31
0.0
  0
LINE
  5
CF
330
1F
100
AcDbEntity
  8
B-4
  6
Continuous
 62
     7
370
     9
100
AcDbLine
 10
-1666.270900417019
 20
1134.391776419975
 30
0.0
 11
1708.726625184755
 21
1134.391776419975
 31
0.0
  0
LINE
  5
D0
330
1F
100
AcDbEntity
  8
B-4
  6
Continuous
 62
     7
370
     9
100
AcDbLine
 10
-1666.270900417019
 20
1024.39190838788
 30
0.0
 11
-1666.270900417019
 21
1137.391736829603
 31
0.0
  0
LINE
  5
D1
330
1F
100
AcDbEntity
  8
B-4
  6
Continuous
 62
     7
370
     9
100
AcDbLine
 10
1708.726625184755
 20
1024.39190838788
 30
0.0
 11
1708.726625184755
 21
1137.391736829603
 31
0.0
  0
LINE
  5
D2
330
1F
100
AcDbEntity
  8
B-4
  6
Continuous
 62
     7
370
     9
100
AcDbLine
 10
-1749.60424062368
 20
884.3919413798565
 30
0.0
 11
-1749.60424062368
 21
1009.391858899916
 31
0.0
  0
LINE
  5
D3
330
1F
100
AcDbEntity
  8
B-4
  6
Continuous
 62
     7
370
     9
100
AcDbLine
 10
-1681.270888045027
 20
884.3919413798565
 30
0.0
 11
-1752.604231963287
 21
884.3919413798565
 31
0.0
  0
LINE
  5
D4
330
1F
100
AcDbEntity
  8
B-4
  6
Continuous
 62
     7
370
     9
100
AcDbLine
 10
-1681.270888045027
 20
1009.391858899916
 30
0.0
 11
-1752.604231963287
 21
1009.391858899916
 31
0.0
  0
LINE
  5
D5
330
1F
100
AcDbEntity
  8
B-4
  6
Continuous
 62
     7
370
     9
100
AcDbLine
 10
-1666.270900417019
 20
551.0585805532096
 30
0.0
 11
1708.726625184755
 21
551.0585805532096
 31
0.0
  0
LINE
  5
D6
330
1F
100
AcDbEntity
  8
B-4
  6
Continuous
 62
     7
370
     9
100
AcDbLine
 10
-1666.270900417019
 20
441.0587125211148
 30
0.0
 11
-1666.270900417019
 21
554.058540962838
 31
0.0
  0
LINE
  5
D7
330
1F
100
AcDbEntity
  8
B-4
  6
Continuous
 62
     7
370
     9
100
AcDbLine
 10
1708.726625184755
 20
441.0587125211148
 30
0.0
 11
1708.726625184755
 21
554.058540962838
 31
0.0
  0
LINE
  5
D8
330
1F
100
AcDbEntity
  8
B-4
  6
Continuous
 62
     7
370
     9
100
AcDbLine
 10
-1749.604178763725
 20
301.0587455130914
 30
0.0
 11
-1749.604178763725
 21
426.0586630331505
 31
0.0
  0
LINE
  5
D9
330
1F
100
AcDbEntity
  8
B-4
  6
Continuous
 62
     7
370
     9
100
AcDbLine
 10
-1681.270949904983
 20
301.0587455130914
 30
0.0
 11
-1752.604262893264
 21
301.0587455130914
 31
0.0
  0
LINE
  5
DA
330
1F
100
AcDbEntity
  8
B-4
  6
Continuous
 62
     7
370
     9
100
AcDbLine
 10
-1681.270949904983
 20
426.0586630331505
 30
0.0
 11
-1752.604262893264
 21
426.0586630331505
 31
0.0
  0
LINE
  5
DB
330
1F
100
AcDbEntity
  8
B-F
  6
Continuous
 62
     7
370
     9
100
AcDbLine
 10
-1842.968017990525
 20
707.104277739654
 30
0.0
 11
-320.508307379645
 21
707.104277739654
 31
0.0
  0
LINE
  5
DC
330
1F
100
AcDbEntity
  8
B-F
  6
Continuous
 62
     7
370
     9
100
AcDbLine
 10
-1842.968017990525
 20
627.1045086834883
 30
0.0
 11
-320.508307379645
 21
627.1045086834883
 31
0.0
  0
LINE
  5
DD
330
1F
100
AcDbEntity
  8
B-F
  6
Continuous
 62
     7
370
     9
100
AcDbLine
 10
-1842.968017990525
 20
707.104277739654
 30
0.0
 11
-1842.968017990525
 21
627.1045086834883
 31
0.0
  0
LINE
  5
DE
330
1F
100
AcDbEntity
  8
B-F
  6
Continuous
 62
     7
370
     9
100
AcDbLine
 10
-320.508307379645
 20
707.104277739654
 30
0.0
 11
-320.508307379645
 21
627.1045086834883
 31
0.0
  0
LINE
  5
DF
330
1F
100
AcDbEntity
  8
F-F
  6
Continuous
 62
     7
370
     9
100
AcDbLine
 10
-1870.00015361889
 20
-718.1083349279454
 30
0.0
 11
-1870.00015361889
 21
-1128.108326679951
 31
0.0
  0
LINE
  5
E0
330
1F
100
AcDbEntity
  8
F-F
  6
Continuous
 62
     7
370
     9
100
AcDbLine
 10
-1370.000004123997
 20
-718.1083967879011
 30
0.0
 11
-1370.000004123997
 21
-1128.108326679951
 31
0.0
  0
LINE
  5
E1
330
1F
100
AcDbEntity
  8
F-F
  6
Continuous
 62
     7
370
     9
100
AcDbLine
 10
-1070.000127843908
 20
-718.1083967879011
 30
0.0
 11
-1070.000127843908
 21
-1128.108326679951
 31
0.0
  0
LINE
  5
E2
330
1F
100
AcDbEntity
  8
F-F
  6
Continuous
 62
     7
370
     9
100
AcDbLine
 10
-1870.00015361889
 20
-928.108285439981
 30
0.0
 11
-1070.000127843908
 21
-928.108285439981
 31
0.0
  0
LINE
  5
E3
330
1F
100
AcDbEntity
  8
F-F
  6
Continuous
 62
     7
370
     9
100
AcDbLine
 10
-1870.00015361889
 20
-1028.1083988499
 30
0.0
 11
-1070.000127843908
 21
-1028.108367919922
 31
0.0
  0
LINE
  5
E4
330
1F
100
AcDbEntity
  8
F-F
  6
Continuous
 62
     7
370
     9
100
AcDbLine
 10
-1870.00015361889
 20
-1128.108326679951
 30
0.0
 11
-1070.000127843908
 21
-1128.108326679951
 31
0.0
  0
LINE
  5
E5
330
1F
100
AcDbEntity
  8
F-F
  6
Continuous
 62
     7
370
     9
100
AcDbLine
 10
-1870.00015361889
 20
-818.1084174078863
 30
0.0
 11
-1070.000127843908
 21
-818.1084174078863
 31
0.0
  0
LINE
  5
E6
330
1F
100
AcDbEntity
  8
F-F
  6
Continuous
 62
     7
370
     9
100
AcDbLine
 10
-1870.00015361889
 20
-828.1083266799515
 30
0.0
 11
-1070.000127843908
 21
-828.1083266799515
 31
0.0
  0
LINE
  5
E7
330
1F
100
AcDbEntity
  8
F-F
  6
Continuous
 62
     7
370
     9
100
AcDbLine
 10
-1870.00015361889
 20
-718.1083349279454
 30
0.0
 11
-1070.000127843908
 21
-718.1083967879011
 31
0.0
  0
LINE
  5
E8
330
1F
100
AcDbEntity
  8
B-4
  6
Continuous
 62
     7
370
     9
100
AcDbLine
 10
1792.059903531461
 20
884.3919413798565
 30
0.0
 11
1792.059903531461
 21
951.0584155933279
 31
0.0
  0
LINE
  5
E9
330
1F
100
AcDbEntity
  8
B-4
  6
Continuous
 62
     7
370
     9
100
AcDbLine
 10
1723.72667467272
 20
884.3919413798565
 30
0.0
 11
1795.05986394109
 21
884.3919413798565
 31
0.0
  0
LINE
  5
EA
330
1F
100
AcDbEntity
  8
B-4
  6
Continuous
 62
     7
370
     9
100
AcDbLine
 10
1792.059903531461
 20
951.0584155933279
 30
0.0
 11
1792.059903531461
 21
1009.391858899916
 31
0.0
  0
LINE
  5
EB
330
1F
100
AcDbEntity
  8
B-4
  6
Continuous
 62
     7
370
     9
100
AcDbLine
 10
1723.72667467272
 20
1009.391858899916
 30
0.0
 11
1795.05986394109
 21
1009.391858899916
 31
0.0
  0
LINE
  5
EC
330
1F
100
AcDbEntity
  8
B-4
  6
Continuous
 62
     7
370
     9
100
AcDbLine
 10
1792.059903531461
 20
301.05862179318
 30
0.0
 11
1792.059903531461
 21
367.7250960066513
 31
0.0
  0
LINE
  5
ED
330
1F
100
AcDbEntity
  8
B-4
  6
Continuous
 62
     7
370
     9
100
AcDbLine
 10
1723.726427232898
 20
301.05862179318
 30
0.0
 11
1795.05986394109
 21
301.05862179318
 31
0.0
  0
LINE
  5
EE
330
1F
100
AcDbEntity
  8
B-4
  6
Continuous
 62
     7
370
     9
100
AcDbLine
 10
1792.059903531461
 20
367.7250960066513
 30
0.0
 11
1792.059903531461
 21
426.0586630331505
 31
0.0
  0
LINE
  5
EF
330
1F
100
AcDbEntity
  8
B-4
  6
Continuous
 62
     7
370
     9
100
AcDbLine
 10
1723.726427232898
 20
426.0586630331505
 30
0.0
 11
1795.05986394109
 21
426.0586630331505
 31
0.0
  0
LINE
  5
F0
330
1F
100
AcDbEntity
  8
B-4
  6
Continuous
 62
     7
370
     9
100
AcDbLine
 10
1723.726427232898
 20
367.7250960066513
 30
0.0
 11
1795.05986394109
 21
367.7250960066513
 31
0.0
  0
LINE
  5
F1
330
1F
100
AcDbEntity
  8
B-4
  6
Continuous
 62
     7
370
     9
100
AcDbLine
 10
1723.72667467272
 20
951.0584155933279
 30
0.0
 11
1795.05986394109
 21
951.0584155933279
 31
0.0
  0
LINE
  5
F2
330
1F
100
AcDbEntity
  8
B-5
  6
Continuous
 62
     7
370
     9
100
AcDbLine
 10
25.28092667863177
 20
942.8367326066302
 30
0.0
 11
128.5615663270693
 21
733.3719944309544
 31
0.0
  0
LINE
  5
F3
330
1F
100
AcDbEntity
  8
B-5
  6
Continuous
 62
     7
370
     9
100
AcDbLine
 10
25.28092667863177
 20
942.8367326066302
 30
0.0
 11
39.16898160367424
 21
922.04906566723
 31
0.0
  0
LINE
  5
F4
330
1F
100
AcDbEntity
  8
B-5
  6
Continuous
 62
     7
370
     9
100
AcDbLine
 10
25.28092667863177
 20
942.8367326066302
 30
0.0
 11
33.31554515941747
 21
919.1629275760135
 31
0.0
  0
LINE
  5
F5
330
1F
100
AcDbEntity
  8
B-5
  6
Continuous
 62
     7
370
     9
100
AcDbLine
 10
128.5615663270693
 20
733.3719944309544
 30
0.0
 11
318.5616982949747
 21
733.3719944309544
 31
0.0
  0
LINE
  5
F6
330
1F
100
AcDbEntity
  8
B-5
  6
Continuous
 62
     7
370
     9
100
AcDbLine
 10
-140.9684464738174
 20
359.5034130199537
 30
0.0
 11
-37.68780682537994
 21
150.0386748442779
 31
0.0
  0
LINE
  5
F7
330
1F
100
AcDbEntity
  8
B-5
  6
Continuous
 62
     7
370
     9
100
AcDbLine
 10
-140.9684464738174
 20
359.5034130199537
 30
0.0
 11
-127.0803915487753
 21
338.7157460805534
 31
0.0
  0
LINE
  5
F8
330
1F
100
AcDbEntity
  8
B-5
  6
Continuous
 62
     7
370
     9
100
AcDbLine
 10
-140.9684464738174
 20
359.5034130199537
 30
0.0
 11
-132.933827993032
 21
335.829607989337
 31
0.0
  0
LINE
  5
F9
330
1F
100
AcDbEntity
  8
B-5
  6
Continuous
 62
     7
370
     9
100
AcDbLine
 10
-37.68780682537994
 20
150.0386748442779
 30
0.0
 11
187.3121931746201
 21
150.0386748442779
 31
0.0
  0
LINE
  5
FA
330
1F
100
AcDbEntity
  8
B-4
  6
Continuous
 62
     7
370
     9
100
AcDbLine
 10
-1666.270900417019
 20
217.7254671663852
 30
0.0
 11
-1616.270982896959
 21
217.7254671663852
 31
0.0
  0
LINE
  5
FB
330
1F
100
AcDbEntity
  8
B-4
  6
Continuous
 62
     7
370
     9
100
AcDbLine
 10
-1666.270900417019
 20
286.0585723052154
 30
0.0
 11
-1666.270900417019
 21
214.7255067567568
 31
0.0
  0
LINE
  5
FC
330
1F
100
AcDbEntity
  8
B-4
  6
Continuous
 62
     7
370
     9
100
AcDbLine
 10
-1616.270982896959
 20
286.0585723052154
 30
0.0
 11
-1616.270982896959
 21
214.7255067567568
 31
0.0
  0
LINE
  5
FD
330
1F
100
AcDbEntity
  8
B-4
  6
Continuous
 62
     7
370
     9
100
AcDbLine
 10
-1616.270982896959
 20
217.7254671663852
 30
0.0
 11
-1500.021032384924
 21
217.7254671663852
 31
0.0
  0
LINE
  5
FE
330
1F
100
AcDbEntity
  8
B-4
  6
Continuous
 62
     7
370
     9
100
AcDbLine
 10
-1500.021032384924
 20
286.0585723052154
 30
0.0
 11
-1500.021032384924
 21
214.7255067567568
 31
0.0
  0
LINE
  5
FF
330
1F
100
AcDbEntity
  8
B-4
  6
Continuous
 62
     7
370
     9
100
AcDbLine
 10
-1641.2710653769
 20
134.3921888196792
 30
0.0
 11
-1475.021197344806
 21
134.3921888196792
 31
0.0
  0
LINE
  5
100
330
1F
100
AcDbEntity
  8
B-4
  6
JWW_CENTER1
 62
     7
370
     9
100
AcDbLine
 10
-1475.021197344806
 20
339.8675784549198
 30
0.0
 11
-1475.021197344806
 21
131.3922284100508
 31
0.0
  0
LINE
  5
101
330
1F
100
AcDbEntity
  8
B-4
  6
Continuous
 62
     7
370
     9
100
AcDbLine
 10
-1475.021197344806
 20
134.3921888196792
 30
0.0
 11
-1308.771329312711
 21
134.3921888196792
 31
0.0
  0
LINE
  5
102
330
1F
100
AcDbEntity
  8
B-4
  6
JWW_CENTER1
 62
     7
370
     9
100
AcDbLine
 10
-1308.771329312711
 20
339.8675784549198
 30
0.0
 11
-1308.771329312711
 21
131.3922284100508
 31
0.0
  0
LINE
  5
103
330
1F
100
AcDbEntity
  8
B-4
  6
JWW_CENTER1
 62
     7
370
     9
100
AcDbLine
 10
-1641.2710653769
 20
343.5583908493456
 30
0.0
 11
-1641.2710653769
 21
272.3680980785474
 31
0.0
  0
LINE
  5
104
330
1F
100
AcDbEntity
  8
B-4
  6
JWW_CENTER1
 62
     7
370
     9
100
AcDbLine
 10
-1641.2710653769
 20
200.7134844805745
 30
0.0
 11
-1641.2710653769
 21
131.3922284100508
 31
0.0
  0
LINE
  5
105
330
1F
100
AcDbEntity
  8
B-4
  6
Continuous
 62
     7
370
     9
100
AcDbLine
 10
-1641.270817937077
 20
801.0586630331505
 30
0.0
 11
-810.0218489363385
 21
801.0586630331505
 31
0.0
  0
LINE
  5
106
330
1F
100
AcDbEntity
  8
B-4
  6
JWW_CENTER1
 62
     7
370
     9
100
AcDbLine
 10
-1641.270817937077
 20
923.2008980415964
 30
0.0
 11
-1641.270817937077
 21
798.0587026235221
 31
0.0
  0
LINE
  5
107
330
1F
100
AcDbEntity
  8
B-4
  6
JWW_CENTER1
 62
     7
370
     9
100
AcDbLine
 10
-810.0218489363385
 20
923.2008980415964
 30
0.0
 11
-810.0218489363385
 21
798.0587026235221
 31
0.0
  0
LINE
  5
108
330
1F
100
AcDbEntity
  8
B-0
  6
Continuous
 62
     3
370
     9
100
AcDbLine
 10
-1283.771123112859
 20
1009.391858899916
 30
0.0
 11
-1283.771123112859
 21
1007.392050253378
 31
0.0
  0
LINE
  5
109
330
1F
100
AcDbEntity
  8
B-0
  6
Continuous
 62
     3
370
     9
100
AcDbLine
 10
-1167.521296320735
 20
1009.391858899916
 30
0.0
 11
-1167.521296320735
 21
1007.392050253378
 31
0.0
  0
LINE
  5
10A
330
1F
100
AcDbEntity
  8
B-0
  6
JWW_CENTER1
 62
     3
370
     9
100
AcDbLine
 10
-1225.646147856841
 20
1014.993649044553
 30
0.0
 11
-1225.646147856841
 21
1001.790012668919
 31
0.0
  0
LINE
  5
10B
330
1F
100
AcDbEntity
  8
B-0
  6
Continuous
 62
     3
370
     9
100
AcDbLine
 10
-783.7710818728885
 20
1009.391858899916
 30
0.0
 11
-783.7710818728885
 21
1007.392050253378
 31
0.0
  0
LINE
  5
10C
330
1F
100
AcDbEntity
  8
B-0
  6
Continuous
 62
     3
370
     9
100
AcDbLine
 10
-667.5212550807644
 20
1009.391858899916
 30
0.0
 11
-667.5212550807644
 21
1007.392050253378
 31
0.0
  0
LINE
  5
10D
330
1F
100
AcDbEntity
  8
B-0
  6
JWW_CENTER1
 62
     3
370
     9
100
AcDbLine
 10
-725.6461066168708
 20
1014.993649044553
 30
0.0
 11
-725.6461066168708
 21
1001.790012668919
 31
0.0
  0
LINE
  5
10E
330
1F
100
AcDbEntity
  8
B-0
  6
Continuous
 62
     3
370
     9
100
AcDbLine
 10
-283.7711643528294
 20
1009.391858899916
 30
0.0
 11
-283.7711643528294
 21
1007.392050253378
 31
0.0
  0
LINE
  5
10F
330
1F
100
AcDbEntity
  8
B-0
  6
Continuous
 62
     3
370
     9
100
AcDbLine
 10
-167.5212138407937
 20
1009.391858899916
 30
0.0
 11
-167.5212138407937
 21
1007.392050253378
 31
0.0
  0
LINE
  5
110
330
1F
100
AcDbEntity
  8
B-0
  6
JWW_CENTER1
 62
     3
370
     9
100
AcDbLine
 10
-225.6460653769003
 20
1014.993649044553
 30
0.0
 11
-225.6460653769003
 21
1001.790012668919
 31
0.0
  0
LINE
  5
111
330
1F
100
AcDbEntity
  8
B-0
  6
Continuous
 62
     3
370
     9
100
AcDbLine
 10
216.22875316723
 20
1009.391858899916
 30
0.0
 11
216.22875316723
 21
1007.392050253378
 31
0.0
  0
LINE
  5
112
330
1F
100
AcDbEntity
  8
B-0
  6
Continuous
 62
     3
370
     9
100
AcDbLine
 10
332.4787036792654
 20
1009.391858899916
 30
0.0
 11
332.4787036792654
 21
1007.392050253378
 31
0.0
  0
LINE
  5
113
330
1F
100
AcDbEntity
  8
B-0
  6
JWW_CENTER1
 62
     3
370
     9
100
AcDbLine
 10
274.3538521431589
 20
1014.993649044553
 30
0.0
 11
274.3538521431589
 21
1001.790012668919
 31
0.0
  0
LINE
  5
114
330
1F
100
AcDbEntity
  8
B-0
  6
Continuous
 62
     3
370
     9
100
AcDbLine
 10
716.2289181271115
 20
1009.391858899916
 30
0.0
 11
716.2289181271115
 21
1007.392050253378
 31
0.0
  0
LINE
  5
115
330
1F
100
AcDbEntity
  8
B-0
  6
Continuous
 62
     3
370
     9
100
AcDbLine
 10
832.4786211993245
 20
1009.391858899916
 30
0.0
 11
832.4786211993245
 21
1007.392050253378
 31
0.0
  0
LINE
  5
116
330
1F
100
AcDbEntity
  8
B-0
  6
JWW_CENTER1
 62
     3
370
     9
100
AcDbLine
 10
774.3540171030406
 20
1014.993649044553
 30
0.0
 11
774.3540171030406
 21
1001.790012668919
 31
0.0
  0
LINE
  5
117
330
1F
100
AcDbEntity
  8
B-0
  6
Continuous
 62
     3
370
     9
100
AcDbLine
 10
1216.229083086993
 20
1009.391858899916
 30
0.0
 11
1216.229083086993
 21
1007.392050253378
 31
0.0
  0
LINE
  5
118
330
1F
100
AcDbEntity
  8
B-0
  6
Continuous
 62
     3
370
     9
100
AcDbLine
 10
1332.478786159206
 20
1009.391858899916
 30
0.0
 11
1332.478786159206
 21
1007.392050253378
 31
0.0
  0
LINE
  5
119
330
1F
100
AcDbEntity
  8
B-0
  6
JWW_CENTER1
 62
     3
370
     9
100
AcDbLine
 10
1274.3539346231
 20
1014.993649044553
 30
0.0
 11
1274.3539346231
 21
1001.790012668919
 31
0.0
  0
LINE
  5
11A
330
1F
100
AcDbEntity
  8
B-4
  6
Continuous
 62
     7
370
     9
100
AcDbLine
 10
-1225.646147856841
 20
1029.993698532517
 30
0.0
 11
-1225.646147856841
 21
1070.725015176309
 31
0.0
  0
LINE
  5
11B
330
1F
100
AcDbEntity
  8
B-4
  6
Continuous
 62
     7
370
     9
100
AcDbLine
 10
-1225.646147856841
 20
1067.725054766681
 30
0.0
 11
-725.6461066168708
 21
1067.725054766681
 31
0.0
  0
LINE
  5
11C
330
1F
100
AcDbEntity
  8
B-4
  6
Continuous
 62
     7
370
     9
100
AcDbLine
 10
-725.6461066168708
 20
1029.993698532517
 30
0.0
 11
-725.6461066168708
 21
1070.725015176309
 31
0.0
  0
LINE
  5
11D
330
1F
100
AcDbEntity
  8
B-4
  6
Continuous
 62
     7
370
     9
100
AcDbLine
 10
1216.229083086993
 20
1067.725054766681
 30
0.0
 11
1332.478786159206
 21
1067.725054766681
 31
0.0
  0
LINE
  5
11E
330
1F
100
AcDbEntity
  8
B-4
  6
Continuous
 62
     7
370
     9
100
AcDbLine
 10
1216.229083086993
 20
1024.39190838788
 30
0.0
 11
1216.229083086993
 21
1070.725015176309
 31
0.0
  0
LINE
  5
11F
330
1F
100
AcDbEntity
  8
B-4
  6
Continuous
 62
     7
370
     9
100
AcDbLine
 10
1332.478786159206
 20
1024.39190838788
 30
0.0
 11
1332.478786159206
 21
1070.725015176309
 31
0.0
  0
LINE
  5
120
330
1F
100
AcDbEntity
  8
B-5
  6
Continuous
 62
     7
370
     9
100
AcDbLine
 10
1303.416236671242
 20
1006.391898490287
 30
0.0
 11
1386.28680254962
 21
759.0958383921031
 31
0.0
  0
LINE
  5
121
330
1F
100
AcDbEntity
  8
B-5
  6
Continuous
 62
     7
370
     9
100
AcDbLine
 10
1303.416236671242
 20
1006.391898490287
 30
0.0
 11
1314.385738888303
 21
983.9270844330658
 31
0.0
  0
LINE
  5
122
330
1F
100
AcDbEntity
  8
B-5
  6
Continuous
 62
     7
370
     9
100
AcDbLine
 10
1303.416236671242
 20
1006.391898490287
 30
0.0
 11
1308.197763803843
 21
981.8535387193836
 31
0.0
  0
LINE
  5
123
330
1F
100
AcDbEntity
  8
B-5
  6
Continuous
 62
     7
370
     9
100
AcDbLine
 10
1386.28680254962
 20
759.0958383921031
 30
0.0
 11
1706.286868533573
 21
759.0958383921031
 31
0.0
  0
LINE
  5
124
330
1F
100
AcDbEntity
  8
B-0
  6
Continuous
 62
     3
370
     9
100
AcDbLine
 10
-1167.521296320735
 20
426.0586630331505
 30
0.0
 11
-1167.521296320735
 21
424.0588543866133
 31
0.0
  0
LINE
  5
125
330
1F
100
AcDbEntity
  8
B-0
  6
JWW_CENTER1
 62
     3
370
     9
100
AcDbLine
 10
-1225.646147856841
 20
431.6604531777872
 30
0.0
 11
-1225.646147856841
 21
418.4568168021539
 31
0.0
  0
LINE
  5
126
330
1F
100
AcDbEntity
  8
B-0
  6
Continuous
 62
     3
370
     9
100
AcDbLine
 10
-783.7710818728885
 20
426.0586630331505
 30
0.0
 11
-783.7710818728885
 21
424.0588543866133
 31
0.0
  0
LINE
  5
127
330
1F
100
AcDbEntity
  8
B-0
  6
Continuous
 62
     3
370
     9
100
AcDbLine
 10
-667.5212550807644
 20
426.0586630331505
 30
0.0
 11
-667.5212550807644
 21
424.0588543866133
 31
0.0
  0
LINE
  5
128
330
1F
100
AcDbEntity
  8
B-0
  6
JWW_CENTER1
 62
     3
370
     9
100
AcDbLine
 10
-725.6461066168708
 20
431.6604531777872
 30
0.0
 11
-725.6461066168708
 21
418.4568168021539
 31
0.0
  0
LINE
  5
129
330
1F
100
AcDbEntity
  8
B-0
  6
Continuous
 62
     3
370
     9
100
AcDbLine
 10
-283.7711643528294
 20
426.0586630331505
 30
0.0
 11
-283.7711643528294
 21
424.0588543866133
 31
0.0
  0
LINE
  5
12A
330
1F
100
AcDbEntity
  8
B-0
  6
Continuous
 62
     3
370
     9
100
AcDbLine
 10
-167.5212138407937
 20
426.0586630331505
 30
0.0
 11
-167.5212138407937
 21
424.0588543866133
 31
0.0
  0
LINE
  5
12B
330
1F
100
AcDbEntity
  8
B-0
  6
JWW_CENTER1
 62
     3
370
     9
100
AcDbLine
 10
-225.6460653769003
 20
431.6604531777872
 30
0.0
 11
-225.6460653769003
 21
418.4568168021539
 31
0.0
  0
LINE
  5
12C
330
1F
100
AcDbEntity
  8
B-0
  6
Continuous
 62
     3
370
     9
100
AcDbLine
 10
216.22875316723
 20
426.0586630331505
 30
0.0
 11
216.22875316723
 21
424.0588543866133
 31
0.0
  0
LINE
  5
12D
330
1F
100
AcDbEntity
  8
B-0
  6
Continuous
 62
     3
370
     9
100
AcDbLine
 10
332.4787036792654
 20
426.0586630331505
 30
0.0
 11
332.4787036792654
 21
424.0588543866133
 31
0.0
  0
LINE
  5
12E
330
1F
100
AcDbEntity
  8
B-0
  6
JWW_CENTER1
 62
     3
370
     9
100
AcDbLine
 10
274.3538521431589
 20
431.6604531777872
 30
0.0
 11
274.3538521431589
 21
418.4568168021539
 31
0.0
  0
LINE
  5
12F
330
1F
100
AcDbEntity
  8
B-0
  6
Continuous
 62
     3
370
     9
100
AcDbLine
 10
716.2289181271115
 20
426.0586630331505
 30
0.0
 11
716.2289181271115
 21
424.0588543866133
 31
0.0
  0
LINE
  5
130
330
1F
100
AcDbEntity
  8
B-0
  6
Continuous
 62
     3
370
     9
100
AcDbLine
 10
832.4786211993245
 20
426.0586630331505
 30
0.0
 11
832.4786211993245
 21
424.0588543866133
 31
0.0
  0
LINE
  5
131
330
1F
100
AcDbEntity
  8
B-0
  6
JWW_CENTER1
 62
     3
370
     9
100
AcDbLine
 10
774.3540171030406
 20
431.6604531777872
 30
0.0
 11
774.3540171030406
 21
418.4568168021539
 31
0.0
  0
LINE
  5
132
330
1F
100
AcDbEntity
  8
B-0
  6
Continuous
 62
     3
370
     9
100
AcDbLine
 10
1216.229083086993
 20
426.0586630331505
 30
0.0
 11
1216.229083086993
 21
424.0588543866133
 31
0.0
  0
LINE
  5
133
330
1F
100
AcDbEntity
  8
B-0
  6
Continuous
 62
     3
370
     9
100
AcDbLine
 10
1332.478786159206
 20
426.0586630331505
 30
0.0
 11
1332.478786159206
 21
424.0588543866133
 31
0.0
  0
LINE
  5
134
330
1F
100
AcDbEntity
  8
B-0
  6
JWW_CENTER1
 62
     3
370
     9
100
AcDbLine
 10
1274.3539346231
 20
431.6604531777872
 30
0.0
 11
1274.3539346231
 21
418.4568168021539
 31
0.0
  0
LINE
  5
135
330
1F
100
AcDbEntity
  8
B-4
  6
Continuous
 62
     7
370
     9
100
AcDbLine
 10
-1225.646147856841
 20
446.6605026657518
 30
0.0
 11
-1225.646147856841
 21
487.391819309544
 31
0.0
  0
LINE
  5
136
330
1F
100
AcDbEntity
  8
B-4
  6
Continuous
 62
     7
370
     9
100
AcDbLine
 10
-1225.646147856841
 20
484.3918588999156
 30
0.0
 11
-725.6461066168708
 21
484.3918588999156
 31
0.0
  0
LINE
  5
137
330
1F
100
AcDbEntity
  8
B-4
  6
Continuous
 62
     7
370
     9
100
AcDbLine
 10
-725.6461066168708
 20
446.6605026657518
 30
0.0
 11
-725.6461066168708
 21
487.391819309544
 31
0.0
  0
LINE
  5
138
330
1F
100
AcDbEntity
  8
B-4
  6
Continuous
 62
     7
370
     9
100
AcDbLine
 10
1216.229083086993
 20
484.3918588999156
 30
0.0
 11
1332.478786159206
 21
484.3918588999156
 31
0.0
  0
LINE
  5
139
330
1F
100
AcDbEntity
  8
B-4
  6
Continuous
 62
     7
370
     9
100
AcDbLine
 10
1216.229083086993
 20
441.0587125211148
 30
0.0
 11
1216.229083086993
 21
487.391819309544
 31
0.0
  0
LINE
  5
13A
330
1F
100
AcDbEntity
  8
B-4
  6
Continuous
 62
     7
370
     9
100
AcDbLine
 10
1332.478786159206
 20
441.0587125211148
 30
0.0
 11
1332.478786159206
 21
487.391819309544
 31
0.0
  0
LINE
  5
13B
330
1F
100
AcDbEntity
  8
B-5
  6
Continuous
 62
     7
370
     9
100
AcDbLine
 10
1303.416236671242
 20
423.0587026235222
 30
0.0
 11
1386.28680254962
 21
175.762642525338
 31
0.0
  0
LINE
  5
13C
330
1F
100
AcDbEntity
  8
B-5
  6
Continuous
 62
     7
370
     9
100
AcDbLine
 10
1303.416236671242
 20
423.0587026235222
 30
0.0
 11
1314.385738888303
 21
400.5938885663008
 31
0.0
  0
LINE
  5
13D
330
1F
100
AcDbEntity
  8
B-5
  6
Continuous
 62
     7
370
     9
100
AcDbLine
 10
1303.416236671242
 20
423.0587026235222
 30
0.0
 11
1308.197763803843
 21
398.5203428526182
 31
0.0
  0
LINE
  5
13E
330
1F
100
AcDbEntity
  8
B-5
  6
Continuous
 62
     7
370
     9
100
AcDbLine
 10
1386.28680254962
 20
175.762642525338
 30
0.0
 11
1706.286868533573
 21
175.762642525338
 31
0.0
  0
CIRCLE
  5
13F
330
1F
100
AcDbEntity
  8
B-0
  6
Continuous
 62
     3
370
     9
100
AcDbCircle
 10
-1641.270817937077
 20
951.0584155933279
 30
0.0
 40
9.166667268082904
  0
CIRCLE
  5
140
330
1F
100
AcDbEntity
  8
B-0
  6
Continuous
 62
     3
370
     9
100
AcDbCircle
 10
-810.0218489363385
 20
951.0584155933279
 30
0.0
 40
9.166667268082904
  0
CIRCLE
  5
141
330
1F
100
AcDbEntity
  8
B-0
  6
Continuous
 62
     3
370
     9
100
AcDbCircle
 10
21.22712006440054
 20
951.0584155933279
 30
0.0
 40
9.166667268082904
  0
CIRCLE
  5
142
330
1F
100
AcDbEntity
  8
B-0
  6
Continuous
 62
     3
370
     9
100
AcDbCircle
 10
852.4764602248734
 20
951.0584155933279
 30
0.0
 40
9.166667268082904
  0
CIRCLE
  5
143
330
1F
100
AcDbEntity
  8
B-0
  6
Continuous
 62
     3
370
     9
100
AcDbCircle
 10
1683.725800385346
 20
951.0584155933279
 30
0.0
 40
9.166667268082904
  0
CIRCLE
  5
144
330
1F
100
AcDbEntity
  8
B-0
  6
Continuous
 62
     3
370
     9
100
AcDbCircle
 10
-1641.2710653769
 20
367.7250960066513
 30
0.0
 40
9.166667268082904
  0
CIRCLE
  5
145
330
1F
100
AcDbEntity
  8
B-0
  6
Continuous
 62
     3
370
     9
100
AcDbCircle
 10
-1475.021197344806
 20
367.7250960066513
 30
0.0
 40
9.166667268082904
  0
CIRCLE
  5
146
330
1F
100
AcDbEntity
  8
B-0
  6
Continuous
 62
     3
370
     9
100
AcDbCircle
 10
-1308.771329312711
 20
367.7250960066513
 30
0.0
 40
9.166667268082904
  0
CIRCLE
  5
147
330
1F
100
AcDbEntity
  8
B-0
  6
Continuous
 62
     3
370
     9
100
AcDbCircle
 10
-1142.521461280616
 20
367.7250960066513
 30
0.0
 40
9.166667268082904
  0
CIRCLE
  5
148
330
1F
100
AcDbEntity
  8
B-0
  6
Continuous
 62
     3
370
     9
100
AcDbCircle
 10
-976.2719644082558
 20
367.7250960066513
 30
0.0
 40
9.166667268082904
  0
CIRCLE
  5
149
330
1F
100
AcDbEntity
  8
B-0
  6
Continuous
 62
     3
370
     9
100
AcDbCircle
 10
-810.02197265625
 20
367.7250960066513
 30
0.0
 40
9.166667268082904
  0
CIRCLE
  5
14A
330
1F
100
AcDbEntity
  8
B-0
  6
Continuous
 62
     3
370
     9
100
AcDbCircle
 10
-643.7721046241552
 20
367.7250960066513
 30
0.0
 40
9.166667268082904
  0
CIRCLE
  5
14B
330
1F
100
AcDbEntity
  8
B-0
  6
Continuous
 62
     3
370
     9
100
AcDbCircle
 10
-477.5223603119721
 20
367.7250960066513
 30
0.0
 40
9.166667268082904
  0
CIRCLE
  5
14C
330
1F
100
AcDbEntity
  8
B-0
  6
Continuous
 62
     3
370
     9
100
AcDbCircle
 10
-311.2727397197
 20
367.7250960066513
 30
0.0
 40
9.166667268082904
  0
CIRCLE
  5
14D
330
1F
100
AcDbEntity
  8
B-0
  6
Continuous
 62
     3
370
     9
100
AcDbCircle
 10
-145.0227479676943
 20
367.7250960066513
 30
0.0
 40
9.166667268082904
  0
CIRCLE
  5
14E
330
1F
100
AcDbEntity
  8
B-0
  6
Continuous
 62
     3
370
     9
100
AcDbCircle
 10
21.22712006440054
 20
367.7250960066513
 30
0.0
 40
9.166667268082904
  0
CIRCLE
  5
14F
330
1F
100
AcDbEntity
  8
B-0
  6
Continuous
 62
     3
370
     9
100
AcDbCircle
 10
187.4767406566724
 20
367.7250960066513
 30
0.0
 40
9.166667268082904
  0
CIRCLE
  5
150
330
1F
100
AcDbEntity
  8
B-0
  6
Continuous
 62
     3
370
     9
100
AcDbCircle
 10
353.7268561285896
 20
367.7250960066513
 30
0.0
 40
9.166667268082904
  0
CIRCLE
  5
151
330
1F
100
AcDbEntity
  8
B-0
  6
Continuous
 62
     3
370
     9
100
AcDbCircle
 10
519.9767241606844
 20
367.7250960066513
 30
0.0
 40
9.166667268082904
  0
CIRCLE
  5
152
330
1F
100
AcDbEntity
  8
B-0
  6
Continuous
 62
     3
370
     9
100
AcDbCircle
 10
686.2265921927786
 20
367.7250960066513
 30
0.0
 40
9.166667268082904
  0
CIRCLE
  5
153
330
1F
100
AcDbEntity
  8
B-0
  6
Continuous
 62
     3
370
     9
100
AcDbCircle
 10
852.4764602248734
 20
367.7250960066513
 30
0.0
 40
9.166667268082904
  0
CIRCLE
  5
154
330
1F
100
AcDbEntity
  8
B-0
  6
Continuous
 62
     3
370
     9
100
AcDbCircle
 10
1018.726328256968
 20
367.7250960066513
 30
0.0
 40
9.166667268082904
  0
CIRCLE
  5
155
330
1F
100
AcDbEntity
  8
B-0
  6
Continuous
 62
     3
370
     9
100
AcDbCircle
 10
1184.976196289062
 20
367.7250960066513
 30
0.0
 40
9.166667268082904
  0
CIRCLE
  5
156
330
1F
100
AcDbEntity
  8
B-0
  6
Continuous
 62
     3
370
     9
100
AcDbCircle
 10
1351.226064321157
 20
367.7250960066513
 30
0.0
 40
9.166667268082904
  0
CIRCLE
  5
157
330
1F
100
AcDbEntity
  8
B-0
  6
Continuous
 62
     3
370
     9
100
AcDbCircle
 10
1517.475932353252
 20
367.7250960066513
 30
0.0
 40
9.166667268082904
  0
CIRCLE
  5
158
330
1F
100
AcDbEntity
  8
B-0
  6
Continuous
 62
     3
370
     9
100
AcDbCircle
 10
1683.725552945524
 20
367.7250960066513
 30
0.0
 40
9.166667268082904
  0
CIRCLE
  5
159
330
1F
100
AcDbEntity
  8
B-4
  6
JWW_HOJO
 62
     7
370
     9
100
AcDbCircle
 10
-1212.285572773701
 20
826.6681897962417
 30
0.0
 40
91.86634115270667
  0
TEXT
  5
15A
330
1F
100
AcDbEntity
  8
B-4
  6
Continuous
 62
     2
370
     9
100
AcDbText
 10
-22.52201389622044
 20
1146.031697239232
 30
0.0
 40
30.48
  1
2025
 41
1.09375
  7
ＭＳ ゴシック
100
AcDbText
  0
TEXT
  5
15B
330
1F
100
AcDbEntity
  8
B-4
  6
Continuous
 62
     2
370
     9
100
AcDbText
 10
-1761.244254232871
 20
925.641900139886
 30
0.0
 40
30.48
  1
75
 50
90.0
 41
1.0625
  7
ＭＳ ゴシック
100
AcDbText
  0
TEXT
  5
15C
330
1F
100
AcDbEntity
  8
B-4
  6
Continuous
 62
     2
370
     9
100
AcDbText
 10
-22.52201389622044
 20
562.6985013724665
 30
0.0
 40
30.48
  1
2025
 41
1.09375
  7
ＭＳ ゴシック
100
AcDbText
  0
TEXT
  5
15D
330
1F
100
AcDbEntity
  8
B-4
  6
Continuous
 62
     2
370
     9
100
AcDbText
 10
-1761.244223302893
 20
342.3087042731208
 30
0.0
 40
30.48
  1
75
 50
90.0
 41
1.0625
  7
ＭＳ ゴシック
100
AcDbText
  0
TEXT
  5
15E
330
1F
100
AcDbEntity
  8
F-F
  6
Continuous
 62
     2
370
     9
100
AcDbText
 10
-1757.500156780223
 20
-782.4683184319613
 30
0.0
 40
30.48
  1
製品符号
 50
359.9999797467773
 41
1.093749999999999
  7
ＭＳ ゴシック
100
AcDbText
  0
TEXT
  5
15F
330
1F
100
AcDbEntity
  8
F-F
  6
Continuous
 62
     2
370
     9
100
AcDbText
 10
-1307.500282493797
 20
-782.468380291913
 30
0.0
 40
30.48
  1
Ｈ［mm］
 41
1.09375
  7
ＭＳ ゴシック
100
AcDbText
  0
TEXT
  5
160
330
1F
100
AcDbEntity
  8
F-F
  6
Continuous
 62
     2
370
     9
100
AcDbText
 10
-1262.500035053975
 20
-1092.468289563978
 30
0.0
 40
30.48
  1
９０
 41
1.0625
  7
ＭＳ ゴシック
100
AcDbText
  0
TEXT
  5
161
330
1F
100
AcDbEntity
  8
F-F
  6
Continuous
 62
     2
370
     9
100
AcDbText
 10
-1262.500035053975
 20
-992.4682689439927
 30
0.0
 40
30.48
  1
７５
 41
1.0625
  7
ＭＳ ゴシック
100
AcDbText
  0
TEXT
  5
162
330
1F
100
AcDbEntity
  8
F-F
  6
Continuous
 62
     2
370
     9
100
AcDbText
 10
-1262.500035053975
 20
-892.4681864640519
 30
0.0
 40
30.48
  1
５０
 41
1.0625
  7
ＭＳ ゴシック
100
AcDbText
  0
TEXT
  5
163
330
1F
100
AcDbEntity
  8
B-4
  6
Continuous
 62
     2
370
     9
100
AcDbText
 10
1780.419982712205
 20
896.4751784865922
 30
0.0
 40
30.48
  1
40
 50
90.0
 41
1.0625
  7
ＭＳ ゴシック
100
AcDbText
  0
TEXT
  5
164
330
1F
100
AcDbEntity
  8
B-4
  6
Continuous
 62
     2
370
     9
100
AcDbText
 10
1780.419982712205
 20
958.9752609665331
 30
0.0
 40
30.48
  1
35
 50
90.0
 41
1.0625
  7
ＭＳ ゴシック
100
AcDbText
  0
TEXT
  5
165
330
1F
100
AcDbEntity
  8
B-4
  6
Continuous
 62
     2
370
     9
100
AcDbText
 10
1780.419982712205
 20
313.1418588999156
 30
0.0
 40
30.48
  1
40
 50
90.0
 41
1.0625
  7
ＭＳ ゴシック
100
AcDbText
  0
TEXT
  5
166
330
1F
100
AcDbEntity
  8
B-4
  6
Continuous
 62
     2
370
     9
100
AcDbText
 10
1780.419982712205
 20
375.6419413798565
 30
0.0
 40
30.48
  1
35
 50
90.0
 41
1.0625
  7
ＭＳ ゴシック
100
AcDbText
  0
TEXT
  5
167
330
1F
100
AcDbEntity
  8
B-5
  6
Continuous
 62
     7
370
     9
100
AcDbText
 10
138.5616323110222
 20
747.6020274229307
 30
0.0
 40
22.86
  1
５－φ１１
 41
1.133333333333333
  7
ＭＳ ゴシック
100
AcDbText
  0
TEXT
  5
168
330
1F
100
AcDbEntity
  8
B-5
  6
Continuous
 62
     7
370
     9
100
AcDbText
 10
-27.68780682537994
 20
164.2687078362544
 30
0.0
 40
22.86
  1
２１－φ１１
 41
1.138888888888889
  7
ＭＳ ゴシック
100
AcDbText
  0
TEXT
  5
169
330
1F
100
AcDbEntity
  8
B-4
  6
Continuous
 62
     2
370
     9
100
AcDbText
 10
-1662.520941656989
 20
229.3655117055534
 30
0.0
 40
30.48
  1
30
 41
1.0625
  7
ＭＳ ゴシック
100
AcDbText
  0
TEXT
  5
16A
330
1F
100
AcDbEntity
  8
B-4
  6
Continuous
 62
     2
370
     9
100
AcDbText
 10
-1613.146007640942
 20
229.3655117055534
 30
0.0
 40
30.48
  1
69.75
 41
1.1
  7
ＭＳ ゴシック
100
AcDbText
  0
TEXT
  5
16B
330
1F
100
AcDbEntity
  8
B-4
  6
Continuous
 62
     2
370
     9
100
AcDbText
 10
-1424.396232398781
 20
146.0322333588471
 30
0.0
 40
30.48
  1
100
 41
1.083333333333333
  7
ＭＳ ゴシック
100
AcDbText
  0
TEXT
  5
16C
330
1F
100
AcDbEntity
  8
B-4
  6
Continuous
 62
     2
370
     9
100
AcDbText
 10
-1590.646146825842
 20
146.0322333588471
 30
0.0
 40
30.48
  1
100
 41
1.083333333333333
  7
ＭＳ ゴシック
100
AcDbText
  0
TEXT
  5
16D
330
1F
100
AcDbEntity
  8
B-4
  6
Continuous
 62
     2
370
     9
100
AcDbText
 10
-1258.146364366686
 20
812.6985838524073
 30
0.0
 40
30.48
  1
500
 41
1.083333333333333
  7
ＭＳ ゴシック
100
AcDbText
  0
TEXT
  5
16E
330
1F
100
AcDbEntity
  8
B-4
  6
Continuous
 62
     2
370
     9
100
AcDbText
 10
-1008.146189096812
 20
1079.364975585938
 30
0.0
 40
30.48
  1
300
 41
1.083333333333333
  7
ＭＳ ゴシック
100
AcDbText
  0
TEXT
  5
16F
330
1F
100
AcDbEntity
  8
B-4
  6
Continuous
 62
     2
370
     9
100
AcDbText
 10
1253.103563463366
 20
1079.364975585938
 30
0.0
 40
30.48
  1
70
 41
1.0625
  7
ＭＳ ゴシック
100
AcDbText
  0
TEXT
  5
170
330
1F
100
AcDbEntity
  8
B-5
  6
Continuous
 62
     7
370
     9
100
AcDbText
 10
1426.286711821685
 20
723.3257064241977
 30
0.0
 40
22.86
  1
６－７０×１０
 41
1.142857142857143
  7
ＭＳ ゴシック
100
AcDbText
  0
TEXT
  5
171
330
1F
100
AcDbEntity
  8
B-5
  6
Continuous
 62
     7
370
     9
100
AcDbText
 10
1396.286852037585
 20
773.3258713840794
 30
0.0
 40
22.86
  1
水抜き穴：＠３００
 41
1.148148148148148
  7
ＭＳ ゴシック
100
AcDbText
  0
TEXT
  5
172
330
1F
100
AcDbEntity
  8
B-4
  6
Continuous
 62
     2
370
     9
100
AcDbText
 10
-1008.146189096812
 20
496.0317797191724
 30
0.0
 40
30.48
  1
300
 41
1.083333333333333
  7
ＭＳ ゴシック
100
AcDbText
  0
TEXT
  5
173
330
1F
100
AcDbEntity
  8
B-4
  6
Continuous
 62
     2
370
     9
100
AcDbText
 10
1253.103563463366
 20
496.0317797191724
 30
0.0
 40
30.48
  1
70
 41
1.0625
  7
ＭＳ ゴシック
100
AcDbText
  0
TEXT
  5
174
330
1F
100
AcDbEntity
  8
B-5
  6
Continuous
 62
     7
370
     9
100
AcDbText
 10
1426.286711821685
 20
139.9925105574326
 30
0.0
 40
22.86
  1
６－７０×１０
 41
1.142857142857143
  7
ＭＳ ゴシック
100
AcDbText
  0
TEXT
  5
175
330
1F
100
AcDbEntity
  8
B-5
  6
Continuous
 62
     7
370
     9
100
AcDbText
 10
1396.286852037585
 20
189.9926755173143
 30
0.0
 40
22.86
  1
水抜き穴：＠３００
 41
1.148148148148148
  7
ＭＳ ゴシック
100
AcDbText
  0
TEXT
  5
176
330
1F
100
AcDbEntity
  8
B-F
  6
Continuous
 62
     3
370
     9
100
AcDbText
 10
-1813.404724533493
 20
1232.487506598395
 30
0.0
 40
38.1
  1
ガーデンエッジ　ＩＳ－Ｈ－Ｓ（直線用）　平面図　S=1:6
 41
1.09811320754717
  7
ＭＳ ゴシック
100
AcDbText
  0
TEXT
  5
177
330
1F
100
AcDbEntity
  8
B-F
  6
Continuous
 62
     3
370
     9
100
AcDbText
 10
-1813.404724533493
 20
649.1543107316302
 30
0.0
 40
38.1
  1
ガーデンエッジ　ＩＳ－Ｈ－Ｒ（曲線用）　平面図　S=1:6
 41
1.09811320754717
  7
ＭＳ ゴシック
100
AcDbText
  0
LWPOLYLINE
  5
178
330
1F
100
AcDbEntity
  8
B-4
  6
Continuous
 62
     7
370
     9
100
AcDbPolyline
 90
        4
 70
     1
 43
1.0
 10
-1665.770900417018
 20
1134.391776419975
 42
0.4142135623731
 10
-1666.270900417019
 20
1134.891776419975
 42
0.4142135623731
 10
-1666.770900417019
 20
1134.391776419975
 42
0.4142135623731
 10
-1666.270900417019
 20
1133.891776419975
 42
0.4142135623731
  0
LWPOLYLINE
  5
179
330
1F
100
AcDbEntity
  8
B-4
  6
Continuous
 62
     7
370
     9
100
AcDbPolyline
 90
        4
 70
     1
 43
1.0
 10
1709.226625184755
 20
1134.391776419975
 42
0.4142135623731
 10
1708.726625184755
 20
1134.891776419975
 42
0.4142135623731
 10
1708.226625184755
 20
1134.391776419975
 42
0.4142135623731
 10
1708.726625184755
 20
1133.891776419975
 42
0.4142135623731
  0
LWPOLYLINE
  5
17A
330
1F
100
AcDbEntity
  8
B-4
  6
Continuous
 62
     7
370
     9
100
AcDbPolyline
 90
        4
 70
     1
 43
1.0
 10
-1749.10424062368
 20
884.3919413798565
 42
0.4142135623731
 10
-1749.60424062368
 20
884.8919413798565
 42
0.4142135623731
 10
-1750.10424062368
 20
884.3919413798565
 42
0.4142135623731
 10
-1749.60424062368
 20
883.8919413798566
 42
0.4142135623731
  0
LWPOLYLINE
  5
17B
330
1F
100
AcDbEntity
  8
B-4
  6
Continuous
 62
     7
370
     9
100
AcDbPolyline
 90
        4
 70
     1
 43
1.0
 10
-1749.10424062368
 20
1009.391858899916
 42
0.4142135623731
 10
-1749.60424062368
 20
1009.891858899916
 42
0.4142135623731
 10
-1750.10424062368
 20
1009.391858899916
 42
0.4142135623731
 10
-1749.60424062368
 20
1008.891858899916
 42
0.4142135623731
  0
LWPOLYLINE
  5
17C
330
1F
100
AcDbEntity
  8
B-4
  6
Continuous
 62
     7
370
     9
100
AcDbPolyline
 90
        4
 70
     1
 43
1.0
 10
-1665.770900417018
 20
551.0585805532096
 42
0.4142135623731
 10
-1666.270900417019
 20
551.5585805532096
 42
0.4142135623731
 10
-1666.770900417019
 20
551.0585805532096
 42
0.4142135623731
 10
-1666.270900417019
 20
550.5585805532097
 42
0.4142135623731
  0
LWPOLYLINE
  5
17D
330
1F
100
AcDbEntity
  8
B-4
  6
Continuous
 62
     7
370
     9
100
AcDbPolyline
 90
        4
 70
     1
 43
1.0
 10
1709.226625184755
 20
551.0585805532096
 42
0.4142135623731
 10
1708.726625184755
 20
551.5585805532096
 42
0.4142135623731
 10
1708.226625184755
 20
551.0585805532096
 42
0.4142135623731
 10
1708.726625184755
 20
550.5585805532097
 42
0.4142135623731
  0
LWPOLYLINE
  5
17E
330
1F
100
AcDbEntity
  8
B-4
  6
Continuous
 62
     7
370
     9
100
AcDbPolyline
 90
        4
 70
     1
 43
1.0
 10
-1749.104178763725
 20
301.0587455130914
 42
0.4142135623731
 10
-1749.604178763725
 20
301.5587455130914
 42
0.4142135623731
 10
-1750.104178763725
 20
301.0587455130914
 42
0.4142135623731
 10
-1749.604178763725
 20
300.5587455130914
 42
0.4142135623731
  0
LWPOLYLINE
  5
17F
330
1F
100
AcDbEntity
  8
B-4
  6
Continuous
 62
     7
370
     9
100
AcDbPolyline
 90
        4
 70
     1
 43
1.0
 10
-1749.104178763725
 20
426.0586630331505
 42
0.4142135623731
 10
-1749.604178763725
 20
426.5586630331505
 42
0.4142135623731
 10
-1750.104178763725
 20
426.0586630331505
 42
0.4142135623731
 10
-1749.604178763725
 20
425.5586630331505
 42
0.4142135623731
  0
LWPOLYLINE
  5
180
330
1F
100
AcDbEntity
  8
B-4
  6
Continuous
 62
     7
370
     9
100
AcDbPolyline
 90
        4
 70
     1
 43
1.0
 10
1792.559903531462
 20
884.3919413798565
 42
0.4142135623731
 10
1792.059903531461
 20
884.8919413798565
 42
0.4142135623731
 10
1791.559903531461
 20
884.3919413798565
 42
0.4142135623731
 10
1792.059903531461
 20
883.8919413798566
 42
0.4142135623731
  0
LWPOLYLINE
  5
181
330
1F
100
AcDbEntity
  8
B-4
  6
Continuous
 62
     7
370
     9
100
AcDbPolyline
 90
        4
 70
     1
 43
1.0
 10
1792.559903531462
 20
951.0584155933279
 42
0.4142135623731
 10
1792.059903531461
 20
951.5584155933278
 42
0.4142135623731
 10
1791.559903531461
 20
951.0584155933279
 42
0.4142135623731
 10
1792.059903531461
 20
950.5584155933279
 42
0.4142135623731
  0
LWPOLYLINE
  5
182
330
1F
100
AcDbEntity
  8
B-4
  6
Continuous
 62
     7
370
     9
100
AcDbPolyline
 90
        4
 70
     1
 43
1.0
 10
1792.559903531462
 20
1009.391858899916
 42
0.4142135623731
 10
1792.059903531461
 20
1009.891858899916
 42
0.4142135623731
 10
1791.559903531461
 20
1009.391858899916
 42
0.4142135623731
 10
1792.059903531461
 20
1008.891858899916
 42
0.4142135623731
  0
LWPOLYLINE
  5
183
330
1F
100
AcDbEntity
  8
B-4
  6
Continuous
 62
     7
370
     9
100
AcDbPolyline
 90
        4
 70
     1
 43
1.0
 10
1792.559903531462
 20
301.05862179318
 42
0.4142135623731
 10
1792.059903531461
 20
301.55862179318
 42
0.4142135623731
 10
1791.559903531461
 20
301.05862179318
 42
0.4142135623731
 10
1792.059903531461
 20
300.55862179318
 42
0.4142135623731
  0
LWPOLYLINE
  5
184
330
1F
100
AcDbEntity
  8
B-4
  6
Continuous
 62
     7
370
     9
100
AcDbPolyline
 90
        4
 70
     1
 43
1.0
 10
1792.559903531462
 20
367.7250960066513
 42
0.4142135623731
 10
1792.059903531461
 20
368.2250960066513
 42
0.4142135623731
 10
1791.559903531461
 20
367.7250960066513
 42
0.4142135623731
 10
1792.059903531461
 20
367.2250960066514
 42
0.4142135623731
  0
LWPOLYLINE
  5
185
330
1F
100
AcDbEntity
  8
B-4
  6
Continuous
 62
     7
370
     9
100
AcDbPolyline
 90
        4
 70
     1
 43
1.0
 10
1792.559903531462
 20
426.0586630331505
 42
0.4142135623731
 10
1792.059903531461
 20
426.5586630331505
 42
0.4142135623731
 10
1791.559903531461
 20
426.0586630331505
 42
0.4142135623731
 10
1792.059903531461
 20
425.5586630331505
 42
0.4142135623731
  0
LWPOLYLINE
  5
186
330
1F
100
AcDbEntity
  8
B-4
  6
Continuous
 62
     7
370
     9
100
AcDbPolyline
 90
        4
 70
     1
 43
1.0
 10
-1665.770900417018
 20
217.7254671663852
 42
0.4142135623731
 10
-1666.270900417019
 20
218.2254671663852
 42
0.4142135623731
 10
-1666.770900417019
 20
217.7254671663852
 42
0.4142135623731
 10
-1666.270900417019
 20
217.2254671663852
 42
0.4142135623731
  0
LWPOLYLINE
  5
187
330
1F
100
AcDbEntity
  8
B-4
  6
Continuous
 62
     7
370
     9
100
AcDbPolyline
 90
        4
 70
     1
 43
1.0
 10
-1615.770982896959
 20
217.7254671663852
 42
0.4142135623731
 10
-1616.270982896959
 20
218.2254671663852
 42
0.4142135623731
 10
-1616.77098289696
 20
217.7254671663852
 42
0.4142135623731
 10
-1616.270982896959
 20
217.2254671663852
 42
0.4142135623731
  0
LWPOLYLINE
  5
188
330
1F
100
AcDbEntity
  8
B-4
  6
Continuous
 62
     7
370
     9
100
AcDbPolyline
 90
        4
 70
     1
 43
1.0
 10
-1499.521032384924
 20
217.7254671663852
 42
0.4142135623731
 10
-1500.021032384924
 20
218.2254671663852
 42
0.4142135623731
 10
-1500.521032384924
 20
217.7254671663852
 42
0.4142135623731
 10
-1500.021032384924
 20
217.2254671663852
 42
0.4142135623731
  0
LWPOLYLINE
  5
189
330
1F
100
AcDbEntity
  8
B-4
  6
Continuous
 62
     7
370
     9
100
AcDbPolyline
 90
        4
 70
     1
 43
1.0
 10
-1640.7710653769
 20
134.3921888196792
 42
0.4142135623731
 10
-1641.2710653769
 20
134.8921888196792
 42
0.4142135623731
 10
-1641.7710653769
 20
134.3921888196792
 42
0.4142135623731
 10
-1641.2710653769
 20
133.8921888196792
 42
0.4142135623731
  0
LWPOLYLINE
  5
18A
330
1F
100
AcDbEntity
  8
B-4
  6
Continuous
 62
     7
370
     9
100
AcDbPolyline
 90
        4
 70
     1
 43
1.0
 10
-1474.521197344806
 20
134.3921888196792
 42
0.4142135623731
 10
-1475.021197344806
 20
134.8921888196792
 42
0.4142135623731
 10
-1475.521197344806
 20
134.3921888196792
 42
0.4142135623731
 10
-1475.021197344806
 20
133.8921888196792
 42
0.4142135623731
  0
LWPOLYLINE
  5
18B
330
1F
100
AcDbEntity
  8
B-4
  6
Continuous
 62
     7
370
     9
100
AcDbPolyline
 90
        4
 70
     1
 43
1.0
 10
-1308.271329312711
 20
134.3921888196792
 42
0.4142135623731
 10
-1308.771329312711
 20
134.8921888196792
 42
0.4142135623731
 10
-1309.271329312711
 20
134.3921888196792
 42
0.4142135623731
 10
-1308.771329312711
 20
133.8921888196792
 42
0.4142135623731
  0
LWPOLYLINE
  5
18C
330
1F
100
AcDbEntity
  8
B-4
  6
Continuous
 62
     7
370
     9
100
AcDbPolyline
 90
        4
 70
     1
 43
1.0
 10
-1640.770817937077
 20
801.0586630331505
 42
0.4142135623731
 10
-1641.270817937077
 20
801.5586630331505
 42
0.4142135623731
 10
-1641.770817937078
 20
801.0586630331505
 42
0.4142135623731
 10
-1641.270817937077
 20
800.5586630331505
 42
0.4142135623731
  0
LWPOLYLINE
  5
18D
330
1F
100
AcDbEntity
  8
B-4
  6
Continuous
 62
     7
370
     9
100
AcDbPolyline
 90
        4
 70
     1
 43
1.0
 10
-809.5218489363385
 20
801.0586630331505
 42
0.4142135623731
 10
-810.0218489363385
 20
801.5586630331505
 42
0.4142135623731
 10
-810.5218489363385
 20
801.0586630331505
 42
0.4142135623731
 10
-810.0218489363385
 20
800.5586630331505
 42
0.4142135623731
  0
LWPOLYLINE
  5
18E
330
1F
100
AcDbEntity
  8
B-4
  6
Continuous
 62
     7
370
     9
100
AcDbPolyline
 90
        4
 70
     1
 43
1.0
 10
-1225.146147856841
 20
1067.725054766681
 42
0.4142135623731
 10
-1225.646147856841
 20
1068.225054766681
 42
0.4142135623731
 10
-1226.146147856841
 20
1067.725054766681
 42
0.4142135623731
 10
-1225.646147856841
 20
1067.225054766681
 42
0.4142135623731
  0
LWPOLYLINE
  5
18F
330
1F
100
AcDbEntity
  8
B-4
  6
Continuous
 62
     7
370
     9
100
AcDbPolyline
 90
        4
 70
     1
 43
1.0
 10
-725.1461066168708
 20
1067.725054766681
 42
0.4142135623731
 10
-725.6461066168708
 20
1068.225054766681
 42
0.4142135623731
 10
-726.1461066168708
 20
1067.725054766681
 42
0.4142135623731
 10
-725.6461066168708
 20
1067.225054766681
 42
0.4142135623731
  0
LWPOLYLINE
  5
190
330
1F
100
AcDbEntity
  8
B-4
  6
Continuous
 62
     7
370
     9
100
AcDbPolyline
 90
        4
 70
     1
 43
1.0
 10
1216.729083086993
 20
1067.725054766681
 42
0.4142135623731
 10
1216.229083086993
 20
1068.225054766681
 42
0.4142135623731
 10
1215.729083086993
 20
1067.725054766681
 42
0.4142135623731
 10
1216.229083086993
 20
1067.225054766681
 42
0.4142135623731
  0
LWPOLYLINE
  5
191
330
1F
100
AcDbEntity
  8
B-4
  6
Continuous
 62
     7
370
     9
100
AcDbPolyline
 90
        4
 70
     1
 43
1.0
 10
1332.978786159206
 20
1067.725054766681
 42
0.4142135623731
 10
1332.478786159206
 20
1068.225054766681
 42
0.4142135623731
 10
1331.978786159206
 20
1067.725054766681
 42
0.4142135623731
 10
1332.478786159206
 20
1067.225054766681
 42
0.4142135623731
  0
LWPOLYLINE
  5
192
330
1F
100
AcDbEntity
  8
B-4
  6
Continuous
 62
     7
370
     9
100
AcDbPolyline
 90
        4
 70
     1
 43
1.0
 10
-1225.146147856841
 20
484.3918588999156
 42
0.4142135623731
 10
-1225.646147856841
 20
484.8918588999156
 42
0.4142135623731
 10
-1226.146147856841
 20
484.3918588999156
 42
0.4142135623731
 10
-1225.646147856841
 20
483.8918588999156
 42
0.4142135623731
  0
LWPOLYLINE
  5
193
330
1F
100
AcDbEntity
  8
B-4
  6
Continuous
 62
     7
370
     9
100
AcDbPolyline
 90
        4
 70
     1
 43
1.0
 10
-725.1461066168708
 20
484.3918588999156
 42
0.4142135623731
 10
-725.6461066168708
 20
484.8918588999156
 42
0.4142135623731
 10
-726.1461066168708
 20
484.3918588999156
 42
0.4142135623731
 10
-725.6461066168708
 20
483.8918588999156
 42
0.4142135623731
  0
LWPOLYLINE
  5
194
330
1F
100
AcDbEntity
  8
B-4
  6
Continuous
 62
     7
370
     9
100
AcDbPolyline
 90
        4
 70
     1
 43
1.0
 10
1216.729083086993
 20
484.3918588999156
 42
0.4142135623731
 10
1216.229083086993
 20
484.8918588999156
 42
0.4142135623731
 10
1215.729083086993
 20
484.3918588999156
 42
0.4142135623731
 10
1216.229083086993
 20
483.8918588999156
 42
0.4142135623731
  0
LWPOLYLINE
  5
195
330
1F
100
AcDbEntity
  8
B-4
  6
Continuous
 62
     7
370
     9
100
AcDbPolyline
 90
        4
 70
     1
 43
1.0
 10
1332.978786159206
 20
484.3918588999156
 42
0.4142135623731
 10
1332.478786159206
 20
484.8918588999156
 42
0.4142135623731
 10
1331.978786159206
 20
484.3918588999156
 42
0.4142135623731
 10
1332.478786159206
 20
483.8918588999156
 42
0.4142135623731
  0
LINE
  5
196
330
1F
100
AcDbEntity
  8
F-0
  6
Continuous
 62
     3
370
     9
100
AcDbLine
 10
1098.12624621573
 20
-758.6566203435963
 30
0.0
 11
1098.12624621573
 21
-761.9299398972807
 31
0.0
  0
LINE
  5
197
330
1F
100
AcDbEntity
  8
F-3
  6
Continuous
 62
     6
370
     9
100
AcDbLine
 10
1220.030691554624
 20
-766.8411873568987
 30
0.0
 11
1220.030691554624
 21
-770.1137645911153
 31
0.0
  0
LINE
  5
198
330
1F
100
AcDbEntity
  8
F-3
  6
Continuous
 62
     6
370
     9
100
AcDbLine
 10
1200.185275459819
 20
-614.6189303098124
 30
0.0
 11
1078.280335241279
 21
-685.000960899973
 31
0.0
  0
LINE
  5
199
330
1F
100
AcDbEntity
  8
F-3
  6
Continuous
 62
     6
370
     9
100
AcDbLine
 10
1220.030691554624
 20
-766.8411873568987
 30
0.0
 11
1078.280335241279
 21
-685.000960899973
 31
0.0
  0
LINE
  5
19A
330
1F
100
AcDbEntity
  8
F-3
  6
Continuous
 62
     6
370
     9
100
AcDbLine
 10
1220.030691554624
 20
-770.1137645911153
 30
0.0
 11
1078.280335241279
 21
-688.2752083529924
 31
0.0
  0
LINE
  5
19B
330
1F
100
AcDbEntity
  8
F-3
  6
Continuous
 62
     6
370
     9
100
AcDbLine
 10
1078.280335241279
 20
-685.000960899973
 30
0.0
 11
1078.280335241279
 21
-688.2752083529924
 31
0.0
  0
LINE
  5
19C
330
1F
100
AcDbEntity
  8
F-3
  6
Continuous
 62
     6
370
     9
100
AcDbLine
 10
1343.353709396685
 20
-695.6401928137716
 30
0.0
 11
1220.030691554624
 21
-766.8411873568987
 31
0.0
  0
LINE
  5
19D
330
1F
100
AcDbEntity
  8
F-3
  6
Continuous
 62
     6
370
     9
100
AcDbLine
 10
1355.040787099388
 20
-467.6594089903973
 30
0.0
 11
1211.977267647319
 21
-385.0612743567403
 31
0.0
  0
LINE
  5
19E
330
1F
100
AcDbEntity
  8
F-3
  6
Continuous
 62
     6
370
     9
100
AcDbLine
 10
1343.353709396685
 20
-481.8832397547554
 30
0.0
 11
1200.280539791533
 21
-399.2794140051778
 31
0.0
  0
LINE
  5
19F
330
1F
100
AcDbEntity
  8
F-0
  6
Continuous
 62
     3
370
     9
100
AcDbLine
 10
1202.538675612901
 20
-391.0350902747091
 30
0.0
 11
946.844013054835
 21
-243.4101414122723
 31
0.0
  0
LINE
  5
1A0
330
1F
100
AcDbEntity
  8
F-0
  6
Continuous
 62
     3
370
     9
100
AcDbLine
 10
1207.135117758171
 20
-385.7861493171498
 30
0.0
 11
941.5168811133236
 21
-232.4317313615967
 31
0.0
  0
LINE
  5
1A1
330
1F
100
AcDbEntity
  8
F-3
  6
Continuous
 62
     6
370
     9
100
AcDbLine
 10
1340.518791348754
 20
-697.2771928203699
 30
0.0
 11
1198.76843503541
 21
-615.4374612430895
 31
0.0
  0
LINE
  5
1A2
330
1F
100
AcDbEntity
  8
F-0
  6
Continuous
 62
     3
370
     9
100
AcDbLine
 10
1149.155513397952
 20
-729.1942699622091
 30
0.0
 11
1098.12624621573
 21
-758.6566203435963
 31
0.0
  0
LINE
  5
1A3
330
1F
100
AcDbEntity
  8
F-F
  6
Continuous
 62
     7
370
     9
100
AcDbLine
 10
1292.685209475866
 20
-489.7755184775701
 30
0.0
 11
1337.982285726921
 21
-391.4922353470274
 31
0.0
  0
LINE
  5
1A4
330
1F
100
AcDbEntity
  8
F-F
  6
Continuous
 62
     7
370
     9
100
AcDbLine
 10
1292.685209475866
 20
-489.7755184775701
 30
0.0
 11
1316.69404802633
 21
-451.7153765790798
 31
0.0
  0
LINE
  5
1A5
330
1F
100
AcDbEntity
  8
F-F
  6
Continuous
 62
     7
370
     9
100
AcDbLine
 10
1292.685209475866
 20
-489.7755184775701
 30
0.0
 11
1306.024690314126
 21
-446.7982524236744
 31
0.0
  0
LINE
  5
1A6
330
1F
100
AcDbEntity
  8
F-3
  6
Continuous
 62
     6
370
     9
100
AcDbLine
 10
1343.353709396685
 20
-695.6401928137716
 30
0.0
 11
1343.353709396685
 21
-481.8832397547554
 31
0.0
  0
LINE
  5
1A7
330
1F
100
AcDbEntity
  8
F-3
  6
Continuous
 62
     6
370
     9
100
AcDbLine
 10
1200.185275459819
 20
-614.6189303098124
 30
0.0
 11
1200.185275459819
 21
-399.2243586446415
 31
0.0
  0
LINE
  5
1A8
330
1F
100
AcDbEntity
  8
F-F
  6
Continuous
 62
     7
370
     9
100
AcDbLine
 10
1337.982285726921
 20
-391.4922353470274
 30
0.0
 11
1726.880485684692
 21
-391.4922353470274
 31
0.0
  0
LINE
  5
1A9
330
1F
100
AcDbEntity
  8
F-0
  6
Continuous
 62
     3
370
     9
100
AcDbLine
 10
1238.221724995291
 20
-718.6912536707711
 30
0.0
 11
1226.333726156609
 21
-711.8277678705176
 31
0.0
  0
LINE
  5
1AA
330
1F
100
AcDbEntity
  8
F-0
  6
Continuous
 62
     3
370
     9
100
AcDbLine
 10
1212.23559482215
 20
-733.6945198764299
 30
0.0
 11
1200.347595983467
 21
-726.8310340761765
 31
0.0
  0
LINE
  5
1AB
330
1F
100
AcDbEntity
  8
F-0
  6
Continuous
 62
     3
370
     9
100
AcDbLine
 10
1243.488976499726
 20
-725.0054230647744
 30
0.0
 11
1223.499055548501
 21
-713.4642111375151
 31
0.0
  0
LINE
  5
1AC
330
1F
100
AcDbEntity
  8
F-0
  6
Continuous
 62
     3
370
     9
100
AcDbLine
 10
1167.346299398796
 20
-677.7722539215101
 30
0.0
 11
1155.458300560114
 21
-670.9087681212567
 31
0.0
  0
LINE
  5
1AD
330
1F
100
AcDbEntity
  8
F-0
  6
Continuous
 62
     3
370
     9
100
AcDbLine
 10
1141.360169225654
 20
-692.7755819871245
 30
0.0
 11
1129.472170386972
 21
-685.9120961868712
 31
0.0
  0
LINE
  5
1AE
330
1F
100
AcDbEntity
  8
F-0
  6
Continuous
 62
     3
370
     9
100
AcDbLine
 10
1172.61355090323
 20
-684.0864233155135
 30
0.0
 11
1152.623629952006
 21
-672.5452113882543
 31
0.0
  0
LINE
  5
1AF
330
1F
100
AcDbEntity
  8
F-0
  6
Continuous
 62
     3
370
     9
100
AcDbLine
 10
1199.477102687437
 20
-615.8464792699054
 30
0.0
 11
860.5092896595653
 21
-420.1432924099497
 31
0.0
  0
LINE
  5
1B0
330
1F
100
AcDbEntity
  8
F-0
  6
Continuous
 62
     3
370
     9
100
AcDbLine
 10
1200.185275459819
 20
-413.6841232798821
 30
0.0
 11
922.2158326283153
 21
-253.198737075807
 31
0.0
  0
LINE
  5
1B1
330
1F
100
AcDbEntity
  8
F-0
  6
Continuous
 62
     3
370
     9
100
AcDbLine
 10
1675.618130189548
 20
-688.1751189447364
 30
0.0
 11
1346.188627444616
 21
-497.9788909173926
 31
0.0
  0
LINE
  5
1B2
330
1F
100
AcDbEntity
  8
F-0
  6
Continuous
 62
     3
370
     9
100
AcDbLine
 10
1680.016125597065
 20
-666.7068687731783
 30
0.0
 11
1348.013991016195
 21
-475.0255687903341
 31
0.0
  0
LINE
  5
1B3
330
1F
100
AcDbEntity
  8
F-0
  6
Continuous
 62
     3
370
     9
100
AcDbLine
 10
1684.274564944616
 20
-661.2635638349391
 30
0.0
 11
1354.64290386459
 21
-470.9503586314446
 31
0.0
  0
LINE
  5
1B4
330
1F
100
AcDbEntity
  8
F-0
  6
Continuous
 62
     3
370
     9
100
AcDbLine
 10
1462.733031345587
 20
-969.162337853098
 30
0.0
 11
742.0558875269637
 21
-553.077615282627
 31
0.0
  0
LINE
  5
1B5
330
1F
100
AcDbEntity
  8
F-0
  6
Continuous
 62
     3
370
     9
100
AcDbLine
 10
1453.892996242124
 20
-967.3323966447998
 30
0.0
 11
746.78718437557
 21
-559.0818662987799
 31
0.0
  0
LINE
  5
1B6
330
1F
100
AcDbEntity
  8
F-3
  6
JWW_DASHED1
 62
     6
370
     9
100
AcDbLine
 10
1165.955192715942
 20
-681.7066089613644
 30
0.0
 11
1165.955192715942
 21
-674.0480990109843
 31
0.0
  0
LINE
  5
1B7
330
1F
100
AcDbEntity
  8
F-3
  6
JWW_DASHED1
 62
     6
370
     9
100
AcDbLine
 10
1130.317424821094
 20
-681.7066089613644
 30
0.0
 11
1130.317424821094
 21
-674.0480990109843
 31
0.0
  0
LINE
  5
1B8
330
1F
100
AcDbEntity
  8
F-0
  6
JWW_HOJO
 62
     7
370
     9
100
AcDbLine
 10
1260.492546231567
 20
-746.5524209598864
 30
0.0
 11
1088.072518782242
 21
-647.0063286945253
 31
0.0
  0
LINE
  5
1B9
330
1F
100
AcDbEntity
  8
F-0
  6
JWW_HOJO
 62
     7
370
     9
100
AcDbLine
 10
1177.443081361423
 20
-658.2172084585668
 30
0.0
 11
1128.939679888661
 21
-686.2207155056528
 31
0.0
  0
LINE
  5
1BA
330
1F
100
AcDbEntity
  8
F-0
  6
JWW_HOJO
 62
     7
370
     9
100
AcDbLine
 10
1238.065095587563
 20
-711.9182689856466
 30
0.0
 11
1161.832102951373
 21
-755.9316274368712
 31
0.0
  0
LINE
  5
1BB
330
1F
100
AcDbEntity
  8
F-0
  6
JWW_HOJO
 62
     7
370
     9
100
AcDbLine
 10
1166.273895207496
 20
-671.5280481373568
 30
0.0
 11
1095.346507248248
 21
-712.4781634443141
 31
0.0
  0
LINE
  5
1BC
330
1F
100
AcDbEntity
  8
F-3
  6
Continuous
 62
     6
370
     9
100
AcDbLine
 10
1346.188627444616
 20
-480.239373293079
 30
0.0
 11
1346.188627444616
 21
-697.276079341168
 31
0.0
  0
LINE
  5
1BD
330
1F
100
AcDbEntity
  8
F-3
  6
Continuous
 62
     6
370
     9
100
AcDbLine
 10
1220.030691554624
 20
-770.1137645911153
 30
0.0
 11
1346.188627444616
 21
-697.276079341168
 31
0.0
  0
LINE
  5
1BE
330
1F
100
AcDbEntity
  8
F-0
  6
Continuous
 62
     3
370
     9
100
AcDbLine
 10
1629.752437226077
 20
-864.2660398827644
 30
0.0
 11
1343.352719637394
 21
-698.9133886475447
 31
0.0
  0
LINE
  5
1BF
330
1F
100
AcDbEntity
  8
F-3
  6
JWW_DASHED1
 62
     6
370
     9
100
AcDbLine
 10
1236.83086575226
 20
-722.6256705705811
 30
0.0
 11
1236.83086575226
 21
-714.967160620201
 31
0.0
  0
LINE
  5
1C0
330
1F
100
AcDbEntity
  8
F-3
  6
JWW_DASHED1
 62
     6
370
     9
100
AcDbLine
 10
1201.193097857411
 20
-722.6256705705811
 30
0.0
 11
1201.193097857411
 21
-714.967160620201
 31
0.0
  0
LINE
  5
1C1
330
1F
100
AcDbEntity
  8
F-F
  6
Continuous
 62
     7
370
     9
100
AcDbLine
 10
1141.370314258382
 20
-665.622773050258
 30
0.0
 11
866.1375558652236
 21
-278.5578547383915
 31
0.0
  0
LINE
  5
1C2
330
1F
100
AcDbEntity
  8
F-F
  6
Continuous
 62
     7
370
     9
100
AcDbLine
 10
1141.370314258382
 20
-665.622773050258
 30
0.0
 11
1129.665915768096
 21
-643.5318405650384
 31
0.0
  0
LINE
  5
1C3
330
1F
100
AcDbEntity
  8
F-F
  6
Continuous
 62
     7
370
     9
100
AcDbLine
 10
1141.370314258382
 20
-665.622773050258
 30
0.0
 11
1124.347196780553
 21
-647.3138963940607
 31
0.0
  0
LINE
  5
1C4
330
1F
100
AcDbEntity
  8
F-F
  6
Continuous
 62
     7
370
     9
100
AcDbLine
 10
488.7025005706715
 20
-278.5578547383915
 30
0.0
 11
866.1375558652236
 21
-278.5578547383915
 31
0.0
  0
ELLIPSE
  5
1C5
330
1F
100
AcDbEntity
  8
F-3
  6
Continuous
 62
     6
370
     9
100
AcDbEllipse
 10
1350.558662152175
 20
-477.7232814566136
 30
0.0
 11
-4.36475234734081
 21
-10.11683551333944
 31
0.0
210
0.0
220
0.0
230
1.0
 40
0.5666000000000001
 41
2.306036780537901
 42
5.363004294697118
  0
ELLIPSE
  5
1C6
330
1F
100
AcDbEntity
  8
F-3
  6
Continuous
 62
     6
370
     9
100
AcDbEllipse
 10
1207.484750227555
 20
-395.1201980265037
 30
0.0
 11
-4.36475234734081
 21
-10.11683551333944
 31
0.0
210
0.0
220
0.0
230
1.0
 40
0.5666000000000001
 41
3.119158717199184
 42
5.363004294697118
  0
ELLIPSE
  5
1C7
330
1F
100
AcDbEntity
  8
F-3
  6
Continuous
 62
     6
370
     9
100
AcDbEllipse
 10
1350.558662152175
 20
-477.7232814566136
 30
0.0
 11
-3.262877240211068
 21
-7.562855739007826
 31
0.0
210
0.0
220
0.0
230
1.0
 40
0.4202000000000001
 41
2.828445123128935
 42
5.225232846236812
  0
ELLIPSE
  5
1C8
330
1F
100
AcDbEntity
  8
F-0
  6
Continuous
 62
     3
370
     9
100
AcDbEllipse
 10
1225.228659908721
 20
-726.1928867736004
 30
0.0
 11
-18.37591545001881
 21
2.250326281739582E-15
 31
0.0
210
0.0
220
0.0
230
1.0
 40
0.5773
 41
0.7853584822972053
 42
3.927039819151298
  0
ELLIPSE
  5
1C9
330
1F
100
AcDbEntity
  8
F-0
  6
Continuous
 62
     3
370
     9
100
AcDbEllipse
 10
1213.340661070038
 20
-719.3294628333028
 30
0.0
 11
-18.37591545001881
 21
2.250326281739582E-15
 31
0.0
210
0.0
220
0.0
230
1.0
 40
0.5773
 41
3.926951135886998
 42
7.068632472741092
  0
ELLIPSE
  5
1CA
330
1F
100
AcDbEntity
  8
F-0
  6
Continuous
 62
     3
370
     9
100
AcDbEllipse
 10
1213.654662204962
 20
-722.421903876641
 30
0.0
 11
-18.37591545001881
 21
2.250326281739582E-15
 31
0.0
210
0.0
220
0.0
230
1.0
 40
0.5773
 41
4.147026246255659
 42
6.195030680356328
  0
ELLIPSE
  5
1CB
330
1F
100
AcDbEntity
  8
F-0
  6
Continuous
 62
     3
370
     9
100
AcDbEllipse
 10
1154.353234312226
 20
-685.2738870243395
 30
0.0
 11
-18.37591545001881
 21
2.250326281739582E-15
 31
0.0
210
0.0
220
0.0
230
1.0
 40
0.5773
 41
0.7853584822972053
 42
3.927039819151298
  0
ELLIPSE
  5
1CC
330
1F
100
AcDbEntity
  8
F-0
  6
Continuous
 62
     3
370
     9
100
AcDbEllipse
 10
1142.465235473543
 20
-678.4104012240862
 30
0.0
 11
-18.37591545001881
 21
2.250326281739582E-15
 31
0.0
210
0.0
220
0.0
230
1.0
 40
0.5773
 41
3.926951135886998
 42
7.068632472741092
  0
ELLIPSE
  5
1CD
330
1F
100
AcDbEntity
  8
F-0
  6
Continuous
 62
     3
370
     9
100
AcDbEllipse
 10
1142.779236608467
 20
-681.50290412738
 30
0.0
 11
-18.37591545001881
 21
2.250326281739582E-15
 31
0.0
210
0.0
220
0.0
230
1.0
 40
0.5773
 41
4.147026246255659
 42
6.195030680356328
  0
ELLIPSE
  5
1CE
330
1F
100
AcDbEntity
  8
F-3
  6
JWW_DASHED1
 62
     6
370
     9
100
AcDbEllipse
 10
1148.136061328695
 20
-675.1377002699581
 30
0.0
 11
-17.81908499225713
 21
-2.847305629053147E-5
 31
0.0
210
0.0
220
0.0
230
1.0
 40
0.5772
 41
0.0
 42
6.283185307179586
  0
ELLIPSE
  5
1CF
330
1F
100
AcDbEntity
  8
F-3
  6
JWW_DASHED1
 62
     6
370
     9
100
AcDbEllipse
 10
1148.136061328695
 20
-681.7069801210984
 30
0.0
 11
-17.81908499225713
 21
-2.847305629053147E-5
 31
0.0
210
0.0
220
0.0
230
1.0
 40
0.5772
 41
0.0
 42
3.141592653589793
  0
ELLIPSE
  5
1D0
330
1F
100
AcDbEntity
  8
F-3
  6
JWW_DASHED1
 62
     6
370
     9
100
AcDbEllipse
 10
1219.011734365013
 20
-716.0567618791748
 30
0.0
 11
-17.81908499225713
 21
-2.847305629053147E-5
 31
0.0
210
0.0
220
0.0
230
1.0
 40
0.5772
 41
0.0
 42
6.283185307179586
  0
ELLIPSE
  5
1D1
330
1F
100
AcDbEntity
  8
F-3
  6
JWW_DASHED1
 62
     6
370
     9
100
AcDbEllipse
 10
1219.011734365013
 20
-722.626041730315
 30
0.0
 11
-17.81908499225713
 21
-2.847305629053147E-5
 31
0.0
210
0.0
220
0.0
230
1.0
 40
0.5772
 41
0.0
 42
3.141592653589793
  0
TEXT
  5
1D2
330
1F
100
AcDbEntity
  8
F-F
  6
Continuous
 62
     2
370
     9
100
AcDbText
 10
1394.445347910199
 20
-373.8875301633281
 30
0.0
 40
30.48
  1
ジョイント金具
 41
1.107142857142857
  7
ＭＳ ゴシック
100
AcDbText
  0
TEXT
  5
1D3
330
1F
100
AcDbEntity
  8
F-F
  6
Continuous
 62
     2
370
     9
100
AcDbText
 10
488.7024675786952
 20
-260.9531495546921
 30
0.0
 40
30.48
  1
固定用釘（別売）
 41
1.109375
  7
ＭＳ ゴシック
100
AcDbText
  0
TEXT
  5
1D4
330
1F
100
AcDbEntity
  8
F-F
  6
Continuous
 62
     2
370
     9
100
AcDbText
 10
444.2253302971999
 20
-863.7122365255408
 30
0.0
 40
30.48
  1
注記）
 41
1.083333333333333
  7
ＭＳ ゴシック
100
AcDbText
  0
LINE
  5
1D5
330
1F
100
AcDbEntity
  8
F-F
  6
Continuous
 62
     7
370
     9
100
AcDbLine
 10
443.7682358268619
 20
-76.21198154643444
 30
0.0
 11
928.840851166811
 21
-76.21198154643444
 31
0.0
  0
LINE
  5
1D6
330
1F
100
AcDbEntity
  8
F-F
  6
Continuous
 62
     7
370
     9
100
AcDbLine
 10
443.7682358268619
 20
-156.2118743225114
 30
0.0
 11
928.840851166811
 21
-156.2118743225114
 31
0.0
  0
LINE
  5
1D7
330
1F
100
AcDbEntity
  8
F-F
  6
Continuous
 62
     7
370
     9
100
AcDbLine
 10
443.7682358268619
 20
-76.21198154643444
 30
0.0
 11
443.7682358268619
 21
-156.2118743225114
 31
0.0
  0
TEXT
  5
1D8
330
1F
100
AcDbEntity
  8
F-F
  6
Continuous
 62
     3
370
     9
100
AcDbText
 10
523.8046672167479
 20
-134.1619485544581
 30
0.0
 40
38.1
  1
ジョイント部
 41
1.083333333333333
  7
ＭＳ ゴシック
100
AcDbText
  0
LINE
  5
1D9
330
1F
100
AcDbEntity
  8
F-F
  6
Continuous
 62
     7
370
     9
100
AcDbLine
 10
928.840851166811
 20
-76.21198154643444
 30
0.0
 11
928.840851166811
 21
-156.2118743225114
 31
0.0
  0
TEXT
  5
1DA
330
1F
100
AcDbEntity
  8
D-4
  6
Continuous
 62
     2
370
     9
100
AcDbText
 10
-745.6192750592902
 20
-867.468475143845
 30
0.0
 40
30.48
  1
75
 41
1.0625
  7
ＭＳ ゴシック
100
AcDbText
  0
TEXT
  5
1DB
330
1F
100
AcDbEntity
  8
D-4
  6
Continuous
 62
     2
370
     9
100
AcDbText
 10
-581.8696627150122
 20
-767.4684545238598
 30
0.0
 40
30.48
  1
35
 41
1.0625
  7
ＭＳ ゴシック
100
AcDbText
  0
TEXT
  5
1DC
330
1F
100
AcDbEntity
  8
D-4
  6
Continuous
 62
     2
370
     9
100
AcDbText
 10
-769.3695389951008
 20
-767.4684545238598
 30
0.0
 40
30.48
  1
40
 41
1.0625
  7
ＭＳ ゴシック
100
AcDbText
  0
TEXT
  5
1DD
330
1F
100
AcDbEntity
  8
D-4
  6
Continuous
 62
     2
370
     9
100
AcDbText
 10
-934.7593031024702
 20
-708.608363383525
 30
0.0
 40
30.48
  1
1.2
 50
90.0
 41
1.083333333333333
  7
ＭＳ ゴシック
100
AcDbText
  0
TEXT
  5
1DE
330
1F
100
AcDbEntity
  8
D-4
  6
Continuous
 62
     2
370
     9
100
AcDbText
 10
-513.516292254708
 20
-317.4808265149916
 30
0.0
 40
30.48
  1
3.6
 41
1.083333333333333
  7
ＭＳ ゴシック
100
AcDbText
  0
TEXT
  5
1DF
330
1F
100
AcDbEntity
  8
B-5
  6
Continuous
 62
     7
370
     9
100
AcDbText
 10
-274.5339833772271
 20
-302.6408347629855
 30
0.0
 40
22.86
  1
６－７０×１０
 41
1.142857142857143
  7
ＭＳ ゴシック
100
AcDbText
  0
TEXT
  5
1E0
330
1F
100
AcDbEntity
  8
B-5
  6
Continuous
 62
     7
370
     9
100
AcDbText
 10
-314.5341854530823
 20
-252.6406698031037
 30
0.0
 40
22.86
  1
水抜き穴：＠３００
 41
1.148148148148148
  7
ＭＳ ゴシック
100
AcDbText
  0
TEXT
  5
1E1
330
1F
100
AcDbEntity
  8
F-F
  6
Continuous
 62
     2
370
     9
100
AcDbText
 10
-405.9525847483734
 20
-1111.753996779983
 30
0.0
 40
30.48
  1
ＳＳ４００
 41
1.1
  7
ＭＳ ゴシック
100
AcDbText
  0
TEXT
  5
1E2
330
1F
100
AcDbEntity
  8
F-F
  6
Continuous
 62
     7
370
     9
100
AcDbText
 10
-381.9509317080696
 20
-983.1166780378892
 30
0.0
 40
22.86
  1
別　売
 50
359.9999645568416
 41
1.11111111111111
  7
ＭＳ ゴシック
100
AcDbText
  0
LINE
  5
1E3
330
1F
100
AcDbEntity
  8
D-0
  6
Continuous
 62
     3
370
     9
100
AcDbLine
 10
-848.1192503153079
 20
-679.1083547231312
 30
0.0
 11
-848.1192503153079
 21
-673.1083101839633
 31
0.0
  0
LINE
  5
1E4
330
1F
100
AcDbEntity
  8
D-0
  6
Continuous
 62
     3
370
     9
100
AcDbLine
 10
-485.1192156737325
 20
-479.1084372030721
 30
0.0
 11
-479.1437913969168
 21
-478.565306792388
 31
0.0
  0
LINE
  5
1E5
330
1F
100
AcDbEntity
  8
D-0
  6
Continuous
 62
     3
370
     9
100
AcDbLine
 10
-485.1192156737325
 20
-479.1084372030721
 30
0.0
 11
-488.8806721375205
 21
-437.7327254011824
 31
0.0
  0
LINE
  5
1E6
330
1F
100
AcDbEntity
  8
D-0
  6
Continuous
 62
     3
370
     9
100
AcDbLine
 10
-479.1437913969168
 20
-478.565306792388
 30
0.0
 11
-482.9052478607047
 21
-437.189471270587
 31
0.0
  0
LINE
  5
1E7
330
1F
100
AcDbEntity
  8
D-0
  6
Continuous
 62
     3
370
     9
100
AcDbLine
 10
-473.1192503153078
 20
-667.1083893647065
 30
0.0
 11
-473.1192503153078
 21
-437.0177480336781
 31
0.0
  0
LINE
  5
1E8
330
1F
100
AcDbEntity
  8
D-0
  6
Continuous
 62
     3
370
     9
100
AcDbLine
 10
-479.1191711345646
 20
-437.0177480336781
 30
0.0
 11
-479.1191711345646
 21
-667.1083893647065
 31
0.0
  0
LINE
  5
1E9
330
1F
100
AcDbEntity
  8
D-F
  6
Continuous
 62
     7
370
     9
100
AcDbLine
 10
-759.9944235231837
 20
-673.1083101839633
 30
0.0
 11
-771.474888973986
 21
-645.3919570510452
 31
0.0
  0
LINE
  5
1EA
330
1F
100
AcDbEntity
  8
D-F
  6
Continuous
 62
     7
370
     9
100
AcDbLine
 10
-759.9944235231837
 20
-673.1083101839633
 30
0.0
 11
-778.2572145124152
 21
-649.307692244246
 31
0.0
  0
LINE
  5
1EB
330
1F
100
AcDbEntity
  8
D-F
  6
Continuous
 62
     7
370
     9
100
AcDbLine
 10
-495.1190012258863
 20
-436.6086062869509
 30
0.0
 11
-506.5994666766886
 21
-408.8922531540329
 31
0.0
  0
LINE
  5
1EC
330
1F
100
AcDbEntity
  8
D-F
  6
Continuous
 62
     7
370
     9
100
AcDbLine
 10
-495.1190012258863
 20
-436.6086062869509
 30
0.0
 11
-513.3817922151177
 21
-412.8079883472338
 31
0.0
  0
LINE
  5
1ED
330
1F
100
AcDbEntity
  8
D-2
  6
Continuous
 62
     4
370
     9
100
AcDbLine
 10
-610.6192090753373
 20
-668.108293687975
 30
0.0
 11
-685.6193327952487
 21
-668.108293687975
 31
0.0
  0
LINE
  5
1EE
330
1F
100
AcDbEntity
  8
D-2
  6
Continuous
 62
     4
370
     9
100
AcDbLine
 10
-610.6197039549826
 20
-643.1085823677681
 30
0.0
 11
-685.6193327952487
 21
-643.1085823677681
 31
0.0
  0
LINE
  5
1EF
330
1F
100
AcDbEntity
  8
D-2
  6
Continuous
 62
     4
370
     9
100
AcDbLine
 10
-648.1192090753373
 20
-1045.177261764939
 30
0.0
 11
-624.3694400191719
 21
-979.9247205579603
 31
0.0
  0
LINE
  5
1F0
330
1F
100
AcDbEntity
  8
D-2
  6
Continuous
 62
     4
370
     9
100
AcDbLine
 10
-648.1192090753373
 20
-1045.177261764939
 30
0.0
 11
-671.8695967310595
 21
-979.9247205579603
 31
0.0
  0
LINE
  5
1F1
330
1F
100
AcDbEntity
  8
D-2
  6
Continuous
 62
     4
370
     9
100
AcDbLine
 10
-643.7893833389567
 20
-980.7759135478251
 30
0.0
 11
-632.0680352208187
 21
-1001.077361235747
 31
0.0
  0
LINE
  5
1F2
330
1F
100
AcDbEntity
  8
D-2
  6
Continuous
 62
     4
370
     9
100
AcDbLine
 10
-652.4496534112748
 20
-980.7759135478251
 30
0.0
 11
-664.1705066497673
 21
-1001.077361235747
 31
0.0
  0
LINE
  5
1F3
330
1F
100
AcDbEntity
  8
D-2
  6
Continuous
 62
     4
370
     9
100
AcDbLine
 10
-624.3694400191719
 20
-979.9247205579603
 30
0.0
 11
-624.3694400191719
 21
-828.1140796558277
 31
0.0
  0
LINE
  5
1F4
330
1F
100
AcDbEntity
  8
D-2
  6
Continuous
 62
     4
370
     9
100
AcDbLine
 10
-671.8695967310595
 20
-979.9247205579603
 30
0.0
 11
-671.8695967310595
 21
-828.1140796558277
 31
0.0
  0
LINE
  5
1F5
330
1F
100
AcDbEntity
  8
D-2
  6
JWW_CENTER1
 62
     4
370
     9
100
AcDbLine
 10
-648.1192090753373
 20
-1068.656455375053
 30
0.0
 11
-648.1192090753373
 21
-609.083256077122
 31
0.0
  0
LINE
  5
1F6
330
1F
100
AcDbEntity
  8
D-0
  6
Continuous
 62
     3
370
     9
100
AcDbLine
 10
-620.6191183474024
 20
-679.1083547231312
 30
0.0
 11
-620.6191183474024
 21
-673.1083101839633
 31
0.0
  0
LINE
  5
1F7
330
1F
100
AcDbEntity
  8
D-0
  6
Continuous
 62
     3
370
     9
100
AcDbLine
 10
-675.6190523634498
 20
-679.1083547231312
 30
0.0
 11
-675.6190523634498
 21
-673.1083101839633
 31
0.0
  0
LINE
  5
1F8
330
1F
100
AcDbEntity
  8
D-1
  6
Continuous
 62
     2
370
     9
100
AcDbLine
 10
-472.1190985522165
 20
-482.6084734942461
 30
0.0
 11
-467.1190820562283
 21
-482.6084734942461
 31
0.0
  0
LINE
  5
1F9
330
1F
100
AcDbEntity
  8
D-1
  6
Continuous
 62
     2
370
     9
100
AcDbLine
 10
-720.1191249457977
 20
-673.1083101839633
 30
0.0
 11
-720.1191249457977
 21
-668.108293687975
 31
0.0
  0
LINE
  5
1FA
330
1F
100
AcDbEntity
  8
D-1
  6
Continuous
 62
     2
370
     9
100
AcDbLine
 10
-500.1191414417858
 20
-668.108293687975
 30
0.0
 11
-720.1191249457977
 21
-668.108293687975
 31
0.0
  0
LINE
  5
1FB
330
1F
100
AcDbEntity
  8
D-1
  6
Continuous
 62
     2
370
     9
100
AcDbLine
 10
-472.1190985522165
 20
-482.6084734942461
 30
0.0
 11
-472.1190985522165
 21
-436.6086062869509
 31
0.0
  0
LINE
  5
1FC
330
1F
100
AcDbEntity
  8
D-1
  6
Continuous
 62
     2
370
     9
100
AcDbLine
 10
-467.1190820562283
 20
-482.6084734942461
 30
0.0
 11
-467.1190820562283
 21
-436.6086062869509
 31
0.0
  0
LINE
  5
1FD
330
1F
100
AcDbEntity
  8
D-1
  6
Continuous
 62
     2
370
     9
100
AcDbLine
 10
-490.1191084498095
 20
-436.6086062869509
 30
0.0
 11
-490.1191084498095
 21
-663.1084009118981
 31
0.0
  0
LINE
  5
1FE
330
1F
100
AcDbEntity
  8
D-1
  6
Continuous
 62
     2
370
     9
100
AcDbLine
 10
-495.1191249457976
 20
-436.6086062869509
 30
0.0
 11
-495.1191249457976
 21
-663.1084009118981
 31
0.0
  0
LINE
  5
1FF
330
1F
100
AcDbEntity
  8
D-2
  6
Continuous
 62
     4
370
     9
100
AcDbLine
 10
-624.3694400191719
 20
-806.2609368401604
 30
0.0
 11
-624.3694400191719
 21
-668.108293687975
 31
0.0
  0
LINE
  5
200
330
1F
100
AcDbEntity
  8
D-2
  6
Continuous
 62
     4
370
     9
100
AcDbLine
 10
-671.8695967310595
 20
-806.2609368401604
 30
0.0
 11
-671.8695967310595
 21
-668.108293687975
 31
0.0
  0
LINE
  5
201
330
1F
100
AcDbEntity
  8
D-1
  6
Continuous
 62
     2
370
     9
100
AcDbLine
 10
-620.6191183474024
 20
-673.1083101839633
 30
0.0
 11
-620.6191183474024
 21
-668.108293687975
 31
0.0
  0
LINE
  5
202
330
1F
100
AcDbEntity
  8
D-1
  6
Continuous
 62
     2
370
     9
100
AcDbLine
 10
-675.6190523634498
 20
-673.1083101839633
 30
0.0
 11
-675.6190523634498
 21
-668.108293687975
 31
0.0
  0
LINE
  5
203
330
1F
100
AcDbEntity
  8
D-1
  6
Continuous
 62
     2
370
     9
100
AcDbLine
 10
-500.1191414417858
 20
-673.1083101839633
 30
0.0
 11
-624.3694400191719
 21
-673.1083101839633
 31
0.0
  0
LINE
  5
204
330
1F
100
AcDbEntity
  8
D-1
  6
Continuous
 62
     2
370
     9
100
AcDbLine
 10
-671.8695967310595
 20
-673.1083101839633
 30
0.0
 11
-720.1191249457977
 21
-673.1083101839633
 31
0.0
  0
LINE
  5
205
330
1F
100
AcDbEntity
  8
D-0
  6
Continuous
 62
     3
370
     9
100
AcDbLine
 10
-848.1192503153079
 20
-679.1083547231312
 30
0.0
 11
-671.8695967310595
 21
-679.1083547231312
 31
0.0
  0
LINE
  5
206
330
1F
100
AcDbEntity
  8
D-0
  6
Continuous
 62
     3
370
     9
100
AcDbLine
 10
-624.3694400191719
 20
-679.1083547231312
 30
0.0
 11
-485.1192156737325
 21
-679.1083547231312
 31
0.0
  0
LINE
  5
207
330
1F
100
AcDbEntity
  8
D-0
  6
Continuous
 62
     3
370
     9
100
AcDbLine
 10
-485.1192156737325
 20
-673.1083101839633
 30
0.0
 11
-624.3694400191719
 21
-673.1083101839633
 31
0.0
  0
LINE
  5
208
330
1F
100
AcDbEntity
  8
D-0
  6
Continuous
 62
     3
370
     9
100
AcDbLine
 10
-671.8695967310595
 20
-673.1083101839633
 30
0.0
 11
-848.1192503153079
 21
-673.1083101839633
 31
0.0
  0
LINE
  5
209
330
1F
100
AcDbEntity
  8
D-4
  6
Continuous
 62
     7
370
     9
100
AcDbLine
 10
-473.1192503153078
 20
-879.1084578230574
 30
0.0
 11
-848.1192503153079
 21
-879.1084578230574
 31
0.0
  0
LINE
  5
20A
330
1F
100
AcDbEntity
  8
D-4
  6
Continuous
 62
     7
370
     9
100
AcDbLine
 10
-473.1192503153078
 20
-682.1084388526709
 30
0.0
 11
-473.1192503153078
 21
-882.1084800926415
 31
0.0
  0
LINE
  5
20B
330
1F
100
AcDbEntity
  8
D-4
  6
Continuous
 62
     7
370
     9
100
AcDbLine
 10
-848.1192503153079
 20
-694.1084042110958
 30
0.0
 11
-848.1192503153079
 21
-882.1084800926415
 31
0.0
  0
LINE
  5
20C
330
1F
100
AcDbEntity
  8
D-4
  6
Continuous
 62
     7
370
     9
100
AcDbLine
 10
-473.1192503153078
 20
-779.1084372030721
 30
0.0
 11
-648.1199513948053
 21
-779.1084372030721
 31
0.0
  0
LINE
  5
20D
330
1F
100
AcDbEntity
  8
D-4
  6
Continuous
 62
     7
370
     9
100
AcDbLine
 10
-473.1192503153078
 20
-794.108424831081
 30
0.0
 11
-473.1192503153078
 21
-782.1084594726562
 31
0.0
  0
LINE
  5
20E
330
1F
100
AcDbEntity
  8
D-4
  6
Continuous
 62
     7
370
     9
100
AcDbLine
 10
-648.1199513948053
 20
-794.108424831081
 30
0.0
 11
-648.1199513948053
 21
-782.1084594726562
 31
0.0
  0
LINE
  5
20F
330
1F
100
AcDbEntity
  8
D-4
  6
Continuous
 62
     7
370
     9
100
AcDbLine
 10
-648.1199513948053
 20
-779.1084372030721
 30
0.0
 11
-848.1191265953964
 21
-779.1084372030721
 31
0.0
  0
LINE
  5
210
330
1F
100
AcDbEntity
  8
D-4
  6
Continuous
 62
     7
370
     9
100
AcDbLine
 10
-848.1191265953964
 20
-794.108424831081
 30
0.0
 11
-848.1191265953964
 21
-782.1084594726562
 31
0.0
  0
LINE
  5
211
330
1F
100
AcDbEntity
  8
D-4
  6
Continuous
 62
     7
370
     9
100
AcDbLine
 10
-923.1192503153079
 20
-679.1083547231312
 30
0.0
 11
-923.1192503153079
 21
-673.1083101839633
 31
0.0
  0
LINE
  5
212
330
1F
100
AcDbEntity
  8
D-4
  6
Continuous
 62
     7
370
     9
100
AcDbLine
 10
-863.1192998032725
 20
-679.1083547231312
 30
0.0
 11
-926.1192107249362
 21
-679.1083547231312
 31
0.0
  0
LINE
  5
213
330
1F
100
AcDbEntity
  8
D-4
  6
Continuous
 62
     7
370
     9
100
AcDbLine
 10
-863.1192998032725
 20
-673.1083101839633
 30
0.0
 11
-926.1192107249362
 21
-673.1083101839633
 31
0.0
  0
LINE
  5
214
330
1F
100
AcDbEntity
  8
D-4
  6
Continuous
 62
     7
370
     9
100
AcDbLine
 10
-473.1192503153078
 20
-329.1208710541595
 30
0.0
 11
-488.9130867542858
 21
-329.1208710541595
 31
0.0
  0
LINE
  5
215
330
1F
100
AcDbEntity
  8
D-4
  6
Continuous
 62
     7
370
     9
100
AcDbLine
 10
-473.1192503153078
 20
-397.0177397856841
 30
0.0
 11
-473.1192503153078
 21
-326.1209106445312
 31
0.0
  0
LINE
  5
216
330
1F
100
AcDbEntity
  8
D-4
  6
Continuous
 62
     7
370
     9
100
AcDbLine
 10
-488.9130867542858
 20
-397.0177397856841
 30
0.0
 11
-488.9130867542858
 21
-326.1209106445312
 31
0.0
  0
LINE
  5
217
330
1F
100
AcDbEntity
  8
D-0
  6
Continuous
 62
     3
370
     9
100
AcDbLine
 10
-473.1192503153078
 20
-629.1084372030721
 30
0.0
 11
-479.1191711345646
 21
-629.1084372030721
 31
0.0
  0
LINE
  5
218
330
1F
100
AcDbEntity
  8
B-5
  6
Continuous
 62
     7
370
     9
100
AcDbLine
 10
5.465864034882344
 20
-266.8707027950802
 30
0.0
 11
-314.5342019490704
 21
-266.8707027950802
 31
0.0
  0
LINE
  5
219
330
1F
100
AcDbEntity
  8
B-5
  6
Continuous
 62
     7
370
     9
100
AcDbLine
 10
-473.1192503153078
 20
-629.1084372030721
 30
0.0
 11
-314.5342019490704
 21
-266.8707027950802
 31
0.0
  0
LINE
  5
21A
330
1F
100
AcDbEntity
  8
B-5
  6
Continuous
 62
     7
370
     9
100
AcDbLine
 10
-473.1192503153078
 20
-629.1084372030721
 30
0.0
 11
-460.1896535432427
 21
-607.7115734203442
 31
0.0
  0
LINE
  5
21B
330
1F
100
AcDbEntity
  8
B-5
  6
Continuous
 62
     7
370
     9
100
AcDbLine
 10
-473.1192503153078
 20
-629.1084372030721
 30
0.0
 11
-466.1681708178415
 21
-605.0942786964209
 31
0.0
  0
ARC
  5
21C
330
1F
100
AcDbEntity
  8
D-0
  6
Continuous
 62
     3
370
     9
100
AcDbCircle
 10
-485.1192156737325
 20
-667.1083893647065
 30
0.0
 40
6.000000077324945
100
AcDbArc
 50
270.0
 51
0.0
  0
ARC
  5
21D
330
1F
100
AcDbEntity
  8
D-0
  6
Continuous
 62
     3
370
     9
100
AcDbCircle
 10
-485.1192156737325
 20
-667.1083893647065
 30
0.0
 40
12.00000015464989
100
AcDbArc
 50
270.0
 51
0.0
  0
ARC
  5
21E
330
1F
100
AcDbEntity
  8
D-0
  6
Continuous
 62
     3
370
     9
100
AcDbCircle
 10
-481.0161685347967
 20
-437.0177480336781
 30
0.0
 40
7.896926435264382
100
AcDbArc
 50
0.0
 51
185.1943969726562
  0
ARC
  5
21F
330
1F
100
AcDbEntity
  8
D-0
  6
Continuous
 62
     3
370
     9
100
AcDbCircle
 10
-481.0161685347967
 20
-437.0177480336781
 30
0.0
 40
1.896926478759663
100
AcDbArc
 50
0.0
 51
185.1943969726562
  0
ARC
  5
220
330
1F
100
AcDbEntity
  8
D-2
  6
Continuous
 62
     4
370
     9
100
AcDbCircle
 10
-623.7441595873729
 20
-655.6087473276499
 30
0.0
 40
18.12497087427088
100
AcDbArc
 50
316.397216796875
 51
43.60289001464842
  0
ARC
  5
221
330
1F
100
AcDbEntity
  8
D-2
  6
Continuous
 62
     4
370
     9
100
AcDbCircle
 10
-672.4943822832133
 20
-655.6087473276499
 30
0.0
 40
18.12497087427088
100
AcDbArc
 50
136.3971099853515
 51
223.602783203125
  0
ARC
  5
222
330
1F
100
AcDbEntity
  8
D-2
  6
Continuous
 62
     4
370
     9
100
AcDbCircle
 10
-648.1192090753373
 20
-983.2757980759079
 30
0.0
 40
5.000000064437454
100
AcDbArc
 50
29.99998474121092
 51
150.0000152587891
  0
ARC
  5
223
330
1F
100
AcDbEntity
  8
D-2
  6
Continuous
 62
     4
370
     9
100
AcDbCircle
 10
-636.2443245472547
 20
-795.92154013144
 30
0.0
 40
15.74541459212432
100
AcDbArc
 50
221.0460052490234
 51
318.9539947509765
  0
ARC
  5
224
330
1F
100
AcDbEntity
  8
D-2
  6
Continuous
 62
     4
370
     9
100
AcDbCircle
 10
-659.9940936034202
 20
-795.92154013144
 30
0.0
 40
15.74541459212432
100
AcDbArc
 50
221.0460052490234
 51
318.9539947509765
  0
ARC
  5
225
330
1F
100
AcDbEntity
  8
D-2
  6
Continuous
 62
     4
370
     9
100
AcDbCircle
 10
-659.9940936034202
 20
-816.6003335488808
 30
0.0
 40
15.74541459212432
100
AcDbArc
 50
41.04600524902342
 51
138.9539947509766
  0
ARC
  5
226
330
1F
100
AcDbEntity
  8
D-2
  6
Continuous
 62
     4
370
     9
100
AcDbCircle
 10
-659.9940936034202
 20
-838.453476364548
 30
0.0
 40
15.74541459212432
100
AcDbArc
 50
41.04600524902342
 51
138.9539947509766
  0
ARC
  5
227
330
1F
100
AcDbEntity
  8
D-2
  6
Continuous
 62
     4
370
     9
100
AcDbCircle
 10
-636.2443245472547
 20
-838.453476364548
 30
0.0
 40
15.74541459212432
100
AcDbArc
 50
41.04600524902342
 51
138.9539947509766
  0
ARC
  5
228
330
1F
100
AcDbEntity
  8
D-2
  6
Continuous
 62
     4
370
     9
100
AcDbCircle
 10
-636.2443245472547
 20
-817.7746829471073
 30
0.0
 40
15.74541459212432
100
AcDbArc
 50
221.0460052490234
 51
318.9539947509765
  0
ARC
  5
229
330
1F
100
AcDbEntity
  8
D-1
  6
Continuous
 62
     2
370
     9
100
AcDbCircle
 10
-500.1191414417858
 20
-663.1084009118981
 30
0.0
 40
10.00000012887491
100
AcDbArc
 50
270.0
 51
0.0
  0
ARC
  5
22A
330
1F
100
AcDbEntity
  8
D-1
  6
Continuous
 62
     2
370
     9
100
AcDbCircle
 10
-500.1191414417858
 20
-663.1084009118981
 30
0.0
 40
5.000000064437454
100
AcDbArc
 50
270.0
 51
0.0
  0
ARC
  5
22B
330
1F
100
AcDbEntity
  8
D-1
  6
Continuous
 62
     2
370
     9
100
AcDbCircle
 10
-481.119103501013
 20
-436.6086062869509
 30
0.0
 40
14.00000018042487
100
AcDbArc
 50
0.0
 51
180.0
  0
ARC
  5
22C
330
1F
100
AcDbEntity
  8
D-1
  6
Continuous
 62
     2
370
     9
100
AcDbCircle
 10
-481.119103501013
 20
-436.6086062869509
 30
0.0
 40
9.000000115987417
100
AcDbArc
 50
0.0
 51
180.0
  0
LWPOLYLINE
  5
22D
330
1F
100
AcDbEntity
  8
D-4
  6
Continuous
 62
     7
370
     9
100
AcDbPolyline
 90
        4
 70
     1
 43
1.0
 10
-472.6192503153078
 20
-879.1084578230574
 42
0.4142135623731
 10
-473.1192503153078
 20
-878.6084578230575
 42
0.4142135623731
 10
-473.6192503153077
 20
-879.1084578230574
 42
0.4142135623731
 10
-473.1192503153078
 20
-879.6084578230574
 42
0.4142135623731
  0
LWPOLYLINE
  5
22E
330
1F
100
AcDbEntity
  8
D-4
  6
Continuous
 62
     7
370
     9
100
AcDbPolyline
 90
        4
 70
     1
 43
1.0
 10
-847.6192503153079
 20
-879.1084578230574
 42
0.4142135623731
 10
-848.1192503153079
 20
-878.6084578230575
 42
0.4142135623731
 10
-848.6192503153079
 20
-879.1084578230574
 42
0.4142135623731
 10
-848.1192503153079
 20
-879.6084578230574
 42
0.4142135623731
  0
LWPOLYLINE
  5
22F
330
1F
100
AcDbEntity
  8
D-4
  6
Continuous
 62
     7
370
     9
100
AcDbPolyline
 90
        4
 70
     1
 43
1.0
 10
-472.6192503153078
 20
-779.1084372030721
 42
0.4142135623731
 10
-473.1192503153078
 20
-778.6084372030722
 42
0.4142135623731
 10
-473.6192503153077
 20
-779.1084372030721
 42
0.4142135623731
 10
-473.1192503153078
 20
-779.6084372030721
 42
0.4142135623731
  0
LWPOLYLINE
  5
230
330
1F
100
AcDbEntity
  8
D-4
  6
Continuous
 62
     7
370
     9
100
AcDbPolyline
 90
        4
 70
     1
 43
1.0
 10
-647.6199513948053
 20
-779.1084372030721
 42
0.4142135623731
 10
-648.1199513948053
 20
-778.6084372030722
 42
0.4142135623731
 10
-648.6199513948053
 20
-779.1084372030721
 42
0.4142135623731
 10
-648.1199513948053
 20
-779.6084372030721
 42
0.4142135623731
  0
LWPOLYLINE
  5
231
330
1F
100
AcDbEntity
  8
D-4
  6
Continuous
 62
     7
370
     9
100
AcDbPolyline
 90
        4
 70
     1
 43
1.0
 10
-847.6191265953964
 20
-779.1084372030721
 42
0.4142135623731
 10
-848.1191265953964
 20
-778.6084372030722
 42
0.4142135623731
 10
-848.6191265953964
 20
-779.1084372030721
 42
0.4142135623731
 10
-848.1191265953964
 20
-779.6084372030721
 42
0.4142135623731
  0
LWPOLYLINE
  5
232
330
1F
100
AcDbEntity
  8
D-4
  6
Continuous
 62
     7
370
     9
100
AcDbPolyline
 90
        4
 70
     1
 43
1.0
 10
-922.6192503153079
 20
-679.1083547231312
 42
0.4142135623731
 10
-923.1192503153079
 20
-678.6083547231312
 42
0.4142135623731
 10
-923.6192503153079
 20
-679.1083547231312
 42
0.4142135623731
 10
-923.1192503153079
 20
-679.6083547231312
 42
0.4142135623731
  0
LWPOLYLINE
  5
233
330
1F
100
AcDbEntity
  8
D-4
  6
Continuous
 62
     7
370
     9
100
AcDbPolyline
 90
        4
 70
     1
 43
1.0
 10
-922.6192503153079
 20
-673.1083101839633
 42
0.4142135623731
 10
-923.1192503153079
 20
-672.6083101839633
 42
0.4142135623731
 10
-923.6192503153079
 20
-673.1083101839633
 42
0.4142135623731
 10
-923.1192503153079
 20
-673.6083101839632
 42
0.4142135623731
  0
LWPOLYLINE
  5
234
330
1F
100
AcDbEntity
  8
D-4
  6
Continuous
 62
     7
370
     9
100
AcDbPolyline
 90
        4
 70
     1
 43
1.0
 10
-472.6192503153078
 20
-329.1208710541595
 42
0.4142135623731
 10
-473.1192503153078
 20
-328.6208710541595
 42
0.4142135623731
 10
-473.6192503153077
 20
-329.1208710541595
 42
0.4142135623731
 10
-473.1192503153078
 20
-329.6208710541595
 42
0.4142135623731
  0
LWPOLYLINE
  5
235
330
1F
100
AcDbEntity
  8
D-4
  6
Continuous
 62
     7
370
     9
100
AcDbPolyline
 90
        4
 70
     1
 43
1.0
 10
-488.4130867542858
 20
-329.1208710541595
 42
0.4142135623731
 10
-488.9130867542858
 20
-328.6208710541595
 42
0.4142135623731
 10
-489.4130867542857
 20
-329.1208710541595
 42
0.4142135623731
 10
-488.9130867542858
 20
-329.6208710541595
 42
0.4142135623731
  0
LINE
  5
236
330
1F
100
AcDbEntity
  8
F-F
  6
Continuous
 62
     7
370
     9
100
AcDbLine
 10
-624.3689451395263
 20
-954.0193794869089
 30
0.0
 11
-425.8672757455229
 21
-1068.624535637933
 31
0.0
  0
LINE
  5
237
330
1F
100
AcDbEntity
  8
F-F
  6
Continuous
 62
     7
370
     9
100
AcDbLine
 10
-425.8672757455229
 20
-944.7010432062922
 30
0.0
 11
-425.8672757455229
 21
-999.9924613334036
 31
0.0
  0
LINE
  5
238
330
1F
100
AcDbEntity
  8
F-F
  6
Continuous
 62
     7
370
     9
100
AcDbLine
 10
-425.8672757455229
 20
-999.9924613334036
 30
0.0
 11
-238.0347166239012
 21
-999.9924613334036
 31
0.0
  0
LINE
  5
239
330
1F
100
AcDbEntity
  8
F-F
  6
Continuous
 62
     7
370
     9
100
AcDbLine
 10
-238.0347166239012
 20
-999.9924613334036
 30
0.0
 11
-238.0347166239012
 21
-944.7010432062922
 31
0.0
  0
LINE
  5
23A
330
1F
100
AcDbEntity
  8
F-F
  6
Continuous
 62
     7
370
     9
100
AcDbLine
 10
-238.0347166239012
 20
-944.7010432062922
 30
0.0
 11
-425.8672757455229
 21
-944.7010432062922
 31
0.0
  0
LINE
  5
23B
330
1F
100
AcDbEntity
  8
F-4
  6
Continuous
 62
     7
370
     9
100
AcDbLine
 10
-624.3689451395263
 20
-954.0193794869089
 30
0.0
 11
-596.6527157265195
 21
-965.4999686576224
 31
0.0
  0
LINE
  5
23C
330
1F
100
AcDbEntity
  8
F-4
  6
Continuous
 62
     7
370
     9
100
AcDbLine
 10
-624.3689451395263
 20
-954.0193794869089
 30
0.0
 11
-600.5684509197206
 21
-972.2822323360958
 31
0.0
  0
LINE
  5
23D
330
1F
100
AcDbEntity
  8
F-F
  6
Continuous
 62
     7
370
     9
100
AcDbLine
 10
-425.8672757455229
 20
-1068.624535637933
 30
0.0
 11
170.5514039815675
 21
-1068.624535637933
 31
0.0
  0
TEXT
  5
23E
330
1F
100
AcDbEntity
  8
F-F
  6
Continuous
 62
     2
370
     9
100
AcDbText
 10
-405.9525476324
 20
-1048.078884442303
 30
0.0
 40
30.48
  1
固定用釘：φ９．５×２００
 41
1.115384615384615
  7
ＭＳ ゴシック
100
AcDbText
  0
LINE
  5
23F
330
1F
100
AcDbEntity
  8
D-4
  6
Continuous
 62
     7
370
     9
100
AcDbLine
 10
-371.5451213933162
 20
-679.1083547231312
 30
0.0
 11
-371.5451213933162
 21
-629.1084372030721
 31
0.0
  0
LINE
  5
240
330
1F
100
AcDbEntity
  8
D-4
  6
Continuous
 62
     7
370
     9
100
AcDbLine
 10
-458.1192008273432
 20
-629.1084372030721
 30
0.0
 11
-368.5451609836878
 21
-629.1084372030721
 31
0.0
  0
LWPOLYLINE
  5
241
330
1F
100
AcDbEntity
  8
D-4
  6
Continuous
 62
     7
370
     9
100
AcDbPolyline
 90
        4
 70
     1
 43
1.0
 10
-371.0451213933163
 20
-679.1083547231312
 42
0.4142135623731
 10
-371.5451213933162
 20
-678.6083547231312
 42
0.4142135623731
 10
-372.0451213933162
 20
-679.1083547231312
 42
0.4142135623731
 10
-371.5451213933162
 20
-679.6083547231312
 42
0.4142135623731
  0
LWPOLYLINE
  5
242
330
1F
100
AcDbEntity
  8
D-4
  6
Continuous
 62
     7
370
     9
100
AcDbPolyline
 90
        4
 70
     1
 43
1.0
 10
-371.0451213933163
 20
-629.1084372030721
 42
0.4142135623731
 10
-371.5451213933162
 20
-628.6084372030722
 42
0.4142135623731
 10
-372.0451213933162
 20
-629.1084372030721
 42
0.4142135623731
 10
-371.5451213933162
 20
-629.6084372030721
 42
0.4142135623731
  0
TEXT
  5
243
330
1F
100
AcDbEntity
  8
D-4
  6
Continuous
 62
     2
370
     9
100
AcDbText
 10
-387.0633910608559
 20
-731.0052536003998
 30
0.0
 40
30.48
  1
10
 50
90.0
 41
1.0625
  7
ＭＳ ゴシック
100
AcDbText
  0
LINE
  5
244
330
1F
100
AcDbEntity
  8
D-4
  6
Continuous
 62
     7
370
     9
100
AcDbLine
 10
-371.5451213933162
 20
-679.1083547231312
 30
0.0
 11
-371.5451213933162
 21
-737.7995266261194
 31
0.0
  0
LINE
  5
245
330
1F
100
AcDbEntity
  8
D-4
  6
Continuous
 62
     7
370
     9
100
AcDbLine
 10
-294.0943128048923
 20
-679.1083547231312
 30
0.0
 11
-294.0943128048923
 21
-429.1208298141892
 31
0.0
  0
LINE
  5
246
330
1F
100
AcDbEntity
  8
D-4
  6
Continuous
 62
     7
370
     9
100
AcDbLine
 10
-470.1191661857681
 20
-679.1083547231312
 30
0.0
 11
-291.0943523952639
 21
-679.1083547231312
 31
0.0
  0
LWPOLYLINE
  5
247
330
1F
100
AcDbEntity
  8
D-4
  6
Continuous
 62
     7
370
     9
100
AcDbPolyline
 90
        4
 70
     1
 43
1.0
 10
-293.5943128048923
 20
-679.1083547231312
 42
0.4142135623731
 10
-294.0943128048923
 20
-678.6083547231312
 42
0.4142135623731
 10
-294.5943128048923
 20
-679.1083547231312
 42
0.4142135623731
 10
-294.0943128048923
 20
-679.6083547231312
 42
0.4142135623731
  0
LWPOLYLINE
  5
248
330
1F
100
AcDbEntity
  8
D-4
  6
Continuous
 62
     7
370
     9
100
AcDbPolyline
 90
        4
 70
     1
 43
1.0
 10
-293.5943128048923
 20
-429.1208298141892
 42
0.4142135623731
 10
-294.0943128048923
 20
-428.6208298141892
 42
0.4142135623731
 10
-294.5943128048923
 20
-429.1208298141892
 42
0.4142135623731
 10
-294.0943128048923
 20
-429.6208298141892
 42
0.4142135623731
  0
LINE
  5
249
330
1F
100
AcDbEntity
  8
D-4
  6
Continuous
 62
     7
370
     9
100
AcDbLine
 10
-456.6115726613032
 20
-429.1208298141892
 30
0.0
 11
-291.0943523952639
 21
-429.1208298141892
 31
0.0
  0
TEXT
  5
24A
330
1F
100
AcDbEntity
  8
D-4
  6
Continuous
 62
     2
370
     9
100
AcDbText
 10
-310.0616301027008
 20
-577.0017316840895
 30
0.0
 40
30.48
  1
Ｈ
 50
90.0
 41
0.9999999999999998
  7
ＭＳ ゴシック
100
AcDbText
  0
TEXT
  5
24B
330
1F
100
AcDbEntity
  8
D-F
  6
Continuous
 62
     7
370
     9
100
AcDbText
 10
-1623.37796373579
 20
-414.8701619109462
 30
0.0
 40
22.86
  1
ステンレス製舗装用見切材
 41
1.152777777777777
  7
ＭＳ ゴシック
100
AcDbText
  0
TEXT
  5
24C
330
1F
100
AcDbEntity
  8
D-F
  6
Continuous
 62
     2
370
     9
100
AcDbText
 10
-1625.878029719743
 20
-534.5910485043269
 30
0.0
 40
30.48
  1
ＳＵＳ３０４（t=1.2)
 41
1.118749999999999
  7
ＭＳ ゴシック
100
AcDbText
  0
TEXT
  5
24D
330
1F
100
AcDbEntity
  8
D-F
  6
Continuous
 62
     2
370
     9
100
AcDbText
 10
-1623.37796373579
 20
-470.9160598865586
 30
0.0
 40
30.48
  1
ガーデンエッジ　ＩＳ－Ｈ－Ｓ（Ｒ）
 41
1.117647058823529
  7
ＭＳ ゴシック
100
AcDbText
  0
LINE
  5
24E
330
1F
100
AcDbEntity
  8
D-F
  6
Continuous
 62
     7
370
     9
100
AcDbLine
 10
-864.8682059866672
 20
-491.4617110821879
 30
0.0
 11
-1650.457460377207
 21
-491.4617110821879
 31
0.0
  0
LINE
  5
24F
330
1F
100
AcDbEntity
  8
D-F
  6
Continuous
 62
     7
370
     9
100
AcDbLine
 10
-759.9944235231837
 20
-673.1083101839633
 30
0.0
 11
-864.8682059866672
 21
-491.4617110821879
 31
0.0
  0
TEXT
  5
250
330
1F
100
AcDbEntity
  8
D-F
  6
Continuous
 62
     2
370
     9
100
AcDbText
 10
-1071.725353880795
 20
-319.076065491165
 30
0.0
 40
30.48
  1
ＳＵＳ３０４（t=1.0)
 41
1.11875
  7
ＭＳ ゴシック
100
AcDbText
  0
TEXT
  5
251
330
1F
100
AcDbEntity
  8
D-F
  6
Continuous
 62
     2
370
     9
100
AcDbText
 10
-1071.725353880795
 20
-246.9124681780317
 30
0.0
 40
30.48
  1
ジョイント金具
 41
1.107142857142857
  7
ＭＳ ゴシック
100
AcDbText
  0
TEXT
  5
252
330
1F
100
AcDbEntity
  8
D-F
  6
Continuous
 62
     7
370
     9
100
AcDbText
 10
-1038.525193829721
 20
-177.8582875667562
 30
0.0
 40
22.86
  1
付属部品
 41
1.125
  7
ＭＳ ゴシック
100
AcDbText
  0
LINE
  5
253
330
1F
100
AcDbEntity
  8
D-F
  6
Continuous
 62
     7
370
     9
100
AcDbLine
 10
-877.1089142689098
 20
-133.6091351966127
 30
0.0
 11
-877.1089142689098
 21
-200.5670935211481
 31
0.0
  0
LINE
  5
254
330
1F
100
AcDbEntity
  8
D-F
  6
Continuous
 62
     7
370
     9
100
AcDbLine
 10
-877.1089142689098
 20
-200.5670935211481
 30
0.0
 11
-1064.941473390531
 21
-200.5670935211481
 31
0.0
  0
LINE
  5
255
330
1F
100
AcDbEntity
  8
D-F
  6
Continuous
 62
     7
370
     9
100
AcDbLine
 10
-1064.941473390531
 20
-200.5670935211481
 30
0.0
 11
-1064.941473390531
 21
-133.6091351966127
 31
0.0
  0
LINE
  5
256
330
1F
100
AcDbEntity
  8
D-F
  6
Continuous
 62
     7
370
     9
100
AcDbLine
 10
-1064.941473390531
 20
-133.6091351966127
 30
0.0
 11
-877.1089142689098
 21
-133.6091351966127
 31
0.0
  0
LINE
  5
257
330
1F
100
AcDbEntity
  8
D-F
  6
Continuous
 62
     7
370
     9
100
AcDbLine
 10
-591.772868937264
 20
-269.199229685633
 30
0.0
 11
-1074.11252544567
 21
-269.199229685633
 31
0.0
  0
LINE
  5
258
330
1F
100
AcDbEntity
  8
D-F
  6
Continuous
 62
     7
370
     9
100
AcDbLine
 10
-495.1190012258863
 20
-436.6086062869509
 30
0.0
 11
-591.772868937264
 21
-269.199229685633
 31
0.0
  0
LINE
  5
259
330
1F
100
AcDbEntity
  8
F-F
  6
Continuous
 62
     7
370
     9
100
AcDbLine
 10
-1842.968017990525
 20
-6.282531811643395
 30
0.0
 11
-403.8415857263513
 21
-6.282531811643395
 31
0.0
  0
LINE
  5
25A
330
1F
100
AcDbEntity
  8
F-F
  6
Continuous
 62
     7
370
     9
100
AcDbLine
 10
-1842.968017990525
 20
-86.28267202754287
 30
0.0
 11
-403.8415857263513
 21
-86.28267202754287
 31
0.0
  0
LINE
  5
25B
330
1F
100
AcDbEntity
  8
F-F
  6
Continuous
 62
     7
370
     9
100
AcDbLine
 10
-1842.968017990525
 20
-6.282531811643395
 30
0.0
 11
-1842.968017990525
 21
-86.28267202754287
 31
0.0
  0
LINE
  5
25C
330
1F
100
AcDbEntity
  8
F-F
  6
Continuous
 62
     7
370
     9
100
AcDbLine
 10
-403.8415857263513
 20
-6.282531811643395
 30
0.0
 11
-403.8415857263513
 21
-86.28267202754287
 31
0.0
  0
TEXT
  5
25D
330
1F
100
AcDbEntity
  8
F-F
  6
Continuous
 62
     3
370
     9
100
AcDbText
 10
-1813.404797734441
 20
-64.23274625948947
 30
0.0
 40
38.1
  1
ガーデンエッジ　ＩＳ－Ｈ－Ｓ（Ｒ）　断面図　S=1:2
 41
1.097959183673469
  7
ＭＳ ゴシック
100
AcDbText
  0
TEXT
  5
25E
330
1F
100
AcDbEntity
  8
F-F
  6
Continuous
 62
     2
370
     9
100
AcDbText
 10
509.2253467931885
 20
-929.7034474630408
 30
0.0
 40
30.48
  1
アスファルト舗装は、見切材の熱膨張を
 41
1.118055555555556
  7
ＭＳ ゴシック
100
AcDbText
  0
TEXT
  5
25F
330
1F
100
AcDbEntity
  8
F-F
  6
Continuous
 62
     2
370
     9
100
AcDbText
 10
509.2253467931885
 20
-995.6946584005408
 30
0.0
 40
30.48
  1
考慮してジョイント部に５mmの隙間を
 41
1.117647058823529
  7
ＭＳ ゴシック
100
AcDbText
  0
TEXT
  5
260
330
1F
100
AcDbEntity
  8
F-F
  6
Continuous
 62
     2
370
     9
100
AcDbText
 10
509.2252961021607
 20
-1055.754984229307
 30
0.0
 40
30.48
  1
設けて施工してください。
 50
0.00001222177511
 41
1.114583333333333
  7
ＭＳ ゴシック
100
AcDbText
  0
TEXT
  5
261
330
1F
100
AcDbEntity
  8
F-F
  6
Continuous
 62
     2
370
     9
100
AcDbText
 10
-1831.500254966117
 20
-892.4681864640519
 30
0.0
 40
30.48
  1
ＩＳ－Ｈ－５０Ｓ（Ｒ）
 41
0.8977272727272726
  7
ＭＳ ゴシック
100
AcDbText
  0
TEXT
  5
262
330
1F
100
AcDbEntity
  8
F-F
  6
Continuous
 62
     2
370
     9
100
AcDbText
 10
-1831.500254966117
 20
-992.4682998739705
 30
0.0
 40
30.48
  1
ＩＳ－Ｈ－７５Ｓ（Ｒ）
 41
0.8977272727272726
  7
ＭＳ ゴシック
100
AcDbText
  0
TEXT
  5
263
330
1F
100
AcDbEntity
  8
F-F
  6
Continuous
 62
     2
370
     9
100
AcDbText
 10
-1831.500254966117
 20
-1092.468289563978
 30
0.0
 40
30.48
  1
ＩＳ－Ｈ－９０Ｓ（Ｒ）
 41
0.8977272727272726
  7
ＭＳ ゴシック
100
AcDbText
  0
ENDSEC
  0
SECTION
  2
OBJECTS
  0
DICTIONARY
  5
C
330
0
100
AcDbDictionary
281
     1
  3
ACAD_GROUP
350
D
  3
ACAD_LAYOUT
350
1A
  3
ACAD_MLEADERSTYLE
350
265
  3
ACAD_MLINESTYLE
350
17
  3
ACAD_PLOTSETTINGS
350
19
  3
ACAD_PLOTSTYLENAME
350
E
  3
ACAD_TABLESTYLE
350
264
  3
ACAD_VISUALSTYLE
350
2A
  3
AcDbVariableDictionary
350
266
  0
DICTIONARY
  5
D
102
{ACAD_REACTORS
330
C
102
}
330
C
100
AcDbDictionary
281
     1
  0
DICTIONARY
  5
1A
102
{ACAD_REACTORS
330
C
102
}
330
C
100
AcDbDictionary
281
     1
  3
Layout1
350
1E
  3
Layout2
350
26
  3
Model
350
22
  0
DICTIONARY
  5
265
102
{ACAD_REACTORS
330
C
102
}
330
C
100
AcDbDictionary
281
     1
  0
DICTIONARY
  5
17
102
{ACAD_REACTORS
330
C
102
}
330
C
100
AcDbDictionary
281
     1
  3
Standard
350
18
  0
DICTIONARY
  5
19
102
{ACAD_REACTORS
330
C
102
}
330
C
100
AcDbDictionary
281
     1
  0
ACDBDICTIONARYWDFLT
  5
E
102
{ACAD_REACTORS
330
C
102
}
330
C
100
AcDbDictionary
281
     1
  3
Normal
350
F
100
AcDbDictionaryWithDefault
340
F
  0
DICTIONARY
  5
264
102
{ACAD_REACTORS
330
C
102
}
330
C
100
AcDbDictionary
281
     1
  0
DICTIONARY
  5
2A
102
{ACAD_REACTORS
330
C
102
}
330
C
100
AcDbDictionary
281
     1
  3
2dWireframe
350
2F
  3
3D Hidden
350
31
  3
3dWireframe
350
30
  3
Basic
350
32
  3
Brighten
350
36
  3
ColorChange
350
3A
  3
Conceptual
350
34
  3
Dim
350
35
  3
Facepattern
350
39
  3
Flat
350
2B
  3
FlatWithEdges
350
2C
  3
Gouraud
350
2D
  3
GouraudWithEdges
350
2E
  3
Linepattern
350
38
  3
Realistic
350
33
  3
Thicken
350
37
  0
DICTIONARY
  5
266
102
{ACAD_REACTORS
330
C
102
}
330
C
100
AcDbDictionary
281
     1
  3
PSOLHEIGHT
350
268
  3
PSOLWIDTH
350
267
  0
LAYOUT
  5
1E
102
{ACAD_REACTORS
330
1A
102
}
102
{ACAD_XDICTIONARY
360
269
102
}
330
1A
100
AcDbPlotSettings
  1

  2
none_device
  4

  6

 40
0.0
 41
0.0
 42
0.0
 43
0.0
 44
0.0
 45
0.0
 46
0.0
 47
0.0
 48
0.0
 49
0.0
140
0.0
141
0.0
142
1.0
143
1.0
 70
   688
 72
     0
 73
     0
 74
     5
  7

 75
    16
147
1.0
148
0.0
149
0.0
100
AcDbLayout
  1
Layout1
 70
     1
 71
     1
 10
0.0
 20
0.0
 11
420.0
 21
297.0
 12
0.0
 22
0.0
 32
0.0
 14
1.000000000000000E+20
 24
1.000000000000000E+20
 34
1.000000000000000E+20
 15
-1.000000000000000E+20
 25
-1.000000000000000E+20
 35
-1.000000000000000E+20
146
0.0
 13
0.0
 23
0.0
 33
0.0
 16
1.0
 26
0.0
 36
0.0
 17
0.0
 27
1.0
 37
0.0
 76
     0
330
1B
  0
LAYOUT
  5
26
102
{ACAD_REACTORS
330
1A
102
}
102
{ACAD_XDICTIONARY
360
26D
102
}
330
1A
100
AcDbPlotSettings
  1

  2
none_device
  4

  6

 40
0.0
 41
0.0
 42
0.0
 43
0.0
 44
0.0
 45
0.0
 46
0.0
 47
0.0
 48
0.0
 49
0.0
140
0.0
141
0.0
142
1.0
143
1.0
 70
   688
 72
     0
 73
     0
 74
     5
  7

 75
    16
147
1.0
148
0.0
149
0.0
100
AcDbLayout
  1
Layout2
 70
     1
 71
     2
 10
0.0
 20
0.0
 11
0.0
 21
0.0
 12
0.0
 22
0.0
 32
0.0
 14
0.0
 24
0.0
 34
0.0
 15
0.0
 25
0.0
 35
0.0
146
0.0
 13
0.0
 23
0.0
 33
0.0
 16
1.0
 26
0.0
 36
0.0
 17
0.0
 27
1.0
 37
0.0
 76
     0
330
23
  0
LAYOUT
  5
22
102
{ACAD_REACTORS
330
1A
102
}
102
{ACAD_XDICTIONARY
360
26B
102
}
330
1A
100
AcDbPlotSettings
  1

  2
none_device
  4

  6

 40
0.0
 41
0.0
 42
0.0
 43
0.0
 44
0.0
 45
0.0
 46
0.0
 47
0.0
 48
0.0
 49
0.0
140
0.0
141
0.0
142
1.0
143
1.0
 70
  1712
 72
     0
 73
     0
 74
     0
  7

 75
     0
147
1.0
148
0.0
149
0.0
100
AcDbLayout
  1
Model
 70
     1
 71
     0
 10
-2100.0
 20
-1485.0
 11
2100.0
 21
1485.0
 12
0.0
 22
0.0
 32
0.0
 14
-2100.0
 24
-1485.0
 34
0.0
 15
2100.0
 25
1485.0
 35
0.0
146
0.0
 13
0.0
 23
0.0
 33
0.0
 16
1.0
 26
0.0
 36
0.0
 17
0.0
 27
1.0
 37
0.0
 76
     0
330
1F
331
29
  0
MLINESTYLE
  5
18
102
{ACAD_REACTORS
330
17
102
}
330
17
100
AcDbMlineStyle
  2
Standard
 70
     0
  3

 62
   256
 51
90.0
 52
90.0
 71
     2
 49
0.5
 62
   256
  6
BYLAYER
 49
-0.5
 62
   256
  6
BYLAYER
  0
ACDBPLACEHOLDER
  5
F
102
{ACAD_REACTORS
330
E
102
}
330
E
  0
VISUALSTYLE
  5
2F
102
{ACAD_REACTORS
330
2A
102
}
330
2A
100
AcDbVisualStyle
  2
2dWireframe
 70
     4
 71
     0
 72
     2
 73
     0
 90
        0
 40
-0.6
 41
-30.0
 62
     5
 63
     7
 74
     1
 91
        4
 64
     7
 65
   257
 75
     1
175
     1
 42
1.0
 92
        0
 66
   257
 43
1.0
 76
     1
 77
     6
 78
     2
 67
     7
 79
     5
170
     0
171
     0
290
     0
174
     0
 93
        1
 44
0.0
173
     0
291
     0
 45
0.0
1001
ACAD
1000
AcDbSavedByObjectVersion
1070
     0
  0
VISUALSTYLE
  5
31
102
{ACAD_REACTORS
330
2A
102
}
330
2A
100
AcDbVisualStyle
  2
3D Hidden
 70
     6
 71
     1
 72
     2
 73
     2
 90
        0
 40
-0.6
 41
-30.0
 62
     5
 63
     7
 74
     2
 91
        2
 64
     7
 65
   257
 75
     2
175
     1
 42
40.0
 92
        0
 66
   257
 43
1.0
 76
     1
 77
     6
 78
     2
 67
     7
 79
     3
170
     0
171
     0
290
     0
174
     0
 93
        1
 44
0.0
173
     0
291
     0
 45
0.0
1001
ACAD
1000
AcDbSavedByObjectVersion
1070
     0
  0
VISUALSTYLE
  5
30
102
{ACAD_REACTORS
330
2A
102
}
330
2A
100
AcDbVisualStyle
  2
3dWireframe
 70
     5
 71
     0
 72
     2
 73
     0
 90
        0
 40
-0.6
 41
-30.0
 62
     5
 63
     7
 74
     1
 91
        4
 64
     7
 65
   257
 75
     1
175
     1
 42
1.0
 92
        0
 66
   257
 43
1.0
 76
     1
 77
     6
 78
     2
 67
     7
 79
     5
170
     0
171
     0
290
     0
174
     0
 93
        1
 44
0.0
173
     0
291
     0
 45
0.0
1001
ACAD
1000
AcDbSavedByObjectVersion
1070
     0
  0
VISUALSTYLE
  5
32
102
{ACAD_REACTORS
330
2A
102
}
330
2A
100
AcDbVisualStyle
  2
Basic
 70
     7
 71
     1
 72
     0
 73
     1
 90
        0
 40
-0.6
 41
-30.0
 62
     5
 63
     7
 74
     0
 91
        4
 64
     7
 65
   257
 75
     1
175
     1
 42
1.0
 92
        8
 66
     7
 43
1.0
 76
     1
 77
     6
 78
     2
 67
     7
 79
     5
170
     0
171
     0
290
     0
174
     0
 93
        1
 44
0.0
173
     0
291
     1
 45
0.0
1001
ACAD
1000
AcDbSavedByObjectVersion
1070
     0
  0
VISUALSTYLE
  5
36
102
{ACAD_REACTORS
330
2A
102
}
330
2A
100
AcDbVisualStyle
  2
Brighten
 70
    12
 71
     2
 72
     2
 73
     0
 90
        0
 40
-0.6
 41
-30.0
 62
     5
 63
     7
 74
     1
 91
        4
 64
     7
 65
   257
 75
     1
175
     1
 42
1.0
 92
        8
 66
     7
 43
1.0
 76
     1
 77
     6
 78
     2
 67
     7
 79
     5
170
     0
171
     0
290
     0
174
     0
 93
        1
 44
50.0
173
     0
291
     1
 45
0.0
1001
ACAD
1000
AcDbSavedByObjectVersion
1070
     0
  0
VISUALSTYLE
  5
3A
102
{ACAD_REACTORS
330
2A
102
}
330
2A
100
AcDbVisualStyle
  2
ColorChange
 70
    16
 71
     2
 72
     2
 73
     3
 90
        0
 40
-0.6
 41
-30.0
 62
     5
 63
     8
 74
     1
 91
        4
 64
     7
 65
   257
 75
     1
175
     1
 42
1.0
 92
        8
 66
     8
 43
1.0
 76
     1
 77
     6
 78
     2
 67
     7
 79
     5
170
     0
171
     0
290
     0
174
     0
 93
        1
 44
0.0
173
     0
291
     1
 45
0.0
1001
ACAD
1000
AcDbSavedByObjectVersion
1070
     0
  0
VISUALSTYLE
  5
34
102
{ACAD_REACTORS
330
2A
102
}
330
2A
100
AcDbVisualStyle
  2
Conceptual
 70
     9
 71
     3
 72
     2
 73
     0
 90
        0
 40
-0.6
 41
-30.0
 62
     5
 63
     7
 74
     2
 91
        2
 64
     7
 65
   257
 75
     1
175
     1
 42
40.0
 92
        8
 66
     7
 43
1.0
 76
     1
 77
     6
 78
     2
 67
     7
 79
     3
170
     0
171
     0
290
     0
174
     0
 93
        1
 44
0.0
173
     0
291
     0
 45
0.0
1001
ACAD
1000
AcDbSavedByObjectVersion
1070
     0
  0
VISUALSTYLE
  5
35
102
{ACAD_REACTORS
330
2A
102
}
330
2A
100
AcDbVisualStyle
  2
Dim
 70
    11
 71
     2
 72
     2
 73
     0
 90
        0
 40
-0.6
 41
-30.0
 62
     5
 63
     7
 74
     1
 91
        4
 64
     7
 65
   257
 75
     1
175
     1
 42
1.0
 92
        8
 66
     7
 43
1.0
 76
     1
 77
     6
 78
     2
 67
     7
 79
     5
170
     0
171
     0
290
     0
174
     0
 93
        1
 44
-50.0
173
     0
291
     1
 45
0.0
1001
ACAD
1000
AcDbSavedByObjectVersion
1070
     0
  0
VISUALSTYLE
  5
39
102
{ACAD_REACTORS
330
2A
102
}
330
2A
100
AcDbVisualStyle
  2
Facepattern
 70
    15
 71
     2
 72
     2
 73
     0
 90
        0
 40
-0.6
 41
-30.0
 62
     5
 63
     7
 74
     1
 91
        4
 64
     7
 65
   257
 75
     1
175
     1
 42
1.0
 92
        8
 66
     7
 43
1.0
 76
     1
 77
     6
 78
     2
 67
     7
 79
     5
170
     0
171
     0
290
     0
174
     0
 93
        1
 44
0.0
173
     0
291
     1
 45
0.0
1001
ACAD
1000
AcDbSavedByObjectVersion
1070
     0
  0
VISUALSTYLE
  5
2B
102
{ACAD_REACTORS
330
2A
102
}
330
2A
100
AcDbVisualStyle
  2
Flat
 70
     0
 71
     2
 72
     1
 73
     1
 90
        2
 40
-0.6
 41
30.0
 62
     5
 63
     7
 74
     0
 91
        4
 64
     7
 65
   257
 75
     1
175
     1
 42
1.0
 92
        8
 66
     7
 43
1.0
 76
     1
 77
     6
 78
     2
 67
     7
 79
     5
170
     0
171
     0
290
     0
174
     0
 93
       13
 44
0.0
173
     0
291
     1
 45
0.0
1001
ACAD
1000
AcDbSavedByObjectVersion
1070
     0
  0
VISUALSTYLE
  5
2C
102
{ACAD_REACTORS
330
2A
102
}
330
2A
100
AcDbVisualStyle
  2
FlatWithEdges
 70
     1
 71
     2
 72
     1
 73
     1
 90
        2
 40
-0.6
 41
30.0
 62
     5
 63
     7
 74
     1
 91
        4
 64
     7
 65
   257
 75
     1
175
     1
 42
1.0
 92
        0
 66
   257
 43
1.0
 76
     1
 77
     6
 78
     2
 67
     7
 79
     5
170
     0
171
     0
290
     0
174
     0
 93
       13
 44
0.0
173
     0
291
     1
 45
0.0
1001
ACAD
1000
AcDbSavedByObjectVersion
1070
     0
  0
VISUALSTYLE
  5
2D
102
{ACAD_REACTORS
330
2A
102
}
330
2A
100
AcDbVisualStyle
  2
Gouraud
 70
     2
 71
     2
 72
     2
 73
     1
 90
        2
 40
-0.6
 41
30.0
 62
     5
 63
     7
 74
     0
 91
        4
 64
     7
 65
   257
 75
     1
175
     1
 42
1.0
 92
        0
 66
     7
 43
1.0
 76
     1
 77
     6
 78
     2
 67
     7
 79
     5
170
     0
171
     0
290
     0
174
     0
 93
       13
 44
0.0
173
     0
291
     1
 45
0.0
1001
ACAD
1000
AcDbSavedByObjectVersion
1070
     0
  0
VISUALSTYLE
  5
2E
102
{ACAD_REACTORS
330
2A
102
}
330
2A
100
AcDbVisualStyle
  2
GouraudWithEdges
 70
     3
 71
     2
 72
     2
 73
     1
 90
        2
 40
-0.6
 41
30.0
 62
     5
 63
     7
 74
     1
 91
        4
 64
     7
 65
   257
 75
     1
175
     1
 42
1.0
 92
        0
 66
   257
 43
1.0
 76
     1
 77
     6
 78
     2
 67
     7
 79
     5
170
     0
171
     0
290
     0
174
     0
 93
       13
 44
0.0
173
     0
291
     1
 45
0.0
1001
ACAD
1000
AcDbSavedByObjectVersion
1070
     0
  0
VISUALSTYLE
  5
38
102
{ACAD_REACTORS
330
2A
102
}
330
2A
100
AcDbVisualStyle
  2
Linepattern
 70
    14
 71
     2
 72
     2
 73
     0
 90
        0
 40
-0.6
 41
-30.0
 62
     5
 63
     7
 74
     1
 91
        4
 64
     7
 65
   257
 75
     7
175
     7
 42
1.0
 92
        8
 66
     7
 43
1.0
 76
     1
 77
     6
 78
     2
 67
     7
 79
     5
170
     0
171
     0
290
     0
174
     0
 93
        1
 44
0.0
173
     0
291
     1
 45
0.0
1001
ACAD
1000
AcDbSavedByObjectVersion
1070
     0
  0
VISUALSTYLE
  5
33
102
{ACAD_REACTORS
330
2A
102
}
330
2A
100
AcDbVisualStyle
  2
Realistic
 70
     8
 71
     2
 72
     2
 73
     0
 90
        0
 40
-0.6
 41
-30.0
 62
     5
 63
     7
 74
     1
 91
        0
 64
     7
 65
   257
 75
     1
175
     1
 42
1.0
 92
        8
 66
     8
 43
1.0
 76
     1
 77
     6
 78
     2
 67
     7
 79
     5
170
     0
171
     0
290
     0
174
     0
 93
       13
 44
0.0
173
     0
291
     0
 45
0.0
1001
ACAD
1000
AcDbSavedByObjectVersion
1070
     0
  0
VISUALSTYLE
  5
37
102
{ACAD_REACTORS
330
2A
102
}
330
2A
100
AcDbVisualStyle
  2
Thicken
 70
    13
 71
     2
 72
     2
 73
     0
 90
        0
 40
-0.6
 41
-30.0
 62
     5
 63
     7
 74
     1
 91
        4
 64
     7
 65
   257
 75
     1
175
     1
 42
1.0
 92
       12
 66
     7
 43
1.0
 76
     1
 77
     6
 78
     2
 67
     7
 79
     5
170
     0
171
     0
290
     0
174
     0
 93
        1
 44
0.0
173
     0
291
     1
 45
0.0
1001
ACAD
1000
AcDbSavedByObjectVersion
1070
     0
  0
DICTIONARYVAR
  5
268
102
{ACAD_REACTORS
330
266
102
}
330
266
100
DictionaryVariables
280
     0
  1
80.000000
  0
DICTIONARYVAR
  5
267
102
{ACAD_REACTORS
330
266
102
}
330
266
100
DictionaryVariables
280
     0
  1
5.000000
  0
DICTIONARY
  5
269
330
1E
100
AcDbDictionary
280
     1
281
     1
  3
ACAD_XREC_ROUNDTRIP
360
26A
  0
DICTIONARY
  5
26D
330
26
100
AcDbDictionary
280
     1
281
     1
  3
ACAD_XREC_ROUNDTRIP
360
26E
  0
DICTIONARY
  5
26B
330
22
100
AcDbDictionary
280
     1
281
     1
  3
ACAD_XREC_ROUNDTRIP
360
26C
  0
XRECORD
  5
26A
102
{ACAD_REACTORS
330
269
102
}
330
269
100
AcDbXrecord
280
     1
102
SHADEPLOT
 70
     0
102
SHADEPLOTRESLEVEL
 70
     5
102
SHADEPLOTCUSTOMDPI
 70
   300
  0
XRECORD
  5
26E
102
{ACAD_REACTORS
330
26D
102
}
330
26D
100
AcDbXrecord
280
     1
102
SHADEPLOT
 70
     0
102
SHADEPLOTRESLEVEL
 70
     5
102
SHADEPLOTCUSTOMDPI
 70
   300
  0
XRECORD
  5
26C
102
{ACAD_REACTORS
330
26B
102
}
330
26B
100
AcDbXrecord
280
     1
102
SHADEPLOT
 70
     0
102
SHADEPLOTRESLEVEL
 70
     5
102
SHADEPLOTCUSTOMDPI
 70
   300
  0
ENDSEC
  0
EOF
