  0
SECTION
  2
HEADER
  9
$ACADVER
  1
AC1018
  9
$ACADMAINTVER
 70
     0
  9
$DWGCODEPAGE
  3
ANSI_932
  9
$INSBASE
 10
0.0
 20
0.0
 30
0.0
  9
$EXTMIN
 10
-2100.0
 20
-1485.0
 30
0.0
  9
$EXTMAX
 10
2100.0
 20
1485.0
 30
0.0
  9
$LIMMIN
 10
-2100.0
 20
-1485.0
  9
$LIMMAX
 10
2100.0
 20
1485.0
  9
$ORTHOMODE
 70
     0
  9
$REGENMODE
 70
     1
  9
$FILLMODE
 70
     1
  9
$QTEXTMODE
 70
     0
  9
$MIRRTEXT
 70
     1
  9
$LTSCALE
 40
10.0
  9
$ATTMODE
 70
     1
  9
$TEXTSIZE
 40
2.5
  9
$TRACEWID
 40
1.0
  9
$TEXTSTYLE
  7
Standard
  9
$CLAYER
  8
0
  9
$CELTYPE
  6
ByLayer
  9
$CECOLOR
 62
   256
  9
$CELTSCALE
 40
1.0
  9
$DISPSILH
 70
     0
  9
$DIMSCALE
 40
1.0
  9
$DIMASZ
 40
2.5
  9
$DIMEXO
 40
0.625
  9
$DIMDLI
 40
3.75
  9
$DIMRND
 40
0.0
  9
$DIMDLE
 40
0.0
  9
$DIMEXE
 40
1.25
  9
$DIMTP
 40
0.0
  9
$DIMTM
 40
0.0
  9
$DIMTXT
 40
2.5
  9
$DIMCEN
 40
2.5
  9
$DIMTSZ
 40
0.0
  9
$DIMTOL
 70
     0
  9
$DIMLIM
 70
     0
  9
$DIMTIH
 70
     0
  9
$DIMTOH
 70
     0
  9
$DIMSE1
 70
     0
  9
$DIMSE2
 70
     0
  9
$DIMTAD
 70
     1
  9
$DIMZIN
 70
     8
  9
$DIMBLK
  1

  9
$DIMASO
 70
     1
  9
$DIMSHO
 70
     1
  9
$DIMPOST
  1

  9
$DIMAPOST
  1

  9
$DIMALT
 70
     0
  9
$DIMALTD
 70
     3
  9
$DIMALTF
 40
0.03937007874016
  9
$DIMLFAC
 40
1.0
  9
$DIMTOFL
 70
     1
  9
$DIMTVP
 40
0.0
  9
$DIMTIX
 70
     0
  9
$DIMSOXD
 70
     0
  9
$DIMSAH
 70
     0
  9
$DIMBLK1
  1

  9
$DIMBLK2
  1

  9
$DIMSTYLE
  2
ISO-25
  9
$DIMCLRD
 70
     0
  9
$DIMCLRE
 70
     0
  9
$DIMCLRT
 70
     0
  9
$DIMTFAC
 40
1.0
  9
$DIMGAP
 40
0.625
  9
$DIMJUST
 70
     0
  9
$DIMSD1
 70
     0
  9
$DIMSD2
 70
     0
  9
$DIMTOLJ
 70
     0
  9
$DIMTZIN
 70
     8
  9
$DIMALTZ
 70
     0
  9
$DIMALTTZ
 70
     0
  9
$DIMUPT
 70
     0
  9
$DIMDEC
 70
     2
  9
$DIMTDEC
 70
     2
  9
$DIMALTU
 70
     2
  9
$DIMALTTD
 70
     3
  9
$DIMTXSTY
  7
Standard
  9
$DIMAUNIT
 70
     0
  9
$DIMADEC
 70
     0
  9
$DIMALTRND
 40
0.0
  9
$DIMAZIN
 70
     0
  9
$DIMDSEP
 70
    44
  9
$DIMATFIT
 70
     3
  9
$DIMFRAC
 70
     0
  9
$DIMLDRBLK
  1

  9
$DIMLUNIT
 70
     2
  9
$DIMLWD
 70
    -2
  9
$DIMLWE
 70
    -2
  9
$DIMTMOVE
 70
     0
  9
$LUNITS
 70
     2
  9
$LUPREC
 70
     4
  9
$SKETCHINC
 40
1.0
  9
$FILLETRAD
 40
10.0
  9
$AUNITS
 70
     0
  9
$AUPREC
 70
     0
  9
$MENU
  1
.
  9
$ELEVATION
 40
0.0
  9
$PELEVATION
 40
0.0
  9
$THICKNESS
 40
0.0
  9
$LIMCHECK
 70
     0
  9
$CHAMFERA
 40
10.0
  9
$CHAMFERB
 40
10.0
  9
$CHAMFERC
 40
20.0
  9
$CHAMFERD
 40
0.0
  9
$SKPOLY
 70
     0
  9
$TDCREATE
 40
2456498.824971852
  9
$TDUCREATE
 40
2456498.449971852
  9
$TDUPDATE
 40
2456498.824971864
  9
$TDUUPDATE
 40
2456498.449971864
  9
$TDINDWG
 40
0.0000000116
  9
$TDUSRTIMER
 40
0.0000000116
  9
$USRTIMER
 70
     1
  9
$ANGBASE
 50
0.0
  9
$ANGDIR
 70
     0
  9
$PDMODE
 70
     0
  9
$PDSIZE
 40
0.0
  9
$PLINEWID
 40
0.0
  9
$SPLFRAME
 70
     0
  9
$SPLINETYPE
 70
     6
  9
$SPLINESEGS
 70
     8
  9
$HANDSEED
  5
5A8
  9
$SURFTAB1
 70
     6
  9
$SURFTAB2
 70
     6
  9
$SURFTYPE
 70
     6
  9
$SURFU
 70
     6
  9
$SURFV
 70
     6
  9
$UCSBASE
  2

  9
$UCSNAME
  2

  9
$UCSORG
 10
0.0
 20
0.0
 30
0.0
  9
$UCSXDIR
 10
1.0
 20
0.0
 30
0.0
  9
$UCSYDIR
 10
0.0
 20
1.0
 30
0.0
  9
$UCSORTHOREF
  2

  9
$UCSORTHOVIEW
 70
     0
  9
$UCSORGTOP
 10
0.0
 20
0.0
 30
0.0
  9
$UCSORGBOTTOM
 10
0.0
 20
0.0
 30
0.0
  9
$UCSORGLEFT
 10
0.0
 20
0.0
 30
0.0
  9
$UCSORGRIGHT
 10
0.0
 20
0.0
 30
0.0
  9
$UCSORGFRONT
 10
0.0
 20
0.0
 30
0.0
  9
$UCSORGBACK
 10
0.0
 20
0.0
 30
0.0
  9
$PUCSBASE
  2

  9
$PUCSNAME
  2

  9
$PUCSORG
 10
0.0
 20
0.0
 30
0.0
  9
$PUCSXDIR
 10
1.0
 20
0.0
 30
0.0
  9
$PUCSYDIR
 10
0.0
 20
1.0
 30
0.0
  9
$PUCSORTHOREF
  2

  9
$PUCSORTHOVIEW
 70
     0
  9
$PUCSORGTOP
 10
0.0
 20
0.0
 30
0.0
  9
$PUCSORGBOTTOM
 10
0.0
 20
0.0
 30
0.0
  9
$PUCSORGLEFT
 10
0.0
 20
0.0
 30
0.0
  9
$PUCSORGRIGHT
 10
0.0
 20
0.0
 30
0.0
  9
$PUCSORGFRONT
 10
0.0
 20
0.0
 30
0.0
  9
$PUCSORGBACK
 10
0.0
 20
0.0
 30
0.0
  9
$USERI1
 70
     0
  9
$USERI2
 70
     0
  9
$USERI3
 70
     0
  9
$USERI4
 70
     0
  9
$USERI5
 70
     0
  9
$USERR1
 40
0.0
  9
$USERR2
 40
0.0
  9
$USERR3
 40
0.0
  9
$USERR4
 40
0.0
  9
$USERR5
 40
0.0
  9
$WORLDVIEW
 70
     1
  9
$SHADEDGE
 70
     3
  9
$SHADEDIF
 70
    70
  9
$TILEMODE
 70
     1
  9
$MAXACTVP
 70
    64
  9
$PINSBASE
 10
0.0
 20
0.0
 30
0.0
  9
$PLIMCHECK
 70
     0
  9
$PEXTMIN
 10
1.000000000000000E+20
 20
1.000000000000000E+20
 30
1.000000000000000E+20
  9
$PEXTMAX
 10
-1.000000000000000E+20
 20
-1.000000000000000E+20
 30
-1.000000000000000E+20
  9
$PLIMMIN
 10
0.0
 20
0.0
  9
$PLIMMAX
 10
420.0
 20
297.0
  9
$UNITMODE
 70
     0
  9
$VISRETAIN
 70
     1
  9
$PLINEGEN
 70
     0
  9
$PSLTSCALE
 70
     1
  9
$TREEDEPTH
 70
  3020
  9
$CMLSTYLE
  2
Standard
  9
$CMLJUST
 70
     0
  9
$CMLSCALE
 40
20.0
  9
$PROXYGRAPHICS
 70
     1
  9
$MEASUREMENT
 70
     1
  9
$CELWEIGHT
370
    -1
  9
$ENDCAPS
280
     0
  9
$JOINSTYLE
280
     0
  9
$LWDISPLAY
290
     0
  9
$INSUNITS
 70
     4
  9
$HYPERLINKBASE
  1

  9
$STYLESHEET
  1

  9
$XEDIT
290
     1
  9
$CEPSNTYPE
380
     0
  9
$PSTYLEMODE
290
     1
  9
$FINGERPRINTGUID
  2
{0A713C63-B1AE-455B-9EC3-EA35A92E8154}
  9
$VERSIONGUID
  2
{FAEB1C32-E019-11D5-929B-00C0DF256EC4}
  9
$EXTNAMES
290
     1
  9
$PSVPSCALE
 40
0.0
  9
$OLESTARTUP
290
     0
  9
$SORTENTS
280
   127
  9
$INDEXCTL
280
     0
  9
$HIDETEXT
280
     1
  9
$XCLIPFRAME
290
     0
  9
$HALOGAP
280
     0
  9
$OBSCOLOR
 70
   257
  9
$OBSLTYPE
280
     0
  9
$INTERSECTIONDISPLAY
280
     0
  9
$INTERSECTIONCOLOR
 70
   257
  9
$DIMASSOC
280
     2
  9
$PROJECTNAME
  1

  0
ENDSEC
  0
SECTION
  2
CLASSES
  0
CLASS
  1
ACDBDICTIONARYWDFLT
  2
AcDbDictionaryWithDefault
  3
ObjectDBX Classes
 90
        0
 91
        4
280
     0
281
     0
  0
CLASS
  1
VISUALSTYLE
  2
AcDbVisualStyle
  3
ObjectDBX Classes
 90
     4095
 91
        4
280
     0
281
     0
  0
ENDSEC
  0
SECTION
  2
TABLES
  0
TABLE
  2
VPORT
  5
8
330
0
100
AcDbSymbolTable
 70
     1
  0
VPORT
  5
29
330
8
100
AcDbSymbolTableRecord
100
AcDbViewportTableRecord
  2
*Active
 70
     0
 10
0.0
 20
0.0
 11
1.0
 21
1.0
 12
0.0
 22
0.0
 13
0.0
 23
0.0
 14
10.0
 24
10.0
 15
10.0
 25
10.0
 16
0.0
 26
0.0
 36
1.0
 17
0.0
 27
0.0
 37
0.0
 40
3267.0
 41
1.414141414141414
 42
50.0
 43
0.0
 44
0.0
 50
0.0
 51
0.0
 71
     0
 72
 10000
 73
     1
 74
     3
 75
     0
 76
     0
 77
     0
 78
     0
281
     0
 65
     1
110
0.0
120
0.0
130
0.0
111
1.0
121
0.0
131
0.0
112
0.0
122
1.0
132
0.0
 79
     0
146
0.0
  0
ENDTAB
  0
TABLE
  2
LTYPE
  5
5
330
0
100
AcDbSymbolTable
 70
     3
  0
LTYPE
  5
14
330
5
100
AcDbSymbolTableRecord
100
AcDbLinetypeTableRecord
  2
ByBlock
 70
     0
  3

 72
    65
 73
     0
 40
0.0
  0
LTYPE
  5
15
330
5
100
AcDbSymbolTableRecord
100
AcDbLinetypeTableRecord
  2
ByLayer
 70
     0
  3

 72
    65
 73
     0
 40
0.0
  0
LTYPE
  5
16
330
5
100
AcDbSymbolTableRecord
100
AcDbLinetypeTableRecord
  2
Continuous
 70
     0
  3
Solid line
 72
    65
 73
     0
 40
0.0
  0
LTYPE
  5
3C
330
5
100
AcDbSymbolTableRecord
100
AcDbLinetypeTableRecord
  2
JWW_CENTER1
 70
     0
  3
-----  --  ----------  --  -----
 72
    65
 73
     4
 40
6.773333333333333
 49
4.233333333333333
 74
     0
 49
-0.8466666666666667
 74
     0
 49
0.8466666666666667
 74
     0
 49
-0.8466666666666667
 74
     0
  0
LTYPE
  5
3D
330
5
100
AcDbSymbolTableRecord
100
AcDbLinetypeTableRecord
  2
JWW_DASHED1
 70
     0
  3
-  --  --  --  --  --  --  --  -
 72
    65
 73
     2
 40
1.693333333333333
 49
0.8466666666666667
 74
     0
 49
-0.8466666666666667
 74
     0
  0
ENDTAB
  0
TABLE
  2
LAYER
  5
2
330
0
100
AcDbSymbolTable
 70
     8
  0
LAYER
  5
10
330
2
100
AcDbSymbolTableRecord
100
AcDbLayerTableRecord
  2
0
 70
     0
 62
     7
  6
Continuous
370
    -3
390
F
  0
LAYER
  5
3E
330
2
100
AcDbSymbolTableRecord
100
AcDbLayerTableRecord
  2
3-4
 70
     0
 62
     7
  6
Continuous
370
    -3
390
F
  0
LAYER
  5
3F
330
2
100
AcDbSymbolTableRecord
100
AcDbLayerTableRecord
  2
0-4
 70
     0
 62
     7
  6
Continuous
370
    -3
390
F
  0
LAYER
  5
40
330
2
100
AcDbSymbolTableRecord
100
AcDbLayerTableRecord
  2
0-2
 70
     0
 62
     7
  6
Continuous
370
    -3
390
F
  0
LAYER
  5
41
330
2
100
AcDbSymbolTableRecord
100
AcDbLayerTableRecord
  2
0-0
 70
     0
 62
     7
  6
Continuous
370
    -3
390
F
  0
LAYER
  5
42
330
2
100
AcDbSymbolTableRecord
100
AcDbLayerTableRecord
  2
3-0
 70
     0
 62
     7
  6
Continuous
370
    -3
390
F
  0
LAYER
  5
43
330
2
100
AcDbSymbolTableRecord
100
AcDbLayerTableRecord
  2
3-2
 70
     0
 62
     7
  6
Continuous
370
    -3
390
F
  0
LAYER
  5
44
330
2
100
AcDbSymbolTableRecord
100
AcDbLayerTableRecord
  2
F-4
 70
     0
 62
     7
  6
Continuous
370
    -3
390
F
  0
ENDTAB
  0
TABLE
  2
STYLE
  5
3
330
0
100
AcDbSymbolTable
 70
     2
  0
STYLE
  5
11
330
3
100
AcDbSymbolTableRecord
100
AcDbTextStyleTableRecord
  2
Standard
 70
     0
 40
0.0
 41
1.0
 50
0.0
 71
     0
 42
2.5
  3
txt
  4

1001
ACAD
1000

1071
        0
  0
STYLE
  5
3B
330
3
100
AcDbSymbolTableRecord
100
AcDbTextStyleTableRecord
  2
ＭＳ ゴシック
 70
     0
 40
1.0
 41
1.0
 50
0.0
 71
     0
 42
10.0
  3

  4

1001
ACAD
1000
MS Gothic
1071
    32817
  0
ENDTAB
  0
TABLE
  2
VIEW
  5
6
330
0
100
AcDbSymbolTable
 70
     0
  0
ENDTAB
  0
TABLE
  2
UCS
  5
7
330
0
100
AcDbSymbolTable
 70
     0
  0
ENDTAB
  0
TABLE
  2
APPID
  5
9
330
0
100
AcDbSymbolTable
 70
     1
  0
APPID
  5
12
330
9
100
AcDbSymbolTableRecord
100
AcDbRegAppTableRecord
  2
ACAD
 70
     0
  0
ENDTAB
  0
TABLE
  2
DIMSTYLE
  5
A
330
0
100
AcDbSymbolTable
 70
     1
100
AcDbDimStyleTable
  0
DIMSTYLE
105
27
330
A
100
AcDbSymbolTableRecord
100
AcDbDimStyleTableRecord
  2
ISO-25
 70
     0
 41
2.5
 42
0.625
 43
3.75
 44
1.25
 73
     0
 74
     0
 77
     1
 78
     8
140
2.5
141
2.5
143
0.03937007874016
147
0.625
171
     3
172
     1
271
     2
272
     2
274
     3
278
    44
283
     0
284
     8
340
11
  0
ENDTAB
  0
TABLE
  2
BLOCK_RECORD
  5
1
330
0
100
AcDbSymbolTable
 70
     1
  0
BLOCK_RECORD
  5
1F
330
1
100
AcDbSymbolTableRecord
100
AcDbBlockTableRecord
  2
*Model_Space
340
22
  0
BLOCK_RECORD
  5
1B
330
1
100
AcDbSymbolTableRecord
100
AcDbBlockTableRecord
  2
*Paper_Space
340
1E
  0
BLOCK_RECORD
  5
23
330
1
100
AcDbSymbolTableRecord
100
AcDbBlockTableRecord
  2
*Paper_Space0
340
26
  0
ENDTAB
  0
ENDSEC
  0
SECTION
  2
BLOCKS
  0
BLOCK
  5
20
330
1F
100
AcDbEntity
  8
0
100
AcDbBlockBegin
  2
*Model_Space
 70
     0
 10
0.0
 20
0.0
 30
0.0
  3
*Model_Space
  1

  0
ENDBLK
  5
21
330
1F
100
AcDbEntity
  8
0
100
AcDbBlockEnd
  0
BLOCK
  5
1C
330
1B
100
AcDbEntity
 67
     1
  8
0
100
AcDbBlockBegin
  2
*Paper_Space
 70
     0
 10
0.0
 20
0.0
 30
0.0
  3
*Paper_Space
  1

  0
ENDBLK
  5
1D
330
1B
100
AcDbEntity
 67
     1
  8
0
100
AcDbBlockEnd
  0
BLOCK
  5
24
330
23
100
AcDbEntity
  8
0
100
AcDbBlockBegin
  2
*Paper_Space0
 70
     0
 10
0.0
 20
0.0
 30
0.0
  3
*Paper_Space0
  1

  0
ENDBLK
  5
25
330
23
100
AcDbEntity
  8
0
100
AcDbBlockEnd
  0
ENDSEC
  0
SECTION
  2
ENTITIES
  0
LWPOLYLINE
  5
45
330
1F
100
AcDbEntity
  8
3-4
  6
Continuous
 62
     7
370
     5
100
AcDbPolyline
 90
        4
 70
     1
 43
1.0
 10
-108.9594594594594
 20
-163.7852931667018
 42
0.4142135623731
 10
-109.4594594594594
 20
-163.2852931667018
 42
0.4142135623731
 10
-109.9594594594594
 20
-163.7852931667018
 42
0.4142135623731
 10
-109.4594594594594
 20
-164.2852931667018
 42
0.4142135623731
  0
LWPOLYLINE
  5
46
330
1F
100
AcDbEntity
  8
3-4
  6
Continuous
 62
     7
370
     5
100
AcDbPolyline
 90
        4
 70
     1
 43
1.0
 10
-8.959376979518481
 20
-163.7852931667018
 42
0.4142135623731
 10
-9.459376979518481
 20
-163.2852931667018
 42
0.4142135623731
 10
-9.959376979518481
 20
-163.7852931667018
 42
0.4142135623731
 10
-9.459376979518481
 20
-164.2852931667018
 42
0.4142135623731
  0
LWPOLYLINE
  5
47
330
1F
100
AcDbEntity
  8
3-4
  6
Continuous
 62
     7
370
     5
100
AcDbPolyline
 90
        4
 70
     1
 43
1.0
 10
191.0405405405406
 20
-163.7852931667018
 42
0.4142135623731
 10
190.5405405405406
 20
-163.2852931667018
 42
0.4142135623731
 10
190.0405405405406
 20
-163.7852931667018
 42
0.4142135623731
 10
190.5405405405406
 20
-164.2852931667018
 42
0.4142135623731
  0
LWPOLYLINE
  5
48
330
1F
100
AcDbEntity
  8
3-4
  6
Continuous
 62
     7
370
     5
100
AcDbPolyline
 90
        4
 70
     1
 43
1.0
 10
391.0407055004224
 20
-163.7852931667018
 42
0.4142135623731
 10
390.5407055004224
 20
-163.2852931667018
 42
0.4142135623731
 10
390.0407055004224
 20
-163.7852931667018
 42
0.4142135623731
 10
390.5407055004224
 20
-164.2852931667018
 42
0.4142135623731
  0
LWPOLYLINE
  5
49
330
1F
100
AcDbEntity
  8
3-4
  6
Continuous
 62
     7
370
     5
100
AcDbPolyline
 90
        4
 70
     1
 43
1.0
 10
591.0406230204818
 20
-163.7852931667018
 42
0.4142135623731
 10
590.5406230204818
 20
-163.2852931667018
 42
0.4142135623731
 10
590.0406230204818
 20
-163.7852931667018
 42
0.4142135623731
 10
590.5406230204818
 20
-164.2852931667018
 42
0.4142135623731
  0
LWPOLYLINE
  5
4A
330
1F
100
AcDbEntity
  8
3-4
  6
Continuous
 62
     7
370
     5
100
AcDbPolyline
 90
        4
 70
     1
 43
1.0
 10
791.0405405405406
 20
-163.7852931667018
 42
0.4142135623731
 10
790.5405405405406
 20
-163.2852931667018
 42
0.4142135623731
 10
790.0405405405406
 20
-163.7852931667018
 42
0.4142135623731
 10
790.5405405405406
 20
-164.2852931667018
 42
0.4142135623731
  0
LWPOLYLINE
  5
4B
330
1F
100
AcDbEntity
  8
3-4
  6
Continuous
 62
     7
370
     5
100
AcDbPolyline
 90
        4
 70
     1
 43
1.0
 10
891.0406230204818
 20
-163.7852931667018
 42
0.4142135623731
 10
890.5406230204818
 20
-163.2852931667018
 42
0.4142135623731
 10
890.0406230204818
 20
-163.7852931667018
 42
0.4142135623731
 10
890.5406230204818
 20
-164.2852931667018
 42
0.4142135623731
  0
LWPOLYLINE
  5
4C
330
1F
100
AcDbEntity
  8
3-4
  6
Continuous
 62
     7
370
     5
100
AcDbPolyline
 90
        4
 70
     1
 43
1.0
 10
-108.9594594594594
 20
-261.8339414854307
 42
0.4142135623731
 10
-109.4594594594594
 20
-261.3339414854307
 42
0.4142135623731
 10
-109.9594594594594
 20
-261.8339414854307
 42
0.4142135623731
 10
-109.4594594594594
 20
-262.3339414854307
 42
0.4142135623731
  0
LWPOLYLINE
  5
4D
330
1F
100
AcDbEntity
  8
3-4
  6
Continuous
 62
     7
370
     5
100
AcDbPolyline
 90
        4
 70
     1
 43
1.0
 10
891.0406230204818
 20
-261.8339414854307
 42
0.4142135623731
 10
890.5406230204818
 20
-261.3339414854307
 42
0.4142135623731
 10
890.0406230204818
 20
-261.8339414854307
 42
0.4142135623731
 10
890.5406230204818
 20
-262.3339414854307
 42
0.4142135623731
  0
LWPOLYLINE
  5
4E
330
1F
100
AcDbEntity
  8
3-4
  6
Continuous
 62
     7
370
     5
100
AcDbPolyline
 90
        4
 70
     1
 43
1.0
 10
1007.066145613387
 20
-62.02702702702709
 42
0.4142135623731
 10
1006.566145613387
 20
-61.52702702702709
 42
0.4142135623731
 10
1006.066145613387
 20
-62.02702702702709
 42
0.4142135623731
 10
1006.566145613387
 20
-62.52702702702709
 42
0.4142135623731
  0
LWPOLYLINE
  5
4F
330
1F
100
AcDbEntity
  8
3-4
  6
Continuous
 62
     7
370
     5
100
AcDbPolyline
 90
        4
 70
     1
 43
1.0
 10
1007.066145613387
 20
37.97355033255911
 42
0.4142135623731
 10
1006.566145613387
 20
38.47355033255911
 42
0.4142135623731
 10
1006.066145613387
 20
37.97355033255911
 42
0.4142135623731
 10
1006.566145613387
 20
37.47355033255911
 42
0.4142135623731
  0
LWPOLYLINE
  5
50
330
1F
100
AcDbEntity
  8
3-4
  6
Continuous
 62
     7
370
     5
100
AcDbPolyline
 90
        4
 70
     1
 43
1.0
 10
1007.066145613387
 20
237.9735915725297
 42
0.4142135623731
 10
1006.566145613387
 20
238.4735915725297
 42
0.4142135623731
 10
1006.066145613387
 20
237.9735915725297
 42
0.4142135623731
 10
1006.566145613387
 20
237.4735915725297
 42
0.4142135623731
  0
LWPOLYLINE
  5
51
330
1F
100
AcDbEntity
  8
3-4
  6
Continuous
 62
     7
370
     5
100
AcDbPolyline
 90
        4
 70
     1
 43
1.0
 10
1007.066145613387
 20
437.9735090925888
 42
0.4142135623731
 10
1006.566145613387
 20
438.4735090925888
 42
0.4142135623731
 10
1006.066145613387
 20
437.9735090925888
 42
0.4142135623731
 10
1006.566145613387
 20
437.4735090925889
 42
0.4142135623731
  0
LWPOLYLINE
  5
52
330
1F
100
AcDbEntity
  8
3-4
  6
Continuous
 62
     7
370
     5
100
AcDbPolyline
 90
        4
 70
     1
 43
1.0
 10
1007.066145613387
 20
637.9735503325592
 42
0.4142135623731
 10
1006.566145613387
 20
638.4735503325591
 42
0.4142135623731
 10
1006.066145613387
 20
637.9735503325592
 42
0.4142135623731
 10
1006.566145613387
 20
637.4735503325592
 42
0.4142135623731
  0
LWPOLYLINE
  5
53
330
1F
100
AcDbEntity
  8
3-4
  6
Continuous
 62
     7
370
     5
100
AcDbPolyline
 90
        4
 70
     1
 43
1.0
 10
1007.066145613387
 20
837.9734678526186
 42
0.4142135623731
 10
1006.566145613387
 20
838.4734678526185
 42
0.4142135623731
 10
1006.066145613387
 20
837.9734678526186
 42
0.4142135623731
 10
1006.566145613387
 20
837.4734678526186
 42
0.4142135623731
  0
LWPOLYLINE
  5
54
330
1F
100
AcDbEntity
  8
3-4
  6
Continuous
 62
     7
370
     5
100
AcDbPolyline
 90
        4
 70
     1
 43
1.0
 10
1007.066145613387
 20
937.9730554529141
 42
0.4142135623731
 10
1006.566145613387
 20
938.4730554529141
 42
0.4142135623731
 10
1006.066145613387
 20
937.9730554529141
 42
0.4142135623731
 10
1006.566145613387
 20
937.4730554529141
 42
0.4142135623731
  0
LWPOLYLINE
  5
55
330
1F
100
AcDbEntity
  8
3-4
  6
Continuous
 62
     7
370
     5
100
AcDbPolyline
 90
        4
 70
     1
 43
1.0
 10
1113.215107685811
 20
-62.02702702702709
 42
0.4142135623731
 10
1112.715107685811
 20
-61.52702702702709
 42
0.4142135623731
 10
1112.215107685811
 20
-62.02702702702709
 42
0.4142135623731
 10
1112.715107685811
 20
-62.52702702702709
 42
0.4142135623731
  0
LWPOLYLINE
  5
56
330
1F
100
AcDbEntity
  8
3-4
  6
Continuous
 62
     7
370
     5
100
AcDbPolyline
 90
        4
 70
     1
 43
1.0
 10
1113.215107685811
 20
937.9730554529141
 42
0.4142135623731
 10
1112.715107685811
 20
938.4730554529141
 42
0.4142135623731
 10
1112.215107685811
 20
937.9730554529141
 42
0.4142135623731
 10
1112.715107685811
 20
937.4730554529141
 42
0.4142135623731
  0
LWPOLYLINE
  5
57
330
1F
100
AcDbEntity
  8
0-4
  6
Continuous
 62
     7
370
     5
100
AcDbPolyline
 90
        4
 70
     1
 43
1.0
 10
-1145.040474556588
 20
602.636421822213
 42
0.4142135623731
 10
-1145.540474556588
 20
603.136421822213
 42
0.4142135623731
 10
-1146.040474556588
 20
602.636421822213
 42
0.4142135623731
 10
-1145.540474556588
 20
602.136421822213
 42
0.4142135623731
  0
LWPOLYLINE
  5
58
330
1F
100
AcDbEntity
  8
0-4
  6
Continuous
 62
     7
370
     5
100
AcDbPolyline
 90
        4
 70
     1
 43
1.0
 10
-1025.040573532517
 20
602.636421822213
 42
0.4142135623731
 10
-1025.540573532517
 20
603.136421822213
 42
0.4142135623731
 10
-1026.040573532517
 20
602.636421822213
 42
0.4142135623731
 10
-1025.540573532517
 20
602.136421822213
 42
0.4142135623731
  0
LWPOLYLINE
  5
59
330
1F
100
AcDbEntity
  8
0-4
  6
Continuous
 62
     7
370
     5
100
AcDbPolyline
 90
        4
 70
     1
 43
1.0
 10
-1195.040515796558
 20
522.6362816063136
 42
0.4142135623731
 10
-1195.540515796558
 20
523.1362816063136
 42
0.4142135623731
 10
-1196.040515796558
 20
522.6362816063136
 42
0.4142135623731
 10
-1195.540515796558
 20
522.1362816063136
 42
0.4142135623731
  0
LWPOLYLINE
  5
5A
330
1F
100
AcDbEntity
  8
0-4
  6
Continuous
 62
     7
370
     5
100
AcDbPolyline
 90
        4
 70
     1
 43
1.0
 10
-975.0405322925463
 20
522.6362816063136
 42
0.4142135623731
 10
-975.5405322925463
 20
523.1362816063136
 42
0.4142135623731
 10
-976.0405322925463
 20
522.6362816063136
 42
0.4142135623731
 10
-975.5405322925463
 20
522.1362816063136
 42
0.4142135623731
  0
LWPOLYLINE
  5
5B
330
1F
100
AcDbEntity
  8
0-4
  6
Continuous
 62
     7
370
     5
100
AcDbPolyline
 90
        4
 70
     1
 43
1.0
 10
-839.8249379750844
 20
63.09784760346304
 42
0.4142135623731
 10
-840.3249379750844
 20
63.59784760346304
 42
0.4142135623731
 10
-840.8249379750844
 20
63.09784760346304
 42
0.4142135623731
 10
-840.3249379750844
 20
62.59784760346304
 42
0.4142135623731
  0
LWPOLYLINE
  5
5C
330
1F
100
AcDbEntity
  8
0-4
  6
Continuous
 62
     7
370
     5
100
AcDbPolyline
 90
        4
 70
     1
 43
1.0
 10
-839.8249379750844
 20
13.09793008340392
 42
0.4142135623731
 10
-840.3249379750844
 20
13.59793008340392
 42
0.4142135623731
 10
-840.8249379750844
 20
13.09793008340392
 42
0.4142135623731
 10
-840.3249379750844
 20
12.59793008340392
 42
0.4142135623731
  0
LWPOLYLINE
  5
5D
330
1F
100
AcDbEntity
  8
0-4
  6
Continuous
 62
     7
370
     5
100
AcDbPolyline
 90
        4
 70
     1
 43
1.0
 10
-839.8249379750844
 20
-106.9022183804898
 42
0.4142135623731
 10
-840.3249379750844
 20
-106.4022183804898
 42
0.4142135623731
 10
-840.8249379750844
 20
-106.9022183804898
 42
0.4142135623731
 10
-840.3249379750844
 20
-107.4022183804898
 42
0.4142135623731
  0
LWPOLYLINE
  5
5E
330
1F
100
AcDbEntity
  8
0-4
  6
Continuous
 62
     7
370
     5
100
AcDbPolyline
 90
        4
 70
     1
 43
1.0
 10
-759.8251689189187
 20
-106.9022183804898
 42
0.4142135623731
 10
-760.3251689189187
 20
-106.4022183804898
 42
0.4142135623731
 10
-760.8251689189187
 20
-106.9022183804898
 42
0.4142135623731
 10
-760.3251689189187
 20
-107.4022183804898
 42
0.4142135623731
  0
LWPOLYLINE
  5
5F
330
1F
100
AcDbEntity
  8
0-4
  6
Continuous
 62
     7
370
     5
100
AcDbPolyline
 90
        4
 70
     1
 43
1.0
 10
-759.8251689189187
 20
63.09784760346304
 42
0.4142135623731
 10
-760.3251689189187
 20
63.59784760346304
 42
0.4142135623731
 10
-760.8251689189187
 20
63.09784760346304
 42
0.4142135623731
 10
-760.3251689189187
 20
62.59784760346304
 42
0.4142135623731
  0
LWPOLYLINE
  5
60
330
1F
100
AcDbEntity
  8
0-4
  6
Continuous
 62
     7
370
     5
100
AcDbPolyline
 90
        4
 70
     1
 43
1.0
 10
-1055.040548788535
 20
-206.9021771405194
 42
0.4142135623731
 10
-1055.540548788535
 20
-206.4021771405194
 42
0.4142135623731
 10
-1056.040548788535
 20
-206.9021771405194
 42
0.4142135623731
 10
-1055.540548788535
 20
-207.4021771405194
 42
0.4142135623731
  0
LWPOLYLINE
  5
61
330
1F
100
AcDbEntity
  8
0-4
  6
Continuous
 62
     7
370
     5
100
AcDbPolyline
 90
        4
 70
     1
 43
1.0
 10
-1115.04049930057
 20
-206.9021771405194
 42
0.4142135623731
 10
-1115.54049930057
 20
-206.4021771405194
 42
0.4142135623731
 10
-1116.04049930057
 20
-206.9021771405194
 42
0.4142135623731
 10
-1115.54049930057
 20
-207.4021771405194
 42
0.4142135623731
  0
LINE
  5
62
330
1F
100
AcDbEntity
  8
0-4
  6
Continuous
 62
     7
370
     5
100
AcDbLine
 10
-1145.540474556588
 20
602.636421822213
 30
0.0
 11
-1025.540573532517
 21
602.636421822213
 31
0.0
  0
LINE
  5
63
330
1F
100
AcDbEntity
  8
0-4
  6
Continuous
 62
     7
370
     5
100
AcDbLine
 10
-1195.540515796558
 20
522.6362816063136
 30
0.0
 11
-975.5405322925463
 21
522.6362816063136
 31
0.0
  0
LINE
  5
64
330
1F
100
AcDbEntity
  8
0-4
  6
Continuous
 62
     7
370
     5
100
AcDbLine
 10
-1195.540515796558
 20
797.9911515519427
 30
0.0
 11
-1195.540515796558
 21
519.6363211966852
 31
0.0
  0
LINE
  5
65
330
1F
100
AcDbEntity
  8
0-4
  6
Continuous
 62
     7
370
     5
100
AcDbLine
 10
-975.5405322925463
 20
797.9911515519427
 30
0.0
 11
-975.5405322925463
 21
519.6363211966852
 31
0.0
  0
LINE
  5
66
330
1F
100
AcDbEntity
  8
0-4
  6
Continuous
 62
     7
370
     5
100
AcDbLine
 10
-1145.540474556588
 20
599.6364614125846
 30
0.0
 11
-1145.540474556588
 21
797.9911515519427
 31
0.0
  0
LINE
  5
67
330
1F
100
AcDbEntity
  8
0-4
  6
Continuous
 62
     7
370
     5
100
AcDbLine
 10
-1025.540573532517
 20
599.6364614125846
 30
0.0
 11
-1025.540573532517
 21
797.9911515519427
 31
0.0
  0
LINE
  5
68
330
1F
100
AcDbEntity
  8
0-2
  6
JWW_CENTER1
 62
    92
370
     5
100
AcDbLine
 10
-1085.540524044552
 20
81.3976308461784
 30
0.0
 11
-1085.540524044552
 21
-129.9652182089315
 31
0.0
  0
LINE
  5
69
330
1F
100
AcDbEntity
  8
0-4
  6
Continuous
 62
     7
370
     5
100
AcDbLine
 10
-1048.325203560494
 20
-106.9022183804898
 30
0.0
 11
-757.3252085092904
 21
-106.9022183804898
 31
0.0
  0
LINE
  5
6A
330
1F
100
AcDbEntity
  8
0-4
  6
Continuous
 62
     7
370
     5
100
AcDbLine
 10
-760.3251689189187
 20
-106.9022183804898
 30
0.0
 11
-760.3251689189187
 21
63.09784760346304
 31
0.0
  0
LINE
  5
6B
330
1F
100
AcDbEntity
  8
0-4
  6
Continuous
 62
     7
370
     5
100
AcDbLine
 10
-1055.540548788535
 20
-128.9020930109797
 30
0.0
 11
-1055.540548788535
 21
-209.9022612700591
 31
0.0
  0
LINE
  5
6C
330
1F
100
AcDbEntity
  8
0-4
  6
Continuous
 62
     7
370
     5
100
AcDbLine
 10
-1115.54049930057
 20
-128.9020930109797
 30
0.0
 11
-1115.54049930057
 21
-209.9022612700591
 31
0.0
  0
LINE
  5
6D
330
1F
100
AcDbEntity
  8
0-4
  6
Continuous
 62
     7
370
     5
100
AcDbLine
 10
-1161.2013120909
 20
50.45800286370365
 30
0.0
 11
-1176.420345821896
 21
70.29178928684559
 31
0.0
  0
LINE
  5
6E
330
1F
100
AcDbEntity
  8
0-4
  6
Continuous
 62
     7
370
     5
100
AcDbLine
 10
-1161.2013120909
 20
50.45800286370365
 30
0.0
 11
-1170.768449113176
 21
73.55502566775755
 31
0.0
  0
LINE
  5
6F
330
1F
100
AcDbEntity
  8
0-4
  6
Continuous
 62
     7
370
     5
100
AcDbLine
 10
-1161.2013120909
 20
50.45800286370365
 30
0.0
 11
-1219.823146510769
 21
151.9940680426521
 31
0.0
  0
LINE
  5
70
330
1F
100
AcDbEntity
  8
0-4
  6
Continuous
 62
     7
370
     5
100
AcDbLine
 10
-1425.884721085832
 20
151.9940680426521
 30
0.0
 11
-1219.823146510769
 21
151.9940680426521
 31
0.0
  0
LINE
  5
71
330
1F
100
AcDbEntity
  8
0-0
  6
Continuous
 62
    92
370
     5
100
AcDbLine
 10
-1055.540425068623
 20
-76.90088220544766
 30
0.0
 11
-1115.540623020481
 21
-76.90088220544766
 31
0.0
  0
LINE
  5
72
330
1F
100
AcDbEntity
  8
0-0
  6
Continuous
 62
    92
370
     5
100
AcDbLine
 10
-1115.540623020481
 20
-76.90088220544766
 30
0.0
 11
-1115.540623020481
 21
-106.9008574614654
 31
0.0
  0
LINE
  5
73
330
1F
100
AcDbEntity
  8
0-0
  6
Continuous
 62
    92
370
     5
100
AcDbLine
 10
-1055.540425068623
 20
-76.90088220544766
 30
0.0
 11
-1055.540425068623
 21
-106.9008574614654
 31
0.0
  0
LINE
  5
74
330
1F
100
AcDbEntity
  8
0-0
  6
Continuous
 62
    92
370
     5
100
AcDbLine
 10
-1055.540425068623
 20
-106.9008574614654
 30
0.0
 11
-1115.540623020481
 21
-106.9008574614654
 31
0.0
  0
LINE
  5
75
330
1F
100
AcDbEntity
  8
0-0
  6
Continuous
 62
    92
370
     5
100
AcDbLine
 10
-975.3998627533783
 20
23.0993239944047
 30
0.0
 11
-975.3998627533783
 21
13.0992910024284
 31
0.0
  0
LINE
  5
76
330
1F
100
AcDbEntity
  8
0-0
  6
Continuous
 62
    92
370
     5
100
AcDbLine
 10
-1195.39984625739
 20
23.0993239944047
 30
0.0
 11
-1195.39984625739
 21
13.0992910024284
 31
0.0
  0
LINE
  5
77
330
1F
100
AcDbEntity
  8
0-0
  6
JWW_DASHED1
 62
    92
370
     5
100
AcDbLine
 10
-1147.376230600718
 20
23.0993239944047
 30
0.0
 11
-1159.8763955606
 21
13.0992910024284
 31
0.0
  0
LINE
  5
78
330
1F
100
AcDbEntity
  8
0-0
  6
Continuous
 62
    92
370
     5
100
AcDbLine
 10
-1195.39984625739
 20
13.0992910024284
 30
0.0
 11
-975.3998627533783
 21
13.0992910024284
 31
0.0
  0
LINE
  5
79
330
1F
100
AcDbEntity
  8
0-0
  6
Continuous
 62
    92
370
     5
100
AcDbLine
 10
-1115.540623020481
 20
-26.90096468538854
 30
0.0
 11
-1115.540623020481
 21
13.09904356260574
 31
0.0
  0
LINE
  5
7A
330
1F
100
AcDbEntity
  8
0-0
  6
Continuous
 62
    92
370
     5
100
AcDbLine
 10
-1055.540425068623
 20
-26.90096468538854
 30
0.0
 11
-1115.540623020481
 21
-26.90096468538854
 31
0.0
  0
LINE
  5
7B
330
1F
100
AcDbEntity
  8
0-0
  6
Continuous
 62
    92
370
     5
100
AcDbLine
 10
-1055.540425068623
 20
-26.90096468538854
 30
0.0
 11
-1055.540425068623
 21
13.09904356260574
 31
0.0
  0
LINE
  5
7C
330
1F
100
AcDbEntity
  8
0-0
  6
Continuous
 62
    92
370
     5
100
AcDbLine
 10
-1110.540606524493
 20
-76.90088220544766
 30
0.0
 11
-1110.540606524493
 21
-26.90096468538854
 31
0.0
  0
LINE
  5
7D
330
1F
100
AcDbEntity
  8
0-0
  6
Continuous
 62
    92
370
     5
100
AcDbLine
 10
-1060.540441564611
 20
-76.90088220544766
 30
0.0
 11
-1060.540441564611
 21
-26.90096468538854
 31
0.0
  0
LINE
  5
7E
330
1F
100
AcDbEntity
  8
0-0
  6
JWW_DASHED1
 62
    92
370
     5
100
AcDbLine
 10
-1115.540623020481
 20
13.09904356260574
 30
0.0
 11
-1115.540623020481
 21
23.0993239944047
 31
0.0
  0
LINE
  5
7F
330
1F
100
AcDbEntity
  8
0-0
  6
JWW_DASHED1
 62
    92
370
     5
100
AcDbLine
 10
-1055.540425068623
 20
13.09904356260574
 30
0.0
 11
-1055.540425068623
 21
23.0993239944047
 31
0.0
  0
LINE
  5
80
330
1F
100
AcDbEntity
  8
0-0
  6
JWW_DASHED1
 62
    92
370
     5
100
AcDbLine
 10
-1147.376230600718
 20
23.0993239944047
 30
0.0
 11
-1023.423478410051
 21
23.0993239944047
 31
0.0
  0
LINE
  5
81
330
1F
100
AcDbEntity
  8
0-0
  6
JWW_DASHED1
 62
    92
370
     5
100
AcDbLine
 10
-1023.423478410051
 20
23.0993239944047
 30
0.0
 11
-1010.923313450169
 21
13.0992910024284
 31
0.0
  0
LINE
  5
82
330
1F
100
AcDbEntity
  8
0-0
  6
Continuous
 62
    92
370
     5
100
AcDbLine
 10
-1099.682699667441
 20
865.417266020904
 30
0.0
 11
-1071.398348421664
 21
865.417266020904
 31
0.0
  0
LINE
  5
83
330
1F
100
AcDbEntity
  8
0-0
  6
Continuous
 62
    92
370
     5
100
AcDbLine
 10
-1085.540524044552
 20
851.275337837838
 30
0.0
 11
-1085.540524044552
 21
879.5594416437925
 31
0.0
  0
LINE
  5
84
330
1F
100
AcDbEntity
  8
0-0
  6
Continuous
 62
    92
370
     5
100
AcDbLine
 10
-1120.895963101774
 20
844.2042500263938
 30
0.0
 11
-1092.611611855997
 21
844.2042500263938
 31
0.0
  0
LINE
  5
85
330
1F
100
AcDbEntity
  8
0-0
  6
Continuous
 62
    92
370
     5
100
AcDbLine
 10
-1106.753787478885
 20
830.0623218433279
 30
0.0
 11
-1106.753787478885
 21
858.3464256492823
 31
0.0
  0
LINE
  5
86
330
1F
100
AcDbEntity
  8
0-0
  6
Continuous
 62
    92
370
     5
100
AcDbLine
 10
-1078.469436233108
 20
844.2042500263938
 30
0.0
 11
-1050.185332427154
 21
844.2042500263938
 31
0.0
  0
LINE
  5
87
330
1F
100
AcDbEntity
  8
0-0
  6
Continuous
 62
    92
370
     5
100
AcDbLine
 10
-1064.327508050042
 20
830.0623218433279
 30
0.0
 11
-1064.327508050042
 21
858.3464256492823
 31
0.0
  0
LINE
  5
88
330
1F
100
AcDbEntity
  8
0-0
  6
Continuous
 62
    92
370
     5
100
AcDbLine
 10
-1099.682699667441
 20
822.990986592061
 30
0.0
 11
-1071.398348421664
 21
822.990986592061
 31
0.0
  0
LINE
  5
89
330
1F
100
AcDbEntity
  8
0-0
  6
Continuous
 62
    92
370
     5
100
AcDbLine
 10
-1085.540524044552
 20
808.849058408995
 30
0.0
 11
-1085.540524044552
 21
837.1331622149495
 31
0.0
  0
LINE
  5
8A
330
1F
100
AcDbEntity
  8
0-0
  6
Continuous
 62
    92
370
     5
100
AcDbLine
 10
-1142.109226536106
 20
822.9912340318836
 30
0.0
 11
-1113.824875290329
 21
822.9912340318836
 31
0.0
  0
LINE
  5
8B
330
1F
100
AcDbEntity
  8
0-0
  6
Continuous
 62
    92
370
     5
100
AcDbLine
 10
-1127.967050913218
 20
808.849058408995
 30
0.0
 11
-1127.967050913218
 21
837.1334096547721
 31
0.0
  0
LINE
  5
8C
330
1F
100
AcDbEntity
  8
0-0
  6
Continuous
 62
    92
370
     5
100
AcDbLine
 10
-1120.895963101774
 20
801.7779705975508
 30
0.0
 11
-1092.611611855997
 21
801.7779705975508
 31
0.0
  0
LINE
  5
8D
330
1F
100
AcDbEntity
  8
0-0
  6
Continuous
 62
    92
370
     5
100
AcDbLine
 10
-1106.753787478885
 20
787.6360424144849
 30
0.0
 11
-1106.753787478885
 21
815.9201462204394
 31
0.0
  0
LINE
  5
8E
330
1F
100
AcDbEntity
  8
0-0
  6
Continuous
 62
    92
370
     5
100
AcDbLine
 10
-1057.256172798775
 20
822.9912340318836
 30
0.0
 11
-1028.971821552998
 21
822.9912340318836
 31
0.0
  0
LINE
  5
8F
330
1F
100
AcDbEntity
  8
0-0
  6
Continuous
 62
    92
370
     5
100
AcDbLine
 10
-1043.113997175887
 20
808.849058408995
 30
0.0
 11
-1043.113997175887
 21
837.1334096547721
 31
0.0
  0
LINE
  5
90
330
1F
100
AcDbEntity
  8
0-0
  6
Continuous
 62
    92
370
     5
100
AcDbLine
 10
-1078.469436233108
 20
801.7779705975508
 30
0.0
 11
-1050.185332427154
 21
801.7779705975508
 31
0.0
  0
LINE
  5
91
330
1F
100
AcDbEntity
  8
0-0
  6
Continuous
 62
    92
370
     5
100
AcDbLine
 10
-1064.327508050042
 20
787.6360424144849
 30
0.0
 11
-1064.327508050042
 21
815.9201462204394
 31
0.0
  0
LINE
  5
92
330
1F
100
AcDbEntity
  8
0-0
  6
Continuous
 62
    92
370
     5
100
AcDbLine
 10
-1099.682699667441
 20
780.5647071632179
 30
0.0
 11
-1071.398348421664
 21
780.5647071632179
 31
0.0
  0
LINE
  5
93
330
1F
100
AcDbEntity
  8
0-0
  6
Continuous
 62
    92
370
     5
100
AcDbLine
 10
-1085.540524044552
 20
766.4227789801521
 30
0.0
 11
-1085.540524044552
 21
794.7068827861065
 31
0.0
  0
LINE
  5
94
330
1F
100
AcDbEntity
  8
0-0
  6
Continuous
 62
    92
370
     5
100
AcDbLine
 10
-1106.753787478885
 20
766.7253978832349
 30
0.0
 11
-1106.753787478885
 21
773.4938667915964
 31
0.0
  0
LINE
  5
95
330
1F
100
AcDbEntity
  8
0-0
  6
Continuous
 62
    92
370
     5
100
AcDbLine
 10
-1141.665566934122
 20
801.7779705975508
 30
0.0
 11
-1135.037891284839
 21
801.7779705975508
 31
0.0
  0
LINE
  5
96
330
1F
100
AcDbEntity
  8
0-0
  6
Continuous
 62
    92
370
     5
100
AcDbLine
 10
-1141.665319494299
 20
844.2042500263938
 30
0.0
 11
-1135.037891284839
 21
844.2042500263938
 31
0.0
  0
LINE
  5
97
330
1F
100
AcDbEntity
  8
0-0
  6
Continuous
 62
    92
370
     5
100
AcDbLine
 10
-1137.226496516047
 20
853.4634481894005
 30
0.0
 11
-1054.979726430532
 21
771.2164306640625
 31
0.0
  0
LINE
  5
98
330
1F
100
AcDbEntity
  8
0-0
  6
Continuous
 62
    92
370
     5
100
AcDbLine
 10
-1127.967050913218
 20
851.275337837838
 30
0.0
 11
-1127.967050913218
 21
865.417266020904
 31
0.0
  0
LINE
  5
99
330
1F
100
AcDbEntity
  8
0-0
  6
Continuous
 62
    92
370
     5
100
AcDbLine
 10
-1127.966803473395
 20
865.4175134607266
 30
0.0
 11
-1113.824875290329
 21
865.4175134607266
 31
0.0
  0
LINE
  5
9A
330
1F
100
AcDbEntity
  8
0-0
  6
Continuous
 62
    92
370
     5
100
AcDbLine
 10
-1106.753787478885
 20
872.4886012721709
 30
0.0
 11
-1106.753787478885
 21
879.1157820418075
 31
0.0
  0
LINE
  5
9B
330
1F
100
AcDbEntity
  8
0-0
  6
Continuous
 62
    92
370
     5
100
AcDbLine
 10
-1145.413290487753
 20
826.7572681323904
 30
0.0
 11
-1089.297402871622
 21
882.8731557485221
 31
0.0
  0
LINE
  5
9C
330
1F
100
AcDbEntity
  8
0-0
  6
Continuous
 62
    92
370
     5
100
AcDbLine
 10
-1064.327508050042
 20
872.4886012721709
 30
0.0
 11
-1064.327508050042
 21
879.1160294816302
 31
0.0
  0
LINE
  5
9D
330
1F
100
AcDbEntity
  8
0-0
  6
Continuous
 62
    92
370
     5
100
AcDbLine
 10
-1137.278211438978
 20
792.4660677523227
 30
0.0
 11
-1055.067567567567
 21
874.6767116237334
 31
0.0
  0
LINE
  5
9E
330
1F
100
AcDbEntity
  8
0-0
  6
Continuous
 62
    92
370
     5
100
AcDbLine
 10
-1057.256172798775
 20
865.4175134607266
 30
0.0
 11
-1043.114244615709
 21
865.4175134607266
 31
0.0
  0
LINE
  5
9F
330
1F
100
AcDbEntity
  8
0-0
  6
Continuous
 62
    92
370
     5
100
AcDbLine
 10
-1043.113997175887
 20
851.275337837838
 30
0.0
 11
-1043.113997175887
 21
865.417266020904
 31
0.0
  0
LINE
  5
A0
330
1F
100
AcDbEntity
  8
0-0
  6
Continuous
 62
    92
370
     5
100
AcDbLine
 10
-1036.043156804265
 20
844.2044974662165
 30
0.0
 11
-1029.415728594806
 21
844.2044974662165
 31
0.0
  0
LINE
  5
A1
330
1F
100
AcDbEntity
  8
0-0
  6
Continuous
 62
    92
370
     5
100
AcDbLine
 10
-1081.783645217483
 20
882.8731557485221
 30
0.0
 11
-1025.658354888091
 21
826.7478654191302
 31
0.0
  0
LINE
  5
A2
330
1F
100
AcDbEntity
  8
0-0
  6
Continuous
 62
    92
370
     5
100
AcDbLine
 10
-1116.101321658572
 20
771.2164306640625
 30
0.0
 11
-1033.854551573058
 21
853.4634481894005
 31
0.0
  0
LINE
  5
A3
330
1F
100
AcDbEntity
  8
0-0
  6
Continuous
 62
    92
370
     5
100
AcDbLine
 10
-1036.043156804265
 20
801.7782180373734
 30
0.0
 11
-1029.415481154983
 21
801.7782180373734
 31
0.0
  0
LINE
  5
A4
330
1F
100
AcDbEntity
  8
0-0
  6
Continuous
 62
    92
370
     5
100
AcDbLine
 10
-1116.013480521537
 20
874.6767116237334
 30
0.0
 11
-1033.85479901288
 21
792.518030115076
 31
0.0
  0
LINE
  5
A5
330
1F
100
AcDbEntity
  8
0-0
  6
Continuous
 62
    92
370
     5
100
AcDbLine
 10
-1043.113997175887
 20
780.5647071632179
 30
0.0
 11
-1043.113997175887
 21
794.7071302259292
 31
0.0
  0
LINE
  5
A6
330
1F
100
AcDbEntity
  8
0-0
  6
Continuous
 62
    92
370
     5
100
AcDbLine
 10
-1057.256172798775
 20
780.5649546030406
 30
0.0
 11
-1043.113749736064
 21
780.5649546030406
 31
0.0
  0
LINE
  5
A7
330
1F
100
AcDbEntity
  8
0-0
  6
Continuous
 62
    92
370
     5
100
AcDbLine
 10
-1064.327508050042
 20
766.8659437024917
 30
0.0
 11
-1064.327508050042
 21
773.4938667915964
 31
0.0
  0
LINE
  5
A8
330
1F
100
AcDbEntity
  8
0-0
  6
Continuous
 62
    92
370
     5
100
AcDbLine
 10
-1081.783150337838
 20
763.1088174355998
 30
0.0
 11
-1025.658354888091
 21
819.2333654455238
 31
0.0
  0
LINE
  5
A9
330
1F
100
AcDbEntity
  8
0-0
  6
Continuous
 62
    92
370
     5
100
AcDbLine
 10
-1145.422693201013
 20
819.2333654455238
 30
0.0
 11
-1089.297897751267
 21
763.1088174355998
 31
0.0
  0
LINE
  5
AA
330
1F
100
AcDbEntity
  8
0-0
  6
Continuous
 62
    92
370
     5
100
AcDbLine
 10
-1127.96729835304
 20
780.5649546030406
 30
0.0
 11
-1113.824875290329
 21
780.5649546030406
 31
0.0
  0
LINE
  5
AB
330
1F
100
AcDbEntity
  8
0-0
  6
Continuous
 62
    92
370
     5
100
AcDbLine
 10
-1127.967050913218
 20
780.5647071632179
 30
0.0
 11
-1127.967050913218
 21
794.7071302259292
 31
0.0
  0
LINE
  5
AC
330
1F
100
AcDbEntity
  8
0-0
  6
Continuous
 62
    92
370
     5
100
AcDbLine
 10
-1127.967050913218
 20
63.09908480257604
 30
0.0
 11
-1106.753787478885
 21
54.43881473025755
 31
0.0
  0
LINE
  5
AD
330
1F
100
AcDbEntity
  8
0-0
  6
Continuous
 62
    92
370
     5
100
AcDbLine
 10
-1106.753787478885
 20
54.43881473025755
 30
0.0
 11
-1085.540524044552
 21
63.09908480257604
 31
0.0
  0
LINE
  5
AE
330
1F
100
AcDbEntity
  8
0-0
  6
Continuous
 62
    92
370
     5
100
AcDbLine
 10
-1021.900981181377
 20
54.43881473025755
 30
0.0
 11
-1043.113997175887
 21
63.09908480257604
 31
0.0
  0
LINE
  5
AF
330
1F
100
AcDbEntity
  8
0-0
  6
Continuous
 62
    92
370
     5
100
AcDbLine
 10
-1043.113997175887
 20
63.09908480257604
 30
0.0
 11
-1064.32726061022
 21
54.43881473025755
 31
0.0
  0
LINE
  5
B0
330
1F
100
AcDbEntity
  8
0-0
  6
Continuous
 62
    92
370
     5
100
AcDbLine
 10
-1064.32726061022
 20
54.43881473025755
 30
0.0
 11
-1085.540524044552
 21
63.09908480257604
 31
0.0
  0
LINE
  5
B1
330
1F
100
AcDbEntity
  8
0-0
  6
Continuous
 62
    92
370
     5
100
AcDbLine
 10
-1117.36029547614
 20
58.76901162637267
 30
0.0
 11
-1106.753787478885
 21
63.09908480257604
 31
0.0
  0
LINE
  5
B2
330
1F
100
AcDbEntity
  8
0-0
  6
Continuous
 62
    92
370
     5
100
AcDbLine
 10
-1096.14727948163
 20
58.76901162637267
 30
0.0
 11
-1106.753787478885
 21
63.09908480257604
 31
0.0
  0
LINE
  5
B3
330
1F
100
AcDbEntity
  8
0-0
  6
Continuous
 62
    92
370
     5
100
AcDbLine
 10
-1053.720752612964
 20
58.76901162637267
 30
0.0
 11
-1064.32726061022
 21
63.09908480257604
 31
0.0
  0
LINE
  5
B4
330
1F
100
AcDbEntity
  8
0-0
  6
Continuous
 62
    92
370
     5
100
AcDbLine
 10
-1074.933768607475
 20
58.76901162637267
 30
0.0
 11
-1064.32726061022
 21
63.09908480257604
 31
0.0
  0
LINE
  5
B5
330
1F
100
AcDbEntity
  8
0-0
  6
Continuous
 62
    92
370
     5
100
AcDbLine
 10
-1021.900981181377
 20
54.43881473025755
 30
0.0
 11
-1017.049923458615
 21
56.41932307062945
 31
0.0
  0
LINE
  5
B6
330
1F
100
AcDbEntity
  8
0-0
  6
Continuous
 62
    92
370
     5
100
AcDbLine
 10
-975.3998627533783
 20
23.0993239944047
 30
0.0
 11
-1024.217512800887
 21
62.15336980046459
 31
0.0
  0
LINE
  5
B7
330
1F
100
AcDbEntity
  8
0-0
  6
Continuous
 62
    92
370
     5
100
AcDbLine
 10
-1032.507489178632
 20
58.76901162637267
 30
0.0
 11
-1024.217512800887
 21
62.15336980046459
 31
0.0
  0
LINE
  5
B8
330
1F
100
AcDbEntity
  8
0-0
  6
Continuous
 62
    92
370
     5
100
AcDbLine
 10
-1195.39984625739
 20
23.0993239944047
 30
0.0
 11
-1146.677213101774
 21
62.07728205500445
 31
0.0
  0
LINE
  5
B9
330
1F
100
AcDbEntity
  8
0-0
  6
Continuous
 62
    92
370
     5
100
AcDbLine
 10
-1138.573558910473
 20
58.76901162637267
 30
0.0
 11
-1146.677213101774
 21
62.07728205500445
 31
0.0
  0
LINE
  5
BA
330
1F
100
AcDbEntity
  8
0-0
  6
Continuous
 62
    92
370
     5
100
AcDbLine
 10
-1149.180066907728
 20
54.43881473025755
 30
0.0
 11
-1153.844802444046
 21
56.34323532516902
 31
0.0
  0
LINE
  5
BB
330
1F
100
AcDbEntity
  8
0-0
  6
Continuous
 62
    92
370
     5
100
AcDbLine
 10
-1149.180066907728
 20
54.43881473025755
 30
0.0
 11
-1127.967050913218
 21
63.09908480257604
 31
0.0
  0
LINE
  5
BC
330
1F
100
AcDbEntity
  8
0-2
  6
JWW_CENTER1
 62
    92
370
     5
100
AcDbLine
 10
-1240.132388553104
 20
822.990986592061
 30
0.0
 11
-1195.540515796558
 21
822.990986592061
 31
0.0
  0
LINE
  5
BD
330
1F
100
AcDbEntity
  8
0-2
  6
JWW_CENTER1
 62
    92
370
     5
100
AcDbLine
 10
-975.5405322925463
 20
822.990986592061
 30
0.0
 11
-932.0424672719594
 21
822.990986592061
 31
0.0
  0
LINE
  5
BE
330
1F
100
AcDbEntity
  8
0-2
  6
JWW_CENTER1
 62
    92
370
     5
100
AcDbLine
 10
-1085.540524044552
 20
712.9911185599665
 30
0.0
 11
-1085.540524044552
 21
668.4192884290542
 31
0.0
  0
LINE
  5
BF
330
1F
100
AcDbEntity
  8
0-2
  6
JWW_CENTER1
 62
    92
370
     5
100
AcDbLine
 10
-1085.540524044552
 20
983.6739534945102
 30
0.0
 11
-1085.540524044552
 21
932.9911020639781
 31
0.0
  0
LINE
  5
C0
330
1F
100
AcDbEntity
  8
0-4
  6
Continuous
 62
     7
370
     5
100
AcDbLine
 10
-1011.478692132073
 20
63.09784760346304
 30
0.0
 11
-757.3252085092904
 21
63.09784760346304
 31
0.0
  0
LINE
  5
C1
330
1F
100
AcDbEntity
  8
0-4
  6
Continuous
 62
     7
370
     5
100
AcDbLine
 10
-966.2579510663006
 20
13.09793008340392
 30
0.0
 11
-837.324977565456
 21
13.09793008340392
 31
0.0
  0
LINE
  5
C2
330
1F
100
AcDbEntity
  8
3-0
  6
JWW_DASHED1
 62
    92
370
     5
100
AcDbLine
 10
-109.4594594594594
 20
-62.02702702702709
 30
0.0
 11
-109.4594594594594
 21
937.9730554529141
 31
0.0
  0
LINE
  5
C3
330
1F
100
AcDbEntity
  8
3-0
  6
JWW_DASHED1
 62
    92
370
     5
100
AcDbLine
 10
-109.4594594594594
 20
937.9730554529141
 30
0.0
 11
890.5406230204818
 21
937.9730554529141
 31
0.0
  0
LINE
  5
C4
330
1F
100
AcDbEntity
  8
3-0
  6
JWW_DASHED1
 62
    92
370
     5
100
AcDbLine
 10
890.5406230204818
 20
937.9730554529141
 30
0.0
 11
890.5406230204818
 21
-62.02702702702709
 31
0.0
  0
LINE
  5
C5
330
1F
100
AcDbEntity
  8
3-0
  6
JWW_DASHED1
 62
    92
370
     5
100
AcDbLine
 10
890.5406230204818
 20
-62.02702702702709
 30
0.0
 11
-109.4594594594594
 21
-62.02702702702709
 31
0.0
  0
LINE
  5
C6
330
1F
100
AcDbEntity
  8
3-2
  6
Continuous
 62
    92
370
     5
100
AcDbLine
 10
-14.17335304054035
 20
52.115478515625
 30
0.0
 11
-4.745400918496614
 21
52.115478515625
 31
0.0
  0
LINE
  5
C7
330
1F
100
AcDbEntity
  8
3-2
  6
Continuous
 62
    92
370
     5
100
AcDbLine
 10
-9.459376979518481
 20
47.40150245460313
 30
0.0
 11
-9.459376979518481
 21
56.82970201646981
 31
0.0
  0
LINE
  5
C8
330
1F
100
AcDbEntity
  8
3-2
  6
Continuous
 62
    92
370
     5
100
AcDbLine
 10
-21.24444085198462
 20
45.04463814400339
 30
0.0
 11
-11.81624129011823
 21
45.04463814400339
 31
0.0
  0
LINE
  5
C9
330
1F
100
AcDbEntity
  8
3-2
  6
Continuous
 62
    92
370
     5
100
AcDbLine
 10
-16.53046479096275
 20
40.33066208298152
 30
0.0
 11
-16.53046479096275
 21
49.75861420502554
 31
0.0
  0
LINE
  5
CA
330
1F
100
AcDbEntity
  8
3-2
  6
Continuous
 62
    92
370
     5
100
AcDbLine
 10
-7.102265229096076
 20
45.04463814400339
 30
0.0
 11
2.325686892947658
 21
45.04463814400339
 31
0.0
  0
LINE
  5
CB
330
1F
100
AcDbEntity
  8
3-2
  6
Continuous
 62
    92
370
     5
100
AcDbLine
 10
-2.388289168074209
 20
40.33066208298152
 30
0.0
 11
-2.388289168074209
 21
49.75861420502554
 31
0.0
  0
LINE
  5
CC
330
1F
100
AcDbEntity
  8
3-2
  6
Continuous
 62
    92
370
     5
100
AcDbLine
 10
-14.17335304054035
 20
37.97355033255911
 30
0.0
 11
-4.745400918496614
 21
37.97355033255911
 31
0.0
  0
LINE
  5
CD
330
1F
100
AcDbEntity
  8
3-2
  6
Continuous
 62
    92
370
     5
100
AcDbLine
 10
-9.459376979518481
 20
33.25957427153725
 30
0.0
 11
-9.459376979518481
 21
42.68752639358127
 31
0.0
  0
LINE
  5
CE
330
1F
100
AcDbEntity
  8
3-2
  6
Continuous
 62
    92
370
     5
100
AcDbLine
 10
-28.31552866342889
 20
37.97355033255911
 30
0.0
 11
-18.88757654138516
 21
37.97355033255911
 31
0.0
  0
LINE
  5
CF
330
1F
100
AcDbEntity
  8
3-2
  6
Continuous
 62
    92
370
     5
100
AcDbLine
 10
-23.60155260240703
 20
33.25957427153725
 30
0.0
 11
-23.60155260240703
 21
42.68752639358127
 31
0.0
  0
LINE
  5
D0
330
1F
100
AcDbEntity
  8
3-2
  6
Continuous
 62
    92
370
     5
100
AcDbLine
 10
-21.24444085198462
 20
30.90246252111484
 30
0.0
 11
-11.81624129011823
 21
30.90246252111484
 31
0.0
  0
LINE
  5
D1
330
1F
100
AcDbEntity
  8
3-2
  6
Continuous
 62
    92
370
     5
100
AcDbLine
 10
-16.53046479096275
 20
26.18848646009297
 30
0.0
 11
-16.53046479096275
 21
35.61643858213699
 31
0.0
  0
LINE
  5
D2
330
1F
100
AcDbEntity
  8
3-2
  6
Continuous
 62
    92
370
     5
100
AcDbLine
 10
-0.0311774176518043
 20
37.97355033255911
 30
0.0
 11
9.39677470439193
 21
37.97355033255911
 31
0.0
  0
LINE
  5
D3
330
1F
100
AcDbEntity
  8
3-2
  6
Continuous
 62
    92
370
     5
100
AcDbLine
 10
4.682798643370063
 20
33.25957427153725
 30
0.0
 11
4.682798643370063
 21
42.68752639358127
 31
0.0
  0
LINE
  5
D4
330
1F
100
AcDbEntity
  8
3-2
  6
Continuous
 62
    92
370
     5
100
AcDbLine
 10
-7.102265229096076
 20
30.90246252111484
 30
0.0
 11
2.325686892947658
 21
30.90246252111484
 31
0.0
  0
LINE
  5
D5
330
1F
100
AcDbEntity
  8
3-2
  6
Continuous
 62
    92
370
     5
100
AcDbLine
 10
-2.388289168074209
 20
26.18848646009297
 30
0.0
 11
-2.388289168074209
 21
35.61643858213699
 31
0.0
  0
LINE
  5
D6
330
1F
100
AcDbEntity
  8
3-2
  6
Continuous
 62
    92
370
     5
100
AcDbLine
 10
-14.17335304054035
 20
23.83137470967057
 30
0.0
 11
-4.745400918496614
 21
23.83137470967057
 31
0.0
  0
LINE
  5
D7
330
1F
100
AcDbEntity
  8
3-2
  6
Continuous
 62
    92
370
     5
100
AcDbLine
 10
-9.459376979518481
 20
19.1173986486487
 30
0.0
 11
-9.459376979518481
 21
28.54535077069272
 31
0.0
  0
LINE
  5
D8
330
1F
100
AcDbEntity
  8
3-2
  6
Continuous
 62
    92
370
     5
100
AcDbLine
 10
-16.53046479096275
 20
19.21835409628386
 30
0.0
 11
-16.53046479096275
 21
21.47451039907111
 31
0.0
  0
LINE
  5
D9
330
1F
100
AcDbEntity
  8
3-2
  6
Continuous
 62
    92
370
     5
100
AcDbLine
 10
-28.16768336940441
 20
30.90246252111484
 30
0.0
 11
-25.95841691300677
 21
30.90246252111484
 31
0.0
  0
LINE
  5
DA
330
1F
100
AcDbEntity
  8
3-2
  6
Continuous
 62
    92
370
     5
100
AcDbLine
 10
-28.16755964949323
 20
45.04463814400339
 30
0.0
 11
-25.95841691300677
 21
45.04463814400339
 31
0.0
  0
LINE
  5
DB
330
1F
100
AcDbEntity
  8
3-2
  6
Continuous
 62
    92
370
     5
100
AcDbLine
 10
-26.68799323004635
 20
48.13095505173152
 30
0.0
 11
0.7274730785474048
 21
20.7153650232263
 31
0.0
  0
LINE
  5
DC
330
1F
100
AcDbEntity
  8
3-2
  6
Continuous
 62
    92
370
     5
100
AcDbLine
 10
-23.60155260240703
 20
47.40150245460313
 30
0.0
 11
-23.60155260240703
 21
52.115478515625
 31
0.0
  0
LINE
  5
DD
330
1F
100
AcDbEntity
  8
3-2
  6
Continuous
 62
    92
370
     5
100
AcDbLine
 10
-23.60130516258437
 20
52.11572595544766
 30
0.0
 11
-18.88757654138516
 21
52.11572595544766
 31
0.0
  0
LINE
  5
DE
330
1F
100
AcDbEntity
  8
3-2
  6
Continuous
 62
    92
370
     5
100
AcDbLine
 10
-16.53046479096275
 20
54.4725902660474
 30
0.0
 11
-16.53046479096275
 21
56.68173300253386
 31
0.0
  0
LINE
  5
DF
330
1F
100
AcDbEntity
  8
3-2
  6
Continuous
 62
    92
370
     5
100
AcDbLine
 10
-29.41688331397785
 20
39.22881255278725
 30
0.0
 11
-10.711669921875
 21
57.93427338471304
 31
0.0
  0
LINE
  5
E0
330
1F
100
AcDbEntity
  8
3-2
  6
Continuous
 62
    92
370
     5
100
AcDbLine
 10
-2.388289168074209
 20
54.4725902660474
 30
0.0
 11
-2.388289168074209
 21
56.68173300253386
 31
0.0
  0
LINE
  5
E1
330
1F
100
AcDbEntity
  8
3-2
  6
Continuous
 62
    92
370
     5
100
AcDbLine
 10
-26.70519029771953
 20
27.79857738597968
 30
0.0
 11
0.6982751794765818
 21
55.20204286317579
 31
0.0
  0
LINE
  5
E2
330
1F
100
AcDbEntity
  8
3-2
  6
Continuous
 62
    92
370
     5
100
AcDbLine
 10
-0.0311774176518043
 20
52.11572595544766
 30
0.0
 11
4.682798643370063
 21
52.11572595544766
 31
0.0
  0
LINE
  5
E3
330
1F
100
AcDbEntity
  8
3-2
  6
Continuous
 62
    92
370
     5
100
AcDbLine
 10
4.682798643370063
 20
47.40150245460313
 30
0.0
 11
4.682798643370063
 21
52.115478515625
 31
0.0
  0
LINE
  5
E4
330
1F
100
AcDbEntity
  8
3-2
  6
Continuous
 62
    92
370
     5
100
AcDbLine
 10
7.03966295396981
 20
45.04463814400339
 30
0.0
 11
9.248805690456265
 21
45.04463814400339
 31
0.0
  0
LINE
  5
E5
330
1F
100
AcDbEntity
  8
3-2
  6
Continuous
 62
    92
370
     5
100
AcDbLine
 10
-8.207084037161962
 20
57.93427338471304
 30
0.0
 11
10.50134607263516
 21
39.22584327491563
 31
0.0
  0
LINE
  5
E6
330
1F
100
AcDbEntity
  8
3-2
  6
Continuous
 62
    92
370
     5
100
AcDbLine
 10
-19.64622703758437
 20
20.7153650232263
 30
0.0
 11
7.769362990920854
 21
48.13095505173152
 31
0.0
  0
LINE
  5
E7
330
1F
100
AcDbEntity
  8
3-2
  6
Continuous
 62
    92
370
     5
100
AcDbLine
 10
7.03966295396981
 20
30.90246252111484
 30
0.0
 11
9.249053130278924
 21
30.90246252111484
 31
0.0
  0
LINE
  5
E8
330
1F
100
AcDbEntity
  8
3-2
  6
Continuous
 62
    92
370
     5
100
AcDbLine
 10
-19.61702913851326
 20
55.20204286317579
 30
0.0
 11
7.769115551098196
 21
27.81589817356434
 31
0.0
  0
LINE
  5
E9
330
1F
100
AcDbEntity
  8
3-2
  6
Continuous
 62
    92
370
     5
100
AcDbLine
 10
4.682798643370063
 20
23.83137470967057
 30
0.0
 11
4.682798643370063
 21
28.54559821051538
 31
0.0
  0
LINE
  5
EA
330
1F
100
AcDbEntity
  8
3-2
  6
Continuous
 62
    92
370
     5
100
AcDbLine
 10
-0.0311774176518043
 20
23.83137470967057
 30
0.0
 11
4.683046083192721
 21
23.83137470967057
 31
0.0
  0
LINE
  5
EB
330
1F
100
AcDbEntity
  8
3-2
  6
Continuous
 62
    92
370
     5
100
AcDbLine
 10
-2.388289168074209
 20
19.26512022276199
 30
0.0
 11
-2.388289168074209
 21
21.47451039907111
 31
0.0
  0
LINE
  5
EC
330
1F
100
AcDbEntity
  8
3-2
  6
Continuous
 62
    92
370
     5
100
AcDbLine
 10
-8.206836597339304
 20
18.01282728040547
 30
0.0
 11
10.50134607263516
 21
36.72100995038022
 31
0.0
  0
LINE
  5
ED
330
1F
100
AcDbEntity
  8
3-2
  6
Continuous
 62
    92
370
     5
100
AcDbLine
 10
-29.42010003167212
 20
36.72100995038022
 30
0.0
 11
-10.711669921875
 21
18.01282728040547
 31
0.0
  0
LINE
  5
EE
330
1F
100
AcDbEntity
  8
3-2
  6
Continuous
 62
    92
370
     5
100
AcDbLine
 10
-23.60155260240703
 20
23.83137470967057
 30
0.0
 11
-18.88757654138516
 21
23.83137470967057
 31
0.0
  0
LINE
  5
EF
330
1F
100
AcDbEntity
  8
3-2
  6
Continuous
 62
    92
370
     5
100
AcDbLine
 10
-23.60155260240703
 20
23.83137470967057
 30
0.0
 11
-23.60155260240703
 21
28.54559821051538
 31
0.0
  0
LINE
  5
F0
330
1F
100
AcDbEntity
  8
3-2
  6
JWW_CENTER1
 62
    92
370
     5
100
AcDbLine
 10
-60.98995724239842
 20
37.97355033255911
 30
0.0
 11
-46.12599965688332
 21
37.97355033255911
 31
0.0
  0
LINE
  5
F1
330
1F
100
AcDbEntity
  8
3-2
  6
JWW_CENTER1
 62
    92
370
     5
100
AcDbLine
 10
27.20749313766902
 20
37.97355033255911
 30
0.0
 11
41.70672442462006
 21
37.97355033255911
 31
0.0
  0
LINE
  5
F2
330
1F
100
AcDbEntity
  8
3-2
  6
JWW_CENTER1
 62
    92
370
     5
100
AcDbLine
 10
-9.459376979518481
 20
1.306680215371614
 30
0.0
 11
-9.459376979518481
 21
-13.55059649493228
 31
0.0
  0
LINE
  5
F3
330
1F
100
AcDbEntity
  8
3-2
  6
JWW_CENTER1
 62
    92
370
     5
100
AcDbLine
 10
-9.459376979518481
 20
91.5343743401607
 30
0.0
 11
-9.459376979518481
 21
74.64017300992396
 31
0.0
  0
LINE
  5
F4
330
1F
100
AcDbEntity
  8
3-2
  6
Continuous
 62
    92
370
     5
100
AcDbLine
 10
185.8265644795188
 20
52.115478515625
 30
0.0
 11
195.2545166015625
 21
52.115478515625
 31
0.0
  0
LINE
  5
F5
330
1F
100
AcDbEntity
  8
3-2
  6
Continuous
 62
    92
370
     5
100
AcDbLine
 10
190.5405405405406
 20
47.40150245460313
 30
0.0
 11
190.5405405405406
 21
56.82970201646981
 31
0.0
  0
LINE
  5
F6
330
1F
100
AcDbEntity
  8
3-2
  6
Continuous
 62
    92
370
     5
100
AcDbLine
 10
178.7554766680745
 20
45.04463814400339
 30
0.0
 11
188.1836762299409
 21
45.04463814400339
 31
0.0
  0
LINE
  5
F7
330
1F
100
AcDbEntity
  8
3-2
  6
Continuous
 62
    92
370
     5
100
AcDbLine
 10
183.4694527290964
 20
40.33066208298152
 30
0.0
 11
183.4694527290964
 21
49.75861420502554
 31
0.0
  0
LINE
  5
F8
330
1F
100
AcDbEntity
  8
3-2
  6
Continuous
 62
    92
370
     5
100
AcDbLine
 10
192.897652290963
 20
45.04463814400339
 30
0.0
 11
202.3256044130068
 21
45.04463814400339
 31
0.0
  0
LINE
  5
F9
330
1F
100
AcDbEntity
  8
3-2
  6
Continuous
 62
    92
370
     5
100
AcDbLine
 10
197.6116283519849
 20
40.33066208298152
 30
0.0
 11
197.6116283519849
 21
49.75861420502554
 31
0.0
  0
LINE
  5
FA
330
1F
100
AcDbEntity
  8
3-2
  6
Continuous
 62
    92
370
     5
100
AcDbLine
 10
185.8265644795188
 20
37.97355033255911
 30
0.0
 11
195.2545166015625
 21
37.97355033255911
 31
0.0
  0
LINE
  5
FB
330
1F
100
AcDbEntity
  8
3-2
  6
Continuous
 62
    92
370
     5
100
AcDbLine
 10
190.5405405405406
 20
33.25957427153725
 30
0.0
 11
190.5405405405406
 21
42.68752639358127
 31
0.0
  0
LINE
  5
FC
330
1F
100
AcDbEntity
  8
3-2
  6
Continuous
 62
    92
370
     5
100
AcDbLine
 10
171.6843888566302
 20
37.97355033255911
 30
0.0
 11
181.1123409786742
 21
37.97355033255911
 31
0.0
  0
LINE
  5
FD
330
1F
100
AcDbEntity
  8
3-2
  6
Continuous
 62
    92
370
     5
100
AcDbLine
 10
176.3983649176521
 20
33.25957427153725
 30
0.0
 11
176.3983649176521
 21
42.68752639358127
 31
0.0
  0
LINE
  5
FE
330
1F
100
AcDbEntity
  8
3-2
  6
Continuous
 62
    92
370
     5
100
AcDbLine
 10
178.7554766680745
 20
30.90246252111484
 30
0.0
 11
188.1836762299409
 21
30.90246252111484
 31
0.0
  0
LINE
  5
FF
330
1F
100
AcDbEntity
  8
3-2
  6
Continuous
 62
    92
370
     5
100
AcDbLine
 10
183.4694527290964
 20
26.18848646009297
 30
0.0
 11
183.4694527290964
 21
35.61643858213699
 31
0.0
  0
LINE
  5
100
330
1F
100
AcDbEntity
  8
3-2
  6
Continuous
 62
    92
370
     5
100
AcDbLine
 10
199.9687401024073
 20
37.97355033255911
 30
0.0
 11
209.396692224451
 21
37.97355033255911
 31
0.0
  0
LINE
  5
101
330
1F
100
AcDbEntity
  8
3-2
  6
Continuous
 62
    92
370
     5
100
AcDbLine
 10
204.6827161634292
 20
33.25957427153725
 30
0.0
 11
204.6827161634292
 21
42.68752639358127
 31
0.0
  0
LINE
  5
102
330
1F
100
AcDbEntity
  8
3-2
  6
Continuous
 62
    92
370
     5
100
AcDbLine
 10
192.897652290963
 20
30.90246252111484
 30
0.0
 11
202.3256044130068
 21
30.90246252111484
 31
0.0
  0
LINE
  5
103
330
1F
100
AcDbEntity
  8
3-2
  6
Continuous
 62
    92
370
     5
100
AcDbLine
 10
197.6116283519849
 20
26.18848646009297
 30
0.0
 11
197.6116283519849
 21
35.61643858213699
 31
0.0
  0
LINE
  5
104
330
1F
100
AcDbEntity
  8
3-2
  6
Continuous
 62
    92
370
     5
100
AcDbLine
 10
185.8265644795188
 20
23.83137470967057
 30
0.0
 11
195.2545166015625
 21
23.83137470967057
 31
0.0
  0
LINE
  5
105
330
1F
100
AcDbEntity
  8
3-2
  6
Continuous
 62
    92
370
     5
100
AcDbLine
 10
190.5405405405406
 20
19.1173986486487
 30
0.0
 11
190.5405405405406
 21
28.54535077069272
 31
0.0
  0
LINE
  5
106
330
1F
100
AcDbEntity
  8
3-2
  6
Continuous
 62
    92
370
     5
100
AcDbLine
 10
183.4694527290964
 20
19.21835409628386
 30
0.0
 11
183.4694527290964
 21
21.47451039907111
 31
0.0
  0
LINE
  5
107
330
1F
100
AcDbEntity
  8
3-2
  6
Continuous
 62
    92
370
     5
100
AcDbLine
 10
171.8323578705659
 20
30.90246252111484
 30
0.0
 11
174.0415006070526
 21
30.90246252111484
 31
0.0
  0
LINE
  5
108
330
1F
100
AcDbEntity
  8
3-2
  6
Continuous
 62
    92
370
     5
100
AcDbLine
 10
171.8323578705659
 20
45.04463814400339
 30
0.0
 11
174.0415006070526
 21
45.04463814400339
 31
0.0
  0
LINE
  5
109
330
1F
100
AcDbEntity
  8
3-2
  6
Continuous
 62
    92
370
     5
100
AcDbLine
 10
173.3120480099242
 20
48.13095505173152
 30
0.0
 11
200.7273905986065
 21
20.7153650232263
 31
0.0
  0
LINE
  5
10A
330
1F
100
AcDbEntity
  8
3-2
  6
Continuous
 62
    92
370
     5
100
AcDbLine
 10
176.3983649176521
 20
47.40150245460313
 30
0.0
 11
176.3983649176521
 21
52.115478515625
 31
0.0
  0
LINE
  5
10B
330
1F
100
AcDbEntity
  8
3-2
  6
Continuous
 62
    92
370
     5
100
AcDbLine
 10
176.3986123574747
 20
52.11572595544766
 30
0.0
 11
181.1123409786742
 21
52.11572595544766
 31
0.0
  0
LINE
  5
10C
330
1F
100
AcDbEntity
  8
3-2
  6
Continuous
 62
    92
370
     5
100
AcDbLine
 10
183.4694527290964
 20
54.4725902660474
 30
0.0
 11
183.4694527290964
 21
56.68173300253386
 31
0.0
  0
LINE
  5
10D
330
1F
100
AcDbEntity
  8
3-2
  6
Continuous
 62
    92
370
     5
100
AcDbLine
 10
170.5830342060813
 20
39.22881255278725
 30
0.0
 11
189.2882475981841
 21
57.93427338471304
 31
0.0
  0
LINE
  5
10E
330
1F
100
AcDbEntity
  8
3-2
  6
Continuous
 62
    92
370
     5
100
AcDbLine
 10
197.6116283519849
 20
54.4725902660474
 30
0.0
 11
197.6116283519849
 21
56.68173300253386
 31
0.0
  0
LINE
  5
10F
330
1F
100
AcDbEntity
  8
3-2
  6
Continuous
 62
    92
370
     5
100
AcDbLine
 10
173.2947272223396
 20
27.79857738597968
 30
0.0
 11
200.6981926995357
 21
55.20204286317579
 31
0.0
  0
LINE
  5
110
330
1F
100
AcDbEntity
  8
3-2
  6
Continuous
 62
    92
370
     5
100
AcDbLine
 10
199.9687401024073
 20
52.11572595544766
 30
0.0
 11
204.6827161634292
 21
52.11572595544766
 31
0.0
  0
LINE
  5
111
330
1F
100
AcDbEntity
  8
3-2
  6
Continuous
 62
    92
370
     5
100
AcDbLine
 10
204.6827161634292
 20
47.40150245460313
 30
0.0
 11
204.6827161634292
 21
52.115478515625
 31
0.0
  0
LINE
  5
112
330
1F
100
AcDbEntity
  8
3-2
  6
Continuous
 62
    92
370
     5
100
AcDbLine
 10
207.0395804740289
 20
45.04463814400339
 30
0.0
 11
209.2487232105154
 21
45.04463814400339
 31
0.0
  0
LINE
  5
113
330
1F
100
AcDbEntity
  8
3-2
  6
Continuous
 62
    92
370
     5
100
AcDbLine
 10
191.7928334828972
 20
57.93427338471304
 30
0.0
 11
210.5012635926943
 21
39.22584327491563
 31
0.0
  0
LINE
  5
114
330
1F
100
AcDbEntity
  8
3-2
  6
Continuous
 62
    92
370
     5
100
AcDbLine
 10
180.3536904824747
 20
20.7153650232263
 30
0.0
 11
207.76928051098
 21
48.13095505173152
 31
0.0
  0
LINE
  5
115
330
1F
100
AcDbEntity
  8
3-2
  6
Continuous
 62
    92
370
     5
100
AcDbLine
 10
207.0395804740289
 20
30.90246252111484
 30
0.0
 11
209.248970650338
 21
30.90246252111484
 31
0.0
  0
LINE
  5
116
330
1F
100
AcDbEntity
  8
3-2
  6
Continuous
 62
    92
370
     5
100
AcDbLine
 10
180.3828883815459
 20
55.20204286317579
 30
0.0
 11
207.7690330711573
 21
27.81589817356434
 31
0.0
  0
LINE
  5
117
330
1F
100
AcDbEntity
  8
3-2
  6
Continuous
 62
    92
370
     5
100
AcDbLine
 10
204.6827161634292
 20
23.83137470967057
 30
0.0
 11
204.6827161634292
 21
28.54559821051538
 31
0.0
  0
LINE
  5
118
330
1F
100
AcDbEntity
  8
3-2
  6
Continuous
 62
    92
370
     5
100
AcDbLine
 10
199.9687401024073
 20
23.83137470967057
 30
0.0
 11
204.6829636032518
 21
23.83137470967057
 31
0.0
  0
LINE
  5
119
330
1F
100
AcDbEntity
  8
3-2
  6
Continuous
 62
    92
370
     5
100
AcDbLine
 10
197.6116283519849
 20
19.26512022276199
 30
0.0
 11
197.6116283519849
 21
21.47451039907111
 31
0.0
  0
LINE
  5
11A
330
1F
100
AcDbEntity
  8
3-2
  6
Continuous
 62
    92
370
     5
100
AcDbLine
 10
191.7930809227198
 20
18.01282728040547
 30
0.0
 11
210.5012635926943
 21
36.72100995038022
 31
0.0
  0
LINE
  5
11B
330
1F
100
AcDbEntity
  8
3-2
  6
Continuous
 62
    92
370
     5
100
AcDbLine
 10
170.579817488387
 20
36.72100995038022
 30
0.0
 11
189.2882475981841
 21
18.01282728040547
 31
0.0
  0
LINE
  5
11C
330
1F
100
AcDbEntity
  8
3-2
  6
Continuous
 62
    92
370
     5
100
AcDbLine
 10
176.3983649176521
 20
23.83137470967057
 30
0.0
 11
181.1123409786742
 21
23.83137470967057
 31
0.0
  0
LINE
  5
11D
330
1F
100
AcDbEntity
  8
3-2
  6
Continuous
 62
    92
370
     5
100
AcDbLine
 10
176.3983649176521
 20
23.83137470967057
 30
0.0
 11
176.3983649176521
 21
28.54559821051538
 31
0.0
  0
LINE
  5
11E
330
1F
100
AcDbEntity
  8
3-2
  6
JWW_CENTER1
 62
    92
370
     5
100
AcDbLine
 10
139.0099602776607
 20
37.97355033255911
 30
0.0
 11
153.8739178631758
 21
37.97355033255911
 31
0.0
  0
LINE
  5
11F
330
1F
100
AcDbEntity
  8
3-2
  6
JWW_CENTER1
 62
    92
370
     5
100
AcDbLine
 10
227.2074106577281
 20
37.97355033255911
 30
0.0
 11
241.7066419446792
 21
37.97355033255911
 31
0.0
  0
LINE
  5
120
330
1F
100
AcDbEntity
  8
3-2
  6
JWW_CENTER1
 62
    92
370
     5
100
AcDbLine
 10
190.5405405405406
 20
1.306680215371614
 30
0.0
 11
190.5405405405406
 21
-13.55059649493228
 31
0.0
  0
LINE
  5
121
330
1F
100
AcDbEntity
  8
3-2
  6
JWW_CENTER1
 62
    92
370
     5
100
AcDbLine
 10
190.5405405405406
 20
91.5343743401607
 30
0.0
 11
190.5405405405406
 21
74.64017300992396
 31
0.0
  0
LINE
  5
122
330
1F
100
AcDbEntity
  8
3-2
  6
Continuous
 62
    92
370
     5
100
AcDbLine
 10
385.8267294394005
 20
52.115478515625
 30
0.0
 11
395.2546815614443
 21
52.115478515625
 31
0.0
  0
LINE
  5
123
330
1F
100
AcDbEntity
  8
3-2
  6
Continuous
 62
    92
370
     5
100
AcDbLine
 10
390.5407055004224
 20
47.40150245460313
 30
0.0
 11
390.5407055004224
 21
56.82970201646981
 31
0.0
  0
LINE
  5
124
330
1F
100
AcDbEntity
  8
3-2
  6
Continuous
 62
    92
370
     5
100
AcDbLine
 10
378.7556416279563
 20
45.04463814400339
 30
0.0
 11
388.1838411898227
 21
45.04463814400339
 31
0.0
  0
LINE
  5
125
330
1F
100
AcDbEntity
  8
3-2
  6
Continuous
 62
    92
370
     5
100
AcDbLine
 10
383.4696176889781
 20
40.33066208298152
 30
0.0
 11
383.4696176889781
 21
49.75861420502554
 31
0.0
  0
LINE
  5
126
330
1F
100
AcDbEntity
  8
3-2
  6
Continuous
 62
    92
370
     5
100
AcDbLine
 10
392.8978172508448
 20
45.04463814400339
 30
0.0
 11
402.3257693728885
 21
45.04463814400339
 31
0.0
  0
LINE
  5
127
330
1F
100
AcDbEntity
  8
3-2
  6
Continuous
 62
    92
370
     5
100
AcDbLine
 10
397.6117933118667
 20
40.33066208298152
 30
0.0
 11
397.6117933118667
 21
49.75861420502554
 31
0.0
  0
LINE
  5
128
330
1F
100
AcDbEntity
  8
3-2
  6
Continuous
 62
    92
370
     5
100
AcDbLine
 10
385.8267294394005
 20
37.97355033255911
 30
0.0
 11
395.2546815614443
 21
37.97355033255911
 31
0.0
  0
LINE
  5
129
330
1F
100
AcDbEntity
  8
3-2
  6
Continuous
 62
    92
370
     5
100
AcDbLine
 10
390.5407055004224
 20
33.25957427153725
 30
0.0
 11
390.5407055004224
 21
42.68752639358127
 31
0.0
  0
LINE
  5
12A
330
1F
100
AcDbEntity
  8
3-2
  6
Continuous
 62
    92
370
     5
100
AcDbLine
 10
371.684553816512
 20
37.97355033255911
 30
0.0
 11
381.112505938556
 21
37.97355033255911
 31
0.0
  0
LINE
  5
12B
330
1F
100
AcDbEntity
  8
3-2
  6
Continuous
 62
    92
370
     5
100
AcDbLine
 10
376.3985298775339
 20
33.25957427153725
 30
0.0
 11
376.3985298775339
 21
42.68752639358127
 31
0.0
  0
LINE
  5
12C
330
1F
100
AcDbEntity
  8
3-2
  6
Continuous
 62
    92
370
     5
100
AcDbLine
 10
378.7556416279563
 20
30.90246252111484
 30
0.0
 11
388.1838411898227
 21
30.90246252111484
 31
0.0
  0
LINE
  5
12D
330
1F
100
AcDbEntity
  8
3-2
  6
Continuous
 62
    92
370
     5
100
AcDbLine
 10
383.4696176889781
 20
26.18848646009297
 30
0.0
 11
383.4696176889781
 21
35.61643858213699
 31
0.0
  0
LINE
  5
12E
330
1F
100
AcDbEntity
  8
3-2
  6
Continuous
 62
    92
370
     5
100
AcDbLine
 10
399.9689050622891
 20
37.97355033255911
 30
0.0
 11
409.3968571843328
 21
37.97355033255911
 31
0.0
  0
LINE
  5
12F
330
1F
100
AcDbEntity
  8
3-2
  6
Continuous
 62
    92
370
     5
100
AcDbLine
 10
404.6828811233109
 20
33.25957427153725
 30
0.0
 11
404.6828811233109
 21
42.68752639358127
 31
0.0
  0
LINE
  5
130
330
1F
100
AcDbEntity
  8
3-2
  6
Continuous
 62
    92
370
     5
100
AcDbLine
 10
392.8978172508448
 20
30.90246252111484
 30
0.0
 11
402.3257693728885
 21
30.90246252111484
 31
0.0
  0
LINE
  5
131
330
1F
100
AcDbEntity
  8
3-2
  6
Continuous
 62
    92
370
     5
100
AcDbLine
 10
397.6117933118667
 20
26.18848646009297
 30
0.0
 11
397.6117933118667
 21
35.61643858213699
 31
0.0
  0
LINE
  5
132
330
1F
100
AcDbEntity
  8
3-2
  6
Continuous
 62
    92
370
     5
100
AcDbLine
 10
385.8267294394005
 20
23.83137470967057
 30
0.0
 11
395.2546815614443
 21
23.83137470967057
 31
0.0
  0
LINE
  5
133
330
1F
100
AcDbEntity
  8
3-2
  6
Continuous
 62
    92
370
     5
100
AcDbLine
 10
390.5407055004224
 20
19.1173986486487
 30
0.0
 11
390.5407055004224
 21
28.54535077069272
 31
0.0
  0
LINE
  5
134
330
1F
100
AcDbEntity
  8
3-2
  6
Continuous
 62
    92
370
     5
100
AcDbLine
 10
383.4696176889781
 20
19.21835409628386
 30
0.0
 11
383.4696176889781
 21
21.47451039907111
 31
0.0
  0
LINE
  5
135
330
1F
100
AcDbEntity
  8
3-2
  6
Continuous
 62
    92
370
     5
100
AcDbLine
 10
371.832275390625
 20
30.90246252111484
 30
0.0
 11
374.0416655669344
 21
30.90246252111484
 31
0.0
  0
LINE
  5
136
330
1F
100
AcDbEntity
  8
3-2
  6
Continuous
 62
    92
370
     5
100
AcDbLine
 10
371.8325228304477
 20
45.04463814400339
 30
0.0
 11
374.0416655669344
 21
45.04463814400339
 31
0.0
  0
LINE
  5
137
330
1F
100
AcDbEntity
  8
3-2
  6
Continuous
 62
    92
370
     5
100
AcDbLine
 10
373.3119655299834
 20
48.13095505173152
 30
0.0
 11
400.7275555584883
 21
20.7153650232263
 31
0.0
  0
LINE
  5
138
330
1F
100
AcDbEntity
  8
3-2
  6
Continuous
 62
    92
370
     5
100
AcDbLine
 10
376.3985298775339
 20
47.40150245460313
 30
0.0
 11
376.3985298775339
 21
52.115478515625
 31
0.0
  0
LINE
  5
139
330
1F
100
AcDbEntity
  8
3-2
  6
Continuous
 62
    92
370
     5
100
AcDbLine
 10
376.3987773173565
 20
52.11572595544766
 30
0.0
 11
381.112505938556
 21
52.11572595544766
 31
0.0
  0
LINE
  5
13A
330
1F
100
AcDbEntity
  8
3-2
  6
Continuous
 62
    92
370
     5
100
AcDbLine
 10
383.4696176889781
 20
54.4725902660474
 30
0.0
 11
383.4696176889781
 21
56.68173300253386
 31
0.0
  0
LINE
  5
13B
330
1F
100
AcDbEntity
  8
3-2
  6
Continuous
 62
    92
370
     5
100
AcDbLine
 10
370.583199165963
 20
39.22881255278725
 30
0.0
 11
389.2884125580659
 21
57.93427338471304
 31
0.0
  0
LINE
  5
13C
330
1F
100
AcDbEntity
  8
3-2
  6
Continuous
 62
    92
370
     5
100
AcDbLine
 10
397.6117933118667
 20
54.4725902660474
 30
0.0
 11
397.6117933118667
 21
56.68173300253386
 31
0.0
  0
LINE
  5
13D
330
1F
100
AcDbEntity
  8
3-2
  6
Continuous
 62
    92
370
     5
100
AcDbLine
 10
373.2948921822214
 20
27.79857738597968
 30
0.0
 11
400.6983576594175
 21
55.20204286317579
 31
0.0
  0
LINE
  5
13E
330
1F
100
AcDbEntity
  8
3-2
  6
Continuous
 62
    92
370
     5
100
AcDbLine
 10
399.9689050622891
 20
52.11572595544766
 30
0.0
 11
404.6828811233109
 21
52.11572595544766
 31
0.0
  0
LINE
  5
13F
330
1F
100
AcDbEntity
  8
3-2
  6
Continuous
 62
    92
370
     5
100
AcDbLine
 10
404.6828811233109
 20
47.40150245460313
 30
0.0
 11
404.6828811233109
 21
52.115478515625
 31
0.0
  0
LINE
  5
140
330
1F
100
AcDbEntity
  8
3-2
  6
Continuous
 62
    92
370
     5
100
AcDbLine
 10
407.0397454339107
 20
45.04463814400339
 30
0.0
 11
409.2488881703972
 21
45.04463814400339
 31
0.0
  0
LINE
  5
141
330
1F
100
AcDbEntity
  8
3-2
  6
Continuous
 62
    92
370
     5
100
AcDbLine
 10
391.7929984427789
 20
57.93427338471304
 30
0.0
 11
410.501428552576
 21
39.22584327491563
 31
0.0
  0
LINE
  5
142
330
1F
100
AcDbEntity
  8
3-2
  6
Continuous
 62
    92
370
     5
100
AcDbLine
 10
380.3538554423565
 20
20.7153650232263
 30
0.0
 11
407.7694454708617
 21
48.13095505173152
 31
0.0
  0
LINE
  5
143
330
1F
100
AcDbEntity
  8
3-2
  6
Continuous
 62
    92
370
     5
100
AcDbLine
 10
407.0397454339107
 20
30.90246252111484
 30
0.0
 11
409.2491356102198
 21
30.90246252111484
 31
0.0
  0
LINE
  5
144
330
1F
100
AcDbEntity
  8
3-2
  6
Continuous
 62
    92
370
     5
100
AcDbLine
 10
380.3830533414276
 20
55.20204286317579
 30
0.0
 11
407.7691980310391
 21
27.81589817356434
 31
0.0
  0
LINE
  5
145
330
1F
100
AcDbEntity
  8
3-2
  6
Continuous
 62
    92
370
     5
100
AcDbLine
 10
404.6828811233109
 20
23.83137470967057
 30
0.0
 11
404.6828811233109
 21
28.54559821051538
 31
0.0
  0
LINE
  5
146
330
1F
100
AcDbEntity
  8
3-2
  6
Continuous
 62
    92
370
     5
100
AcDbLine
 10
399.9689050622891
 20
23.83137470967057
 30
0.0
 11
404.6831285631336
 21
23.83137470967057
 31
0.0
  0
LINE
  5
147
330
1F
100
AcDbEntity
  8
3-2
  6
Continuous
 62
    92
370
     5
100
AcDbLine
 10
397.6117933118667
 20
19.26512022276199
 30
0.0
 11
397.6117933118667
 21
21.47451039907111
 31
0.0
  0
LINE
  5
148
330
1F
100
AcDbEntity
  8
3-2
  6
Continuous
 62
    92
370
     5
100
AcDbLine
 10
391.7932458826016
 20
18.01282728040547
 30
0.0
 11
410.501428552576
 21
36.72100995038022
 31
0.0
  0
LINE
  5
149
330
1F
100
AcDbEntity
  8
3-2
  6
Continuous
 62
    92
370
     5
100
AcDbLine
 10
370.5799824482688
 20
36.72100995038022
 30
0.0
 11
389.2884125580659
 21
18.01282728040547
 31
0.0
  0
LINE
  5
14A
330
1F
100
AcDbEntity
  8
3-2
  6
Continuous
 62
    92
370
     5
100
AcDbLine
 10
376.3985298775339
 20
23.83137470967057
 30
0.0
 11
381.112505938556
 21
23.83137470967057
 31
0.0
  0
LINE
  5
14B
330
1F
100
AcDbEntity
  8
3-2
  6
Continuous
 62
    92
370
     5
100
AcDbLine
 10
376.3985298775339
 20
23.83137470967057
 30
0.0
 11
376.3985298775339
 21
28.54559821051538
 31
0.0
  0
LINE
  5
14C
330
1F
100
AcDbEntity
  8
3-2
  6
JWW_CENTER1
 62
    92
370
     5
100
AcDbLine
 10
339.0101252375425
 20
37.97355033255911
 30
0.0
 11
353.8740828230576
 21
37.97355033255911
 31
0.0
  0
LINE
  5
14D
330
1F
100
AcDbEntity
  8
3-2
  6
JWW_CENTER1
 62
    92
370
     5
100
AcDbLine
 10
427.2075756176099
 20
37.97355033255911
 30
0.0
 11
441.7068069045609
 21
37.97355033255911
 31
0.0
  0
LINE
  5
14E
330
1F
100
AcDbEntity
  8
3-2
  6
JWW_CENTER1
 62
    92
370
     5
100
AcDbLine
 10
390.5407055004224
 20
1.306680215371614
 30
0.0
 11
390.5407055004224
 21
-13.55059649493228
 31
0.0
  0
LINE
  5
14F
330
1F
100
AcDbEntity
  8
3-2
  6
JWW_CENTER1
 62
    92
370
     5
100
AcDbLine
 10
390.5407055004224
 20
91.5343743401607
 30
0.0
 11
390.5407055004224
 21
74.64017300992396
 31
0.0
  0
LINE
  5
150
330
1F
100
AcDbEntity
  8
3-2
  6
Continuous
 62
    92
370
     5
100
AcDbLine
 10
585.8266469594594
 20
52.115478515625
 30
0.0
 11
595.2545990815037
 21
52.115478515625
 31
0.0
  0
LINE
  5
151
330
1F
100
AcDbEntity
  8
3-2
  6
Continuous
 62
    92
370
     5
100
AcDbLine
 10
590.5406230204818
 20
47.40150245460313
 30
0.0
 11
590.5406230204818
 21
56.82970201646981
 31
0.0
  0
LINE
  5
152
330
1F
100
AcDbEntity
  8
3-2
  6
Continuous
 62
    92
370
     5
100
AcDbLine
 10
578.7555591480151
 20
45.04463814400339
 30
0.0
 11
588.1837587098818
 21
45.04463814400339
 31
0.0
  0
LINE
  5
153
330
1F
100
AcDbEntity
  8
3-2
  6
Continuous
 62
    92
370
     5
100
AcDbLine
 10
583.4695352090375
 20
40.33066208298152
 30
0.0
 11
583.4695352090375
 21
49.75861420502554
 31
0.0
  0
LINE
  5
154
330
1F
100
AcDbEntity
  8
3-2
  6
Continuous
 62
    92
370
     5
100
AcDbLine
 10
592.8977347709036
 20
45.04463814400339
 30
0.0
 11
602.3256868929479
 21
45.04463814400339
 31
0.0
  0
LINE
  5
155
330
1F
100
AcDbEntity
  8
3-2
  6
Continuous
 62
    92
370
     5
100
AcDbLine
 10
597.6117108319261
 20
40.33066208298152
 30
0.0
 11
597.6117108319261
 21
49.75861420502554
 31
0.0
  0
LINE
  5
156
330
1F
100
AcDbEntity
  8
3-2
  6
Continuous
 62
    92
370
     5
100
AcDbLine
 10
585.8266469594594
 20
37.97355033255911
 30
0.0
 11
595.2545990815037
 21
37.97355033255911
 31
0.0
  0
LINE
  5
157
330
1F
100
AcDbEntity
  8
3-2
  6
Continuous
 62
    92
370
     5
100
AcDbLine
 10
590.5406230204818
 20
33.25957427153725
 30
0.0
 11
590.5406230204818
 21
42.68752639358127
 31
0.0
  0
LINE
  5
158
330
1F
100
AcDbEntity
  8
3-2
  6
Continuous
 62
    92
370
     5
100
AcDbLine
 10
571.6844713365708
 20
37.97355033255911
 30
0.0
 11
581.1124234586151
 21
37.97355033255911
 31
0.0
  0
LINE
  5
159
330
1F
100
AcDbEntity
  8
3-2
  6
Continuous
 62
    92
370
     5
100
AcDbLine
 10
576.3984473975933
 20
33.25957427153725
 30
0.0
 11
576.3984473975933
 21
42.68752639358127
 31
0.0
  0
LINE
  5
15A
330
1F
100
AcDbEntity
  8
3-2
  6
Continuous
 62
    92
370
     5
100
AcDbLine
 10
578.7555591480151
 20
30.90246252111484
 30
0.0
 11
588.1837587098818
 21
30.90246252111484
 31
0.0
  0
LINE
  5
15B
330
1F
100
AcDbEntity
  8
3-2
  6
Continuous
 62
    92
370
     5
100
AcDbLine
 10
583.4695352090375
 20
26.18848646009297
 30
0.0
 11
583.4695352090375
 21
35.61643858213699
 31
0.0
  0
LINE
  5
15C
330
1F
100
AcDbEntity
  8
3-2
  6
Continuous
 62
    92
370
     5
100
AcDbLine
 10
599.9688225823479
 20
37.97355033255911
 30
0.0
 11
609.3967747043922
 21
37.97355033255911
 31
0.0
  0
LINE
  5
15D
330
1F
100
AcDbEntity
  8
3-2
  6
Continuous
 62
    92
370
     5
100
AcDbLine
 10
604.6827986433703
 20
33.25957427153725
 30
0.0
 11
604.6827986433703
 21
42.68752639358127
 31
0.0
  0
LINE
  5
15E
330
1F
100
AcDbEntity
  8
3-2
  6
Continuous
 62
    92
370
     5
100
AcDbLine
 10
592.8977347709036
 20
30.90246252111484
 30
0.0
 11
602.3256868929479
 21
30.90246252111484
 31
0.0
  0
LINE
  5
15F
330
1F
100
AcDbEntity
  8
3-2
  6
Continuous
 62
    92
370
     5
100
AcDbLine
 10
597.6117108319261
 20
26.18848646009297
 30
0.0
 11
597.6117108319261
 21
35.61643858213699
 31
0.0
  0
LINE
  5
160
330
1F
100
AcDbEntity
  8
3-2
  6
Continuous
 62
    92
370
     5
100
AcDbLine
 10
585.8266469594594
 20
23.83137470967057
 30
0.0
 11
595.2545990815037
 21
23.83137470967057
 31
0.0
  0
LINE
  5
161
330
1F
100
AcDbEntity
  8
3-2
  6
Continuous
 62
    92
370
     5
100
AcDbLine
 10
590.5406230204818
 20
19.1173986486487
 30
0.0
 11
590.5406230204818
 21
28.54535077069272
 31
0.0
  0
LINE
  5
162
330
1F
100
AcDbEntity
  8
3-2
  6
Continuous
 62
    92
370
     5
100
AcDbLine
 10
583.4695352090375
 20
19.21835409628386
 30
0.0
 11
583.4695352090375
 21
21.47451039907111
 31
0.0
  0
LINE
  5
163
330
1F
100
AcDbEntity
  8
3-2
  6
Continuous
 62
    92
370
     5
100
AcDbLine
 10
571.8324403505068
 20
30.90246252111484
 30
0.0
 11
574.0415830869932
 21
30.90246252111484
 31
0.0
  0
LINE
  5
164
330
1F
100
AcDbEntity
  8
3-2
  6
Continuous
 62
    92
370
     5
100
AcDbLine
 10
571.8324403505068
 20
45.04463814400339
 30
0.0
 11
574.0415830869932
 21
45.04463814400339
 31
0.0
  0
LINE
  5
165
330
1F
100
AcDbEntity
  8
3-2
  6
Continuous
 62
    92
370
     5
100
AcDbLine
 10
573.3121304898651
 20
48.13095505173152
 30
0.0
 11
600.7274730785474
 21
20.7153650232263
 31
0.0
  0
LINE
  5
166
330
1F
100
AcDbEntity
  8
3-2
  6
Continuous
 62
    92
370
     5
100
AcDbLine
 10
576.3984473975933
 20
47.40150245460313
 30
0.0
 11
576.3984473975933
 21
52.115478515625
 31
0.0
  0
LINE
  5
167
330
1F
100
AcDbEntity
  8
3-2
  6
Continuous
 62
    92
370
     5
100
AcDbLine
 10
576.3986948374156
 20
52.11572595544766
 30
0.0
 11
581.1124234586151
 21
52.11572595544766
 31
0.0
  0
LINE
  5
168
330
1F
100
AcDbEntity
  8
3-2
  6
Continuous
 62
    92
370
     5
100
AcDbLine
 10
583.4695352090375
 20
54.4725902660474
 30
0.0
 11
583.4695352090375
 21
56.68173300253386
 31
0.0
  0
LINE
  5
169
330
1F
100
AcDbEntity
  8
3-2
  6
Continuous
 62
    92
370
     5
100
AcDbLine
 10
570.5831166860219
 20
39.22881255278725
 30
0.0
 11
589.288330078125
 21
57.93427338471304
 31
0.0
  0
LINE
  5
16A
330
1F
100
AcDbEntity
  8
3-2
  6
Continuous
 62
    92
370
     5
100
AcDbLine
 10
597.6117108319261
 20
54.4725902660474
 30
0.0
 11
597.6117108319261
 21
56.68173300253386
 31
0.0
  0
LINE
  5
16B
330
1F
100
AcDbEntity
  8
3-2
  6
Continuous
 62
    92
370
     5
100
AcDbLine
 10
573.2948097022808
 20
27.79857738597968
 30
0.0
 11
600.6982751794766
 21
55.20204286317579
 31
0.0
  0
LINE
  5
16C
330
1F
100
AcDbEntity
  8
3-2
  6
Continuous
 62
    92
370
     5
100
AcDbLine
 10
599.9688225823479
 20
52.11572595544766
 30
0.0
 11
604.6827986433703
 21
52.11572595544766
 31
0.0
  0
LINE
  5
16D
330
1F
100
AcDbEntity
  8
3-2
  6
Continuous
 62
    92
370
     5
100
AcDbLine
 10
604.6827986433703
 20
47.40150245460313
 30
0.0
 11
604.6827986433703
 21
52.115478515625
 31
0.0
  0
LINE
  5
16E
330
1F
100
AcDbEntity
  8
3-2
  6
Continuous
 62
    92
370
     5
100
AcDbLine
 10
607.0396629539698
 20
45.04463814400339
 30
0.0
 11
609.2488056904563
 21
45.04463814400339
 31
0.0
  0
LINE
  5
16F
330
1F
100
AcDbEntity
  8
3-2
  6
Continuous
 62
    92
370
     5
100
AcDbLine
 10
591.792915962838
 20
57.93427338471304
 30
0.0
 11
610.5013460726354
 21
39.22584327491563
 31
0.0
  0
LINE
  5
170
330
1F
100
AcDbEntity
  8
3-2
  6
Continuous
 62
    92
370
     5
100
AcDbLine
 10
580.3537729624156
 20
20.7153650232263
 30
0.0
 11
607.7693629909209
 21
48.13095505173152
 31
0.0
  0
LINE
  5
171
330
1F
100
AcDbEntity
  8
3-2
  6
Continuous
 62
    92
370
     5
100
AcDbLine
 10
607.0396629539698
 20
30.90246252111484
 30
0.0
 11
609.2490531302786
 21
30.90246252111484
 31
0.0
  0
LINE
  5
172
330
1F
100
AcDbEntity
  8
3-2
  6
Continuous
 62
    92
370
     5
100
AcDbLine
 10
580.3829708614865
 20
55.20204286317579
 30
0.0
 11
607.7691155510979
 21
27.81589817356434
 31
0.0
  0
LINE
  5
173
330
1F
100
AcDbEntity
  8
3-2
  6
Continuous
 62
    92
370
     5
100
AcDbLine
 10
604.6827986433703
 20
23.83137470967057
 30
0.0
 11
604.6827986433703
 21
28.54559821051538
 31
0.0
  0
LINE
  5
174
330
1F
100
AcDbEntity
  8
3-2
  6
Continuous
 62
    92
370
     5
100
AcDbLine
 10
599.9688225823479
 20
23.83137470967057
 30
0.0
 11
604.6830460831927
 21
23.83137470967057
 31
0.0
  0
LINE
  5
175
330
1F
100
AcDbEntity
  8
3-2
  6
Continuous
 62
    92
370
     5
100
AcDbLine
 10
597.6117108319261
 20
19.26512022276199
 30
0.0
 11
597.6117108319261
 21
21.47451039907111
 31
0.0
  0
LINE
  5
176
330
1F
100
AcDbEntity
  8
3-2
  6
Continuous
 62
    92
370
     5
100
AcDbLine
 10
591.7931634026604
 20
18.01282728040547
 30
0.0
 11
610.5013460726354
 21
36.72100995038022
 31
0.0
  0
LINE
  5
177
330
1F
100
AcDbEntity
  8
3-2
  6
Continuous
 62
    92
370
     5
100
AcDbLine
 10
570.5798999683276
 20
36.72100995038022
 30
0.0
 11
589.288330078125
 21
18.01282728040547
 31
0.0
  0
LINE
  5
178
330
1F
100
AcDbEntity
  8
3-2
  6
Continuous
 62
    92
370
     5
100
AcDbLine
 10
576.3984473975933
 20
23.83137470967057
 30
0.0
 11
581.1124234586151
 21
23.83137470967057
 31
0.0
  0
LINE
  5
179
330
1F
100
AcDbEntity
  8
3-2
  6
Continuous
 62
    92
370
     5
100
AcDbLine
 10
576.3984473975933
 20
23.83137470967057
 30
0.0
 11
576.3984473975933
 21
28.54559821051538
 31
0.0
  0
LINE
  5
17A
330
1F
100
AcDbEntity
  8
3-2
  6
JWW_CENTER1
 62
    92
370
     5
100
AcDbLine
 10
539.0100427576016
 20
37.97355033255911
 30
0.0
 11
553.8740003431167
 21
37.97355033255911
 31
0.0
  0
LINE
  5
17B
330
1F
100
AcDbEntity
  8
3-2
  6
JWW_CENTER1
 62
    92
370
     5
100
AcDbLine
 10
627.2074931376693
 20
37.97355033255911
 30
0.0
 11
641.7067244246203
 21
37.97355033255911
 31
0.0
  0
LINE
  5
17C
330
1F
100
AcDbEntity
  8
3-2
  6
JWW_CENTER1
 62
    92
370
     5
100
AcDbLine
 10
590.5406230204818
 20
1.306680215371614
 30
0.0
 11
590.5406230204818
 21
-13.55059649493228
 31
0.0
  0
LINE
  5
17D
330
1F
100
AcDbEntity
  8
3-2
  6
JWW_CENTER1
 62
    92
370
     5
100
AcDbLine
 10
590.5406230204818
 20
91.5343743401607
 30
0.0
 11
590.5406230204818
 21
74.64017300992396
 31
0.0
  0
LINE
  5
17E
330
1F
100
AcDbEntity
  8
3-2
  6
Continuous
 62
    92
370
     5
100
AcDbLine
 10
785.8265644795188
 20
52.115478515625
 30
0.0
 11
795.2545166015625
 21
52.115478515625
 31
0.0
  0
LINE
  5
17F
330
1F
100
AcDbEntity
  8
3-2
  6
Continuous
 62
    92
370
     5
100
AcDbLine
 10
790.5405405405406
 20
47.40150245460313
 30
0.0
 11
790.5405405405406
 21
56.82970201646981
 31
0.0
  0
LINE
  5
180
330
1F
100
AcDbEntity
  8
3-2
  6
Continuous
 62
    92
370
     5
100
AcDbLine
 10
778.7554766680745
 20
45.04463814400339
 30
0.0
 11
788.1836762299412
 21
45.04463814400339
 31
0.0
  0
LINE
  5
181
330
1F
100
AcDbEntity
  8
3-2
  6
Continuous
 62
    92
370
     5
100
AcDbLine
 10
783.4694527290964
 20
40.33066208298152
 30
0.0
 11
783.4694527290964
 21
49.75861420502554
 31
0.0
  0
LINE
  5
182
330
1F
100
AcDbEntity
  8
3-2
  6
Continuous
 62
    92
370
     5
100
AcDbLine
 10
792.897652290963
 20
45.04463814400339
 30
0.0
 11
802.3256044130068
 21
45.04463814400339
 31
0.0
  0
LINE
  5
183
330
1F
100
AcDbEntity
  8
3-2
  6
Continuous
 62
    92
370
     5
100
AcDbLine
 10
797.6116283519849
 20
40.33066208298152
 30
0.0
 11
797.6116283519849
 21
49.75861420502554
 31
0.0
  0
LINE
  5
184
330
1F
100
AcDbEntity
  8
3-2
  6
Continuous
 62
    92
370
     5
100
AcDbLine
 10
785.8265644795188
 20
37.97355033255911
 30
0.0
 11
795.2545166015625
 21
37.97355033255911
 31
0.0
  0
LINE
  5
185
330
1F
100
AcDbEntity
  8
3-2
  6
Continuous
 62
    92
370
     5
100
AcDbLine
 10
790.5405405405406
 20
33.25957427153725
 30
0.0
 11
790.5405405405406
 21
42.68752639358127
 31
0.0
  0
LINE
  5
186
330
1F
100
AcDbEntity
  8
3-2
  6
Continuous
 62
    92
370
     5
100
AcDbLine
 10
771.6843888566302
 20
37.97355033255911
 30
0.0
 11
781.112340978674
 21
37.97355033255911
 31
0.0
  0
LINE
  5
187
330
1F
100
AcDbEntity
  8
3-2
  6
Continuous
 62
    92
370
     5
100
AcDbLine
 10
776.3983649176521
 20
33.25957427153725
 30
0.0
 11
776.3983649176521
 21
42.68752639358127
 31
0.0
  0
LINE
  5
188
330
1F
100
AcDbEntity
  8
3-2
  6
Continuous
 62
    92
370
     5
100
AcDbLine
 10
778.7554766680745
 20
30.90246252111484
 30
0.0
 11
788.1836762299412
 21
30.90246252111484
 31
0.0
  0
LINE
  5
189
330
1F
100
AcDbEntity
  8
3-2
  6
Continuous
 62
    92
370
     5
100
AcDbLine
 10
783.4694527290964
 20
26.18848646009297
 30
0.0
 11
783.4694527290964
 21
35.61643858213699
 31
0.0
  0
LINE
  5
18A
330
1F
100
AcDbEntity
  8
3-2
  6
Continuous
 62
    92
370
     5
100
AcDbLine
 10
799.9687401024073
 20
37.97355033255911
 30
0.0
 11
809.396692224451
 21
37.97355033255911
 31
0.0
  0
LINE
  5
18B
330
1F
100
AcDbEntity
  8
3-2
  6
Continuous
 62
    92
370
     5
100
AcDbLine
 10
804.6827161634292
 20
33.25957427153725
 30
0.0
 11
804.6827161634292
 21
42.68752639358127
 31
0.0
  0
LINE
  5
18C
330
1F
100
AcDbEntity
  8
3-2
  6
Continuous
 62
    92
370
     5
100
AcDbLine
 10
792.897652290963
 20
30.90246252111484
 30
0.0
 11
802.3256044130068
 21
30.90246252111484
 31
0.0
  0
LINE
  5
18D
330
1F
100
AcDbEntity
  8
3-2
  6
Continuous
 62
    92
370
     5
100
AcDbLine
 10
797.6116283519849
 20
26.18848646009297
 30
0.0
 11
797.6116283519849
 21
35.61643858213699
 31
0.0
  0
LINE
  5
18E
330
1F
100
AcDbEntity
  8
3-2
  6
Continuous
 62
    92
370
     5
100
AcDbLine
 10
785.8265644795188
 20
23.83137470967057
 30
0.0
 11
795.2545166015625
 21
23.83137470967057
 31
0.0
  0
LINE
  5
18F
330
1F
100
AcDbEntity
  8
3-2
  6
Continuous
 62
    92
370
     5
100
AcDbLine
 10
790.5405405405406
 20
19.1173986486487
 30
0.0
 11
790.5405405405406
 21
28.54535077069272
 31
0.0
  0
LINE
  5
190
330
1F
100
AcDbEntity
  8
3-2
  6
Continuous
 62
    92
370
     5
100
AcDbLine
 10
783.4694527290964
 20
19.21835409628386
 30
0.0
 11
783.4694527290964
 21
21.47451039907111
 31
0.0
  0
LINE
  5
191
330
1F
100
AcDbEntity
  8
3-2
  6
Continuous
 62
    92
370
     5
100
AcDbLine
 10
771.8323578705662
 20
30.90246252111484
 30
0.0
 11
774.0415006070526
 21
30.90246252111484
 31
0.0
  0
LINE
  5
192
330
1F
100
AcDbEntity
  8
3-2
  6
Continuous
 62
    92
370
     5
100
AcDbLine
 10
771.8323578705662
 20
45.04463814400339
 30
0.0
 11
774.0415006070526
 21
45.04463814400339
 31
0.0
  0
LINE
  5
193
330
1F
100
AcDbEntity
  8
3-2
  6
Continuous
 62
    92
370
     5
100
AcDbLine
 10
773.312048009924
 20
48.13095505173152
 30
0.0
 11
800.7273905986068
 21
20.7153650232263
 31
0.0
  0
LINE
  5
194
330
1F
100
AcDbEntity
  8
3-2
  6
Continuous
 62
    92
370
     5
100
AcDbLine
 10
776.3983649176521
 20
47.40150245460313
 30
0.0
 11
776.3983649176521
 21
52.115478515625
 31
0.0
  0
LINE
  5
195
330
1F
100
AcDbEntity
  8
3-2
  6
Continuous
 62
    92
370
     5
100
AcDbLine
 10
776.398612357475
 20
52.11572595544766
 30
0.0
 11
781.112340978674
 21
52.11572595544766
 31
0.0
  0
LINE
  5
196
330
1F
100
AcDbEntity
  8
3-2
  6
Continuous
 62
    92
370
     5
100
AcDbLine
 10
783.4694527290964
 20
54.4725902660474
 30
0.0
 11
783.4694527290964
 21
56.68173300253386
 31
0.0
  0
LINE
  5
197
330
1F
100
AcDbEntity
  8
3-2
  6
Continuous
 62
    92
370
     5
100
AcDbLine
 10
770.5830342060813
 20
39.22881255278725
 30
0.0
 11
789.2882475981844
 21
57.93427338471304
 31
0.0
  0
LINE
  5
198
330
1F
100
AcDbEntity
  8
3-2
  6
Continuous
 62
    92
370
     5
100
AcDbLine
 10
797.6116283519849
 20
54.4725902660474
 30
0.0
 11
797.6116283519849
 21
56.68173300253386
 31
0.0
  0
LINE
  5
199
330
1F
100
AcDbEntity
  8
3-2
  6
Continuous
 62
    92
370
     5
100
AcDbLine
 10
773.2947272223396
 20
27.79857738597968
 30
0.0
 11
800.6981926995354
 21
55.20204286317579
 31
0.0
  0
LINE
  5
19A
330
1F
100
AcDbEntity
  8
3-2
  6
Continuous
 62
    92
370
     5
100
AcDbLine
 10
799.9687401024073
 20
52.11572595544766
 30
0.0
 11
804.6827161634292
 21
52.11572595544766
 31
0.0
  0
LINE
  5
19B
330
1F
100
AcDbEntity
  8
3-2
  6
Continuous
 62
    92
370
     5
100
AcDbLine
 10
804.6827161634292
 20
47.40150245460313
 30
0.0
 11
804.6827161634292
 21
52.115478515625
 31
0.0
  0
LINE
  5
19C
330
1F
100
AcDbEntity
  8
3-2
  6
Continuous
 62
    92
370
     5
100
AcDbLine
 10
807.0395804740286
 20
45.04463814400339
 30
0.0
 11
809.2487232105151
 21
45.04463814400339
 31
0.0
  0
LINE
  5
19D
330
1F
100
AcDbEntity
  8
3-2
  6
Continuous
 62
    92
370
     5
100
AcDbLine
 10
791.7928334828969
 20
57.93427338471304
 30
0.0
 11
810.5012635926943
 21
39.22584327491563
 31
0.0
  0
LINE
  5
19E
330
1F
100
AcDbEntity
  8
3-2
  6
Continuous
 62
    92
370
     5
100
AcDbLine
 10
780.353690482475
 20
20.7153650232263
 30
0.0
 11
807.7692805109797
 21
48.13095505173152
 31
0.0
  0
LINE
  5
19F
330
1F
100
AcDbEntity
  8
3-2
  6
Continuous
 62
    92
370
     5
100
AcDbLine
 10
807.0395804740286
 20
30.90246252111484
 30
0.0
 11
809.248970650338
 21
30.90246252111484
 31
0.0
  0
LINE
  5
1A0
330
1F
100
AcDbEntity
  8
3-2
  6
Continuous
 62
    92
370
     5
100
AcDbLine
 10
780.3828883815459
 20
55.20204286317579
 30
0.0
 11
807.7690330711573
 21
27.81589817356434
 31
0.0
  0
LINE
  5
1A1
330
1F
100
AcDbEntity
  8
3-2
  6
Continuous
 62
    92
370
     5
100
AcDbLine
 10
804.6827161634292
 20
23.83137470967057
 30
0.0
 11
804.6827161634292
 21
28.54559821051538
 31
0.0
  0
LINE
  5
1A2
330
1F
100
AcDbEntity
  8
3-2
  6
Continuous
 62
    92
370
     5
100
AcDbLine
 10
799.9687401024073
 20
23.83137470967057
 30
0.0
 11
804.6829636032521
 21
23.83137470967057
 31
0.0
  0
LINE
  5
1A3
330
1F
100
AcDbEntity
  8
3-2
  6
Continuous
 62
    92
370
     5
100
AcDbLine
 10
797.6116283519849
 20
19.26512022276199
 30
0.0
 11
797.6116283519849
 21
21.47451039907111
 31
0.0
  0
LINE
  5
1A4
330
1F
100
AcDbEntity
  8
3-2
  6
Continuous
 62
    92
370
     5
100
AcDbLine
 10
791.7930809227198
 20
18.01282728040547
 30
0.0
 11
810.5012635926943
 21
36.72100995038022
 31
0.0
  0
LINE
  5
1A5
330
1F
100
AcDbEntity
  8
3-2
  6
Continuous
 62
    92
370
     5
100
AcDbLine
 10
770.579817488387
 20
36.72100995038022
 30
0.0
 11
789.2882475981844
 21
18.01282728040547
 31
0.0
  0
LINE
  5
1A6
330
1F
100
AcDbEntity
  8
3-2
  6
Continuous
 62
    92
370
     5
100
AcDbLine
 10
776.3983649176521
 20
23.83137470967057
 30
0.0
 11
781.112340978674
 21
23.83137470967057
 31
0.0
  0
LINE
  5
1A7
330
1F
100
AcDbEntity
  8
3-2
  6
Continuous
 62
    92
370
     5
100
AcDbLine
 10
776.3983649176521
 20
23.83137470967057
 30
0.0
 11
776.3983649176521
 21
28.54559821051538
 31
0.0
  0
LINE
  5
1A8
330
1F
100
AcDbEntity
  8
3-2
  6
JWW_CENTER1
 62
    92
370
     5
100
AcDbLine
 10
739.0099602776604
 20
37.97355033255911
 30
0.0
 11
753.8739178631761
 21
37.97355033255911
 31
0.0
  0
LINE
  5
1A9
330
1F
100
AcDbEntity
  8
3-2
  6
JWW_CENTER1
 62
    92
370
     5
100
AcDbLine
 10
827.2074106577281
 20
37.97355033255911
 30
0.0
 11
841.7066419446792
 21
37.97355033255911
 31
0.0
  0
LINE
  5
1AA
330
1F
100
AcDbEntity
  8
3-2
  6
JWW_CENTER1
 62
    92
370
     5
100
AcDbLine
 10
790.5405405405406
 20
1.306680215371614
 30
0.0
 11
790.5405405405406
 21
-13.55059649493228
 31
0.0
  0
LINE
  5
1AB
330
1F
100
AcDbEntity
  8
3-2
  6
JWW_CENTER1
 62
    92
370
     5
100
AcDbLine
 10
790.5405405405406
 20
91.5343743401607
 30
0.0
 11
790.5405405405406
 21
74.64017300992396
 31
0.0
  0
LINE
  5
1AC
330
1F
100
AcDbEntity
  8
3-2
  6
Continuous
 62
    92
370
     5
100
AcDbLine
 10
-14.17335304054035
 20
252.1155197555956
 30
0.0
 11
-4.745400918496614
 21
252.1155197555956
 31
0.0
  0
LINE
  5
1AD
330
1F
100
AcDbEntity
  8
3-2
  6
Continuous
 62
    92
370
     5
100
AcDbLine
 10
-9.459376979518481
 20
247.4015436945737
 30
0.0
 11
-9.459376979518481
 21
256.8297432564401
 31
0.0
  0
LINE
  5
1AE
330
1F
100
AcDbEntity
  8
3-2
  6
Continuous
 62
    92
370
     5
100
AcDbLine
 10
-21.24444085198462
 20
245.044679383974
 30
0.0
 11
-11.81624129011823
 21
245.044679383974
 31
0.0
  0
LINE
  5
1AF
330
1F
100
AcDbEntity
  8
3-2
  6
Continuous
 62
    92
370
     5
100
AcDbLine
 10
-16.53046479096275
 20
240.3307033229518
 30
0.0
 11
-16.53046479096275
 21
249.7586554449958
 31
0.0
  0
LINE
  5
1B0
330
1F
100
AcDbEntity
  8
3-2
  6
Continuous
 62
    92
370
     5
100
AcDbLine
 10
-7.102265229096076
 20
245.044679383974
 30
0.0
 11
2.325686892947658
 21
245.044679383974
 31
0.0
  0
LINE
  5
1B1
330
1F
100
AcDbEntity
  8
3-2
  6
Continuous
 62
    92
370
     5
100
AcDbLine
 10
-2.388289168074209
 20
240.3307033229518
 30
0.0
 11
-2.388289168074209
 21
249.7586554449958
 31
0.0
  0
LINE
  5
1B2
330
1F
100
AcDbEntity
  8
3-2
  6
Continuous
 62
    92
370
     5
100
AcDbLine
 10
-14.17335304054035
 20
237.9735915725297
 30
0.0
 11
-4.745400918496614
 21
237.9735915725297
 31
0.0
  0
LINE
  5
1B3
330
1F
100
AcDbEntity
  8
3-2
  6
Continuous
 62
    92
370
     5
100
AcDbLine
 10
-9.459376979518481
 20
233.2596155115078
 30
0.0
 11
-9.459376979518481
 21
242.6875676335516
 31
0.0
  0
LINE
  5
1B4
330
1F
100
AcDbEntity
  8
3-2
  6
Continuous
 62
    92
370
     5
100
AcDbLine
 10
-28.31552866342889
 20
237.9735915725297
 30
0.0
 11
-18.88757654138516
 21
237.9735915725297
 31
0.0
  0
LINE
  5
1B5
330
1F
100
AcDbEntity
  8
3-2
  6
Continuous
 62
    92
370
     5
100
AcDbLine
 10
-23.60155260240703
 20
233.2596155115078
 30
0.0
 11
-23.60155260240703
 21
242.6875676335516
 31
0.0
  0
LINE
  5
1B6
330
1F
100
AcDbEntity
  8
3-2
  6
Continuous
 62
    92
370
     5
100
AcDbLine
 10
-21.24444085198462
 20
230.9025037610854
 30
0.0
 11
-11.81624129011823
 21
230.9025037610854
 31
0.0
  0
LINE
  5
1B7
330
1F
100
AcDbEntity
  8
3-2
  6
Continuous
 62
    92
370
     5
100
AcDbLine
 10
-16.53046479096275
 20
226.1885277000636
 30
0.0
 11
-16.53046479096275
 21
235.6164798221073
 31
0.0
  0
LINE
  5
1B8
330
1F
100
AcDbEntity
  8
3-2
  6
Continuous
 62
    92
370
     5
100
AcDbLine
 10
-0.0311774176518043
 20
237.9735915725297
 30
0.0
 11
9.39677470439193
 21
237.9735915725297
 31
0.0
  0
LINE
  5
1B9
330
1F
100
AcDbEntity
  8
3-2
  6
Continuous
 62
    92
370
     5
100
AcDbLine
 10
4.682798643370063
 20
233.2596155115078
 30
0.0
 11
4.682798643370063
 21
242.6875676335516
 31
0.0
  0
LINE
  5
1BA
330
1F
100
AcDbEntity
  8
3-2
  6
Continuous
 62
    92
370
     5
100
AcDbLine
 10
-7.102265229096076
 20
230.9025037610854
 30
0.0
 11
2.325686892947658
 21
230.9025037610854
 31
0.0
  0
LINE
  5
1BB
330
1F
100
AcDbEntity
  8
3-2
  6
Continuous
 62
    92
370
     5
100
AcDbLine
 10
-2.388289168074209
 20
226.1885277000636
 30
0.0
 11
-2.388289168074209
 21
235.6164798221073
 31
0.0
  0
LINE
  5
1BC
330
1F
100
AcDbEntity
  8
3-2
  6
Continuous
 62
    92
370
     5
100
AcDbLine
 10
-14.17335304054035
 20
223.8314159496412
 30
0.0
 11
-4.745400918496614
 21
223.8314159496412
 31
0.0
  0
LINE
  5
1BD
330
1F
100
AcDbEntity
  8
3-2
  6
Continuous
 62
    92
370
     5
100
AcDbLine
 10
-9.459376979518481
 20
219.1174398886193
 30
0.0
 11
-9.459376979518481
 21
228.545392010663
 31
0.0
  0
LINE
  5
1BE
330
1F
100
AcDbEntity
  8
3-2
  6
Continuous
 62
    92
370
     5
100
AcDbLine
 10
-16.53046479096275
 20
219.2183953362544
 30
0.0
 11
-16.53046479096275
 21
221.4745516390414
 31
0.0
  0
LINE
  5
1BF
330
1F
100
AcDbEntity
  8
3-2
  6
Continuous
 62
    92
370
     5
100
AcDbLine
 10
-28.16768336940441
 20
230.9025037610854
 30
0.0
 11
-25.95841691300677
 21
230.9025037610854
 31
0.0
  0
LINE
  5
1C0
330
1F
100
AcDbEntity
  8
3-2
  6
Continuous
 62
    92
370
     5
100
AcDbLine
 10
-28.16755964949323
 20
245.044679383974
 30
0.0
 11
-25.95841691300677
 21
245.044679383974
 31
0.0
  0
LINE
  5
1C1
330
1F
100
AcDbEntity
  8
3-2
  6
Continuous
 62
    92
370
     5
100
AcDbLine
 10
-26.68799323004635
 20
248.1309962917018
 30
0.0
 11
0.7274730785474048
 21
220.7154062631969
 31
0.0
  0
LINE
  5
1C2
330
1F
100
AcDbEntity
  8
3-2
  6
Continuous
 62
    92
370
     5
100
AcDbLine
 10
-23.60155260240703
 20
247.4015436945737
 30
0.0
 11
-23.60155260240703
 21
252.1155197555956
 31
0.0
  0
LINE
  5
1C3
330
1F
100
AcDbEntity
  8
3-2
  6
Continuous
 62
    92
370
     5
100
AcDbLine
 10
-23.60130516258437
 20
252.1157671954182
 30
0.0
 11
-18.88757654138516
 21
252.1157671954182
 31
0.0
  0
LINE
  5
1C4
330
1F
100
AcDbEntity
  8
3-2
  6
Continuous
 62
    92
370
     5
100
AcDbLine
 10
-16.53046479096275
 20
254.4726315060177
 30
0.0
 11
-16.53046479096275
 21
256.6817742425044
 31
0.0
  0
LINE
  5
1C5
330
1F
100
AcDbEntity
  8
3-2
  6
Continuous
 62
    92
370
     5
100
AcDbLine
 10
-29.41688331397785
 20
239.2288537927578
 30
0.0
 11
-10.711669921875
 21
257.9343146246833
 31
0.0
  0
LINE
  5
1C6
330
1F
100
AcDbEntity
  8
3-2
  6
Continuous
 62
    92
370
     5
100
AcDbLine
 10
-2.388289168074209
 20
254.4726315060177
 30
0.0
 11
-2.388289168074209
 21
256.6817742425044
 31
0.0
  0
LINE
  5
1C7
330
1F
100
AcDbEntity
  8
3-2
  6
Continuous
 62
    92
370
     5
100
AcDbLine
 10
-26.70519029771953
 20
227.7986186259503
 30
0.0
 11
0.6982751794765818
 21
255.2020841031461
 31
0.0
  0
LINE
  5
1C8
330
1F
100
AcDbEntity
  8
3-2
  6
Continuous
 62
    92
370
     5
100
AcDbLine
 10
-0.0311774176518043
 20
252.1157671954182
 30
0.0
 11
4.682798643370063
 21
252.1157671954182
 31
0.0
  0
LINE
  5
1C9
330
1F
100
AcDbEntity
  8
3-2
  6
Continuous
 62
    92
370
     5
100
AcDbLine
 10
4.682798643370063
 20
247.4015436945737
 30
0.0
 11
4.682798643370063
 21
252.1155197555956
 31
0.0
  0
LINE
  5
1CA
330
1F
100
AcDbEntity
  8
3-2
  6
Continuous
 62
    92
370
     5
100
AcDbLine
 10
7.03966295396981
 20
245.044679383974
 30
0.0
 11
9.248805690456265
 21
245.044679383974
 31
0.0
  0
LINE
  5
1CB
330
1F
100
AcDbEntity
  8
3-2
  6
Continuous
 62
    92
370
     5
100
AcDbLine
 10
-8.207084037161962
 20
257.9343146246833
 30
0.0
 11
10.50134607263516
 21
239.2258845148859
 31
0.0
  0
LINE
  5
1CC
330
1F
100
AcDbEntity
  8
3-2
  6
Continuous
 62
    92
370
     5
100
AcDbLine
 10
-19.64622703758437
 20
220.7154062631969
 30
0.0
 11
7.769362990920854
 21
248.1309962917018
 31
0.0
  0
LINE
  5
1CD
330
1F
100
AcDbEntity
  8
3-2
  6
Continuous
 62
    92
370
     5
100
AcDbLine
 10
7.03966295396981
 20
230.9025037610854
 30
0.0
 11
9.249053130278924
 21
230.9025037610854
 31
0.0
  0
LINE
  5
1CE
330
1F
100
AcDbEntity
  8
3-2
  6
Continuous
 62
    92
370
     5
100
AcDbLine
 10
-19.61702913851326
 20
255.2020841031461
 30
0.0
 11
7.769115551098196
 21
227.8159394135346
 31
0.0
  0
LINE
  5
1CF
330
1F
100
AcDbEntity
  8
3-2
  6
Continuous
 62
    92
370
     5
100
AcDbLine
 10
4.682798643370063
 20
223.8314159496412
 30
0.0
 11
4.682798643370063
 21
228.5456394504857
 31
0.0
  0
LINE
  5
1D0
330
1F
100
AcDbEntity
  8
3-2
  6
Continuous
 62
    92
370
     5
100
AcDbLine
 10
-0.0311774176518043
 20
223.8314159496412
 30
0.0
 11
4.683046083192721
 21
223.8314159496412
 31
0.0
  0
LINE
  5
1D1
330
1F
100
AcDbEntity
  8
3-2
  6
Continuous
 62
    92
370
     5
100
AcDbLine
 10
-2.388289168074209
 20
219.2651614627323
 30
0.0
 11
-2.388289168074209
 21
221.4745516390414
 31
0.0
  0
LINE
  5
1D2
330
1F
100
AcDbEntity
  8
3-2
  6
Continuous
 62
    92
370
     5
100
AcDbLine
 10
-8.206836597339304
 20
218.0128685203761
 30
0.0
 11
10.50134607263516
 21
236.7210511903505
 31
0.0
  0
LINE
  5
1D3
330
1F
100
AcDbEntity
  8
3-2
  6
Continuous
 62
    92
370
     5
100
AcDbLine
 10
-29.42010003167212
 20
236.7210511903505
 30
0.0
 11
-10.711669921875
 21
218.0128685203761
 31
0.0
  0
LINE
  5
1D4
330
1F
100
AcDbEntity
  8
3-2
  6
Continuous
 62
    92
370
     5
100
AcDbLine
 10
-23.60155260240703
 20
223.8314159496412
 30
0.0
 11
-18.88757654138516
 21
223.8314159496412
 31
0.0
  0
LINE
  5
1D5
330
1F
100
AcDbEntity
  8
3-2
  6
Continuous
 62
    92
370
     5
100
AcDbLine
 10
-23.60155260240703
 20
223.8314159496412
 30
0.0
 11
-23.60155260240703
 21
228.5456394504857
 31
0.0
  0
LINE
  5
1D6
330
1F
100
AcDbEntity
  8
3-2
  6
JWW_CENTER1
 62
    92
370
     5
100
AcDbLine
 10
-60.98995724239842
 20
237.9735915725297
 30
0.0
 11
-46.12599965688332
 21
237.9735915725297
 31
0.0
  0
LINE
  5
1D7
330
1F
100
AcDbEntity
  8
3-2
  6
JWW_CENTER1
 62
    92
370
     5
100
AcDbLine
 10
27.20749313766902
 20
237.9735915725297
 30
0.0
 11
41.70672442462006
 21
237.9735915725297
 31
0.0
  0
LINE
  5
1D8
330
1F
100
AcDbEntity
  8
3-2
  6
JWW_CENTER1
 62
    92
370
     5
100
AcDbLine
 10
-9.459376979518481
 20
201.3067214553422
 30
0.0
 11
-9.459376979518481
 21
186.449444745038
 31
0.0
  0
LINE
  5
1D9
330
1F
100
AcDbEntity
  8
3-2
  6
JWW_CENTER1
 62
    92
370
     5
100
AcDbLine
 10
-9.459376979518481
 20
291.534415580131
 30
0.0
 11
-9.459376979518481
 21
274.6402142498945
 31
0.0
  0
LINE
  5
1DA
330
1F
100
AcDbEntity
  8
3-2
  6
Continuous
 62
    92
370
     5
100
AcDbLine
 10
185.8265644795188
 20
252.1155197555956
 30
0.0
 11
195.2545166015625
 21
252.1155197555956
 31
0.0
  0
LINE
  5
1DB
330
1F
100
AcDbEntity
  8
3-2
  6
Continuous
 62
    92
370
     5
100
AcDbLine
 10
190.5405405405406
 20
247.4015436945737
 30
0.0
 11
190.5405405405406
 21
256.8297432564401
 31
0.0
  0
LINE
  5
1DC
330
1F
100
AcDbEntity
  8
3-2
  6
Continuous
 62
    92
370
     5
100
AcDbLine
 10
178.7554766680745
 20
245.044679383974
 30
0.0
 11
188.1836762299409
 21
245.044679383974
 31
0.0
  0
LINE
  5
1DD
330
1F
100
AcDbEntity
  8
3-2
  6
Continuous
 62
    92
370
     5
100
AcDbLine
 10
183.4694527290964
 20
240.3307033229518
 30
0.0
 11
183.4694527290964
 21
249.7586554449958
 31
0.0
  0
LINE
  5
1DE
330
1F
100
AcDbEntity
  8
3-2
  6
Continuous
 62
    92
370
     5
100
AcDbLine
 10
192.897652290963
 20
245.044679383974
 30
0.0
 11
202.3256044130068
 21
245.044679383974
 31
0.0
  0
LINE
  5
1DF
330
1F
100
AcDbEntity
  8
3-2
  6
Continuous
 62
    92
370
     5
100
AcDbLine
 10
197.6116283519849
 20
240.3307033229518
 30
0.0
 11
197.6116283519849
 21
249.7586554449958
 31
0.0
  0
LINE
  5
1E0
330
1F
100
AcDbEntity
  8
3-2
  6
Continuous
 62
    92
370
     5
100
AcDbLine
 10
185.8265644795188
 20
237.9735915725297
 30
0.0
 11
195.2545166015625
 21
237.9735915725297
 31
0.0
  0
LINE
  5
1E1
330
1F
100
AcDbEntity
  8
3-2
  6
Continuous
 62
    92
370
     5
100
AcDbLine
 10
190.5405405405406
 20
233.2596155115078
 30
0.0
 11
190.5405405405406
 21
242.6875676335516
 31
0.0
  0
LINE
  5
1E2
330
1F
100
AcDbEntity
  8
3-2
  6
Continuous
 62
    92
370
     5
100
AcDbLine
 10
171.6843888566302
 20
237.9735915725297
 30
0.0
 11
181.1123409786742
 21
237.9735915725297
 31
0.0
  0
LINE
  5
1E3
330
1F
100
AcDbEntity
  8
3-2
  6
Continuous
 62
    92
370
     5
100
AcDbLine
 10
176.3983649176521
 20
233.2596155115078
 30
0.0
 11
176.3983649176521
 21
242.6875676335516
 31
0.0
  0
LINE
  5
1E4
330
1F
100
AcDbEntity
  8
3-2
  6
Continuous
 62
    92
370
     5
100
AcDbLine
 10
178.7554766680745
 20
230.9025037610854
 30
0.0
 11
188.1836762299409
 21
230.9025037610854
 31
0.0
  0
LINE
  5
1E5
330
1F
100
AcDbEntity
  8
3-2
  6
Continuous
 62
    92
370
     5
100
AcDbLine
 10
183.4694527290964
 20
226.1885277000636
 30
0.0
 11
183.4694527290964
 21
235.6164798221073
 31
0.0
  0
LINE
  5
1E6
330
1F
100
AcDbEntity
  8
3-2
  6
Continuous
 62
    92
370
     5
100
AcDbLine
 10
199.9687401024073
 20
237.9735915725297
 30
0.0
 11
209.396692224451
 21
237.9735915725297
 31
0.0
  0
LINE
  5
1E7
330
1F
100
AcDbEntity
  8
3-2
  6
Continuous
 62
    92
370
     5
100
AcDbLine
 10
204.6827161634292
 20
233.2596155115078
 30
0.0
 11
204.6827161634292
 21
242.6875676335516
 31
0.0
  0
LINE
  5
1E8
330
1F
100
AcDbEntity
  8
3-2
  6
Continuous
 62
    92
370
     5
100
AcDbLine
 10
192.897652290963
 20
230.9025037610854
 30
0.0
 11
202.3256044130068
 21
230.9025037610854
 31
0.0
  0
LINE
  5
1E9
330
1F
100
AcDbEntity
  8
3-2
  6
Continuous
 62
    92
370
     5
100
AcDbLine
 10
197.6116283519849
 20
226.1885277000636
 30
0.0
 11
197.6116283519849
 21
235.6164798221073
 31
0.0
  0
LINE
  5
1EA
330
1F
100
AcDbEntity
  8
3-2
  6
Continuous
 62
    92
370
     5
100
AcDbLine
 10
185.8265644795188
 20
223.8314159496412
 30
0.0
 11
195.2545166015625
 21
223.8314159496412
 31
0.0
  0
LINE
  5
1EB
330
1F
100
AcDbEntity
  8
3-2
  6
Continuous
 62
    92
370
     5
100
AcDbLine
 10
190.5405405405406
 20
219.1174398886193
 30
0.0
 11
190.5405405405406
 21
228.545392010663
 31
0.0
  0
LINE
  5
1EC
330
1F
100
AcDbEntity
  8
3-2
  6
Continuous
 62
    92
370
     5
100
AcDbLine
 10
183.4694527290964
 20
219.2183953362544
 30
0.0
 11
183.4694527290964
 21
221.4745516390414
 31
0.0
  0
LINE
  5
1ED
330
1F
100
AcDbEntity
  8
3-2
  6
Continuous
 62
    92
370
     5
100
AcDbLine
 10
171.8323578705659
 20
230.9025037610854
 30
0.0
 11
174.0415006070526
 21
230.9025037610854
 31
0.0
  0
LINE
  5
1EE
330
1F
100
AcDbEntity
  8
3-2
  6
Continuous
 62
    92
370
     5
100
AcDbLine
 10
171.8323578705659
 20
245.044679383974
 30
0.0
 11
174.0415006070526
 21
245.044679383974
 31
0.0
  0
LINE
  5
1EF
330
1F
100
AcDbEntity
  8
3-2
  6
Continuous
 62
    92
370
     5
100
AcDbLine
 10
173.3120480099242
 20
248.1309962917018
 30
0.0
 11
200.7273905986065
 21
220.7154062631969
 31
0.0
  0
LINE
  5
1F0
330
1F
100
AcDbEntity
  8
3-2
  6
Continuous
 62
    92
370
     5
100
AcDbLine
 10
176.3983649176521
 20
247.4015436945737
 30
0.0
 11
176.3983649176521
 21
252.1155197555956
 31
0.0
  0
LINE
  5
1F1
330
1F
100
AcDbEntity
  8
3-2
  6
Continuous
 62
    92
370
     5
100
AcDbLine
 10
176.3986123574747
 20
252.1157671954182
 30
0.0
 11
181.1123409786742
 21
252.1157671954182
 31
0.0
  0
LINE
  5
1F2
330
1F
100
AcDbEntity
  8
3-2
  6
Continuous
 62
    92
370
     5
100
AcDbLine
 10
183.4694527290964
 20
254.4726315060177
 30
0.0
 11
183.4694527290964
 21
256.6817742425044
 31
0.0
  0
LINE
  5
1F3
330
1F
100
AcDbEntity
  8
3-2
  6
Continuous
 62
    92
370
     5
100
AcDbLine
 10
170.5830342060813
 20
239.2288537927578
 30
0.0
 11
189.2882475981841
 21
257.9343146246833
 31
0.0
  0
LINE
  5
1F4
330
1F
100
AcDbEntity
  8
3-2
  6
Continuous
 62
    92
370
     5
100
AcDbLine
 10
197.6116283519849
 20
254.4726315060177
 30
0.0
 11
197.6116283519849
 21
256.6817742425044
 31
0.0
  0
LINE
  5
1F5
330
1F
100
AcDbEntity
  8
3-2
  6
Continuous
 62
    92
370
     5
100
AcDbLine
 10
173.2947272223396
 20
227.7986186259503
 30
0.0
 11
200.6981926995357
 21
255.2020841031461
 31
0.0
  0
LINE
  5
1F6
330
1F
100
AcDbEntity
  8
3-2
  6
Continuous
 62
    92
370
     5
100
AcDbLine
 10
199.9687401024073
 20
252.1157671954182
 30
0.0
 11
204.6827161634292
 21
252.1157671954182
 31
0.0
  0
LINE
  5
1F7
330
1F
100
AcDbEntity
  8
3-2
  6
Continuous
 62
    92
370
     5
100
AcDbLine
 10
204.6827161634292
 20
247.4015436945737
 30
0.0
 11
204.6827161634292
 21
252.1155197555956
 31
0.0
  0
LINE
  5
1F8
330
1F
100
AcDbEntity
  8
3-2
  6
Continuous
 62
    92
370
     5
100
AcDbLine
 10
207.0395804740289
 20
245.044679383974
 30
0.0
 11
209.2487232105154
 21
245.044679383974
 31
0.0
  0
LINE
  5
1F9
330
1F
100
AcDbEntity
  8
3-2
  6
Continuous
 62
    92
370
     5
100
AcDbLine
 10
191.7928334828972
 20
257.9343146246833
 30
0.0
 11
210.5012635926943
 21
239.2258845148859
 31
0.0
  0
LINE
  5
1FA
330
1F
100
AcDbEntity
  8
3-2
  6
Continuous
 62
    92
370
     5
100
AcDbLine
 10
180.3536904824747
 20
220.7154062631969
 30
0.0
 11
207.76928051098
 21
248.1309962917018
 31
0.0
  0
LINE
  5
1FB
330
1F
100
AcDbEntity
  8
3-2
  6
Continuous
 62
    92
370
     5
100
AcDbLine
 10
207.0395804740289
 20
230.9025037610854
 30
0.0
 11
209.248970650338
 21
230.9025037610854
 31
0.0
  0
LINE
  5
1FC
330
1F
100
AcDbEntity
  8
3-2
  6
Continuous
 62
    92
370
     5
100
AcDbLine
 10
180.3828883815459
 20
255.2020841031461
 30
0.0
 11
207.7690330711573
 21
227.8159394135346
 31
0.0
  0
LINE
  5
1FD
330
1F
100
AcDbEntity
  8
3-2
  6
Continuous
 62
    92
370
     5
100
AcDbLine
 10
204.6827161634292
 20
223.8314159496412
 30
0.0
 11
204.6827161634292
 21
228.5456394504857
 31
0.0
  0
LINE
  5
1FE
330
1F
100
AcDbEntity
  8
3-2
  6
Continuous
 62
    92
370
     5
100
AcDbLine
 10
199.9687401024073
 20
223.8314159496412
 30
0.0
 11
204.6829636032518
 21
223.8314159496412
 31
0.0
  0
LINE
  5
1FF
330
1F
100
AcDbEntity
  8
3-2
  6
Continuous
 62
    92
370
     5
100
AcDbLine
 10
197.6116283519849
 20
219.2651614627323
 30
0.0
 11
197.6116283519849
 21
221.4745516390414
 31
0.0
  0
LINE
  5
200
330
1F
100
AcDbEntity
  8
3-2
  6
Continuous
 62
    92
370
     5
100
AcDbLine
 10
191.7930809227198
 20
218.0128685203761
 30
0.0
 11
210.5012635926943
 21
236.7210511903505
 31
0.0
  0
LINE
  5
201
330
1F
100
AcDbEntity
  8
3-2
  6
Continuous
 62
    92
370
     5
100
AcDbLine
 10
170.579817488387
 20
236.7210511903505
 30
0.0
 11
189.2882475981841
 21
218.0128685203761
 31
0.0
  0
LINE
  5
202
330
1F
100
AcDbEntity
  8
3-2
  6
Continuous
 62
    92
370
     5
100
AcDbLine
 10
176.3983649176521
 20
223.8314159496412
 30
0.0
 11
181.1123409786742
 21
223.8314159496412
 31
0.0
  0
LINE
  5
203
330
1F
100
AcDbEntity
  8
3-2
  6
Continuous
 62
    92
370
     5
100
AcDbLine
 10
176.3983649176521
 20
223.8314159496412
 30
0.0
 11
176.3983649176521
 21
228.5456394504857
 31
0.0
  0
LINE
  5
204
330
1F
100
AcDbEntity
  8
3-2
  6
JWW_CENTER1
 62
    92
370
     5
100
AcDbLine
 10
139.0099602776607
 20
237.9735915725297
 30
0.0
 11
153.8739178631758
 21
237.9735915725297
 31
0.0
  0
LINE
  5
205
330
1F
100
AcDbEntity
  8
3-2
  6
JWW_CENTER1
 62
    92
370
     5
100
AcDbLine
 10
227.2074106577281
 20
237.9735915725297
 30
0.0
 11
241.7066419446792
 21
237.9735915725297
 31
0.0
  0
LINE
  5
206
330
1F
100
AcDbEntity
  8
3-2
  6
JWW_CENTER1
 62
    92
370
     5
100
AcDbLine
 10
190.5405405405406
 20
201.3067214553422
 30
0.0
 11
190.5405405405406
 21
186.449444745038
 31
0.0
  0
LINE
  5
207
330
1F
100
AcDbEntity
  8
3-2
  6
JWW_CENTER1
 62
    92
370
     5
100
AcDbLine
 10
190.5405405405406
 20
291.534415580131
 30
0.0
 11
190.5405405405406
 21
274.6402142498945
 31
0.0
  0
LINE
  5
208
330
1F
100
AcDbEntity
  8
3-2
  6
Continuous
 62
    92
370
     5
100
AcDbLine
 10
385.8267294394005
 20
252.1155197555956
 30
0.0
 11
395.2546815614443
 21
252.1155197555956
 31
0.0
  0
LINE
  5
209
330
1F
100
AcDbEntity
  8
3-2
  6
Continuous
 62
    92
370
     5
100
AcDbLine
 10
390.5407055004224
 20
247.4015436945737
 30
0.0
 11
390.5407055004224
 21
256.8297432564401
 31
0.0
  0
LINE
  5
20A
330
1F
100
AcDbEntity
  8
3-2
  6
Continuous
 62
    92
370
     5
100
AcDbLine
 10
378.7556416279563
 20
245.044679383974
 30
0.0
 11
388.1838411898227
 21
245.044679383974
 31
0.0
  0
LINE
  5
20B
330
1F
100
AcDbEntity
  8
3-2
  6
Continuous
 62
    92
370
     5
100
AcDbLine
 10
383.4696176889781
 20
240.3307033229518
 30
0.0
 11
383.4696176889781
 21
249.7586554449958
 31
0.0
  0
LINE
  5
20C
330
1F
100
AcDbEntity
  8
3-2
  6
Continuous
 62
    92
370
     5
100
AcDbLine
 10
392.8978172508448
 20
245.044679383974
 30
0.0
 11
402.3257693728885
 21
245.044679383974
 31
0.0
  0
LINE
  5
20D
330
1F
100
AcDbEntity
  8
3-2
  6
Continuous
 62
    92
370
     5
100
AcDbLine
 10
397.6117933118667
 20
240.3307033229518
 30
0.0
 11
397.6117933118667
 21
249.7586554449958
 31
0.0
  0
LINE
  5
20E
330
1F
100
AcDbEntity
  8
3-2
  6
Continuous
 62
    92
370
     5
100
AcDbLine
 10
385.8267294394005
 20
237.9735915725297
 30
0.0
 11
395.2546815614443
 21
237.9735915725297
 31
0.0
  0
LINE
  5
20F
330
1F
100
AcDbEntity
  8
3-2
  6
Continuous
 62
    92
370
     5
100
AcDbLine
 10
390.5407055004224
 20
233.2596155115078
 30
0.0
 11
390.5407055004224
 21
242.6875676335516
 31
0.0
  0
LINE
  5
210
330
1F
100
AcDbEntity
  8
3-2
  6
Continuous
 62
    92
370
     5
100
AcDbLine
 10
371.684553816512
 20
237.9735915725297
 30
0.0
 11
381.112505938556
 21
237.9735915725297
 31
0.0
  0
LINE
  5
211
330
1F
100
AcDbEntity
  8
3-2
  6
Continuous
 62
    92
370
     5
100
AcDbLine
 10
376.3985298775339
 20
233.2596155115078
 30
0.0
 11
376.3985298775339
 21
242.6875676335516
 31
0.0
  0
LINE
  5
212
330
1F
100
AcDbEntity
  8
3-2
  6
Continuous
 62
    92
370
     5
100
AcDbLine
 10
378.7556416279563
 20
230.9025037610854
 30
0.0
 11
388.1838411898227
 21
230.9025037610854
 31
0.0
  0
LINE
  5
213
330
1F
100
AcDbEntity
  8
3-2
  6
Continuous
 62
    92
370
     5
100
AcDbLine
 10
383.4696176889781
 20
226.1885277000636
 30
0.0
 11
383.4696176889781
 21
235.6164798221073
 31
0.0
  0
LINE
  5
214
330
1F
100
AcDbEntity
  8
3-2
  6
Continuous
 62
    92
370
     5
100
AcDbLine
 10
399.9689050622891
 20
237.9735915725297
 30
0.0
 11
409.3968571843328
 21
237.9735915725297
 31
0.0
  0
LINE
  5
215
330
1F
100
AcDbEntity
  8
3-2
  6
Continuous
 62
    92
370
     5
100
AcDbLine
 10
404.6828811233109
 20
233.2596155115078
 30
0.0
 11
404.6828811233109
 21
242.6875676335516
 31
0.0
  0
LINE
  5
216
330
1F
100
AcDbEntity
  8
3-2
  6
Continuous
 62
    92
370
     5
100
AcDbLine
 10
392.8978172508448
 20
230.9025037610854
 30
0.0
 11
402.3257693728885
 21
230.9025037610854
 31
0.0
  0
LINE
  5
217
330
1F
100
AcDbEntity
  8
3-2
  6
Continuous
 62
    92
370
     5
100
AcDbLine
 10
397.6117933118667
 20
226.1885277000636
 30
0.0
 11
397.6117933118667
 21
235.6164798221073
 31
0.0
  0
LINE
  5
218
330
1F
100
AcDbEntity
  8
3-2
  6
Continuous
 62
    92
370
     5
100
AcDbLine
 10
385.8267294394005
 20
223.8314159496412
 30
0.0
 11
395.2546815614443
 21
223.8314159496412
 31
0.0
  0
LINE
  5
219
330
1F
100
AcDbEntity
  8
3-2
  6
Continuous
 62
    92
370
     5
100
AcDbLine
 10
390.5407055004224
 20
219.1174398886193
 30
0.0
 11
390.5407055004224
 21
228.545392010663
 31
0.0
  0
LINE
  5
21A
330
1F
100
AcDbEntity
  8
3-2
  6
Continuous
 62
    92
370
     5
100
AcDbLine
 10
383.4696176889781
 20
219.2183953362544
 30
0.0
 11
383.4696176889781
 21
221.4745516390414
 31
0.0
  0
LINE
  5
21B
330
1F
100
AcDbEntity
  8
3-2
  6
Continuous
 62
    92
370
     5
100
AcDbLine
 10
371.832275390625
 20
230.9025037610854
 30
0.0
 11
374.0416655669344
 21
230.9025037610854
 31
0.0
  0
LINE
  5
21C
330
1F
100
AcDbEntity
  8
3-2
  6
Continuous
 62
    92
370
     5
100
AcDbLine
 10
371.8325228304477
 20
245.044679383974
 30
0.0
 11
374.0416655669344
 21
245.044679383974
 31
0.0
  0
LINE
  5
21D
330
1F
100
AcDbEntity
  8
3-2
  6
Continuous
 62
    92
370
     5
100
AcDbLine
 10
373.3119655299834
 20
248.1309962917018
 30
0.0
 11
400.7275555584883
 21
220.7154062631969
 31
0.0
  0
LINE
  5
21E
330
1F
100
AcDbEntity
  8
3-2
  6
Continuous
 62
    92
370
     5
100
AcDbLine
 10
376.3985298775339
 20
247.4015436945737
 30
0.0
 11
376.3985298775339
 21
252.1155197555956
 31
0.0
  0
LINE
  5
21F
330
1F
100
AcDbEntity
  8
3-2
  6
Continuous
 62
    92
370
     5
100
AcDbLine
 10
376.3987773173565
 20
252.1157671954182
 30
0.0
 11
381.112505938556
 21
252.1157671954182
 31
0.0
  0
LINE
  5
220
330
1F
100
AcDbEntity
  8
3-2
  6
Continuous
 62
    92
370
     5
100
AcDbLine
 10
383.4696176889781
 20
254.4726315060177
 30
0.0
 11
383.4696176889781
 21
256.6817742425044
 31
0.0
  0
LINE
  5
221
330
1F
100
AcDbEntity
  8
3-2
  6
Continuous
 62
    92
370
     5
100
AcDbLine
 10
370.583199165963
 20
239.2288537927578
 30
0.0
 11
389.2884125580659
 21
257.9343146246833
 31
0.0
  0
LINE
  5
222
330
1F
100
AcDbEntity
  8
3-2
  6
Continuous
 62
    92
370
     5
100
AcDbLine
 10
397.6117933118667
 20
254.4726315060177
 30
0.0
 11
397.6117933118667
 21
256.6817742425044
 31
0.0
  0
LINE
  5
223
330
1F
100
AcDbEntity
  8
3-2
  6
Continuous
 62
    92
370
     5
100
AcDbLine
 10
373.2948921822214
 20
227.7986186259503
 30
0.0
 11
400.6983576594175
 21
255.2020841031461
 31
0.0
  0
LINE
  5
224
330
1F
100
AcDbEntity
  8
3-2
  6
Continuous
 62
    92
370
     5
100
AcDbLine
 10
399.9689050622891
 20
252.1157671954182
 30
0.0
 11
404.6828811233109
 21
252.1157671954182
 31
0.0
  0
LINE
  5
225
330
1F
100
AcDbEntity
  8
3-2
  6
Continuous
 62
    92
370
     5
100
AcDbLine
 10
404.6828811233109
 20
247.4015436945737
 30
0.0
 11
404.6828811233109
 21
252.1155197555956
 31
0.0
  0
LINE
  5
226
330
1F
100
AcDbEntity
  8
3-2
  6
Continuous
 62
    92
370
     5
100
AcDbLine
 10
407.0397454339107
 20
245.044679383974
 30
0.0
 11
409.2488881703972
 21
245.044679383974
 31
0.0
  0
LINE
  5
227
330
1F
100
AcDbEntity
  8
3-2
  6
Continuous
 62
    92
370
     5
100
AcDbLine
 10
391.7929984427789
 20
257.9343146246833
 30
0.0
 11
410.501428552576
 21
239.2258845148859
 31
0.0
  0
LINE
  5
228
330
1F
100
AcDbEntity
  8
3-2
  6
Continuous
 62
    92
370
     5
100
AcDbLine
 10
380.3538554423565
 20
220.7154062631969
 30
0.0
 11
407.7694454708617
 21
248.1309962917018
 31
0.0
  0
LINE
  5
229
330
1F
100
AcDbEntity
  8
3-2
  6
Continuous
 62
    92
370
     5
100
AcDbLine
 10
407.0397454339107
 20
230.9025037610854
 30
0.0
 11
409.2491356102198
 21
230.9025037610854
 31
0.0
  0
LINE
  5
22A
330
1F
100
AcDbEntity
  8
3-2
  6
Continuous
 62
    92
370
     5
100
AcDbLine
 10
380.3830533414276
 20
255.2020841031461
 30
0.0
 11
407.7691980310391
 21
227.8159394135346
 31
0.0
  0
LINE
  5
22B
330
1F
100
AcDbEntity
  8
3-2
  6
Continuous
 62
    92
370
     5
100
AcDbLine
 10
404.6828811233109
 20
223.8314159496412
 30
0.0
 11
404.6828811233109
 21
228.5456394504857
 31
0.0
  0
LINE
  5
22C
330
1F
100
AcDbEntity
  8
3-2
  6
Continuous
 62
    92
370
     5
100
AcDbLine
 10
399.9689050622891
 20
223.8314159496412
 30
0.0
 11
404.6831285631336
 21
223.8314159496412
 31
0.0
  0
LINE
  5
22D
330
1F
100
AcDbEntity
  8
3-2
  6
Continuous
 62
    92
370
     5
100
AcDbLine
 10
397.6117933118667
 20
219.2651614627323
 30
0.0
 11
397.6117933118667
 21
221.4745516390414
 31
0.0
  0
LINE
  5
22E
330
1F
100
AcDbEntity
  8
3-2
  6
Continuous
 62
    92
370
     5
100
AcDbLine
 10
391.7932458826016
 20
218.0128685203761
 30
0.0
 11
410.501428552576
 21
236.7210511903505
 31
0.0
  0
LINE
  5
22F
330
1F
100
AcDbEntity
  8
3-2
  6
Continuous
 62
    92
370
     5
100
AcDbLine
 10
370.5799824482688
 20
236.7210511903505
 30
0.0
 11
389.2884125580659
 21
218.0128685203761
 31
0.0
  0
LINE
  5
230
330
1F
100
AcDbEntity
  8
3-2
  6
Continuous
 62
    92
370
     5
100
AcDbLine
 10
376.3985298775339
 20
223.8314159496412
 30
0.0
 11
381.112505938556
 21
223.8314159496412
 31
0.0
  0
LINE
  5
231
330
1F
100
AcDbEntity
  8
3-2
  6
Continuous
 62
    92
370
     5
100
AcDbLine
 10
376.3985298775339
 20
223.8314159496412
 30
0.0
 11
376.3985298775339
 21
228.5456394504857
 31
0.0
  0
LINE
  5
232
330
1F
100
AcDbEntity
  8
3-2
  6
JWW_CENTER1
 62
    92
370
     5
100
AcDbLine
 10
339.0101252375425
 20
237.9735915725297
 30
0.0
 11
353.8740828230576
 21
237.9735915725297
 31
0.0
  0
LINE
  5
233
330
1F
100
AcDbEntity
  8
3-2
  6
JWW_CENTER1
 62
    92
370
     5
100
AcDbLine
 10
427.2075756176099
 20
237.9735915725297
 30
0.0
 11
441.7068069045609
 21
237.9735915725297
 31
0.0
  0
LINE
  5
234
330
1F
100
AcDbEntity
  8
3-2
  6
JWW_CENTER1
 62
    92
370
     5
100
AcDbLine
 10
390.5407055004224
 20
201.3067214553422
 30
0.0
 11
390.5407055004224
 21
186.449444745038
 31
0.0
  0
LINE
  5
235
330
1F
100
AcDbEntity
  8
3-2
  6
JWW_CENTER1
 62
    92
370
     5
100
AcDbLine
 10
390.5407055004224
 20
291.534415580131
 30
0.0
 11
390.5407055004224
 21
274.6402142498945
 31
0.0
  0
LINE
  5
236
330
1F
100
AcDbEntity
  8
3-2
  6
Continuous
 62
    92
370
     5
100
AcDbLine
 10
585.8266469594594
 20
252.1155197555956
 30
0.0
 11
595.2545990815037
 21
252.1155197555956
 31
0.0
  0
LINE
  5
237
330
1F
100
AcDbEntity
  8
3-2
  6
Continuous
 62
    92
370
     5
100
AcDbLine
 10
590.5406230204818
 20
247.4015436945737
 30
0.0
 11
590.5406230204818
 21
256.8297432564401
 31
0.0
  0
LINE
  5
238
330
1F
100
AcDbEntity
  8
3-2
  6
Continuous
 62
    92
370
     5
100
AcDbLine
 10
578.7555591480151
 20
245.044679383974
 30
0.0
 11
588.1837587098818
 21
245.044679383974
 31
0.0
  0
LINE
  5
239
330
1F
100
AcDbEntity
  8
3-2
  6
Continuous
 62
    92
370
     5
100
AcDbLine
 10
583.4695352090375
 20
240.3307033229518
 30
0.0
 11
583.4695352090375
 21
249.7586554449958
 31
0.0
  0
LINE
  5
23A
330
1F
100
AcDbEntity
  8
3-2
  6
Continuous
 62
    92
370
     5
100
AcDbLine
 10
592.8977347709036
 20
245.044679383974
 30
0.0
 11
602.3256868929479
 21
245.044679383974
 31
0.0
  0
LINE
  5
23B
330
1F
100
AcDbEntity
  8
3-2
  6
Continuous
 62
    92
370
     5
100
AcDbLine
 10
597.6117108319261
 20
240.3307033229518
 30
0.0
 11
597.6117108319261
 21
249.7586554449958
 31
0.0
  0
LINE
  5
23C
330
1F
100
AcDbEntity
  8
3-2
  6
Continuous
 62
    92
370
     5
100
AcDbLine
 10
585.8266469594594
 20
237.9735915725297
 30
0.0
 11
595.2545990815037
 21
237.9735915725297
 31
0.0
  0
LINE
  5
23D
330
1F
100
AcDbEntity
  8
3-2
  6
Continuous
 62
    92
370
     5
100
AcDbLine
 10
590.5406230204818
 20
233.2596155115078
 30
0.0
 11
590.5406230204818
 21
242.6875676335516
 31
0.0
  0
LINE
  5
23E
330
1F
100
AcDbEntity
  8
3-2
  6
Continuous
 62
    92
370
     5
100
AcDbLine
 10
571.6844713365708
 20
237.9735915725297
 30
0.0
 11
581.1124234586151
 21
237.9735915725297
 31
0.0
  0
LINE
  5
23F
330
1F
100
AcDbEntity
  8
3-2
  6
Continuous
 62
    92
370
     5
100
AcDbLine
 10
576.3984473975933
 20
233.2596155115078
 30
0.0
 11
576.3984473975933
 21
242.6875676335516
 31
0.0
  0
LINE
  5
240
330
1F
100
AcDbEntity
  8
3-2
  6
Continuous
 62
    92
370
     5
100
AcDbLine
 10
578.7555591480151
 20
230.9025037610854
 30
0.0
 11
588.1837587098818
 21
230.9025037610854
 31
0.0
  0
LINE
  5
241
330
1F
100
AcDbEntity
  8
3-2
  6
Continuous
 62
    92
370
     5
100
AcDbLine
 10
583.4695352090375
 20
226.1885277000636
 30
0.0
 11
583.4695352090375
 21
235.6164798221073
 31
0.0
  0
LINE
  5
242
330
1F
100
AcDbEntity
  8
3-2
  6
Continuous
 62
    92
370
     5
100
AcDbLine
 10
599.9688225823479
 20
237.9735915725297
 30
0.0
 11
609.3967747043922
 21
237.9735915725297
 31
0.0
  0
LINE
  5
243
330
1F
100
AcDbEntity
  8
3-2
  6
Continuous
 62
    92
370
     5
100
AcDbLine
 10
604.6827986433703
 20
233.2596155115078
 30
0.0
 11
604.6827986433703
 21
242.6875676335516
 31
0.0
  0
LINE
  5
244
330
1F
100
AcDbEntity
  8
3-2
  6
Continuous
 62
    92
370
     5
100
AcDbLine
 10
592.8977347709036
 20
230.9025037610854
 30
0.0
 11
602.3256868929479
 21
230.9025037610854
 31
0.0
  0
LINE
  5
245
330
1F
100
AcDbEntity
  8
3-2
  6
Continuous
 62
    92
370
     5
100
AcDbLine
 10
597.6117108319261
 20
226.1885277000636
 30
0.0
 11
597.6117108319261
 21
235.6164798221073
 31
0.0
  0
LINE
  5
246
330
1F
100
AcDbEntity
  8
3-2
  6
Continuous
 62
    92
370
     5
100
AcDbLine
 10
585.8266469594594
 20
223.8314159496412
 30
0.0
 11
595.2545990815037
 21
223.8314159496412
 31
0.0
  0
LINE
  5
247
330
1F
100
AcDbEntity
  8
3-2
  6
Continuous
 62
    92
370
     5
100
AcDbLine
 10
590.5406230204818
 20
219.1174398886193
 30
0.0
 11
590.5406230204818
 21
228.545392010663
 31
0.0
  0
LINE
  5
248
330
1F
100
AcDbEntity
  8
3-2
  6
Continuous
 62
    92
370
     5
100
AcDbLine
 10
583.4695352090375
 20
219.2183953362544
 30
0.0
 11
583.4695352090375
 21
221.4745516390414
 31
0.0
  0
LINE
  5
249
330
1F
100
AcDbEntity
  8
3-2
  6
Continuous
 62
    92
370
     5
100
AcDbLine
 10
571.8324403505068
 20
230.9025037610854
 30
0.0
 11
574.0415830869932
 21
230.9025037610854
 31
0.0
  0
LINE
  5
24A
330
1F
100
AcDbEntity
  8
3-2
  6
Continuous
 62
    92
370
     5
100
AcDbLine
 10
571.8324403505068
 20
245.044679383974
 30
0.0
 11
574.0415830869932
 21
245.044679383974
 31
0.0
  0
LINE
  5
24B
330
1F
100
AcDbEntity
  8
3-2
  6
Continuous
 62
    92
370
     5
100
AcDbLine
 10
573.3121304898651
 20
248.1309962917018
 30
0.0
 11
600.7274730785474
 21
220.7154062631969
 31
0.0
  0
LINE
  5
24C
330
1F
100
AcDbEntity
  8
3-2
  6
Continuous
 62
    92
370
     5
100
AcDbLine
 10
576.3984473975933
 20
247.4015436945737
 30
0.0
 11
576.3984473975933
 21
252.1155197555956
 31
0.0
  0
LINE
  5
24D
330
1F
100
AcDbEntity
  8
3-2
  6
Continuous
 62
    92
370
     5
100
AcDbLine
 10
576.3986948374156
 20
252.1157671954182
 30
0.0
 11
581.1124234586151
 21
252.1157671954182
 31
0.0
  0
LINE
  5
24E
330
1F
100
AcDbEntity
  8
3-2
  6
Continuous
 62
    92
370
     5
100
AcDbLine
 10
583.4695352090375
 20
254.4726315060177
 30
0.0
 11
583.4695352090375
 21
256.6817742425044
 31
0.0
  0
LINE
  5
24F
330
1F
100
AcDbEntity
  8
3-2
  6
Continuous
 62
    92
370
     5
100
AcDbLine
 10
570.5831166860219
 20
239.2288537927578
 30
0.0
 11
589.288330078125
 21
257.9343146246833
 31
0.0
  0
LINE
  5
250
330
1F
100
AcDbEntity
  8
3-2
  6
Continuous
 62
    92
370
     5
100
AcDbLine
 10
597.6117108319261
 20
254.4726315060177
 30
0.0
 11
597.6117108319261
 21
256.6817742425044
 31
0.0
  0
LINE
  5
251
330
1F
100
AcDbEntity
  8
3-2
  6
Continuous
 62
    92
370
     5
100
AcDbLine
 10
573.2948097022808
 20
227.7986186259503
 30
0.0
 11
600.6982751794766
 21
255.2020841031461
 31
0.0
  0
LINE
  5
252
330
1F
100
AcDbEntity
  8
3-2
  6
Continuous
 62
    92
370
     5
100
AcDbLine
 10
599.9688225823479
 20
252.1157671954182
 30
0.0
 11
604.6827986433703
 21
252.1157671954182
 31
0.0
  0
LINE
  5
253
330
1F
100
AcDbEntity
  8
3-2
  6
Continuous
 62
    92
370
     5
100
AcDbLine
 10
604.6827986433703
 20
247.4015436945737
 30
0.0
 11
604.6827986433703
 21
252.1155197555956
 31
0.0
  0
LINE
  5
254
330
1F
100
AcDbEntity
  8
3-2
  6
Continuous
 62
    92
370
     5
100
AcDbLine
 10
607.0396629539698
 20
245.044679383974
 30
0.0
 11
609.2488056904563
 21
245.044679383974
 31
0.0
  0
LINE
  5
255
330
1F
100
AcDbEntity
  8
3-2
  6
Continuous
 62
    92
370
     5
100
AcDbLine
 10
591.792915962838
 20
257.9343146246833
 30
0.0
 11
610.5013460726354
 21
239.2258845148859
 31
0.0
  0
LINE
  5
256
330
1F
100
AcDbEntity
  8
3-2
  6
Continuous
 62
    92
370
     5
100
AcDbLine
 10
580.3537729624156
 20
220.7154062631969
 30
0.0
 11
607.7693629909209
 21
248.1309962917018
 31
0.0
  0
LINE
  5
257
330
1F
100
AcDbEntity
  8
3-2
  6
Continuous
 62
    92
370
     5
100
AcDbLine
 10
607.0396629539698
 20
230.9025037610854
 30
0.0
 11
609.2490531302786
 21
230.9025037610854
 31
0.0
  0
LINE
  5
258
330
1F
100
AcDbEntity
  8
3-2
  6
Continuous
 62
    92
370
     5
100
AcDbLine
 10
580.3829708614865
 20
255.2020841031461
 30
0.0
 11
607.7691155510979
 21
227.8159394135346
 31
0.0
  0
LINE
  5
259
330
1F
100
AcDbEntity
  8
3-2
  6
Continuous
 62
    92
370
     5
100
AcDbLine
 10
604.6827986433703
 20
223.8314159496412
 30
0.0
 11
604.6827986433703
 21
228.5456394504857
 31
0.0
  0
LINE
  5
25A
330
1F
100
AcDbEntity
  8
3-2
  6
Continuous
 62
    92
370
     5
100
AcDbLine
 10
599.9688225823479
 20
223.8314159496412
 30
0.0
 11
604.6830460831927
 21
223.8314159496412
 31
0.0
  0
LINE
  5
25B
330
1F
100
AcDbEntity
  8
3-2
  6
Continuous
 62
    92
370
     5
100
AcDbLine
 10
597.6117108319261
 20
219.2651614627323
 30
0.0
 11
597.6117108319261
 21
221.4745516390414
 31
0.0
  0
LINE
  5
25C
330
1F
100
AcDbEntity
  8
3-2
  6
Continuous
 62
    92
370
     5
100
AcDbLine
 10
591.7931634026604
 20
218.0128685203761
 30
0.0
 11
610.5013460726354
 21
236.7210511903505
 31
0.0
  0
LINE
  5
25D
330
1F
100
AcDbEntity
  8
3-2
  6
Continuous
 62
    92
370
     5
100
AcDbLine
 10
570.5798999683276
 20
236.7210511903505
 30
0.0
 11
589.288330078125
 21
218.0128685203761
 31
0.0
  0
LINE
  5
25E
330
1F
100
AcDbEntity
  8
3-2
  6
Continuous
 62
    92
370
     5
100
AcDbLine
 10
576.3984473975933
 20
223.8314159496412
 30
0.0
 11
581.1124234586151
 21
223.8314159496412
 31
0.0
  0
LINE
  5
25F
330
1F
100
AcDbEntity
  8
3-2
  6
Continuous
 62
    92
370
     5
100
AcDbLine
 10
576.3984473975933
 20
223.8314159496412
 30
0.0
 11
576.3984473975933
 21
228.5456394504857
 31
0.0
  0
LINE
  5
260
330
1F
100
AcDbEntity
  8
3-2
  6
JWW_CENTER1
 62
    92
370
     5
100
AcDbLine
 10
539.0100427576016
 20
237.9735915725297
 30
0.0
 11
553.8740003431167
 21
237.9735915725297
 31
0.0
  0
LINE
  5
261
330
1F
100
AcDbEntity
  8
3-2
  6
JWW_CENTER1
 62
    92
370
     5
100
AcDbLine
 10
627.2074931376693
 20
237.9735915725297
 30
0.0
 11
641.7067244246203
 21
237.9735915725297
 31
0.0
  0
LINE
  5
262
330
1F
100
AcDbEntity
  8
3-2
  6
JWW_CENTER1
 62
    92
370
     5
100
AcDbLine
 10
590.5406230204818
 20
201.3067214553422
 30
0.0
 11
590.5406230204818
 21
186.449444745038
 31
0.0
  0
LINE
  5
263
330
1F
100
AcDbEntity
  8
3-2
  6
JWW_CENTER1
 62
    92
370
     5
100
AcDbLine
 10
590.5406230204818
 20
291.534415580131
 30
0.0
 11
590.5406230204818
 21
274.6402142498945
 31
0.0
  0
LINE
  5
264
330
1F
100
AcDbEntity
  8
3-2
  6
Continuous
 62
    92
370
     5
100
AcDbLine
 10
785.8265644795188
 20
252.1155197555956
 30
0.0
 11
795.2545166015625
 21
252.1155197555956
 31
0.0
  0
LINE
  5
265
330
1F
100
AcDbEntity
  8
3-2
  6
Continuous
 62
    92
370
     5
100
AcDbLine
 10
790.5405405405406
 20
247.4015436945737
 30
0.0
 11
790.5405405405406
 21
256.8297432564401
 31
0.0
  0
LINE
  5
266
330
1F
100
AcDbEntity
  8
3-2
  6
Continuous
 62
    92
370
     5
100
AcDbLine
 10
778.7554766680745
 20
245.044679383974
 30
0.0
 11
788.1836762299412
 21
245.044679383974
 31
0.0
  0
LINE
  5
267
330
1F
100
AcDbEntity
  8
3-2
  6
Continuous
 62
    92
370
     5
100
AcDbLine
 10
783.4694527290964
 20
240.3307033229518
 30
0.0
 11
783.4694527290964
 21
249.7586554449958
 31
0.0
  0
LINE
  5
268
330
1F
100
AcDbEntity
  8
3-2
  6
Continuous
 62
    92
370
     5
100
AcDbLine
 10
792.897652290963
 20
245.044679383974
 30
0.0
 11
802.3256044130068
 21
245.044679383974
 31
0.0
  0
LINE
  5
269
330
1F
100
AcDbEntity
  8
3-2
  6
Continuous
 62
    92
370
     5
100
AcDbLine
 10
797.6116283519849
 20
240.3307033229518
 30
0.0
 11
797.6116283519849
 21
249.7586554449958
 31
0.0
  0
LINE
  5
26A
330
1F
100
AcDbEntity
  8
3-2
  6
Continuous
 62
    92
370
     5
100
AcDbLine
 10
785.8265644795188
 20
237.9735915725297
 30
0.0
 11
795.2545166015625
 21
237.9735915725297
 31
0.0
  0
LINE
  5
26B
330
1F
100
AcDbEntity
  8
3-2
  6
Continuous
 62
    92
370
     5
100
AcDbLine
 10
790.5405405405406
 20
233.2596155115078
 30
0.0
 11
790.5405405405406
 21
242.6875676335516
 31
0.0
  0
LINE
  5
26C
330
1F
100
AcDbEntity
  8
3-2
  6
Continuous
 62
    92
370
     5
100
AcDbLine
 10
771.6843888566302
 20
237.9735915725297
 30
0.0
 11
781.112340978674
 21
237.9735915725297
 31
0.0
  0
LINE
  5
26D
330
1F
100
AcDbEntity
  8
3-2
  6
Continuous
 62
    92
370
     5
100
AcDbLine
 10
776.3983649176521
 20
233.2596155115078
 30
0.0
 11
776.3983649176521
 21
242.6875676335516
 31
0.0
  0
LINE
  5
26E
330
1F
100
AcDbEntity
  8
3-2
  6
Continuous
 62
    92
370
     5
100
AcDbLine
 10
778.7554766680745
 20
230.9025037610854
 30
0.0
 11
788.1836762299412
 21
230.9025037610854
 31
0.0
  0
LINE
  5
26F
330
1F
100
AcDbEntity
  8
3-2
  6
Continuous
 62
    92
370
     5
100
AcDbLine
 10
783.4694527290964
 20
226.1885277000636
 30
0.0
 11
783.4694527290964
 21
235.6164798221073
 31
0.0
  0
LINE
  5
270
330
1F
100
AcDbEntity
  8
3-2
  6
Continuous
 62
    92
370
     5
100
AcDbLine
 10
799.9687401024073
 20
237.9735915725297
 30
0.0
 11
809.396692224451
 21
237.9735915725297
 31
0.0
  0
LINE
  5
271
330
1F
100
AcDbEntity
  8
3-2
  6
Continuous
 62
    92
370
     5
100
AcDbLine
 10
804.6827161634292
 20
233.2596155115078
 30
0.0
 11
804.6827161634292
 21
242.6875676335516
 31
0.0
  0
LINE
  5
272
330
1F
100
AcDbEntity
  8
3-2
  6
Continuous
 62
    92
370
     5
100
AcDbLine
 10
792.897652290963
 20
230.9025037610854
 30
0.0
 11
802.3256044130068
 21
230.9025037610854
 31
0.0
  0
LINE
  5
273
330
1F
100
AcDbEntity
  8
3-2
  6
Continuous
 62
    92
370
     5
100
AcDbLine
 10
797.6116283519849
 20
226.1885277000636
 30
0.0
 11
797.6116283519849
 21
235.6164798221073
 31
0.0
  0
LINE
  5
274
330
1F
100
AcDbEntity
  8
3-2
  6
Continuous
 62
    92
370
     5
100
AcDbLine
 10
785.8265644795188
 20
223.8314159496412
 30
0.0
 11
795.2545166015625
 21
223.8314159496412
 31
0.0
  0
LINE
  5
275
330
1F
100
AcDbEntity
  8
3-2
  6
Continuous
 62
    92
370
     5
100
AcDbLine
 10
790.5405405405406
 20
219.1174398886193
 30
0.0
 11
790.5405405405406
 21
228.545392010663
 31
0.0
  0
LINE
  5
276
330
1F
100
AcDbEntity
  8
3-2
  6
Continuous
 62
    92
370
     5
100
AcDbLine
 10
783.4694527290964
 20
219.2183953362544
 30
0.0
 11
783.4694527290964
 21
221.4745516390414
 31
0.0
  0
LINE
  5
277
330
1F
100
AcDbEntity
  8
3-2
  6
Continuous
 62
    92
370
     5
100
AcDbLine
 10
771.8323578705662
 20
230.9025037610854
 30
0.0
 11
774.0415006070526
 21
230.9025037610854
 31
0.0
  0
LINE
  5
278
330
1F
100
AcDbEntity
  8
3-2
  6
Continuous
 62
    92
370
     5
100
AcDbLine
 10
771.8323578705662
 20
245.044679383974
 30
0.0
 11
774.0415006070526
 21
245.044679383974
 31
0.0
  0
LINE
  5
279
330
1F
100
AcDbEntity
  8
3-2
  6
Continuous
 62
    92
370
     5
100
AcDbLine
 10
773.312048009924
 20
248.1309962917018
 30
0.0
 11
800.7273905986068
 21
220.7154062631969
 31
0.0
  0
LINE
  5
27A
330
1F
100
AcDbEntity
  8
3-2
  6
Continuous
 62
    92
370
     5
100
AcDbLine
 10
776.3983649176521
 20
247.4015436945737
 30
0.0
 11
776.3983649176521
 21
252.1155197555956
 31
0.0
  0
LINE
  5
27B
330
1F
100
AcDbEntity
  8
3-2
  6
Continuous
 62
    92
370
     5
100
AcDbLine
 10
776.398612357475
 20
252.1157671954182
 30
0.0
 11
781.112340978674
 21
252.1157671954182
 31
0.0
  0
LINE
  5
27C
330
1F
100
AcDbEntity
  8
3-2
  6
Continuous
 62
    92
370
     5
100
AcDbLine
 10
783.4694527290964
 20
254.4726315060177
 30
0.0
 11
783.4694527290964
 21
256.6817742425044
 31
0.0
  0
LINE
  5
27D
330
1F
100
AcDbEntity
  8
3-2
  6
Continuous
 62
    92
370
     5
100
AcDbLine
 10
770.5830342060813
 20
239.2288537927578
 30
0.0
 11
789.2882475981844
 21
257.9343146246833
 31
0.0
  0
LINE
  5
27E
330
1F
100
AcDbEntity
  8
3-2
  6
Continuous
 62
    92
370
     5
100
AcDbLine
 10
797.6116283519849
 20
254.4726315060177
 30
0.0
 11
797.6116283519849
 21
256.6817742425044
 31
0.0
  0
LINE
  5
27F
330
1F
100
AcDbEntity
  8
3-2
  6
Continuous
 62
    92
370
     5
100
AcDbLine
 10
773.2947272223396
 20
227.7986186259503
 30
0.0
 11
800.6981926995354
 21
255.2020841031461
 31
0.0
  0
LINE
  5
280
330
1F
100
AcDbEntity
  8
3-2
  6
Continuous
 62
    92
370
     5
100
AcDbLine
 10
799.9687401024073
 20
252.1157671954182
 30
0.0
 11
804.6827161634292
 21
252.1157671954182
 31
0.0
  0
LINE
  5
281
330
1F
100
AcDbEntity
  8
3-2
  6
Continuous
 62
    92
370
     5
100
AcDbLine
 10
804.6827161634292
 20
247.4015436945737
 30
0.0
 11
804.6827161634292
 21
252.1155197555956
 31
0.0
  0
LINE
  5
282
330
1F
100
AcDbEntity
  8
3-2
  6
Continuous
 62
    92
370
     5
100
AcDbLine
 10
807.0395804740286
 20
245.044679383974
 30
0.0
 11
809.2487232105151
 21
245.044679383974
 31
0.0
  0
LINE
  5
283
330
1F
100
AcDbEntity
  8
3-2
  6
Continuous
 62
    92
370
     5
100
AcDbLine
 10
791.7928334828969
 20
257.9343146246833
 30
0.0
 11
810.5012635926943
 21
239.2258845148859
 31
0.0
  0
LINE
  5
284
330
1F
100
AcDbEntity
  8
3-2
  6
Continuous
 62
    92
370
     5
100
AcDbLine
 10
780.353690482475
 20
220.7154062631969
 30
0.0
 11
807.7692805109797
 21
248.1309962917018
 31
0.0
  0
LINE
  5
285
330
1F
100
AcDbEntity
  8
3-2
  6
Continuous
 62
    92
370
     5
100
AcDbLine
 10
807.0395804740286
 20
230.9025037610854
 30
0.0
 11
809.248970650338
 21
230.9025037610854
 31
0.0
  0
LINE
  5
286
330
1F
100
AcDbEntity
  8
3-2
  6
Continuous
 62
    92
370
     5
100
AcDbLine
 10
780.3828883815459
 20
255.2020841031461
 30
0.0
 11
807.7690330711573
 21
227.8159394135346
 31
0.0
  0
LINE
  5
287
330
1F
100
AcDbEntity
  8
3-2
  6
Continuous
 62
    92
370
     5
100
AcDbLine
 10
804.6827161634292
 20
223.8314159496412
 30
0.0
 11
804.6827161634292
 21
228.5456394504857
 31
0.0
  0
LINE
  5
288
330
1F
100
AcDbEntity
  8
3-2
  6
Continuous
 62
    92
370
     5
100
AcDbLine
 10
799.9687401024073
 20
223.8314159496412
 30
0.0
 11
804.6829636032521
 21
223.8314159496412
 31
0.0
  0
LINE
  5
289
330
1F
100
AcDbEntity
  8
3-2
  6
Continuous
 62
    92
370
     5
100
AcDbLine
 10
797.6116283519849
 20
219.2651614627323
 30
0.0
 11
797.6116283519849
 21
221.4745516390414
 31
0.0
  0
LINE
  5
28A
330
1F
100
AcDbEntity
  8
3-2
  6
Continuous
 62
    92
370
     5
100
AcDbLine
 10
791.7930809227198
 20
218.0128685203761
 30
0.0
 11
810.5012635926943
 21
236.7210511903505
 31
0.0
  0
LINE
  5
28B
330
1F
100
AcDbEntity
  8
3-2
  6
Continuous
 62
    92
370
     5
100
AcDbLine
 10
770.579817488387
 20
236.7210511903505
 30
0.0
 11
789.2882475981844
 21
218.0128685203761
 31
0.0
  0
LINE
  5
28C
330
1F
100
AcDbEntity
  8
3-2
  6
Continuous
 62
    92
370
     5
100
AcDbLine
 10
776.3983649176521
 20
223.8314159496412
 30
0.0
 11
781.112340978674
 21
223.8314159496412
 31
0.0
  0
LINE
  5
28D
330
1F
100
AcDbEntity
  8
3-2
  6
Continuous
 62
    92
370
     5
100
AcDbLine
 10
776.3983649176521
 20
223.8314159496412
 30
0.0
 11
776.3983649176521
 21
228.5456394504857
 31
0.0
  0
LINE
  5
28E
330
1F
100
AcDbEntity
  8
3-2
  6
JWW_CENTER1
 62
    92
370
     5
100
AcDbLine
 10
739.0099602776604
 20
237.9735915725297
 30
0.0
 11
753.8739178631761
 21
237.9735915725297
 31
0.0
  0
LINE
  5
28F
330
1F
100
AcDbEntity
  8
3-2
  6
JWW_CENTER1
 62
    92
370
     5
100
AcDbLine
 10
827.2074106577281
 20
237.9735915725297
 30
0.0
 11
841.7066419446792
 21
237.9735915725297
 31
0.0
  0
LINE
  5
290
330
1F
100
AcDbEntity
  8
3-2
  6
JWW_CENTER1
 62
    92
370
     5
100
AcDbLine
 10
790.5405405405406
 20
201.3067214553422
 30
0.0
 11
790.5405405405406
 21
186.449444745038
 31
0.0
  0
LINE
  5
291
330
1F
100
AcDbEntity
  8
3-2
  6
JWW_CENTER1
 62
    92
370
     5
100
AcDbLine
 10
790.5405405405406
 20
291.534415580131
 30
0.0
 11
790.5405405405406
 21
274.6402142498945
 31
0.0
  0
LINE
  5
292
330
1F
100
AcDbEntity
  8
3-2
  6
Continuous
 62
    92
370
     5
100
AcDbLine
 10
-14.17335304054035
 20
452.1154372756547
 30
0.0
 11
-4.745400918496614
 21
452.1154372756547
 31
0.0
  0
LINE
  5
293
330
1F
100
AcDbEntity
  8
3-2
  6
Continuous
 62
    92
370
     5
100
AcDbLine
 10
-9.459376979518481
 20
447.4014612146328
 30
0.0
 11
-9.459376979518481
 21
456.8296607764992
 31
0.0
  0
LINE
  5
294
330
1F
100
AcDbEntity
  8
3-2
  6
Continuous
 62
    92
370
     5
100
AcDbLine
 10
-21.24444085198462
 20
445.0445969040331
 30
0.0
 11
-11.81624129011823
 21
445.0445969040331
 31
0.0
  0
LINE
  5
295
330
1F
100
AcDbEntity
  8
3-2
  6
Continuous
 62
    92
370
     5
100
AcDbLine
 10
-16.53046479096275
 20
440.3306208430112
 30
0.0
 11
-16.53046479096275
 21
449.758572965055
 31
0.0
  0
LINE
  5
296
330
1F
100
AcDbEntity
  8
3-2
  6
Continuous
 62
    92
370
     5
100
AcDbLine
 10
-7.102265229096076
 20
445.0445969040331
 30
0.0
 11
2.325686892947658
 21
445.0445969040331
 31
0.0
  0
LINE
  5
297
330
1F
100
AcDbEntity
  8
3-2
  6
Continuous
 62
    92
370
     5
100
AcDbLine
 10
-2.388289168074209
 20
440.3306208430112
 30
0.0
 11
-2.388289168074209
 21
449.758572965055
 31
0.0
  0
LINE
  5
298
330
1F
100
AcDbEntity
  8
3-2
  6
Continuous
 62
    92
370
     5
100
AcDbLine
 10
-14.17335304054035
 20
437.9735090925888
 30
0.0
 11
-4.745400918496614
 21
437.9735090925888
 31
0.0
  0
LINE
  5
299
330
1F
100
AcDbEntity
  8
3-2
  6
Continuous
 62
    92
370
     5
100
AcDbLine
 10
-9.459376979518481
 20
433.2595330315669
 30
0.0
 11
-9.459376979518481
 21
442.6874851536107
 31
0.0
  0
LINE
  5
29A
330
1F
100
AcDbEntity
  8
3-2
  6
Continuous
 62
    92
370
     5
100
AcDbLine
 10
-28.31552866342889
 20
437.9735090925888
 30
0.0
 11
-18.88757654138516
 21
437.9735090925888
 31
0.0
  0
LINE
  5
29B
330
1F
100
AcDbEntity
  8
3-2
  6
Continuous
 62
    92
370
     5
100
AcDbLine
 10
-23.60155260240703
 20
433.2595330315669
 30
0.0
 11
-23.60155260240703
 21
442.6874851536107
 31
0.0
  0
LINE
  5
29C
330
1F
100
AcDbEntity
  8
3-2
  6
Continuous
 62
    92
370
     5
100
AcDbLine
 10
-21.24444085198462
 20
430.9024212811445
 30
0.0
 11
-11.81624129011823
 21
430.9024212811445
 31
0.0
  0
LINE
  5
29D
330
1F
100
AcDbEntity
  8
3-2
  6
Continuous
 62
    92
370
     5
100
AcDbLine
 10
-16.53046479096275
 20
426.1884452201227
 30
0.0
 11
-16.53046479096275
 21
435.6163973421664
 31
0.0
  0
LINE
  5
29E
330
1F
100
AcDbEntity
  8
3-2
  6
Continuous
 62
    92
370
     5
100
AcDbLine
 10
-0.0311774176518043
 20
437.9735090925888
 30
0.0
 11
9.39677470439193
 21
437.9735090925888
 31
0.0
  0
LINE
  5
29F
330
1F
100
AcDbEntity
  8
3-2
  6
Continuous
 62
    92
370
     5
100
AcDbLine
 10
4.682798643370063
 20
433.2595330315669
 30
0.0
 11
4.682798643370063
 21
442.6874851536107
 31
0.0
  0
LINE
  5
2A0
330
1F
100
AcDbEntity
  8
3-2
  6
Continuous
 62
    92
370
     5
100
AcDbLine
 10
-7.102265229096076
 20
430.9024212811445
 30
0.0
 11
2.325686892947658
 21
430.9024212811445
 31
0.0
  0
LINE
  5
2A1
330
1F
100
AcDbEntity
  8
3-2
  6
Continuous
 62
    92
370
     5
100
AcDbLine
 10
-2.388289168074209
 20
426.1884452201227
 30
0.0
 11
-2.388289168074209
 21
435.6163973421664
 31
0.0
  0
LINE
  5
2A2
330
1F
100
AcDbEntity
  8
3-2
  6
Continuous
 62
    92
370
     5
100
AcDbLine
 10
-14.17335304054035
 20
423.8313334697003
 30
0.0
 11
-4.745400918496614
 21
423.8313334697003
 31
0.0
  0
LINE
  5
2A3
330
1F
100
AcDbEntity
  8
3-2
  6
Continuous
 62
    92
370
     5
100
AcDbLine
 10
-9.459376979518481
 20
419.1173574086784
 30
0.0
 11
-9.459376979518481
 21
428.5453095307221
 31
0.0
  0
LINE
  5
2A4
330
1F
100
AcDbEntity
  8
3-2
  6
Continuous
 62
    92
370
     5
100
AcDbLine
 10
-16.53046479096275
 20
419.2183128563136
 30
0.0
 11
-16.53046479096275
 21
421.4744691591005
 31
0.0
  0
LINE
  5
2A5
330
1F
100
AcDbEntity
  8
3-2
  6
Continuous
 62
    92
370
     5
100
AcDbLine
 10
-28.16768336940441
 20
430.9024212811445
 30
0.0
 11
-25.95841691300677
 21
430.9024212811445
 31
0.0
  0
LINE
  5
2A6
330
1F
100
AcDbEntity
  8
3-2
  6
Continuous
 62
    92
370
     5
100
AcDbLine
 10
-28.16755964949323
 20
445.0445969040331
 30
0.0
 11
-25.95841691300677
 21
445.0445969040331
 31
0.0
  0
LINE
  5
2A7
330
1F
100
AcDbEntity
  8
3-2
  6
Continuous
 62
    92
370
     5
100
AcDbLine
 10
-26.68799323004635
 20
448.1309138117612
 30
0.0
 11
0.7274730785474048
 21
420.715323783256
 31
0.0
  0
LINE
  5
2A8
330
1F
100
AcDbEntity
  8
3-2
  6
Continuous
 62
    92
370
     5
100
AcDbLine
 10
-23.60155260240703
 20
447.4014612146328
 30
0.0
 11
-23.60155260240703
 21
452.1154372756547
 31
0.0
  0
LINE
  5
2A9
330
1F
100
AcDbEntity
  8
3-2
  6
Continuous
 62
    92
370
     5
100
AcDbLine
 10
-23.60130516258437
 20
452.1156847154774
 30
0.0
 11
-18.88757654138516
 21
452.1156847154774
 31
0.0
  0
LINE
  5
2AA
330
1F
100
AcDbEntity
  8
3-2
  6
Continuous
 62
    92
370
     5
100
AcDbLine
 10
-16.53046479096275
 20
454.4725490260771
 30
0.0
 11
-16.53046479096275
 21
456.6816917625636
 31
0.0
  0
LINE
  5
2AB
330
1F
100
AcDbEntity
  8
3-2
  6
Continuous
 62
    92
370
     5
100
AcDbLine
 10
-29.41688331397785
 20
439.2287713128169
 30
0.0
 11
-10.711669921875
 21
457.9342321447425
 31
0.0
  0
LINE
  5
2AC
330
1F
100
AcDbEntity
  8
3-2
  6
Continuous
 62
    92
370
     5
100
AcDbLine
 10
-2.388289168074209
 20
454.4725490260771
 30
0.0
 11
-2.388289168074209
 21
456.6816917625636
 31
0.0
  0
LINE
  5
2AD
330
1F
100
AcDbEntity
  8
3-2
  6
Continuous
 62
    92
370
     5
100
AcDbLine
 10
-26.70519029771953
 20
427.7985361460094
 30
0.0
 11
0.6982751794765818
 21
455.2020016232052
 31
0.0
  0
LINE
  5
2AE
330
1F
100
AcDbEntity
  8
3-2
  6
Continuous
 62
    92
370
     5
100
AcDbLine
 10
-0.0311774176518043
 20
452.1156847154774
 30
0.0
 11
4.682798643370063
 21
452.1156847154774
 31
0.0
  0
LINE
  5
2AF
330
1F
100
AcDbEntity
  8
3-2
  6
Continuous
 62
    92
370
     5
100
AcDbLine
 10
4.682798643370063
 20
447.4014612146328
 30
0.0
 11
4.682798643370063
 21
452.1154372756547
 31
0.0
  0
LINE
  5
2B0
330
1F
100
AcDbEntity
  8
3-2
  6
Continuous
 62
    92
370
     5
100
AcDbLine
 10
7.03966295396981
 20
445.0445969040331
 30
0.0
 11
9.248805690456265
 21
445.0445969040331
 31
0.0
  0
LINE
  5
2B1
330
1F
100
AcDbEntity
  8
3-2
  6
Continuous
 62
    92
370
     5
100
AcDbLine
 10
-8.207084037161962
 20
457.9342321447425
 30
0.0
 11
10.50134607263516
 21
439.2258020349453
 31
0.0
  0
LINE
  5
2B2
330
1F
100
AcDbEntity
  8
3-2
  6
Continuous
 62
    92
370
     5
100
AcDbLine
 10
-19.64622703758437
 20
420.715323783256
 30
0.0
 11
7.769362990920854
 21
448.1309138117612
 31
0.0
  0
LINE
  5
2B3
330
1F
100
AcDbEntity
  8
3-2
  6
Continuous
 62
    92
370
     5
100
AcDbLine
 10
7.03966295396981
 20
430.9024212811445
 30
0.0
 11
9.249053130278924
 21
430.9024212811445
 31
0.0
  0
LINE
  5
2B4
330
1F
100
AcDbEntity
  8
3-2
  6
Continuous
 62
    92
370
     5
100
AcDbLine
 10
-19.61702913851326
 20
455.2020016232052
 30
0.0
 11
7.769115551098196
 21
427.8158569335938
 31
0.0
  0
LINE
  5
2B5
330
1F
100
AcDbEntity
  8
3-2
  6
Continuous
 62
    92
370
     5
100
AcDbLine
 10
4.682798643370063
 20
423.8313334697003
 30
0.0
 11
4.682798643370063
 21
428.5455569705448
 31
0.0
  0
LINE
  5
2B6
330
1F
100
AcDbEntity
  8
3-2
  6
Continuous
 62
    92
370
     5
100
AcDbLine
 10
-0.0311774176518043
 20
423.8313334697003
 30
0.0
 11
4.683046083192721
 21
423.8313334697003
 31
0.0
  0
LINE
  5
2B7
330
1F
100
AcDbEntity
  8
3-2
  6
Continuous
 62
    92
370
     5
100
AcDbLine
 10
-2.388289168074209
 20
419.2650789827914
 30
0.0
 11
-2.388289168074209
 21
421.4744691591005
 31
0.0
  0
LINE
  5
2B8
330
1F
100
AcDbEntity
  8
3-2
  6
Continuous
 62
    92
370
     5
100
AcDbLine
 10
-8.206836597339304
 20
418.0127860404352
 30
0.0
 11
10.50134607263516
 21
436.7209687104096
 31
0.0
  0
LINE
  5
2B9
330
1F
100
AcDbEntity
  8
3-2
  6
Continuous
 62
    92
370
     5
100
AcDbLine
 10
-29.42010003167212
 20
436.7209687104096
 30
0.0
 11
-10.711669921875
 21
418.0127860404352
 31
0.0
  0
LINE
  5
2BA
330
1F
100
AcDbEntity
  8
3-2
  6
Continuous
 62
    92
370
     5
100
AcDbLine
 10
-23.60155260240703
 20
423.8313334697003
 30
0.0
 11
-18.88757654138516
 21
423.8313334697003
 31
0.0
  0
LINE
  5
2BB
330
1F
100
AcDbEntity
  8
3-2
  6
Continuous
 62
    92
370
     5
100
AcDbLine
 10
-23.60155260240703
 20
423.8313334697003
 30
0.0
 11
-23.60155260240703
 21
428.5455569705448
 31
0.0
  0
LINE
  5
2BC
330
1F
100
AcDbEntity
  8
3-2
  6
JWW_CENTER1
 62
    92
370
     5
100
AcDbLine
 10
-60.98995724239842
 20
437.9735090925888
 30
0.0
 11
-46.12599965688332
 21
437.9735090925888
 31
0.0
  0
LINE
  5
2BD
330
1F
100
AcDbEntity
  8
3-2
  6
JWW_CENTER1
 62
    92
370
     5
100
AcDbLine
 10
27.20749313766902
 20
437.9735090925888
 30
0.0
 11
41.70672442462006
 21
437.9735090925888
 31
0.0
  0
LINE
  5
2BE
330
1F
100
AcDbEntity
  8
3-2
  6
JWW_CENTER1
 62
    92
370
     5
100
AcDbLine
 10
-9.459376979518481
 20
401.3066389754013
 30
0.0
 11
-9.459376979518481
 21
386.4493622650971
 31
0.0
  0
LINE
  5
2BF
330
1F
100
AcDbEntity
  8
3-2
  6
JWW_CENTER1
 62
    92
370
     5
100
AcDbLine
 10
-9.459376979518481
 20
491.5343331001901
 30
0.0
 11
-9.459376979518481
 21
474.6401317699537
 31
0.0
  0
LINE
  5
2C0
330
1F
100
AcDbEntity
  8
3-2
  6
Continuous
 62
    92
370
     5
100
AcDbLine
 10
185.8265644795188
 20
452.1154372756547
 30
0.0
 11
195.2545166015625
 21
452.1154372756547
 31
0.0
  0
LINE
  5
2C1
330
1F
100
AcDbEntity
  8
3-2
  6
Continuous
 62
    92
370
     5
100
AcDbLine
 10
190.5405405405406
 20
447.4014612146328
 30
0.0
 11
190.5405405405406
 21
456.8296607764992
 31
0.0
  0
LINE
  5
2C2
330
1F
100
AcDbEntity
  8
3-2
  6
Continuous
 62
    92
370
     5
100
AcDbLine
 10
178.7554766680745
 20
445.0445969040331
 30
0.0
 11
188.1836762299409
 21
445.0445969040331
 31
0.0
  0
LINE
  5
2C3
330
1F
100
AcDbEntity
  8
3-2
  6
Continuous
 62
    92
370
     5
100
AcDbLine
 10
183.4694527290964
 20
440.3306208430112
 30
0.0
 11
183.4694527290964
 21
449.758572965055
 31
0.0
  0
LINE
  5
2C4
330
1F
100
AcDbEntity
  8
3-2
  6
Continuous
 62
    92
370
     5
100
AcDbLine
 10
192.897652290963
 20
445.0445969040331
 30
0.0
 11
202.3256044130068
 21
445.0445969040331
 31
0.0
  0
LINE
  5
2C5
330
1F
100
AcDbEntity
  8
3-2
  6
Continuous
 62
    92
370
     5
100
AcDbLine
 10
197.6116283519849
 20
440.3306208430112
 30
0.0
 11
197.6116283519849
 21
449.758572965055
 31
0.0
  0
LINE
  5
2C6
330
1F
100
AcDbEntity
  8
3-2
  6
Continuous
 62
    92
370
     5
100
AcDbLine
 10
185.8265644795188
 20
437.9735090925888
 30
0.0
 11
195.2545166015625
 21
437.9735090925888
 31
0.0
  0
LINE
  5
2C7
330
1F
100
AcDbEntity
  8
3-2
  6
Continuous
 62
    92
370
     5
100
AcDbLine
 10
190.5405405405406
 20
433.2595330315669
 30
0.0
 11
190.5405405405406
 21
442.6874851536107
 31
0.0
  0
LINE
  5
2C8
330
1F
100
AcDbEntity
  8
3-2
  6
Continuous
 62
    92
370
     5
100
AcDbLine
 10
171.6843888566302
 20
437.9735090925888
 30
0.0
 11
181.1123409786742
 21
437.9735090925888
 31
0.0
  0
LINE
  5
2C9
330
1F
100
AcDbEntity
  8
3-2
  6
Continuous
 62
    92
370
     5
100
AcDbLine
 10
176.3983649176521
 20
433.2595330315669
 30
0.0
 11
176.3983649176521
 21
442.6874851536107
 31
0.0
  0
LINE
  5
2CA
330
1F
100
AcDbEntity
  8
3-2
  6
Continuous
 62
    92
370
     5
100
AcDbLine
 10
178.7554766680745
 20
430.9024212811445
 30
0.0
 11
188.1836762299409
 21
430.9024212811445
 31
0.0
  0
LINE
  5
2CB
330
1F
100
AcDbEntity
  8
3-2
  6
Continuous
 62
    92
370
     5
100
AcDbLine
 10
183.4694527290964
 20
426.1884452201227
 30
0.0
 11
183.4694527290964
 21
435.6163973421664
 31
0.0
  0
LINE
  5
2CC
330
1F
100
AcDbEntity
  8
3-2
  6
Continuous
 62
    92
370
     5
100
AcDbLine
 10
199.9687401024073
 20
437.9735090925888
 30
0.0
 11
209.396692224451
 21
437.9735090925888
 31
0.0
  0
LINE
  5
2CD
330
1F
100
AcDbEntity
  8
3-2
  6
Continuous
 62
    92
370
     5
100
AcDbLine
 10
204.6827161634292
 20
433.2595330315669
 30
0.0
 11
204.6827161634292
 21
442.6874851536107
 31
0.0
  0
LINE
  5
2CE
330
1F
100
AcDbEntity
  8
3-2
  6
Continuous
 62
    92
370
     5
100
AcDbLine
 10
192.897652290963
 20
430.9024212811445
 30
0.0
 11
202.3256044130068
 21
430.9024212811445
 31
0.0
  0
LINE
  5
2CF
330
1F
100
AcDbEntity
  8
3-2
  6
Continuous
 62
    92
370
     5
100
AcDbLine
 10
197.6116283519849
 20
426.1884452201227
 30
0.0
 11
197.6116283519849
 21
435.6163973421664
 31
0.0
  0
LINE
  5
2D0
330
1F
100
AcDbEntity
  8
3-2
  6
Continuous
 62
    92
370
     5
100
AcDbLine
 10
185.8265644795188
 20
423.8313334697003
 30
0.0
 11
195.2545166015625
 21
423.8313334697003
 31
0.0
  0
LINE
  5
2D1
330
1F
100
AcDbEntity
  8
3-2
  6
Continuous
 62
    92
370
     5
100
AcDbLine
 10
190.5405405405406
 20
419.1173574086784
 30
0.0
 11
190.5405405405406
 21
428.5453095307221
 31
0.0
  0
LINE
  5
2D2
330
1F
100
AcDbEntity
  8
3-2
  6
Continuous
 62
    92
370
     5
100
AcDbLine
 10
183.4694527290964
 20
419.2183128563136
 30
0.0
 11
183.4694527290964
 21
421.4744691591005
 31
0.0
  0
LINE
  5
2D3
330
1F
100
AcDbEntity
  8
3-2
  6
Continuous
 62
    92
370
     5
100
AcDbLine
 10
171.8323578705659
 20
430.9024212811445
 30
0.0
 11
174.0415006070526
 21
430.9024212811445
 31
0.0
  0
LINE
  5
2D4
330
1F
100
AcDbEntity
  8
3-2
  6
Continuous
 62
    92
370
     5
100
AcDbLine
 10
171.8323578705659
 20
445.0445969040331
 30
0.0
 11
174.0415006070526
 21
445.0445969040331
 31
0.0
  0
LINE
  5
2D5
330
1F
100
AcDbEntity
  8
3-2
  6
Continuous
 62
    92
370
     5
100
AcDbLine
 10
173.3120480099242
 20
448.1309138117612
 30
0.0
 11
200.7273905986065
 21
420.715323783256
 31
0.0
  0
LINE
  5
2D6
330
1F
100
AcDbEntity
  8
3-2
  6
Continuous
 62
    92
370
     5
100
AcDbLine
 10
176.3983649176521
 20
447.4014612146328
 30
0.0
 11
176.3983649176521
 21
452.1154372756547
 31
0.0
  0
LINE
  5
2D7
330
1F
100
AcDbEntity
  8
3-2
  6
Continuous
 62
    92
370
     5
100
AcDbLine
 10
176.3986123574747
 20
452.1156847154774
 30
0.0
 11
181.1123409786742
 21
452.1156847154774
 31
0.0
  0
LINE
  5
2D8
330
1F
100
AcDbEntity
  8
3-2
  6
Continuous
 62
    92
370
     5
100
AcDbLine
 10
183.4694527290964
 20
454.4725490260771
 30
0.0
 11
183.4694527290964
 21
456.6816917625636
 31
0.0
  0
LINE
  5
2D9
330
1F
100
AcDbEntity
  8
3-2
  6
Continuous
 62
    92
370
     5
100
AcDbLine
 10
170.5830342060813
 20
439.2287713128169
 30
0.0
 11
189.2882475981841
 21
457.9342321447425
 31
0.0
  0
LINE
  5
2DA
330
1F
100
AcDbEntity
  8
3-2
  6
Continuous
 62
    92
370
     5
100
AcDbLine
 10
197.6116283519849
 20
454.4725490260771
 30
0.0
 11
197.6116283519849
 21
456.6816917625636
 31
0.0
  0
LINE
  5
2DB
330
1F
100
AcDbEntity
  8
3-2
  6
Continuous
 62
    92
370
     5
100
AcDbLine
 10
173.2947272223396
 20
427.7985361460094
 30
0.0
 11
200.6981926995357
 21
455.2020016232052
 31
0.0
  0
LINE
  5
2DC
330
1F
100
AcDbEntity
  8
3-2
  6
Continuous
 62
    92
370
     5
100
AcDbLine
 10
199.9687401024073
 20
452.1156847154774
 30
0.0
 11
204.6827161634292
 21
452.1156847154774
 31
0.0
  0
LINE
  5
2DD
330
1F
100
AcDbEntity
  8
3-2
  6
Continuous
 62
    92
370
     5
100
AcDbLine
 10
204.6827161634292
 20
447.4014612146328
 30
0.0
 11
204.6827161634292
 21
452.1154372756547
 31
0.0
  0
LINE
  5
2DE
330
1F
100
AcDbEntity
  8
3-2
  6
Continuous
 62
    92
370
     5
100
AcDbLine
 10
207.0395804740289
 20
445.0445969040331
 30
0.0
 11
209.2487232105154
 21
445.0445969040331
 31
0.0
  0
LINE
  5
2DF
330
1F
100
AcDbEntity
  8
3-2
  6
Continuous
 62
    92
370
     5
100
AcDbLine
 10
191.7928334828972
 20
457.9342321447425
 30
0.0
 11
210.5012635926943
 21
439.2258020349453
 31
0.0
  0
LINE
  5
2E0
330
1F
100
AcDbEntity
  8
3-2
  6
Continuous
 62
    92
370
     5
100
AcDbLine
 10
180.3536904824747
 20
420.715323783256
 30
0.0
 11
207.76928051098
 21
448.1309138117612
 31
0.0
  0
LINE
  5
2E1
330
1F
100
AcDbEntity
  8
3-2
  6
Continuous
 62
    92
370
     5
100
AcDbLine
 10
207.0395804740289
 20
430.9024212811445
 30
0.0
 11
209.248970650338
 21
430.9024212811445
 31
0.0
  0
LINE
  5
2E2
330
1F
100
AcDbEntity
  8
3-2
  6
Continuous
 62
    92
370
     5
100
AcDbLine
 10
180.3828883815459
 20
455.2020016232052
 30
0.0
 11
207.7690330711573
 21
427.8158569335938
 31
0.0
  0
LINE
  5
2E3
330
1F
100
AcDbEntity
  8
3-2
  6
Continuous
 62
    92
370
     5
100
AcDbLine
 10
204.6827161634292
 20
423.8313334697003
 30
0.0
 11
204.6827161634292
 21
428.5455569705448
 31
0.0
  0
LINE
  5
2E4
330
1F
100
AcDbEntity
  8
3-2
  6
Continuous
 62
    92
370
     5
100
AcDbLine
 10
199.9687401024073
 20
423.8313334697003
 30
0.0
 11
204.6829636032518
 21
423.8313334697003
 31
0.0
  0
LINE
  5
2E5
330
1F
100
AcDbEntity
  8
3-2
  6
Continuous
 62
    92
370
     5
100
AcDbLine
 10
197.6116283519849
 20
419.2650789827914
 30
0.0
 11
197.6116283519849
 21
421.4744691591005
 31
0.0
  0
LINE
  5
2E6
330
1F
100
AcDbEntity
  8
3-2
  6
Continuous
 62
    92
370
     5
100
AcDbLine
 10
191.7930809227198
 20
418.0127860404352
 30
0.0
 11
210.5012635926943
 21
436.7209687104096
 31
0.0
  0
LINE
  5
2E7
330
1F
100
AcDbEntity
  8
3-2
  6
Continuous
 62
    92
370
     5
100
AcDbLine
 10
170.579817488387
 20
436.7209687104096
 30
0.0
 11
189.2882475981841
 21
418.0127860404352
 31
0.0
  0
LINE
  5
2E8
330
1F
100
AcDbEntity
  8
3-2
  6
Continuous
 62
    92
370
     5
100
AcDbLine
 10
176.3983649176521
 20
423.8313334697003
 30
0.0
 11
181.1123409786742
 21
423.8313334697003
 31
0.0
  0
LINE
  5
2E9
330
1F
100
AcDbEntity
  8
3-2
  6
Continuous
 62
    92
370
     5
100
AcDbLine
 10
176.3983649176521
 20
423.8313334697003
 30
0.0
 11
176.3983649176521
 21
428.5455569705448
 31
0.0
  0
LINE
  5
2EA
330
1F
100
AcDbEntity
  8
3-2
  6
JWW_CENTER1
 62
    92
370
     5
100
AcDbLine
 10
139.0099602776607
 20
437.9735090925888
 30
0.0
 11
153.8739178631758
 21
437.9735090925888
 31
0.0
  0
LINE
  5
2EB
330
1F
100
AcDbEntity
  8
3-2
  6
JWW_CENTER1
 62
    92
370
     5
100
AcDbLine
 10
227.2074106577281
 20
437.9735090925888
 30
0.0
 11
241.7066419446792
 21
437.9735090925888
 31
0.0
  0
LINE
  5
2EC
330
1F
100
AcDbEntity
  8
3-2
  6
JWW_CENTER1
 62
    92
370
     5
100
AcDbLine
 10
190.5405405405406
 20
401.3066389754013
 30
0.0
 11
190.5405405405406
 21
386.4493622650971
 31
0.0
  0
LINE
  5
2ED
330
1F
100
AcDbEntity
  8
3-2
  6
JWW_CENTER1
 62
    92
370
     5
100
AcDbLine
 10
190.5405405405406
 20
491.5343331001901
 30
0.0
 11
190.5405405405406
 21
474.6401317699537
 31
0.0
  0
LINE
  5
2EE
330
1F
100
AcDbEntity
  8
3-2
  6
Continuous
 62
    92
370
     5
100
AcDbLine
 10
385.8267294394005
 20
452.1154372756547
 30
0.0
 11
395.2546815614443
 21
452.1154372756547
 31
0.0
  0
LINE
  5
2EF
330
1F
100
AcDbEntity
  8
3-2
  6
Continuous
 62
    92
370
     5
100
AcDbLine
 10
390.5407055004224
 20
447.4014612146328
 30
0.0
 11
390.5407055004224
 21
456.8296607764992
 31
0.0
  0
LINE
  5
2F0
330
1F
100
AcDbEntity
  8
3-2
  6
Continuous
 62
    92
370
     5
100
AcDbLine
 10
378.7556416279563
 20
445.0445969040331
 30
0.0
 11
388.1838411898227
 21
445.0445969040331
 31
0.0
  0
LINE
  5
2F1
330
1F
100
AcDbEntity
  8
3-2
  6
Continuous
 62
    92
370
     5
100
AcDbLine
 10
383.4696176889781
 20
440.3306208430112
 30
0.0
 11
383.4696176889781
 21
449.758572965055
 31
0.0
  0
LINE
  5
2F2
330
1F
100
AcDbEntity
  8
3-2
  6
Continuous
 62
    92
370
     5
100
AcDbLine
 10
392.8978172508448
 20
445.0445969040331
 30
0.0
 11
402.3257693728885
 21
445.0445969040331
 31
0.0
  0
LINE
  5
2F3
330
1F
100
AcDbEntity
  8
3-2
  6
Continuous
 62
    92
370
     5
100
AcDbLine
 10
397.6117933118667
 20
440.3306208430112
 30
0.0
 11
397.6117933118667
 21
449.758572965055
 31
0.0
  0
LINE
  5
2F4
330
1F
100
AcDbEntity
  8
3-2
  6
Continuous
 62
    92
370
     5
100
AcDbLine
 10
385.8267294394005
 20
437.9735090925888
 30
0.0
 11
395.2546815614443
 21
437.9735090925888
 31
0.0
  0
LINE
  5
2F5
330
1F
100
AcDbEntity
  8
3-2
  6
Continuous
 62
    92
370
     5
100
AcDbLine
 10
390.5407055004224
 20
433.2595330315669
 30
0.0
 11
390.5407055004224
 21
442.6874851536107
 31
0.0
  0
LINE
  5
2F6
330
1F
100
AcDbEntity
  8
3-2
  6
Continuous
 62
    92
370
     5
100
AcDbLine
 10
371.684553816512
 20
437.9735090925888
 30
0.0
 11
381.112505938556
 21
437.9735090925888
 31
0.0
  0
LINE
  5
2F7
330
1F
100
AcDbEntity
  8
3-2
  6
Continuous
 62
    92
370
     5
100
AcDbLine
 10
376.3985298775339
 20
433.2595330315669
 30
0.0
 11
376.3985298775339
 21
442.6874851536107
 31
0.0
  0
LINE
  5
2F8
330
1F
100
AcDbEntity
  8
3-2
  6
Continuous
 62
    92
370
     5
100
AcDbLine
 10
378.7556416279563
 20
430.9024212811445
 30
0.0
 11
388.1838411898227
 21
430.9024212811445
 31
0.0
  0
LINE
  5
2F9
330
1F
100
AcDbEntity
  8
3-2
  6
Continuous
 62
    92
370
     5
100
AcDbLine
 10
383.4696176889781
 20
426.1884452201227
 30
0.0
 11
383.4696176889781
 21
435.6163973421664
 31
0.0
  0
LINE
  5
2FA
330
1F
100
AcDbEntity
  8
3-2
  6
Continuous
 62
    92
370
     5
100
AcDbLine
 10
399.9689050622891
 20
437.9735090925888
 30
0.0
 11
409.3968571843328
 21
437.9735090925888
 31
0.0
  0
LINE
  5
2FB
330
1F
100
AcDbEntity
  8
3-2
  6
Continuous
 62
    92
370
     5
100
AcDbLine
 10
404.6828811233109
 20
433.2595330315669
 30
0.0
 11
404.6828811233109
 21
442.6874851536107
 31
0.0
  0
LINE
  5
2FC
330
1F
100
AcDbEntity
  8
3-2
  6
Continuous
 62
    92
370
     5
100
AcDbLine
 10
392.8978172508448
 20
430.9024212811445
 30
0.0
 11
402.3257693728885
 21
430.9024212811445
 31
0.0
  0
LINE
  5
2FD
330
1F
100
AcDbEntity
  8
3-2
  6
Continuous
 62
    92
370
     5
100
AcDbLine
 10
397.6117933118667
 20
426.1884452201227
 30
0.0
 11
397.6117933118667
 21
435.6163973421664
 31
0.0
  0
LINE
  5
2FE
330
1F
100
AcDbEntity
  8
3-2
  6
Continuous
 62
    92
370
     5
100
AcDbLine
 10
385.8267294394005
 20
423.8313334697003
 30
0.0
 11
395.2546815614443
 21
423.8313334697003
 31
0.0
  0
LINE
  5
2FF
330
1F
100
AcDbEntity
  8
3-2
  6
Continuous
 62
    92
370
     5
100
AcDbLine
 10
390.5407055004224
 20
419.1173574086784
 30
0.0
 11
390.5407055004224
 21
428.5453095307221
 31
0.0
  0
LINE
  5
300
330
1F
100
AcDbEntity
  8
3-2
  6
Continuous
 62
    92
370
     5
100
AcDbLine
 10
383.4696176889781
 20
419.2183128563136
 30
0.0
 11
383.4696176889781
 21
421.4744691591005
 31
0.0
  0
LINE
  5
301
330
1F
100
AcDbEntity
  8
3-2
  6
Continuous
 62
    92
370
     5
100
AcDbLine
 10
371.832275390625
 20
430.9024212811445
 30
0.0
 11
374.0416655669344
 21
430.9024212811445
 31
0.0
  0
LINE
  5
302
330
1F
100
AcDbEntity
  8
3-2
  6
Continuous
 62
    92
370
     5
100
AcDbLine
 10
371.8325228304477
 20
445.0445969040331
 30
0.0
 11
374.0416655669344
 21
445.0445969040331
 31
0.0
  0
LINE
  5
303
330
1F
100
AcDbEntity
  8
3-2
  6
Continuous
 62
    92
370
     5
100
AcDbLine
 10
373.3119655299834
 20
448.1309138117612
 30
0.0
 11
400.7275555584883
 21
420.715323783256
 31
0.0
  0
LINE
  5
304
330
1F
100
AcDbEntity
  8
3-2
  6
Continuous
 62
    92
370
     5
100
AcDbLine
 10
376.3985298775339
 20
447.4014612146328
 30
0.0
 11
376.3985298775339
 21
452.1154372756547
 31
0.0
  0
LINE
  5
305
330
1F
100
AcDbEntity
  8
3-2
  6
Continuous
 62
    92
370
     5
100
AcDbLine
 10
376.3987773173565
 20
452.1156847154774
 30
0.0
 11
381.112505938556
 21
452.1156847154774
 31
0.0
  0
LINE
  5
306
330
1F
100
AcDbEntity
  8
3-2
  6
Continuous
 62
    92
370
     5
100
AcDbLine
 10
383.4696176889781
 20
454.4725490260771
 30
0.0
 11
383.4696176889781
 21
456.6816917625636
 31
0.0
  0
LINE
  5
307
330
1F
100
AcDbEntity
  8
3-2
  6
Continuous
 62
    92
370
     5
100
AcDbLine
 10
370.583199165963
 20
439.2287713128169
 30
0.0
 11
389.2884125580659
 21
457.9342321447425
 31
0.0
  0
LINE
  5
308
330
1F
100
AcDbEntity
  8
3-2
  6
Continuous
 62
    92
370
     5
100
AcDbLine
 10
397.6117933118667
 20
454.4725490260771
 30
0.0
 11
397.6117933118667
 21
456.6816917625636
 31
0.0
  0
LINE
  5
309
330
1F
100
AcDbEntity
  8
3-2
  6
Continuous
 62
    92
370
     5
100
AcDbLine
 10
373.2948921822214
 20
427.7985361460094
 30
0.0
 11
400.6983576594175
 21
455.2020016232052
 31
0.0
  0
LINE
  5
30A
330
1F
100
AcDbEntity
  8
3-2
  6
Continuous
 62
    92
370
     5
100
AcDbLine
 10
399.9689050622891
 20
452.1156847154774
 30
0.0
 11
404.6828811233109
 21
452.1156847154774
 31
0.0
  0
LINE
  5
30B
330
1F
100
AcDbEntity
  8
3-2
  6
Continuous
 62
    92
370
     5
100
AcDbLine
 10
404.6828811233109
 20
447.4014612146328
 30
0.0
 11
404.6828811233109
 21
452.1154372756547
 31
0.0
  0
LINE
  5
30C
330
1F
100
AcDbEntity
  8
3-2
  6
Continuous
 62
    92
370
     5
100
AcDbLine
 10
407.0397454339107
 20
445.0445969040331
 30
0.0
 11
409.2488881703972
 21
445.0445969040331
 31
0.0
  0
LINE
  5
30D
330
1F
100
AcDbEntity
  8
3-2
  6
Continuous
 62
    92
370
     5
100
AcDbLine
 10
391.7929984427789
 20
457.9342321447425
 30
0.0
 11
410.501428552576
 21
439.2258020349453
 31
0.0
  0
LINE
  5
30E
330
1F
100
AcDbEntity
  8
3-2
  6
Continuous
 62
    92
370
     5
100
AcDbLine
 10
380.3538554423565
 20
420.715323783256
 30
0.0
 11
407.7694454708617
 21
448.1309138117612
 31
0.0
  0
LINE
  5
30F
330
1F
100
AcDbEntity
  8
3-2
  6
Continuous
 62
    92
370
     5
100
AcDbLine
 10
407.0397454339107
 20
430.9024212811445
 30
0.0
 11
409.2491356102198
 21
430.9024212811445
 31
0.0
  0
LINE
  5
310
330
1F
100
AcDbEntity
  8
3-2
  6
Continuous
 62
    92
370
     5
100
AcDbLine
 10
380.3830533414276
 20
455.2020016232052
 30
0.0
 11
407.7691980310391
 21
427.8158569335938
 31
0.0
  0
LINE
  5
311
330
1F
100
AcDbEntity
  8
3-2
  6
Continuous
 62
    92
370
     5
100
AcDbLine
 10
404.6828811233109
 20
423.8313334697003
 30
0.0
 11
404.6828811233109
 21
428.5455569705448
 31
0.0
  0
LINE
  5
312
330
1F
100
AcDbEntity
  8
3-2
  6
Continuous
 62
    92
370
     5
100
AcDbLine
 10
399.9689050622891
 20
423.8313334697003
 30
0.0
 11
404.6831285631336
 21
423.8313334697003
 31
0.0
  0
LINE
  5
313
330
1F
100
AcDbEntity
  8
3-2
  6
Continuous
 62
    92
370
     5
100
AcDbLine
 10
397.6117933118667
 20
419.2650789827914
 30
0.0
 11
397.6117933118667
 21
421.4744691591005
 31
0.0
  0
LINE
  5
314
330
1F
100
AcDbEntity
  8
3-2
  6
Continuous
 62
    92
370
     5
100
AcDbLine
 10
391.7932458826016
 20
418.0127860404352
 30
0.0
 11
410.501428552576
 21
436.7209687104096
 31
0.0
  0
LINE
  5
315
330
1F
100
AcDbEntity
  8
3-2
  6
Continuous
 62
    92
370
     5
100
AcDbLine
 10
370.5799824482688
 20
436.7209687104096
 30
0.0
 11
389.2884125580659
 21
418.0127860404352
 31
0.0
  0
LINE
  5
316
330
1F
100
AcDbEntity
  8
3-2
  6
Continuous
 62
    92
370
     5
100
AcDbLine
 10
376.3985298775339
 20
423.8313334697003
 30
0.0
 11
381.112505938556
 21
423.8313334697003
 31
0.0
  0
LINE
  5
317
330
1F
100
AcDbEntity
  8
3-2
  6
Continuous
 62
    92
370
     5
100
AcDbLine
 10
376.3985298775339
 20
423.8313334697003
 30
0.0
 11
376.3985298775339
 21
428.5455569705448
 31
0.0
  0
LINE
  5
318
330
1F
100
AcDbEntity
  8
3-2
  6
JWW_CENTER1
 62
    92
370
     5
100
AcDbLine
 10
339.0101252375425
 20
437.9735090925888
 30
0.0
 11
353.8740828230576
 21
437.9735090925888
 31
0.0
  0
LINE
  5
319
330
1F
100
AcDbEntity
  8
3-2
  6
JWW_CENTER1
 62
    92
370
     5
100
AcDbLine
 10
427.2075756176099
 20
437.9735090925888
 30
0.0
 11
441.7068069045609
 21
437.9735090925888
 31
0.0
  0
LINE
  5
31A
330
1F
100
AcDbEntity
  8
3-2
  6
JWW_CENTER1
 62
    92
370
     5
100
AcDbLine
 10
390.5407055004224
 20
401.3066389754013
 30
0.0
 11
390.5407055004224
 21
386.4493622650971
 31
0.0
  0
LINE
  5
31B
330
1F
100
AcDbEntity
  8
3-2
  6
JWW_CENTER1
 62
    92
370
     5
100
AcDbLine
 10
390.5407055004224
 20
491.5343331001901
 30
0.0
 11
390.5407055004224
 21
474.6401317699537
 31
0.0
  0
LINE
  5
31C
330
1F
100
AcDbEntity
  8
3-2
  6
Continuous
 62
    92
370
     5
100
AcDbLine
 10
585.8266469594594
 20
452.1154372756547
 30
0.0
 11
595.2545990815037
 21
452.1154372756547
 31
0.0
  0
LINE
  5
31D
330
1F
100
AcDbEntity
  8
3-2
  6
Continuous
 62
    92
370
     5
100
AcDbLine
 10
590.5406230204818
 20
447.4014612146328
 30
0.0
 11
590.5406230204818
 21
456.8296607764992
 31
0.0
  0
LINE
  5
31E
330
1F
100
AcDbEntity
  8
3-2
  6
Continuous
 62
    92
370
     5
100
AcDbLine
 10
578.7555591480151
 20
445.0445969040331
 30
0.0
 11
588.1837587098818
 21
445.0445969040331
 31
0.0
  0
LINE
  5
31F
330
1F
100
AcDbEntity
  8
3-2
  6
Continuous
 62
    92
370
     5
100
AcDbLine
 10
583.4695352090375
 20
440.3306208430112
 30
0.0
 11
583.4695352090375
 21
449.758572965055
 31
0.0
  0
LINE
  5
320
330
1F
100
AcDbEntity
  8
3-2
  6
Continuous
 62
    92
370
     5
100
AcDbLine
 10
592.8977347709036
 20
445.0445969040331
 30
0.0
 11
602.3256868929479
 21
445.0445969040331
 31
0.0
  0
LINE
  5
321
330
1F
100
AcDbEntity
  8
3-2
  6
Continuous
 62
    92
370
     5
100
AcDbLine
 10
597.6117108319261
 20
440.3306208430112
 30
0.0
 11
597.6117108319261
 21
449.758572965055
 31
0.0
  0
LINE
  5
322
330
1F
100
AcDbEntity
  8
3-2
  6
Continuous
 62
    92
370
     5
100
AcDbLine
 10
585.8266469594594
 20
437.9735090925888
 30
0.0
 11
595.2545990815037
 21
437.9735090925888
 31
0.0
  0
LINE
  5
323
330
1F
100
AcDbEntity
  8
3-2
  6
Continuous
 62
    92
370
     5
100
AcDbLine
 10
590.5406230204818
 20
433.2595330315669
 30
0.0
 11
590.5406230204818
 21
442.6874851536107
 31
0.0
  0
LINE
  5
324
330
1F
100
AcDbEntity
  8
3-2
  6
Continuous
 62
    92
370
     5
100
AcDbLine
 10
571.6844713365708
 20
437.9735090925888
 30
0.0
 11
581.1124234586151
 21
437.9735090925888
 31
0.0
  0
LINE
  5
325
330
1F
100
AcDbEntity
  8
3-2
  6
Continuous
 62
    92
370
     5
100
AcDbLine
 10
576.3984473975933
 20
433.2595330315669
 30
0.0
 11
576.3984473975933
 21
442.6874851536107
 31
0.0
  0
LINE
  5
326
330
1F
100
AcDbEntity
  8
3-2
  6
Continuous
 62
    92
370
     5
100
AcDbLine
 10
578.7555591480151
 20
430.9024212811445
 30
0.0
 11
588.1837587098818
 21
430.9024212811445
 31
0.0
  0
LINE
  5
327
330
1F
100
AcDbEntity
  8
3-2
  6
Continuous
 62
    92
370
     5
100
AcDbLine
 10
583.4695352090375
 20
426.1884452201227
 30
0.0
 11
583.4695352090375
 21
435.6163973421664
 31
0.0
  0
LINE
  5
328
330
1F
100
AcDbEntity
  8
3-2
  6
Continuous
 62
    92
370
     5
100
AcDbLine
 10
599.9688225823479
 20
437.9735090925888
 30
0.0
 11
609.3967747043922
 21
437.9735090925888
 31
0.0
  0
LINE
  5
329
330
1F
100
AcDbEntity
  8
3-2
  6
Continuous
 62
    92
370
     5
100
AcDbLine
 10
604.6827986433703
 20
433.2595330315669
 30
0.0
 11
604.6827986433703
 21
442.6874851536107
 31
0.0
  0
LINE
  5
32A
330
1F
100
AcDbEntity
  8
3-2
  6
Continuous
 62
    92
370
     5
100
AcDbLine
 10
592.8977347709036
 20
430.9024212811445
 30
0.0
 11
602.3256868929479
 21
430.9024212811445
 31
0.0
  0
LINE
  5
32B
330
1F
100
AcDbEntity
  8
3-2
  6
Continuous
 62
    92
370
     5
100
AcDbLine
 10
597.6117108319261
 20
426.1884452201227
 30
0.0
 11
597.6117108319261
 21
435.6163973421664
 31
0.0
  0
LINE
  5
32C
330
1F
100
AcDbEntity
  8
3-2
  6
Continuous
 62
    92
370
     5
100
AcDbLine
 10
585.8266469594594
 20
423.8313334697003
 30
0.0
 11
595.2545990815037
 21
423.8313334697003
 31
0.0
  0
LINE
  5
32D
330
1F
100
AcDbEntity
  8
3-2
  6
Continuous
 62
    92
370
     5
100
AcDbLine
 10
590.5406230204818
 20
419.1173574086784
 30
0.0
 11
590.5406230204818
 21
428.5453095307221
 31
0.0
  0
LINE
  5
32E
330
1F
100
AcDbEntity
  8
3-2
  6
Continuous
 62
    92
370
     5
100
AcDbLine
 10
583.4695352090375
 20
419.2183128563136
 30
0.0
 11
583.4695352090375
 21
421.4744691591005
 31
0.0
  0
LINE
  5
32F
330
1F
100
AcDbEntity
  8
3-2
  6
Continuous
 62
    92
370
     5
100
AcDbLine
 10
571.8324403505068
 20
430.9024212811445
 30
0.0
 11
574.0415830869932
 21
430.9024212811445
 31
0.0
  0
LINE
  5
330
330
1F
100
AcDbEntity
  8
3-2
  6
Continuous
 62
    92
370
     5
100
AcDbLine
 10
571.8324403505068
 20
445.0445969040331
 30
0.0
 11
574.0415830869932
 21
445.0445969040331
 31
0.0
  0
LINE
  5
331
330
1F
100
AcDbEntity
  8
3-2
  6
Continuous
 62
    92
370
     5
100
AcDbLine
 10
573.3121304898651
 20
448.1309138117612
 30
0.0
 11
600.7274730785474
 21
420.715323783256
 31
0.0
  0
LINE
  5
332
330
1F
100
AcDbEntity
  8
3-2
  6
Continuous
 62
    92
370
     5
100
AcDbLine
 10
576.3984473975933
 20
447.4014612146328
 30
0.0
 11
576.3984473975933
 21
452.1154372756547
 31
0.0
  0
LINE
  5
333
330
1F
100
AcDbEntity
  8
3-2
  6
Continuous
 62
    92
370
     5
100
AcDbLine
 10
576.3986948374156
 20
452.1156847154774
 30
0.0
 11
581.1124234586151
 21
452.1156847154774
 31
0.0
  0
LINE
  5
334
330
1F
100
AcDbEntity
  8
3-2
  6
Continuous
 62
    92
370
     5
100
AcDbLine
 10
583.4695352090375
 20
454.4725490260771
 30
0.0
 11
583.4695352090375
 21
456.6816917625636
 31
0.0
  0
LINE
  5
335
330
1F
100
AcDbEntity
  8
3-2
  6
Continuous
 62
    92
370
     5
100
AcDbLine
 10
570.5831166860219
 20
439.2287713128169
 30
0.0
 11
589.288330078125
 21
457.9342321447425
 31
0.0
  0
LINE
  5
336
330
1F
100
AcDbEntity
  8
3-2
  6
Continuous
 62
    92
370
     5
100
AcDbLine
 10
597.6117108319261
 20
454.4725490260771
 30
0.0
 11
597.6117108319261
 21
456.6816917625636
 31
0.0
  0
LINE
  5
337
330
1F
100
AcDbEntity
  8
3-2
  6
Continuous
 62
    92
370
     5
100
AcDbLine
 10
573.2948097022808
 20
427.7985361460094
 30
0.0
 11
600.6982751794766
 21
455.2020016232052
 31
0.0
  0
LINE
  5
338
330
1F
100
AcDbEntity
  8
3-2
  6
Continuous
 62
    92
370
     5
100
AcDbLine
 10
599.9688225823479
 20
452.1156847154774
 30
0.0
 11
604.6827986433703
 21
452.1156847154774
 31
0.0
  0
LINE
  5
339
330
1F
100
AcDbEntity
  8
3-2
  6
Continuous
 62
    92
370
     5
100
AcDbLine
 10
604.6827986433703
 20
447.4014612146328
 30
0.0
 11
604.6827986433703
 21
452.1154372756547
 31
0.0
  0
LINE
  5
33A
330
1F
100
AcDbEntity
  8
3-2
  6
Continuous
 62
    92
370
     5
100
AcDbLine
 10
607.0396629539698
 20
445.0445969040331
 30
0.0
 11
609.2488056904563
 21
445.0445969040331
 31
0.0
  0
LINE
  5
33B
330
1F
100
AcDbEntity
  8
3-2
  6
Continuous
 62
    92
370
     5
100
AcDbLine
 10
591.792915962838
 20
457.9342321447425
 30
0.0
 11
610.5013460726354
 21
439.2258020349453
 31
0.0
  0
LINE
  5
33C
330
1F
100
AcDbEntity
  8
3-2
  6
Continuous
 62
    92
370
     5
100
AcDbLine
 10
580.3537729624156
 20
420.715323783256
 30
0.0
 11
607.7693629909209
 21
448.1309138117612
 31
0.0
  0
LINE
  5
33D
330
1F
100
AcDbEntity
  8
3-2
  6
Continuous
 62
    92
370
     5
100
AcDbLine
 10
607.0396629539698
 20
430.9024212811445
 30
0.0
 11
609.2490531302786
 21
430.9024212811445
 31
0.0
  0
LINE
  5
33E
330
1F
100
AcDbEntity
  8
3-2
  6
Continuous
 62
    92
370
     5
100
AcDbLine
 10
580.3829708614865
 20
455.2020016232052
 30
0.0
 11
607.7691155510979
 21
427.8158569335938
 31
0.0
  0
LINE
  5
33F
330
1F
100
AcDbEntity
  8
3-2
  6
Continuous
 62
    92
370
     5
100
AcDbLine
 10
604.6827986433703
 20
423.8313334697003
 30
0.0
 11
604.6827986433703
 21
428.5455569705448
 31
0.0
  0
LINE
  5
340
330
1F
100
AcDbEntity
  8
3-2
  6
Continuous
 62
    92
370
     5
100
AcDbLine
 10
599.9688225823479
 20
423.8313334697003
 30
0.0
 11
604.6830460831927
 21
423.8313334697003
 31
0.0
  0
LINE
  5
341
330
1F
100
AcDbEntity
  8
3-2
  6
Continuous
 62
    92
370
     5
100
AcDbLine
 10
597.6117108319261
 20
419.2650789827914
 30
0.0
 11
597.6117108319261
 21
421.4744691591005
 31
0.0
  0
LINE
  5
342
330
1F
100
AcDbEntity
  8
3-2
  6
Continuous
 62
    92
370
     5
100
AcDbLine
 10
591.7931634026604
 20
418.0127860404352
 30
0.0
 11
610.5013460726354
 21
436.7209687104096
 31
0.0
  0
LINE
  5
343
330
1F
100
AcDbEntity
  8
3-2
  6
Continuous
 62
    92
370
     5
100
AcDbLine
 10
570.5798999683276
 20
436.7209687104096
 30
0.0
 11
589.288330078125
 21
418.0127860404352
 31
0.0
  0
LINE
  5
344
330
1F
100
AcDbEntity
  8
3-2
  6
Continuous
 62
    92
370
     5
100
AcDbLine
 10
576.3984473975933
 20
423.8313334697003
 30
0.0
 11
581.1124234586151
 21
423.8313334697003
 31
0.0
  0
LINE
  5
345
330
1F
100
AcDbEntity
  8
3-2
  6
Continuous
 62
    92
370
     5
100
AcDbLine
 10
576.3984473975933
 20
423.8313334697003
 30
0.0
 11
576.3984473975933
 21
428.5455569705448
 31
0.0
  0
LINE
  5
346
330
1F
100
AcDbEntity
  8
3-2
  6
JWW_CENTER1
 62
    92
370
     5
100
AcDbLine
 10
539.0100427576016
 20
437.9735090925888
 30
0.0
 11
553.8740003431167
 21
437.9735090925888
 31
0.0
  0
LINE
  5
347
330
1F
100
AcDbEntity
  8
3-2
  6
JWW_CENTER1
 62
    92
370
     5
100
AcDbLine
 10
627.2074931376693
 20
437.9735090925888
 30
0.0
 11
641.7067244246203
 21
437.9735090925888
 31
0.0
  0
LINE
  5
348
330
1F
100
AcDbEntity
  8
3-2
  6
JWW_CENTER1
 62
    92
370
     5
100
AcDbLine
 10
590.5406230204818
 20
401.3066389754013
 30
0.0
 11
590.5406230204818
 21
386.4493622650971
 31
0.0
  0
LINE
  5
349
330
1F
100
AcDbEntity
  8
3-2
  6
JWW_CENTER1
 62
    92
370
     5
100
AcDbLine
 10
590.5406230204818
 20
491.5343331001901
 30
0.0
 11
590.5406230204818
 21
474.6401317699537
 31
0.0
  0
LINE
  5
34A
330
1F
100
AcDbEntity
  8
3-2
  6
Continuous
 62
    92
370
     5
100
AcDbLine
 10
785.8265644795188
 20
452.1154372756547
 30
0.0
 11
795.2545166015625
 21
452.1154372756547
 31
0.0
  0
LINE
  5
34B
330
1F
100
AcDbEntity
  8
3-2
  6
Continuous
 62
    92
370
     5
100
AcDbLine
 10
790.5405405405406
 20
447.4014612146328
 30
0.0
 11
790.5405405405406
 21
456.8296607764992
 31
0.0
  0
LINE
  5
34C
330
1F
100
AcDbEntity
  8
3-2
  6
Continuous
 62
    92
370
     5
100
AcDbLine
 10
778.7554766680745
 20
445.0445969040331
 30
0.0
 11
788.1836762299412
 21
445.0445969040331
 31
0.0
  0
LINE
  5
34D
330
1F
100
AcDbEntity
  8
3-2
  6
Continuous
 62
    92
370
     5
100
AcDbLine
 10
783.4694527290964
 20
440.3306208430112
 30
0.0
 11
783.4694527290964
 21
449.758572965055
 31
0.0
  0
LINE
  5
34E
330
1F
100
AcDbEntity
  8
3-2
  6
Continuous
 62
    92
370
     5
100
AcDbLine
 10
792.897652290963
 20
445.0445969040331
 30
0.0
 11
802.3256044130068
 21
445.0445969040331
 31
0.0
  0
LINE
  5
34F
330
1F
100
AcDbEntity
  8
3-2
  6
Continuous
 62
    92
370
     5
100
AcDbLine
 10
797.6116283519849
 20
440.3306208430112
 30
0.0
 11
797.6116283519849
 21
449.758572965055
 31
0.0
  0
LINE
  5
350
330
1F
100
AcDbEntity
  8
3-2
  6
Continuous
 62
    92
370
     5
100
AcDbLine
 10
785.8265644795188
 20
437.9735090925888
 30
0.0
 11
795.2545166015625
 21
437.9735090925888
 31
0.0
  0
LINE
  5
351
330
1F
100
AcDbEntity
  8
3-2
  6
Continuous
 62
    92
370
     5
100
AcDbLine
 10
790.5405405405406
 20
433.2595330315669
 30
0.0
 11
790.5405405405406
 21
442.6874851536107
 31
0.0
  0
LINE
  5
352
330
1F
100
AcDbEntity
  8
3-2
  6
Continuous
 62
    92
370
     5
100
AcDbLine
 10
771.6843888566302
 20
437.9735090925888
 30
0.0
 11
781.112340978674
 21
437.9735090925888
 31
0.0
  0
LINE
  5
353
330
1F
100
AcDbEntity
  8
3-2
  6
Continuous
 62
    92
370
     5
100
AcDbLine
 10
776.3983649176521
 20
433.2595330315669
 30
0.0
 11
776.3983649176521
 21
442.6874851536107
 31
0.0
  0
LINE
  5
354
330
1F
100
AcDbEntity
  8
3-2
  6
Continuous
 62
    92
370
     5
100
AcDbLine
 10
778.7554766680745
 20
430.9024212811445
 30
0.0
 11
788.1836762299412
 21
430.9024212811445
 31
0.0
  0
LINE
  5
355
330
1F
100
AcDbEntity
  8
3-2
  6
Continuous
 62
    92
370
     5
100
AcDbLine
 10
783.4694527290964
 20
426.1884452201227
 30
0.0
 11
783.4694527290964
 21
435.6163973421664
 31
0.0
  0
LINE
  5
356
330
1F
100
AcDbEntity
  8
3-2
  6
Continuous
 62
    92
370
     5
100
AcDbLine
 10
799.9687401024073
 20
437.9735090925888
 30
0.0
 11
809.396692224451
 21
437.9735090925888
 31
0.0
  0
LINE
  5
357
330
1F
100
AcDbEntity
  8
3-2
  6
Continuous
 62
    92
370
     5
100
AcDbLine
 10
804.6827161634292
 20
433.2595330315669
 30
0.0
 11
804.6827161634292
 21
442.6874851536107
 31
0.0
  0
LINE
  5
358
330
1F
100
AcDbEntity
  8
3-2
  6
Continuous
 62
    92
370
     5
100
AcDbLine
 10
792.897652290963
 20
430.9024212811445
 30
0.0
 11
802.3256044130068
 21
430.9024212811445
 31
0.0
  0
LINE
  5
359
330
1F
100
AcDbEntity
  8
3-2
  6
Continuous
 62
    92
370
     5
100
AcDbLine
 10
797.6116283519849
 20
426.1884452201227
 30
0.0
 11
797.6116283519849
 21
435.6163973421664
 31
0.0
  0
LINE
  5
35A
330
1F
100
AcDbEntity
  8
3-2
  6
Continuous
 62
    92
370
     5
100
AcDbLine
 10
785.8265644795188
 20
423.8313334697003
 30
0.0
 11
795.2545166015625
 21
423.8313334697003
 31
0.0
  0
LINE
  5
35B
330
1F
100
AcDbEntity
  8
3-2
  6
Continuous
 62
    92
370
     5
100
AcDbLine
 10
790.5405405405406
 20
419.1173574086784
 30
0.0
 11
790.5405405405406
 21
428.5453095307221
 31
0.0
  0
LINE
  5
35C
330
1F
100
AcDbEntity
  8
3-2
  6
Continuous
 62
    92
370
     5
100
AcDbLine
 10
783.4694527290964
 20
419.2183128563136
 30
0.0
 11
783.4694527290964
 21
421.4744691591005
 31
0.0
  0
LINE
  5
35D
330
1F
100
AcDbEntity
  8
3-2
  6
Continuous
 62
    92
370
     5
100
AcDbLine
 10
771.8323578705662
 20
430.9024212811445
 30
0.0
 11
774.0415006070526
 21
430.9024212811445
 31
0.0
  0
LINE
  5
35E
330
1F
100
AcDbEntity
  8
3-2
  6
Continuous
 62
    92
370
     5
100
AcDbLine
 10
771.8323578705662
 20
445.0445969040331
 30
0.0
 11
774.0415006070526
 21
445.0445969040331
 31
0.0
  0
LINE
  5
35F
330
1F
100
AcDbEntity
  8
3-2
  6
Continuous
 62
    92
370
     5
100
AcDbLine
 10
773.312048009924
 20
448.1309138117612
 30
0.0
 11
800.7273905986068
 21
420.715323783256
 31
0.0
  0
LINE
  5
360
330
1F
100
AcDbEntity
  8
3-2
  6
Continuous
 62
    92
370
     5
100
AcDbLine
 10
776.3983649176521
 20
447.4014612146328
 30
0.0
 11
776.3983649176521
 21
452.1154372756547
 31
0.0
  0
LINE
  5
361
330
1F
100
AcDbEntity
  8
3-2
  6
Continuous
 62
    92
370
     5
100
AcDbLine
 10
776.398612357475
 20
452.1156847154774
 30
0.0
 11
781.112340978674
 21
452.1156847154774
 31
0.0
  0
LINE
  5
362
330
1F
100
AcDbEntity
  8
3-2
  6
Continuous
 62
    92
370
     5
100
AcDbLine
 10
783.4694527290964
 20
454.4725490260771
 30
0.0
 11
783.4694527290964
 21
456.6816917625636
 31
0.0
  0
LINE
  5
363
330
1F
100
AcDbEntity
  8
3-2
  6
Continuous
 62
    92
370
     5
100
AcDbLine
 10
770.5830342060813
 20
439.2287713128169
 30
0.0
 11
789.2882475981844
 21
457.9342321447425
 31
0.0
  0
LINE
  5
364
330
1F
100
AcDbEntity
  8
3-2
  6
Continuous
 62
    92
370
     5
100
AcDbLine
 10
797.6116283519849
 20
454.4725490260771
 30
0.0
 11
797.6116283519849
 21
456.6816917625636
 31
0.0
  0
LINE
  5
365
330
1F
100
AcDbEntity
  8
3-2
  6
Continuous
 62
    92
370
     5
100
AcDbLine
 10
773.2947272223396
 20
427.7985361460094
 30
0.0
 11
800.6981926995354
 21
455.2020016232052
 31
0.0
  0
LINE
  5
366
330
1F
100
AcDbEntity
  8
3-2
  6
Continuous
 62
    92
370
     5
100
AcDbLine
 10
799.9687401024073
 20
452.1156847154774
 30
0.0
 11
804.6827161634292
 21
452.1156847154774
 31
0.0
  0
LINE
  5
367
330
1F
100
AcDbEntity
  8
3-2
  6
Continuous
 62
    92
370
     5
100
AcDbLine
 10
804.6827161634292
 20
447.4014612146328
 30
0.0
 11
804.6827161634292
 21
452.1154372756547
 31
0.0
  0
LINE
  5
368
330
1F
100
AcDbEntity
  8
3-2
  6
Continuous
 62
    92
370
     5
100
AcDbLine
 10
807.0395804740286
 20
445.0445969040331
 30
0.0
 11
809.2487232105151
 21
445.0445969040331
 31
0.0
  0
LINE
  5
369
330
1F
100
AcDbEntity
  8
3-2
  6
Continuous
 62
    92
370
     5
100
AcDbLine
 10
791.7928334828969
 20
457.9342321447425
 30
0.0
 11
810.5012635926943
 21
439.2258020349453
 31
0.0
  0
LINE
  5
36A
330
1F
100
AcDbEntity
  8
3-2
  6
Continuous
 62
    92
370
     5
100
AcDbLine
 10
780.353690482475
 20
420.715323783256
 30
0.0
 11
807.7692805109797
 21
448.1309138117612
 31
0.0
  0
LINE
  5
36B
330
1F
100
AcDbEntity
  8
3-2
  6
Continuous
 62
    92
370
     5
100
AcDbLine
 10
807.0395804740286
 20
430.9024212811445
 30
0.0
 11
809.248970650338
 21
430.9024212811445
 31
0.0
  0
LINE
  5
36C
330
1F
100
AcDbEntity
  8
3-2
  6
Continuous
 62
    92
370
     5
100
AcDbLine
 10
780.3828883815459
 20
455.2020016232052
 30
0.0
 11
807.7690330711573
 21
427.8158569335938
 31
0.0
  0
LINE
  5
36D
330
1F
100
AcDbEntity
  8
3-2
  6
Continuous
 62
    92
370
     5
100
AcDbLine
 10
804.6827161634292
 20
423.8313334697003
 30
0.0
 11
804.6827161634292
 21
428.5455569705448
 31
0.0
  0
LINE
  5
36E
330
1F
100
AcDbEntity
  8
3-2
  6
Continuous
 62
    92
370
     5
100
AcDbLine
 10
799.9687401024073
 20
423.8313334697003
 30
0.0
 11
804.6829636032521
 21
423.8313334697003
 31
0.0
  0
LINE
  5
36F
330
1F
100
AcDbEntity
  8
3-2
  6
Continuous
 62
    92
370
     5
100
AcDbLine
 10
797.6116283519849
 20
419.2650789827914
 30
0.0
 11
797.6116283519849
 21
421.4744691591005
 31
0.0
  0
LINE
  5
370
330
1F
100
AcDbEntity
  8
3-2
  6
Continuous
 62
    92
370
     5
100
AcDbLine
 10
791.7930809227198
 20
418.0127860404352
 30
0.0
 11
810.5012635926943
 21
436.7209687104096
 31
0.0
  0
LINE
  5
371
330
1F
100
AcDbEntity
  8
3-2
  6
Continuous
 62
    92
370
     5
100
AcDbLine
 10
770.579817488387
 20
436.7209687104096
 30
0.0
 11
789.2882475981844
 21
418.0127860404352
 31
0.0
  0
LINE
  5
372
330
1F
100
AcDbEntity
  8
3-2
  6
Continuous
 62
    92
370
     5
100
AcDbLine
 10
776.3983649176521
 20
423.8313334697003
 30
0.0
 11
781.112340978674
 21
423.8313334697003
 31
0.0
  0
LINE
  5
373
330
1F
100
AcDbEntity
  8
3-2
  6
Continuous
 62
    92
370
     5
100
AcDbLine
 10
776.3983649176521
 20
423.8313334697003
 30
0.0
 11
776.3983649176521
 21
428.5455569705448
 31
0.0
  0
LINE
  5
374
330
1F
100
AcDbEntity
  8
3-2
  6
JWW_CENTER1
 62
    92
370
     5
100
AcDbLine
 10
739.0099602776604
 20
437.9735090925888
 30
0.0
 11
753.8739178631761
 21
437.9735090925888
 31
0.0
  0
LINE
  5
375
330
1F
100
AcDbEntity
  8
3-2
  6
JWW_CENTER1
 62
    92
370
     5
100
AcDbLine
 10
827.2074106577281
 20
437.9735090925888
 30
0.0
 11
841.7066419446792
 21
437.9735090925888
 31
0.0
  0
LINE
  5
376
330
1F
100
AcDbEntity
  8
3-2
  6
JWW_CENTER1
 62
    92
370
     5
100
AcDbLine
 10
790.5405405405406
 20
401.3066389754013
 30
0.0
 11
790.5405405405406
 21
386.4493622650971
 31
0.0
  0
LINE
  5
377
330
1F
100
AcDbEntity
  8
3-2
  6
JWW_CENTER1
 62
    92
370
     5
100
AcDbLine
 10
790.5405405405406
 20
491.5343331001901
 30
0.0
 11
790.5405405405406
 21
474.6401317699537
 31
0.0
  0
LINE
  5
378
330
1F
100
AcDbEntity
  8
3-2
  6
Continuous
 62
    92
370
     5
100
AcDbLine
 10
-14.17335304054035
 20
652.115478515625
 30
0.0
 11
-4.745400918496614
 21
652.115478515625
 31
0.0
  0
LINE
  5
379
330
1F
100
AcDbEntity
  8
3-2
  6
Continuous
 62
    92
370
     5
100
AcDbLine
 10
-9.459376979518481
 20
647.4015024546031
 30
0.0
 11
-9.459376979518481
 21
656.8297020164698
 31
0.0
  0
LINE
  5
37A
330
1F
100
AcDbEntity
  8
3-2
  6
Continuous
 62
    92
370
     5
100
AcDbLine
 10
-21.24444085198462
 20
645.0446381440033
 30
0.0
 11
-11.81624129011823
 21
645.0446381440033
 31
0.0
  0
LINE
  5
37B
330
1F
100
AcDbEntity
  8
3-2
  6
Continuous
 62
    92
370
     5
100
AcDbLine
 10
-16.53046479096275
 20
640.3306620829815
 30
0.0
 11
-16.53046479096275
 21
649.7586142050255
 31
0.0
  0
LINE
  5
37C
330
1F
100
AcDbEntity
  8
3-2
  6
Continuous
 62
    92
370
     5
100
AcDbLine
 10
-7.102265229096076
 20
645.0446381440033
 30
0.0
 11
2.325686892947658
 21
645.0446381440033
 31
0.0
  0
LINE
  5
37D
330
1F
100
AcDbEntity
  8
3-2
  6
Continuous
 62
    92
370
     5
100
AcDbLine
 10
-2.388289168074209
 20
640.3306620829815
 30
0.0
 11
-2.388289168074209
 21
649.7586142050255
 31
0.0
  0
LINE
  5
37E
330
1F
100
AcDbEntity
  8
3-2
  6
Continuous
 62
    92
370
     5
100
AcDbLine
 10
-14.17335304054035
 20
637.9735503325592
 30
0.0
 11
-4.745400918496614
 21
637.9735503325592
 31
0.0
  0
LINE
  5
37F
330
1F
100
AcDbEntity
  8
3-2
  6
Continuous
 62
    92
370
     5
100
AcDbLine
 10
-9.459376979518481
 20
633.2595742715373
 30
0.0
 11
-9.459376979518481
 21
642.6875263935813
 31
0.0
  0
LINE
  5
380
330
1F
100
AcDbEntity
  8
3-2
  6
Continuous
 62
    92
370
     5
100
AcDbLine
 10
-28.31552866342889
 20
637.9735503325592
 30
0.0
 11
-18.88757654138516
 21
637.9735503325592
 31
0.0
  0
LINE
  5
381
330
1F
100
AcDbEntity
  8
3-2
  6
Continuous
 62
    92
370
     5
100
AcDbLine
 10
-23.60155260240703
 20
633.2595742715373
 30
0.0
 11
-23.60155260240703
 21
642.6875263935813
 31
0.0
  0
LINE
  5
382
330
1F
100
AcDbEntity
  8
3-2
  6
Continuous
 62
    92
370
     5
100
AcDbLine
 10
-21.24444085198462
 20
630.9024625211148
 30
0.0
 11
-11.81624129011823
 21
630.9024625211148
 31
0.0
  0
LINE
  5
383
330
1F
100
AcDbEntity
  8
3-2
  6
Continuous
 62
    92
370
     5
100
AcDbLine
 10
-16.53046479096275
 20
626.1884864600929
 30
0.0
 11
-16.53046479096275
 21
635.616438582137
 31
0.0
  0
LINE
  5
384
330
1F
100
AcDbEntity
  8
3-2
  6
Continuous
 62
    92
370
     5
100
AcDbLine
 10
-0.0311774176518043
 20
637.9735503325592
 30
0.0
 11
9.39677470439193
 21
637.9735503325592
 31
0.0
  0
LINE
  5
385
330
1F
100
AcDbEntity
  8
3-2
  6
Continuous
 62
    92
370
     5
100
AcDbLine
 10
4.682798643370063
 20
633.2595742715373
 30
0.0
 11
4.682798643370063
 21
642.6875263935813
 31
0.0
  0
LINE
  5
386
330
1F
100
AcDbEntity
  8
3-2
  6
Continuous
 62
    92
370
     5
100
AcDbLine
 10
-7.102265229096076
 20
630.9024625211148
 30
0.0
 11
2.325686892947658
 21
630.9024625211148
 31
0.0
  0
LINE
  5
387
330
1F
100
AcDbEntity
  8
3-2
  6
Continuous
 62
    92
370
     5
100
AcDbLine
 10
-2.388289168074209
 20
626.1884864600929
 30
0.0
 11
-2.388289168074209
 21
635.616438582137
 31
0.0
  0
LINE
  5
388
330
1F
100
AcDbEntity
  8
3-2
  6
Continuous
 62
    92
370
     5
100
AcDbLine
 10
-14.17335304054035
 20
623.8313747096709
 30
0.0
 11
-4.745400918496614
 21
623.8313747096709
 31
0.0
  0
LINE
  5
389
330
1F
100
AcDbEntity
  8
3-2
  6
Continuous
 62
    92
370
     5
100
AcDbLine
 10
-9.459376979518481
 20
619.1173986486488
 30
0.0
 11
-9.459376979518481
 21
628.5453507706927
 31
0.0
  0
LINE
  5
38A
330
1F
100
AcDbEntity
  8
3-2
  6
Continuous
 62
    92
370
     5
100
AcDbLine
 10
-16.53046479096275
 20
619.2183540962839
 30
0.0
 11
-16.53046479096275
 21
621.474510399071
 31
0.0
  0
LINE
  5
38B
330
1F
100
AcDbEntity
  8
3-2
  6
Continuous
 62
    92
370
     5
100
AcDbLine
 10
-28.16768336940441
 20
630.9024625211148
 30
0.0
 11
-25.95841691300677
 21
630.9024625211148
 31
0.0
  0
LINE
  5
38C
330
1F
100
AcDbEntity
  8
3-2
  6
Continuous
 62
    92
370
     5
100
AcDbLine
 10
-28.16755964949323
 20
645.0446381440033
 30
0.0
 11
-25.95841691300677
 21
645.0446381440033
 31
0.0
  0
LINE
  5
38D
330
1F
100
AcDbEntity
  8
3-2
  6
Continuous
 62
    92
370
     5
100
AcDbLine
 10
-26.68799323004635
 20
648.1309550517315
 30
0.0
 11
0.7274730785474048
 21
620.7153650232266
 31
0.0
  0
LINE
  5
38E
330
1F
100
AcDbEntity
  8
3-2
  6
Continuous
 62
    92
370
     5
100
AcDbLine
 10
-23.60155260240703
 20
647.4015024546031
 30
0.0
 11
-23.60155260240703
 21
652.115478515625
 31
0.0
  0
LINE
  5
38F
330
1F
100
AcDbEntity
  8
3-2
  6
Continuous
 62
    92
370
     5
100
AcDbLine
 10
-23.60130516258437
 20
652.1157259554477
 30
0.0
 11
-18.88757654138516
 21
652.1157259554477
 31
0.0
  0
LINE
  5
390
330
1F
100
AcDbEntity
  8
3-2
  6
Continuous
 62
    92
370
     5
100
AcDbLine
 10
-16.53046479096275
 20
654.4725902660474
 30
0.0
 11
-16.53046479096275
 21
656.6817330025339
 31
0.0
  0
LINE
  5
391
330
1F
100
AcDbEntity
  8
3-2
  6
Continuous
 62
    92
370
     5
100
AcDbLine
 10
-29.41688331397785
 20
639.2288125527873
 30
0.0
 11
-10.711669921875
 21
657.934273384713
 31
0.0
  0
LINE
  5
392
330
1F
100
AcDbEntity
  8
3-2
  6
Continuous
 62
    92
370
     5
100
AcDbLine
 10
-2.388289168074209
 20
654.4725902660474
 30
0.0
 11
-2.388289168074209
 21
656.6817330025339
 31
0.0
  0
LINE
  5
393
330
1F
100
AcDbEntity
  8
3-2
  6
Continuous
 62
    92
370
     5
100
AcDbLine
 10
-26.70519029771953
 20
627.79857738598
 30
0.0
 11
0.6982751794765818
 21
655.2020428631758
 31
0.0
  0
LINE
  5
394
330
1F
100
AcDbEntity
  8
3-2
  6
Continuous
 62
    92
370
     5
100
AcDbLine
 10
-0.0311774176518043
 20
652.1157259554477
 30
0.0
 11
4.682798643370063
 21
652.1157259554477
 31
0.0
  0
LINE
  5
395
330
1F
100
AcDbEntity
  8
3-2
  6
Continuous
 62
    92
370
     5
100
AcDbLine
 10
4.682798643370063
 20
647.4015024546031
 30
0.0
 11
4.682798643370063
 21
652.115478515625
 31
0.0
  0
LINE
  5
396
330
1F
100
AcDbEntity
  8
3-2
  6
Continuous
 62
    92
370
     5
100
AcDbLine
 10
7.03966295396981
 20
645.0446381440033
 30
0.0
 11
9.248805690456265
 21
645.0446381440033
 31
0.0
  0
LINE
  5
397
330
1F
100
AcDbEntity
  8
3-2
  6
Continuous
 62
    92
370
     5
100
AcDbLine
 10
-8.207084037161962
 20
657.934273384713
 30
0.0
 11
10.50134607263516
 21
639.2258432749156
 31
0.0
  0
LINE
  5
398
330
1F
100
AcDbEntity
  8
3-2
  6
Continuous
 62
    92
370
     5
100
AcDbLine
 10
-19.64622703758437
 20
620.7153650232266
 30
0.0
 11
7.769362990920854
 21
648.1309550517315
 31
0.0
  0
LINE
  5
399
330
1F
100
AcDbEntity
  8
3-2
  6
Continuous
 62
    92
370
     5
100
AcDbLine
 10
7.03966295396981
 20
630.9024625211148
 30
0.0
 11
9.249053130278924
 21
630.9024625211148
 31
0.0
  0
LINE
  5
39A
330
1F
100
AcDbEntity
  8
3-2
  6
Continuous
 62
    92
370
     5
100
AcDbLine
 10
-19.61702913851326
 20
655.2020428631758
 30
0.0
 11
7.769115551098196
 21
627.8158981735644
 31
0.0
  0
LINE
  5
39B
330
1F
100
AcDbEntity
  8
3-2
  6
Continuous
 62
    92
370
     5
100
AcDbLine
 10
4.682798643370063
 20
623.8313747096709
 30
0.0
 11
4.682798643370063
 21
628.5455982105154
 31
0.0
  0
LINE
  5
39C
330
1F
100
AcDbEntity
  8
3-2
  6
Continuous
 62
    92
370
     5
100
AcDbLine
 10
-0.0311774176518043
 20
623.8313747096709
 30
0.0
 11
4.683046083192721
 21
623.8313747096709
 31
0.0
  0
LINE
  5
39D
330
1F
100
AcDbEntity
  8
3-2
  6
Continuous
 62
    92
370
     5
100
AcDbLine
 10
-2.388289168074209
 20
619.265120222762
 30
0.0
 11
-2.388289168074209
 21
621.474510399071
 31
0.0
  0
LINE
  5
39E
330
1F
100
AcDbEntity
  8
3-2
  6
Continuous
 62
    92
370
     5
100
AcDbLine
 10
-8.206836597339304
 20
618.0128272804054
 30
0.0
 11
10.50134607263516
 21
636.7210099503802
 31
0.0
  0
LINE
  5
39F
330
1F
100
AcDbEntity
  8
3-2
  6
Continuous
 62
    92
370
     5
100
AcDbLine
 10
-29.42010003167212
 20
636.7210099503802
 30
0.0
 11
-10.711669921875
 21
618.0128272804054
 31
0.0
  0
LINE
  5
3A0
330
1F
100
AcDbEntity
  8
3-2
  6
Continuous
 62
    92
370
     5
100
AcDbLine
 10
-23.60155260240703
 20
623.8313747096709
 30
0.0
 11
-18.88757654138516
 21
623.8313747096709
 31
0.0
  0
LINE
  5
3A1
330
1F
100
AcDbEntity
  8
3-2
  6
Continuous
 62
    92
370
     5
100
AcDbLine
 10
-23.60155260240703
 20
623.8313747096709
 30
0.0
 11
-23.60155260240703
 21
628.5455982105154
 31
0.0
  0
LINE
  5
3A2
330
1F
100
AcDbEntity
  8
3-2
  6
JWW_CENTER1
 62
    92
370
     5
100
AcDbLine
 10
-60.98995724239842
 20
637.9735503325592
 30
0.0
 11
-46.12599965688332
 21
637.9735503325592
 31
0.0
  0
LINE
  5
3A3
330
1F
100
AcDbEntity
  8
3-2
  6
JWW_CENTER1
 62
    92
370
     5
100
AcDbLine
 10
27.20749313766902
 20
637.9735503325592
 30
0.0
 11
41.70672442462006
 21
637.9735503325592
 31
0.0
  0
LINE
  5
3A4
330
1F
100
AcDbEntity
  8
3-2
  6
JWW_CENTER1
 62
    92
370
     5
100
AcDbLine
 10
-9.459376979518481
 20
601.3066802153717
 30
0.0
 11
-9.459376979518481
 21
586.4494035050677
 31
0.0
  0
LINE
  5
3A5
330
1F
100
AcDbEntity
  8
3-2
  6
JWW_CENTER1
 62
    92
370
     5
100
AcDbLine
 10
-9.459376979518481
 20
691.5343743401606
 30
0.0
 11
-9.459376979518481
 21
674.6401730099242
 31
0.0
  0
LINE
  5
3A6
330
1F
100
AcDbEntity
  8
3-2
  6
Continuous
 62
    92
370
     5
100
AcDbLine
 10
185.8265644795188
 20
652.115478515625
 30
0.0
 11
195.2545166015625
 21
652.115478515625
 31
0.0
  0
LINE
  5
3A7
330
1F
100
AcDbEntity
  8
3-2
  6
Continuous
 62
    92
370
     5
100
AcDbLine
 10
190.5405405405406
 20
647.4015024546031
 30
0.0
 11
190.5405405405406
 21
656.8297020164698
 31
0.0
  0
LINE
  5
3A8
330
1F
100
AcDbEntity
  8
3-2
  6
Continuous
 62
    92
370
     5
100
AcDbLine
 10
178.7554766680745
 20
645.0446381440033
 30
0.0
 11
188.1836762299409
 21
645.0446381440033
 31
0.0
  0
LINE
  5
3A9
330
1F
100
AcDbEntity
  8
3-2
  6
Continuous
 62
    92
370
     5
100
AcDbLine
 10
183.4694527290964
 20
640.3306620829815
 30
0.0
 11
183.4694527290964
 21
649.7586142050255
 31
0.0
  0
LINE
  5
3AA
330
1F
100
AcDbEntity
  8
3-2
  6
Continuous
 62
    92
370
     5
100
AcDbLine
 10
192.897652290963
 20
645.0446381440033
 30
0.0
 11
202.3256044130068
 21
645.0446381440033
 31
0.0
  0
LINE
  5
3AB
330
1F
100
AcDbEntity
  8
3-2
  6
Continuous
 62
    92
370
     5
100
AcDbLine
 10
197.6116283519849
 20
640.3306620829815
 30
0.0
 11
197.6116283519849
 21
649.7586142050255
 31
0.0
  0
LINE
  5
3AC
330
1F
100
AcDbEntity
  8
3-2
  6
Continuous
 62
    92
370
     5
100
AcDbLine
 10
185.8265644795188
 20
637.9735503325592
 30
0.0
 11
195.2545166015625
 21
637.9735503325592
 31
0.0
  0
LINE
  5
3AD
330
1F
100
AcDbEntity
  8
3-2
  6
Continuous
 62
    92
370
     5
100
AcDbLine
 10
190.5405405405406
 20
633.2595742715373
 30
0.0
 11
190.5405405405406
 21
642.6875263935813
 31
0.0
  0
LINE
  5
3AE
330
1F
100
AcDbEntity
  8
3-2
  6
Continuous
 62
    92
370
     5
100
AcDbLine
 10
171.6843888566302
 20
637.9735503325592
 30
0.0
 11
181.1123409786742
 21
637.9735503325592
 31
0.0
  0
LINE
  5
3AF
330
1F
100
AcDbEntity
  8
3-2
  6
Continuous
 62
    92
370
     5
100
AcDbLine
 10
176.3983649176521
 20
633.2595742715373
 30
0.0
 11
176.3983649176521
 21
642.6875263935813
 31
0.0
  0
LINE
  5
3B0
330
1F
100
AcDbEntity
  8
3-2
  6
Continuous
 62
    92
370
     5
100
AcDbLine
 10
178.7554766680745
 20
630.9024625211148
 30
0.0
 11
188.1836762299409
 21
630.9024625211148
 31
0.0
  0
LINE
  5
3B1
330
1F
100
AcDbEntity
  8
3-2
  6
Continuous
 62
    92
370
     5
100
AcDbLine
 10
183.4694527290964
 20
626.1884864600929
 30
0.0
 11
183.4694527290964
 21
635.616438582137
 31
0.0
  0
LINE
  5
3B2
330
1F
100
AcDbEntity
  8
3-2
  6
Continuous
 62
    92
370
     5
100
AcDbLine
 10
199.9687401024073
 20
637.9735503325592
 30
0.0
 11
209.396692224451
 21
637.9735503325592
 31
0.0
  0
LINE
  5
3B3
330
1F
100
AcDbEntity
  8
3-2
  6
Continuous
 62
    92
370
     5
100
AcDbLine
 10
204.6827161634292
 20
633.2595742715373
 30
0.0
 11
204.6827161634292
 21
642.6875263935813
 31
0.0
  0
LINE
  5
3B4
330
1F
100
AcDbEntity
  8
3-2
  6
Continuous
 62
    92
370
     5
100
AcDbLine
 10
192.897652290963
 20
630.9024625211148
 30
0.0
 11
202.3256044130068
 21
630.9024625211148
 31
0.0
  0
LINE
  5
3B5
330
1F
100
AcDbEntity
  8
3-2
  6
Continuous
 62
    92
370
     5
100
AcDbLine
 10
197.6116283519849
 20
626.1884864600929
 30
0.0
 11
197.6116283519849
 21
635.616438582137
 31
0.0
  0
LINE
  5
3B6
330
1F
100
AcDbEntity
  8
3-2
  6
Continuous
 62
    92
370
     5
100
AcDbLine
 10
185.8265644795188
 20
623.8313747096709
 30
0.0
 11
195.2545166015625
 21
623.8313747096709
 31
0.0
  0
LINE
  5
3B7
330
1F
100
AcDbEntity
  8
3-2
  6
Continuous
 62
    92
370
     5
100
AcDbLine
 10
190.5405405405406
 20
619.1173986486488
 30
0.0
 11
190.5405405405406
 21
628.5453507706927
 31
0.0
  0
LINE
  5
3B8
330
1F
100
AcDbEntity
  8
3-2
  6
Continuous
 62
    92
370
     5
100
AcDbLine
 10
183.4694527290964
 20
619.2183540962839
 30
0.0
 11
183.4694527290964
 21
621.474510399071
 31
0.0
  0
LINE
  5
3B9
330
1F
100
AcDbEntity
  8
3-2
  6
Continuous
 62
    92
370
     5
100
AcDbLine
 10
171.8323578705659
 20
630.9024625211148
 30
0.0
 11
174.0415006070526
 21
630.9024625211148
 31
0.0
  0
LINE
  5
3BA
330
1F
100
AcDbEntity
  8
3-2
  6
Continuous
 62
    92
370
     5
100
AcDbLine
 10
171.8323578705659
 20
645.0446381440033
 30
0.0
 11
174.0415006070526
 21
645.0446381440033
 31
0.0
  0
LINE
  5
3BB
330
1F
100
AcDbEntity
  8
3-2
  6
Continuous
 62
    92
370
     5
100
AcDbLine
 10
173.3120480099242
 20
648.1309550517315
 30
0.0
 11
200.7273905986065
 21
620.7153650232266
 31
0.0
  0
LINE
  5
3BC
330
1F
100
AcDbEntity
  8
3-2
  6
Continuous
 62
    92
370
     5
100
AcDbLine
 10
176.3983649176521
 20
647.4015024546031
 30
0.0
 11
176.3983649176521
 21
652.115478515625
 31
0.0
  0
LINE
  5
3BD
330
1F
100
AcDbEntity
  8
3-2
  6
Continuous
 62
    92
370
     5
100
AcDbLine
 10
176.3986123574747
 20
652.1157259554477
 30
0.0
 11
181.1123409786742
 21
652.1157259554477
 31
0.0
  0
LINE
  5
3BE
330
1F
100
AcDbEntity
  8
3-2
  6
Continuous
 62
    92
370
     5
100
AcDbLine
 10
183.4694527290964
 20
654.4725902660474
 30
0.0
 11
183.4694527290964
 21
656.6817330025339
 31
0.0
  0
LINE
  5
3BF
330
1F
100
AcDbEntity
  8
3-2
  6
Continuous
 62
    92
370
     5
100
AcDbLine
 10
170.5830342060813
 20
639.2288125527873
 30
0.0
 11
189.2882475981841
 21
657.934273384713
 31
0.0
  0
LINE
  5
3C0
330
1F
100
AcDbEntity
  8
3-2
  6
Continuous
 62
    92
370
     5
100
AcDbLine
 10
197.6116283519849
 20
654.4725902660474
 30
0.0
 11
197.6116283519849
 21
656.6817330025339
 31
0.0
  0
LINE
  5
3C1
330
1F
100
AcDbEntity
  8
3-2
  6
Continuous
 62
    92
370
     5
100
AcDbLine
 10
173.2947272223396
 20
627.79857738598
 30
0.0
 11
200.6981926995357
 21
655.2020428631758
 31
0.0
  0
LINE
  5
3C2
330
1F
100
AcDbEntity
  8
3-2
  6
Continuous
 62
    92
370
     5
100
AcDbLine
 10
199.9687401024073
 20
652.1157259554477
 30
0.0
 11
204.6827161634292
 21
652.1157259554477
 31
0.0
  0
LINE
  5
3C3
330
1F
100
AcDbEntity
  8
3-2
  6
Continuous
 62
    92
370
     5
100
AcDbLine
 10
204.6827161634292
 20
647.4015024546031
 30
0.0
 11
204.6827161634292
 21
652.115478515625
 31
0.0
  0
LINE
  5
3C4
330
1F
100
AcDbEntity
  8
3-2
  6
Continuous
 62
    92
370
     5
100
AcDbLine
 10
207.0395804740289
 20
645.0446381440033
 30
0.0
 11
209.2487232105154
 21
645.0446381440033
 31
0.0
  0
LINE
  5
3C5
330
1F
100
AcDbEntity
  8
3-2
  6
Continuous
 62
    92
370
     5
100
AcDbLine
 10
191.7928334828972
 20
657.934273384713
 30
0.0
 11
210.5012635926943
 21
639.2258432749156
 31
0.0
  0
LINE
  5
3C6
330
1F
100
AcDbEntity
  8
3-2
  6
Continuous
 62
    92
370
     5
100
AcDbLine
 10
180.3536904824747
 20
620.7153650232266
 30
0.0
 11
207.76928051098
 21
648.1309550517315
 31
0.0
  0
LINE
  5
3C7
330
1F
100
AcDbEntity
  8
3-2
  6
Continuous
 62
    92
370
     5
100
AcDbLine
 10
207.0395804740289
 20
630.9024625211148
 30
0.0
 11
209.248970650338
 21
630.9024625211148
 31
0.0
  0
LINE
  5
3C8
330
1F
100
AcDbEntity
  8
3-2
  6
Continuous
 62
    92
370
     5
100
AcDbLine
 10
180.3828883815459
 20
655.2020428631758
 30
0.0
 11
207.7690330711573
 21
627.8158981735644
 31
0.0
  0
LINE
  5
3C9
330
1F
100
AcDbEntity
  8
3-2
  6
Continuous
 62
    92
370
     5
100
AcDbLine
 10
204.6827161634292
 20
623.8313747096709
 30
0.0
 11
204.6827161634292
 21
628.5455982105154
 31
0.0
  0
LINE
  5
3CA
330
1F
100
AcDbEntity
  8
3-2
  6
Continuous
 62
    92
370
     5
100
AcDbLine
 10
199.9687401024073
 20
623.8313747096709
 30
0.0
 11
204.6829636032518
 21
623.8313747096709
 31
0.0
  0
LINE
  5
3CB
330
1F
100
AcDbEntity
  8
3-2
  6
Continuous
 62
    92
370
     5
100
AcDbLine
 10
197.6116283519849
 20
619.265120222762
 30
0.0
 11
197.6116283519849
 21
621.474510399071
 31
0.0
  0
LINE
  5
3CC
330
1F
100
AcDbEntity
  8
3-2
  6
Continuous
 62
    92
370
     5
100
AcDbLine
 10
191.7930809227198
 20
618.0128272804054
 30
0.0
 11
210.5012635926943
 21
636.7210099503802
 31
0.0
  0
LINE
  5
3CD
330
1F
100
AcDbEntity
  8
3-2
  6
Continuous
 62
    92
370
     5
100
AcDbLine
 10
170.579817488387
 20
636.7210099503802
 30
0.0
 11
189.2882475981841
 21
618.0128272804054
 31
0.0
  0
LINE
  5
3CE
330
1F
100
AcDbEntity
  8
3-2
  6
Continuous
 62
    92
370
     5
100
AcDbLine
 10
176.3983649176521
 20
623.8313747096709
 30
0.0
 11
181.1123409786742
 21
623.8313747096709
 31
0.0
  0
LINE
  5
3CF
330
1F
100
AcDbEntity
  8
3-2
  6
Continuous
 62
    92
370
     5
100
AcDbLine
 10
176.3983649176521
 20
623.8313747096709
 30
0.0
 11
176.3983649176521
 21
628.5455982105154
 31
0.0
  0
LINE
  5
3D0
330
1F
100
AcDbEntity
  8
3-2
  6
JWW_CENTER1
 62
    92
370
     5
100
AcDbLine
 10
139.0099602776607
 20
637.9735503325592
 30
0.0
 11
153.8739178631758
 21
637.9735503325592
 31
0.0
  0
LINE
  5
3D1
330
1F
100
AcDbEntity
  8
3-2
  6
JWW_CENTER1
 62
    92
370
     5
100
AcDbLine
 10
227.2074106577281
 20
637.9735503325592
 30
0.0
 11
241.7066419446792
 21
637.9735503325592
 31
0.0
  0
LINE
  5
3D2
330
1F
100
AcDbEntity
  8
3-2
  6
JWW_CENTER1
 62
    92
370
     5
100
AcDbLine
 10
190.5405405405406
 20
601.3066802153717
 30
0.0
 11
190.5405405405406
 21
586.4494035050677
 31
0.0
  0
LINE
  5
3D3
330
1F
100
AcDbEntity
  8
3-2
  6
JWW_CENTER1
 62
    92
370
     5
100
AcDbLine
 10
190.5405405405406
 20
691.5343743401606
 30
0.0
 11
190.5405405405406
 21
674.6401730099242
 31
0.0
  0
LINE
  5
3D4
330
1F
100
AcDbEntity
  8
3-2
  6
Continuous
 62
    92
370
     5
100
AcDbLine
 10
385.8267294394005
 20
652.115478515625
 30
0.0
 11
395.2546815614443
 21
652.115478515625
 31
0.0
  0
LINE
  5
3D5
330
1F
100
AcDbEntity
  8
3-2
  6
Continuous
 62
    92
370
     5
100
AcDbLine
 10
390.5407055004224
 20
647.4015024546031
 30
0.0
 11
390.5407055004224
 21
656.8297020164698
 31
0.0
  0
LINE
  5
3D6
330
1F
100
AcDbEntity
  8
3-2
  6
Continuous
 62
    92
370
     5
100
AcDbLine
 10
378.7556416279563
 20
645.0446381440033
 30
0.0
 11
388.1838411898227
 21
645.0446381440033
 31
0.0
  0
LINE
  5
3D7
330
1F
100
AcDbEntity
  8
3-2
  6
Continuous
 62
    92
370
     5
100
AcDbLine
 10
383.4696176889781
 20
640.3306620829815
 30
0.0
 11
383.4696176889781
 21
649.7586142050255
 31
0.0
  0
LINE
  5
3D8
330
1F
100
AcDbEntity
  8
3-2
  6
Continuous
 62
    92
370
     5
100
AcDbLine
 10
392.8978172508448
 20
645.0446381440033
 30
0.0
 11
402.3257693728885
 21
645.0446381440033
 31
0.0
  0
LINE
  5
3D9
330
1F
100
AcDbEntity
  8
3-2
  6
Continuous
 62
    92
370
     5
100
AcDbLine
 10
397.6117933118667
 20
640.3306620829815
 30
0.0
 11
397.6117933118667
 21
649.7586142050255
 31
0.0
  0
LINE
  5
3DA
330
1F
100
AcDbEntity
  8
3-2
  6
Continuous
 62
    92
370
     5
100
AcDbLine
 10
385.8267294394005
 20
637.9735503325592
 30
0.0
 11
395.2546815614443
 21
637.9735503325592
 31
0.0
  0
LINE
  5
3DB
330
1F
100
AcDbEntity
  8
3-2
  6
Continuous
 62
    92
370
     5
100
AcDbLine
 10
390.5407055004224
 20
633.2595742715373
 30
0.0
 11
390.5407055004224
 21
642.6875263935813
 31
0.0
  0
LINE
  5
3DC
330
1F
100
AcDbEntity
  8
3-2
  6
Continuous
 62
    92
370
     5
100
AcDbLine
 10
371.684553816512
 20
637.9735503325592
 30
0.0
 11
381.112505938556
 21
637.9735503325592
 31
0.0
  0
LINE
  5
3DD
330
1F
100
AcDbEntity
  8
3-2
  6
Continuous
 62
    92
370
     5
100
AcDbLine
 10
376.3985298775339
 20
633.2595742715373
 30
0.0
 11
376.3985298775339
 21
642.6875263935813
 31
0.0
  0
LINE
  5
3DE
330
1F
100
AcDbEntity
  8
3-2
  6
Continuous
 62
    92
370
     5
100
AcDbLine
 10
378.7556416279563
 20
630.9024625211148
 30
0.0
 11
388.1838411898227
 21
630.9024625211148
 31
0.0
  0
LINE
  5
3DF
330
1F
100
AcDbEntity
  8
3-2
  6
Continuous
 62
    92
370
     5
100
AcDbLine
 10
383.4696176889781
 20
626.1884864600929
 30
0.0
 11
383.4696176889781
 21
635.616438582137
 31
0.0
  0
LINE
  5
3E0
330
1F
100
AcDbEntity
  8
3-2
  6
Continuous
 62
    92
370
     5
100
AcDbLine
 10
399.9689050622891
 20
637.9735503325592
 30
0.0
 11
409.3968571843328
 21
637.9735503325592
 31
0.0
  0
LINE
  5
3E1
330
1F
100
AcDbEntity
  8
3-2
  6
Continuous
 62
    92
370
     5
100
AcDbLine
 10
404.6828811233109
 20
633.2595742715373
 30
0.0
 11
404.6828811233109
 21
642.6875263935813
 31
0.0
  0
LINE
  5
3E2
330
1F
100
AcDbEntity
  8
3-2
  6
Continuous
 62
    92
370
     5
100
AcDbLine
 10
392.8978172508448
 20
630.9024625211148
 30
0.0
 11
402.3257693728885
 21
630.9024625211148
 31
0.0
  0
LINE
  5
3E3
330
1F
100
AcDbEntity
  8
3-2
  6
Continuous
 62
    92
370
     5
100
AcDbLine
 10
397.6117933118667
 20
626.1884864600929
 30
0.0
 11
397.6117933118667
 21
635.616438582137
 31
0.0
  0
LINE
  5
3E4
330
1F
100
AcDbEntity
  8
3-2
  6
Continuous
 62
    92
370
     5
100
AcDbLine
 10
385.8267294394005
 20
623.8313747096709
 30
0.0
 11
395.2546815614443
 21
623.8313747096709
 31
0.0
  0
LINE
  5
3E5
330
1F
100
AcDbEntity
  8
3-2
  6
Continuous
 62
    92
370
     5
100
AcDbLine
 10
390.5407055004224
 20
619.1173986486488
 30
0.0
 11
390.5407055004224
 21
628.5453507706927
 31
0.0
  0
LINE
  5
3E6
330
1F
100
AcDbEntity
  8
3-2
  6
Continuous
 62
    92
370
     5
100
AcDbLine
 10
383.4696176889781
 20
619.2183540962839
 30
0.0
 11
383.4696176889781
 21
621.474510399071
 31
0.0
  0
LINE
  5
3E7
330
1F
100
AcDbEntity
  8
3-2
  6
Continuous
 62
    92
370
     5
100
AcDbLine
 10
371.832275390625
 20
630.9024625211148
 30
0.0
 11
374.0416655669344
 21
630.9024625211148
 31
0.0
  0
LINE
  5
3E8
330
1F
100
AcDbEntity
  8
3-2
  6
Continuous
 62
    92
370
     5
100
AcDbLine
 10
371.8325228304477
 20
645.0446381440033
 30
0.0
 11
374.0416655669344
 21
645.0446381440033
 31
0.0
  0
LINE
  5
3E9
330
1F
100
AcDbEntity
  8
3-2
  6
Continuous
 62
    92
370
     5
100
AcDbLine
 10
373.3119655299834
 20
648.1309550517315
 30
0.0
 11
400.7275555584883
 21
620.7153650232266
 31
0.0
  0
LINE
  5
3EA
330
1F
100
AcDbEntity
  8
3-2
  6
Continuous
 62
    92
370
     5
100
AcDbLine
 10
376.3985298775339
 20
647.4015024546031
 30
0.0
 11
376.3985298775339
 21
652.115478515625
 31
0.0
  0
LINE
  5
3EB
330
1F
100
AcDbEntity
  8
3-2
  6
Continuous
 62
    92
370
     5
100
AcDbLine
 10
376.3987773173565
 20
652.1157259554477
 30
0.0
 11
381.112505938556
 21
652.1157259554477
 31
0.0
  0
LINE
  5
3EC
330
1F
100
AcDbEntity
  8
3-2
  6
Continuous
 62
    92
370
     5
100
AcDbLine
 10
383.4696176889781
 20
654.4725902660474
 30
0.0
 11
383.4696176889781
 21
656.6817330025339
 31
0.0
  0
LINE
  5
3ED
330
1F
100
AcDbEntity
  8
3-2
  6
Continuous
 62
    92
370
     5
100
AcDbLine
 10
370.583199165963
 20
639.2288125527873
 30
0.0
 11
389.2884125580659
 21
657.934273384713
 31
0.0
  0
LINE
  5
3EE
330
1F
100
AcDbEntity
  8
3-2
  6
Continuous
 62
    92
370
     5
100
AcDbLine
 10
397.6117933118667
 20
654.4725902660474
 30
0.0
 11
397.6117933118667
 21
656.6817330025339
 31
0.0
  0
LINE
  5
3EF
330
1F
100
AcDbEntity
  8
3-2
  6
Continuous
 62
    92
370
     5
100
AcDbLine
 10
373.2948921822214
 20
627.79857738598
 30
0.0
 11
400.6983576594175
 21
655.2020428631758
 31
0.0
  0
LINE
  5
3F0
330
1F
100
AcDbEntity
  8
3-2
  6
Continuous
 62
    92
370
     5
100
AcDbLine
 10
399.9689050622891
 20
652.1157259554477
 30
0.0
 11
404.6828811233109
 21
652.1157259554477
 31
0.0
  0
LINE
  5
3F1
330
1F
100
AcDbEntity
  8
3-2
  6
Continuous
 62
    92
370
     5
100
AcDbLine
 10
404.6828811233109
 20
647.4015024546031
 30
0.0
 11
404.6828811233109
 21
652.115478515625
 31
0.0
  0
LINE
  5
3F2
330
1F
100
AcDbEntity
  8
3-2
  6
Continuous
 62
    92
370
     5
100
AcDbLine
 10
407.0397454339107
 20
645.0446381440033
 30
0.0
 11
409.2488881703972
 21
645.0446381440033
 31
0.0
  0
LINE
  5
3F3
330
1F
100
AcDbEntity
  8
3-2
  6
Continuous
 62
    92
370
     5
100
AcDbLine
 10
391.7929984427789
 20
657.934273384713
 30
0.0
 11
410.501428552576
 21
639.2258432749156
 31
0.0
  0
LINE
  5
3F4
330
1F
100
AcDbEntity
  8
3-2
  6
Continuous
 62
    92
370
     5
100
AcDbLine
 10
380.3538554423565
 20
620.7153650232266
 30
0.0
 11
407.7694454708617
 21
648.1309550517315
 31
0.0
  0
LINE
  5
3F5
330
1F
100
AcDbEntity
  8
3-2
  6
Continuous
 62
    92
370
     5
100
AcDbLine
 10
407.0397454339107
 20
630.9024625211148
 30
0.0
 11
409.2491356102198
 21
630.9024625211148
 31
0.0
  0
LINE
  5
3F6
330
1F
100
AcDbEntity
  8
3-2
  6
Continuous
 62
    92
370
     5
100
AcDbLine
 10
380.3830533414276
 20
655.2020428631758
 30
0.0
 11
407.7691980310391
 21
627.8158981735644
 31
0.0
  0
LINE
  5
3F7
330
1F
100
AcDbEntity
  8
3-2
  6
Continuous
 62
    92
370
     5
100
AcDbLine
 10
404.6828811233109
 20
623.8313747096709
 30
0.0
 11
404.6828811233109
 21
628.5455982105154
 31
0.0
  0
LINE
  5
3F8
330
1F
100
AcDbEntity
  8
3-2
  6
Continuous
 62
    92
370
     5
100
AcDbLine
 10
399.9689050622891
 20
623.8313747096709
 30
0.0
 11
404.6831285631336
 21
623.8313747096709
 31
0.0
  0
LINE
  5
3F9
330
1F
100
AcDbEntity
  8
3-2
  6
Continuous
 62
    92
370
     5
100
AcDbLine
 10
397.6117933118667
 20
619.265120222762
 30
0.0
 11
397.6117933118667
 21
621.474510399071
 31
0.0
  0
LINE
  5
3FA
330
1F
100
AcDbEntity
  8
3-2
  6
Continuous
 62
    92
370
     5
100
AcDbLine
 10
391.7932458826016
 20
618.0128272804054
 30
0.0
 11
410.501428552576
 21
636.7210099503802
 31
0.0
  0
LINE
  5
3FB
330
1F
100
AcDbEntity
  8
3-2
  6
Continuous
 62
    92
370
     5
100
AcDbLine
 10
370.5799824482688
 20
636.7210099503802
 30
0.0
 11
389.2884125580659
 21
618.0128272804054
 31
0.0
  0
LINE
  5
3FC
330
1F
100
AcDbEntity
  8
3-2
  6
Continuous
 62
    92
370
     5
100
AcDbLine
 10
376.3985298775339
 20
623.8313747096709
 30
0.0
 11
381.112505938556
 21
623.8313747096709
 31
0.0
  0
LINE
  5
3FD
330
1F
100
AcDbEntity
  8
3-2
  6
Continuous
 62
    92
370
     5
100
AcDbLine
 10
376.3985298775339
 20
623.8313747096709
 30
0.0
 11
376.3985298775339
 21
628.5455982105154
 31
0.0
  0
LINE
  5
3FE
330
1F
100
AcDbEntity
  8
3-2
  6
JWW_CENTER1
 62
    92
370
     5
100
AcDbLine
 10
339.0101252375425
 20
637.9735503325592
 30
0.0
 11
353.8740828230576
 21
637.9735503325592
 31
0.0
  0
LINE
  5
3FF
330
1F
100
AcDbEntity
  8
3-2
  6
JWW_CENTER1
 62
    92
370
     5
100
AcDbLine
 10
427.2075756176099
 20
637.9735503325592
 30
0.0
 11
441.7068069045609
 21
637.9735503325592
 31
0.0
  0
LINE
  5
400
330
1F
100
AcDbEntity
  8
3-2
  6
JWW_CENTER1
 62
    92
370
     5
100
AcDbLine
 10
390.5407055004224
 20
601.3066802153717
 30
0.0
 11
390.5407055004224
 21
586.4494035050677
 31
0.0
  0
LINE
  5
401
330
1F
100
AcDbEntity
  8
3-2
  6
JWW_CENTER1
 62
    92
370
     5
100
AcDbLine
 10
390.5407055004224
 20
691.5343743401606
 30
0.0
 11
390.5407055004224
 21
674.6401730099242
 31
0.0
  0
LINE
  5
402
330
1F
100
AcDbEntity
  8
3-2
  6
Continuous
 62
    92
370
     5
100
AcDbLine
 10
585.8266469594594
 20
652.115478515625
 30
0.0
 11
595.2545990815037
 21
652.115478515625
 31
0.0
  0
LINE
  5
403
330
1F
100
AcDbEntity
  8
3-2
  6
Continuous
 62
    92
370
     5
100
AcDbLine
 10
590.5406230204818
 20
647.4015024546031
 30
0.0
 11
590.5406230204818
 21
656.8297020164698
 31
0.0
  0
LINE
  5
404
330
1F
100
AcDbEntity
  8
3-2
  6
Continuous
 62
    92
370
     5
100
AcDbLine
 10
578.7555591480151
 20
645.0446381440033
 30
0.0
 11
588.1837587098818
 21
645.0446381440033
 31
0.0
  0
LINE
  5
405
330
1F
100
AcDbEntity
  8
3-2
  6
Continuous
 62
    92
370
     5
100
AcDbLine
 10
583.4695352090375
 20
640.3306620829815
 30
0.0
 11
583.4695352090375
 21
649.7586142050255
 31
0.0
  0
LINE
  5
406
330
1F
100
AcDbEntity
  8
3-2
  6
Continuous
 62
    92
370
     5
100
AcDbLine
 10
592.8977347709036
 20
645.0446381440033
 30
0.0
 11
602.3256868929479
 21
645.0446381440033
 31
0.0
  0
LINE
  5
407
330
1F
100
AcDbEntity
  8
3-2
  6
Continuous
 62
    92
370
     5
100
AcDbLine
 10
597.6117108319261
 20
640.3306620829815
 30
0.0
 11
597.6117108319261
 21
649.7586142050255
 31
0.0
  0
LINE
  5
408
330
1F
100
AcDbEntity
  8
3-2
  6
Continuous
 62
    92
370
     5
100
AcDbLine
 10
585.8266469594594
 20
637.9735503325592
 30
0.0
 11
595.2545990815037
 21
637.9735503325592
 31
0.0
  0
LINE
  5
409
330
1F
100
AcDbEntity
  8
3-2
  6
Continuous
 62
    92
370
     5
100
AcDbLine
 10
590.5406230204818
 20
633.2595742715373
 30
0.0
 11
590.5406230204818
 21
642.6875263935813
 31
0.0
  0
LINE
  5
40A
330
1F
100
AcDbEntity
  8
3-2
  6
Continuous
 62
    92
370
     5
100
AcDbLine
 10
571.6844713365708
 20
637.9735503325592
 30
0.0
 11
581.1124234586151
 21
637.9735503325592
 31
0.0
  0
LINE
  5
40B
330
1F
100
AcDbEntity
  8
3-2
  6
Continuous
 62
    92
370
     5
100
AcDbLine
 10
576.3984473975933
 20
633.2595742715373
 30
0.0
 11
576.3984473975933
 21
642.6875263935813
 31
0.0
  0
LINE
  5
40C
330
1F
100
AcDbEntity
  8
3-2
  6
Continuous
 62
    92
370
     5
100
AcDbLine
 10
578.7555591480151
 20
630.9024625211148
 30
0.0
 11
588.1837587098818
 21
630.9024625211148
 31
0.0
  0
LINE
  5
40D
330
1F
100
AcDbEntity
  8
3-2
  6
Continuous
 62
    92
370
     5
100
AcDbLine
 10
583.4695352090375
 20
626.1884864600929
 30
0.0
 11
583.4695352090375
 21
635.616438582137
 31
0.0
  0
LINE
  5
40E
330
1F
100
AcDbEntity
  8
3-2
  6
Continuous
 62
    92
370
     5
100
AcDbLine
 10
599.9688225823479
 20
637.9735503325592
 30
0.0
 11
609.3967747043922
 21
637.9735503325592
 31
0.0
  0
LINE
  5
40F
330
1F
100
AcDbEntity
  8
3-2
  6
Continuous
 62
    92
370
     5
100
AcDbLine
 10
604.6827986433703
 20
633.2595742715373
 30
0.0
 11
604.6827986433703
 21
642.6875263935813
 31
0.0
  0
LINE
  5
410
330
1F
100
AcDbEntity
  8
3-2
  6
Continuous
 62
    92
370
     5
100
AcDbLine
 10
592.8977347709036
 20
630.9024625211148
 30
0.0
 11
602.3256868929479
 21
630.9024625211148
 31
0.0
  0
LINE
  5
411
330
1F
100
AcDbEntity
  8
3-2
  6
Continuous
 62
    92
370
     5
100
AcDbLine
 10
597.6117108319261
 20
626.1884864600929
 30
0.0
 11
597.6117108319261
 21
635.616438582137
 31
0.0
  0
LINE
  5
412
330
1F
100
AcDbEntity
  8
3-2
  6
Continuous
 62
    92
370
     5
100
AcDbLine
 10
585.8266469594594
 20
623.8313747096709
 30
0.0
 11
595.2545990815037
 21
623.8313747096709
 31
0.0
  0
LINE
  5
413
330
1F
100
AcDbEntity
  8
3-2
  6
Continuous
 62
    92
370
     5
100
AcDbLine
 10
590.5406230204818
 20
619.1173986486488
 30
0.0
 11
590.5406230204818
 21
628.5453507706927
 31
0.0
  0
LINE
  5
414
330
1F
100
AcDbEntity
  8
3-2
  6
Continuous
 62
    92
370
     5
100
AcDbLine
 10
583.4695352090375
 20
619.2183540962839
 30
0.0
 11
583.4695352090375
 21
621.474510399071
 31
0.0
  0
LINE
  5
415
330
1F
100
AcDbEntity
  8
3-2
  6
Continuous
 62
    92
370
     5
100
AcDbLine
 10
571.8324403505068
 20
630.9024625211148
 30
0.0
 11
574.0415830869932
 21
630.9024625211148
 31
0.0
  0
LINE
  5
416
330
1F
100
AcDbEntity
  8
3-2
  6
Continuous
 62
    92
370
     5
100
AcDbLine
 10
571.8324403505068
 20
645.0446381440033
 30
0.0
 11
574.0415830869932
 21
645.0446381440033
 31
0.0
  0
LINE
  5
417
330
1F
100
AcDbEntity
  8
3-2
  6
Continuous
 62
    92
370
     5
100
AcDbLine
 10
573.3121304898651
 20
648.1309550517315
 30
0.0
 11
600.7274730785474
 21
620.7153650232266
 31
0.0
  0
LINE
  5
418
330
1F
100
AcDbEntity
  8
3-2
  6
Continuous
 62
    92
370
     5
100
AcDbLine
 10
576.3984473975933
 20
647.4015024546031
 30
0.0
 11
576.3984473975933
 21
652.115478515625
 31
0.0
  0
LINE
  5
419
330
1F
100
AcDbEntity
  8
3-2
  6
Continuous
 62
    92
370
     5
100
AcDbLine
 10
576.3986948374156
 20
652.1157259554477
 30
0.0
 11
581.1124234586151
 21
652.1157259554477
 31
0.0
  0
LINE
  5
41A
330
1F
100
AcDbEntity
  8
3-2
  6
Continuous
 62
    92
370
     5
100
AcDbLine
 10
583.4695352090375
 20
654.4725902660474
 30
0.0
 11
583.4695352090375
 21
656.6817330025339
 31
0.0
  0
LINE
  5
41B
330
1F
100
AcDbEntity
  8
3-2
  6
Continuous
 62
    92
370
     5
100
AcDbLine
 10
570.5831166860219
 20
639.2288125527873
 30
0.0
 11
589.288330078125
 21
657.934273384713
 31
0.0
  0
LINE
  5
41C
330
1F
100
AcDbEntity
  8
3-2
  6
Continuous
 62
    92
370
     5
100
AcDbLine
 10
597.6117108319261
 20
654.4725902660474
 30
0.0
 11
597.6117108319261
 21
656.6817330025339
 31
0.0
  0
LINE
  5
41D
330
1F
100
AcDbEntity
  8
3-2
  6
Continuous
 62
    92
370
     5
100
AcDbLine
 10
573.2948097022808
 20
627.79857738598
 30
0.0
 11
600.6982751794766
 21
655.2020428631758
 31
0.0
  0
LINE
  5
41E
330
1F
100
AcDbEntity
  8
3-2
  6
Continuous
 62
    92
370
     5
100
AcDbLine
 10
599.9688225823479
 20
652.1157259554477
 30
0.0
 11
604.6827986433703
 21
652.1157259554477
 31
0.0
  0
LINE
  5
41F
330
1F
100
AcDbEntity
  8
3-2
  6
Continuous
 62
    92
370
     5
100
AcDbLine
 10
604.6827986433703
 20
647.4015024546031
 30
0.0
 11
604.6827986433703
 21
652.115478515625
 31
0.0
  0
LINE
  5
420
330
1F
100
AcDbEntity
  8
3-2
  6
Continuous
 62
    92
370
     5
100
AcDbLine
 10
607.0396629539698
 20
645.0446381440033
 30
0.0
 11
609.2488056904563
 21
645.0446381440033
 31
0.0
  0
LINE
  5
421
330
1F
100
AcDbEntity
  8
3-2
  6
Continuous
 62
    92
370
     5
100
AcDbLine
 10
591.792915962838
 20
657.934273384713
 30
0.0
 11
610.5013460726354
 21
639.2258432749156
 31
0.0
  0
LINE
  5
422
330
1F
100
AcDbEntity
  8
3-2
  6
Continuous
 62
    92
370
     5
100
AcDbLine
 10
580.3537729624156
 20
620.7153650232266
 30
0.0
 11
607.7693629909209
 21
648.1309550517315
 31
0.0
  0
LINE
  5
423
330
1F
100
AcDbEntity
  8
3-2
  6
Continuous
 62
    92
370
     5
100
AcDbLine
 10
607.0396629539698
 20
630.9024625211148
 30
0.0
 11
609.2490531302786
 21
630.9024625211148
 31
0.0
  0
LINE
  5
424
330
1F
100
AcDbEntity
  8
3-2
  6
Continuous
 62
    92
370
     5
100
AcDbLine
 10
580.3829708614865
 20
655.2020428631758
 30
0.0
 11
607.7691155510979
 21
627.8158981735644
 31
0.0
  0
LINE
  5
425
330
1F
100
AcDbEntity
  8
3-2
  6
Continuous
 62
    92
370
     5
100
AcDbLine
 10
604.6827986433703
 20
623.8313747096709
 30
0.0
 11
604.6827986433703
 21
628.5455982105154
 31
0.0
  0
LINE
  5
426
330
1F
100
AcDbEntity
  8
3-2
  6
Continuous
 62
    92
370
     5
100
AcDbLine
 10
599.9688225823479
 20
623.8313747096709
 30
0.0
 11
604.6830460831927
 21
623.8313747096709
 31
0.0
  0
LINE
  5
427
330
1F
100
AcDbEntity
  8
3-2
  6
Continuous
 62
    92
370
     5
100
AcDbLine
 10
597.6117108319261
 20
619.265120222762
 30
0.0
 11
597.6117108319261
 21
621.474510399071
 31
0.0
  0
LINE
  5
428
330
1F
100
AcDbEntity
  8
3-2
  6
Continuous
 62
    92
370
     5
100
AcDbLine
 10
591.7931634026604
 20
618.0128272804054
 30
0.0
 11
610.5013460726354
 21
636.7210099503802
 31
0.0
  0
LINE
  5
429
330
1F
100
AcDbEntity
  8
3-2
  6
Continuous
 62
    92
370
     5
100
AcDbLine
 10
570.5798999683276
 20
636.7210099503802
 30
0.0
 11
589.288330078125
 21
618.0128272804054
 31
0.0
  0
LINE
  5
42A
330
1F
100
AcDbEntity
  8
3-2
  6
Continuous
 62
    92
370
     5
100
AcDbLine
 10
576.3984473975933
 20
623.8313747096709
 30
0.0
 11
581.1124234586151
 21
623.8313747096709
 31
0.0
  0
LINE
  5
42B
330
1F
100
AcDbEntity
  8
3-2
  6
Continuous
 62
    92
370
     5
100
AcDbLine
 10
576.3984473975933
 20
623.8313747096709
 30
0.0
 11
576.3984473975933
 21
628.5455982105154
 31
0.0
  0
LINE
  5
42C
330
1F
100
AcDbEntity
  8
3-2
  6
JWW_CENTER1
 62
    92
370
     5
100
AcDbLine
 10
539.0100427576016
 20
637.9735503325592
 30
0.0
 11
553.8740003431167
 21
637.9735503325592
 31
0.0
  0
LINE
  5
42D
330
1F
100
AcDbEntity
  8
3-2
  6
JWW_CENTER1
 62
    92
370
     5
100
AcDbLine
 10
627.2074931376693
 20
637.9735503325592
 30
0.0
 11
641.7067244246203
 21
637.9735503325592
 31
0.0
  0
LINE
  5
42E
330
1F
100
AcDbEntity
  8
3-2
  6
JWW_CENTER1
 62
    92
370
     5
100
AcDbLine
 10
590.5406230204818
 20
601.3066802153717
 30
0.0
 11
590.5406230204818
 21
586.4494035050677
 31
0.0
  0
LINE
  5
42F
330
1F
100
AcDbEntity
  8
3-2
  6
JWW_CENTER1
 62
    92
370
     5
100
AcDbLine
 10
590.5406230204818
 20
691.5343743401606
 30
0.0
 11
590.5406230204818
 21
674.6401730099242
 31
0.0
  0
LINE
  5
430
330
1F
100
AcDbEntity
  8
3-2
  6
Continuous
 62
    92
370
     5
100
AcDbLine
 10
785.8265644795188
 20
652.115478515625
 30
0.0
 11
795.2545166015625
 21
652.115478515625
 31
0.0
  0
LINE
  5
431
330
1F
100
AcDbEntity
  8
3-2
  6
Continuous
 62
    92
370
     5
100
AcDbLine
 10
790.5405405405406
 20
647.4015024546031
 30
0.0
 11
790.5405405405406
 21
656.8297020164698
 31
0.0
  0
LINE
  5
432
330
1F
100
AcDbEntity
  8
3-2
  6
Continuous
 62
    92
370
     5
100
AcDbLine
 10
778.7554766680745
 20
645.0446381440033
 30
0.0
 11
788.1836762299412
 21
645.0446381440033
 31
0.0
  0
LINE
  5
433
330
1F
100
AcDbEntity
  8
3-2
  6
Continuous
 62
    92
370
     5
100
AcDbLine
 10
783.4694527290964
 20
640.3306620829815
 30
0.0
 11
783.4694527290964
 21
649.7586142050255
 31
0.0
  0
LINE
  5
434
330
1F
100
AcDbEntity
  8
3-2
  6
Continuous
 62
    92
370
     5
100
AcDbLine
 10
792.897652290963
 20
645.0446381440033
 30
0.0
 11
802.3256044130068
 21
645.0446381440033
 31
0.0
  0
LINE
  5
435
330
1F
100
AcDbEntity
  8
3-2
  6
Continuous
 62
    92
370
     5
100
AcDbLine
 10
797.6116283519849
 20
640.3306620829815
 30
0.0
 11
797.6116283519849
 21
649.7586142050255
 31
0.0
  0
LINE
  5
436
330
1F
100
AcDbEntity
  8
3-2
  6
Continuous
 62
    92
370
     5
100
AcDbLine
 10
785.8265644795188
 20
637.9735503325592
 30
0.0
 11
795.2545166015625
 21
637.9735503325592
 31
0.0
  0
LINE
  5
437
330
1F
100
AcDbEntity
  8
3-2
  6
Continuous
 62
    92
370
     5
100
AcDbLine
 10
790.5405405405406
 20
633.2595742715373
 30
0.0
 11
790.5405405405406
 21
642.6875263935813
 31
0.0
  0
LINE
  5
438
330
1F
100
AcDbEntity
  8
3-2
  6
Continuous
 62
    92
370
     5
100
AcDbLine
 10
771.6843888566302
 20
637.9735503325592
 30
0.0
 11
781.112340978674
 21
637.9735503325592
 31
0.0
  0
LINE
  5
439
330
1F
100
AcDbEntity
  8
3-2
  6
Continuous
 62
    92
370
     5
100
AcDbLine
 10
776.3983649176521
 20
633.2595742715373
 30
0.0
 11
776.3983649176521
 21
642.6875263935813
 31
0.0
  0
LINE
  5
43A
330
1F
100
AcDbEntity
  8
3-2
  6
Continuous
 62
    92
370
     5
100
AcDbLine
 10
778.7554766680745
 20
630.9024625211148
 30
0.0
 11
788.1836762299412
 21
630.9024625211148
 31
0.0
  0
LINE
  5
43B
330
1F
100
AcDbEntity
  8
3-2
  6
Continuous
 62
    92
370
     5
100
AcDbLine
 10
783.4694527290964
 20
626.1884864600929
 30
0.0
 11
783.4694527290964
 21
635.616438582137
 31
0.0
  0
LINE
  5
43C
330
1F
100
AcDbEntity
  8
3-2
  6
Continuous
 62
    92
370
     5
100
AcDbLine
 10
799.9687401024073
 20
637.9735503325592
 30
0.0
 11
809.396692224451
 21
637.9735503325592
 31
0.0
  0
LINE
  5
43D
330
1F
100
AcDbEntity
  8
3-2
  6
Continuous
 62
    92
370
     5
100
AcDbLine
 10
804.6827161634292
 20
633.2595742715373
 30
0.0
 11
804.6827161634292
 21
642.6875263935813
 31
0.0
  0
LINE
  5
43E
330
1F
100
AcDbEntity
  8
3-2
  6
Continuous
 62
    92
370
     5
100
AcDbLine
 10
792.897652290963
 20
630.9024625211148
 30
0.0
 11
802.3256044130068
 21
630.9024625211148
 31
0.0
  0
LINE
  5
43F
330
1F
100
AcDbEntity
  8
3-2
  6
Continuous
 62
    92
370
     5
100
AcDbLine
 10
797.6116283519849
 20
626.1884864600929
 30
0.0
 11
797.6116283519849
 21
635.616438582137
 31
0.0
  0
LINE
  5
440
330
1F
100
AcDbEntity
  8
3-2
  6
Continuous
 62
    92
370
     5
100
AcDbLine
 10
785.8265644795188
 20
623.8313747096709
 30
0.0
 11
795.2545166015625
 21
623.8313747096709
 31
0.0
  0
LINE
  5
441
330
1F
100
AcDbEntity
  8
3-2
  6
Continuous
 62
    92
370
     5
100
AcDbLine
 10
790.5405405405406
 20
619.1173986486488
 30
0.0
 11
790.5405405405406
 21
628.5453507706927
 31
0.0
  0
LINE
  5
442
330
1F
100
AcDbEntity
  8
3-2
  6
Continuous
 62
    92
370
     5
100
AcDbLine
 10
783.4694527290964
 20
619.2183540962839
 30
0.0
 11
783.4694527290964
 21
621.474510399071
 31
0.0
  0
LINE
  5
443
330
1F
100
AcDbEntity
  8
3-2
  6
Continuous
 62
    92
370
     5
100
AcDbLine
 10
771.8323578705662
 20
630.9024625211148
 30
0.0
 11
774.0415006070526
 21
630.9024625211148
 31
0.0
  0
LINE
  5
444
330
1F
100
AcDbEntity
  8
3-2
  6
Continuous
 62
    92
370
     5
100
AcDbLine
 10
771.8323578705662
 20
645.0446381440033
 30
0.0
 11
774.0415006070526
 21
645.0446381440033
 31
0.0
  0
LINE
  5
445
330
1F
100
AcDbEntity
  8
3-2
  6
Continuous
 62
    92
370
     5
100
AcDbLine
 10
773.312048009924
 20
648.1309550517315
 30
0.0
 11
800.7273905986068
 21
620.7153650232266
 31
0.0
  0
LINE
  5
446
330
1F
100
AcDbEntity
  8
3-2
  6
Continuous
 62
    92
370
     5
100
AcDbLine
 10
776.3983649176521
 20
647.4015024546031
 30
0.0
 11
776.3983649176521
 21
652.115478515625
 31
0.0
  0
LINE
  5
447
330
1F
100
AcDbEntity
  8
3-2
  6
Continuous
 62
    92
370
     5
100
AcDbLine
 10
776.398612357475
 20
652.1157259554477
 30
0.0
 11
781.112340978674
 21
652.1157259554477
 31
0.0
  0
LINE
  5
448
330
1F
100
AcDbEntity
  8
3-2
  6
Continuous
 62
    92
370
     5
100
AcDbLine
 10
783.4694527290964
 20
654.4725902660474
 30
0.0
 11
783.4694527290964
 21
656.6817330025339
 31
0.0
  0
LINE
  5
449
330
1F
100
AcDbEntity
  8
3-2
  6
Continuous
 62
    92
370
     5
100
AcDbLine
 10
770.5830342060813
 20
639.2288125527873
 30
0.0
 11
789.2882475981844
 21
657.934273384713
 31
0.0
  0
LINE
  5
44A
330
1F
100
AcDbEntity
  8
3-2
  6
Continuous
 62
    92
370
     5
100
AcDbLine
 10
797.6116283519849
 20
654.4725902660474
 30
0.0
 11
797.6116283519849
 21
656.6817330025339
 31
0.0
  0
LINE
  5
44B
330
1F
100
AcDbEntity
  8
3-2
  6
Continuous
 62
    92
370
     5
100
AcDbLine
 10
773.2947272223396
 20
627.79857738598
 30
0.0
 11
800.6981926995354
 21
655.2020428631758
 31
0.0
  0
LINE
  5
44C
330
1F
100
AcDbEntity
  8
3-2
  6
Continuous
 62
    92
370
     5
100
AcDbLine
 10
799.9687401024073
 20
652.1157259554477
 30
0.0
 11
804.6827161634292
 21
652.1157259554477
 31
0.0
  0
LINE
  5
44D
330
1F
100
AcDbEntity
  8
3-2
  6
Continuous
 62
    92
370
     5
100
AcDbLine
 10
804.6827161634292
 20
647.4015024546031
 30
0.0
 11
804.6827161634292
 21
652.115478515625
 31
0.0
  0
LINE
  5
44E
330
1F
100
AcDbEntity
  8
3-2
  6
Continuous
 62
    92
370
     5
100
AcDbLine
 10
807.0395804740286
 20
645.0446381440033
 30
0.0
 11
809.2487232105151
 21
645.0446381440033
 31
0.0
  0
LINE
  5
44F
330
1F
100
AcDbEntity
  8
3-2
  6
Continuous
 62
    92
370
     5
100
AcDbLine
 10
791.7928334828969
 20
657.934273384713
 30
0.0
 11
810.5012635926943
 21
639.2258432749156
 31
0.0
  0
LINE
  5
450
330
1F
100
AcDbEntity
  8
3-2
  6
Continuous
 62
    92
370
     5
100
AcDbLine
 10
780.353690482475
 20
620.7153650232266
 30
0.0
 11
807.7692805109797
 21
648.1309550517315
 31
0.0
  0
LINE
  5
451
330
1F
100
AcDbEntity
  8
3-2
  6
Continuous
 62
    92
370
     5
100
AcDbLine
 10
807.0395804740286
 20
630.9024625211148
 30
0.0
 11
809.248970650338
 21
630.9024625211148
 31
0.0
  0
LINE
  5
452
330
1F
100
AcDbEntity
  8
3-2
  6
Continuous
 62
    92
370
     5
100
AcDbLine
 10
780.3828883815459
 20
655.2020428631758
 30
0.0
 11
807.7690330711573
 21
627.8158981735644
 31
0.0
  0
LINE
  5
453
330
1F
100
AcDbEntity
  8
3-2
  6
Continuous
 62
    92
370
     5
100
AcDbLine
 10
804.6827161634292
 20
623.8313747096709
 30
0.0
 11
804.6827161634292
 21
628.5455982105154
 31
0.0
  0
LINE
  5
454
330
1F
100
AcDbEntity
  8
3-2
  6
Continuous
 62
    92
370
     5
100
AcDbLine
 10
799.9687401024073
 20
623.8313747096709
 30
0.0
 11
804.6829636032521
 21
623.8313747096709
 31
0.0
  0
LINE
  5
455
330
1F
100
AcDbEntity
  8
3-2
  6
Continuous
 62
    92
370
     5
100
AcDbLine
 10
797.6116283519849
 20
619.265120222762
 30
0.0
 11
797.6116283519849
 21
621.474510399071
 31
0.0
  0
LINE
  5
456
330
1F
100
AcDbEntity
  8
3-2
  6
Continuous
 62
    92
370
     5
100
AcDbLine
 10
791.7930809227198
 20
618.0128272804054
 30
0.0
 11
810.5012635926943
 21
636.7210099503802
 31
0.0
  0
LINE
  5
457
330
1F
100
AcDbEntity
  8
3-2
  6
Continuous
 62
    92
370
     5
100
AcDbLine
 10
770.579817488387
 20
636.7210099503802
 30
0.0
 11
789.2882475981844
 21
618.0128272804054
 31
0.0
  0
LINE
  5
458
330
1F
100
AcDbEntity
  8
3-2
  6
Continuous
 62
    92
370
     5
100
AcDbLine
 10
776.3983649176521
 20
623.8313747096709
 30
0.0
 11
781.112340978674
 21
623.8313747096709
 31
0.0
  0
LINE
  5
459
330
1F
100
AcDbEntity
  8
3-2
  6
Continuous
 62
    92
370
     5
100
AcDbLine
 10
776.3983649176521
 20
623.8313747096709
 30
0.0
 11
776.3983649176521
 21
628.5455982105154
 31
0.0
  0
LINE
  5
45A
330
1F
100
AcDbEntity
  8
3-2
  6
JWW_CENTER1
 62
    92
370
     5
100
AcDbLine
 10
739.0099602776604
 20
637.9735503325592
 30
0.0
 11
753.8739178631761
 21
637.9735503325592
 31
0.0
  0
LINE
  5
45B
330
1F
100
AcDbEntity
  8
3-2
  6
JWW_CENTER1
 62
    92
370
     5
100
AcDbLine
 10
827.2074106577281
 20
637.9735503325592
 30
0.0
 11
841.7066419446792
 21
637.9735503325592
 31
0.0
  0
LINE
  5
45C
330
1F
100
AcDbEntity
  8
3-2
  6
JWW_CENTER1
 62
    92
370
     5
100
AcDbLine
 10
790.5405405405406
 20
601.3066802153717
 30
0.0
 11
790.5405405405406
 21
586.4494035050677
 31
0.0
  0
LINE
  5
45D
330
1F
100
AcDbEntity
  8
3-2
  6
JWW_CENTER1
 62
    92
370
     5
100
AcDbLine
 10
790.5405405405406
 20
691.5343743401606
 30
0.0
 11
790.5405405405406
 21
674.6401730099242
 31
0.0
  0
LINE
  5
45E
330
1F
100
AcDbEntity
  8
3-2
  6
Continuous
 62
    92
370
     5
100
AcDbLine
 10
-14.17335304054035
 20
852.1153960356842
 30
0.0
 11
-4.745400918496614
 21
852.1153960356842
 31
0.0
  0
LINE
  5
45F
330
1F
100
AcDbEntity
  8
3-2
  6
Continuous
 62
    92
370
     5
100
AcDbLine
 10
-9.459376979518481
 20
847.4014199746623
 30
0.0
 11
-9.459376979518481
 21
856.829619536529
 31
0.0
  0
LINE
  5
460
330
1F
100
AcDbEntity
  8
3-2
  6
Continuous
 62
    92
370
     5
100
AcDbLine
 10
-21.24444085198462
 20
845.0445556640625
 30
0.0
 11
-11.81624129011823
 21
845.0445556640625
 31
0.0
  0
LINE
  5
461
330
1F
100
AcDbEntity
  8
3-2
  6
Continuous
 62
    92
370
     5
100
AcDbLine
 10
-16.53046479096275
 20
840.3305796030406
 30
0.0
 11
-16.53046479096275
 21
849.7585317250846
 31
0.0
  0
LINE
  5
462
330
1F
100
AcDbEntity
  8
3-2
  6
Continuous
 62
    92
370
     5
100
AcDbLine
 10
-7.102265229096076
 20
845.0445556640625
 30
0.0
 11
2.325686892947658
 21
845.0445556640625
 31
0.0
  0
LINE
  5
463
330
1F
100
AcDbEntity
  8
3-2
  6
Continuous
 62
    92
370
     5
100
AcDbLine
 10
-2.388289168074209
 20
840.3305796030406
 30
0.0
 11
-2.388289168074209
 21
849.7585317250846
 31
0.0
  0
LINE
  5
464
330
1F
100
AcDbEntity
  8
3-2
  6
Continuous
 62
    92
370
     5
100
AcDbLine
 10
-14.17335304054035
 20
837.9734678526186
 30
0.0
 11
-4.745400918496614
 21
837.9734678526186
 31
0.0
  0
LINE
  5
465
330
1F
100
AcDbEntity
  8
3-2
  6
Continuous
 62
    92
370
     5
100
AcDbLine
 10
-9.459376979518481
 20
833.2594917915964
 30
0.0
 11
-9.459376979518481
 21
842.6874439136404
 31
0.0
  0
LINE
  5
466
330
1F
100
AcDbEntity
  8
3-2
  6
Continuous
 62
    92
370
     5
100
AcDbLine
 10
-28.31552866342889
 20
837.9734678526186
 30
0.0
 11
-18.88757654138516
 21
837.9734678526186
 31
0.0
  0
LINE
  5
467
330
1F
100
AcDbEntity
  8
3-2
  6
Continuous
 62
    92
370
     5
100
AcDbLine
 10
-23.60155260240703
 20
833.2594917915964
 30
0.0
 11
-23.60155260240703
 21
842.6874439136404
 31
0.0
  0
LINE
  5
468
330
1F
100
AcDbEntity
  8
3-2
  6
Continuous
 62
    92
370
     5
100
AcDbLine
 10
-21.24444085198462
 20
830.9023800411742
 30
0.0
 11
-11.81624129011823
 21
830.9023800411742
 31
0.0
  0
LINE
  5
469
330
1F
100
AcDbEntity
  8
3-2
  6
Continuous
 62
    92
370
     5
100
AcDbLine
 10
-16.53046479096275
 20
826.1884039801521
 30
0.0
 11
-16.53046479096275
 21
835.616356102196
 31
0.0
  0
LINE
  5
46A
330
1F
100
AcDbEntity
  8
3-2
  6
Continuous
 62
    92
370
     5
100
AcDbLine
 10
-0.0311774176518043
 20
837.9734678526186
 30
0.0
 11
9.39677470439193
 21
837.9734678526186
 31
0.0
  0
LINE
  5
46B
330
1F
100
AcDbEntity
  8
3-2
  6
Continuous
 62
    92
370
     5
100
AcDbLine
 10
4.682798643370063
 20
833.2594917915964
 30
0.0
 11
4.682798643370063
 21
842.6874439136404
 31
0.0
  0
LINE
  5
46C
330
1F
100
AcDbEntity
  8
3-2
  6
Continuous
 62
    92
370
     5
100
AcDbLine
 10
-7.102265229096076
 20
830.9023800411742
 30
0.0
 11
2.325686892947658
 21
830.9023800411742
 31
0.0
  0
LINE
  5
46D
330
1F
100
AcDbEntity
  8
3-2
  6
Continuous
 62
    92
370
     5
100
AcDbLine
 10
-2.388289168074209
 20
826.1884039801521
 30
0.0
 11
-2.388289168074209
 21
835.616356102196
 31
0.0
  0
LINE
  5
46E
330
1F
100
AcDbEntity
  8
3-2
  6
Continuous
 62
    92
370
     5
100
AcDbLine
 10
-14.17335304054035
 20
823.83129222973
 30
0.0
 11
-4.745400918496614
 21
823.83129222973
 31
0.0
  0
LINE
  5
46F
330
1F
100
AcDbEntity
  8
3-2
  6
Continuous
 62
    92
370
     5
100
AcDbLine
 10
-9.459376979518481
 20
819.1173161687078
 30
0.0
 11
-9.459376979518481
 21
828.5452682907519
 31
0.0
  0
LINE
  5
470
330
1F
100
AcDbEntity
  8
3-2
  6
Continuous
 62
    92
370
     5
100
AcDbLine
 10
-16.53046479096275
 20
819.2182716163429
 30
0.0
 11
-16.53046479096275
 21
821.4744279191302
 31
0.0
  0
LINE
  5
471
330
1F
100
AcDbEntity
  8
3-2
  6
Continuous
 62
    92
370
     5
100
AcDbLine
 10
-28.16768336940441
 20
830.9023800411742
 30
0.0
 11
-25.95841691300677
 21
830.9023800411742
 31
0.0
  0
LINE
  5
472
330
1F
100
AcDbEntity
  8
3-2
  6
Continuous
 62
    92
370
     5
100
AcDbLine
 10
-28.16755964949323
 20
845.0445556640625
 30
0.0
 11
-25.95841691300677
 21
845.0445556640625
 31
0.0
  0
LINE
  5
473
330
1F
100
AcDbEntity
  8
3-2
  6
Continuous
 62
    92
370
     5
100
AcDbLine
 10
-26.68799323004635
 20
848.1308725717906
 30
0.0
 11
0.7274730785474048
 21
820.7152825432856
 31
0.0
  0
LINE
  5
474
330
1F
100
AcDbEntity
  8
3-2
  6
Continuous
 62
    92
370
     5
100
AcDbLine
 10
-23.60155260240703
 20
847.4014199746623
 30
0.0
 11
-23.60155260240703
 21
852.1153960356842
 31
0.0
  0
LINE
  5
475
330
1F
100
AcDbEntity
  8
3-2
  6
Continuous
 62
    92
370
     5
100
AcDbLine
 10
-23.60130516258437
 20
852.1156434755068
 30
0.0
 11
-18.88757654138516
 21
852.1156434755068
 31
0.0
  0
LINE
  5
476
330
1F
100
AcDbEntity
  8
3-2
  6
Continuous
 62
    92
370
     5
100
AcDbLine
 10
-16.53046479096275
 20
854.4725077861065
 30
0.0
 11
-16.53046479096275
 21
856.6816505225929
 31
0.0
  0
LINE
  5
477
330
1F
100
AcDbEntity
  8
3-2
  6
Continuous
 62
    92
370
     5
100
AcDbLine
 10
-29.41688331397785
 20
839.2287300728464
 30
0.0
 11
-10.711669921875
 21
857.9341909047721
 31
0.0
  0
LINE
  5
478
330
1F
100
AcDbEntity
  8
3-2
  6
Continuous
 62
    92
370
     5
100
AcDbLine
 10
-2.388289168074209
 20
854.4725077861065
 30
0.0
 11
-2.388289168074209
 21
856.6816505225929
 31
0.0
  0
LINE
  5
479
330
1F
100
AcDbEntity
  8
3-2
  6
Continuous
 62
    92
370
     5
100
AcDbLine
 10
-26.70519029771953
 20
827.7984949060391
 30
0.0
 11
0.6982751794765818
 21
855.2019603832349
 31
0.0
  0
LINE
  5
47A
330
1F
100
AcDbEntity
  8
3-2
  6
Continuous
 62
    92
370
     5
100
AcDbLine
 10
-0.0311774176518043
 20
852.1156434755068
 30
0.0
 11
4.682798643370063
 21
852.1156434755068
 31
0.0
  0
LINE
  5
47B
330
1F
100
AcDbEntity
  8
3-2
  6
Continuous
 62
    92
370
     5
100
AcDbLine
 10
4.682798643370063
 20
847.4014199746623
 30
0.0
 11
4.682798643370063
 21
852.1153960356842
 31
0.0
  0
LINE
  5
47C
330
1F
100
AcDbEntity
  8
3-2
  6
Continuous
 62
    92
370
     5
100
AcDbLine
 10
7.03966295396981
 20
845.0445556640625
 30
0.0
 11
9.248805690456265
 21
845.0445556640625
 31
0.0
  0
LINE
  5
47D
330
1F
100
AcDbEntity
  8
3-2
  6
Continuous
 62
    92
370
     5
100
AcDbLine
 10
-8.207084037161962
 20
857.9341909047721
 30
0.0
 11
10.50134607263516
 21
839.2257607949748
 31
0.0
  0
LINE
  5
47E
330
1F
100
AcDbEntity
  8
3-2
  6
Continuous
 62
    92
370
     5
100
AcDbLine
 10
-19.64622703758437
 20
820.7152825432856
 30
0.0
 11
7.769362990920854
 21
848.1308725717906
 31
0.0
  0
LINE
  5
47F
330
1F
100
AcDbEntity
  8
3-2
  6
Continuous
 62
    92
370
     5
100
AcDbLine
 10
7.03966295396981
 20
830.9023800411742
 30
0.0
 11
9.249053130278924
 21
830.9023800411742
 31
0.0
  0
LINE
  5
480
330
1F
100
AcDbEntity
  8
3-2
  6
Continuous
 62
    92
370
     5
100
AcDbLine
 10
-19.61702913851326
 20
855.2019603832349
 30
0.0
 11
7.769115551098196
 21
827.8158156936234
 31
0.0
  0
LINE
  5
481
330
1F
100
AcDbEntity
  8
3-2
  6
Continuous
 62
    92
370
     5
100
AcDbLine
 10
4.682798643370063
 20
823.83129222973
 30
0.0
 11
4.682798643370063
 21
828.5455157305745
 31
0.0
  0
LINE
  5
482
330
1F
100
AcDbEntity
  8
3-2
  6
Continuous
 62
    92
370
     5
100
AcDbLine
 10
-0.0311774176518043
 20
823.83129222973
 30
0.0
 11
4.683046083192721
 21
823.83129222973
 31
0.0
  0
LINE
  5
483
330
1F
100
AcDbEntity
  8
3-2
  6
Continuous
 62
    92
370
     5
100
AcDbLine
 10
-2.388289168074209
 20
819.265037742821
 30
0.0
 11
-2.388289168074209
 21
821.4744279191302
 31
0.0
  0
LINE
  5
484
330
1F
100
AcDbEntity
  8
3-2
  6
Continuous
 62
    92
370
     5
100
AcDbLine
 10
-8.206836597339304
 20
818.0127448004646
 30
0.0
 11
10.50134607263516
 21
836.7209274704394
 31
0.0
  0
LINE
  5
485
330
1F
100
AcDbEntity
  8
3-2
  6
Continuous
 62
    92
370
     5
100
AcDbLine
 10
-29.42010003167212
 20
836.7209274704394
 30
0.0
 11
-10.711669921875
 21
818.0127448004646
 31
0.0
  0
LINE
  5
486
330
1F
100
AcDbEntity
  8
3-2
  6
Continuous
 62
    92
370
     5
100
AcDbLine
 10
-23.60155260240703
 20
823.83129222973
 30
0.0
 11
-18.88757654138516
 21
823.83129222973
 31
0.0
  0
LINE
  5
487
330
1F
100
AcDbEntity
  8
3-2
  6
Continuous
 62
    92
370
     5
100
AcDbLine
 10
-23.60155260240703
 20
823.83129222973
 30
0.0
 11
-23.60155260240703
 21
828.5455157305745
 31
0.0
  0
LINE
  5
488
330
1F
100
AcDbEntity
  8
3-2
  6
JWW_CENTER1
 62
    92
370
     5
100
AcDbLine
 10
-60.98995724239842
 20
837.9734678526186
 30
0.0
 11
-46.12599965688332
 21
837.9734678526186
 31
0.0
  0
LINE
  5
489
330
1F
100
AcDbEntity
  8
3-2
  6
JWW_CENTER1
 62
    92
370
     5
100
AcDbLine
 10
27.20749313766902
 20
837.9734678526186
 30
0.0
 11
41.70672442462006
 21
837.9734678526186
 31
0.0
  0
LINE
  5
48A
330
1F
100
AcDbEntity
  8
3-2
  6
JWW_CENTER1
 62
    92
370
     5
100
AcDbLine
 10
-9.459376979518481
 20
801.3065977354311
 30
0.0
 11
-9.459376979518481
 21
786.4493210251269
 31
0.0
  0
LINE
  5
48B
330
1F
100
AcDbEntity
  8
3-2
  6
JWW_CENTER1
 62
    92
370
     5
100
AcDbLine
 10
-9.459376979518481
 20
891.5342918602198
 30
0.0
 11
-9.459376979518481
 21
874.6400905299834
 31
0.0
  0
LINE
  5
48C
330
1F
100
AcDbEntity
  8
3-2
  6
Continuous
 62
    92
370
     5
100
AcDbLine
 10
185.8265644795188
 20
852.1153960356842
 30
0.0
 11
195.2545166015625
 21
852.1153960356842
 31
0.0
  0
LINE
  5
48D
330
1F
100
AcDbEntity
  8
3-2
  6
Continuous
 62
    92
370
     5
100
AcDbLine
 10
190.5405405405406
 20
847.4014199746623
 30
0.0
 11
190.5405405405406
 21
856.829619536529
 31
0.0
  0
LINE
  5
48E
330
1F
100
AcDbEntity
  8
3-2
  6
Continuous
 62
    92
370
     5
100
AcDbLine
 10
178.7554766680745
 20
845.0445556640625
 30
0.0
 11
188.1836762299409
 21
845.0445556640625
 31
0.0
  0
LINE
  5
48F
330
1F
100
AcDbEntity
  8
3-2
  6
Continuous
 62
    92
370
     5
100
AcDbLine
 10
183.4694527290964
 20
840.3305796030406
 30
0.0
 11
183.4694527290964
 21
849.7585317250846
 31
0.0
  0
LINE
  5
490
330
1F
100
AcDbEntity
  8
3-2
  6
Continuous
 62
    92
370
     5
100
AcDbLine
 10
192.897652290963
 20
845.0445556640625
 30
0.0
 11
202.3256044130068
 21
845.0445556640625
 31
0.0
  0
LINE
  5
491
330
1F
100
AcDbEntity
  8
3-2
  6
Continuous
 62
    92
370
     5
100
AcDbLine
 10
197.6116283519849
 20
840.3305796030406
 30
0.0
 11
197.6116283519849
 21
849.7585317250846
 31
0.0
  0
LINE
  5
492
330
1F
100
AcDbEntity
  8
3-2
  6
Continuous
 62
    92
370
     5
100
AcDbLine
 10
185.8265644795188
 20
837.9734678526186
 30
0.0
 11
195.2545166015625
 21
837.9734678526186
 31
0.0
  0
LINE
  5
493
330
1F
100
AcDbEntity
  8
3-2
  6
Continuous
 62
    92
370
     5
100
AcDbLine
 10
190.5405405405406
 20
833.2594917915964
 30
0.0
 11
190.5405405405406
 21
842.6874439136404
 31
0.0
  0
LINE
  5
494
330
1F
100
AcDbEntity
  8
3-2
  6
Continuous
 62
    92
370
     5
100
AcDbLine
 10
171.6843888566302
 20
837.9734678526186
 30
0.0
 11
181.1123409786742
 21
837.9734678526186
 31
0.0
  0
LINE
  5
495
330
1F
100
AcDbEntity
  8
3-2
  6
Continuous
 62
    92
370
     5
100
AcDbLine
 10
176.3983649176521
 20
833.2594917915964
 30
0.0
 11
176.3983649176521
 21
842.6874439136404
 31
0.0
  0
LINE
  5
496
330
1F
100
AcDbEntity
  8
3-2
  6
Continuous
 62
    92
370
     5
100
AcDbLine
 10
178.7554766680745
 20
830.9023800411742
 30
0.0
 11
188.1836762299409
 21
830.9023800411742
 31
0.0
  0
LINE
  5
497
330
1F
100
AcDbEntity
  8
3-2
  6
Continuous
 62
    92
370
     5
100
AcDbLine
 10
183.4694527290964
 20
826.1884039801521
 30
0.0
 11
183.4694527290964
 21
835.616356102196
 31
0.0
  0
LINE
  5
498
330
1F
100
AcDbEntity
  8
3-2
  6
Continuous
 62
    92
370
     5
100
AcDbLine
 10
199.9687401024073
 20
837.9734678526186
 30
0.0
 11
209.396692224451
 21
837.9734678526186
 31
0.0
  0
LINE
  5
499
330
1F
100
AcDbEntity
  8
3-2
  6
Continuous
 62
    92
370
     5
100
AcDbLine
 10
204.6827161634292
 20
833.2594917915964
 30
0.0
 11
204.6827161634292
 21
842.6874439136404
 31
0.0
  0
LINE
  5
49A
330
1F
100
AcDbEntity
  8
3-2
  6
Continuous
 62
    92
370
     5
100
AcDbLine
 10
192.897652290963
 20
830.9023800411742
 30
0.0
 11
202.3256044130068
 21
830.9023800411742
 31
0.0
  0
LINE
  5
49B
330
1F
100
AcDbEntity
  8
3-2
  6
Continuous
 62
    92
370
     5
100
AcDbLine
 10
197.6116283519849
 20
826.1884039801521
 30
0.0
 11
197.6116283519849
 21
835.616356102196
 31
0.0
  0
LINE
  5
49C
330
1F
100
AcDbEntity
  8
3-2
  6
Continuous
 62
    92
370
     5
100
AcDbLine
 10
185.8265644795188
 20
823.83129222973
 30
0.0
 11
195.2545166015625
 21
823.83129222973
 31
0.0
  0
LINE
  5
49D
330
1F
100
AcDbEntity
  8
3-2
  6
Continuous
 62
    92
370
     5
100
AcDbLine
 10
190.5405405405406
 20
819.1173161687078
 30
0.0
 11
190.5405405405406
 21
828.5452682907519
 31
0.0
  0
LINE
  5
49E
330
1F
100
AcDbEntity
  8
3-2
  6
Continuous
 62
    92
370
     5
100
AcDbLine
 10
183.4694527290964
 20
819.2182716163429
 30
0.0
 11
183.4694527290964
 21
821.4744279191302
 31
0.0
  0
LINE
  5
49F
330
1F
100
AcDbEntity
  8
3-2
  6
Continuous
 62
    92
370
     5
100
AcDbLine
 10
171.8323578705659
 20
830.9023800411742
 30
0.0
 11
174.0415006070526
 21
830.9023800411742
 31
0.0
  0
LINE
  5
4A0
330
1F
100
AcDbEntity
  8
3-2
  6
Continuous
 62
    92
370
     5
100
AcDbLine
 10
171.8323578705659
 20
845.0445556640625
 30
0.0
 11
174.0415006070526
 21
845.0445556640625
 31
0.0
  0
LINE
  5
4A1
330
1F
100
AcDbEntity
  8
3-2
  6
Continuous
 62
    92
370
     5
100
AcDbLine
 10
173.3120480099242
 20
848.1308725717906
 30
0.0
 11
200.7273905986065
 21
820.7152825432856
 31
0.0
  0
LINE
  5
4A2
330
1F
100
AcDbEntity
  8
3-2
  6
Continuous
 62
    92
370
     5
100
AcDbLine
 10
176.3983649176521
 20
847.4014199746623
 30
0.0
 11
176.3983649176521
 21
852.1153960356842
 31
0.0
  0
LINE
  5
4A3
330
1F
100
AcDbEntity
  8
3-2
  6
Continuous
 62
    92
370
     5
100
AcDbLine
 10
176.3986123574747
 20
852.1156434755068
 30
0.0
 11
181.1123409786742
 21
852.1156434755068
 31
0.0
  0
LINE
  5
4A4
330
1F
100
AcDbEntity
  8
3-2
  6
Continuous
 62
    92
370
     5
100
AcDbLine
 10
183.4694527290964
 20
854.4725077861065
 30
0.0
 11
183.4694527290964
 21
856.6816505225929
 31
0.0
  0
LINE
  5
4A5
330
1F
100
AcDbEntity
  8
3-2
  6
Continuous
 62
    92
370
     5
100
AcDbLine
 10
170.5830342060813
 20
839.2287300728464
 30
0.0
 11
189.2882475981841
 21
857.9341909047721
 31
0.0
  0
LINE
  5
4A6
330
1F
100
AcDbEntity
  8
3-2
  6
Continuous
 62
    92
370
     5
100
AcDbLine
 10
197.6116283519849
 20
854.4725077861065
 30
0.0
 11
197.6116283519849
 21
856.6816505225929
 31
0.0
  0
LINE
  5
4A7
330
1F
100
AcDbEntity
  8
3-2
  6
Continuous
 62
    92
370
     5
100
AcDbLine
 10
173.2947272223396
 20
827.7984949060391
 30
0.0
 11
200.6981926995357
 21
855.2019603832349
 31
0.0
  0
LINE
  5
4A8
330
1F
100
AcDbEntity
  8
3-2
  6
Continuous
 62
    92
370
     5
100
AcDbLine
 10
199.9687401024073
 20
852.1156434755068
 30
0.0
 11
204.6827161634292
 21
852.1156434755068
 31
0.0
  0
LINE
  5
4A9
330
1F
100
AcDbEntity
  8
3-2
  6
Continuous
 62
    92
370
     5
100
AcDbLine
 10
204.6827161634292
 20
847.4014199746623
 30
0.0
 11
204.6827161634292
 21
852.1153960356842
 31
0.0
  0
LINE
  5
4AA
330
1F
100
AcDbEntity
  8
3-2
  6
Continuous
 62
    92
370
     5
100
AcDbLine
 10
207.0395804740289
 20
845.0445556640625
 30
0.0
 11
209.2487232105154
 21
845.0445556640625
 31
0.0
  0
LINE
  5
4AB
330
1F
100
AcDbEntity
  8
3-2
  6
Continuous
 62
    92
370
     5
100
AcDbLine
 10
191.7928334828972
 20
857.9341909047721
 30
0.0
 11
210.5012635926943
 21
839.2257607949748
 31
0.0
  0
LINE
  5
4AC
330
1F
100
AcDbEntity
  8
3-2
  6
Continuous
 62
    92
370
     5
100
AcDbLine
 10
180.3536904824747
 20
820.7152825432856
 30
0.0
 11
207.76928051098
 21
848.1308725717906
 31
0.0
  0
LINE
  5
4AD
330
1F
100
AcDbEntity
  8
3-2
  6
Continuous
 62
    92
370
     5
100
AcDbLine
 10
207.0395804740289
 20
830.9023800411742
 30
0.0
 11
209.248970650338
 21
830.9023800411742
 31
0.0
  0
LINE
  5
4AE
330
1F
100
AcDbEntity
  8
3-2
  6
Continuous
 62
    92
370
     5
100
AcDbLine
 10
180.3828883815459
 20
855.2019603832349
 30
0.0
 11
207.7690330711573
 21
827.8158156936234
 31
0.0
  0
LINE
  5
4AF
330
1F
100
AcDbEntity
  8
3-2
  6
Continuous
 62
    92
370
     5
100
AcDbLine
 10
204.6827161634292
 20
823.83129222973
 30
0.0
 11
204.6827161634292
 21
828.5455157305745
 31
0.0
  0
LINE
  5
4B0
330
1F
100
AcDbEntity
  8
3-2
  6
Continuous
 62
    92
370
     5
100
AcDbLine
 10
199.9687401024073
 20
823.83129222973
 30
0.0
 11
204.6829636032518
 21
823.83129222973
 31
0.0
  0
LINE
  5
4B1
330
1F
100
AcDbEntity
  8
3-2
  6
Continuous
 62
    92
370
     5
100
AcDbLine
 10
197.6116283519849
 20
819.265037742821
 30
0.0
 11
197.6116283519849
 21
821.4744279191302
 31
0.0
  0
LINE
  5
4B2
330
1F
100
AcDbEntity
  8
3-2
  6
Continuous
 62
    92
370
     5
100
AcDbLine
 10
191.7930809227198
 20
818.0127448004646
 30
0.0
 11
210.5012635926943
 21
836.7209274704394
 31
0.0
  0
LINE
  5
4B3
330
1F
100
AcDbEntity
  8
3-2
  6
Continuous
 62
    92
370
     5
100
AcDbLine
 10
170.579817488387
 20
836.7209274704394
 30
0.0
 11
189.2882475981841
 21
818.0127448004646
 31
0.0
  0
LINE
  5
4B4
330
1F
100
AcDbEntity
  8
3-2
  6
Continuous
 62
    92
370
     5
100
AcDbLine
 10
176.3983649176521
 20
823.83129222973
 30
0.0
 11
181.1123409786742
 21
823.83129222973
 31
0.0
  0
LINE
  5
4B5
330
1F
100
AcDbEntity
  8
3-2
  6
Continuous
 62
    92
370
     5
100
AcDbLine
 10
176.3983649176521
 20
823.83129222973
 30
0.0
 11
176.3983649176521
 21
828.5455157305745
 31
0.0
  0
LINE
  5
4B6
330
1F
100
AcDbEntity
  8
3-2
  6
JWW_CENTER1
 62
    92
370
     5
100
AcDbLine
 10
139.0099602776607
 20
837.9734678526186
 30
0.0
 11
153.8739178631758
 21
837.9734678526186
 31
0.0
  0
LINE
  5
4B7
330
1F
100
AcDbEntity
  8
3-2
  6
JWW_CENTER1
 62
    92
370
     5
100
AcDbLine
 10
227.2074106577281
 20
837.9734678526186
 30
0.0
 11
241.7066419446792
 21
837.9734678526186
 31
0.0
  0
LINE
  5
4B8
330
1F
100
AcDbEntity
  8
3-2
  6
JWW_CENTER1
 62
    92
370
     5
100
AcDbLine
 10
190.5405405405406
 20
801.3065977354311
 30
0.0
 11
190.5405405405406
 21
786.4493210251269
 31
0.0
  0
LINE
  5
4B9
330
1F
100
AcDbEntity
  8
3-2
  6
JWW_CENTER1
 62
    92
370
     5
100
AcDbLine
 10
190.5405405405406
 20
891.5342918602198
 30
0.0
 11
190.5405405405406
 21
874.6400905299834
 31
0.0
  0
LINE
  5
4BA
330
1F
100
AcDbEntity
  8
3-2
  6
Continuous
 62
    92
370
     5
100
AcDbLine
 10
385.8267294394005
 20
852.1153960356842
 30
0.0
 11
395.2546815614443
 21
852.1153960356842
 31
0.0
  0
LINE
  5
4BB
330
1F
100
AcDbEntity
  8
3-2
  6
Continuous
 62
    92
370
     5
100
AcDbLine
 10
390.5407055004224
 20
847.4014199746623
 30
0.0
 11
390.5407055004224
 21
856.829619536529
 31
0.0
  0
LINE
  5
4BC
330
1F
100
AcDbEntity
  8
3-2
  6
Continuous
 62
    92
370
     5
100
AcDbLine
 10
378.7556416279563
 20
845.0445556640625
 30
0.0
 11
388.1838411898227
 21
845.0445556640625
 31
0.0
  0
LINE
  5
4BD
330
1F
100
AcDbEntity
  8
3-2
  6
Continuous
 62
    92
370
     5
100
AcDbLine
 10
383.4696176889781
 20
840.3305796030406
 30
0.0
 11
383.4696176889781
 21
849.7585317250846
 31
0.0
  0
LINE
  5
4BE
330
1F
100
AcDbEntity
  8
3-2
  6
Continuous
 62
    92
370
     5
100
AcDbLine
 10
392.8978172508448
 20
845.0445556640625
 30
0.0
 11
402.3257693728885
 21
845.0445556640625
 31
0.0
  0
LINE
  5
4BF
330
1F
100
AcDbEntity
  8
3-2
  6
Continuous
 62
    92
370
     5
100
AcDbLine
 10
397.6117933118667
 20
840.3305796030406
 30
0.0
 11
397.6117933118667
 21
849.7585317250846
 31
0.0
  0
LINE
  5
4C0
330
1F
100
AcDbEntity
  8
3-2
  6
Continuous
 62
    92
370
     5
100
AcDbLine
 10
385.8267294394005
 20
837.9734678526186
 30
0.0
 11
395.2546815614443
 21
837.9734678526186
 31
0.0
  0
LINE
  5
4C1
330
1F
100
AcDbEntity
  8
3-2
  6
Continuous
 62
    92
370
     5
100
AcDbLine
 10
390.5407055004224
 20
833.2594917915964
 30
0.0
 11
390.5407055004224
 21
842.6874439136404
 31
0.0
  0
LINE
  5
4C2
330
1F
100
AcDbEntity
  8
3-2
  6
Continuous
 62
    92
370
     5
100
AcDbLine
 10
371.684553816512
 20
837.9734678526186
 30
0.0
 11
381.112505938556
 21
837.9734678526186
 31
0.0
  0
LINE
  5
4C3
330
1F
100
AcDbEntity
  8
3-2
  6
Continuous
 62
    92
370
     5
100
AcDbLine
 10
376.3985298775339
 20
833.2594917915964
 30
0.0
 11
376.3985298775339
 21
842.6874439136404
 31
0.0
  0
LINE
  5
4C4
330
1F
100
AcDbEntity
  8
3-2
  6
Continuous
 62
    92
370
     5
100
AcDbLine
 10
378.7556416279563
 20
830.9023800411742
 30
0.0
 11
388.1838411898227
 21
830.9023800411742
 31
0.0
  0
LINE
  5
4C5
330
1F
100
AcDbEntity
  8
3-2
  6
Continuous
 62
    92
370
     5
100
AcDbLine
 10
383.4696176889781
 20
826.1884039801521
 30
0.0
 11
383.4696176889781
 21
835.616356102196
 31
0.0
  0
LINE
  5
4C6
330
1F
100
AcDbEntity
  8
3-2
  6
Continuous
 62
    92
370
     5
100
AcDbLine
 10
399.9689050622891
 20
837.9734678526186
 30
0.0
 11
409.3968571843328
 21
837.9734678526186
 31
0.0
  0
LINE
  5
4C7
330
1F
100
AcDbEntity
  8
3-2
  6
Continuous
 62
    92
370
     5
100
AcDbLine
 10
404.6828811233109
 20
833.2594917915964
 30
0.0
 11
404.6828811233109
 21
842.6874439136404
 31
0.0
  0
LINE
  5
4C8
330
1F
100
AcDbEntity
  8
3-2
  6
Continuous
 62
    92
370
     5
100
AcDbLine
 10
392.8978172508448
 20
830.9023800411742
 30
0.0
 11
402.3257693728885
 21
830.9023800411742
 31
0.0
  0
LINE
  5
4C9
330
1F
100
AcDbEntity
  8
3-2
  6
Continuous
 62
    92
370
     5
100
AcDbLine
 10
397.6117933118667
 20
826.1884039801521
 30
0.0
 11
397.6117933118667
 21
835.616356102196
 31
0.0
  0
LINE
  5
4CA
330
1F
100
AcDbEntity
  8
3-2
  6
Continuous
 62
    92
370
     5
100
AcDbLine
 10
385.8267294394005
 20
823.83129222973
 30
0.0
 11
395.2546815614443
 21
823.83129222973
 31
0.0
  0
LINE
  5
4CB
330
1F
100
AcDbEntity
  8
3-2
  6
Continuous
 62
    92
370
     5
100
AcDbLine
 10
390.5407055004224
 20
819.1173161687078
 30
0.0
 11
390.5407055004224
 21
828.5452682907519
 31
0.0
  0
LINE
  5
4CC
330
1F
100
AcDbEntity
  8
3-2
  6
Continuous
 62
    92
370
     5
100
AcDbLine
 10
383.4696176889781
 20
819.2182716163429
 30
0.0
 11
383.4696176889781
 21
821.4744279191302
 31
0.0
  0
LINE
  5
4CD
330
1F
100
AcDbEntity
  8
3-2
  6
Continuous
 62
    92
370
     5
100
AcDbLine
 10
371.832275390625
 20
830.9023800411742
 30
0.0
 11
374.0416655669344
 21
830.9023800411742
 31
0.0
  0
LINE
  5
4CE
330
1F
100
AcDbEntity
  8
3-2
  6
Continuous
 62
    92
370
     5
100
AcDbLine
 10
371.8325228304477
 20
845.0445556640625
 30
0.0
 11
374.0416655669344
 21
845.0445556640625
 31
0.0
  0
LINE
  5
4CF
330
1F
100
AcDbEntity
  8
3-2
  6
Continuous
 62
    92
370
     5
100
AcDbLine
 10
373.3119655299834
 20
848.1308725717906
 30
0.0
 11
400.7275555584883
 21
820.7152825432856
 31
0.0
  0
LINE
  5
4D0
330
1F
100
AcDbEntity
  8
3-2
  6
Continuous
 62
    92
370
     5
100
AcDbLine
 10
376.3985298775339
 20
847.4014199746623
 30
0.0
 11
376.3985298775339
 21
852.1153960356842
 31
0.0
  0
LINE
  5
4D1
330
1F
100
AcDbEntity
  8
3-2
  6
Continuous
 62
    92
370
     5
100
AcDbLine
 10
376.3987773173565
 20
852.1156434755068
 30
0.0
 11
381.112505938556
 21
852.1156434755068
 31
0.0
  0
LINE
  5
4D2
330
1F
100
AcDbEntity
  8
3-2
  6
Continuous
 62
    92
370
     5
100
AcDbLine
 10
383.4696176889781
 20
854.4725077861065
 30
0.0
 11
383.4696176889781
 21
856.6816505225929
 31
0.0
  0
LINE
  5
4D3
330
1F
100
AcDbEntity
  8
3-2
  6
Continuous
 62
    92
370
     5
100
AcDbLine
 10
370.583199165963
 20
839.2287300728464
 30
0.0
 11
389.2884125580659
 21
857.9341909047721
 31
0.0
  0
LINE
  5
4D4
330
1F
100
AcDbEntity
  8
3-2
  6
Continuous
 62
    92
370
     5
100
AcDbLine
 10
397.6117933118667
 20
854.4725077861065
 30
0.0
 11
397.6117933118667
 21
856.6816505225929
 31
0.0
  0
LINE
  5
4D5
330
1F
100
AcDbEntity
  8
3-2
  6
Continuous
 62
    92
370
     5
100
AcDbLine
 10
373.2948921822214
 20
827.7984949060391
 30
0.0
 11
400.6983576594175
 21
855.2019603832349
 31
0.0
  0
LINE
  5
4D6
330
1F
100
AcDbEntity
  8
3-2
  6
Continuous
 62
    92
370
     5
100
AcDbLine
 10
399.9689050622891
 20
852.1156434755068
 30
0.0
 11
404.6828811233109
 21
852.1156434755068
 31
0.0
  0
LINE
  5
4D7
330
1F
100
AcDbEntity
  8
3-2
  6
Continuous
 62
    92
370
     5
100
AcDbLine
 10
404.6828811233109
 20
847.4014199746623
 30
0.0
 11
404.6828811233109
 21
852.1153960356842
 31
0.0
  0
LINE
  5
4D8
330
1F
100
AcDbEntity
  8
3-2
  6
Continuous
 62
    92
370
     5
100
AcDbLine
 10
407.0397454339107
 20
845.0445556640625
 30
0.0
 11
409.2488881703972
 21
845.0445556640625
 31
0.0
  0
LINE
  5
4D9
330
1F
100
AcDbEntity
  8
3-2
  6
Continuous
 62
    92
370
     5
100
AcDbLine
 10
391.7929984427789
 20
857.9341909047721
 30
0.0
 11
410.501428552576
 21
839.2257607949748
 31
0.0
  0
LINE
  5
4DA
330
1F
100
AcDbEntity
  8
3-2
  6
Continuous
 62
    92
370
     5
100
AcDbLine
 10
380.3538554423565
 20
820.7152825432856
 30
0.0
 11
407.7694454708617
 21
848.1308725717906
 31
0.0
  0
LINE
  5
4DB
330
1F
100
AcDbEntity
  8
3-2
  6
Continuous
 62
    92
370
     5
100
AcDbLine
 10
407.0397454339107
 20
830.9023800411742
 30
0.0
 11
409.2491356102198
 21
830.9023800411742
 31
0.0
  0
LINE
  5
4DC
330
1F
100
AcDbEntity
  8
3-2
  6
Continuous
 62
    92
370
     5
100
AcDbLine
 10
380.3830533414276
 20
855.2019603832349
 30
0.0
 11
407.7691980310391
 21
827.8158156936234
 31
0.0
  0
LINE
  5
4DD
330
1F
100
AcDbEntity
  8
3-2
  6
Continuous
 62
    92
370
     5
100
AcDbLine
 10
404.6828811233109
 20
823.83129222973
 30
0.0
 11
404.6828811233109
 21
828.5455157305745
 31
0.0
  0
LINE
  5
4DE
330
1F
100
AcDbEntity
  8
3-2
  6
Continuous
 62
    92
370
     5
100
AcDbLine
 10
399.9689050622891
 20
823.83129222973
 30
0.0
 11
404.6831285631336
 21
823.83129222973
 31
0.0
  0
LINE
  5
4DF
330
1F
100
AcDbEntity
  8
3-2
  6
Continuous
 62
    92
370
     5
100
AcDbLine
 10
397.6117933118667
 20
819.265037742821
 30
0.0
 11
397.6117933118667
 21
821.4744279191302
 31
0.0
  0
LINE
  5
4E0
330
1F
100
AcDbEntity
  8
3-2
  6
Continuous
 62
    92
370
     5
100
AcDbLine
 10
391.7932458826016
 20
818.0127448004646
 30
0.0
 11
410.501428552576
 21
836.7209274704394
 31
0.0
  0
LINE
  5
4E1
330
1F
100
AcDbEntity
  8
3-2
  6
Continuous
 62
    92
370
     5
100
AcDbLine
 10
370.5799824482688
 20
836.7209274704394
 30
0.0
 11
389.2884125580659
 21
818.0127448004646
 31
0.0
  0
LINE
  5
4E2
330
1F
100
AcDbEntity
  8
3-2
  6
Continuous
 62
    92
370
     5
100
AcDbLine
 10
376.3985298775339
 20
823.83129222973
 30
0.0
 11
381.112505938556
 21
823.83129222973
 31
0.0
  0
LINE
  5
4E3
330
1F
100
AcDbEntity
  8
3-2
  6
Continuous
 62
    92
370
     5
100
AcDbLine
 10
376.3985298775339
 20
823.83129222973
 30
0.0
 11
376.3985298775339
 21
828.5455157305745
 31
0.0
  0
LINE
  5
4E4
330
1F
100
AcDbEntity
  8
3-2
  6
JWW_CENTER1
 62
    92
370
     5
100
AcDbLine
 10
339.0101252375425
 20
837.9734678526186
 30
0.0
 11
353.8740828230576
 21
837.9734678526186
 31
0.0
  0
LINE
  5
4E5
330
1F
100
AcDbEntity
  8
3-2
  6
JWW_CENTER1
 62
    92
370
     5
100
AcDbLine
 10
427.2075756176099
 20
837.9734678526186
 30
0.0
 11
441.7068069045609
 21
837.9734678526186
 31
0.0
  0
LINE
  5
4E6
330
1F
100
AcDbEntity
  8
3-2
  6
JWW_CENTER1
 62
    92
370
     5
100
AcDbLine
 10
390.5407055004224
 20
801.3065977354311
 30
0.0
 11
390.5407055004224
 21
786.4493210251269
 31
0.0
  0
LINE
  5
4E7
330
1F
100
AcDbEntity
  8
3-2
  6
JWW_CENTER1
 62
    92
370
     5
100
AcDbLine
 10
390.5407055004224
 20
891.5342918602198
 30
0.0
 11
390.5407055004224
 21
874.6400905299834
 31
0.0
  0
LINE
  5
4E8
330
1F
100
AcDbEntity
  8
3-2
  6
Continuous
 62
    92
370
     5
100
AcDbLine
 10
585.8266469594594
 20
852.1153960356842
 30
0.0
 11
595.2545990815037
 21
852.1153960356842
 31
0.0
  0
LINE
  5
4E9
330
1F
100
AcDbEntity
  8
3-2
  6
Continuous
 62
    92
370
     5
100
AcDbLine
 10
590.5406230204818
 20
847.4014199746623
 30
0.0
 11
590.5406230204818
 21
856.829619536529
 31
0.0
  0
LINE
  5
4EA
330
1F
100
AcDbEntity
  8
3-2
  6
Continuous
 62
    92
370
     5
100
AcDbLine
 10
578.7555591480151
 20
845.0445556640625
 30
0.0
 11
588.1837587098818
 21
845.0445556640625
 31
0.0
  0
LINE
  5
4EB
330
1F
100
AcDbEntity
  8
3-2
  6
Continuous
 62
    92
370
     5
100
AcDbLine
 10
583.4695352090375
 20
840.3305796030406
 30
0.0
 11
583.4695352090375
 21
849.7585317250846
 31
0.0
  0
LINE
  5
4EC
330
1F
100
AcDbEntity
  8
3-2
  6
Continuous
 62
    92
370
     5
100
AcDbLine
 10
592.8977347709036
 20
845.0445556640625
 30
0.0
 11
602.3256868929479
 21
845.0445556640625
 31
0.0
  0
LINE
  5
4ED
330
1F
100
AcDbEntity
  8
3-2
  6
Continuous
 62
    92
370
     5
100
AcDbLine
 10
597.6117108319261
 20
840.3305796030406
 30
0.0
 11
597.6117108319261
 21
849.7585317250846
 31
0.0
  0
LINE
  5
4EE
330
1F
100
AcDbEntity
  8
3-2
  6
Continuous
 62
    92
370
     5
100
AcDbLine
 10
585.8266469594594
 20
837.9734678526186
 30
0.0
 11
595.2545990815037
 21
837.9734678526186
 31
0.0
  0
LINE
  5
4EF
330
1F
100
AcDbEntity
  8
3-2
  6
Continuous
 62
    92
370
     5
100
AcDbLine
 10
590.5406230204818
 20
833.2594917915964
 30
0.0
 11
590.5406230204818
 21
842.6874439136404
 31
0.0
  0
LINE
  5
4F0
330
1F
100
AcDbEntity
  8
3-2
  6
Continuous
 62
    92
370
     5
100
AcDbLine
 10
571.6844713365708
 20
837.9734678526186
 30
0.0
 11
581.1124234586151
 21
837.9734678526186
 31
0.0
  0
LINE
  5
4F1
330
1F
100
AcDbEntity
  8
3-2
  6
Continuous
 62
    92
370
     5
100
AcDbLine
 10
576.3984473975933
 20
833.2594917915964
 30
0.0
 11
576.3984473975933
 21
842.6874439136404
 31
0.0
  0
LINE
  5
4F2
330
1F
100
AcDbEntity
  8
3-2
  6
Continuous
 62
    92
370
     5
100
AcDbLine
 10
578.7555591480151
 20
830.9023800411742
 30
0.0
 11
588.1837587098818
 21
830.9023800411742
 31
0.0
  0
LINE
  5
4F3
330
1F
100
AcDbEntity
  8
3-2
  6
Continuous
 62
    92
370
     5
100
AcDbLine
 10
583.4695352090375
 20
826.1884039801521
 30
0.0
 11
583.4695352090375
 21
835.616356102196
 31
0.0
  0
LINE
  5
4F4
330
1F
100
AcDbEntity
  8
3-2
  6
Continuous
 62
    92
370
     5
100
AcDbLine
 10
599.9688225823479
 20
837.9734678526186
 30
0.0
 11
609.3967747043922
 21
837.9734678526186
 31
0.0
  0
LINE
  5
4F5
330
1F
100
AcDbEntity
  8
3-2
  6
Continuous
 62
    92
370
     5
100
AcDbLine
 10
604.6827986433703
 20
833.2594917915964
 30
0.0
 11
604.6827986433703
 21
842.6874439136404
 31
0.0
  0
LINE
  5
4F6
330
1F
100
AcDbEntity
  8
3-2
  6
Continuous
 62
    92
370
     5
100
AcDbLine
 10
592.8977347709036
 20
830.9023800411742
 30
0.0
 11
602.3256868929479
 21
830.9023800411742
 31
0.0
  0
LINE
  5
4F7
330
1F
100
AcDbEntity
  8
3-2
  6
Continuous
 62
    92
370
     5
100
AcDbLine
 10
597.6117108319261
 20
826.1884039801521
 30
0.0
 11
597.6117108319261
 21
835.616356102196
 31
0.0
  0
LINE
  5
4F8
330
1F
100
AcDbEntity
  8
3-2
  6
Continuous
 62
    92
370
     5
100
AcDbLine
 10
585.8266469594594
 20
823.83129222973
 30
0.0
 11
595.2545990815037
 21
823.83129222973
 31
0.0
  0
LINE
  5
4F9
330
1F
100
AcDbEntity
  8
3-2
  6
Continuous
 62
    92
370
     5
100
AcDbLine
 10
590.5406230204818
 20
819.1173161687078
 30
0.0
 11
590.5406230204818
 21
828.5452682907519
 31
0.0
  0
LINE
  5
4FA
330
1F
100
AcDbEntity
  8
3-2
  6
Continuous
 62
    92
370
     5
100
AcDbLine
 10
583.4695352090375
 20
819.2182716163429
 30
0.0
 11
583.4695352090375
 21
821.4744279191302
 31
0.0
  0
LINE
  5
4FB
330
1F
100
AcDbEntity
  8
3-2
  6
Continuous
 62
    92
370
     5
100
AcDbLine
 10
571.8324403505068
 20
830.9023800411742
 30
0.0
 11
574.0415830869932
 21
830.9023800411742
 31
0.0
  0
LINE
  5
4FC
330
1F
100
AcDbEntity
  8
3-2
  6
Continuous
 62
    92
370
     5
100
AcDbLine
 10
571.8324403505068
 20
845.0445556640625
 30
0.0
 11
574.0415830869932
 21
845.0445556640625
 31
0.0
  0
LINE
  5
4FD
330
1F
100
AcDbEntity
  8
3-2
  6
Continuous
 62
    92
370
     5
100
AcDbLine
 10
573.3121304898651
 20
848.1308725717906
 30
0.0
 11
600.7274730785474
 21
820.7152825432856
 31
0.0
  0
LINE
  5
4FE
330
1F
100
AcDbEntity
  8
3-2
  6
Continuous
 62
    92
370
     5
100
AcDbLine
 10
576.3984473975933
 20
847.4014199746623
 30
0.0
 11
576.3984473975933
 21
852.1153960356842
 31
0.0
  0
LINE
  5
4FF
330
1F
100
AcDbEntity
  8
3-2
  6
Continuous
 62
    92
370
     5
100
AcDbLine
 10
576.3986948374156
 20
852.1156434755068
 30
0.0
 11
581.1124234586151
 21
852.1156434755068
 31
0.0
  0
LINE
  5
500
330
1F
100
AcDbEntity
  8
3-2
  6
Continuous
 62
    92
370
     5
100
AcDbLine
 10
583.4695352090375
 20
854.4725077861065
 30
0.0
 11
583.4695352090375
 21
856.6816505225929
 31
0.0
  0
LINE
  5
501
330
1F
100
AcDbEntity
  8
3-2
  6
Continuous
 62
    92
370
     5
100
AcDbLine
 10
570.5831166860219
 20
839.2287300728464
 30
0.0
 11
589.288330078125
 21
857.9341909047721
 31
0.0
  0
LINE
  5
502
330
1F
100
AcDbEntity
  8
3-2
  6
Continuous
 62
    92
370
     5
100
AcDbLine
 10
597.6117108319261
 20
854.4725077861065
 30
0.0
 11
597.6117108319261
 21
856.6816505225929
 31
0.0
  0
LINE
  5
503
330
1F
100
AcDbEntity
  8
3-2
  6
Continuous
 62
    92
370
     5
100
AcDbLine
 10
573.2948097022808
 20
827.7984949060391
 30
0.0
 11
600.6982751794766
 21
855.2019603832349
 31
0.0
  0
LINE
  5
504
330
1F
100
AcDbEntity
  8
3-2
  6
Continuous
 62
    92
370
     5
100
AcDbLine
 10
599.9688225823479
 20
852.1156434755068
 30
0.0
 11
604.6827986433703
 21
852.1156434755068
 31
0.0
  0
LINE
  5
505
330
1F
100
AcDbEntity
  8
3-2
  6
Continuous
 62
    92
370
     5
100
AcDbLine
 10
604.6827986433703
 20
847.4014199746623
 30
0.0
 11
604.6827986433703
 21
852.1153960356842
 31
0.0
  0
LINE
  5
506
330
1F
100
AcDbEntity
  8
3-2
  6
Continuous
 62
    92
370
     5
100
AcDbLine
 10
607.0396629539698
 20
845.0445556640625
 30
0.0
 11
609.2488056904563
 21
845.0445556640625
 31
0.0
  0
LINE
  5
507
330
1F
100
AcDbEntity
  8
3-2
  6
Continuous
 62
    92
370
     5
100
AcDbLine
 10
591.792915962838
 20
857.9341909047721
 30
0.0
 11
610.5013460726354
 21
839.2257607949748
 31
0.0
  0
LINE
  5
508
330
1F
100
AcDbEntity
  8
3-2
  6
Continuous
 62
    92
370
     5
100
AcDbLine
 10
580.3537729624156
 20
820.7152825432856
 30
0.0
 11
607.7693629909209
 21
848.1308725717906
 31
0.0
  0
LINE
  5
509
330
1F
100
AcDbEntity
  8
3-2
  6
Continuous
 62
    92
370
     5
100
AcDbLine
 10
607.0396629539698
 20
830.9023800411742
 30
0.0
 11
609.2490531302786
 21
830.9023800411742
 31
0.0
  0
LINE
  5
50A
330
1F
100
AcDbEntity
  8
3-2
  6
Continuous
 62
    92
370
     5
100
AcDbLine
 10
580.3829708614865
 20
855.2019603832349
 30
0.0
 11
607.7691155510979
 21
827.8158156936234
 31
0.0
  0
LINE
  5
50B
330
1F
100
AcDbEntity
  8
3-2
  6
Continuous
 62
    92
370
     5
100
AcDbLine
 10
604.6827986433703
 20
823.83129222973
 30
0.0
 11
604.6827986433703
 21
828.5455157305745
 31
0.0
  0
LINE
  5
50C
330
1F
100
AcDbEntity
  8
3-2
  6
Continuous
 62
    92
370
     5
100
AcDbLine
 10
599.9688225823479
 20
823.83129222973
 30
0.0
 11
604.6830460831927
 21
823.83129222973
 31
0.0
  0
LINE
  5
50D
330
1F
100
AcDbEntity
  8
3-2
  6
Continuous
 62
    92
370
     5
100
AcDbLine
 10
597.6117108319261
 20
819.265037742821
 30
0.0
 11
597.6117108319261
 21
821.4744279191302
 31
0.0
  0
LINE
  5
50E
330
1F
100
AcDbEntity
  8
3-2
  6
Continuous
 62
    92
370
     5
100
AcDbLine
 10
591.7931634026604
 20
818.0127448004646
 30
0.0
 11
610.5013460726354
 21
836.7209274704394
 31
0.0
  0
LINE
  5
50F
330
1F
100
AcDbEntity
  8
3-2
  6
Continuous
 62
    92
370
     5
100
AcDbLine
 10
570.5798999683276
 20
836.7209274704394
 30
0.0
 11
589.288330078125
 21
818.0127448004646
 31
0.0
  0
LINE
  5
510
330
1F
100
AcDbEntity
  8
3-2
  6
Continuous
 62
    92
370
     5
100
AcDbLine
 10
576.3984473975933
 20
823.83129222973
 30
0.0
 11
581.1124234586151
 21
823.83129222973
 31
0.0
  0
LINE
  5
511
330
1F
100
AcDbEntity
  8
3-2
  6
Continuous
 62
    92
370
     5
100
AcDbLine
 10
576.3984473975933
 20
823.83129222973
 30
0.0
 11
576.3984473975933
 21
828.5455157305745
 31
0.0
  0
LINE
  5
512
330
1F
100
AcDbEntity
  8
3-2
  6
JWW_CENTER1
 62
    92
370
     5
100
AcDbLine
 10
539.0100427576016
 20
837.9734678526186
 30
0.0
 11
553.8740003431167
 21
837.9734678526186
 31
0.0
  0
LINE
  5
513
330
1F
100
AcDbEntity
  8
3-2
  6
JWW_CENTER1
 62
    92
370
     5
100
AcDbLine
 10
627.2074931376693
 20
837.9734678526186
 30
0.0
 11
641.7067244246203
 21
837.9734678526186
 31
0.0
  0
LINE
  5
514
330
1F
100
AcDbEntity
  8
3-2
  6
JWW_CENTER1
 62
    92
370
     5
100
AcDbLine
 10
590.5406230204818
 20
801.3065977354311
 30
0.0
 11
590.5406230204818
 21
786.4493210251269
 31
0.0
  0
LINE
  5
515
330
1F
100
AcDbEntity
  8
3-2
  6
JWW_CENTER1
 62
    92
370
     5
100
AcDbLine
 10
590.5406230204818
 20
891.5342918602198
 30
0.0
 11
590.5406230204818
 21
874.6400905299834
 31
0.0
  0
LINE
  5
516
330
1F
100
AcDbEntity
  8
3-2
  6
Continuous
 62
    92
370
     5
100
AcDbLine
 10
785.8265644795188
 20
852.1153960356842
 30
0.0
 11
795.2545166015625
 21
852.1153960356842
 31
0.0
  0
LINE
  5
517
330
1F
100
AcDbEntity
  8
3-2
  6
Continuous
 62
    92
370
     5
100
AcDbLine
 10
790.5405405405406
 20
847.4014199746623
 30
0.0
 11
790.5405405405406
 21
856.829619536529
 31
0.0
  0
LINE
  5
518
330
1F
100
AcDbEntity
  8
3-2
  6
Continuous
 62
    92
370
     5
100
AcDbLine
 10
778.7554766680745
 20
845.0445556640625
 30
0.0
 11
788.1836762299412
 21
845.0445556640625
 31
0.0
  0
LINE
  5
519
330
1F
100
AcDbEntity
  8
3-2
  6
Continuous
 62
    92
370
     5
100
AcDbLine
 10
783.4694527290964
 20
840.3305796030406
 30
0.0
 11
783.4694527290964
 21
849.7585317250846
 31
0.0
  0
LINE
  5
51A
330
1F
100
AcDbEntity
  8
3-2
  6
Continuous
 62
    92
370
     5
100
AcDbLine
 10
792.897652290963
 20
845.0445556640625
 30
0.0
 11
802.3256044130068
 21
845.0445556640625
 31
0.0
  0
LINE
  5
51B
330
1F
100
AcDbEntity
  8
3-2
  6
Continuous
 62
    92
370
     5
100
AcDbLine
 10
797.6116283519849
 20
840.3305796030406
 30
0.0
 11
797.6116283519849
 21
849.7585317250846
 31
0.0
  0
LINE
  5
51C
330
1F
100
AcDbEntity
  8
3-2
  6
Continuous
 62
    92
370
     5
100
AcDbLine
 10
785.8265644795188
 20
837.9734678526186
 30
0.0
 11
795.2545166015625
 21
837.9734678526186
 31
0.0
  0
LINE
  5
51D
330
1F
100
AcDbEntity
  8
3-2
  6
Continuous
 62
    92
370
     5
100
AcDbLine
 10
790.5405405405406
 20
833.2594917915964
 30
0.0
 11
790.5405405405406
 21
842.6874439136404
 31
0.0
  0
LINE
  5
51E
330
1F
100
AcDbEntity
  8
3-2
  6
Continuous
 62
    92
370
     5
100
AcDbLine
 10
771.6843888566302
 20
837.9734678526186
 30
0.0
 11
781.112340978674
 21
837.9734678526186
 31
0.0
  0
LINE
  5
51F
330
1F
100
AcDbEntity
  8
3-2
  6
Continuous
 62
    92
370
     5
100
AcDbLine
 10
776.3983649176521
 20
833.2594917915964
 30
0.0
 11
776.3983649176521
 21
842.6874439136404
 31
0.0
  0
LINE
  5
520
330
1F
100
AcDbEntity
  8
3-2
  6
Continuous
 62
    92
370
     5
100
AcDbLine
 10
778.7554766680745
 20
830.9023800411742
 30
0.0
 11
788.1836762299412
 21
830.9023800411742
 31
0.0
  0
LINE
  5
521
330
1F
100
AcDbEntity
  8
3-2
  6
Continuous
 62
    92
370
     5
100
AcDbLine
 10
783.4694527290964
 20
826.1884039801521
 30
0.0
 11
783.4694527290964
 21
835.616356102196
 31
0.0
  0
LINE
  5
522
330
1F
100
AcDbEntity
  8
3-2
  6
Continuous
 62
    92
370
     5
100
AcDbLine
 10
799.9687401024073
 20
837.9734678526186
 30
0.0
 11
809.396692224451
 21
837.9734678526186
 31
0.0
  0
LINE
  5
523
330
1F
100
AcDbEntity
  8
3-2
  6
Continuous
 62
    92
370
     5
100
AcDbLine
 10
804.6827161634292
 20
833.2594917915964
 30
0.0
 11
804.6827161634292
 21
842.6874439136404
 31
0.0
  0
LINE
  5
524
330
1F
100
AcDbEntity
  8
3-2
  6
Continuous
 62
    92
370
     5
100
AcDbLine
 10
792.897652290963
 20
830.9023800411742
 30
0.0
 11
802.3256044130068
 21
830.9023800411742
 31
0.0
  0
LINE
  5
525
330
1F
100
AcDbEntity
  8
3-2
  6
Continuous
 62
    92
370
     5
100
AcDbLine
 10
797.6116283519849
 20
826.1884039801521
 30
0.0
 11
797.6116283519849
 21
835.616356102196
 31
0.0
  0
LINE
  5
526
330
1F
100
AcDbEntity
  8
3-2
  6
Continuous
 62
    92
370
     5
100
AcDbLine
 10
785.8265644795188
 20
823.83129222973
 30
0.0
 11
795.2545166015625
 21
823.83129222973
 31
0.0
  0
LINE
  5
527
330
1F
100
AcDbEntity
  8
3-2
  6
Continuous
 62
    92
370
     5
100
AcDbLine
 10
790.5405405405406
 20
819.1173161687078
 30
0.0
 11
790.5405405405406
 21
828.5452682907519
 31
0.0
  0
LINE
  5
528
330
1F
100
AcDbEntity
  8
3-2
  6
Continuous
 62
    92
370
     5
100
AcDbLine
 10
783.4694527290964
 20
819.2182716163429
 30
0.0
 11
783.4694527290964
 21
821.4744279191302
 31
0.0
  0
LINE
  5
529
330
1F
100
AcDbEntity
  8
3-2
  6
Continuous
 62
    92
370
     5
100
AcDbLine
 10
771.8323578705662
 20
830.9023800411742
 30
0.0
 11
774.0415006070526
 21
830.9023800411742
 31
0.0
  0
LINE
  5
52A
330
1F
100
AcDbEntity
  8
3-2
  6
Continuous
 62
    92
370
     5
100
AcDbLine
 10
771.8323578705662
 20
845.0445556640625
 30
0.0
 11
774.0415006070526
 21
845.0445556640625
 31
0.0
  0
LINE
  5
52B
330
1F
100
AcDbEntity
  8
3-2
  6
Continuous
 62
    92
370
     5
100
AcDbLine
 10
773.312048009924
 20
848.1308725717906
 30
0.0
 11
800.7273905986068
 21
820.7152825432856
 31
0.0
  0
LINE
  5
52C
330
1F
100
AcDbEntity
  8
3-2
  6
Continuous
 62
    92
370
     5
100
AcDbLine
 10
776.3983649176521
 20
847.4014199746623
 30
0.0
 11
776.3983649176521
 21
852.1153960356842
 31
0.0
  0
LINE
  5
52D
330
1F
100
AcDbEntity
  8
3-2
  6
Continuous
 62
    92
370
     5
100
AcDbLine
 10
776.398612357475
 20
852.1156434755068
 30
0.0
 11
781.112340978674
 21
852.1156434755068
 31
0.0
  0
LINE
  5
52E
330
1F
100
AcDbEntity
  8
3-2
  6
Continuous
 62
    92
370
     5
100
AcDbLine
 10
783.4694527290964
 20
854.4725077861065
 30
0.0
 11
783.4694527290964
 21
856.6816505225929
 31
0.0
  0
LINE
  5
52F
330
1F
100
AcDbEntity
  8
3-2
  6
Continuous
 62
    92
370
     5
100
AcDbLine
 10
770.5830342060813
 20
839.2287300728464
 30
0.0
 11
789.2882475981844
 21
857.9341909047721
 31
0.0
  0
LINE
  5
530
330
1F
100
AcDbEntity
  8
3-2
  6
Continuous
 62
    92
370
     5
100
AcDbLine
 10
797.6116283519849
 20
854.4725077861065
 30
0.0
 11
797.6116283519849
 21
856.6816505225929
 31
0.0
  0
LINE
  5
531
330
1F
100
AcDbEntity
  8
3-2
  6
Continuous
 62
    92
370
     5
100
AcDbLine
 10
773.2947272223396
 20
827.7984949060391
 30
0.0
 11
800.6981926995354
 21
855.2019603832349
 31
0.0
  0
LINE
  5
532
330
1F
100
AcDbEntity
  8
3-2
  6
Continuous
 62
    92
370
     5
100
AcDbLine
 10
799.9687401024073
 20
852.1156434755068
 30
0.0
 11
804.6827161634292
 21
852.1156434755068
 31
0.0
  0
LINE
  5
533
330
1F
100
AcDbEntity
  8
3-2
  6
Continuous
 62
    92
370
     5
100
AcDbLine
 10
804.6827161634292
 20
847.4014199746623
 30
0.0
 11
804.6827161634292
 21
852.1153960356842
 31
0.0
  0
LINE
  5
534
330
1F
100
AcDbEntity
  8
3-2
  6
Continuous
 62
    92
370
     5
100
AcDbLine
 10
807.0395804740286
 20
845.0445556640625
 30
0.0
 11
809.2487232105151
 21
845.0445556640625
 31
0.0
  0
LINE
  5
535
330
1F
100
AcDbEntity
  8
3-2
  6
Continuous
 62
    92
370
     5
100
AcDbLine
 10
791.7928334828969
 20
857.9341909047721
 30
0.0
 11
810.5012635926943
 21
839.2257607949748
 31
0.0
  0
LINE
  5
536
330
1F
100
AcDbEntity
  8
3-2
  6
Continuous
 62
    92
370
     5
100
AcDbLine
 10
780.353690482475
 20
820.7152825432856
 30
0.0
 11
807.7692805109797
 21
848.1308725717906
 31
0.0
  0
LINE
  5
537
330
1F
100
AcDbEntity
  8
3-2
  6
Continuous
 62
    92
370
     5
100
AcDbLine
 10
807.0395804740286
 20
830.9023800411742
 30
0.0
 11
809.248970650338
 21
830.9023800411742
 31
0.0
  0
LINE
  5
538
330
1F
100
AcDbEntity
  8
3-2
  6
Continuous
 62
    92
370
     5
100
AcDbLine
 10
780.3828883815459
 20
855.2019603832349
 30
0.0
 11
807.7690330711573
 21
827.8158156936234
 31
0.0
  0
LINE
  5
539
330
1F
100
AcDbEntity
  8
3-2
  6
Continuous
 62
    92
370
     5
100
AcDbLine
 10
804.6827161634292
 20
823.83129222973
 30
0.0
 11
804.6827161634292
 21
828.5455157305745
 31
0.0
  0
LINE
  5
53A
330
1F
100
AcDbEntity
  8
3-2
  6
Continuous
 62
    92
370
     5
100
AcDbLine
 10
799.9687401024073
 20
823.83129222973
 30
0.0
 11
804.6829636032521
 21
823.83129222973
 31
0.0
  0
LINE
  5
53B
330
1F
100
AcDbEntity
  8
3-2
  6
Continuous
 62
    92
370
     5
100
AcDbLine
 10
797.6116283519849
 20
819.265037742821
 30
0.0
 11
797.6116283519849
 21
821.4744279191302
 31
0.0
  0
LINE
  5
53C
330
1F
100
AcDbEntity
  8
3-2
  6
Continuous
 62
    92
370
     5
100
AcDbLine
 10
791.7930809227198
 20
818.0127448004646
 30
0.0
 11
810.5012635926943
 21
836.7209274704394
 31
0.0
  0
LINE
  5
53D
330
1F
100
AcDbEntity
  8
3-2
  6
Continuous
 62
    92
370
     5
100
AcDbLine
 10
770.579817488387
 20
836.7209274704394
 30
0.0
 11
789.2882475981844
 21
818.0127448004646
 31
0.0
  0
LINE
  5
53E
330
1F
100
AcDbEntity
  8
3-2
  6
Continuous
 62
    92
370
     5
100
AcDbLine
 10
776.3983649176521
 20
823.83129222973
 30
0.0
 11
781.112340978674
 21
823.83129222973
 31
0.0
  0
LINE
  5
53F
330
1F
100
AcDbEntity
  8
3-2
  6
Continuous
 62
    92
370
     5
100
AcDbLine
 10
776.3983649176521
 20
823.83129222973
 30
0.0
 11
776.3983649176521
 21
828.5455157305745
 31
0.0
  0
LINE
  5
540
330
1F
100
AcDbEntity
  8
3-2
  6
JWW_CENTER1
 62
    92
370
     5
100
AcDbLine
 10
739.0099602776604
 20
837.9734678526186
 30
0.0
 11
753.8739178631761
 21
837.9734678526186
 31
0.0
  0
LINE
  5
541
330
1F
100
AcDbEntity
  8
3-2
  6
JWW_CENTER1
 62
    92
370
     5
100
AcDbLine
 10
827.2074106577281
 20
837.9734678526186
 30
0.0
 11
841.7066419446792
 21
837.9734678526186
 31
0.0
  0
LINE
  5
542
330
1F
100
AcDbEntity
  8
3-2
  6
JWW_CENTER1
 62
    92
370
     5
100
AcDbLine
 10
790.5405405405406
 20
801.3065977354311
 30
0.0
 11
790.5405405405406
 21
786.4493210251269
 31
0.0
  0
LINE
  5
543
330
1F
100
AcDbEntity
  8
3-2
  6
JWW_CENTER1
 62
    92
370
     5
100
AcDbLine
 10
790.5405405405406
 20
891.5342918602198
 30
0.0
 11
790.5405405405406
 21
874.6400905299834
 31
0.0
  0
LINE
  5
544
330
1F
100
AcDbEntity
  8
3-4
  6
Continuous
 62
     7
370
     5
100
AcDbLine
 10
-109.4594594594594
 20
-163.7852931667018
 30
0.0
 11
890.5406230204818
 21
-163.7852931667018
 31
0.0
  0
LINE
  5
545
330
1F
100
AcDbEntity
  8
3-4
  6
Continuous
 62
     7
370
     5
100
AcDbLine
 10
-109.4594594594594
 20
-79.35449548669766
 30
0.0
 11
-109.4594594594594
 21
-264.8339018950591
 31
0.0
  0
LINE
  5
546
330
1F
100
AcDbEntity
  8
3-4
  6
Continuous
 62
     7
370
     5
100
AcDbLine
 10
-9.459376979518481
 20
-79.35449548669766
 30
0.0
 11
-9.459376979518481
 21
-166.7852535763302
 31
0.0
  0
LINE
  5
547
330
1F
100
AcDbEntity
  8
3-4
  6
Continuous
 62
     7
370
     5
100
AcDbLine
 10
190.5405405405406
 20
-79.35449548669766
 30
0.0
 11
190.5405405405406
 21
-166.7852535763302
 31
0.0
  0
LINE
  5
548
330
1F
100
AcDbEntity
  8
3-4
  6
Continuous
 62
     7
370
     5
100
AcDbLine
 10
390.5407055004224
 20
-79.35449548669766
 30
0.0
 11
390.5407055004224
 21
-166.7852535763302
 31
0.0
  0
LINE
  5
549
330
1F
100
AcDbEntity
  8
3-4
  6
Continuous
 62
     7
370
     5
100
AcDbLine
 10
590.5406230204818
 20
-79.35449548669766
 30
0.0
 11
590.5406230204818
 21
-166.7852535763302
 31
0.0
  0
LINE
  5
54A
330
1F
100
AcDbEntity
  8
3-4
  6
Continuous
 62
     7
370
     5
100
AcDbLine
 10
790.5405405405406
 20
-79.35449548669766
 30
0.0
 11
790.5405405405406
 21
-166.7852535763302
 31
0.0
  0
LINE
  5
54B
330
1F
100
AcDbEntity
  8
3-4
  6
Continuous
 62
     7
370
     5
100
AcDbLine
 10
890.5406230204818
 20
-79.35449548669766
 30
0.0
 11
890.5406230204818
 21
-264.8339018950591
 31
0.0
  0
LINE
  5
54C
330
1F
100
AcDbEntity
  8
3-4
  6
Continuous
 62
     7
370
     5
100
AcDbLine
 10
-109.4594594594594
 20
-261.8339414854307
 30
0.0
 11
890.5406230204818
 21
-261.8339414854307
 31
0.0
  0
LINE
  5
54D
330
1F
100
AcDbEntity
  8
3-4
  6
Continuous
 62
     7
370
     5
100
AcDbLine
 10
1006.566145613387
 20
-62.02702702702709
 30
0.0
 11
1006.566145613387
 21
937.9730554529141
 31
0.0
  0
LINE
  5
54E
330
1F
100
AcDbEntity
  8
3-4
  6
Continuous
 62
     7
370
     5
100
AcDbLine
 10
907.999234586149
 20
-62.02702702702709
 30
0.0
 11
1115.71506809544
 21
-62.02702702702709
 31
0.0
  0
LINE
  5
54F
330
1F
100
AcDbEntity
  8
3-4
  6
Continuous
 62
     7
370
     5
100
AcDbLine
 10
907.999234586149
 20
37.97355033255911
 30
0.0
 11
1009.566106023015
 21
37.97355033255911
 31
0.0
  0
LINE
  5
550
330
1F
100
AcDbEntity
  8
3-4
  6
Continuous
 62
     7
370
     5
100
AcDbLine
 10
907.999234586149
 20
237.9735915725297
 30
0.0
 11
1009.566106023015
 21
237.9735915725297
 31
0.0
  0
LINE
  5
551
330
1F
100
AcDbEntity
  8
3-4
  6
Continuous
 62
     7
370
     5
100
AcDbLine
 10
907.999234586149
 20
437.9735090925888
 30
0.0
 11
1009.566106023015
 21
437.9735090925888
 31
0.0
  0
LINE
  5
552
330
1F
100
AcDbEntity
  8
3-4
  6
Continuous
 62
     7
370
     5
100
AcDbLine
 10
907.999234586149
 20
637.9735503325592
 30
0.0
 11
1009.566106023015
 21
637.9735503325592
 31
0.0
  0
LINE
  5
553
330
1F
100
AcDbEntity
  8
3-4
  6
Continuous
 62
     7
370
     5
100
AcDbLine
 10
907.999234586149
 20
837.9734678526186
 30
0.0
 11
1009.566106023015
 21
837.9734678526186
 31
0.0
  0
LINE
  5
554
330
1F
100
AcDbEntity
  8
3-4
  6
Continuous
 62
     7
370
     5
100
AcDbLine
 10
907.999234586149
 20
937.9730554529141
 30
0.0
 11
1115.71506809544
 21
937.9730554529141
 31
0.0
  0
LINE
  5
555
330
1F
100
AcDbEntity
  8
3-4
  6
Continuous
 62
     7
370
     5
100
AcDbLine
 10
1112.715107685811
 20
-62.02702702702709
 30
0.0
 11
1112.715107685811
 21
937.9730554529141
 31
0.0
  0
LINE
  5
556
330
1F
100
AcDbEntity
  8
0-4
  6
Continuous
 62
     7
370
     5
100
AcDbLine
 10
-947.2788217905405
 20
-206.9021771405194
 30
0.0
 11
-1115.54049930057
 21
-206.9021771405194
 31
0.0
  0
LINE
  5
557
330
1F
100
AcDbEntity
  8
0-4
  6
Continuous
 62
     7
370
     5
100
AcDbLine
 10
-840.3249379750844
 20
-106.9022183804898
 30
0.0
 11
-840.3249379750844
 21
63.09784760346304
 31
0.0
  0
CIRCLE
  5
558
330
1F
100
AcDbEntity
  8
0-0
  6
Continuous
 62
    92
370
     5
100
AcDbCircle
 10
-1085.540524044552
 20
822.990986592061
 30
0.0
 40
109.9999994845004
  0
CIRCLE
  5
559
330
1F
100
AcDbEntity
  8
0-0
  6
Continuous
 62
    92
370
     5
100
AcDbCircle
 10
-1085.540524044552
 20
822.990986592061
 30
0.0
 40
60.00000077324945
  0
CIRCLE
  5
55A
330
1F
100
AcDbEntity
  8
3-2
  6
Continuous
 62
    92
370
     5
100
AcDbCircle
 10
-9.459376979518481
 20
37.97355033255911
 30
0.0
 40
36.66666907233162
  0
CIRCLE
  5
55B
330
1F
100
AcDbEntity
  8
3-2
  6
Continuous
 62
    92
370
     5
100
AcDbCircle
 10
-9.459376979518481
 20
37.97355033255911
 30
0.0
 40
20.00000025774982
  0
CIRCLE
  5
55C
330
1F
100
AcDbEntity
  8
3-2
  6
Continuous
 62
    92
370
     5
100
AcDbCircle
 10
190.5405405405406
 20
37.97355033255911
 30
0.0
 40
36.66666907233162
  0
CIRCLE
  5
55D
330
1F
100
AcDbEntity
  8
3-2
  6
Continuous
 62
    92
370
     5
100
AcDbCircle
 10
190.5405405405406
 20
37.97355033255911
 30
0.0
 40
20.00000025774982
  0
CIRCLE
  5
55E
330
1F
100
AcDbEntity
  8
3-2
  6
Continuous
 62
    92
370
     5
100
AcDbCircle
 10
390.5407055004224
 20
37.97355033255911
 30
0.0
 40
36.66666907233162
  0
CIRCLE
  5
55F
330
1F
100
AcDbEntity
  8
3-2
  6
Continuous
 62
    92
370
     5
100
AcDbCircle
 10
390.5407055004224
 20
37.97355033255911
 30
0.0
 40
20.00000025774982
  0
CIRCLE
  5
560
330
1F
100
AcDbEntity
  8
3-2
  6
Continuous
 62
    92
370
     5
100
AcDbCircle
 10
590.5406230204818
 20
37.97355033255911
 30
0.0
 40
36.66666907233162
  0
CIRCLE
  5
561
330
1F
100
AcDbEntity
  8
3-2
  6
Continuous
 62
    92
370
     5
100
AcDbCircle
 10
590.5406230204818
 20
37.97355033255911
 30
0.0
 40
20.00000025774982
  0
CIRCLE
  5
562
330
1F
100
AcDbEntity
  8
3-2
  6
Continuous
 62
    92
370
     5
100
AcDbCircle
 10
790.5405405405406
 20
37.97355033255911
 30
0.0
 40
36.66666907233162
  0
CIRCLE
  5
563
330
1F
100
AcDbEntity
  8
3-2
  6
Continuous
 62
    92
370
     5
100
AcDbCircle
 10
790.5405405405406
 20
37.97355033255911
 30
0.0
 40
20.00000025774982
  0
CIRCLE
  5
564
330
1F
100
AcDbEntity
  8
3-2
  6
Continuous
 62
    92
370
     5
100
AcDbCircle
 10
-9.459376979518481
 20
237.9735915725297
 30
0.0
 40
36.66666907233162
  0
CIRCLE
  5
565
330
1F
100
AcDbEntity
  8
3-2
  6
Continuous
 62
    92
370
     5
100
AcDbCircle
 10
-9.459376979518481
 20
237.9735915725297
 30
0.0
 40
20.00000025774982
  0
CIRCLE
  5
566
330
1F
100
AcDbEntity
  8
3-2
  6
Continuous
 62
    92
370
     5
100
AcDbCircle
 10
190.5405405405406
 20
237.9735915725297
 30
0.0
 40
36.66666907233162
  0
CIRCLE
  5
567
330
1F
100
AcDbEntity
  8
3-2
  6
Continuous
 62
    92
370
     5
100
AcDbCircle
 10
190.5405405405406
 20
237.9735915725297
 30
0.0
 40
20.00000025774982
  0
CIRCLE
  5
568
330
1F
100
AcDbEntity
  8
3-2
  6
Continuous
 62
    92
370
     5
100
AcDbCircle
 10
390.5407055004224
 20
237.9735915725297
 30
0.0
 40
36.66666907233162
  0
CIRCLE
  5
569
330
1F
100
AcDbEntity
  8
3-2
  6
Continuous
 62
    92
370
     5
100
AcDbCircle
 10
390.5407055004224
 20
237.9735915725297
 30
0.0
 40
20.00000025774982
  0
CIRCLE
  5
56A
330
1F
100
AcDbEntity
  8
3-2
  6
Continuous
 62
    92
370
     5
100
AcDbCircle
 10
590.5406230204818
 20
237.9735915725297
 30
0.0
 40
36.66666907233162
  0
CIRCLE
  5
56B
330
1F
100
AcDbEntity
  8
3-2
  6
Continuous
 62
    92
370
     5
100
AcDbCircle
 10
590.5406230204818
 20
237.9735915725297
 30
0.0
 40
20.00000025774982
  0
CIRCLE
  5
56C
330
1F
100
AcDbEntity
  8
3-2
  6
Continuous
 62
    92
370
     5
100
AcDbCircle
 10
790.5405405405406
 20
237.9735915725297
 30
0.0
 40
36.66666907233162
  0
CIRCLE
  5
56D
330
1F
100
AcDbEntity
  8
3-2
  6
Continuous
 62
    92
370
     5
100
AcDbCircle
 10
790.5405405405406
 20
237.9735915725297
 30
0.0
 40
20.00000025774982
  0
CIRCLE
  5
56E
330
1F
100
AcDbEntity
  8
3-2
  6
Continuous
 62
    92
370
     5
100
AcDbCircle
 10
-9.459376979518481
 20
437.9735090925888
 30
0.0
 40
36.66666907233162
  0
CIRCLE
  5
56F
330
1F
100
AcDbEntity
  8
3-2
  6
Continuous
 62
    92
370
     5
100
AcDbCircle
 10
-9.459376979518481
 20
437.9735090925888
 30
0.0
 40
20.00000025774982
  0
CIRCLE
  5
570
330
1F
100
AcDbEntity
  8
3-2
  6
Continuous
 62
    92
370
     5
100
AcDbCircle
 10
190.5405405405406
 20
437.9735090925888
 30
0.0
 40
36.66666907233162
  0
CIRCLE
  5
571
330
1F
100
AcDbEntity
  8
3-2
  6
Continuous
 62
    92
370
     5
100
AcDbCircle
 10
190.5405405405406
 20
437.9735090925888
 30
0.0
 40
20.00000025774982
  0
CIRCLE
  5
572
330
1F
100
AcDbEntity
  8
3-2
  6
Continuous
 62
    92
370
     5
100
AcDbCircle
 10
390.5407055004224
 20
437.9735090925888
 30
0.0
 40
36.66666907233162
  0
CIRCLE
  5
573
330
1F
100
AcDbEntity
  8
3-2
  6
Continuous
 62
    92
370
     5
100
AcDbCircle
 10
390.5407055004224
 20
437.9735090925888
 30
0.0
 40
20.00000025774982
  0
CIRCLE
  5
574
330
1F
100
AcDbEntity
  8
3-2
  6
Continuous
 62
    92
370
     5
100
AcDbCircle
 10
590.5406230204818
 20
437.9735090925888
 30
0.0
 40
36.66666907233162
  0
CIRCLE
  5
575
330
1F
100
AcDbEntity
  8
3-2
  6
Continuous
 62
    92
370
     5
100
AcDbCircle
 10
590.5406230204818
 20
437.9735090925888
 30
0.0
 40
20.00000025774982
  0
CIRCLE
  5
576
330
1F
100
AcDbEntity
  8
3-2
  6
Continuous
 62
    92
370
     5
100
AcDbCircle
 10
790.5405405405406
 20
437.9735090925888
 30
0.0
 40
36.66666907233162
  0
CIRCLE
  5
577
330
1F
100
AcDbEntity
  8
3-2
  6
Continuous
 62
    92
370
     5
100
AcDbCircle
 10
790.5405405405406
 20
437.9735090925888
 30
0.0
 40
20.00000025774982
  0
CIRCLE
  5
578
330
1F
100
AcDbEntity
  8
3-2
  6
Continuous
 62
    92
370
     5
100
AcDbCircle
 10
-9.459376979518481
 20
637.9735503325592
 30
0.0
 40
36.66666907233162
  0
CIRCLE
  5
579
330
1F
100
AcDbEntity
  8
3-2
  6
Continuous
 62
    92
370
     5
100
AcDbCircle
 10
-9.459376979518481
 20
637.9735503325592
 30
0.0
 40
20.00000025774982
  0
CIRCLE
  5
57A
330
1F
100
AcDbEntity
  8
3-2
  6
Continuous
 62
    92
370
     5
100
AcDbCircle
 10
190.5405405405406
 20
637.9735503325592
 30
0.0
 40
36.66666907233162
  0
CIRCLE
  5
57B
330
1F
100
AcDbEntity
  8
3-2
  6
Continuous
 62
    92
370
     5
100
AcDbCircle
 10
190.5405405405406
 20
637.9735503325592
 30
0.0
 40
20.00000025774982
  0
CIRCLE
  5
57C
330
1F
100
AcDbEntity
  8
3-2
  6
Continuous
 62
    92
370
     5
100
AcDbCircle
 10
390.5407055004224
 20
637.9735503325592
 30
0.0
 40
36.66666907233162
  0
CIRCLE
  5
57D
330
1F
100
AcDbEntity
  8
3-2
  6
Continuous
 62
    92
370
     5
100
AcDbCircle
 10
390.5407055004224
 20
637.9735503325592
 30
0.0
 40
20.00000025774982
  0
CIRCLE
  5
57E
330
1F
100
AcDbEntity
  8
3-2
  6
Continuous
 62
    92
370
     5
100
AcDbCircle
 10
590.5406230204818
 20
637.9735503325592
 30
0.0
 40
36.66666907233162
  0
CIRCLE
  5
57F
330
1F
100
AcDbEntity
  8
3-2
  6
Continuous
 62
    92
370
     5
100
AcDbCircle
 10
590.5406230204818
 20
637.9735503325592
 30
0.0
 40
20.00000025774982
  0
CIRCLE
  5
580
330
1F
100
AcDbEntity
  8
3-2
  6
Continuous
 62
    92
370
     5
100
AcDbCircle
 10
790.5405405405406
 20
637.9735503325592
 30
0.0
 40
36.66666907233162
  0
CIRCLE
  5
581
330
1F
100
AcDbEntity
  8
3-2
  6
Continuous
 62
    92
370
     5
100
AcDbCircle
 10
790.5405405405406
 20
637.9735503325592
 30
0.0
 40
20.00000025774982
  0
CIRCLE
  5
582
330
1F
100
AcDbEntity
  8
3-2
  6
Continuous
 62
    92
370
     5
100
AcDbCircle
 10
-9.459376979518481
 20
837.9734678526186
 30
0.0
 40
36.66666907233162
  0
CIRCLE
  5
583
330
1F
100
AcDbEntity
  8
3-2
  6
Continuous
 62
    92
370
     5
100
AcDbCircle
 10
-9.459376979518481
 20
837.9734678526186
 30
0.0
 40
20.00000025774982
  0
CIRCLE
  5
584
330
1F
100
AcDbEntity
  8
3-2
  6
Continuous
 62
    92
370
     5
100
AcDbCircle
 10
190.5405405405406
 20
837.9734678526186
 30
0.0
 40
36.66666907233162
  0
CIRCLE
  5
585
330
1F
100
AcDbEntity
  8
3-2
  6
Continuous
 62
    92
370
     5
100
AcDbCircle
 10
190.5405405405406
 20
837.9734678526186
 30
0.0
 40
20.00000025774982
  0
CIRCLE
  5
586
330
1F
100
AcDbEntity
  8
3-2
  6
Continuous
 62
    92
370
     5
100
AcDbCircle
 10
390.5407055004224
 20
837.9734678526186
 30
0.0
 40
36.66666907233162
  0
CIRCLE
  5
587
330
1F
100
AcDbEntity
  8
3-2
  6
Continuous
 62
    92
370
     5
100
AcDbCircle
 10
390.5407055004224
 20
837.9734678526186
 30
0.0
 40
20.00000025774982
  0
CIRCLE
  5
588
330
1F
100
AcDbEntity
  8
3-2
  6
Continuous
 62
    92
370
     5
100
AcDbCircle
 10
590.5406230204818
 20
837.9734678526186
 30
0.0
 40
36.66666907233162
  0
CIRCLE
  5
589
330
1F
100
AcDbEntity
  8
3-2
  6
Continuous
 62
    92
370
     5
100
AcDbCircle
 10
590.5406230204818
 20
837.9734678526186
 30
0.0
 40
20.00000025774982
  0
CIRCLE
  5
58A
330
1F
100
AcDbEntity
  8
3-2
  6
Continuous
 62
    92
370
     5
100
AcDbCircle
 10
790.5405405405406
 20
837.9734678526186
 30
0.0
 40
36.66666907233162
  0
CIRCLE
  5
58B
330
1F
100
AcDbEntity
  8
3-2
  6
Continuous
 62
    92
370
     5
100
AcDbCircle
 10
790.5405405405406
 20
837.9734678526186
 30
0.0
 40
20.00000025774982
  0
TEXT
  5
58C
330
1F
100
AcDbEntity
  8
0-4
  6
Continuous
 62
    40
370
     9
100
AcDbText
 10
-855.9649709670608
 20
-68.15215239653696
 30
0.0
 40
30.48
  1
12
 50
90.0
 41
1.0625
  7
ＭＳ ゴシック
100
AcDbText
  0
TEXT
  5
58D
330
1F
100
AcDbEntity
  8
0-4
  6
Continuous
 62
    40
370
     9
100
AcDbText
 10
-775.9652019108953
 20
-43.15219363650755
 30
0.0
 40
30.48
  1
17
 50
90.0
 41
1.0625
  7
ＭＳ ゴシック
100
AcDbText
  0
TEXT
  5
58E
330
1F
100
AcDbEntity
  8
0-4
  6
Continuous
 62
    40
370
     9
100
AcDbText
 10
-1025.690522065034
 20
-191.2622678684544
 30
0.0
 40
30.48
  1
φ6
 41
1.083333333333333
  7
ＭＳ ゴシック
100
AcDbText
  0
TEXT
  5
58F
330
1F
100
AcDbEntity
  8
0-4
  6
Continuous
 62
     7
370
     5
100
AcDbText
 10
-1410.672491949958
 20
164.8175293628591
 30
0.0
 40
22.86
  1
ＳＣＳ１３
 41
1.133333360826648
  7
ＭＳ ゴシック
100
AcDbText
  0
TEXT
  5
590
330
1F
100
AcDbEntity
  8
0-4
  6
Continuous
 62
     7
370
     5
100
AcDbText
 10
-1394.509351575697
 20
115.3775681614232
 30
0.0
 40
22.86
  1
バフ研磨
 41
1.125
  7
ＭＳ ゴシック
100
AcDbText
  0
TEXT
  5
591
330
1F
100
AcDbEntity
  8
0-4
  6
Continuous
 62
    40
370
     9
100
AcDbText
 10
-1129.290606524493
 20
618.2764548141894
 30
0.0
 40
30.48
  1
φ12
 41
1.09375
  7
ＭＳ ゴシック
100
AcDbText
  0
TEXT
  5
592
330
1F
100
AcDbEntity
  8
0-4
  6
Continuous
 62
    40
370
     9
100
AcDbText
 10
-1129.290606524493
 20
538.2763145982898
 30
0.0
 40
30.48
  1
φ22
 41
1.09375
  7
ＭＳ ゴシック
100
AcDbText
  0
TEXT
  5
593
330
1F
100
AcDbEntity
  8
F-4
  6
Continuous
 62
     7
370
     5
100
AcDbText
 10
-814.756609942462
 20
-1320.836605645257
 30
0.0
 40
22.86
  1
ＪＩＳ型　床タイル用　ステンレス鋳鋼製　バフ研磨タイプ
 41
1.160493837343203
  7
ＭＳ ゴシック
100
AcDbText
  0
TEXT
  5
594
330
1F
100
AcDbEntity
  8
F-4
  6
Continuous
 62
     7
370
     5
100
AcDbText
 10
-499.0506146405193
 20
-1372.645679428513
 30
0.0
 40
22.86
  1
視覚障害者誘導用マーカー（点状突起）　ＪＭ－１Ａ
 41
1.159722222222222
  7
ＭＳ ゴシック
100
AcDbText
  0
TEXT
  5
595
330
1F
100
AcDbEntity
  8
3-4
  6
Continuous
 62
    40
370
     9
100
AcDbText
 10
-80.70942646748307
 20
-153.1452766707135
 30
0.0
 40
30.48
  1
30
 41
1.0625
  7
ＭＳ ゴシック
100
AcDbText
  0
TEXT
  5
596
330
1F
100
AcDbEntity
  8
3-4
  6
Continuous
 62
    40
370
     9
100
AcDbText
 10
69.29057353251693
 20
-153.1452766707135
 30
0.0
 40
30.48
  1
60
 41
1.0625
  7
ＭＳ ゴシック
100
AcDbText
  0
TEXT
  5
597
330
1F
100
AcDbEntity
  8
3-4
  6
Continuous
 62
    40
370
     9
100
AcDbText
 10
269.2907384923987
 20
-153.1452766707135
 30
0.0
 40
30.48
  1
60
 41
1.0625
  7
ＭＳ ゴシック
100
AcDbText
  0
TEXT
  5
598
330
1F
100
AcDbEntity
  8
3-4
  6
Continuous
 62
    40
370
     9
100
AcDbText
 10
469.2906560124578
 20
-153.1452766707135
 30
0.0
 40
30.48
  1
60
 41
1.0625
  7
ＭＳ ゴシック
100
AcDbText
  0
TEXT
  5
599
330
1F
100
AcDbEntity
  8
3-4
  6
Continuous
 62
    40
370
     9
100
AcDbText
 10
669.2905735325172
 20
-153.1452766707135
 30
0.0
 40
30.48
  1
60
 41
1.0625
  7
ＭＳ ゴシック
100
AcDbText
  0
TEXT
  5
59A
330
1F
100
AcDbEntity
  8
3-4
  6
Continuous
 62
    40
370
     9
100
AcDbText
 10
819.2905735325172
 20
-153.1452766707135
 30
0.0
 40
30.48
  1
30
 41
1.0625
  7
ＭＳ ゴシック
100
AcDbText
  0
TEXT
  5
59B
330
1F
100
AcDbEntity
  8
3-4
  6
Continuous
 62
    40
370
     9
100
AcDbText
 10
358.040474556588
 20
-251.1939249894425
 30
0.0
 40
30.48
  1
300
 41
1.083333333333333
  7
ＭＳ ゴシック
100
AcDbText
  0
TEXT
  5
59C
330
1F
100
AcDbEntity
  8
3-4
  6
Continuous
 62
    40
370
     9
100
AcDbText
 10
995.926129117399
 20
-33.27674659522785
 30
0.0
 40
30.48
  1
30
 50
90.0
 41
1.0625
  7
ＭＳ ゴシック
100
AcDbText
  0
TEXT
  5
59D
330
1F
100
AcDbEntity
  8
3-4
  6
Continuous
 62
    40
370
     9
100
AcDbText
 10
995.926129117399
 20
116.723624564506
 30
0.0
 40
30.48
  1
60
 50
90.0
 41
1.0625
  7
ＭＳ ゴシック
100
AcDbText
  0
TEXT
  5
59E
330
1F
100
AcDbEntity
  8
3-4
  6
Continuous
 62
    40
370
     9
100
AcDbText
 10
995.926129117399
 20
316.7235420845651
 30
0.0
 40
30.48
  1
60
 50
90.0
 41
1.0625
  7
ＭＳ ゴシック
100
AcDbText
  0
TEXT
  5
59F
330
1F
100
AcDbEntity
  8
3-4
  6
Continuous
 62
    40
370
     9
100
AcDbText
 10
995.926129117399
 20
516.7235833245356
 30
0.0
 40
30.48
  1
60
 50
90.0
 41
1.0625
  7
ＭＳ ゴシック
100
AcDbText
  0
TEXT
  5
5A0
330
1F
100
AcDbEntity
  8
3-4
  6
Continuous
 62
    40
370
     9
100
AcDbText
 10
995.926129117399
 20
716.7235008445948
 30
0.0
 40
30.48
  1
60
 50
90.0
 41
1.0625
  7
ＭＳ ゴシック
100
AcDbText
  0
TEXT
  5
5A1
330
1F
100
AcDbEntity
  8
3-4
  6
Continuous
 62
    40
370
     9
100
AcDbText
 10
995.926129117399
 20
866.7232534047721
 30
0.0
 40
30.48
  1
30
 50
90.0
 41
1.0625
  7
ＭＳ ゴシック
100
AcDbText
  0
TEXT
  5
5A2
330
1F
100
AcDbEntity
  8
3-4
  6
Continuous
 62
    40
370
     9
100
AcDbText
 10
1102.075091189823
 20
405.4730307089318
 30
0.0
 40
30.48
  1
300
 50
90.0
 41
1.083333333333333
  7
ＭＳ ゴシック
100
AcDbText
  0
TEXT
  5
5A3
330
1F
100
AcDbEntity
  8
3-4
  6
Continuous
 62
    40
370
     9
100
AcDbText
 10
162.9292256123313
 20
-457.5192704154349
 30
0.0
 40
30.48
  1
パターン例　Ｓ＝１：３
 41
1.113636363636364
  7
ＭＳ ゴシック
100
AcDbText
  0
TEXT
  5
5A4
330
1F
100
AcDbEntity
  8
0-4
  6
Continuous
 62
    40
370
     9
100
AcDbText
 10
-1191.453614106049
 20
-457.5192704154349
 30
0.0
 40
30.48
  1
Ｓ＝１：１
 41
1.1
  7
ＭＳ ゴシック
100
AcDbText
  0
TEXT
  5
5A5
330
1F
100
AcDbEntity
  8
0-4
  6
Continuous
 62
    40
370
     9
100
AcDbText
 10
-850.9649544710725
 20
26.6143303948482
 30
0.0
 40
30.48
  1
5
 50
90.0
 41
0.9999999999999998
  7
ＭＳ ゴシック
100
AcDbText
  0
ENDSEC
  0
SECTION
  2
OBJECTS
  0
DICTIONARY
  5
C
330
0
100
AcDbDictionary
281
     1
  3
ACAD_GROUP
350
D
  3
ACAD_LAYOUT
350
1A
  3
ACAD_MLEADERSTYLE
350
5A7
  3
ACAD_MLINESTYLE
350
17
  3
ACAD_PLOTSETTINGS
350
19
  3
ACAD_PLOTSTYLENAME
350
E
  3
ACAD_TABLESTYLE
350
5A6
  3
ACAD_VISUALSTYLE
350
2A
  0
DICTIONARY
  5
D
102
{ACAD_REACTORS
330
C
102
}
330
C
100
AcDbDictionary
281
     1
  0
DICTIONARY
  5
1A
102
{ACAD_REACTORS
330
C
102
}
330
C
100
AcDbDictionary
281
     1
  3
Layout1
350
1E
  3
Layout2
350
26
  3
Model
350
22
  0
DICTIONARY
  5
5A7
102
{ACAD_REACTORS
330
C
102
}
330
C
100
AcDbDictionary
281
     1
  0
DICTIONARY
  5
17
102
{ACAD_REACTORS
330
C
102
}
330
C
100
AcDbDictionary
281
     1
  3
Standard
350
18
  0
DICTIONARY
  5
19
102
{ACAD_REACTORS
330
C
102
}
330
C
100
AcDbDictionary
281
     1
  0
ACDBDICTIONARYWDFLT
  5
E
102
{ACAD_REACTORS
330
C
102
}
330
C
100
AcDbDictionary
281
     1
  3
Normal
350
F
100
AcDbDictionaryWithDefault
340
F
  0
DICTIONARY
  5
5A6
102
{ACAD_REACTORS
330
C
102
}
330
C
100
AcDbDictionary
281
     1
  0
DICTIONARY
  5
2A
102
{ACAD_REACTORS
330
C
102
}
330
C
100
AcDbDictionary
281
     1
  3
2dWireframe
350
2F
  3
3D Hidden
350
31
  3
3dWireframe
350
30
  3
Basic
350
32
  3
Brighten
350
36
  3
ColorChange
350
3A
  3
Conceptual
350
34
  3
Dim
350
35
  3
Facepattern
350
39
  3
Flat
350
2B
  3
FlatWithEdges
350
2C
  3
Gouraud
350
2D
  3
GouraudWithEdges
350
2E
  3
Linepattern
350
38
  3
Realistic
350
33
  3
Thicken
350
37
  0
LAYOUT
  5
1E
102
{ACAD_REACTORS
330
1A
102
}
330
1A
100
AcDbPlotSettings
  1

  2
none_device
  4

  6

 40
0.0
 41
0.0
 42
0.0
 43
0.0
 44
0.0
 45
0.0
 46
0.0
 47
0.0
 48
0.0
 49
0.0
140
0.0
141
0.0
142
1.0
143
1.0
 70
   688
 72
     0
 73
     0
 74
     5
  7

 75
    16
 76
     0
 77
     5
 78
   300
147
1.0
148
0.0
149
0.0
100
AcDbLayout
  1
Layout1
 70
     1
 71
     1
 10
0.0
 20
0.0
 11
420.0
 21
297.0
 12
0.0
 22
0.0
 32
0.0
 14
1.000000000000000E+20
 24
1.000000000000000E+20
 34
1.000000000000000E+20
 15
-1.000000000000000E+20
 25
-1.000000000000000E+20
 35
-1.000000000000000E+20
146
0.0
 13
0.0
 23
0.0
 33
0.0
 16
1.0
 26
0.0
 36
0.0
 17
0.0
 27
1.0
 37
0.0
 76
     0
330
1B
  0
LAYOUT
  5
26
102
{ACAD_REACTORS
330
1A
102
}
330
1A
100
AcDbPlotSettings
  1

  2
none_device
  4

  6

 40
0.0
 41
0.0
 42
0.0
 43
0.0
 44
0.0
 45
0.0
 46
0.0
 47
0.0
 48
0.0
 49
0.0
140
0.0
141
0.0
142
1.0
143
1.0
 70
   688
 72
     0
 73
     0
 74
     5
  7

 75
    16
 76
     0
 77
     5
 78
   300
147
1.0
148
0.0
149
0.0
100
AcDbLayout
  1
Layout2
 70
     1
 71
     2
 10
0.0
 20
0.0
 11
0.0
 21
0.0
 12
0.0
 22
0.0
 32
0.0
 14
0.0
 24
0.0
 34
0.0
 15
0.0
 25
0.0
 35
0.0
146
0.0
 13
0.0
 23
0.0
 33
0.0
 16
1.0
 26
0.0
 36
0.0
 17
0.0
 27
1.0
 37
0.0
 76
     0
330
23
  0
LAYOUT
  5
22
102
{ACAD_REACTORS
330
1A
102
}
330
1A
100
AcDbPlotSettings
  1

  2
none_device
  4

  6

 40
0.0
 41
0.0
 42
0.0
 43
0.0
 44
0.0
 45
0.0
 46
0.0
 47
0.0
 48
0.0
 49
0.0
140
0.0
141
0.0
142
1.0
143
1.0
 70
  1712
 72
     0
 73
     0
 74
     0
  7

 75
     0
 76
     0
 77
     5
 78
   300
147
1.0
148
0.0
149
0.0
100
AcDbLayout
  1
Model
 70
     1
 71
     0
 10
-2100.0
 20
-1485.0
 11
2100.0
 21
1485.0
 12
0.0
 22
0.0
 32
0.0
 14
-2100.0
 24
-1485.0
 34
0.0
 15
2100.0
 25
1485.0
 35
0.0
146
0.0
 13
0.0
 23
0.0
 33
0.0
 16
1.0
 26
0.0
 36
0.0
 17
0.0
 27
1.0
 37
0.0
 76
     0
330
1F
331
29
  0
MLINESTYLE
  5
18
102
{ACAD_REACTORS
330
17
102
}
330
17
100
AcDbMlineStyle
  2
Standard
 70
     0
  3

 62
   256
 51
90.0
 52
90.0
 71
     2
 49
0.5
 62
   256
  6
BYLAYER
 49
-0.5
 62
   256
  6
BYLAYER
  0
ACDBPLACEHOLDER
  5
F
102
{ACAD_REACTORS
330
E
102
}
330
E
  0
VISUALSTYLE
  5
2F
102
{ACAD_REACTORS
330
2A
102
}
330
2A
100
AcDbVisualStyle
  2
2dWireframe
 70
     4
 71
     0
 72
     2
 73
     0
 90
        0
 40
-0.6
 41
-30.0
 62
     5
 63
     7
421
 16777215
 74
     1
 91
        4
 64
     7
 65
   257
 75
     1
175
     1
 42
1.0
 92
        0
 66
   257
 43
1.0
 76
     1
 77
     6
 78
     2
 67
     7
 79
     5
170
     0
171
     0
290
     0
174
     0
 93
        1
 44
0.0
173
     0
291
     0
 45
0.0
1001
ACAD
1000
AcDbSavedByObjectVersion
1070
     0
  0
VISUALSTYLE
  5
31
102
{ACAD_REACTORS
330
2A
102
}
330
2A
100
AcDbVisualStyle
  2
3D Hidden
 70
     6
 71
     1
 72
     2
 73
     2
 90
        0
 40
-0.6
 41
-30.0
 62
     5
 63
     7
421
 16777215
 74
     2
 91
        2
 64
     7
 65
   257
 75
     2
175
     1
 42
40.0
 92
        0
 66
   257
 43
1.0
 76
     1
 77
     6
 78
     2
 67
     7
 79
     3
170
     0
171
     0
290
     0
174
     0
 93
        1
 44
0.0
173
     0
291
     0
 45
0.0
1001
ACAD
1000
AcDbSavedByObjectVersion
1070
     0
  0
VISUALSTYLE
  5
30
102
{ACAD_REACTORS
330
2A
102
}
330
2A
100
AcDbVisualStyle
  2
3dWireframe
 70
     5
 71
     0
 72
     2
 73
     0
 90
        0
 40
-0.6
 41
-30.0
 62
     5
 63
     7
421
 16777215
 74
     1
 91
        4
 64
     7
 65
   257
 75
     1
175
     1
 42
1.0
 92
        0
 66
   257
 43
1.0
 76
     1
 77
     6
 78
     2
 67
     7
 79
     5
170
     0
171
     0
290
     0
174
     0
 93
        1
 44
0.0
173
     0
291
     0
 45
0.0
1001
ACAD
1000
AcDbSavedByObjectVersion
1070
     0
  0
VISUALSTYLE
  5
32
102
{ACAD_REACTORS
330
2A
102
}
330
2A
100
AcDbVisualStyle
  2
Basic
 70
     7
 71
     1
 72
     0
 73
     1
 90
        0
 40
-0.6
 41
-30.0
 62
     5
 63
     7
421
 16777215
 74
     0
 91
        4
 64
     7
 65
   257
 75
     1
175
     1
 42
1.0
 92
        8
 66
     7
 43
1.0
 76
     1
 77
     6
 78
     2
 67
     7
 79
     5
170
     0
171
     0
290
     0
174
     0
 93
        1
 44
0.0
173
     0
291
     1
 45
0.0
1001
ACAD
1000
AcDbSavedByObjectVersion
1070
     0
  0
VISUALSTYLE
  5
36
102
{ACAD_REACTORS
330
2A
102
}
330
2A
100
AcDbVisualStyle
  2
Brighten
 70
    12
 71
     2
 72
     2
 73
     0
 90
        0
 40
-0.6
 41
-30.0
 62
     5
 63
     7
421
 16777215
 74
     1
 91
        4
 64
     7
 65
   257
 75
     1
175
     1
 42
1.0
 92
        8
 66
     7
 43
1.0
 76
     1
 77
     6
 78
     2
 67
     7
 79
     5
170
     0
171
     0
290
     0
174
     0
 93
        1
 44
50.0
173
     0
291
     1
 45
0.0
1001
ACAD
1000
AcDbSavedByObjectVersion
1070
     0
  0
VISUALSTYLE
  5
3A
102
{ACAD_REACTORS
330
2A
102
}
330
2A
100
AcDbVisualStyle
  2
ColorChange
 70
    16
 71
     2
 72
     2
 73
     3
 90
        0
 40
-0.6
 41
-30.0
 62
     5
 63
     8
421
  8421504
 74
     1
 91
        4
 64
     7
 65
   257
 75
     1
175
     1
 42
1.0
 92
        8
 66
     8
424
  8421504
 43
1.0
 76
     1
 77
     6
 78
     2
 67
     7
 79
     5
170
     0
171
     0
290
     0
174
     0
 93
        1
 44
0.0
173
     0
291
     1
 45
0.0
1001
ACAD
1000
AcDbSavedByObjectVersion
1070
     0
  0
VISUALSTYLE
  5
34
102
{ACAD_REACTORS
330
2A
102
}
330
2A
100
AcDbVisualStyle
  2
Conceptual
 70
     9
 71
     3
 72
     2
 73
     0
 90
        0
 40
-0.6
 41
-30.0
 62
     5
 63
     7
421
 16777215
 74
     2
 91
        2
 64
     7
 65
   257
 75
     1
175
     1
 42
40.0
 92
        8
 66
     7
 43
1.0
 76
     1
 77
     6
 78
     2
 67
     7
 79
     3
170
     0
171
     0
290
     0
174
     0
 93
        1
 44
0.0
173
     0
291
     0
 45
0.0
1001
ACAD
1000
AcDbSavedByObjectVersion
1070
     0
  0
VISUALSTYLE
  5
35
102
{ACAD_REACTORS
330
2A
102
}
330
2A
100
AcDbVisualStyle
  2
Dim
 70
    11
 71
     2
 72
     2
 73
     0
 90
        0
 40
-0.6
 41
-30.0
 62
     5
 63
     7
421
 16777215
 74
     1
 91
        4
 64
     7
 65
   257
 75
     1
175
     1
 42
1.0
 92
        8
 66
     7
 43
1.0
 76
     1
 77
     6
 78
     2
 67
     7
 79
     5
170
     0
171
     0
290
     0
174
     0
 93
        1
 44
-50.0
173
     0
291
     1
 45
0.0
1001
ACAD
1000
AcDbSavedByObjectVersion
1070
     0
  0
VISUALSTYLE
  5
39
102
{ACAD_REACTORS
330
2A
102
}
330
2A
100
AcDbVisualStyle
  2
Facepattern
 70
    15
 71
     2
 72
     2
 73
     0
 90
        0
 40
-0.6
 41
-30.0
 62
     5
 63
     7
421
 16777215
 74
     1
 91
        4
 64
     7
 65
   257
 75
     1
175
     1
 42
1.0
 92
        8
 66
     7
 43
1.0
 76
     1
 77
     6
 78
     2
 67
     7
 79
     5
170
     0
171
     0
290
     0
174
     0
 93
        1
 44
0.0
173
     0
291
     1
 45
0.0
1001
ACAD
1000
AcDbSavedByObjectVersion
1070
     0
  0
VISUALSTYLE
  5
2B
102
{ACAD_REACTORS
330
2A
102
}
330
2A
100
AcDbVisualStyle
  2
Flat
 70
     0
 71
     2
 72
     1
 73
     1
 90
        2
 40
-0.6
 41
30.0
 62
     5
 63
     7
421
 16777215
 74
     0
 91
        4
 64
     7
 65
   257
 75
     1
175
     1
 42
1.0
 92
        8
 66
     7
 43
1.0
 76
     1
 77
     6
 78
     2
 67
     7
 79
     5
170
     0
171
     0
290
     0
174
     0
 93
       13
 44
0.0
173
     0
291
     1
 45
0.0
1001
ACAD
1000
AcDbSavedByObjectVersion
1070
     0
  0
VISUALSTYLE
  5
2C
102
{ACAD_REACTORS
330
2A
102
}
330
2A
100
AcDbVisualStyle
  2
FlatWithEdges
 70
     1
 71
     2
 72
     1
 73
     1
 90
        2
 40
-0.6
 41
30.0
 62
     5
 63
     7
421
 16777215
 74
     1
 91
        4
 64
     7
 65
   257
 75
     1
175
     1
 42
1.0
 92
        0
 66
   257
 43
1.0
 76
     1
 77
     6
 78
     2
 67
     7
 79
     5
170
     0
171
     0
290
     0
174
     0
 93
       13
 44
0.0
173
     0
291
     1
 45
0.0
1001
ACAD
1000
AcDbSavedByObjectVersion
1070
     0
  0
VISUALSTYLE
  5
2D
102
{ACAD_REACTORS
330
2A
102
}
330
2A
100
AcDbVisualStyle
  2
Gouraud
 70
     2
 71
     2
 72
     2
 73
     1
 90
        2
 40
-0.6
 41
30.0
 62
     5
 63
     7
421
 16777215
 74
     0
 91
        4
 64
     7
 65
   257
 75
     1
175
     1
 42
1.0
 92
        0
 66
     7
 43
1.0
 76
     1
 77
     6
 78
     2
 67
     7
 79
     5
170
     0
171
     0
290
     0
174
     0
 93
       13
 44
0.0
173
     0
291
     1
 45
0.0
1001
ACAD
1000
AcDbSavedByObjectVersion
1070
     0
  0
VISUALSTYLE
  5
2E
102
{ACAD_REACTORS
330
2A
102
}
330
2A
100
AcDbVisualStyle
  2
GouraudWithEdges
 70
     3
 71
     2
 72
     2
 73
     1
 90
        2
 40
-0.6
 41
30.0
 62
     5
 63
     7
421
 16777215
 74
     1
 91
        4
 64
     7
 65
   257
 75
     1
175
     1
 42
1.0
 92
        0
 66
   257
 43
1.0
 76
     1
 77
     6
 78
     2
 67
     7
 79
     5
170
     0
171
     0
290
     0
174
     0
 93
       13
 44
0.0
173
     0
291
     1
 45
0.0
1001
ACAD
1000
AcDbSavedByObjectVersion
1070
     0
  0
VISUALSTYLE
  5
38
102
{ACAD_REACTORS
330
2A
102
}
330
2A
100
AcDbVisualStyle
  2
Linepattern
 70
    14
 71
     2
 72
     2
 73
     0
 90
        0
 40
-0.6
 41
-30.0
 62
     5
 63
     7
421
 16777215
 74
     1
 91
        4
 64
     7
 65
   257
 75
     7
175
     7
 42
1.0
 92
        8
 66
     7
 43
1.0
 76
     1
 77
     6
 78
     2
 67
     7
 79
     5
170
     0
171
     0
290
     0
174
     0
 93
        1
 44
0.0
173
     0
291
     1
 45
0.0
1001
ACAD
1000
AcDbSavedByObjectVersion
1070
     0
  0
VISUALSTYLE
  5
33
102
{ACAD_REACTORS
330
2A
102
}
330
2A
100
AcDbVisualStyle
  2
Realistic
 70
     8
 71
     2
 72
     2
 73
     0
 90
        0
 40
-0.6
 41
-30.0
 62
     5
 63
     7
421
 16777215
 74
     1
 91
        0
 64
     7
 65
   257
 75
     1
175
     1
 42
1.0
 92
        8
 66
     8
424
  7895160
 43
1.0
 76
     1
 77
     6
 78
     2
 67
     7
 79
     5
170
     0
171
     0
290
     0
174
     0
 93
       13
 44
0.0
173
     0
291
     0
 45
0.0
1001
ACAD
1000
AcDbSavedByObjectVersion
1070
     0
  0
VISUALSTYLE
  5
37
102
{ACAD_REACTORS
330
2A
102
}
330
2A
100
AcDbVisualStyle
  2
Thicken
 70
    13
 71
     2
 72
     2
 73
     0
 90
        0
 40
-0.6
 41
-30.0
 62
     5
 63
     7
421
 16777215
 74
     1
 91
        4
 64
     7
 65
   257
 75
     1
175
     1
 42
1.0
 92
       12
 66
     7
 43
1.0
 76
     1
 77
     6
 78
     2
 67
     7
 79
     5
170
     0
171
     0
290
     0
174
     0
 93
        1
 44
0.0
173
     0
291
     1
 45
0.0
1001
ACAD
1000
AcDbSavedByObjectVersion
1070
     0
  0
ENDSEC
  0
EOF
