  0
SECTION
  2
HEADER
  9
$ACADVER
  1
AC1015
  9
$ACADMAINTVER
 70
     6
  9
$DWGCODEPAGE
  3
ANSI_932
  9
$INSBASE
 10
0.0
 20
0.0
 30
0.0
  9
$EXTMIN
 10
-2100.0
 20
-1485.0
 30
0.0
  9
$EXTMAX
 10
2100.0
 20
1485.0
 30
0.0
  9
$LIMMIN
 10
-2100.0
 20
-1485.0
  9
$LIMMAX
 10
2100.0
 20
1485.0
  9
$ORTHOMODE
 70
     0
  9
$REGENMODE
 70
     1
  9
$FILLMODE
 70
     1
  9
$QTEXTMODE
 70
     0
  9
$MIRRTEXT
 70
     1
  9
$LTSCALE
 40
10.0
  9
$ATTMODE
 70
     1
  9
$TEXTSIZE
 40
2.5
  9
$TRACEWID
 40
1.0
  9
$TEXTSTYLE
  7
Standard
  9
$CLAYER
  8
0
  9
$CELTYPE
  6
ByLayer
  9
$CECOLOR
 62
   256
  9
$CELTSCALE
 40
1.0
  9
$DISPSILH
 70
     0
  9
$DIMSCALE
 40
1.0
  9
$DIMASZ
 40
2.5
  9
$DIMEXO
 40
0.625
  9
$DIMDLI
 40
3.75
  9
$DIMRND
 40
0.0
  9
$DIMDLE
 40
0.0
  9
$DIMEXE
 40
1.25
  9
$DIMTP
 40
0.0
  9
$DIMTM
 40
0.0
  9
$DIMTXT
 40
2.5
  9
$DIMCEN
 40
2.5
  9
$DIMTSZ
 40
0.0
  9
$DIMTOL
 70
     0
  9
$DIMLIM
 70
     0
  9
$DIMTIH
 70
     0
  9
$DIMTOH
 70
     0
  9
$DIMSE1
 70
     0
  9
$DIMSE2
 70
     0
  9
$DIMTAD
 70
     1
  9
$DIMZIN
 70
     8
  9
$DIMBLK
  1

  9
$DIMASO
 70
     1
  9
$DIMSHO
 70
     1
  9
$DIMPOST
  1

  9
$DIMAPOST
  1

  9
$DIMALT
 70
     0
  9
$DIMALTD
 70
     3
  9
$DIMALTF
 40
0.03937007874016
  9
$DIMLFAC
 40
1.0
  9
$DIMTOFL
 70
     1
  9
$DIMTVP
 40
0.0
  9
$DIMTIX
 70
     0
  9
$DIMSOXD
 70
     0
  9
$DIMSAH
 70
     0
  9
$DIMBLK1
  1

  9
$DIMBLK2
  1

  9
$DIMSTYLE
  2
ISO-25
  9
$DIMCLRD
 70
     0
  9
$DIMCLRE
 70
     0
  9
$DIMCLRT
 70
     0
  9
$DIMTFAC
 40
1.0
  9
$DIMGAP
 40
0.625
  9
$DIMJUST
 70
     0
  9
$DIMSD1
 70
     0
  9
$DIMSD2
 70
     0
  9
$DIMTOLJ
 70
     0
  9
$DIMTZIN
 70
     8
  9
$DIMALTZ
 70
     0
  9
$DIMALTTZ
 70
     0
  9
$DIMUPT
 70
     0
  9
$DIMDEC
 70
     2
  9
$DIMTDEC
 70
     2
  9
$DIMALTU
 70
     2
  9
$DIMALTTD
 70
     3
  9
$DIMTXSTY
  7
Standard
  9
$DIMAUNIT
 70
     0
  9
$DIMADEC
 70
     0
  9
$DIMALTRND
 40
0.0
  9
$DIMAZIN
 70
     0
  9
$DIMDSEP
 70
    44
  9
$DIMATFIT
 70
     3
  9
$DIMFRAC
 70
     0
  9
$DIMLDRBLK
  1

  9
$DIMLUNIT
 70
     2
  9
$DIMLWD
 70
    -2
  9
$DIMLWE
 70
    -2
  9
$DIMTMOVE
 70
     0
  9
$LUNITS
 70
     2
  9
$LUPREC
 70
     4
  9
$SKETCHINC
 40
1.0
  9
$FILLETRAD
 40
10.0
  9
$AUNITS
 70
     0
  9
$AUPREC
 70
     0
  9
$MENU
  1
.
  9
$ELEVATION
 40
0.0
  9
$PELEVATION
 40
0.0
  9
$THICKNESS
 40
0.0
  9
$LIMCHECK
 70
     0
  9
$CHAMFERA
 40
10.0
  9
$CHAMFERB
 40
10.0
  9
$CHAMFERC
 40
20.0
  9
$CHAMFERD
 40
0.0
  9
$SKPOLY
 70
     0
  9
$TDCREATE
 40
2456911.467255961
  9
$TDUCREATE
 40
2456911.092255961
  9
$TDUPDATE
 40
2456911.467255972
  9
$TDUUPDATE
 40
2456911.092255972
  9
$TDINDWG
 40
0.0000000116
  9
$TDUSRTIMER
 40
0.0000000116
  9
$USRTIMER
 70
     1
  9
$ANGBASE
 50
0.0
  9
$ANGDIR
 70
     0
  9
$PDMODE
 70
     0
  9
$PDSIZE
 40
0.0
  9
$PLINEWID
 40
0.0
  9
$SPLFRAME
 70
     0
  9
$SPLINETYPE
 70
     6
  9
$SPLINESEGS
 70
     8
  9
$HANDSEED
  5
111
  9
$SURFTAB1
 70
     6
  9
$SURFTAB2
 70
     6
  9
$SURFTYPE
 70
     6
  9
$SURFU
 70
     6
  9
$SURFV
 70
     6
  9
$UCSBASE
  2

  9
$UCSNAME
  2

  9
$UCSORG
 10
0.0
 20
0.0
 30
0.0
  9
$UCSXDIR
 10
1.0
 20
0.0
 30
0.0
  9
$UCSYDIR
 10
0.0
 20
1.0
 30
0.0
  9
$UCSORTHOREF
  2

  9
$UCSORTHOVIEW
 70
     0
  9
$UCSORGTOP
 10
0.0
 20
0.0
 30
0.0
  9
$UCSORGBOTTOM
 10
0.0
 20
0.0
 30
0.0
  9
$UCSORGLEFT
 10
0.0
 20
0.0
 30
0.0
  9
$UCSORGRIGHT
 10
0.0
 20
0.0
 30
0.0
  9
$UCSORGFRONT
 10
0.0
 20
0.0
 30
0.0
  9
$UCSORGBACK
 10
0.0
 20
0.0
 30
0.0
  9
$PUCSBASE
  2

  9
$PUCSNAME
  2

  9
$PUCSORG
 10
0.0
 20
0.0
 30
0.0
  9
$PUCSXDIR
 10
1.0
 20
0.0
 30
0.0
  9
$PUCSYDIR
 10
0.0
 20
1.0
 30
0.0
  9
$PUCSORTHOREF
  2

  9
$PUCSORTHOVIEW
 70
     0
  9
$PUCSORGTOP
 10
0.0
 20
0.0
 30
0.0
  9
$PUCSORGBOTTOM
 10
0.0
 20
0.0
 30
0.0
  9
$PUCSORGLEFT
 10
0.0
 20
0.0
 30
0.0
  9
$PUCSORGRIGHT
 10
0.0
 20
0.0
 30
0.0
  9
$PUCSORGFRONT
 10
0.0
 20
0.0
 30
0.0
  9
$PUCSORGBACK
 10
0.0
 20
0.0
 30
0.0
  9
$USERI1
 70
     0
  9
$USERI2
 70
     0
  9
$USERI3
 70
     0
  9
$USERI4
 70
     0
  9
$USERI5
 70
     0
  9
$USERR1
 40
0.0
  9
$USERR2
 40
0.0
  9
$USERR3
 40
0.0
  9
$USERR4
 40
0.0
  9
$USERR5
 40
0.0
  9
$WORLDVIEW
 70
     1
  9
$SHADEDGE
 70
     3
  9
$SHADEDIF
 70
    70
  9
$TILEMODE
 70
     1
  9
$MAXACTVP
 70
    64
  9
$PINSBASE
 10
0.0
 20
0.0
 30
0.0
  9
$PLIMCHECK
 70
     0
  9
$PEXTMIN
 10
1.000000000000000E+20
 20
1.000000000000000E+20
 30
1.000000000000000E+20
  9
$PEXTMAX
 10
-1.000000000000000E+20
 20
-1.000000000000000E+20
 30
-1.000000000000000E+20
  9
$PLIMMIN
 10
0.0
 20
0.0
  9
$PLIMMAX
 10
420.0
 20
297.0
  9
$UNITMODE
 70
     0
  9
$VISRETAIN
 70
     1
  9
$PLINEGEN
 70
     0
  9
$PSLTSCALE
 70
     1
  9
$TREEDEPTH
 70
  3020
  9
$CMLSTYLE
  2
Standard
  9
$CMLJUST
 70
     0
  9
$CMLSCALE
 40
20.0
  9
$PROXYGRAPHICS
 70
     1
  9
$MEASUREMENT
 70
     1
  9
$CELWEIGHT
370
    -1
  9
$ENDCAPS
280
     0
  9
$JOINSTYLE
280
     0
  9
$LWDISPLAY
290
     0
  9
$INSUNITS
 70
     4
  9
$HYPERLINKBASE
  1

  9
$STYLESHEET
  1

  9
$XEDIT
290
     1
  9
$CEPSNTYPE
380
     0
  9
$PSTYLEMODE
290
     1
  9
$FINGERPRINTGUID
  2
{B410F47C-BEB8-4C73-9722-37E4D8B6507C}
  9
$VERSIONGUID
  2
{FAEB1C32-E019-11D5-929B-00C0DF256EC4}
  9
$EXTNAMES
290
     1
  9
$PSVPSCALE
 40
0.0
  9
$OLESTARTUP
290
     0
  0
ENDSEC
  0
SECTION
  2
CLASSES
  0
CLASS
  1
ACDBDICTIONARYWDFLT
  2
AcDbDictionaryWithDefault
  3
ObjectDBX Classes
 90
        0
280
     0
281
     0
  0
CLASS
  1
VISUALSTYLE
  2
AcDbVisualStyle
  3
ObjectDBX Classes
 90
     4095
280
     0
281
     0
  0
CLASS
  1
DICTIONARYVAR
  2
AcDbDictionaryVar
  3
ObjectDBX Classes
 90
        0
280
     0
281
     0
  0
CLASS
  1
ACDBPLACEHOLDER
  2
AcDbPlaceHolder
  3
ObjectDBX Classes
 90
        0
280
     0
281
     0
  0
CLASS
  1
LAYOUT
  2
AcDbLayout
  3
ObjectDBX Classes
 90
        0
280
     0
281
     0
  0
ENDSEC
  0
SECTION
  2
TABLES
  0
TABLE
  2
VPORT
  5
8
330
0
100
AcDbSymbolTable
 70
     1
  0
VPORT
  5
29
330
8
100
AcDbSymbolTableRecord
100
AcDbViewportTableRecord
  2
*Active
 70
     0
 10
0.0
 20
0.0
 11
1.0
 21
1.0
 12
0.0
 22
0.0
 13
0.0
 23
0.0
 14
10.0
 24
10.0
 15
10.0
 25
10.0
 16
0.0
 26
0.0
 36
1.0
 17
0.0
 27
0.0
 37
0.0
 40
3267.0
 41
1.414141414141414
 42
50.0
 43
0.0
 44
0.0
 50
0.0
 51
0.0
 71
     0
 72
 10000
 73
     1
 74
     3
 75
     0
 76
     0
 77
     0
 78
     0
281
     0
 65
     1
110
0.0
120
0.0
130
0.0
111
1.0
121
0.0
131
0.0
112
0.0
122
1.0
132
0.0
 79
     0
146
0.0
  0
ENDTAB
  0
TABLE
  2
LTYPE
  5
5
330
0
100
AcDbSymbolTable
 70
     4
  0
LTYPE
  5
14
330
5
100
AcDbSymbolTableRecord
100
AcDbLinetypeTableRecord
  2
ByBlock
 70
     0
  3

 72
    65
 73
     0
 40
0.0
  0
LTYPE
  5
15
330
5
100
AcDbSymbolTableRecord
100
AcDbLinetypeTableRecord
  2
ByLayer
 70
     0
  3

 72
    65
 73
     0
 40
0.0
  0
LTYPE
  5
16
330
5
100
AcDbSymbolTableRecord
100
AcDbLinetypeTableRecord
  2
Continuous
 70
     0
  3
Solid line
 72
    65
 73
     0
 40
0.0
  0
LTYPE
  5
3C
330
5
100
AcDbSymbolTableRecord
100
AcDbLinetypeTableRecord
  2
JWW_CENTER2
 70
     0
  3
-------------  --  -------------
 72
    65
 73
     4
 40
13.54666666666667
 49
11.00666666666667
 74
     0
 49
-0.8466666666666667
 74
     0
 49
0.8466666666666667
 74
     0
 49
-0.8466666666666667
 74
     0
  0
LTYPE
  5
3D
330
5
100
AcDbSymbolTableRecord
100
AcDbLinetypeTableRecord
  2
JWW_CENTER1
 70
     0
  3
-----  --  ----------  --  -----
 72
    65
 73
     4
 40
6.773333333333333
 49
4.233333333333333
 74
     0
 49
-0.8466666666666667
 74
     0
 49
0.8466666666666667
 74
     0
 49
-0.8466666666666667
 74
     0
  0
LTYPE
  5
3E
330
5
100
AcDbSymbolTableRecord
100
AcDbLinetypeTableRecord
  2
JWW_DASHED3
 70
     0
  3
---  ------  ------  ------  ---
 72
    65
 73
     2
 40
3.386666666666667
 49
2.54
 74
     0
 49
-0.8466666666666667
 74
     0
  0
ENDTAB
  0
TABLE
  2
LAYER
  5
2
330
0
100
AcDbSymbolTable
 70
     6
  0
LAYER
  5
10
330
2
100
AcDbSymbolTableRecord
100
AcDbLayerTableRecord
  2
0
 70
     0
 62
     7
  6
Continuous
370
    -3
390
F
  0
LAYER
  5
3F
330
2
100
AcDbSymbolTableRecord
100
AcDbLayerTableRecord
  2
A-5
 70
     0
 62
     7
  6
Continuous
370
    -3
390
F
  0
LAYER
  5
40
330
2
100
AcDbSymbolTableRecord
100
AcDbLayerTableRecord
  2
F-5
 70
     0
 62
     7
  6
Continuous
370
    -3
390
F
  0
LAYER
  5
41
330
2
100
AcDbSymbolTableRecord
100
AcDbLayerTableRecord
  2
A-0
 70
     0
 62
     7
  6
Continuous
370
    -3
390
F
  0
LAYER
  5
42
330
2
100
AcDbSymbolTableRecord
100
AcDbLayerTableRecord
  2
A-4
 70
     0
 62
     7
  6
Continuous
370
    -3
390
F
  0
LAYER
  5
43
330
2
100
AcDbSymbolTableRecord
100
AcDbLayerTableRecord
  2
A-F
 70
     0
 62
     7
  6
Continuous
370
    -3
390
F
  0
ENDTAB
  0
TABLE
  2
STYLE
  5
3
330
0
100
AcDbSymbolTable
 70
     2
  0
STYLE
  5
11
330
3
100
AcDbSymbolTableRecord
100
AcDbTextStyleTableRecord
  2
Standard
 70
     0
 40
0.0
 41
1.0
 50
0.0
 71
     0
 42
2.5
  3
txt
  4

1001
ACAD
1000

1071
        0
  0
STYLE
  5
3B
330
3
100
AcDbSymbolTableRecord
100
AcDbTextStyleTableRecord
  2
ＭＳ ゴシック
 70
     0
 40
1.0
 41
1.0
 50
0.0
 71
     0
 42
10.0
  3

  4

1001
ACAD
1000
MS Gothic
1071
    32817
  0
ENDTAB
  0
TABLE
  2
VIEW
  5
6
330
0
100
AcDbSymbolTable
 70
     0
  0
ENDTAB
  0
TABLE
  2
UCS
  5
7
330
0
100
AcDbSymbolTable
 70
     0
  0
ENDTAB
  0
TABLE
  2
APPID
  5
9
330
0
100
AcDbSymbolTable
 70
     1
  0
APPID
  5
12
330
9
100
AcDbSymbolTableRecord
100
AcDbRegAppTableRecord
  2
ACAD
 70
     0
  0
ENDTAB
  0
TABLE
  2
DIMSTYLE
  5
A
330
0
100
AcDbSymbolTable
 70
     1
100
AcDbDimStyleTable
  0
DIMSTYLE
105
27
330
A
100
AcDbSymbolTableRecord
100
AcDbDimStyleTableRecord
  2
ISO-25
 70
     0
 41
2.5
 42
0.625
 43
3.75
 44
1.25
 73
     0
 74
     0
 77
     1
 78
     8
140
2.5
141
2.5
143
0.03937007874016
147
0.625
171
     3
172
     1
271
     2
272
     2
274
     3
278
    44
283
     0
284
     8
340
11
  0
ENDTAB
  0
TABLE
  2
BLOCK_RECORD
  5
1
330
0
100
AcDbSymbolTable
 70
     1
  0
BLOCK_RECORD
  5
1F
330
1
100
AcDbSymbolTableRecord
100
AcDbBlockTableRecord
  2
*Model_Space
340
22
  0
BLOCK_RECORD
  5
1B
330
1
100
AcDbSymbolTableRecord
100
AcDbBlockTableRecord
  2
*Paper_Space
340
1E
  0
BLOCK_RECORD
  5
23
330
1
100
AcDbSymbolTableRecord
100
AcDbBlockTableRecord
  2
*Paper_Space0
340
26
  0
ENDTAB
  0
ENDSEC
  0
SECTION
  2
BLOCKS
  0
BLOCK
  5
20
330
1F
100
AcDbEntity
  8
0
100
AcDbBlockBegin
  2
*Model_Space
 70
     0
 10
0.0
 20
0.0
 30
0.0
  3
*Model_Space
  1

  0
ENDBLK
  5
21
330
1F
100
AcDbEntity
  8
0
100
AcDbBlockEnd
  0
BLOCK
  5
1C
330
1B
100
AcDbEntity
 67
     1
  8
0
100
AcDbBlockBegin
  2
*Paper_Space
 70
     0
 10
0.0
 20
0.0
 30
0.0
  3
*Paper_Space
  1

  0
ENDBLK
  5
1D
330
1B
100
AcDbEntity
 67
     1
  8
0
100
AcDbBlockEnd
  0
BLOCK
  5
24
330
23
100
AcDbEntity
  8
0
100
AcDbBlockBegin
  2
*Paper_Space0
 70
     0
 10
0.0
 20
0.0
 30
0.0
  3
*Paper_Space0
  1

  0
ENDBLK
  5
25
330
23
100
AcDbEntity
  8
0
100
AcDbBlockEnd
  0
ENDSEC
  0
SECTION
  2
ENTITIES
  0
TEXT
  5
44
330
1F
100
AcDbEntity
  8
A-5
  6
Continuous
 62
     2
370
     9
100
AcDbText
 10
1399.416005906026
 20
-1128.37813735342
 30
0.0
 40
30.48
  1
本体質量：８．０ｋｇ
 41
1.1125
  7
ＭＳ ゴシック
100
AcDbText
  0
TEXT
  5
45
330
1F
100
AcDbEntity
  8
F-5
  6
Continuous
 62
     7
370
     9
100
AcDbText
 10
-694.6438320617403
 20
-1348.917027208344
 30
0.0
 40
22.86
  1
スチール製　自転車・バイク盗難防止用パイプ　JP-E27A
 41
1.163398692810458
  7
ＭＳ ゴシック
100
AcDbText
  0
ARC
  5
46
330
1F
100
AcDbEntity
  8
A-0
  6
Continuous
 62
     3
370
     9
100
AcDbCircle
 10
1012.99779792625
 20
-263.0780857750807
 30
0.0
 40
131.3500058973158
100
AcDbArc
 50
0.0
 51
90.00025939941406
  0
ARC
  5
47
330
1F
100
AcDbEntity
  8
A-0
  6
Continuous
 62
     3
370
     9
100
AcDbCircle
 10
1012.99779792625
 20
-263.0781600070276
 30
0.0
 40
88.64999925768053
100
AcDbArc
 50
0.0
 51
90.00028991699219
  0
LINE
  5
48
330
1F
100
AcDbEntity
  8
A-0
  6
Continuous
 62
     3
370
     9
100
AcDbLine
 10
1012.997204070676
 20
-131.7280705987715
 30
0.0
 11
144.3478131025593
 21
-131.7321993146975
 31
0.0
  0
LINE
  5
49
330
1F
100
AcDbEntity
  8
A-0
  6
Continuous
 62
     3
370
     9
100
AcDbLine
 10
1012.997352534569
 20
-174.4280679594135
 30
0.0
 11
144.3478131025593
 21
-174.4321966732414
 31
0.0
  0
LINE
  5
4A
330
1F
100
AcDbEntity
  8
A-0
  6
Continuous
 62
     3
370
     9
100
AcDbLine
 10
1144.347813102559
 20
-263.0780857750807
 30
0.0
 11
1144.347813102559
 21
-477.2248424800483
 31
0.0
  0
LINE
  5
4B
330
1F
100
AcDbEntity
  8
A-0
  6
Continuous
 62
     3
370
     9
100
AcDbLine
 10
1101.647815741917
 20
-263.0781600070276
 30
0.0
 11
1101.647815741917
 21
-477.225054661616
 31
0.0
  0
ARC
  5
4C
330
1F
100
AcDbEntity
  8
A-0
  6
JWW_CENTER2
 62
     4
370
     9
100
AcDbCircle
 10
1012.99779792625
 20
-263.0782342389742
 30
0.0
 40
109.9999979380015
100
AcDbArc
 50
0.0
 51
90.00030517578126
  0
LINE
  5
4D
330
1F
100
AcDbEntity
  8
A-0
  6
JWW_CENTER2
 62
     4
370
     9
100
AcDbLine
 10
1012.997204070676
 20
-153.0780692790926
 30
0.0
 11
144.3478131025593
 21
-153.0827878115793
 31
0.0
  0
LINE
  5
4E
330
1F
100
AcDbEntity
  8
A-0
  6
JWW_CENTER2
 62
     4
370
     9
100
AcDbLine
 10
1122.997814422238
 20
-263.0782342389742
 30
0.0
 11
1122.997814422238
 21
-530.7895269709821
 31
0.0
  0
LINE
  5
4F
330
1F
100
AcDbEntity
  8
A-5
  6
Continuous
 62
     7
370
     9
100
AcDbLine
 10
1144.347813102559
 20
52.92734669810655
 30
0.0
 11
1119.561691568214
 21
56.1905015036079
 31
0.0
  0
LINE
  5
50
330
1F
100
AcDbEntity
  8
A-5
  6
Continuous
 62
     7
370
     9
100
AcDbLine
 10
1144.347813102559
 20
52.92734669810655
 30
0.0
 11
1119.561691568214
 21
49.66419189260519
 31
0.0
  0
LINE
  5
51
330
1F
100
AcDbEntity
  8
A-5
  6
Continuous
 62
     7
370
     9
100
AcDbLine
 10
1144.347813102559
 20
55.92734669810652
 30
0.0
 11
1144.347813102559
 21
-117.1248597536636
 31
0.0
  0
ARC
  5
52
330
1F
100
AcDbEntity
  8
A-5
  6
Continuous
 62
     4
370
     9
100
AcDbCircle
 10
1012.99779792625
 20
-263.0780857750807
 30
0.0
 40
129.0500058973158
100
AcDbArc
 50
0.0
 51
90.00025939941406
  0
ARC
  5
53
330
1F
100
AcDbEntity
  8
A-5
  6
Continuous
 62
     4
370
     9
100
AcDbCircle
 10
1012.99779792625
 20
-263.0781600070276
 30
0.0
 40
90.94999925768053
100
AcDbArc
 50
0.0
 51
90.00028991699219
  0
LINE
  5
54
330
1F
100
AcDbEntity
  8
A-5
  6
Continuous
 62
     4
370
     9
100
AcDbLine
 10
1142.047813102559
 20
-263.0780857750807
 30
0.0
 11
1142.047813102559
 21
-477.2248424800483
 31
0.0
  0
LINE
  5
55
330
1F
100
AcDbEntity
  8
A-5
  6
Continuous
 62
     4
370
     9
100
AcDbLine
 10
1103.947815741917
 20
-263.0781600070276
 30
0.0
 11
1103.947815741917
 21
-477.225054661616
 31
0.0
  0
LINE
  5
56
330
1F
100
AcDbEntity
  8
A-5
  6
Continuous
 62
     7
370
     9
100
AcDbLine
 10
1109.002728000034
 20
-331.6010790056239
 30
0.0
 11
1229.304006511852
 21
-331.6010790056239
 31
0.0
  0
LINE
  5
57
330
1F
100
AcDbEntity
  8
A-5
  6
Continuous
 62
     7
370
     9
100
AcDbLine
 10
1142.047813102559
 20
-331.6010790056239
 30
0.0
 11
1117.261691568214
 21
-334.8642338111253
 31
0.0
  0
LINE
  5
58
330
1F
100
AcDbEntity
  8
A-5
  6
Continuous
 62
     7
370
     9
100
AcDbLine
 10
1142.047813102559
 20
-331.6010790056239
 30
0.0
 11
1117.261691568214
 21
-328.3379242001228
 31
0.0
  0
LINE
  5
59
330
1F
100
AcDbEntity
  8
A-5
  6
Continuous
 62
     7
370
     9
100
AcDbLine
 10
1144.347813102559
 20
-331.6010790056239
 30
0.0
 11
1169.133934636905
 21
-334.8642338111253
 31
0.0
  0
LINE
  5
5A
330
1F
100
AcDbEntity
  8
A-5
  6
Continuous
 62
     7
370
     9
100
AcDbLine
 10
1144.347813102559
 20
-331.6010790056239
 30
0.0
 11
1169.133934636905
 21
-328.3379242001228
 31
0.0
  0
LINE
  5
5B
330
1F
100
AcDbEntity
  8
A-5
  6
Continuous
 62
     7
370
     9
100
AcDbLine
 10
1142.047813102559
 20
-328.601079005624
 30
0.0
 11
1142.047813102559
 21
-362.7707552897162
 31
0.0
  0
LINE
  5
5C
330
1F
100
AcDbEntity
  8
A-5
  6
Continuous
 62
     7
370
     9
100
AcDbLine
 10
1144.347813102559
 20
-328.601079005624
 30
0.0
 11
1144.347813102559
 21
-362.7707552897162
 31
0.0
  0
ARC
  5
5D
330
1F
100
AcDbEntity
  8
A-0
  6
Continuous
 62
     3
370
     9
100
AcDbCircle
 10
1538.08694524996
 20
-153.0780715988407
 30
0.0
 40
21.35000100006928
100
AcDbArc
 50
0.000396728515625
 51
180.0003967285156
  0
LINE
  5
5E
330
1F
100
AcDbEntity
  8
A-4
  6
Continuous
 62
     7
370
     9
100
AcDbLine
 10
1759.599254743186
 20
-481.7249485708877
 30
0.0
 11
1390.785786499755
 21
-481.7249485708877
 31
0.0
  0
LINE
  5
5F
330
1F
100
AcDbEntity
  8
A-0
  6
JWW_CENTER2
 62
     4
370
     9
100
AcDbLine
 10
1538.08694524996
 20
-121.4104080501421
 30
0.0
 11
1538.08694524996
 21
-558.2969140282071
 31
0.0
  0
LINE
  5
60
330
1F
100
AcDbEntity
  8
A-5
  6
Continuous
 62
     3
370
     9
100
AcDbLine
 10
1516.73694524996
 20
-477.2250546616225
 30
0.0
 11
1516.73694524996
 21
-153.0715368488639
 31
0.0
  0
LINE
  5
61
330
1F
100
AcDbEntity
  8
A-5
  6
Continuous
 62
     3
370
     9
100
AcDbLine
 10
1559.43694524996
 20
-477.2248424800417
 30
0.0
 11
1559.43694524996
 21
-153.0715368488639
 31
0.0
  0
LINE
  5
62
330
1F
100
AcDbEntity
  8
A-5
  6
JWW_CENTER2
 62
     4
370
     9
100
AcDbLine
 10
1496.663539924193
 20
-153.0782363025331
 30
0.0
 11
1573.136293371577
 21
-153.0782363025331
 31
0.0
  0
LINE
  5
63
330
1F
100
AcDbEntity
  8
A-F
  6
Continuous
 62
     7
370
     9
100
AcDbLine
 10
-1502.08392732317
 20
-185.2965157529101
 30
0.0
 11
-1487.803593675313
 21
-196.2543388103426
 31
0.0
  0
LINE
  5
64
330
1F
100
AcDbEntity
  8
A-F
  6
Continuous
 62
     7
370
     9
100
AcDbLine
 10
-1502.08392732317
 20
-185.2965157529101
 30
0.0
 11
-1491.126178497684
 21
-199.5768122847934
 31
0.0
  0
LINE
  5
65
330
1F
100
AcDbEntity
  8
A-F
  6
Continuous
 62
     7
370
     9
100
AcDbLine
 10
-1403.655349780328
 20
-283.7250463275084
 30
0.0
 11
-1502.08392732317
 21
-185.2965157529101
 31
0.0
  0
ARC
  5
66
330
1F
100
AcDbEntity
  8
A-0
  6
Continuous
 62
     3
370
     9
100
AcDbCircle
 10
-1424.302171721132
 20
-263.0780857750807
 30
0.0
 40
131.3500058973158
100
AcDbArc
 50
89.99974060058597
 51
180.0
  0
ARC
  5
67
330
1F
100
AcDbEntity
  8
A-0
  6
Continuous
 62
     3
370
     9
100
AcDbCircle
 10
-1424.302171721132
 20
-263.0781600070276
 30
0.0
 40
88.64999925768053
100
AcDbArc
 50
89.99971008300781
 51
180.0
  0
LINE
  5
68
330
1F
100
AcDbEntity
  8
A-5
  6
Continuous
 62
     3
370
     9
100
AcDbLine
 10
-1555.652177618448
 20
-263.0780857750807
 30
0.0
 11
-1555.652177618448
 21
-477.2347807273468
 31
0.0
  0
LINE
  5
69
330
1F
100
AcDbEntity
  8
A-0
  6
Continuous
 62
     3
370
     9
100
AcDbLine
 10
-1512.9521895368
 20
-263.0781600070276
 30
0.0
 11
-1512.9521895368
 21
-477.2345685458253
 31
0.0
  0
ARC
  5
6A
330
1F
100
AcDbEntity
  8
A-0
  6
JWW_CENTER2
 62
     4
370
     9
100
AcDbCircle
 10
-1424.302171721132
 20
-263.0782342389742
 30
0.0
 40
109.9999979380015
100
AcDbArc
 50
89.99969482421878
 51
180.0000000000001
  0
LINE
  5
6B
330
1F
100
AcDbEntity
  8
A-5
  6
Continuous
 62
     7
370
     9
100
AcDbLine
 10
-1676.841941254205
 20
-481.7345685458809
 30
0.0
 11
-1600.892839874407
 21
-481.7345685458809
 31
0.0
  0
LINE
  5
6C
330
1F
100
AcDbEntity
  8
A-5
  6
Continuous
 62
     7
370
     9
100
AcDbLine
 10
-1673.841941254205
 20
-131.7280705987715
 30
0.0
 11
-1673.841941254205
 21
-481.7345685458809
 31
0.0
  0
LINE
  5
6D
330
1F
100
AcDbEntity
  8
A-5
  6
Continuous
 62
     7
370
     9
100
AcDbLine
 10
-1673.841941254205
 20
-131.7280705987715
 30
0.0
 11
-1670.578786448703
 21
-156.5141921331168
 31
0.0
  0
LINE
  5
6E
330
1F
100
AcDbEntity
  8
A-5
  6
Continuous
 62
     7
370
     9
100
AcDbLine
 10
-1673.841941254205
 20
-131.7280705987715
 30
0.0
 11
-1677.105096059706
 21
-156.5141921331168
 31
0.0
  0
LINE
  5
6F
330
1F
100
AcDbEntity
  8
A-5
  6
Continuous
 62
     7
370
     9
100
AcDbLine
 10
-1673.841941254205
 20
-481.7345685458809
 30
0.0
 11
-1670.578786448703
 21
-456.9484470115356
 31
0.0
  0
LINE
  5
70
330
1F
100
AcDbEntity
  8
A-5
  6
Continuous
 62
     7
370
     9
100
AcDbLine
 10
-1673.841941254205
 20
-481.7345685458809
 30
0.0
 11
-1677.105096059706
 21
-456.9484470115356
 31
0.0
  0
LINE
  5
71
330
1F
100
AcDbEntity
  8
A-5
  6
Continuous
 62
     7
370
     9
100
AcDbLine
 10
-1676.841941254205
 20
-131.7280705987715
 30
0.0
 11
-1600.892839874407
 21
-131.7280705987715
 31
0.0
  0
LINE
  5
72
330
1F
100
AcDbEntity
  8
A-5
  6
Continuous
 62
     7
370
     9
100
AcDbLine
 10
-1555.652177618448
 20
52.92734669810655
 30
0.0
 11
-1530.866056084103
 21
56.1905015036079
 31
0.0
  0
LINE
  5
73
330
1F
100
AcDbEntity
  8
A-5
  6
Continuous
 62
     7
370
     9
100
AcDbLine
 10
-1555.652177618448
 20
52.92734669810655
 30
0.0
 11
-1530.866056084103
 21
49.66419189260519
 31
0.0
  0
LINE
  5
74
330
1F
100
AcDbEntity
  8
A-5
  6
Continuous
 62
     7
370
     9
100
AcDbLine
 10
-1555.652177618448
 20
55.92734669810652
 30
0.0
 11
-1555.652177618448
 21
-117.1248597536636
 31
0.0
  0
LINE
  5
75
330
1F
100
AcDbEntity
  8
A-5
  6
Continuous
 62
     7
370
     9
100
AcDbLine
 10
-1327.25563447201
 20
-347.0423926922135
 30
0.0
 11
-1605.652177618448
 21
-347.0423926922135
 31
0.0
  0
LINE
  5
76
330
1F
100
AcDbEntity
  8
A-5
  6
Continuous
 62
     7
370
     9
100
AcDbLine
 10
-1555.652177618448
 20
-347.0423926922135
 30
0.0
 11
-1580.438299152794
 21
-350.3055474977147
 31
0.0
  0
LINE
  5
77
330
1F
100
AcDbEntity
  8
A-5
  6
Continuous
 62
     7
370
     9
100
AcDbLine
 10
-1555.652177618448
 20
-347.0423926922135
 30
0.0
 11
-1580.438299152794
 21
-343.7792378867121
 31
0.0
  0
LINE
  5
78
330
1F
100
AcDbEntity
  8
A-5
  6
Continuous
 62
     7
370
     9
100
AcDbLine
 10
-1512.9521895368
 20
-347.0423926922135
 30
0.0
 11
-1488.166068002454
 21
-350.3055474977147
 31
0.0
  0
LINE
  5
79
330
1F
100
AcDbEntity
  8
A-5
  6
Continuous
 62
     7
370
     9
100
AcDbLine
 10
-1512.9521895368
 20
-347.0423926922135
 30
0.0
 11
-1488.166068002454
 21
-343.7792378867121
 31
0.0
  0
LINE
  5
7A
330
1F
100
AcDbEntity
  8
A-5
  6
Continuous
 62
     7
370
     9
100
AcDbLine
 10
-1555.652177618448
 20
-350.0423926922134
 30
0.0
 11
-1555.652177618448
 21
-320.1547918885672
 31
0.0
  0
LINE
  5
7B
330
1F
100
AcDbEntity
  8
A-5
  6
Continuous
 62
     7
370
     9
100
AcDbLine
 10
-1512.9521895368
 20
-350.0423926922134
 30
0.0
 11
-1512.9521895368
 21
-320.1547918885672
 31
0.0
  0
LINE
  5
7C
330
1F
100
AcDbEntity
  8
A-0
  6
JWW_CENTER2
 62
     4
370
     9
100
AcDbLine
 10
-1534.30218821712
 20
-263.0782342389742
 30
0.0
 11
-1534.30218821712
 21
-566.0296552539621
 31
0.0
  0
LINE
  5
7D
330
1F
100
AcDbEntity
  8
A-4
  6
Continuous
 62
     7
370
     9
100
AcDbLine
 10
1375.146515906282
 20
-481.7346746366647
 30
0.0
 11
-1847.081472765899
 21
-481.7346746366647
 31
0.0
  0
LINE
  5
7E
330
1F
100
AcDbEntity
  8
A-5
  6
Continuous
 62
     7
370
     9
100
AcDbLine
 10
-1555.652177618448
 20
52.92734669810655
 30
0.0
 11
1144.347813102559
 21
52.92734669810655
 31
0.0
  0
LINE
  5
7F
330
1F
100
AcDbEntity
  8
A-0
  6
Continuous
 62
     3
370
     9
100
AcDbLine
 10
-1424.301577039134
 20
-131.7247434783304
 30
0.0
 11
144.3478131025593
 21
-131.7321993146975
 31
0.0
  0
LINE
  5
80
330
1F
100
AcDbEntity
  8
A-0
  6
JWW_CENTER2
 62
     4
370
     9
100
AcDbLine
 10
-1424.301650087889
 20
-153.0742668553348
 30
0.0
 11
144.3478131025593
 21
-153.0827878115793
 31
0.0
  0
LINE
  5
81
330
1F
100
AcDbEntity
  8
A-0
  6
Continuous
 62
     3
370
     9
100
AcDbLine
 10
-1424.301723139896
 20
-174.424740841243
 30
0.0
 11
144.3478131025593
 21
-174.4321966732414
 31
0.0
  0
LINE
  5
82
330
1F
100
AcDbEntity
  8
A-5
  6
JWW_CENTER1
 62
     4
370
     9
100
AcDbLine
 10
-205.6521776184481
 20
-216.0347563279859
 30
0.0
 11
-205.6521776184481
 21
-95.26571544680083
 31
0.0
  0
LINE
  5
83
330
1F
100
AcDbEntity
  8
A-5
  6
Continuous
 62
     4
370
     9
100
AcDbLine
 10
1012.997215002643
 20
-134.0280705987455
 30
0.0
 11
-205.6521776184481
 21
-134.0338628749019
 31
0.0
  0
LINE
  5
84
330
1F
100
AcDbEntity
  8
A-5
  6
Continuous
 62
     4
370
     9
100
AcDbLine
 10
1012.99734160261
 20
-172.1280679594394
 30
0.0
 11
-205.6521776184481
 21
-172.1338602322641
 31
0.0
  0
LINE
  5
85
330
1F
100
AcDbEntity
  8
A-5
  6
JWW_CENTER1
 62
     4
370
     9
100
AcDbLine
 10
1239.228393532447
 20
608.97898786679
 30
0.0
 11
144.3478223815522
 21
608.9730404389809
 31
0.0
  0
LINE
  5
86
330
1F
100
AcDbEntity
  8
A-5
  6
Continuous
 62
     3
370
     9
100
AcDbLine
 10
1122.997814422238
 20
630.3282804878523
 30
0.0
 11
144.3478131025593
 21
630.3236289358125
 31
0.0
  0
LINE
  5
87
330
1F
100
AcDbEntity
  8
A-5
  6
Continuous
 62
     3
370
     9
100
AcDbLine
 10
1122.997814422238
 20
587.6282831261494
 30
0.0
 11
144.3478131025593
 21
587.6236315772684
 31
0.0
  0
ARC
  5
88
330
1F
100
AcDbEntity
  8
A-5
  6
Continuous
 62
     3
370
     9
100
AcDbCircle
 10
1122.997814422238
 20
608.9783564984045
 30
0.0
 40
21.34992398944775
100
AcDbArc
 50
270.0
 51
89.99999999999997
  0
ARC
  5
89
330
1F
100
AcDbEntity
  8
A-5
  6
Continuous
 62
     3
370
     9
100
AcDbCircle
 10
-1534.30218821712
 20
608.9789653613309
 30
0.0
 40
21.34992398944775
100
AcDbArc
 50
90.00000000000003
 51
270.0
  0
LINE
  5
8A
330
1F
100
AcDbEntity
  8
A-5
  6
JWW_CENTER1
 62
     4
370
     9
100
AcDbLine
 10
-1534.30218821712
 20
687.318790219683
 30
0.0
 11
-1534.30218821712
 21
533.3736436320269
 31
0.0
  0
LINE
  5
8B
330
1F
100
AcDbEntity
  8
A-5
  6
JWW_CENTER1
 62
     4
370
     9
100
AcDbLine
 10
-1605.963411921619
 20
608.9825481879293
 30
0.0
 11
144.3478131025593
 21
608.9730404389306
 31
0.0
  0
LINE
  5
8C
330
1F
100
AcDbEntity
  8
A-5
  6
Continuous
 62
     3
370
     9
100
AcDbLine
 10
-1534.30218821712
 20
630.331607608297
 30
0.0
 11
144.3478131025593
 21
630.3236289358125
 31
0.0
  0
LINE
  5
8D
330
1F
100
AcDbEntity
  8
A-5
  6
Continuous
 62
     3
370
     9
100
AcDbLine
 10
-1534.30218821712
 20
587.6316102443352
 30
0.0
 11
144.3478131025593
 21
587.6236315772684
 31
0.0
  0
TEXT
  5
8E
330
1F
100
AcDbEntity
  8
A-4
  6
Continuous
 62
     2
370
     9
100
AcDbText
 10
1689.341323520018
 20
-470.0057866686859
 30
0.0
 40
30.48
  1
G.L.
 41
1.09375
  7
ＭＳ ゴシック
100
AcDbText
  0
TEXT
  5
8F
330
1F
100
AcDbEntity
  8
A-4
  6
Continuous
 62
     2
370
     9
100
AcDbText
 10
1244.107652006743
 20
-468.8109466286819
 30
0.0
 40
30.48
  1
G.L.
 41
1.093749999999996
  7
ＭＳ ゴシック
100
AcDbText
  0
TEXT
  5
90
330
1F
100
AcDbEntity
  8
A-5
  6
Continuous
 62
     2
370
   211
100
AcDbText
 10
-247.681388916594
 20
61.17641709261679
 30
0.0
 40
30.48
  1
2700
 41
1.09375
  7
ＭＳ ゴシック
100
AcDbText
  0
TEXT
  5
91
330
1F
100
AcDbEntity
  8
A-5
  6
Continuous
 62
     2
370
   211
100
AcDbText
 10
-1476.419880943522
 20
-340.8617453244809
 30
0.0
 40
30.48
  1
φ42.7
 41
1.104166666666667
  7
ＭＳ ゴシック
100
AcDbText
  0
TEXT
  5
92
330
1F
100
AcDbEntity
  8
A-F
  6
Continuous
 62
     2
370
     9
100
AcDbText
 10
-1467.896885929207
 20
-209.1530238681547
 30
0.0
 40
30.48
  1
R110
 50
315.0000572847237
 41
1.093750000000005
  7
ＭＳ ゴシック
100
AcDbText
  0
TEXT
  5
93
330
1F
100
AcDbEntity
  8
A-5
  6
Continuous
 62
     2
370
   211
100
AcDbText
 10
-1683.628071535141
 20
-340.0022624876983
 30
0.0
 40
30.48
  1
350
 50
90.0
 41
1.083333333333333
  7
ＭＳ ゴシック
100
AcDbText
  0
TEXT
  5
94
330
1F
100
AcDbEntity
  8
A-5
  6
Continuous
 62
     2
370
   211
100
AcDbText
 10
1160.50127012528
 20
-323.2270878191638
 30
0.0
 40
30.48
  1
2.3
 41
1.083333333333333
  7
ＭＳ ゴシック
100
AcDbText
  0
ARC
  5
95
330
1F
100
AcDbEntity
  8
A-5
  6
JWW_DASHED3
 62
     3
370
     9
100
AcDbCircle
 10
-1534.302204135748
 20
608.9821589217704
 30
0.0
 40
21.35
100
AcDbArc
 50
270.0
 51
90.0
  0
LINE
  5
96
330
1F
100
AcDbEntity
  8
A-5
  6
Continuous
 62
     3
370
     9
100
AcDbLine
 10
-1536.30218821712
 20
664.98215892177
 30
0.0
 11
-1532.30218821712
 21
664.98215892177
 31
0.0
  0
LINE
  5
97
330
1F
100
AcDbEntity
  8
A-5
  6
Continuous
 62
     3
370
     9
100
AcDbLine
 10
-1536.30218821712
 20
652.9821589217702
 30
0.0
 11
-1532.30218821712
 21
652.9821589217702
 31
0.0
  0
ARC
  5
98
330
1F
100
AcDbEntity
  8
A-5
  6
Continuous
 62
     3
370
     9
100
AcDbCircle
 10
-1532.30218821712
 20
658.9821589217704
 30
0.0
 40
6.000000000000001
100
AcDbArc
 50
270.0
 51
90.0
  0
ARC
  5
99
330
1F
100
AcDbEntity
  8
A-5
  6
Continuous
 62
     3
370
     9
100
AcDbCircle
 10
-1536.30218821712
 20
658.9821589217704
 30
0.0
 40
6.000000000000001
100
AcDbArc
 50
90.00000000000003
 51
270.0
  0
LINE
  5
9A
330
1F
100
AcDbEntity
  8
A-5
  6
JWW_CENTER2
 62
     4
370
     9
100
AcDbLine
 10
-1545.802853649438
 20
658.9821589217704
 30
0.0
 11
-1522.008349334033
 21
658.9821589217704
 31
0.0
  0
LINE
  5
9B
330
1F
100
AcDbEntity
  8
A-5
  6
Continuous
 62
     3
370
     9
100
AcDbLine
 10
-1514.302188217121
 20
678.9821589217704
 30
0.0
 11
-1554.302188217121
 21
678.9821589217704
 31
0.0
  0
ARC
  5
9C
330
1F
100
AcDbEntity
  8
A-5
  6
Continuous
 62
     3
370
     9
100
AcDbCircle
 10
-1514.302188217121
 20
671.4821589217704
 30
0.0
 40
7.5
100
AcDbArc
 50
0.0
 51
90.00000000000001
  0
LINE
  5
9D
330
1F
100
AcDbEntity
  8
A-5
  6
Continuous
 62
     3
370
     9
100
AcDbLine
 10
-1561.802188217121
 20
546.4821589217702
 30
0.0
 11
-1561.802188217121
 21
671.4821589217704
 31
0.0
  0
ARC
  5
9E
330
1F
100
AcDbEntity
  8
A-5
  6
Continuous
 62
     3
370
     9
100
AcDbCircle
 10
-1554.302188217121
 20
546.4821589217702
 30
0.0
 40
7.5
100
AcDbArc
 50
180.0
 51
270.0
  0
LINE
  5
9F
330
1F
100
AcDbEntity
  8
A-5
  6
Continuous
 62
     3
370
     9
100
AcDbLine
 10
-1514.302188217121
 20
538.9821589217702
 30
0.0
 11
-1554.302188217121
 21
538.9821589217702
 31
0.0
  0
ARC
  5
A0
330
1F
100
AcDbEntity
  8
A-5
  6
Continuous
 62
     3
370
     9
100
AcDbCircle
 10
-1514.302188217121
 20
546.4821589217702
 30
0.0
 40
7.5
100
AcDbArc
 50
270.0
 51
0.0
  0
LINE
  5
A1
330
1F
100
AcDbEntity
  8
A-5
  6
Continuous
 62
     3
370
     9
100
AcDbLine
 10
-1536.30218821712
 20
552.98215892177
 30
0.0
 11
-1532.30218821712
 21
552.98215892177
 31
0.0
  0
LINE
  5
A2
330
1F
100
AcDbEntity
  8
A-5
  6
Continuous
 62
     3
370
     9
100
AcDbLine
 10
-1536.30218821712
 20
564.9821589217701
 30
0.0
 11
-1532.30218821712
 21
564.9821589217701
 31
0.0
  0
ARC
  5
A3
330
1F
100
AcDbEntity
  8
A-5
  6
Continuous
 62
     3
370
     9
100
AcDbCircle
 10
-1532.30218821712
 20
558.9821589217702
 30
0.0
 40
6.000000000000001
100
AcDbArc
 50
270.0
 51
90.0
  0
ARC
  5
A4
330
1F
100
AcDbEntity
  8
A-5
  6
Continuous
 62
     3
370
     9
100
AcDbCircle
 10
-1536.30218821712
 20
558.9821589217702
 30
0.0
 40
6.000000000000001
100
AcDbArc
 50
90.0
 51
270.0
  0
LINE
  5
A5
330
1F
100
AcDbEntity
  8
A-5
  6
JWW_CENTER2
 62
     4
370
     9
100
AcDbLine
 10
-1545.802853649438
 20
558.9821589217702
 30
0.0
 11
-1522.008349334033
 21
558.9821589217702
 31
0.0
  0
LINE
  5
A6
330
1F
100
AcDbEntity
  8
A-5
  6
Continuous
 62
     3
370
     9
100
AcDbLine
 10
-1506.802188217121
 20
546.4821589217702
 30
0.0
 11
-1506.802188217121
 21
587.6321589217699
 31
0.0
  0
LINE
  5
A7
330
1F
100
AcDbEntity
  8
A-5
  6
Continuous
 62
     3
370
     9
100
AcDbLine
 10
-1506.802188217121
 20
630.3321589217703
 30
0.0
 11
-1506.802188217121
 21
671.4821589217704
 31
0.0
  0
LINE
  5
A8
330
1F
100
AcDbEntity
  8
A-5
  6
JWW_DASHED3
 62
     3
370
     9
100
AcDbLine
 10
-1506.802188217121
 20
630.3321589217703
 30
0.0
 11
-1506.802188217121
 21
587.6321589217699
 31
0.0
  0
ARC
  5
A9
330
1F
100
AcDbEntity
  8
A-5
  6
Continuous
 62
     3
370
     9
100
AcDbCircle
 10
-1554.302188217121
 20
671.4821589217704
 30
0.0
 40
7.5
100
AcDbArc
 50
90.0
 51
175.6024518509823
  0
ARC
  5
AA
330
1F
100
AcDbEntity
  8
A-5
  6
Continuous
 62
     3
370
     9
100
AcDbCircle
 10
-1554.302188217121
 20
671.4821589217704
 30
0.0
 40
7.5
100
AcDbArc
 50
175.6024518509823
 51
180.0
  0
LINE
  5
AB
330
1F
100
AcDbEntity
  8
A-5
  6
JWW_CENTER1
 62
     4
370
     9
100
AcDbLine
 10
1122.997814422238
 20
687.3181813567567
 30
0.0
 11
1122.997814422238
 21
533.3730347691007
 31
0.0
  0
LINE
  5
AC
330
1F
100
AcDbEntity
  8
A-5
  6
Continuous
 62
     7
370
     9
100
AcDbLine
 10
1252.903115656134
 20
538.9783564984045
 30
0.0
 11
1182.356253559561
 21
538.9783564984045
 31
0.0
  0
ARC
  5
AD
330
1F
100
AcDbEntity
  8
A-5
  6
JWW_DASHED3
 62
     3
370
     9
100
AcDbCircle
 10
1122.997814422238
 20
608.9783564984045
 30
0.0
 40
21.35
100
AcDbArc
 50
90.0
 51
270.0
  0
LINE
  5
AE
330
1F
100
AcDbEntity
  8
A-5
  6
Continuous
 62
     3
370
     9
100
AcDbLine
 10
1120.997814422238
 20
664.9783564984043
 30
0.0
 11
1124.997814422236
 21
664.9783564984043
 31
0.0
  0
LINE
  5
AF
330
1F
100
AcDbEntity
  8
A-5
  6
Continuous
 62
     3
370
     9
100
AcDbLine
 10
1120.997814422238
 20
652.9783564984043
 30
0.0
 11
1124.997814422236
 21
652.9783564984043
 31
0.0
  0
ARC
  5
B0
330
1F
100
AcDbEntity
  8
A-5
  6
Continuous
 62
     3
370
     9
100
AcDbCircle
 10
1124.997814422236
 20
658.9783564984045
 30
0.0
 40
6.000000000000001
100
AcDbArc
 50
270.0
 51
90.0
  0
ARC
  5
B1
330
1F
100
AcDbEntity
  8
A-5
  6
Continuous
 62
     3
370
     9
100
AcDbCircle
 10
1120.997814422238
 20
658.9783564984045
 30
0.0
 40
6.000000000000001
100
AcDbArc
 50
90.00000000000003
 51
270.0
  0
LINE
  5
B2
330
1F
100
AcDbEntity
  8
A-5
  6
JWW_CENTER2
 62
     4
370
     9
100
AcDbLine
 10
1111.497148989918
 20
658.9783564984045
 30
0.0
 11
1135.291653305326
 21
658.9783564984045
 31
0.0
  0
ARC
  5
B3
330
1F
100
AcDbEntity
  8
A-5
  6
Continuous
 62
     3
370
     9
100
AcDbCircle
 10
1102.997814422238
 20
671.4783564984045
 30
0.0
 40
7.5
100
AcDbArc
 50
90.0
 51
180.0
  0
LINE
  5
B4
330
1F
100
AcDbEntity
  8
A-5
  6
Continuous
 62
     3
370
     9
100
AcDbLine
 10
1142.997814422238
 20
678.9783564984045
 30
0.0
 11
1102.997814422238
 21
678.9783564984045
 31
0.0
  0
ARC
  5
B5
330
1F
100
AcDbEntity
  8
A-5
  6
Continuous
 62
     3
370
     9
100
AcDbCircle
 10
1142.997814422238
 20
671.4783564984045
 30
0.0
 40
7.5
100
AcDbArc
 50
0.0
 51
90.00000000000001
  0
ARC
  5
B6
330
1F
100
AcDbEntity
  8
A-5
  6
Continuous
 62
     3
370
     9
100
AcDbCircle
 10
1102.997814422238
 20
546.4783564984045
 30
0.0
 40
7.5
100
AcDbArc
 50
180.0
 51
270.0
  0
LINE
  5
B7
330
1F
100
AcDbEntity
  8
A-5
  6
Continuous
 62
     3
370
     9
100
AcDbLine
 10
1150.497814422238
 20
546.4783564984045
 30
0.0
 11
1150.497814422238
 21
671.4783564984045
 31
0.0
  0
LINE
  5
B8
330
1F
100
AcDbEntity
  8
A-5
  6
Continuous
 62
     3
370
     9
100
AcDbLine
 10
1142.997814422238
 20
538.9783564984045
 30
0.0
 11
1102.997814422238
 21
538.9783564984045
 31
0.0
  0
ARC
  5
B9
330
1F
100
AcDbEntity
  8
A-5
  6
Continuous
 62
     3
370
     9
100
AcDbCircle
 10
1142.997814422238
 20
546.4783564984045
 30
0.0
 40
7.5
100
AcDbArc
 50
270.0
 51
0.0
  0
LINE
  5
BA
330
1F
100
AcDbEntity
  8
A-5
  6
Continuous
 62
     3
370
     9
100
AcDbLine
 10
1120.997814422238
 20
552.9783564984043
 30
0.0
 11
1124.997814422236
 21
552.9783564984043
 31
0.0
  0
LINE
  5
BB
330
1F
100
AcDbEntity
  8
A-5
  6
Continuous
 62
     3
370
     9
100
AcDbLine
 10
1120.997814422238
 20
564.9783564984043
 30
0.0
 11
1124.997814422236
 21
564.9783564984043
 31
0.0
  0
ARC
  5
BC
330
1F
100
AcDbEntity
  8
A-5
  6
Continuous
 62
     3
370
     9
100
AcDbCircle
 10
1124.997814422236
 20
558.9783564984045
 30
0.0
 40
6.000000000000001
100
AcDbArc
 50
270.0
 51
90.0
  0
ARC
  5
BD
330
1F
100
AcDbEntity
  8
A-5
  6
Continuous
 62
     3
370
     9
100
AcDbCircle
 10
1120.997814422238
 20
558.9783564984045
 30
0.0
 40
6.000000000000001
100
AcDbArc
 50
90.0
 51
270.0
  0
LINE
  5
BE
330
1F
100
AcDbEntity
  8
A-5
  6
JWW_CENTER2
 62
     4
370
     9
100
AcDbLine
 10
1111.497148989918
 20
558.9783564984045
 30
0.0
 11
1135.291653305326
 21
558.9783564984045
 31
0.0
  0
LINE
  5
BF
330
1F
100
AcDbEntity
  8
A-5
  6
Continuous
 62
     7
370
     9
100
AcDbLine
 10
1150.497814422238
 20
752.2591639644281
 30
0.0
 11
1095.497814422238
 21
752.2591639644281
 31
0.0
  0
LINE
  5
C0
330
1F
100
AcDbEntity
  8
A-5
  6
Continuous
 62
     7
370
     9
100
AcDbLine
 10
1150.497814422238
 20
755.2591639644282
 30
0.0
 11
1150.497814422238
 21
685.7581671108951
 31
0.0
  0
LINE
  5
C1
330
1F
100
AcDbEntity
  8
A-5
  6
Continuous
 62
     7
370
     9
100
AcDbLine
 10
1095.497814422238
 20
755.2591639644282
 30
0.0
 11
1095.497814422238
 21
685.7581671108951
 31
0.0
  0
LINE
  5
C2
330
1F
100
AcDbEntity
  8
A-5
  6
Continuous
 62
     3
370
     9
100
AcDbLine
 10
1095.497814422238
 20
630.3283564984046
 30
0.0
 11
1095.497814422238
 21
671.4783564984045
 31
0.0
  0
LINE
  5
C3
330
1F
100
AcDbEntity
  8
A-5
  6
Continuous
 62
     3
370
     9
100
AcDbLine
 10
1095.497814422238
 20
546.4783564984045
 30
0.0
 11
1095.497814422238
 21
587.6283564984042
 31
0.0
  0
LINE
  5
C4
330
1F
100
AcDbEntity
  8
A-5
  6
JWW_DASHED3
 62
     3
370
     9
100
AcDbLine
 10
1095.497814422238
 20
630.3283564984046
 30
0.0
 11
1095.497814422238
 21
587.6283564984042
 31
0.0
  0
LINE
  5
C5
330
1F
100
AcDbEntity
  8
A-5
  6
Continuous
 62
     7
370
     9
100
AcDbLine
 10
1249.903115656135
 20
678.9783564984045
 30
0.0
 11
1249.903115656135
 21
538.9783564984045
 31
0.0
  0
LINE
  5
C6
330
1F
100
AcDbEntity
  8
A-5
  6
Continuous
 62
     7
370
     9
100
AcDbLine
 10
1252.903115656134
 20
678.9783564984045
 30
0.0
 11
1158.719895703401
 21
678.9783564984045
 31
0.0
  0
LINE
  5
C7
330
1F
100
AcDbEntity
  8
A-5
  6
Continuous
 62
     7
370
     9
100
AcDbLine
 10
1036.869088050797
 20
658.9783564984045
 30
0.0
 11
1036.869088050797
 21
558.9783564984045
 31
0.0
  0
LINE
  5
C8
330
1F
100
AcDbEntity
  8
A-5
  6
Continuous
 62
     7
370
     9
100
AcDbLine
 10
1033.869088050795
 20
658.9783564984045
 30
0.0
 11
1083.049793820842
 21
658.9783564984045
 31
0.0
  0
LINE
  5
C9
330
1F
100
AcDbEntity
  8
A-5
  6
Continuous
 62
     7
370
     9
100
AcDbLine
 10
1033.869088050795
 20
558.9783564984045
 30
0.0
 11
1083.049793820842
 21
558.9783564984045
 31
0.0
  0
LINE
  5
CA
330
1F
100
AcDbEntity
  8
A-5
  6
Continuous
 62
     7
370
     9
100
AcDbLine
 10
1128.235067040283
 20
664.424661617081
 30
0.0
 11
1212.008477933467
 21
748.1980725102648
 31
0.0
  0
LINE
  5
CB
330
1F
100
AcDbEntity
  8
A-5
  6
Continuous
 62
     7
370
     9
100
AcDbLine
 10
1212.008477933467
 20
748.1980725102648
 30
0.0
 11
1413.764267391423
 21
748.1980725102648
 31
0.0
  0
TEXT
  5
CC
330
1F
100
AcDbEntity
  8
A-5
  6
Continuous
 62
     2
370
   211
100
AcDbText
 10
1239.263115656134
 20
576.4783564984041
 30
0.0
 40
30.48
  1
140
 50
90.0
 41
1.083333333333351
  7
ＭＳ ゴシック
100
AcDbText
  0
TEXT
  5
CD
330
1F
100
AcDbEntity
  8
A-5
  6
Continuous
 62
     7
370
     9
100
AcDbText
 10
1215.965863656661
 20
753.0666664678341
 30
0.0
 40
22.86
  1
2－φ12×16
 41
1.151515151515152
  7
ＭＳ ゴシック
100
AcDbText
  0
TEXT
  5
CE
330
1F
100
AcDbEntity
  8
A-5
  6
Continuous
 62
     2
370
   211
100
AcDbText
 10
1101.747814422238
 20
762.8991639644281
 30
0.0
 40
30.48
  1
55
 41
1.0625
  7
ＭＳ ゴシック
100
AcDbText
  0
TEXT
  5
CF
330
1F
100
AcDbEntity
  8
A-5
  6
Continuous
 62
     2
370
   211
100
AcDbText
 10
1028.125132943486
 20
571.3056264141048
 30
0.0
 40
30.48
  1
100
 50
90.0
 41
1.083333333333333
  7
ＭＳ ゴシック
100
AcDbText
  0
LINE
  5
D0
330
1F
100
AcDbEntity
  8
A-5
  6
Continuous
 62
     7
370
     9
100
AcDbLine
 10
1095.497814422238
 20
752.2591639644281
 30
0.0
 11
1120.283935956582
 21
755.5223187699295
 31
0.0
  0
LINE
  5
D1
330
1F
100
AcDbEntity
  8
A-5
  6
Continuous
 62
     7
370
     9
100
AcDbLine
 10
1095.497814422238
 20
752.2591639644281
 30
0.0
 11
1120.283935956582
 21
748.9960091589268
 31
0.0
  0
LINE
  5
D2
330
1F
100
AcDbEntity
  8
A-5
  6
Continuous
 62
     7
370
     9
100
AcDbLine
 10
1150.497814422238
 20
752.2591639644281
 30
0.0
 11
1125.711692887892
 21
748.9960091589268
 31
0.0
  0
LINE
  5
D3
330
1F
100
AcDbEntity
  8
A-5
  6
Continuous
 62
     7
370
     9
100
AcDbLine
 10
1150.497814422238
 20
752.2591639644281
 30
0.0
 11
1125.711692887892
 21
755.5223187699295
 31
0.0
  0
LINE
  5
D4
330
1F
100
AcDbEntity
  8
A-5
  6
Continuous
 62
     7
370
     9
100
AcDbLine
 10
1036.869088050797
 20
658.9783564984045
 30
0.0
 11
1040.132242856296
 21
634.1922349640594
 31
0.0
  0
LINE
  5
D5
330
1F
100
AcDbEntity
  8
A-5
  6
Continuous
 62
     7
370
     9
100
AcDbLine
 10
1036.869088050797
 20
658.9783564984045
 30
0.0
 11
1033.605933245295
 21
634.1922349640594
 31
0.0
  0
LINE
  5
D6
330
1F
100
AcDbEntity
  8
A-5
  6
Continuous
 62
     7
370
     9
100
AcDbLine
 10
1036.869088050797
 20
558.9783564984045
 30
0.0
 11
1033.605933245295
 21
583.7644780327498
 31
0.0
  0
LINE
  5
D7
330
1F
100
AcDbEntity
  8
A-5
  6
Continuous
 62
     7
370
     9
100
AcDbLine
 10
1036.869088050797
 20
558.9783564984045
 30
0.0
 11
1040.132242856296
 21
583.7644780327498
 31
0.0
  0
LINE
  5
D8
330
1F
100
AcDbEntity
  8
A-5
  6
Continuous
 62
     7
370
     9
100
AcDbLine
 10
1249.903115656135
 20
538.9783564984045
 30
0.0
 11
1246.639960850633
 21
563.7644780327498
 31
0.0
  0
LINE
  5
D9
330
1F
100
AcDbEntity
  8
A-5
  6
Continuous
 62
     7
370
     9
100
AcDbLine
 10
1249.903115656135
 20
538.9783564984045
 30
0.0
 11
1253.166270461634
 21
563.7644780327498
 31
0.0
  0
LINE
  5
DA
330
1F
100
AcDbEntity
  8
A-5
  6
Continuous
 62
     7
370
     9
100
AcDbLine
 10
1249.903115656135
 20
678.9783564984045
 30
0.0
 11
1253.166270461634
 21
654.1922349640595
 31
0.0
  0
LINE
  5
DB
330
1F
100
AcDbEntity
  8
A-5
  6
Continuous
 62
     7
370
     9
100
AcDbLine
 10
1249.903115656135
 20
678.9783564984045
 30
0.0
 11
1246.639960850633
 21
654.1922349640595
 31
0.0
  0
LINE
  5
DC
330
1F
100
AcDbEntity
  8
A-5
  6
Continuous
 62
     7
370
     9
100
AcDbLine
 10
1128.235067040283
 20
664.424661617081
 30
0.0
 11
1143.4541027655
 21
684.2584951243621
 31
0.0
  0
LINE
  5
DD
330
1F
100
AcDbEntity
  8
A-5
  6
Continuous
 62
     7
370
     9
100
AcDbLine
 10
1128.235067040283
 20
664.424661617081
 30
0.0
 11
1148.068900547562
 21
679.643697342299
 31
0.0
  0
LINE
  5
DE
330
1F
100
AcDbEntity
  8
A-5
  6
JWW_DASHED3
 62
     3
370
     9
100
AcDbLine
 10
-1512.952189536799
 20
-476.7248424800422
 30
0.0
 11
-1512.952189536799
 21
-481.7346746366647
 31
0.0
  0
LINE
  5
DF
330
1F
100
AcDbEntity
  8
A-5
  6
Continuous
 62
     3
370
     9
100
AcDbLine
 10
-1561.80218821712
 20
-481.7346746366647
 30
0.0
 11
-1506.80218821712
 21
-481.7346746366647
 31
0.0
  0
LINE
  5
E0
330
1F
100
AcDbEntity
  8
A-5
  6
Continuous
 62
     3
370
     9
100
AcDbLine
 10
-1561.80218821712
 20
-477.2250852217334
 30
0.0
 11
-1561.80218821712
 21
-481.7346746366647
 31
0.0
  0
LINE
  5
E1
330
1F
100
AcDbEntity
  8
A-5
  6
Continuous
 62
     3
370
     9
100
AcDbLine
 10
-1506.80218821712
 20
-477.2248119199313
 30
0.0
 11
-1561.80218821712
 21
-477.2250852217334
 31
0.0
  0
LINE
  5
E2
330
1F
100
AcDbEntity
  8
A-5
  6
Continuous
 62
     3
370
     9
100
AcDbLine
 10
-1506.80218821712
 20
-477.2248119199313
 30
0.0
 11
-1506.80218821712
 21
-481.7346746366647
 31
0.0
  0
LINE
  5
E3
330
1F
100
AcDbEntity
  8
A-5
  6
JWW_DASHED3
 62
     7
370
     9
100
AcDbLine
 10
-1542.30218821712
 20
-477.2249883238217
 30
0.0
 11
-1542.30218821712
 21
-481.7346746366647
 31
0.0
  0
LINE
  5
E4
330
1F
100
AcDbEntity
  8
A-5
  6
JWW_DASHED3
 62
     7
370
     9
100
AcDbLine
 10
-1526.302188217121
 20
-477.224908817843
 30
0.0
 11
-1526.302188217121
 21
-481.7346746366647
 31
0.0
  0
LINE
  5
E5
330
1F
100
AcDbEntity
  8
A-5
  6
JWW_DASHED3
 62
     3
370
     9
100
AcDbLine
 10
-1555.652186897441
 20
-477.2250546616161
 30
0.0
 11
-1555.652186897441
 21
-481.7444007024418
 31
0.0
  0
LINE
  5
E6
330
1F
100
AcDbEntity
  8
A-5
  6
JWW_DASHED3
 62
     3
370
     9
100
AcDbLine
 10
1144.347813102559
 20
-476.7151164142652
 30
0.0
 11
1144.347813102559
 21
-481.7249485708877
 31
0.0
  0
LINE
  5
E7
330
1F
100
AcDbEntity
  8
A-5
  6
Continuous
 62
     3
370
     9
100
AcDbLine
 10
1095.497814422238
 20
-481.7249485708877
 30
0.0
 11
1150.497814422238
 21
-481.7249485708877
 31
0.0
  0
LINE
  5
E8
330
1F
100
AcDbEntity
  8
A-5
  6
Continuous
 62
     3
370
     9
100
AcDbLine
 10
1095.497814422238
 20
-477.2153591559564
 30
0.0
 11
1095.497814422238
 21
-481.7249485708877
 31
0.0
  0
LINE
  5
E9
330
1F
100
AcDbEntity
  8
A-5
  6
Continuous
 62
     3
370
     9
100
AcDbLine
 10
1150.497814422238
 20
-477.2150858541542
 30
0.0
 11
1095.497814422238
 21
-477.2153591559564
 31
0.0
  0
LINE
  5
EA
330
1F
100
AcDbEntity
  8
A-5
  6
Continuous
 62
     3
370
     9
100
AcDbLine
 10
1150.497814422238
 20
-477.2150858541542
 30
0.0
 11
1150.497814422238
 21
-481.7249485708877
 31
0.0
  0
LINE
  5
EB
330
1F
100
AcDbEntity
  8
A-5
  6
JWW_DASHED3
 62
     7
370
     9
100
AcDbLine
 10
1114.997814422236
 20
-477.2152622580447
 30
0.0
 11
1114.997814422236
 21
-481.7249485708877
 31
0.0
  0
LINE
  5
EC
330
1F
100
AcDbEntity
  8
A-5
  6
JWW_DASHED3
 62
     7
370
     9
100
AcDbLine
 10
1130.997814422238
 20
-477.2151827520659
 30
0.0
 11
1130.997814422238
 21
-481.7249485708877
 31
0.0
  0
LINE
  5
ED
330
1F
100
AcDbEntity
  8
A-5
  6
JWW_DASHED3
 62
     3
370
     9
100
AcDbLine
 10
1101.647815741915
 20
-477.215328595839
 30
0.0
 11
1101.647815741915
 21
-481.7346746366647
 31
0.0
  0
LINE
  5
EE
330
1F
100
AcDbEntity
  8
A-5
  6
Continuous
 62
     3
370
     9
100
AcDbLine
 10
1468.086945249959
 20
-481.7249485708877
 30
0.0
 11
1608.086945249959
 21
-481.7249485708877
 31
0.0
  0
LINE
  5
EF
330
1F
100
AcDbEntity
  8
A-5
  6
JWW_CENTER1
 62
     4
370
     9
100
AcDbLine
 10
1488.086945249959
 20
-507.3793651734016
 30
0.0
 11
1488.086945249959
 21
-454.2169209307437
 31
0.0
  0
LINE
  5
F0
330
1F
100
AcDbEntity
  8
A-5
  6
Continuous
 62
     3
370
     9
100
AcDbLine
 10
1608.086947734521
 20
-477.224600732163
 30
0.0
 11
1468.086947734521
 21
-477.2252964094773
 31
0.0
  0
LINE
  5
F1
330
1F
100
AcDbEntity
  8
A-5
  6
Continuous
 62
     3
370
     9
100
AcDbLine
 10
1468.086945249959
 20
-477.2252964094893
 30
0.0
 11
1468.086945249959
 21
-481.7249485708877
 31
0.0
  0
LINE
  5
F2
330
1F
100
AcDbEntity
  8
A-5
  6
JWW_DASHED3
 62
     7
370
     9
100
AcDbLine
 10
1481.086945249958
 20
-481.7152225051107
 30
0.0
 11
1481.086945249958
 21
-477.2252318108818
 31
0.0
  0
LINE
  5
F3
330
1F
100
AcDbEntity
  8
A-5
  6
JWW_DASHED3
 62
     7
370
     9
100
AcDbLine
 10
1495.086945249959
 20
-481.7152225051107
 30
0.0
 11
1495.086945249959
 21
-477.2251622431501
 31
0.0
  0
LINE
  5
F4
330
1F
100
AcDbEntity
  8
A-5
  6
JWW_DASHED3
 62
     3
370
     9
100
AcDbLine
 10
1516.73695584863
 20
-477.22505466157
 30
0.0
 11
1516.73695584863
 21
-481.7346746366647
 31
0.0
  0
LINE
  5
F5
330
1F
100
AcDbEntity
  8
A-5
  6
JWW_DASHED3
 62
     3
370
     9
100
AcDbLine
 10
1559.43694393028
 20
-477.2248424800486
 30
0.0
 11
1559.43694393028
 21
-481.7346746366647
 31
0.0
  0
LINE
  5
F6
330
1F
100
AcDbEntity
  8
A-5
  6
JWW_DASHED3
 62
     7
370
     9
100
AcDbLine
 10
1581.086945249958
 20
-481.7152225051107
 30
0.0
 11
1581.086945249958
 21
-477.2247348985144
 31
0.0
  0
LINE
  5
F7
330
1F
100
AcDbEntity
  8
A-5
  6
JWW_DASHED3
 62
     7
370
     9
100
AcDbLine
 10
1595.086945249959
 20
-481.7152225051107
 30
0.0
 11
1595.086945249959
 21
-477.2246653307829
 31
0.0
  0
LINE
  5
F8
330
1F
100
AcDbEntity
  8
A-5
  6
Continuous
 62
     3
370
     9
100
AcDbLine
 10
1608.086945249959
 20
-477.2246007321755
 30
0.0
 11
1608.086945249959
 21
-481.7249485708877
 31
0.0
  0
LINE
  5
F9
330
1F
100
AcDbEntity
  8
A-5
  6
JWW_CENTER1
 62
     4
370
     9
100
AcDbLine
 10
1588.086945249959
 20
-507.3793651734016
 30
0.0
 11
1588.086945249959
 21
-454.2169209307437
 31
0.0
  0
LINE
  5
FA
330
1F
100
AcDbEntity
  8
A-5
  6
Continuous
 62
     7
370
     9
100
AcDbLine
 10
1568.471167165667
 20
-479.719798177811
 30
0.0
 11
1583.690202890884
 21
-499.5536316850917
 31
0.0
  0
LINE
  5
FB
330
1F
100
AcDbEntity
  8
A-5
  6
Continuous
 62
     7
370
     9
100
AcDbLine
 10
1568.471167165667
 20
-479.719798177811
 30
0.0
 11
1578.038252974793
 21
-502.8167864905931
 31
0.0
  0
LINE
  5
FC
330
1F
100
AcDbEntity
  8
A-5
  6
Continuous
 62
     7
370
     9
100
AcDbLine
 10
1568.471167165667
 20
-479.719798177811
 30
0.0
 11
1675.988189452264
 21
-665.9447434567139
 31
0.0
  0
LINE
  5
FD
330
1F
100
AcDbEntity
  8
A-5
  6
Continuous
 62
     7
370
     9
100
AcDbLine
 10
1147.290405604207
 20
-665.9447434567139
 30
0.0
 11
1675.988189452264
 21
-665.9447434567139
 31
0.0
  0
TEXT
  5
FE
330
1F
100
AcDbEntity
  8
A-5
  6
Continuous
 62
     7
370
     9
100
AcDbText
 10
1157.674551203212
 20
-658.5663859550461
 30
0.0
 40
22.86
  1
ベースプレート：SGHC(ｔ=4.5)
 41
1.160714285714288
  7
ＭＳ ゴシック
100
AcDbText
  0
TEXT
  5
FF
330
1F
100
AcDbEntity
  8
A-5
  6
Continuous
 62
     7
370
     9
100
AcDbText
 10
1157.139104941825
 20
-705.0075972861428
 30
0.0
 40
22.86
  1
焼付塗装（白色）
 41
1.145833333333333
  7
ＭＳ ゴシック
100
AcDbText
  0
LINE
  5
100
330
1F
100
AcDbEntity
  8
A-5
  6
Continuous
 62
     7
370
     9
100
AcDbLine
 10
1646.195052034943
 20
-36.15360301112248
 30
0.0
 11
1883.301297032328
 21
-36.15360301112248
 31
0.0
  0
TEXT
  5
101
330
1F
100
AcDbEntity
  8
A-5
  6
Continuous
 62
     7
370
     9
100
AcDbText
 10
1646.915677249951
 20
-32.43724248428758
 30
0.0
 40
22.86
  1
本体：STK400
 41
1.152777777777778
  7
ＭＳ ゴシック
100
AcDbText
  0
TEXT
  5
102
330
1F
100
AcDbEntity
  8
A-5
  6
Continuous
 62
     7
370
     9
100
AcDbText
 10
1652.608347849698
 20
-70.38837981593107
 30
0.0
 40
22.86
  1
焼付塗装（白色）
 41
1.145833333333333
  7
ＭＳ ゴシック
100
AcDbText
  0
LINE
  5
103
330
1F
100
AcDbEntity
  8
A-5
  6
Continuous
 62
     7
370
     9
100
AcDbLine
 10
1558.451138781045
 20
-188.1305188217895
 30
0.0
 11
1646.195052034943
 21
-36.15360301112248
 31
0.0
  0
LINE
  5
104
330
1F
100
AcDbEntity
  8
A-5
  6
Continuous
 62
     7
370
     9
100
AcDbLine
 10
1558.451138781045
 20
-188.1305188217895
 30
0.0
 11
1573.670174506265
 21
-168.2966853145086
 31
0.0
  0
LINE
  5
105
330
1F
100
AcDbEntity
  8
A-5
  6
Continuous
 62
     7
370
     9
100
AcDbLine
 10
1558.451138781045
 20
-188.1305188217895
 30
0.0
 11
1568.018224590173
 21
-165.0335305090073
 31
0.0
  0
ENDSEC
  0
SECTION
  2
OBJECTS
  0
DICTIONARY
  5
C
330
0
100
AcDbDictionary
281
     1
  3
ACAD_GROUP
350
D
  3
ACAD_LAYOUT
350
1A
  3
ACAD_MLEADERSTYLE
350
107
  3
ACAD_MLINESTYLE
350
17
  3
ACAD_PLOTSETTINGS
350
19
  3
ACAD_PLOTSTYLENAME
350
E
  3
ACAD_TABLESTYLE
350
106
  3
ACAD_VISUALSTYLE
350
2A
  3
AcDbVariableDictionary
350
108
  0
DICTIONARY
  5
D
102
{ACAD_REACTORS
330
C
102
}
330
C
100
AcDbDictionary
281
     1
  0
DICTIONARY
  5
1A
102
{ACAD_REACTORS
330
C
102
}
330
C
100
AcDbDictionary
281
     1
  3
Layout1
350
1E
  3
Layout2
350
26
  3
Model
350
22
  0
DICTIONARY
  5
107
102
{ACAD_REACTORS
330
C
102
}
330
C
100
AcDbDictionary
281
     1
  0
DICTIONARY
  5
17
102
{ACAD_REACTORS
330
C
102
}
330
C
100
AcDbDictionary
281
     1
  3
Standard
350
18
  0
DICTIONARY
  5
19
102
{ACAD_REACTORS
330
C
102
}
330
C
100
AcDbDictionary
281
     1
  0
ACDBDICTIONARYWDFLT
  5
E
102
{ACAD_REACTORS
330
C
102
}
330
C
100
AcDbDictionary
281
     1
  3
Normal
350
F
100
AcDbDictionaryWithDefault
340
F
  0
DICTIONARY
  5
106
102
{ACAD_REACTORS
330
C
102
}
330
C
100
AcDbDictionary
281
     1
  0
DICTIONARY
  5
2A
102
{ACAD_REACTORS
330
C
102
}
330
C
100
AcDbDictionary
281
     1
  3
2dWireframe
350
2F
  3
3D Hidden
350
31
  3
3dWireframe
350
30
  3
Basic
350
32
  3
Brighten
350
36
  3
ColorChange
350
3A
  3
Conceptual
350
34
  3
Dim
350
35
  3
Facepattern
350
39
  3
Flat
350
2B
  3
FlatWithEdges
350
2C
  3
Gouraud
350
2D
  3
GouraudWithEdges
350
2E
  3
Linepattern
350
38
  3
Realistic
350
33
  3
Thicken
350
37
  0
DICTIONARY
  5
108
102
{ACAD_REACTORS
330
C
102
}
330
C
100
AcDbDictionary
281
     1
  3
PSOLHEIGHT
350
10A
  3
PSOLWIDTH
350
109
  0
LAYOUT
  5
1E
102
{ACAD_REACTORS
330
1A
102
}
102
{ACAD_XDICTIONARY
360
10B
102
}
330
1A
100
AcDbPlotSettings
  1

  2
none_device
  4

  6

 40
0.0
 41
0.0
 42
0.0
 43
0.0
 44
0.0
 45
0.0
 46
0.0
 47
0.0
 48
0.0
 49
0.0
140
0.0
141
0.0
142
1.0
143
1.0
 70
   688
 72
     0
 73
     0
 74
     5
  7

 75
    16
147
1.0
148
0.0
149
0.0
100
AcDbLayout
  1
Layout1
 70
     1
 71
     1
 10
0.0
 20
0.0
 11
420.0
 21
297.0
 12
0.0
 22
0.0
 32
0.0
 14
1.000000000000000E+20
 24
1.000000000000000E+20
 34
1.000000000000000E+20
 15
-1.000000000000000E+20
 25
-1.000000000000000E+20
 35
-1.000000000000000E+20
146
0.0
 13
0.0
 23
0.0
 33
0.0
 16
1.0
 26
0.0
 36
0.0
 17
0.0
 27
1.0
 37
0.0
 76
     0
330
1B
  0
LAYOUT
  5
26
102
{ACAD_REACTORS
330
1A
102
}
102
{ACAD_XDICTIONARY
360
10F
102
}
330
1A
100
AcDbPlotSettings
  1

  2
none_device
  4

  6

 40
0.0
 41
0.0
 42
0.0
 43
0.0
 44
0.0
 45
0.0
 46
0.0
 47
0.0
 48
0.0
 49
0.0
140
0.0
141
0.0
142
1.0
143
1.0
 70
   688
 72
     0
 73
     0
 74
     5
  7

 75
    16
147
1.0
148
0.0
149
0.0
100
AcDbLayout
  1
Layout2
 70
     1
 71
     2
 10
0.0
 20
0.0
 11
0.0
 21
0.0
 12
0.0
 22
0.0
 32
0.0
 14
0.0
 24
0.0
 34
0.0
 15
0.0
 25
0.0
 35
0.0
146
0.0
 13
0.0
 23
0.0
 33
0.0
 16
1.0
 26
0.0
 36
0.0
 17
0.0
 27
1.0
 37
0.0
 76
     0
330
23
  0
LAYOUT
  5
22
102
{ACAD_REACTORS
330
1A
102
}
102
{ACAD_XDICTIONARY
360
10D
102
}
330
1A
100
AcDbPlotSettings
  1

  2
none_device
  4

  6

 40
0.0
 41
0.0
 42
0.0
 43
0.0
 44
0.0
 45
0.0
 46
0.0
 47
0.0
 48
0.0
 49
0.0
140
0.0
141
0.0
142
1.0
143
1.0
 70
  1712
 72
     0
 73
     0
 74
     0
  7

 75
     0
147
1.0
148
0.0
149
0.0
100
AcDbLayout
  1
Model
 70
     1
 71
     0
 10
-2100.0
 20
-1485.0
 11
2100.0
 21
1485.0
 12
0.0
 22
0.0
 32
0.0
 14
-2100.0
 24
-1485.0
 34
0.0
 15
2100.0
 25
1485.0
 35
0.0
146
0.0
 13
0.0
 23
0.0
 33
0.0
 16
1.0
 26
0.0
 36
0.0
 17
0.0
 27
1.0
 37
0.0
 76
     0
330
1F
331
29
  0
MLINESTYLE
  5
18
102
{ACAD_REACTORS
330
17
102
}
330
17
100
AcDbMlineStyle
  2
Standard
 70
     0
  3

 62
   256
 51
90.0
 52
90.0
 71
     2
 49
0.5
 62
   256
  6
BYLAYER
 49
-0.5
 62
   256
  6
BYLAYER
  0
ACDBPLACEHOLDER
  5
F
102
{ACAD_REACTORS
330
E
102
}
330
E
  0
VISUALSTYLE
  5
2F
102
{ACAD_REACTORS
330
2A
102
}
330
2A
100
AcDbVisualStyle
  2
2dWireframe
 70
     4
 71
     0
 72
     2
 73
     0
 90
        0
 40
-0.6
 41
-30.0
 62
     5
 63
     7
 74
     1
 91
        4
 64
     7
 65
   257
 75
     1
175
     1
 42
1.0
 92
        0
 66
   257
 43
1.0
 76
     1
 77
     6
 78
     2
 67
     7
 79
     5
170
     0
171
     0
290
     0
174
     0
 93
        1
 44
0.0
173
     0
291
     0
 45
0.0
1001
ACAD
1000
AcDbSavedByObjectVersion
1070
     0
  0
VISUALSTYLE
  5
31
102
{ACAD_REACTORS
330
2A
102
}
330
2A
100
AcDbVisualStyle
  2
3D Hidden
 70
     6
 71
     1
 72
     2
 73
     2
 90
        0
 40
-0.6
 41
-30.0
 62
     5
 63
     7
 74
     2
 91
        2
 64
     7
 65
   257
 75
     2
175
     1
 42
40.0
 92
        0
 66
   257
 43
1.0
 76
     1
 77
     6
 78
     2
 67
     7
 79
     3
170
     0
171
     0
290
     0
174
     0
 93
        1
 44
0.0
173
     0
291
     0
 45
0.0
1001
ACAD
1000
AcDbSavedByObjectVersion
1070
     0
  0
VISUALSTYLE
  5
30
102
{ACAD_REACTORS
330
2A
102
}
330
2A
100
AcDbVisualStyle
  2
3dWireframe
 70
     5
 71
     0
 72
     2
 73
     0
 90
        0
 40
-0.6
 41
-30.0
 62
     5
 63
     7
 74
     1
 91
        4
 64
     7
 65
   257
 75
     1
175
     1
 42
1.0
 92
        0
 66
   257
 43
1.0
 76
     1
 77
     6
 78
     2
 67
     7
 79
     5
170
     0
171
     0
290
     0
174
     0
 93
        1
 44
0.0
173
     0
291
     0
 45
0.0
1001
ACAD
1000
AcDbSavedByObjectVersion
1070
     0
  0
VISUALSTYLE
  5
32
102
{ACAD_REACTORS
330
2A
102
}
330
2A
100
AcDbVisualStyle
  2
Basic
 70
     7
 71
     1
 72
     0
 73
     1
 90
        0
 40
-0.6
 41
-30.0
 62
     5
 63
     7
 74
     0
 91
        4
 64
     7
 65
   257
 75
     1
175
     1
 42
1.0
 92
        8
 66
     7
 43
1.0
 76
     1
 77
     6
 78
     2
 67
     7
 79
     5
170
     0
171
     0
290
     0
174
     0
 93
        1
 44
0.0
173
     0
291
     1
 45
0.0
1001
ACAD
1000
AcDbSavedByObjectVersion
1070
     0
  0
VISUALSTYLE
  5
36
102
{ACAD_REACTORS
330
2A
102
}
330
2A
100
AcDbVisualStyle
  2
Brighten
 70
    12
 71
     2
 72
     2
 73
     0
 90
        0
 40
-0.6
 41
-30.0
 62
     5
 63
     7
 74
     1
 91
        4
 64
     7
 65
   257
 75
     1
175
     1
 42
1.0
 92
        8
 66
     7
 43
1.0
 76
     1
 77
     6
 78
     2
 67
     7
 79
     5
170
     0
171
     0
290
     0
174
     0
 93
        1
 44
50.0
173
     0
291
     1
 45
0.0
1001
ACAD
1000
AcDbSavedByObjectVersion
1070
     0
  0
VISUALSTYLE
  5
3A
102
{ACAD_REACTORS
330
2A
102
}
330
2A
100
AcDbVisualStyle
  2
ColorChange
 70
    16
 71
     2
 72
     2
 73
     3
 90
        0
 40
-0.6
 41
-30.0
 62
     5
 63
     8
 74
     1
 91
        4
 64
     7
 65
   257
 75
     1
175
     1
 42
1.0
 92
        8
 66
     8
 43
1.0
 76
     1
 77
     6
 78
     2
 67
     7
 79
     5
170
     0
171
     0
290
     0
174
     0
 93
        1
 44
0.0
173
     0
291
     1
 45
0.0
1001
ACAD
1000
AcDbSavedByObjectVersion
1070
     0
  0
VISUALSTYLE
  5
34
102
{ACAD_REACTORS
330
2A
102
}
330
2A
100
AcDbVisualStyle
  2
Conceptual
 70
     9
 71
     3
 72
     2
 73
     0
 90
        0
 40
-0.6
 41
-30.0
 62
     5
 63
     7
 74
     2
 91
        2
 64
     7
 65
   257
 75
     1
175
     1
 42
40.0
 92
        8
 66
     7
 43
1.0
 76
     1
 77
     6
 78
     2
 67
     7
 79
     3
170
     0
171
     0
290
     0
174
     0
 93
        1
 44
0.0
173
     0
291
     0
 45
0.0
1001
ACAD
1000
AcDbSavedByObjectVersion
1070
     0
  0
VISUALSTYLE
  5
35
102
{ACAD_REACTORS
330
2A
102
}
330
2A
100
AcDbVisualStyle
  2
Dim
 70
    11
 71
     2
 72
     2
 73
     0
 90
        0
 40
-0.6
 41
-30.0
 62
     5
 63
     7
 74
     1
 91
        4
 64
     7
 65
   257
 75
     1
175
     1
 42
1.0
 92
        8
 66
     7
 43
1.0
 76
     1
 77
     6
 78
     2
 67
     7
 79
     5
170
     0
171
     0
290
     0
174
     0
 93
        1
 44
-50.0
173
     0
291
     1
 45
0.0
1001
ACAD
1000
AcDbSavedByObjectVersion
1070
     0
  0
VISUALSTYLE
  5
39
102
{ACAD_REACTORS
330
2A
102
}
330
2A
100
AcDbVisualStyle
  2
Facepattern
 70
    15
 71
     2
 72
     2
 73
     0
 90
        0
 40
-0.6
 41
-30.0
 62
     5
 63
     7
 74
     1
 91
        4
 64
     7
 65
   257
 75
     1
175
     1
 42
1.0
 92
        8
 66
     7
 43
1.0
 76
     1
 77
     6
 78
     2
 67
     7
 79
     5
170
     0
171
     0
290
     0
174
     0
 93
        1
 44
0.0
173
     0
291
     1
 45
0.0
1001
ACAD
1000
AcDbSavedByObjectVersion
1070
     0
  0
VISUALSTYLE
  5
2B
102
{ACAD_REACTORS
330
2A
102
}
330
2A
100
AcDbVisualStyle
  2
Flat
 70
     0
 71
     2
 72
     1
 73
     1
 90
        2
 40
-0.6
 41
30.0
 62
     5
 63
     7
 74
     0
 91
        4
 64
     7
 65
   257
 75
     1
175
     1
 42
1.0
 92
        8
 66
     7
 43
1.0
 76
     1
 77
     6
 78
     2
 67
     7
 79
     5
170
     0
171
     0
290
     0
174
     0
 93
       13
 44
0.0
173
     0
291
     1
 45
0.0
1001
ACAD
1000
AcDbSavedByObjectVersion
1070
     0
  0
VISUALSTYLE
  5
2C
102
{ACAD_REACTORS
330
2A
102
}
330
2A
100
AcDbVisualStyle
  2
FlatWithEdges
 70
     1
 71
     2
 72
     1
 73
     1
 90
        2
 40
-0.6
 41
30.0
 62
     5
 63
     7
 74
     1
 91
        4
 64
     7
 65
   257
 75
     1
175
     1
 42
1.0
 92
        0
 66
   257
 43
1.0
 76
     1
 77
     6
 78
     2
 67
     7
 79
     5
170
     0
171
     0
290
     0
174
     0
 93
       13
 44
0.0
173
     0
291
     1
 45
0.0
1001
ACAD
1000
AcDbSavedByObjectVersion
1070
     0
  0
VISUALSTYLE
  5
2D
102
{ACAD_REACTORS
330
2A
102
}
330
2A
100
AcDbVisualStyle
  2
Gouraud
 70
     2
 71
     2
 72
     2
 73
     1
 90
        2
 40
-0.6
 41
30.0
 62
     5
 63
     7
 74
     0
 91
        4
 64
     7
 65
   257
 75
     1
175
     1
 42
1.0
 92
        0
 66
     7
 43
1.0
 76
     1
 77
     6
 78
     2
 67
     7
 79
     5
170
     0
171
     0
290
     0
174
     0
 93
       13
 44
0.0
173
     0
291
     1
 45
0.0
1001
ACAD
1000
AcDbSavedByObjectVersion
1070
     0
  0
VISUALSTYLE
  5
2E
102
{ACAD_REACTORS
330
2A
102
}
330
2A
100
AcDbVisualStyle
  2
GouraudWithEdges
 70
     3
 71
     2
 72
     2
 73
     1
 90
        2
 40
-0.6
 41
30.0
 62
     5
 63
     7
 74
     1
 91
        4
 64
     7
 65
   257
 75
     1
175
     1
 42
1.0
 92
        0
 66
   257
 43
1.0
 76
     1
 77
     6
 78
     2
 67
     7
 79
     5
170
     0
171
     0
290
     0
174
     0
 93
       13
 44
0.0
173
     0
291
     1
 45
0.0
1001
ACAD
1000
AcDbSavedByObjectVersion
1070
     0
  0
VISUALSTYLE
  5
38
102
{ACAD_REACTORS
330
2A
102
}
330
2A
100
AcDbVisualStyle
  2
Linepattern
 70
    14
 71
     2
 72
     2
 73
     0
 90
        0
 40
-0.6
 41
-30.0
 62
     5
 63
     7
 74
     1
 91
        4
 64
     7
 65
   257
 75
     7
175
     7
 42
1.0
 92
        8
 66
     7
 43
1.0
 76
     1
 77
     6
 78
     2
 67
     7
 79
     5
170
     0
171
     0
290
     0
174
     0
 93
        1
 44
0.0
173
     0
291
     1
 45
0.0
1001
ACAD
1000
AcDbSavedByObjectVersion
1070
     0
  0
VISUALSTYLE
  5
33
102
{ACAD_REACTORS
330
2A
102
}
330
2A
100
AcDbVisualStyle
  2
Realistic
 70
     8
 71
     2
 72
     2
 73
     0
 90
        0
 40
-0.6
 41
-30.0
 62
     5
 63
     7
 74
     1
 91
        0
 64
     7
 65
   257
 75
     1
175
     1
 42
1.0
 92
        8
 66
     8
 43
1.0
 76
     1
 77
     6
 78
     2
 67
     7
 79
     5
170
     0
171
     0
290
     0
174
     0
 93
       13
 44
0.0
173
     0
291
     0
 45
0.0
1001
ACAD
1000
AcDbSavedByObjectVersion
1070
     0
  0
VISUALSTYLE
  5
37
102
{ACAD_REACTORS
330
2A
102
}
330
2A
100
AcDbVisualStyle
  2
Thicken
 70
    13
 71
     2
 72
     2
 73
     0
 90
        0
 40
-0.6
 41
-30.0
 62
     5
 63
     7
 74
     1
 91
        4
 64
     7
 65
   257
 75
     1
175
     1
 42
1.0
 92
       12
 66
     7
 43
1.0
 76
     1
 77
     6
 78
     2
 67
     7
 79
     5
170
     0
171
     0
290
     0
174
     0
 93
        1
 44
0.0
173
     0
291
     1
 45
0.0
1001
ACAD
1000
AcDbSavedByObjectVersion
1070
     0
  0
DICTIONARYVAR
  5
10A
102
{ACAD_REACTORS
330
108
102
}
330
108
100
DictionaryVariables
280
     0
  1
80.000000
  0
DICTIONARYVAR
  5
109
102
{ACAD_REACTORS
330
108
102
}
330
108
100
DictionaryVariables
280
     0
  1
5.000000
  0
DICTIONARY
  5
10B
330
1E
100
AcDbDictionary
280
     1
281
     1
  3
ACAD_XREC_ROUNDTRIP
360
10C
  0
DICTIONARY
  5
10F
330
26
100
AcDbDictionary
280
     1
281
     1
  3
ACAD_XREC_ROUNDTRIP
360
110
  0
DICTIONARY
  5
10D
330
22
100
AcDbDictionary
280
     1
281
     1
  3
ACAD_XREC_ROUNDTRIP
360
10E
  0
XRECORD
  5
10C
102
{ACAD_REACTORS
330
10B
102
}
330
10B
100
AcDbXrecord
280
     1
102
SHADEPLOT
 70
     0
102
SHADEPLOTRESLEVEL
 70
     5
102
SHADEPLOTCUSTOMDPI
 70
   300
  0
XRECORD
  5
110
102
{ACAD_REACTORS
330
10F
102
}
330
10F
100
AcDbXrecord
280
     1
102
SHADEPLOT
 70
     0
102
SHADEPLOTRESLEVEL
 70
     5
102
SHADEPLOTCUSTOMDPI
 70
   300
  0
XRECORD
  5
10E
102
{ACAD_REACTORS
330
10D
102
}
330
10D
100
AcDbXrecord
280
     1
102
SHADEPLOT
 70
     0
102
SHADEPLOTRESLEVEL
 70
     5
102
SHADEPLOTCUSTOMDPI
 70
   300
  0
ENDSEC
  0
EOF
