  0
SECTION
  2
HEADER
  9
$ACADVER
  1
AC1015
  9
$ACADMAINTVER
 70
     6
  9
$DWGCODEPAGE
  3
ANSI_932
  9
$INSBASE
 10
0.0
 20
0.0
 30
0.0
  9
$EXTMIN
 10
-2100.0
 20
-1485.0
 30
0.0
  9
$EXTMAX
 10
2100.0
 20
1485.0
 30
0.0
  9
$LIMMIN
 10
-2100.0
 20
-1485.0
  9
$LIMMAX
 10
2100.0
 20
1485.0
  9
$ORTHOMODE
 70
     0
  9
$REGENMODE
 70
     1
  9
$FILLMODE
 70
     1
  9
$QTEXTMODE
 70
     0
  9
$MIRRTEXT
 70
     1
  9
$LTSCALE
 40
10.0
  9
$ATTMODE
 70
     1
  9
$TEXTSIZE
 40
2.5
  9
$TRACEWID
 40
1.0
  9
$TEXTSTYLE
  7
Standard
  9
$CLAYER
  8
0
  9
$CELTYPE
  6
ByLayer
  9
$CECOLOR
 62
   256
  9
$CELTSCALE
 40
1.0
  9
$DISPSILH
 70
     0
  9
$DIMSCALE
 40
1.0
  9
$DIMASZ
 40
2.5
  9
$DIMEXO
 40
0.625
  9
$DIMDLI
 40
3.75
  9
$DIMRND
 40
0.0
  9
$DIMDLE
 40
0.0
  9
$DIMEXE
 40
1.25
  9
$DIMTP
 40
0.0
  9
$DIMTM
 40
0.0
  9
$DIMTXT
 40
2.5
  9
$DIMCEN
 40
2.5
  9
$DIMTSZ
 40
0.0
  9
$DIMTOL
 70
     0
  9
$DIMLIM
 70
     0
  9
$DIMTIH
 70
     0
  9
$DIMTOH
 70
     0
  9
$DIMSE1
 70
     0
  9
$DIMSE2
 70
     0
  9
$DIMTAD
 70
     1
  9
$DIMZIN
 70
     8
  9
$DIMBLK
  1

  9
$DIMASO
 70
     1
  9
$DIMSHO
 70
     1
  9
$DIMPOST
  1

  9
$DIMAPOST
  1

  9
$DIMALT
 70
     0
  9
$DIMALTD
 70
     3
  9
$DIMALTF
 40
0.03937007874016
  9
$DIMLFAC
 40
1.0
  9
$DIMTOFL
 70
     1
  9
$DIMTVP
 40
0.0
  9
$DIMTIX
 70
     0
  9
$DIMSOXD
 70
     0
  9
$DIMSAH
 70
     0
  9
$DIMBLK1
  1

  9
$DIMBLK2
  1

  9
$DIMSTYLE
  2
ISO-25
  9
$DIMCLRD
 70
     0
  9
$DIMCLRE
 70
     0
  9
$DIMCLRT
 70
     0
  9
$DIMTFAC
 40
1.0
  9
$DIMGAP
 40
0.625
  9
$DIMJUST
 70
     0
  9
$DIMSD1
 70
     0
  9
$DIMSD2
 70
     0
  9
$DIMTOLJ
 70
     0
  9
$DIMTZIN
 70
     8
  9
$DIMALTZ
 70
     0
  9
$DIMALTTZ
 70
     0
  9
$DIMUPT
 70
     0
  9
$DIMDEC
 70
     2
  9
$DIMTDEC
 70
     2
  9
$DIMALTU
 70
     2
  9
$DIMALTTD
 70
     3
  9
$DIMTXSTY
  7
Standard
  9
$DIMAUNIT
 70
     0
  9
$DIMADEC
 70
     0
  9
$DIMALTRND
 40
0.0
  9
$DIMAZIN
 70
     0
  9
$DIMDSEP
 70
    44
  9
$DIMATFIT
 70
     3
  9
$DIMFRAC
 70
     0
  9
$DIMLDRBLK
  1

  9
$DIMLUNIT
 70
     2
  9
$DIMLWD
 70
    -2
  9
$DIMLWE
 70
    -2
  9
$DIMTMOVE
 70
     0
  9
$LUNITS
 70
     2
  9
$LUPREC
 70
     4
  9
$SKETCHINC
 40
1.0
  9
$FILLETRAD
 40
10.0
  9
$AUNITS
 70
     0
  9
$AUPREC
 70
     0
  9
$MENU
  1
.
  9
$ELEVATION
 40
0.0
  9
$PELEVATION
 40
0.0
  9
$THICKNESS
 40
0.0
  9
$LIMCHECK
 70
     0
  9
$CHAMFERA
 40
10.0
  9
$CHAMFERB
 40
10.0
  9
$CHAMFERC
 40
20.0
  9
$CHAMFERD
 40
0.0
  9
$SKPOLY
 70
     0
  9
$TDCREATE
 40
2456911.467500764
  9
$TDUCREATE
 40
2456911.092500764
  9
$TDUPDATE
 40
2456911.467500776
  9
$TDUUPDATE
 40
2456911.092500776
  9
$TDINDWG
 40
0.0000000116
  9
$TDUSRTIMER
 40
0.0000000116
  9
$USRTIMER
 70
     1
  9
$ANGBASE
 50
0.0
  9
$ANGDIR
 70
     0
  9
$PDMODE
 70
     0
  9
$PDSIZE
 40
0.0
  9
$PLINEWID
 40
0.0
  9
$SPLFRAME
 70
     0
  9
$SPLINETYPE
 70
     6
  9
$SPLINESEGS
 70
     8
  9
$HANDSEED
  5
110
  9
$SURFTAB1
 70
     6
  9
$SURFTAB2
 70
     6
  9
$SURFTYPE
 70
     6
  9
$SURFU
 70
     6
  9
$SURFV
 70
     6
  9
$UCSBASE
  2

  9
$UCSNAME
  2

  9
$UCSORG
 10
0.0
 20
0.0
 30
0.0
  9
$UCSXDIR
 10
1.0
 20
0.0
 30
0.0
  9
$UCSYDIR
 10
0.0
 20
1.0
 30
0.0
  9
$UCSORTHOREF
  2

  9
$UCSORTHOVIEW
 70
     0
  9
$UCSORGTOP
 10
0.0
 20
0.0
 30
0.0
  9
$UCSORGBOTTOM
 10
0.0
 20
0.0
 30
0.0
  9
$UCSORGLEFT
 10
0.0
 20
0.0
 30
0.0
  9
$UCSORGRIGHT
 10
0.0
 20
0.0
 30
0.0
  9
$UCSORGFRONT
 10
0.0
 20
0.0
 30
0.0
  9
$UCSORGBACK
 10
0.0
 20
0.0
 30
0.0
  9
$PUCSBASE
  2

  9
$PUCSNAME
  2

  9
$PUCSORG
 10
0.0
 20
0.0
 30
0.0
  9
$PUCSXDIR
 10
1.0
 20
0.0
 30
0.0
  9
$PUCSYDIR
 10
0.0
 20
1.0
 30
0.0
  9
$PUCSORTHOREF
  2

  9
$PUCSORTHOVIEW
 70
     0
  9
$PUCSORGTOP
 10
0.0
 20
0.0
 30
0.0
  9
$PUCSORGBOTTOM
 10
0.0
 20
0.0
 30
0.0
  9
$PUCSORGLEFT
 10
0.0
 20
0.0
 30
0.0
  9
$PUCSORGRIGHT
 10
0.0
 20
0.0
 30
0.0
  9
$PUCSORGFRONT
 10
0.0
 20
0.0
 30
0.0
  9
$PUCSORGBACK
 10
0.0
 20
0.0
 30
0.0
  9
$USERI1
 70
     0
  9
$USERI2
 70
     0
  9
$USERI3
 70
     0
  9
$USERI4
 70
     0
  9
$USERI5
 70
     0
  9
$USERR1
 40
0.0
  9
$USERR2
 40
0.0
  9
$USERR3
 40
0.0
  9
$USERR4
 40
0.0
  9
$USERR5
 40
0.0
  9
$WORLDVIEW
 70
     1
  9
$SHADEDGE
 70
     3
  9
$SHADEDIF
 70
    70
  9
$TILEMODE
 70
     1
  9
$MAXACTVP
 70
    64
  9
$PINSBASE
 10
0.0
 20
0.0
 30
0.0
  9
$PLIMCHECK
 70
     0
  9
$PEXTMIN
 10
1.000000000000000E+20
 20
1.000000000000000E+20
 30
1.000000000000000E+20
  9
$PEXTMAX
 10
-1.000000000000000E+20
 20
-1.000000000000000E+20
 30
-1.000000000000000E+20
  9
$PLIMMIN
 10
0.0
 20
0.0
  9
$PLIMMAX
 10
420.0
 20
297.0
  9
$UNITMODE
 70
     0
  9
$VISRETAIN
 70
     1
  9
$PLINEGEN
 70
     0
  9
$PSLTSCALE
 70
     1
  9
$TREEDEPTH
 70
  3020
  9
$CMLSTYLE
  2
Standard
  9
$CMLJUST
 70
     0
  9
$CMLSCALE
 40
20.0
  9
$PROXYGRAPHICS
 70
     1
  9
$MEASUREMENT
 70
     1
  9
$CELWEIGHT
370
    -1
  9
$ENDCAPS
280
     0
  9
$JOINSTYLE
280
     0
  9
$LWDISPLAY
290
     0
  9
$INSUNITS
 70
     4
  9
$HYPERLINKBASE
  1

  9
$STYLESHEET
  1

  9
$XEDIT
290
     1
  9
$CEPSNTYPE
380
     0
  9
$PSTYLEMODE
290
     1
  9
$FINGERPRINTGUID
  2
{694CD836-6F1E-4DFB-B043-5C8315F17475}
  9
$VERSIONGUID
  2
{FAEB1C32-E019-11D5-929B-00C0DF256EC4}
  9
$EXTNAMES
290
     1
  9
$PSVPSCALE
 40
0.0
  9
$OLESTARTUP
290
     0
  0
ENDSEC
  0
SECTION
  2
CLASSES
  0
CLASS
  1
ACDBDICTIONARYWDFLT
  2
AcDbDictionaryWithDefault
  3
ObjectDBX Classes
 90
        0
280
     0
281
     0
  0
CLASS
  1
VISUALSTYLE
  2
AcDbVisualStyle
  3
ObjectDBX Classes
 90
     4095
280
     0
281
     0
  0
CLASS
  1
DICTIONARYVAR
  2
AcDbDictionaryVar
  3
ObjectDBX Classes
 90
        0
280
     0
281
     0
  0
CLASS
  1
ACDBPLACEHOLDER
  2
AcDbPlaceHolder
  3
ObjectDBX Classes
 90
        0
280
     0
281
     0
  0
CLASS
  1
LAYOUT
  2
AcDbLayout
  3
ObjectDBX Classes
 90
        0
280
     0
281
     0
  0
ENDSEC
  0
SECTION
  2
TABLES
  0
TABLE
  2
VPORT
  5
8
330
0
100
AcDbSymbolTable
 70
     1
  0
VPORT
  5
29
330
8
100
AcDbSymbolTableRecord
100
AcDbViewportTableRecord
  2
*Active
 70
     0
 10
0.0
 20
0.0
 11
1.0
 21
1.0
 12
0.0
 22
0.0
 13
0.0
 23
0.0
 14
10.0
 24
10.0
 15
10.0
 25
10.0
 16
0.0
 26
0.0
 36
1.0
 17
0.0
 27
0.0
 37
0.0
 40
3267.0
 41
1.414141414141414
 42
50.0
 43
0.0
 44
0.0
 50
0.0
 51
0.0
 71
     0
 72
 10000
 73
     1
 74
     3
 75
     0
 76
     0
 77
     0
 78
     0
281
     0
 65
     1
110
0.0
120
0.0
130
0.0
111
1.0
121
0.0
131
0.0
112
0.0
122
1.0
132
0.0
 79
     0
146
0.0
  0
ENDTAB
  0
TABLE
  2
LTYPE
  5
5
330
0
100
AcDbSymbolTable
 70
     4
  0
LTYPE
  5
14
330
5
100
AcDbSymbolTableRecord
100
AcDbLinetypeTableRecord
  2
ByBlock
 70
     0
  3

 72
    65
 73
     0
 40
0.0
  0
LTYPE
  5
15
330
5
100
AcDbSymbolTableRecord
100
AcDbLinetypeTableRecord
  2
ByLayer
 70
     0
  3

 72
    65
 73
     0
 40
0.0
  0
LTYPE
  5
16
330
5
100
AcDbSymbolTableRecord
100
AcDbLinetypeTableRecord
  2
Continuous
 70
     0
  3
Solid line
 72
    65
 73
     0
 40
0.0
  0
LTYPE
  5
3C
330
5
100
AcDbSymbolTableRecord
100
AcDbLinetypeTableRecord
  2
JWW_CENTER1
 70
     0
  3
-----  --  ----------  --  -----
 72
    65
 73
     4
 40
6.773333333333333
 49
4.233333333333333
 74
     0
 49
-0.8466666666666667
 74
     0
 49
0.8466666666666667
 74
     0
 49
-0.8466666666666667
 74
     0
  0
LTYPE
  5
3D
330
5
100
AcDbSymbolTableRecord
100
AcDbLinetypeTableRecord
  2
JWW_DASHED3
 70
     0
  3
---  ------  ------  ------  ---
 72
    65
 73
     2
 40
3.386666666666667
 49
2.54
 74
     0
 49
-0.8466666666666667
 74
     0
  0
LTYPE
  5
3E
330
5
100
AcDbSymbolTableRecord
100
AcDbLinetypeTableRecord
  2
JWW_CENTER2
 70
     0
  3
-------------  --  -------------
 72
    65
 73
     4
 40
13.54666666666667
 49
11.00666666666667
 74
     0
 49
-0.8466666666666667
 74
     0
 49
0.8466666666666667
 74
     0
 49
-0.8466666666666667
 74
     0
  0
ENDTAB
  0
TABLE
  2
LAYER
  5
2
330
0
100
AcDbSymbolTable
 70
     5
  0
LAYER
  5
10
330
2
100
AcDbSymbolTableRecord
100
AcDbLayerTableRecord
  2
0
 70
     0
 62
     7
  6
Continuous
370
    -3
390
F
  0
LAYER
  5
3F
330
2
100
AcDbSymbolTableRecord
100
AcDbLayerTableRecord
  2
A-5
 70
     0
 62
     7
  6
Continuous
370
    -3
390
F
  0
LAYER
  5
40
330
2
100
AcDbSymbolTableRecord
100
AcDbLayerTableRecord
  2
F-5
 70
     0
 62
     7
  6
Continuous
370
    -3
390
F
  0
LAYER
  5
41
330
2
100
AcDbSymbolTableRecord
100
AcDbLayerTableRecord
  2
A-0
 70
     0
 62
     7
  6
Continuous
370
    -3
390
F
  0
LAYER
  5
42
330
2
100
AcDbSymbolTableRecord
100
AcDbLayerTableRecord
  2
A-F
 70
     0
 62
     7
  6
Continuous
370
    -3
390
F
  0
ENDTAB
  0
TABLE
  2
STYLE
  5
3
330
0
100
AcDbSymbolTable
 70
     2
  0
STYLE
  5
11
330
3
100
AcDbSymbolTableRecord
100
AcDbTextStyleTableRecord
  2
Standard
 70
     0
 40
0.0
 41
1.0
 50
0.0
 71
     0
 42
2.5
  3
txt
  4

1001
ACAD
1000

1071
        0
  0
STYLE
  5
3B
330
3
100
AcDbSymbolTableRecord
100
AcDbTextStyleTableRecord
  2
ＭＳ ゴシック
 70
     0
 40
1.0
 41
1.0
 50
0.0
 71
     0
 42
10.0
  3

  4

1001
ACAD
1000
MS Gothic
1071
    32817
  0
ENDTAB
  0
TABLE
  2
VIEW
  5
6
330
0
100
AcDbSymbolTable
 70
     0
  0
ENDTAB
  0
TABLE
  2
UCS
  5
7
330
0
100
AcDbSymbolTable
 70
     0
  0
ENDTAB
  0
TABLE
  2
APPID
  5
9
330
0
100
AcDbSymbolTable
 70
     1
  0
APPID
  5
12
330
9
100
AcDbSymbolTableRecord
100
AcDbRegAppTableRecord
  2
ACAD
 70
     0
  0
ENDTAB
  0
TABLE
  2
DIMSTYLE
  5
A
330
0
100
AcDbSymbolTable
 70
     1
100
AcDbDimStyleTable
  0
DIMSTYLE
105
27
330
A
100
AcDbSymbolTableRecord
100
AcDbDimStyleTableRecord
  2
ISO-25
 70
     0
 41
2.5
 42
0.625
 43
3.75
 44
1.25
 73
     0
 74
     0
 77
     1
 78
     8
140
2.5
141
2.5
143
0.03937007874016
147
0.625
171
     3
172
     1
271
     2
272
     2
274
     3
278
    44
283
     0
284
     8
340
11
  0
ENDTAB
  0
TABLE
  2
BLOCK_RECORD
  5
1
330
0
100
AcDbSymbolTable
 70
     1
  0
BLOCK_RECORD
  5
1F
330
1
100
AcDbSymbolTableRecord
100
AcDbBlockTableRecord
  2
*Model_Space
340
22
  0
BLOCK_RECORD
  5
1B
330
1
100
AcDbSymbolTableRecord
100
AcDbBlockTableRecord
  2
*Paper_Space
340
1E
  0
BLOCK_RECORD
  5
23
330
1
100
AcDbSymbolTableRecord
100
AcDbBlockTableRecord
  2
*Paper_Space0
340
26
  0
ENDTAB
  0
ENDSEC
  0
SECTION
  2
BLOCKS
  0
BLOCK
  5
20
330
1F
100
AcDbEntity
  8
0
100
AcDbBlockBegin
  2
*Model_Space
 70
     0
 10
0.0
 20
0.0
 30
0.0
  3
*Model_Space
  1

  0
ENDBLK
  5
21
330
1F
100
AcDbEntity
  8
0
100
AcDbBlockEnd
  0
BLOCK
  5
1C
330
1B
100
AcDbEntity
 67
     1
  8
0
100
AcDbBlockBegin
  2
*Paper_Space
 70
     0
 10
0.0
 20
0.0
 30
0.0
  3
*Paper_Space
  1

  0
ENDBLK
  5
1D
330
1B
100
AcDbEntity
 67
     1
  8
0
100
AcDbBlockEnd
  0
BLOCK
  5
24
330
23
100
AcDbEntity
  8
0
100
AcDbBlockBegin
  2
*Paper_Space0
 70
     0
 10
0.0
 20
0.0
 30
0.0
  3
*Paper_Space0
  1

  0
ENDBLK
  5
25
330
23
100
AcDbEntity
  8
0
100
AcDbBlockEnd
  0
ENDSEC
  0
SECTION
  2
ENTITIES
  0
TEXT
  5
43
330
1F
100
AcDbEntity
  8
A-5
  6
Continuous
 62
     2
370
     9
100
AcDbText
 10
1401.455863950868
 20
-1124.520568070818
 30
0.0
 40
30.48
  1
本体質量：７．０ｋｇ
 41
1.1125
  7
ＭＳ ゴシック
100
AcDbText
  0
TEXT
  5
44
330
1F
100
AcDbEntity
  8
F-5
  6
Continuous
 62
     7
370
     9
100
AcDbText
 10
-697.837473476024
 20
-1344.558656072391
 30
0.0
 40
22.86
  1
ステンレス製　自転車・バイク盗難防止用パイプ　JP-S24A
 41
1.163522012578616
  7
ＭＳ ゴシック
100
AcDbText
  0
LINE
  5
45
330
1F
100
AcDbEntity
  8
A-5
  6
Continuous
 62
     3
370
     9
100
AcDbLine
 10
-1510.122790739873
 20
-200.5111637408948
 30
0.0
 11
-1510.122790739873
 21
-414.1677526024789
 31
0.0
  0
LINE
  5
46
330
1F
100
AcDbEntity
  8
A-5
  6
Continuous
 62
     3
370
     9
100
AcDbLine
 10
1412.365838577094
 20
-419.1580265367019
 30
0.0
 11
1272.365838577094
 21
-419.1580265367019
 31
0.0
  0
ARC
  5
47
330
1F
100
AcDbEntity
  8
A-0
  6
Continuous
 62
     3
370
     9
100
AcDbCircle
 10
758.5271848048245
 20
-200.5111637408948
 30
0.0
 40
131.3500058973158
100
AcDbArc
 50
0.0
 51
90.00025939941406
  0
ARC
  5
48
330
1F
100
AcDbEntity
  8
A-0
  6
Continuous
 62
     3
370
     9
100
AcDbCircle
 10
758.5271848048245
 20
-200.5112379728417
 30
0.0
 40
88.64999925768053
100
AcDbArc
 50
0.0
 51
90.00028991699219
  0
LINE
  5
49
330
1F
100
AcDbEntity
  8
A-0
  6
Continuous
 62
     3
370
     9
100
AcDbLine
 10
758.5265909492502
 20
-69.16114856458556
 30
0.0
 11
-110.1228000188663
 21
-69.16527728051157
 31
0.0
  0
LINE
  5
4A
330
1F
100
AcDbEntity
  8
A-0
  6
Continuous
 62
     3
370
     9
100
AcDbLine
 10
758.5267394131437
 20
-111.8611459252275
 30
0.0
 11
-110.1228000188663
 21
-111.8652746390554
 31
0.0
  0
ARC
  5
4B
330
1F
100
AcDbEntity
  8
A-0
  6
Continuous
 62
     3
370
     9
100
AcDbCircle
 10
1342.365838577095
 20
-90.51114956465476
 30
0.0
 40
21.35000100006928
100
AcDbArc
 50
0.000396728515625
 51
180.0003967285156
  0
LINE
  5
4C
330
1F
100
AcDbEntity
  8
A-0
  6
Continuous
 62
     3
370
     9
100
AcDbLine
 10
847.1772026204917
 20
-200.5112379728417
 30
0.0
 11
847.1772026204917
 21
-414.1581326274239
 31
0.0
  0
LINE
  5
4D
330
1F
100
AcDbEntity
  8
A-0
  6
Continuous
 62
     3
370
     9
100
AcDbLine
 10
889.8771999811336
 20
-200.5111637408948
 30
0.0
 11
889.8771999811336
 21
-414.1579204458562
 31
0.0
  0
LINE
  5
4E
330
1F
100
AcDbEntity
  8
A-5
  6
Continuous
 62
     3
370
     9
100
AcDbLine
 10
1321.015838577095
 20
-90.50461481467799
 30
0.0
 11
1321.015838577095
 21
-414.1581326274304
 31
0.0
  0
LINE
  5
4F
330
1F
100
AcDbEntity
  8
A-5
  6
Continuous
 62
     3
370
     9
100
AcDbLine
 10
1363.715838577095
 20
-90.50461481467799
 30
0.0
 11
1363.715838577095
 21
-414.1579204458496
 31
0.0
  0
LINE
  5
50
330
1F
100
AcDbEntity
  8
A-5
  6
Continuous
 62
     3
370
     9
100
AcDbLine
 10
933.5272013008127
 20
-419.1580265367019
 30
0.0
 11
803.5272013008127
 21
-419.1580265367019
 31
0.0
  0
LINE
  5
51
330
1F
100
AcDbEntity
  8
A-5
  6
Continuous
 62
     7
370
     9
100
AcDbLine
 10
855.8678206298612
 20
-257.5159521063359
 30
0.0
 11
993.4273808736406
 21
-257.5159521063359
 31
0.0
  0
LINE
  5
52
330
1F
100
AcDbEntity
  8
A-5
  6
Continuous
 62
     7
370
     9
100
AcDbLine
 10
887.8771999811336
 20
-257.5159521063359
 30
0.0
 11
863.0910784467883
 21
-260.7791069118372
 31
0.0
  0
LINE
  5
53
330
1F
100
AcDbEntity
  8
A-5
  6
Continuous
 62
     7
370
     9
100
AcDbLine
 10
887.8771999811336
 20
-257.5159521063359
 30
0.0
 11
863.0910784467883
 21
-254.2527973008346
 31
0.0
  0
LINE
  5
54
330
1F
100
AcDbEntity
  8
A-5
  6
Continuous
 62
     7
370
     9
100
AcDbLine
 10
889.8771999811336
 20
-257.5159521063359
 30
0.0
 11
914.6633215154789
 21
-260.7791069118372
 31
0.0
  0
LINE
  5
55
330
1F
100
AcDbEntity
  8
A-5
  6
Continuous
 62
     7
370
     9
100
AcDbLine
 10
889.8771999811336
 20
-257.5159521063359
 30
0.0
 11
914.6633215154789
 21
-254.2527973008346
 31
0.0
  0
LINE
  5
56
330
1F
100
AcDbEntity
  8
A-5
  6
Continuous
 62
     7
370
     9
100
AcDbLine
 10
887.8771999811336
 20
-254.5159521063359
 30
0.0
 11
887.8771999811336
 21
-274.8348376842452
 31
0.0
  0
LINE
  5
57
330
1F
100
AcDbEntity
  8
A-5
  6
Continuous
 62
     7
370
     9
100
AcDbLine
 10
889.8771999811336
 20
-254.5159521063359
 30
0.0
 11
889.8771999811336
 21
-274.8348376842452
 31
0.0
  0
ARC
  5
58
330
1F
100
AcDbEntity
  8
A-0
  6
JWW_CENTER1
 62
     4
370
     9
100
AcDbCircle
 10
758.5271848048245
 20
-200.5113122047883
 30
0.0
 40
109.9999979380015
100
AcDbArc
 50
0.0
 51
90.00030517578126
  0
LINE
  5
59
330
1F
100
AcDbEntity
  8
A-0
  6
JWW_CENTER1
 62
     4
370
     9
100
AcDbLine
 10
758.5265909492502
 20
-90.51114724490667
 30
0.0
 11
-110.1227907398734
 21
-90.51586577734298
 31
0.0
  0
LINE
  5
5A
330
1F
100
AcDbEntity
  8
A-5
  6
Continuous
 62
     7
370
     9
100
AcDbLine
 10
1563.878148070321
 20
-419.1580265367019
 30
0.0
 11
1195.06467982689
 21
-419.1580265367019
 31
0.0
  0
LINE
  5
5B
330
1F
100
AcDbEntity
  8
A-0
  6
JWW_CENTER1
 62
     4
370
     9
100
AcDbLine
 10
868.5272013008127
 20
-200.5113122047883
 30
0.0
 11
868.5272013008127
 21
-486.2007189944276
 31
0.0
  0
LINE
  5
5C
330
1F
100
AcDbEntity
  8
A-5
  6
Continuous
 62
     7
370
     9
100
AcDbLine
 10
1365.199113775768
 20
-121.9237261836007
 30
0.0
 11
1452.943027029666
 21
30.05318962706617
 31
0.0
  0
LINE
  5
5D
330
1F
100
AcDbEntity
  8
A-5
  6
Continuous
 62
     7
370
     9
100
AcDbLine
 10
1365.199113775768
 20
-121.9237261836007
 30
0.0
 11
1374.766199584896
 21
-98.82673787081856
 31
0.0
  0
LINE
  5
5E
330
1F
100
AcDbEntity
  8
A-5
  6
Continuous
 62
     7
370
     9
100
AcDbLine
 10
1365.199113775768
 20
-121.9237261836007
 30
0.0
 11
1380.418149500987
 21
-102.0898926763198
 31
0.0
  0
LINE
  5
5F
330
1F
100
AcDbEntity
  8
A-5
  6
Continuous
 62
     7
370
     9
100
AcDbLine
 10
1452.943027029666
 20
30.05318962706617
 30
0.0
 11
1690.049272027052
 21
30.05318962706617
 31
0.0
  0
LINE
  5
60
330
1F
100
AcDbEntity
  8
A-5
  6
JWW_CENTER1
 62
     4
370
     9
100
AcDbLine
 10
1300.133860488325
 20
-90.51114724490667
 30
0.0
 11
1378.538505506577
 21
-90.51114724490667
 31
0.0
  0
LINE
  5
61
330
1F
100
AcDbEntity
  8
A-0
  6
JWW_CENTER1
 62
     4
370
     9
100
AcDbLine
 10
1342.365838577095
 20
-46.09418682316388
 30
0.0
 11
1342.365838577095
 21
-488.3260379090785
 31
0.0
  0
ARC
  5
62
330
1F
100
AcDbEntity
  8
A-5
  6
Continuous
 62
     4
370
     9
100
AcDbCircle
 10
758.5271848048245
 20
-200.5111637408948
 30
0.0
 40
129.3500058973158
100
AcDbArc
 50
0.0
 51
90.00025939941406
  0
ARC
  5
63
330
1F
100
AcDbEntity
  8
A-5
  6
Continuous
 62
     4
370
     9
100
AcDbCircle
 10
758.5271848048245
 20
-200.5112379728417
 30
0.0
 40
90.64999925768052
100
AcDbArc
 50
0.0
 51
90.00028991699219
  0
LINE
  5
64
330
1F
100
AcDbEntity
  8
A-5
  6
Continuous
 62
     4
370
     9
100
AcDbLine
 10
887.8771999811336
 20
-200.5111637408948
 30
0.0
 11
887.8771999811336
 21
-414.1579204458562
 31
0.0
  0
LINE
  5
65
330
1F
100
AcDbEntity
  8
A-5
  6
Continuous
 62
     4
370
     9
100
AcDbLine
 10
849.1772026204917
 20
-200.5112379728417
 30
0.0
 11
849.1772026204917
 21
-414.1581326274239
 31
0.0
  0
LINE
  5
66
330
1F
100
AcDbEntity
  8
A-F
  6
Continuous
 62
     7
370
     9
100
AcDbLine
 10
-1456.554540444595
 20
-122.7295937187241
 30
0.0
 11
-1442.274206796738
 21
-133.6874167761567
 31
0.0
  0
LINE
  5
67
330
1F
100
AcDbEntity
  8
A-F
  6
Continuous
 62
     7
370
     9
100
AcDbLine
 10
-1456.554540444595
 20
-122.7295937187241
 30
0.0
 11
-1445.596791619109
 21
-137.0098902506074
 31
0.0
  0
LINE
  5
68
330
1F
100
AcDbEntity
  8
A-F
  6
Continuous
 62
     7
370
     9
100
AcDbLine
 10
-1353.949092095128
 20
-225.3349931068247
 30
0.0
 11
-1456.554540444595
 21
-122.7295937187241
 31
0.0
  0
ARC
  5
69
330
1F
100
AcDbEntity
  8
A-0
  6
Continuous
 62
     3
370
     9
100
AcDbCircle
 10
-1378.772784842557
 20
-200.5111637408948
 30
0.0
 40
131.3500058973158
100
AcDbArc
 50
89.99974060058597
 51
180.0
  0
ARC
  5
6A
330
1F
100
AcDbEntity
  8
A-0
  6
Continuous
 62
     3
370
     9
100
AcDbCircle
 10
-1378.772784842557
 20
-200.5112379728417
 30
0.0
 40
88.64999925768053
100
AcDbArc
 50
89.99971008300781
 51
180.0
  0
LINE
  5
6B
330
1F
100
AcDbEntity
  8
A-F
  6
Continuous
 62
     7
370
     9
100
AcDbLine
 10
-1467.422802658225
 20
-320.3446229017094
 30
0.0
 11
-1467.422802658225
 21
-322.1445991474865
 31
0.0
  0
LINE
  5
6C
330
1F
100
AcDbEntity
  8
A-5
  6
Continuous
 62
     7
370
     9
100
AcDbLine
 10
-1510.122790739873
 20
-276.2067663758174
 30
0.0
 11
-1510.122790739873
 21
-311.0440026386968
 31
0.0
  0
LINE
  5
6D
330
1F
100
AcDbEntity
  8
A-5
  6
Continuous
 62
     7
370
     9
100
AcDbLine
 10
-1467.422802658225
 20
-276.2067663758174
 30
0.0
 11
-1467.422802658225
 21
-311.0440026386968
 31
0.0
  0
LINE
  5
6E
330
1F
100
AcDbEntity
  8
A-0
  6
Continuous
 62
     3
370
     9
100
AcDbLine
 10
-1467.422802658225
 20
-200.5112379728417
 30
0.0
 11
-1467.422802658225
 21
-414.1677526024789
 31
0.0
  0
LINE
  5
6F
330
1F
100
AcDbEntity
  8
A-5
  6
Continuous
 62
     7
370
     9
100
AcDbLine
 10
-1322.05455765215
 20
-284.1193234862471
 30
0.0
 11
-1560.122790739874
 21
-284.1193234862471
 31
0.0
  0
LINE
  5
70
330
1F
100
AcDbEntity
  8
A-5
  6
Continuous
 62
     7
370
     9
100
AcDbLine
 10
-1510.122790739873
 20
-284.1193234862471
 30
0.0
 11
-1534.908912274218
 21
-287.3824782917484
 31
0.0
  0
LINE
  5
71
330
1F
100
AcDbEntity
  8
A-5
  6
Continuous
 62
     7
370
     9
100
AcDbLine
 10
-1510.122790739873
 20
-284.1193234862471
 30
0.0
 11
-1534.908912274218
 21
-280.8561686807458
 31
0.0
  0
LINE
  5
72
330
1F
100
AcDbEntity
  8
A-5
  6
Continuous
 62
     7
370
     9
100
AcDbLine
 10
-1467.422802658225
 20
-284.1193234862471
 30
0.0
 11
-1442.636681123879
 21
-287.3824782917484
 31
0.0
  0
LINE
  5
73
330
1F
100
AcDbEntity
  8
A-5
  6
Continuous
 62
     7
370
     9
100
AcDbLine
 10
-1467.422802658225
 20
-284.1193234862471
 30
0.0
 11
-1442.636681123879
 21
-280.8561686807458
 31
0.0
  0
LINE
  5
74
330
1F
100
AcDbEntity
  8
A-5
  6
Continuous
 62
     7
370
     9
100
AcDbLine
 10
-1664.632637791729
 20
-69.16115784492519
 30
0.0
 11
-1664.632637791729
 21
-419.1677526024789
 31
0.0
  0
LINE
  5
75
330
1F
100
AcDbEntity
  8
A-5
  6
Continuous
 62
     7
370
     9
100
AcDbLine
 10
-1664.632637791729
 20
-69.16115784492519
 30
0.0
 11
-1661.369482986228
 21
-93.94727937927044
 31
0.0
  0
LINE
  5
76
330
1F
100
AcDbEntity
  8
A-5
  6
Continuous
 62
     7
370
     9
100
AcDbLine
 10
-1664.632637791729
 20
-69.16115784492519
 30
0.0
 11
-1667.89579259723
 21
-93.94727937927044
 31
0.0
  0
LINE
  5
77
330
1F
100
AcDbEntity
  8
A-5
  6
Continuous
 62
     7
370
     9
100
AcDbLine
 10
-1664.632637791729
 20
-419.1677526024789
 30
0.0
 11
-1661.369482986228
 21
-394.3816310681336
 31
0.0
  0
LINE
  5
78
330
1F
100
AcDbEntity
  8
A-5
  6
Continuous
 62
     7
370
     9
100
AcDbLine
 10
-1664.632637791729
 20
-419.1677526024789
 30
0.0
 11
-1667.89579259723
 21
-394.3816310681336
 31
0.0
  0
LINE
  5
79
330
1F
100
AcDbEntity
  8
A-5
  6
Continuous
 62
     7
370
     9
100
AcDbLine
 10
-1667.632637791729
 20
-69.16115784492519
 30
0.0
 11
-1526.99412591146
 21
-69.16115784492519
 31
0.0
  0
LINE
  5
7A
330
1F
100
AcDbEntity
  8
A-5
  6
Continuous
 62
     7
370
     9
100
AcDbLine
 10
-1808.322393619513
 20
-419.1677526024789
 30
0.0
 11
1058.327065697954
 21
-419.1677526024789
 31
0.0
  0
LINE
  5
7B
330
1F
100
AcDbEntity
  8
A-0
  6
JWW_CENTER1
 62
     4
370
     9
100
AcDbLine
 10
-1488.772801338546
 20
-200.5113122047883
 30
0.0
 11
-1488.772801338546
 21
-471.8832828710315
 31
0.0
  0
ARC
  5
7C
330
1F
100
AcDbEntity
  8
A-0
  6
JWW_CENTER1
 62
     4
370
     9
100
AcDbCircle
 10
-1378.772784842557
 20
-200.5113122047883
 30
0.0
 40
109.9999979380015
100
AcDbArc
 50
89.99969482421878
 51
180.0000000000001
  0
LINE
  5
7D
330
1F
100
AcDbEntity
  8
A-0
  6
Continuous
 62
     3
370
     9
100
AcDbLine
 10
-1378.772190165438
 20
-69.15924735290659
 30
0.0
 11
-110.1228000188663
 21
-69.16527728051157
 31
0.0
  0
LINE
  5
7E
330
1F
100
AcDbEntity
  8
A-0
  6
JWW_CENTER1
 62
     4
370
     9
100
AcDbLine
 10
-1378.77226321489
 20
-90.50897443116256
 30
0.0
 11
-110.1228000188663
 21
-90.51586577739336
 31
0.0
  0
LINE
  5
7F
330
1F
100
AcDbEntity
  8
A-0
  6
Continuous
 62
     3
370
     9
100
AcDbLine
 10
-1378.7723362662
 20
-111.8592447148509
 30
0.0
 11
-110.1228000188663
 21
-111.8652746390554
 31
0.0
  0
LINE
  5
80
330
1F
100
AcDbEntity
  8
A-5
  6
Continuous
 62
     7
370
     9
100
AcDbLine
 10
-1510.122790739873
 20
81.71914569811385
 30
0.0
 11
889.8771999811336
 21
81.71914569811385
 31
0.0
  0
LINE
  5
81
330
1F
100
AcDbEntity
  8
A-5
  6
Continuous
 62
     7
370
     9
100
AcDbLine
 10
-1510.122790739873
 20
81.71914569811385
 30
0.0
 11
-1485.336669205528
 21
84.9823005036152
 31
0.0
  0
LINE
  5
82
330
1F
100
AcDbEntity
  8
A-5
  6
Continuous
 62
     7
370
     9
100
AcDbLine
 10
-1510.122790739873
 20
81.71914569811385
 30
0.0
 11
-1485.336669205528
 21
78.45599089261249
 31
0.0
  0
LINE
  5
83
330
1F
100
AcDbEntity
  8
A-5
  6
Continuous
 62
     7
370
     9
100
AcDbLine
 10
889.8771999811336
 20
81.71914569811385
 30
0.0
 11
865.0910784467884
 21
84.9823005036152
 31
0.0
  0
LINE
  5
84
330
1F
100
AcDbEntity
  8
A-5
  6
Continuous
 62
     7
370
     9
100
AcDbLine
 10
889.8771999811336
 20
81.71914569811385
 30
0.0
 11
865.0910784467884
 21
78.45599089261249
 31
0.0
  0
LINE
  5
85
330
1F
100
AcDbEntity
  8
A-5
  6
Continuous
 62
     7
370
     9
100
AcDbLine
 10
-1510.122790739873
 20
84.71914569811382
 30
0.0
 11
-1510.122790739873
 21
-41.16611930500234
 31
0.0
  0
LINE
  5
86
330
1F
100
AcDbEntity
  8
A-5
  6
Continuous
 62
     7
370
     9
100
AcDbLine
 10
889.8771999811336
 20
84.71914569811382
 30
0.0
 11
889.8771999811336
 21
-41.16611930500234
 31
0.0
  0
LINE
  5
87
330
1F
100
AcDbEntity
  8
A-5
  6
JWW_DASHED3
 62
     7
370
     9
100
AcDbLine
 10
-310.1227907398734
 20
-28.28975382601037
 30
0.0
 11
-310.1227907398734
 21
-156.7779559194554
 31
0.0
  0
LINE
  5
88
330
1F
100
AcDbEntity
  8
A-5
  6
Continuous
 62
     4
370
     9
100
AcDbLine
 10
758.5266004553089
 20
-71.16114856456299
 30
0.0
 11
-310.1227907398734
 21
-71.16622788633151
 31
0.0
  0
LINE
  5
89
330
1F
100
AcDbEntity
  8
A-5
  6
Continuous
 62
     4
370
     9
100
AcDbLine
 10
758.5267299070916
 20
-109.8611459252501
 30
0.0
 11
-310.1227907398734
 21
-109.8662252441846
 31
0.0
  0
TEXT
  5
8A
330
1F
100
AcDbEntity
  8
A-5
  6
Continuous
 62
     2
370
     9
100
AcDbText
 10
981.4092720214592
 20
-408.9368371256644
 30
0.0
 40
30.48
  1
G.L.
 41
1.09375
  7
ＭＳ ゴシック
100
AcDbText
  0
TEXT
  5
8B
330
1F
100
AcDbEntity
  8
A-5
  6
Continuous
 62
     7
370
     9
100
AcDbText
 10
1456.786397731819
 20
38.16398124363558
 30
0.0
 40
22.86
  1
本体：SUS304
 41
1.152777777777778
  7
ＭＳ ゴシック
100
AcDbText
  0
TEXT
  5
8C
330
1F
100
AcDbEntity
  8
A-5
  6
Continuous
 62
     7
370
     9
100
AcDbText
 10
1456.786397731819
 20
1.769980111749003
 30
0.0
 40
22.86
  1
ヘアライン仕上
 41
1.142857142857143
  7
ＭＳ ゴシック
100
AcDbText
  0
TEXT
  5
8D
330
1F
100
AcDbEntity
  8
A-5
  6
Continuous
 62
     2
370
     9
100
AcDbText
 10
1470.265657410295
 20
-407.9374400817834
 30
0.0
 40
30.48
  1
G.L.
 41
1.09375
  7
ＭＳ ゴシック
100
AcDbText
  0
TEXT
  5
8E
330
1F
100
AcDbEntity
  8
A-5
  6
Continuous
 62
     2
370
   211
100
AcDbText
 10
-1672.648467713624
 20
-275.8182340989452
 30
0.0
 40
30.48
  1
350
 50
90.0
 41
1.083333333333333
  7
ＭＳ ゴシック
100
AcDbText
  0
TEXT
  5
8F
330
1F
100
AcDbEntity
  8
A-5
  6
Continuous
 62
     2
370
   211
100
AcDbText
 10
-353.8727953793699
 20
93.20536682287063
 30
0.0
 40
30.48
  1
2400
 41
1.09375
  7
ＭＳ ゴシック
100
AcDbText
  0
LINE
  5
90
330
1F
100
AcDbEntity
  8
A-5
  6
JWW_CENTER1
 62
     4
370
     9
100
AcDbLine
 10
984.757780411021
 20
676.1633974574775
 30
0.0
 11
-110.1227907398734
 21
676.1574500296683
 31
0.0
  0
LINE
  5
91
330
1F
100
AcDbEntity
  8
A-5
  6
Continuous
 62
     3
370
     9
100
AcDbLine
 10
868.5272013008127
 20
697.5126900785398
 30
0.0
 11
-110.1228000188663
 21
697.5080385265
 31
0.0
  0
LINE
  5
92
330
1F
100
AcDbEntity
  8
A-5
  6
Continuous
 62
     3
370
     9
100
AcDbLine
 10
868.5272013008127
 20
654.8126927168371
 30
0.0
 11
-110.1228000188663
 21
654.8080411679562
 31
0.0
  0
ARC
  5
93
330
1F
100
AcDbEntity
  8
A-5
  6
Continuous
 62
     3
370
     9
100
AcDbCircle
 10
868.5272013008127
 20
676.162766089092
 30
0.0
 40
21.34992398944775
100
AcDbArc
 50
270.0
 51
89.99999999999997
  0
LINE
  5
94
330
1F
100
AcDbEntity
  8
A-5
  6
JWW_CENTER1
 62
     4
370
     9
100
AcDbLine
 10
868.5272013008127
 20
754.5025909474441
 30
0.0
 11
868.5272013008127
 21
600.5574443597882
 31
0.0
  0
ARC
  5
95
330
1F
100
AcDbEntity
  8
A-5
  6
Continuous
 62
     3
370
     9
100
AcDbCircle
 10
-1488.772782780559
 20
676.1633749520183
 30
0.0
 40
21.34992398944775
100
AcDbArc
 50
90.00000000000003
 51
270.0
  0
LINE
  5
96
330
1F
100
AcDbEntity
  8
A-5
  6
JWW_CENTER1
 62
     4
370
     9
100
AcDbLine
 10
-1488.772782780559
 20
754.5031998103705
 30
0.0
 11
-1488.772782780559
 21
600.5580532227145
 31
0.0
  0
LINE
  5
97
330
1F
100
AcDbEntity
  8
A-5
  6
Continuous
 62
     3
370
     9
100
AcDbLine
 10
-1488.772782780559
 20
697.5145912901343
 30
0.0
 11
-110.1228000188663
 21
697.5080385265
 31
0.0
  0
LINE
  5
98
330
1F
100
AcDbEntity
  8
A-5
  6
Continuous
 62
     3
370
     9
100
AcDbLine
 10
-1488.772782780559
 20
654.8145939271408
 30
0.0
 11
-110.1228000188663
 21
654.8080411679562
 31
0.0
  0
LINE
  5
99
330
1F
100
AcDbEntity
  8
A-5
  6
JWW_CENTER1
 62
     4
370
     9
100
AcDbLine
 10
-1588.019341719105
 20
676.1654780129641
 30
0.0
 11
-110.1228000188663
 21
676.1574500296181
 31
0.0
  0
TEXT
  5
9A
330
1F
100
AcDbEntity
  8
A-5
  6
Continuous
 62
     2
370
   211
100
AcDbText
 10
922.0892098793058
 20
-249.3262340394896
 30
0.0
 40
30.48
  1
2.0
 41
1.083333333333333
  7
ＭＳ ゴシック
100
AcDbText
  0
TEXT
  5
9B
330
1F
100
AcDbEntity
  8
A-F
  6
Continuous
 62
     2
370
     9
100
AcDbText
 10
-1418.664344360616
 20
-144.2659684265157
 30
0.0
 40
30.48
  1
R110
 50
315.00005728
 41
1.09375
  7
ＭＳ ゴシック
100
AcDbText
  0
TEXT
  5
9C
330
1F
100
AcDbEntity
  8
A-5
  6
Continuous
 62
     2
370
   211
100
AcDbText
 10
-1440.146534489327
 20
-276.7355789945557
 30
0.0
 40
30.48
  1
φ42.7
 41
1.104166666666667
  7
ＭＳ ゴシック
100
AcDbText
  0
LINE
  5
9D
330
1F
100
AcDbEntity
  8
A-5
  6
Continuous
 62
     3
370
     9
100
AcDbLine
 10
-1490.772782780558
 20
732.164938902343
 30
0.0
 11
-1486.772782780558
 21
732.164938902343
 31
0.0
  0
LINE
  5
9E
330
1F
100
AcDbEntity
  8
A-5
  6
Continuous
 62
     3
370
     9
100
AcDbLine
 10
-1490.772782780558
 20
720.1649389023431
 30
0.0
 11
-1486.772782780558
 21
720.1649389023431
 31
0.0
  0
ARC
  5
9F
330
1F
100
AcDbEntity
  8
A-5
  6
Continuous
 62
     3
370
     9
100
AcDbCircle
 10
-1486.772782780558
 20
726.1649389023431
 30
0.0
 40
6.000000000000001
100
AcDbArc
 50
270.0
 51
90.0
  0
ARC
  5
A0
330
1F
100
AcDbEntity
  8
A-5
  6
Continuous
 62
     3
370
     9
100
AcDbCircle
 10
-1490.772782780558
 20
726.1649389023431
 30
0.0
 40
6.000000000000001
100
AcDbArc
 50
90.00000000000003
 51
270.0
  0
LINE
  5
A1
330
1F
100
AcDbEntity
  8
A-5
  6
JWW_CENTER2
 62
     4
370
     9
100
AcDbLine
 10
-1500.273448212877
 20
726.1649389023431
 30
0.0
 11
-1476.478943897471
 21
726.1649389023431
 31
0.0
  0
LINE
  5
A2
330
1F
100
AcDbEntity
  8
A-5
  6
Continuous
 62
     3
370
     9
100
AcDbLine
 10
-1468.772782780559
 20
746.1649389023431
 30
0.0
 11
-1508.772782780559
 21
746.1649389023431
 31
0.0
  0
ARC
  5
A3
330
1F
100
AcDbEntity
  8
A-5
  6
Continuous
 62
     3
370
     9
100
AcDbCircle
 10
-1468.772782780559
 20
738.6649389023431
 30
0.0
 40
7.5
100
AcDbArc
 50
0.0
 51
90.00000000000001
  0
LINE
  5
A4
330
1F
100
AcDbEntity
  8
A-5
  6
Continuous
 62
     3
370
     9
100
AcDbLine
 10
-1516.272782780559
 20
613.6649389023431
 30
0.0
 11
-1516.272782780559
 21
738.6649389023431
 31
0.0
  0
ARC
  5
A5
330
1F
100
AcDbEntity
  8
A-5
  6
Continuous
 62
     3
370
     9
100
AcDbCircle
 10
-1508.772782780559
 20
613.6649389023431
 30
0.0
 40
7.5
100
AcDbArc
 50
180.0
 51
270.0
  0
LINE
  5
A6
330
1F
100
AcDbEntity
  8
A-5
  6
Continuous
 62
     3
370
     9
100
AcDbLine
 10
-1468.772782780559
 20
606.1649389023431
 30
0.0
 11
-1508.772782780559
 21
606.1649389023431
 31
0.0
  0
ARC
  5
A7
330
1F
100
AcDbEntity
  8
A-5
  6
Continuous
 62
     3
370
     9
100
AcDbCircle
 10
-1468.772782780559
 20
613.6649389023431
 30
0.0
 40
7.5
100
AcDbArc
 50
270.0
 51
0.0
  0
LINE
  5
A8
330
1F
100
AcDbEntity
  8
A-5
  6
Continuous
 62
     3
370
     9
100
AcDbLine
 10
-1490.772782780558
 20
620.1649389023431
 30
0.0
 11
-1486.772782780558
 21
620.1649389023431
 31
0.0
  0
LINE
  5
A9
330
1F
100
AcDbEntity
  8
A-5
  6
Continuous
 62
     3
370
     9
100
AcDbLine
 10
-1490.772782780558
 20
632.164938902343
 30
0.0
 11
-1486.772782780558
 21
632.164938902343
 31
0.0
  0
ARC
  5
AA
330
1F
100
AcDbEntity
  8
A-5
  6
Continuous
 62
     3
370
     9
100
AcDbCircle
 10
-1486.772782780558
 20
626.1649389023431
 30
0.0
 40
6.000000000000001
100
AcDbArc
 50
270.0
 51
90.0
  0
ARC
  5
AB
330
1F
100
AcDbEntity
  8
A-5
  6
Continuous
 62
     3
370
     9
100
AcDbCircle
 10
-1490.772782780558
 20
626.1649389023431
 30
0.0
 40
6.000000000000001
100
AcDbArc
 50
90.0
 51
270.0
  0
LINE
  5
AC
330
1F
100
AcDbEntity
  8
A-5
  6
JWW_CENTER2
 62
     4
370
     9
100
AcDbLine
 10
-1500.273448212877
 20
626.1649389023431
 30
0.0
 11
-1476.478943897471
 21
626.1649389023431
 31
0.0
  0
LINE
  5
AD
330
1F
100
AcDbEntity
  8
A-5
  6
Continuous
 62
     3
370
     9
100
AcDbLine
 10
-1461.272782780559
 20
613.6649389023431
 30
0.0
 11
-1461.272782780559
 21
654.8149389023429
 31
0.0
  0
LINE
  5
AE
330
1F
100
AcDbEntity
  8
A-5
  6
Continuous
 62
     3
370
     9
100
AcDbLine
 10
-1461.272782780559
 20
697.514938902343
 30
0.0
 11
-1461.272782780559
 21
738.6649389023431
 31
0.0
  0
ARC
  5
AF
330
1F
100
AcDbEntity
  8
A-5
  6
Continuous
 62
     3
370
     9
100
AcDbCircle
 10
-1508.772782780559
 20
738.6649389023431
 30
0.0
 40
7.5
100
AcDbArc
 50
90.0
 51
175.6024518509823
  0
ARC
  5
B0
330
1F
100
AcDbEntity
  8
A-5
  6
Continuous
 62
     3
370
     9
100
AcDbCircle
 10
-1508.772782780559
 20
738.6649389023431
 30
0.0
 40
7.5
100
AcDbArc
 50
175.6024518509823
 51
180.0
  0
ARC
  5
B1
330
1F
100
AcDbEntity
  8
A-5
  6
JWW_DASHED3
 62
     3
370
     9
100
AcDbCircle
 10
-1488.772798699187
 20
676.164938902343
 30
0.0
 40
21.35
100
AcDbArc
 50
270.0
 51
90.0
  0
LINE
  5
B2
330
1F
100
AcDbEntity
  8
A-5
  6
JWW_DASHED3
 62
     3
370
     9
100
AcDbLine
 10
-1461.272782780559
 20
697.514938902343
 30
0.0
 11
-1461.272782780559
 21
654.8149389023429
 31
0.0
  0
LINE
  5
B3
330
1F
100
AcDbEntity
  8
A-5
  6
Continuous
 62
     7
370
     9
100
AcDbLine
 10
841.0272013008125
 20
822.443573555116
 30
0.0
 11
841.0272013008125
 21
752.9425767015825
 31
0.0
  0
LINE
  5
B4
330
1F
100
AcDbEntity
  8
A-5
  6
Continuous
 62
     7
370
     9
100
AcDbLine
 10
896.0272013008125
 20
819.4435735551161
 30
0.0
 11
841.0272013008125
 21
819.4435735551161
 31
0.0
  0
LINE
  5
B5
330
1F
100
AcDbEntity
  8
A-5
  6
Continuous
 62
     7
370
     9
100
AcDbLine
 10
896.0272013008125
 20
822.443573555116
 30
0.0
 11
896.0272013008125
 21
752.9425767015825
 31
0.0
  0
ARC
  5
B6
330
1F
100
AcDbEntity
  8
A-5
  6
JWW_DASHED3
 62
     3
370
     9
100
AcDbCircle
 10
868.5272013008125
 20
676.162766089092
 30
0.0
 40
21.35
100
AcDbArc
 50
90.0
 51
270.0
  0
LINE
  5
B7
330
1F
100
AcDbEntity
  8
A-5
  6
Continuous
 62
     3
370
     9
100
AcDbLine
 10
866.5272013008132
 20
732.1627660890921
 30
0.0
 11
870.5272013008118
 21
732.1627660890921
 31
0.0
  0
LINE
  5
B8
330
1F
100
AcDbEntity
  8
A-5
  6
Continuous
 62
     3
370
     9
100
AcDbLine
 10
866.5272013008132
 20
720.1627660890921
 30
0.0
 11
870.5272013008118
 21
720.1627660890921
 31
0.0
  0
ARC
  5
B9
330
1F
100
AcDbEntity
  8
A-5
  6
Continuous
 62
     3
370
     9
100
AcDbCircle
 10
870.5272013008118
 20
726.162766089092
 30
0.0
 40
6.000000000000001
100
AcDbArc
 50
270.0
 51
90.0
  0
ARC
  5
BA
330
1F
100
AcDbEntity
  8
A-5
  6
Continuous
 62
     3
370
     9
100
AcDbCircle
 10
866.5272013008132
 20
726.162766089092
 30
0.0
 40
6.000000000000001
100
AcDbArc
 50
90.00000000000003
 51
270.0
  0
LINE
  5
BB
330
1F
100
AcDbEntity
  8
A-5
  6
JWW_CENTER2
 62
     4
370
     9
100
AcDbLine
 10
857.0265358684935
 20
726.162766089092
 30
0.0
 11
880.8210401839005
 21
726.162766089092
 31
0.0
  0
ARC
  5
BC
330
1F
100
AcDbEntity
  8
A-5
  6
Continuous
 62
     3
370
     9
100
AcDbCircle
 10
848.5272013008125
 20
738.662766089092
 30
0.0
 40
7.5
100
AcDbArc
 50
90.0
 51
180.0
  0
LINE
  5
BD
330
1F
100
AcDbEntity
  8
A-5
  6
Continuous
 62
     3
370
     9
100
AcDbLine
 10
888.5272013008125
 20
746.162766089092
 30
0.0
 11
848.5272013008125
 21
746.162766089092
 31
0.0
  0
ARC
  5
BE
330
1F
100
AcDbEntity
  8
A-5
  6
Continuous
 62
     3
370
     9
100
AcDbCircle
 10
888.5272013008125
 20
738.662766089092
 30
0.0
 40
7.5
100
AcDbArc
 50
0.0
 51
90.00000000000001
  0
ARC
  5
BF
330
1F
100
AcDbEntity
  8
A-5
  6
Continuous
 62
     3
370
     9
100
AcDbCircle
 10
848.5272013008125
 20
613.662766089092
 30
0.0
 40
7.5
100
AcDbArc
 50
180.0
 51
270.0
  0
LINE
  5
C0
330
1F
100
AcDbEntity
  8
A-5
  6
Continuous
 62
     3
370
     9
100
AcDbLine
 10
896.0272013008125
 20
613.662766089092
 30
0.0
 11
896.0272013008125
 21
738.662766089092
 31
0.0
  0
LINE
  5
C1
330
1F
100
AcDbEntity
  8
A-5
  6
Continuous
 62
     3
370
     9
100
AcDbLine
 10
888.5272013008125
 20
606.162766089092
 30
0.0
 11
848.5272013008125
 21
606.162766089092
 31
0.0
  0
ARC
  5
C2
330
1F
100
AcDbEntity
  8
A-5
  6
Continuous
 62
     3
370
     9
100
AcDbCircle
 10
888.5272013008125
 20
613.662766089092
 30
0.0
 40
7.5
100
AcDbArc
 50
270.0
 51
0.0
  0
LINE
  5
C3
330
1F
100
AcDbEntity
  8
A-5
  6
Continuous
 62
     3
370
     9
100
AcDbLine
 10
866.5272013008132
 20
620.1627660890921
 30
0.0
 11
870.5272013008118
 21
620.1627660890921
 31
0.0
  0
LINE
  5
C4
330
1F
100
AcDbEntity
  8
A-5
  6
Continuous
 62
     3
370
     9
100
AcDbLine
 10
866.5272013008132
 20
632.1627660890921
 30
0.0
 11
870.5272013008118
 21
632.1627660890921
 31
0.0
  0
ARC
  5
C5
330
1F
100
AcDbEntity
  8
A-5
  6
Continuous
 62
     3
370
     9
100
AcDbCircle
 10
870.5272013008118
 20
626.162766089092
 30
0.0
 40
6.000000000000001
100
AcDbArc
 50
270.0
 51
90.0
  0
ARC
  5
C6
330
1F
100
AcDbEntity
  8
A-5
  6
Continuous
 62
     3
370
     9
100
AcDbCircle
 10
866.5272013008132
 20
626.162766089092
 30
0.0
 40
6.000000000000001
100
AcDbArc
 50
90.0
 51
270.0
  0
LINE
  5
C7
330
1F
100
AcDbEntity
  8
A-5
  6
JWW_CENTER2
 62
     4
370
     9
100
AcDbLine
 10
857.0265358684935
 20
626.162766089092
 30
0.0
 11
880.8210401839005
 21
626.162766089092
 31
0.0
  0
LINE
  5
C8
330
1F
100
AcDbEntity
  8
A-5
  6
Continuous
 62
     3
370
     9
100
AcDbLine
 10
841.0272013008125
 20
697.5127660890919
 30
0.0
 11
841.0272013008125
 21
738.662766089092
 31
0.0
  0
LINE
  5
C9
330
1F
100
AcDbEntity
  8
A-5
  6
Continuous
 62
     3
370
     9
100
AcDbLine
 10
841.0272013008125
 20
613.662766089092
 30
0.0
 11
841.0272013008125
 21
654.812766089092
 31
0.0
  0
LINE
  5
CA
330
1F
100
AcDbEntity
  8
A-5
  6
JWW_DASHED3
 62
     3
370
     9
100
AcDbLine
 10
841.0272013008125
 20
697.5127660890919
 30
0.0
 11
841.0272013008125
 21
654.812766089092
 31
0.0
  0
LINE
  5
CB
330
1F
100
AcDbEntity
  8
A-5
  6
Continuous
 62
     7
370
     9
100
AcDbLine
 10
995.4325025347077
 20
746.162766089092
 30
0.0
 11
995.4325025347077
 21
606.162766089092
 31
0.0
  0
LINE
  5
CC
330
1F
100
AcDbEntity
  8
A-5
  6
Continuous
 62
     7
370
     9
100
AcDbLine
 10
998.4325025347084
 20
746.162766089092
 30
0.0
 11
904.2492825819761
 21
746.162766089092
 31
0.0
  0
LINE
  5
CD
330
1F
100
AcDbEntity
  8
A-5
  6
Continuous
 62
     7
370
     9
100
AcDbLine
 10
782.3984749293697
 20
726.162766089092
 30
0.0
 11
782.3984749293697
 21
626.162766089092
 31
0.0
  0
LINE
  5
CE
330
1F
100
AcDbEntity
  8
A-5
  6
Continuous
 62
     7
370
     9
100
AcDbLine
 10
779.3984749293702
 20
726.162766089092
 30
0.0
 11
828.5791806994177
 21
726.162766089092
 31
0.0
  0
LINE
  5
CF
330
1F
100
AcDbEntity
  8
A-5
  6
Continuous
 62
     7
370
     9
100
AcDbLine
 10
779.3984749293702
 20
626.162766089092
 30
0.0
 11
828.5791806994177
 21
626.162766089092
 31
0.0
  0
LINE
  5
D0
330
1F
100
AcDbEntity
  8
A-5
  6
Continuous
 62
     7
370
     9
100
AcDbLine
 10
873.764453918858
 20
731.6090712077687
 30
0.0
 11
957.537864812042
 21
815.3824821009528
 31
0.0
  0
LINE
  5
D1
330
1F
100
AcDbEntity
  8
A-5
  6
Continuous
 62
     7
370
     9
100
AcDbLine
 10
957.537864812042
 20
815.3824821009528
 30
0.0
 11
1159.293654269999
 21
815.3824821009528
 31
0.0
  0
LINE
  5
D2
330
1F
100
AcDbEntity
  8
A-5
  6
Continuous
 62
     7
370
     9
100
AcDbLine
 10
998.4325025347084
 20
606.162766089092
 30
0.0
 11
927.8856404381361
 21
606.162766089092
 31
0.0
  0
TEXT
  5
D3
330
1F
100
AcDbEntity
  8
A-5
  6
Continuous
 62
     2
370
   211
100
AcDbText
 10
773.6545198220605
 20
638.4900360047925
 30
0.0
 40
30.48
  1
100
 50
90.0
 41
1.083333333333333
  7
ＭＳ ゴシック
100
AcDbText
  0
TEXT
  5
D4
330
1F
100
AcDbEntity
  8
A-5
  6
Continuous
 62
     2
370
   211
100
AcDbText
 10
847.2772013008125
 20
830.0835735551161
 30
0.0
 40
30.48
  1
55
 41
1.0625
  7
ＭＳ ゴシック
100
AcDbText
  0
TEXT
  5
D5
330
1F
100
AcDbEntity
  8
A-5
  6
Continuous
 62
     2
370
   211
100
AcDbText
 10
984.7925025347078
 20
643.662766089092
 30
0.0
 40
30.48
  1
140
 50
90.0
 41
1.083333333333333
  7
ＭＳ ゴシック
100
AcDbText
  0
TEXT
  5
D6
330
1F
100
AcDbEntity
  8
A-5
  6
Continuous
 62
     7
370
     9
100
AcDbText
 10
961.4952505352369
 20
820.2510760585221
 30
0.0
 40
22.86
  1
2－φ12×16
 41
1.151515151515152
  7
ＭＳ ゴシック
100
AcDbText
  0
LINE
  5
D7
330
1F
100
AcDbEntity
  8
A-5
  6
Continuous
 62
     7
370
     9
100
AcDbLine
 10
841.0272013008125
 20
819.4435735551161
 30
0.0
 11
865.8133228351574
 21
822.7067283606175
 31
0.0
  0
LINE
  5
D8
330
1F
100
AcDbEntity
  8
A-5
  6
Continuous
 62
     7
370
     9
100
AcDbLine
 10
841.0272013008125
 20
819.4435735551161
 30
0.0
 11
865.8133228351574
 21
816.1804187496148
 31
0.0
  0
LINE
  5
D9
330
1F
100
AcDbEntity
  8
A-5
  6
Continuous
 62
     7
370
     9
100
AcDbLine
 10
896.0272013008125
 20
819.4435735551161
 30
0.0
 11
871.2410797664677
 21
816.1804187496148
 31
0.0
  0
LINE
  5
DA
330
1F
100
AcDbEntity
  8
A-5
  6
Continuous
 62
     7
370
     9
100
AcDbLine
 10
896.0272013008125
 20
819.4435735551161
 30
0.0
 11
871.2410797664677
 21
822.7067283606175
 31
0.0
  0
LINE
  5
DB
330
1F
100
AcDbEntity
  8
A-5
  6
Continuous
 62
     7
370
     9
100
AcDbLine
 10
995.4325025347077
 20
746.162766089092
 30
0.0
 11
998.6956573402097
 21
721.3766445547467
 31
0.0
  0
LINE
  5
DC
330
1F
100
AcDbEntity
  8
A-5
  6
Continuous
 62
     7
370
     9
100
AcDbLine
 10
995.4325025347077
 20
746.162766089092
 30
0.0
 11
992.169347729207
 21
721.3766445547467
 31
0.0
  0
LINE
  5
DD
330
1F
100
AcDbEntity
  8
A-5
  6
Continuous
 62
     7
370
     9
100
AcDbLine
 10
995.4325025347077
 20
606.162766089092
 30
0.0
 11
992.169347729207
 21
630.9488876234373
 31
0.0
  0
LINE
  5
DE
330
1F
100
AcDbEntity
  8
A-5
  6
Continuous
 62
     7
370
     9
100
AcDbLine
 10
995.4325025347077
 20
606.162766089092
 30
0.0
 11
998.6956573402097
 21
630.9488876234373
 31
0.0
  0
LINE
  5
DF
330
1F
100
AcDbEntity
  8
A-5
  6
Continuous
 62
     7
370
     9
100
AcDbLine
 10
782.3984749293697
 20
626.162766089092
 30
0.0
 11
779.135320123869
 21
650.9488876234373
 31
0.0
  0
LINE
  5
E0
330
1F
100
AcDbEntity
  8
A-5
  6
Continuous
 62
     7
370
     9
100
AcDbLine
 10
782.3984749293697
 20
626.162766089092
 30
0.0
 11
785.6616297348717
 21
650.9488876234373
 31
0.0
  0
LINE
  5
E1
330
1F
100
AcDbEntity
  8
A-5
  6
Continuous
 62
     7
370
     9
100
AcDbLine
 10
782.3984749293697
 20
726.162766089092
 30
0.0
 11
785.6616297348717
 21
701.3766445547467
 31
0.0
  0
LINE
  5
E2
330
1F
100
AcDbEntity
  8
A-5
  6
Continuous
 62
     7
370
     9
100
AcDbLine
 10
782.3984749293697
 20
726.162766089092
 30
0.0
 11
779.135320123869
 21
701.3766445547467
 31
0.0
  0
LINE
  5
E3
330
1F
100
AcDbEntity
  8
A-5
  6
Continuous
 62
     7
370
     9
100
AcDbLine
 10
873.764453918858
 20
731.6090712077687
 30
0.0
 11
888.9834896440755
 21
751.4429047150495
 31
0.0
  0
LINE
  5
E4
330
1F
100
AcDbEntity
  8
A-5
  6
Continuous
 62
     7
370
     9
100
AcDbLine
 10
873.764453918858
 20
731.6090712077687
 30
0.0
 11
893.598287426139
 21
746.8281069329868
 31
0.0
  0
LINE
  5
E5
330
1F
100
AcDbEntity
  8
A-5
  6
JWW_DASHED3
 62
     3
370
     9
100
AcDbLine
 10
-1510.122790739873
 20
-414.1581326273779
 30
0.0
 11
-1510.122790739873
 21
-419.1677526024789
 31
0.0
  0
LINE
  5
E6
330
1F
100
AcDbEntity
  8
A-5
  6
JWW_DASHED3
 62
     3
370
     9
100
AcDbLine
 10
-1467.422802658225
 20
-414.1579204458565
 30
0.0
 11
-1467.422802658225
 21
-419.1677526024789
 31
0.0
  0
LINE
  5
E7
330
1F
100
AcDbEntity
  8
A-5
  6
JWW_DASHED3
 62
     7
370
     9
100
AcDbLine
 10
-1480.772801338545
 20
-414.1579867836508
 30
0.0
 11
-1480.772801338545
 21
-419.1677526024789
 31
0.0
  0
LINE
  5
E8
330
1F
100
AcDbEntity
  8
A-5
  6
JWW_DASHED3
 62
     7
370
     9
100
AcDbLine
 10
-1496.772801338545
 20
-414.1580662896296
 30
0.0
 11
-1496.772801338545
 21
-419.1677526024789
 31
0.0
  0
LINE
  5
E9
330
1F
100
AcDbEntity
  8
A-5
  6
Continuous
 62
     3
370
     9
100
AcDbLine
 10
-1461.272801338545
 20
-414.1578898857392
 30
0.0
 11
-1516.272801338545
 21
-414.1581631875413
 31
0.0
  0
LINE
  5
EA
330
1F
100
AcDbEntity
  8
A-5
  6
Continuous
 62
     3
370
     9
100
AcDbLine
 10
-1516.272801338545
 20
-419.1677526024789
 30
0.0
 11
-1461.272801338545
 21
-419.1677526024789
 31
0.0
  0
LINE
  5
EB
330
1F
100
AcDbEntity
  8
A-5
  6
Continuous
 62
     3
370
     9
100
AcDbLine
 10
-1516.272801338545
 20
-414.1581631875413
 30
0.0
 11
-1516.272801338545
 21
-419.1677526024789
 31
0.0
  0
LINE
  5
EC
330
1F
100
AcDbEntity
  8
A-5
  6
Continuous
 62
     3
370
     9
100
AcDbLine
 10
-1461.272801338545
 20
-414.1578898857392
 30
0.0
 11
-1461.272801338545
 21
-419.1677526024789
 31
0.0
  0
LINE
  5
ED
330
1F
100
AcDbEntity
  8
A-5
  6
JWW_DASHED3
 62
     3
370
     9
100
AcDbLine
 10
847.1772118994852
 20
-414.1484065616008
 30
0.0
 11
847.1772118994852
 21
-419.1580265367019
 31
0.0
  0
LINE
  5
EE
330
1F
100
AcDbEntity
  8
A-5
  6
JWW_DASHED3
 62
     3
370
     9
100
AcDbLine
 10
889.8771999811333
 20
-414.1481943800794
 30
0.0
 11
889.8771999811333
 21
-419.1580265367019
 31
0.0
  0
LINE
  5
EF
330
1F
100
AcDbEntity
  8
A-5
  6
JWW_DASHED3
 62
     7
370
     9
100
AcDbLine
 10
876.5272013008121
 20
-414.1482607178738
 30
0.0
 11
876.5272013008121
 21
-419.1580265367019
 31
0.0
  0
LINE
  5
F0
330
1F
100
AcDbEntity
  8
A-5
  6
JWW_DASHED3
 62
     7
370
     9
100
AcDbLine
 10
860.5272013008118
 20
-414.1483402238525
 30
0.0
 11
860.5272013008118
 21
-419.1580265367019
 31
0.0
  0
LINE
  5
F1
330
1F
100
AcDbEntity
  8
A-5
  6
Continuous
 62
     3
370
     9
100
AcDbLine
 10
896.0272013008125
 20
-414.1481638199621
 30
0.0
 11
841.0272013008125
 21
-414.1484371217642
 31
0.0
  0
LINE
  5
F2
330
1F
100
AcDbEntity
  8
A-5
  6
Continuous
 62
     3
370
     9
100
AcDbLine
 10
841.0272013008125
 20
-414.1484371217642
 30
0.0
 11
841.0272013008125
 21
-419.1580265367019
 31
0.0
  0
LINE
  5
F3
330
1F
100
AcDbEntity
  8
A-5
  6
Continuous
 62
     3
370
     9
100
AcDbLine
 10
896.0272013008125
 20
-414.1481638199621
 30
0.0
 11
896.0272013008125
 21
-419.1580265367019
 31
0.0
  0
LINE
  5
F4
330
1F
100
AcDbEntity
  8
A-5
  6
JWW_DASHED3
 62
     3
370
     9
100
AcDbLine
 10
1321.015849175766
 20
-414.1581326273778
 30
0.0
 11
1321.015849175766
 21
-419.1677526024788
 31
0.0
  0
LINE
  5
F5
330
1F
100
AcDbEntity
  8
A-5
  6
JWW_DASHED3
 62
     3
370
     9
100
AcDbLine
 10
1363.715837257415
 20
-414.1579204458563
 30
0.0
 11
1363.715837257415
 21
-419.1677526024788
 31
0.0
  0
LINE
  5
F6
330
1F
100
AcDbEntity
  8
A-5
  6
Continuous
 62
     3
370
     9
100
AcDbLine
 10
1412.365838577094
 20
-414.1576786979831
 30
0.0
 11
1272.365838577094
 21
-414.1583743752972
 31
0.0
  0
LINE
  5
F7
330
1F
100
AcDbEntity
  8
A-5
  6
Continuous
 62
     3
370
     9
100
AcDbLine
 10
1272.365838577094
 20
-414.1583743752972
 30
0.0
 11
1272.365838577094
 21
-419.1580265367019
 31
0.0
  0
LINE
  5
F8
330
1F
100
AcDbEntity
  8
A-5
  6
Continuous
 62
     3
370
     9
100
AcDbLine
 10
1412.365838577094
 20
-414.1576786979831
 30
0.0
 11
1412.365838577094
 21
-419.1580265367019
 31
0.0
  0
LINE
  5
F9
330
1F
100
AcDbEntity
  8
A-5
  6
JWW_DASHED3
 62
     7
370
     9
100
AcDbLine
 10
1299.365838577095
 20
-419.1483004709247
 30
0.0
 11
1299.365838577095
 21
-414.1581656721029
 31
0.0
  0
LINE
  5
FA
330
1F
100
AcDbEntity
  8
A-5
  6
JWW_DASHED3
 62
     7
370
     9
100
AcDbLine
 10
1285.365838577094
 20
-419.1483004709247
 30
0.0
 11
1285.365838577094
 21
-414.1582352398342
 31
0.0
  0
LINE
  5
FB
330
1F
100
AcDbEntity
  8
A-5
  6
JWW_DASHED3
 62
     7
370
     9
100
AcDbLine
 10
1385.365838577094
 20
-419.1483004709247
 30
0.0
 11
1385.365838577094
 21
-414.1581656721029
 31
0.0
  0
LINE
  5
FC
330
1F
100
AcDbEntity
  8
A-5
  6
JWW_DASHED3
 62
     7
370
     9
100
AcDbLine
 10
1399.365838577094
 20
-419.1483004709247
 30
0.0
 11
1399.365838577094
 21
-414.1582352398342
 31
0.0
  0
LINE
  5
FD
330
1F
100
AcDbEntity
  8
A-5
  6
JWW_CENTER1
 62
     4
370
     9
100
AcDbLine
 10
1392.365838577094
 20
-444.8124431392154
 30
0.0
 11
1392.365838577094
 21
-391.6499988965577
 31
0.0
  0
LINE
  5
FE
330
1F
100
AcDbEntity
  8
A-5
  6
JWW_CENTER1
 62
     4
370
     9
100
AcDbLine
 10
1292.365838577094
 20
-444.8124431392154
 30
0.0
 11
1292.365838577094
 21
-391.6499988965577
 31
0.0
  0
LINE
  5
FF
330
1F
100
AcDbEntity
  8
A-5
  6
Continuous
 62
     7
370
     9
100
AcDbLine
 10
1456.242951259666
 20
-601.7001301864685
 30
0.0
 11
1849.827395037302
 21
-601.7001301864685
 31
0.0
  0
TEXT
  5
100
330
1F
100
AcDbEntity
  8
A-5
  6
Continuous
 62
     7
370
     9
100
AcDbText
 10
1463.230654783624
 20
-596.6143431537434
 30
0.0
 40
22.86
  1
ベースプレート：SUS304
 41
1.159090909090909
  7
ＭＳ ゴシック
100
AcDbText
  0
TEXT
  5
101
330
1F
100
AcDbEntity
  8
A-5
  6
Continuous
 62
     7
370
     9
100
AcDbText
 10
1466.545292068125
 20
-635.4904835000777
 30
0.0
 40
22.86
  1
ヘアライン仕上、ｔ=5.0
 41
1.159090909090909
  7
ＭＳ ゴシック
100
AcDbText
  0
LINE
  5
102
330
1F
100
AcDbEntity
  8
A-5
  6
Continuous
 62
     7
370
     9
100
AcDbLine
 10
1351.399106604821
 20
-420.1052643834177
 30
0.0
 11
1456.242951259666
 21
-601.7001301864685
 31
0.0
  0
LINE
  5
103
330
1F
100
AcDbEntity
  8
A-5
  6
Continuous
 62
     7
370
     9
100
AcDbLine
 10
1351.399106604821
 20
-420.1052643834177
 30
0.0
 11
1360.966192413948
 21
-443.2022526961998
 31
0.0
  0
LINE
  5
104
330
1F
100
AcDbEntity
  8
A-5
  6
Continuous
 62
     7
370
     9
100
AcDbLine
 10
1351.399106604821
 20
-420.1052643834177
 30
0.0
 11
1366.618142330039
 21
-439.9390978906986
 31
0.0
  0
ENDSEC
  0
SECTION
  2
OBJECTS
  0
DICTIONARY
  5
C
330
0
100
AcDbDictionary
281
     1
  3
ACAD_GROUP
350
D
  3
ACAD_LAYOUT
350
1A
  3
ACAD_MLEADERSTYLE
350
106
  3
ACAD_MLINESTYLE
350
17
  3
ACAD_PLOTSETTINGS
350
19
  3
ACAD_PLOTSTYLENAME
350
E
  3
ACAD_TABLESTYLE
350
105
  3
ACAD_VISUALSTYLE
350
2A
  3
AcDbVariableDictionary
350
107
  0
DICTIONARY
  5
D
102
{ACAD_REACTORS
330
C
102
}
330
C
100
AcDbDictionary
281
     1
  0
DICTIONARY
  5
1A
102
{ACAD_REACTORS
330
C
102
}
330
C
100
AcDbDictionary
281
     1
  3
Layout1
350
1E
  3
Layout2
350
26
  3
Model
350
22
  0
DICTIONARY
  5
106
102
{ACAD_REACTORS
330
C
102
}
330
C
100
AcDbDictionary
281
     1
  0
DICTIONARY
  5
17
102
{ACAD_REACTORS
330
C
102
}
330
C
100
AcDbDictionary
281
     1
  3
Standard
350
18
  0
DICTIONARY
  5
19
102
{ACAD_REACTORS
330
C
102
}
330
C
100
AcDbDictionary
281
     1
  0
ACDBDICTIONARYWDFLT
  5
E
102
{ACAD_REACTORS
330
C
102
}
330
C
100
AcDbDictionary
281
     1
  3
Normal
350
F
100
AcDbDictionaryWithDefault
340
F
  0
DICTIONARY
  5
105
102
{ACAD_REACTORS
330
C
102
}
330
C
100
AcDbDictionary
281
     1
  0
DICTIONARY
  5
2A
102
{ACAD_REACTORS
330
C
102
}
330
C
100
AcDbDictionary
281
     1
  3
2dWireframe
350
2F
  3
3D Hidden
350
31
  3
3dWireframe
350
30
  3
Basic
350
32
  3
Brighten
350
36
  3
ColorChange
350
3A
  3
Conceptual
350
34
  3
Dim
350
35
  3
Facepattern
350
39
  3
Flat
350
2B
  3
FlatWithEdges
350
2C
  3
Gouraud
350
2D
  3
GouraudWithEdges
350
2E
  3
Linepattern
350
38
  3
Realistic
350
33
  3
Thicken
350
37
  0
DICTIONARY
  5
107
102
{ACAD_REACTORS
330
C
102
}
330
C
100
AcDbDictionary
281
     1
  3
PSOLHEIGHT
350
109
  3
PSOLWIDTH
350
108
  0
LAYOUT
  5
1E
102
{ACAD_REACTORS
330
1A
102
}
102
{ACAD_XDICTIONARY
360
10A
102
}
330
1A
100
AcDbPlotSettings
  1

  2
none_device
  4

  6

 40
0.0
 41
0.0
 42
0.0
 43
0.0
 44
0.0
 45
0.0
 46
0.0
 47
0.0
 48
0.0
 49
0.0
140
0.0
141
0.0
142
1.0
143
1.0
 70
   688
 72
     0
 73
     0
 74
     5
  7

 75
    16
147
1.0
148
0.0
149
0.0
100
AcDbLayout
  1
Layout1
 70
     1
 71
     1
 10
0.0
 20
0.0
 11
420.0
 21
297.0
 12
0.0
 22
0.0
 32
0.0
 14
1.000000000000000E+20
 24
1.000000000000000E+20
 34
1.000000000000000E+20
 15
-1.000000000000000E+20
 25
-1.000000000000000E+20
 35
-1.000000000000000E+20
146
0.0
 13
0.0
 23
0.0
 33
0.0
 16
1.0
 26
0.0
 36
0.0
 17
0.0
 27
1.0
 37
0.0
 76
     0
330
1B
  0
LAYOUT
  5
26
102
{ACAD_REACTORS
330
1A
102
}
102
{ACAD_XDICTIONARY
360
10E
102
}
330
1A
100
AcDbPlotSettings
  1

  2
none_device
  4

  6

 40
0.0
 41
0.0
 42
0.0
 43
0.0
 44
0.0
 45
0.0
 46
0.0
 47
0.0
 48
0.0
 49
0.0
140
0.0
141
0.0
142
1.0
143
1.0
 70
   688
 72
     0
 73
     0
 74
     5
  7

 75
    16
147
1.0
148
0.0
149
0.0
100
AcDbLayout
  1
Layout2
 70
     1
 71
     2
 10
0.0
 20
0.0
 11
0.0
 21
0.0
 12
0.0
 22
0.0
 32
0.0
 14
0.0
 24
0.0
 34
0.0
 15
0.0
 25
0.0
 35
0.0
146
0.0
 13
0.0
 23
0.0
 33
0.0
 16
1.0
 26
0.0
 36
0.0
 17
0.0
 27
1.0
 37
0.0
 76
     0
330
23
  0
LAYOUT
  5
22
102
{ACAD_REACTORS
330
1A
102
}
102
{ACAD_XDICTIONARY
360
10C
102
}
330
1A
100
AcDbPlotSettings
  1

  2
none_device
  4

  6

 40
0.0
 41
0.0
 42
0.0
 43
0.0
 44
0.0
 45
0.0
 46
0.0
 47
0.0
 48
0.0
 49
0.0
140
0.0
141
0.0
142
1.0
143
1.0
 70
  1712
 72
     0
 73
     0
 74
     0
  7

 75
     0
147
1.0
148
0.0
149
0.0
100
AcDbLayout
  1
Model
 70
     1
 71
     0
 10
-2100.0
 20
-1485.0
 11
2100.0
 21
1485.0
 12
0.0
 22
0.0
 32
0.0
 14
-2100.0
 24
-1485.0
 34
0.0
 15
2100.0
 25
1485.0
 35
0.0
146
0.0
 13
0.0
 23
0.0
 33
0.0
 16
1.0
 26
0.0
 36
0.0
 17
0.0
 27
1.0
 37
0.0
 76
     0
330
1F
331
29
  0
MLINESTYLE
  5
18
102
{ACAD_REACTORS
330
17
102
}
330
17
100
AcDbMlineStyle
  2
Standard
 70
     0
  3

 62
   256
 51
90.0
 52
90.0
 71
     2
 49
0.5
 62
   256
  6
BYLAYER
 49
-0.5
 62
   256
  6
BYLAYER
  0
ACDBPLACEHOLDER
  5
F
102
{ACAD_REACTORS
330
E
102
}
330
E
  0
VISUALSTYLE
  5
2F
102
{ACAD_REACTORS
330
2A
102
}
330
2A
100
AcDbVisualStyle
  2
2dWireframe
 70
     4
 71
     0
 72
     2
 73
     0
 90
        0
 40
-0.6
 41
-30.0
 62
     5
 63
     7
 74
     1
 91
        4
 64
     7
 65
   257
 75
     1
175
     1
 42
1.0
 92
        0
 66
   257
 43
1.0
 76
     1
 77
     6
 78
     2
 67
     7
 79
     5
170
     0
171
     0
290
     0
174
     0
 93
        1
 44
0.0
173
     0
291
     0
 45
0.0
1001
ACAD
1000
AcDbSavedByObjectVersion
1070
     0
  0
VISUALSTYLE
  5
31
102
{ACAD_REACTORS
330
2A
102
}
330
2A
100
AcDbVisualStyle
  2
3D Hidden
 70
     6
 71
     1
 72
     2
 73
     2
 90
        0
 40
-0.6
 41
-30.0
 62
     5
 63
     7
 74
     2
 91
        2
 64
     7
 65
   257
 75
     2
175
     1
 42
40.0
 92
        0
 66
   257
 43
1.0
 76
     1
 77
     6
 78
     2
 67
     7
 79
     3
170
     0
171
     0
290
     0
174
     0
 93
        1
 44
0.0
173
     0
291
     0
 45
0.0
1001
ACAD
1000
AcDbSavedByObjectVersion
1070
     0
  0
VISUALSTYLE
  5
30
102
{ACAD_REACTORS
330
2A
102
}
330
2A
100
AcDbVisualStyle
  2
3dWireframe
 70
     5
 71
     0
 72
     2
 73
     0
 90
        0
 40
-0.6
 41
-30.0
 62
     5
 63
     7
 74
     1
 91
        4
 64
     7
 65
   257
 75
     1
175
     1
 42
1.0
 92
        0
 66
   257
 43
1.0
 76
     1
 77
     6
 78
     2
 67
     7
 79
     5
170
     0
171
     0
290
     0
174
     0
 93
        1
 44
0.0
173
     0
291
     0
 45
0.0
1001
ACAD
1000
AcDbSavedByObjectVersion
1070
     0
  0
VISUALSTYLE
  5
32
102
{ACAD_REACTORS
330
2A
102
}
330
2A
100
AcDbVisualStyle
  2
Basic
 70
     7
 71
     1
 72
     0
 73
     1
 90
        0
 40
-0.6
 41
-30.0
 62
     5
 63
     7
 74
     0
 91
        4
 64
     7
 65
   257
 75
     1
175
     1
 42
1.0
 92
        8
 66
     7
 43
1.0
 76
     1
 77
     6
 78
     2
 67
     7
 79
     5
170
     0
171
     0
290
     0
174
     0
 93
        1
 44
0.0
173
     0
291
     1
 45
0.0
1001
ACAD
1000
AcDbSavedByObjectVersion
1070
     0
  0
VISUALSTYLE
  5
36
102
{ACAD_REACTORS
330
2A
102
}
330
2A
100
AcDbVisualStyle
  2
Brighten
 70
    12
 71
     2
 72
     2
 73
     0
 90
        0
 40
-0.6
 41
-30.0
 62
     5
 63
     7
 74
     1
 91
        4
 64
     7
 65
   257
 75
     1
175
     1
 42
1.0
 92
        8
 66
     7
 43
1.0
 76
     1
 77
     6
 78
     2
 67
     7
 79
     5
170
     0
171
     0
290
     0
174
     0
 93
        1
 44
50.0
173
     0
291
     1
 45
0.0
1001
ACAD
1000
AcDbSavedByObjectVersion
1070
     0
  0
VISUALSTYLE
  5
3A
102
{ACAD_REACTORS
330
2A
102
}
330
2A
100
AcDbVisualStyle
  2
ColorChange
 70
    16
 71
     2
 72
     2
 73
     3
 90
        0
 40
-0.6
 41
-30.0
 62
     5
 63
     8
 74
     1
 91
        4
 64
     7
 65
   257
 75
     1
175
     1
 42
1.0
 92
        8
 66
     8
 43
1.0
 76
     1
 77
     6
 78
     2
 67
     7
 79
     5
170
     0
171
     0
290
     0
174
     0
 93
        1
 44
0.0
173
     0
291
     1
 45
0.0
1001
ACAD
1000
AcDbSavedByObjectVersion
1070
     0
  0
VISUALSTYLE
  5
34
102
{ACAD_REACTORS
330
2A
102
}
330
2A
100
AcDbVisualStyle
  2
Conceptual
 70
     9
 71
     3
 72
     2
 73
     0
 90
        0
 40
-0.6
 41
-30.0
 62
     5
 63
     7
 74
     2
 91
        2
 64
     7
 65
   257
 75
     1
175
     1
 42
40.0
 92
        8
 66
     7
 43
1.0
 76
     1
 77
     6
 78
     2
 67
     7
 79
     3
170
     0
171
     0
290
     0
174
     0
 93
        1
 44
0.0
173
     0
291
     0
 45
0.0
1001
ACAD
1000
AcDbSavedByObjectVersion
1070
     0
  0
VISUALSTYLE
  5
35
102
{ACAD_REACTORS
330
2A
102
}
330
2A
100
AcDbVisualStyle
  2
Dim
 70
    11
 71
     2
 72
     2
 73
     0
 90
        0
 40
-0.6
 41
-30.0
 62
     5
 63
     7
 74
     1
 91
        4
 64
     7
 65
   257
 75
     1
175
     1
 42
1.0
 92
        8
 66
     7
 43
1.0
 76
     1
 77
     6
 78
     2
 67
     7
 79
     5
170
     0
171
     0
290
     0
174
     0
 93
        1
 44
-50.0
173
     0
291
     1
 45
0.0
1001
ACAD
1000
AcDbSavedByObjectVersion
1070
     0
  0
VISUALSTYLE
  5
39
102
{ACAD_REACTORS
330
2A
102
}
330
2A
100
AcDbVisualStyle
  2
Facepattern
 70
    15
 71
     2
 72
     2
 73
     0
 90
        0
 40
-0.6
 41
-30.0
 62
     5
 63
     7
 74
     1
 91
        4
 64
     7
 65
   257
 75
     1
175
     1
 42
1.0
 92
        8
 66
     7
 43
1.0
 76
     1
 77
     6
 78
     2
 67
     7
 79
     5
170
     0
171
     0
290
     0
174
     0
 93
        1
 44
0.0
173
     0
291
     1
 45
0.0
1001
ACAD
1000
AcDbSavedByObjectVersion
1070
     0
  0
VISUALSTYLE
  5
2B
102
{ACAD_REACTORS
330
2A
102
}
330
2A
100
AcDbVisualStyle
  2
Flat
 70
     0
 71
     2
 72
     1
 73
     1
 90
        2
 40
-0.6
 41
30.0
 62
     5
 63
     7
 74
     0
 91
        4
 64
     7
 65
   257
 75
     1
175
     1
 42
1.0
 92
        8
 66
     7
 43
1.0
 76
     1
 77
     6
 78
     2
 67
     7
 79
     5
170
     0
171
     0
290
     0
174
     0
 93
       13
 44
0.0
173
     0
291
     1
 45
0.0
1001
ACAD
1000
AcDbSavedByObjectVersion
1070
     0
  0
VISUALSTYLE
  5
2C
102
{ACAD_REACTORS
330
2A
102
}
330
2A
100
AcDbVisualStyle
  2
FlatWithEdges
 70
     1
 71
     2
 72
     1
 73
     1
 90
        2
 40
-0.6
 41
30.0
 62
     5
 63
     7
 74
     1
 91
        4
 64
     7
 65
   257
 75
     1
175
     1
 42
1.0
 92
        0
 66
   257
 43
1.0
 76
     1
 77
     6
 78
     2
 67
     7
 79
     5
170
     0
171
     0
290
     0
174
     0
 93
       13
 44
0.0
173
     0
291
     1
 45
0.0
1001
ACAD
1000
AcDbSavedByObjectVersion
1070
     0
  0
VISUALSTYLE
  5
2D
102
{ACAD_REACTORS
330
2A
102
}
330
2A
100
AcDbVisualStyle
  2
Gouraud
 70
     2
 71
     2
 72
     2
 73
     1
 90
        2
 40
-0.6
 41
30.0
 62
     5
 63
     7
 74
     0
 91
        4
 64
     7
 65
   257
 75
     1
175
     1
 42
1.0
 92
        0
 66
     7
 43
1.0
 76
     1
 77
     6
 78
     2
 67
     7
 79
     5
170
     0
171
     0
290
     0
174
     0
 93
       13
 44
0.0
173
     0
291
     1
 45
0.0
1001
ACAD
1000
AcDbSavedByObjectVersion
1070
     0
  0
VISUALSTYLE
  5
2E
102
{ACAD_REACTORS
330
2A
102
}
330
2A
100
AcDbVisualStyle
  2
GouraudWithEdges
 70
     3
 71
     2
 72
     2
 73
     1
 90
        2
 40
-0.6
 41
30.0
 62
     5
 63
     7
 74
     1
 91
        4
 64
     7
 65
   257
 75
     1
175
     1
 42
1.0
 92
        0
 66
   257
 43
1.0
 76
     1
 77
     6
 78
     2
 67
     7
 79
     5
170
     0
171
     0
290
     0
174
     0
 93
       13
 44
0.0
173
     0
291
     1
 45
0.0
1001
ACAD
1000
AcDbSavedByObjectVersion
1070
     0
  0
VISUALSTYLE
  5
38
102
{ACAD_REACTORS
330
2A
102
}
330
2A
100
AcDbVisualStyle
  2
Linepattern
 70
    14
 71
     2
 72
     2
 73
     0
 90
        0
 40
-0.6
 41
-30.0
 62
     5
 63
     7
 74
     1
 91
        4
 64
     7
 65
   257
 75
     7
175
     7
 42
1.0
 92
        8
 66
     7
 43
1.0
 76
     1
 77
     6
 78
     2
 67
     7
 79
     5
170
     0
171
     0
290
     0
174
     0
 93
        1
 44
0.0
173
     0
291
     1
 45
0.0
1001
ACAD
1000
AcDbSavedByObjectVersion
1070
     0
  0
VISUALSTYLE
  5
33
102
{ACAD_REACTORS
330
2A
102
}
330
2A
100
AcDbVisualStyle
  2
Realistic
 70
     8
 71
     2
 72
     2
 73
     0
 90
        0
 40
-0.6
 41
-30.0
 62
     5
 63
     7
 74
     1
 91
        0
 64
     7
 65
   257
 75
     1
175
     1
 42
1.0
 92
        8
 66
     8
 43
1.0
 76
     1
 77
     6
 78
     2
 67
     7
 79
     5
170
     0
171
     0
290
     0
174
     0
 93
       13
 44
0.0
173
     0
291
     0
 45
0.0
1001
ACAD
1000
AcDbSavedByObjectVersion
1070
     0
  0
VISUALSTYLE
  5
37
102
{ACAD_REACTORS
330
2A
102
}
330
2A
100
AcDbVisualStyle
  2
Thicken
 70
    13
 71
     2
 72
     2
 73
     0
 90
        0
 40
-0.6
 41
-30.0
 62
     5
 63
     7
 74
     1
 91
        4
 64
     7
 65
   257
 75
     1
175
     1
 42
1.0
 92
       12
 66
     7
 43
1.0
 76
     1
 77
     6
 78
     2
 67
     7
 79
     5
170
     0
171
     0
290
     0
174
     0
 93
        1
 44
0.0
173
     0
291
     1
 45
0.0
1001
ACAD
1000
AcDbSavedByObjectVersion
1070
     0
  0
DICTIONARYVAR
  5
109
102
{ACAD_REACTORS
330
107
102
}
330
107
100
DictionaryVariables
280
     0
  1
80.000000
  0
DICTIONARYVAR
  5
108
102
{ACAD_REACTORS
330
107
102
}
330
107
100
DictionaryVariables
280
     0
  1
5.000000
  0
DICTIONARY
  5
10A
330
1E
100
AcDbDictionary
280
     1
281
     1
  3
ACAD_XREC_ROUNDTRIP
360
10B
  0
DICTIONARY
  5
10E
330
26
100
AcDbDictionary
280
     1
281
     1
  3
ACAD_XREC_ROUNDTRIP
360
10F
  0
DICTIONARY
  5
10C
330
22
100
AcDbDictionary
280
     1
281
     1
  3
ACAD_XREC_ROUNDTRIP
360
10D
  0
XRECORD
  5
10B
102
{ACAD_REACTORS
330
10A
102
}
330
10A
100
AcDbXrecord
280
     1
102
SHADEPLOT
 70
     0
102
SHADEPLOTRESLEVEL
 70
     5
102
SHADEPLOTCUSTOMDPI
 70
   300
  0
XRECORD
  5
10F
102
{ACAD_REACTORS
330
10E
102
}
330
10E
100
AcDbXrecord
280
     1
102
SHADEPLOT
 70
     0
102
SHADEPLOTRESLEVEL
 70
     5
102
SHADEPLOTCUSTOMDPI
 70
   300
  0
XRECORD
  5
10D
102
{ACAD_REACTORS
330
10C
102
}
330
10C
100
AcDbXrecord
280
     1
102
SHADEPLOT
 70
     0
102
SHADEPLOTRESLEVEL
 70
     5
102
SHADEPLOTCUSTOMDPI
 70
   300
  0
ENDSEC
  0
EOF
