  0
SECTION
  2
HEADER
  9
$ACADVER
  1
AC1015
  9
$ACADMAINTVER
 70
     6
  9
$DWGCODEPAGE
  3
ANSI_932
  9
$INSBASE
 10
0.0
 20
0.0
 30
0.0
  9
$EXTMIN
 10
-2100.0
 20
-1485.0
 30
0.0
  9
$EXTMAX
 10
2100.0
 20
1485.0
 30
0.0
  9
$LIMMIN
 10
-2100.0
 20
-1485.0
  9
$LIMMAX
 10
2100.0
 20
1485.0
  9
$ORTHOMODE
 70
     0
  9
$REGENMODE
 70
     1
  9
$FILLMODE
 70
     1
  9
$QTEXTMODE
 70
     0
  9
$MIRRTEXT
 70
     1
  9
$LTSCALE
 40
10.0
  9
$ATTMODE
 70
     1
  9
$TEXTSIZE
 40
2.5
  9
$TRACEWID
 40
1.0
  9
$TEXTSTYLE
  7
Standard
  9
$CLAYER
  8
0
  9
$CELTYPE
  6
ByLayer
  9
$CECOLOR
 62
   256
  9
$CELTSCALE
 40
1.0
  9
$DISPSILH
 70
     0
  9
$DIMSCALE
 40
1.0
  9
$DIMASZ
 40
2.5
  9
$DIMEXO
 40
0.625
  9
$DIMDLI
 40
3.75
  9
$DIMRND
 40
0.0
  9
$DIMDLE
 40
0.0
  9
$DIMEXE
 40
1.25
  9
$DIMTP
 40
0.0
  9
$DIMTM
 40
0.0
  9
$DIMTXT
 40
2.5
  9
$DIMCEN
 40
2.5
  9
$DIMTSZ
 40
0.0
  9
$DIMTOL
 70
     0
  9
$DIMLIM
 70
     0
  9
$DIMTIH
 70
     0
  9
$DIMTOH
 70
     0
  9
$DIMSE1
 70
     0
  9
$DIMSE2
 70
     0
  9
$DIMTAD
 70
     1
  9
$DIMZIN
 70
     8
  9
$DIMBLK
  1

  9
$DIMASO
 70
     1
  9
$DIMSHO
 70
     1
  9
$DIMPOST
  1

  9
$DIMAPOST
  1

  9
$DIMALT
 70
     0
  9
$DIMALTD
 70
     3
  9
$DIMALTF
 40
0.03937007874016
  9
$DIMLFAC
 40
1.0
  9
$DIMTOFL
 70
     1
  9
$DIMTVP
 40
0.0
  9
$DIMTIX
 70
     0
  9
$DIMSOXD
 70
     0
  9
$DIMSAH
 70
     0
  9
$DIMBLK1
  1

  9
$DIMBLK2
  1

  9
$DIMSTYLE
  2
ISO-25
  9
$DIMCLRD
 70
     0
  9
$DIMCLRE
 70
     0
  9
$DIMCLRT
 70
     0
  9
$DIMTFAC
 40
1.0
  9
$DIMGAP
 40
0.625
  9
$DIMJUST
 70
     0
  9
$DIMSD1
 70
     0
  9
$DIMSD2
 70
     0
  9
$DIMTOLJ
 70
     0
  9
$DIMTZIN
 70
     8
  9
$DIMALTZ
 70
     0
  9
$DIMALTTZ
 70
     0
  9
$DIMUPT
 70
     0
  9
$DIMDEC
 70
     2
  9
$DIMTDEC
 70
     2
  9
$DIMALTU
 70
     2
  9
$DIMALTTD
 70
     3
  9
$DIMTXSTY
  7
Standard
  9
$DIMAUNIT
 70
     0
  9
$DIMADEC
 70
     0
  9
$DIMALTRND
 40
0.0
  9
$DIMAZIN
 70
     0
  9
$DIMDSEP
 70
    44
  9
$DIMATFIT
 70
     3
  9
$DIMFRAC
 70
     0
  9
$DIMLDRBLK
  1

  9
$DIMLUNIT
 70
     2
  9
$DIMLWD
 70
    -2
  9
$DIMLWE
 70
    -2
  9
$DIMTMOVE
 70
     0
  9
$LUNITS
 70
     2
  9
$LUPREC
 70
     4
  9
$SKETCHINC
 40
1.0
  9
$FILLETRAD
 40
10.0
  9
$AUNITS
 70
     0
  9
$AUPREC
 70
     0
  9
$MENU
  1
.
  9
$ELEVATION
 40
0.0
  9
$PELEVATION
 40
0.0
  9
$THICKNESS
 40
0.0
  9
$LIMCHECK
 70
     0
  9
$CHAMFERA
 40
10.0
  9
$CHAMFERB
 40
10.0
  9
$CHAMFERC
 40
20.0
  9
$CHAMFERD
 40
0.0
  9
$SKPOLY
 70
     0
  9
$TDCREATE
 40
2456911.467502025
  9
$TDUCREATE
 40
2456911.092502025
  9
$TDUPDATE
 40
2456911.467502037
  9
$TDUUPDATE
 40
2456911.092502037
  9
$TDINDWG
 40
0.0000000116
  9
$TDUSRTIMER
 40
0.0000000116
  9
$USRTIMER
 70
     1
  9
$ANGBASE
 50
0.0
  9
$ANGDIR
 70
     0
  9
$PDMODE
 70
     0
  9
$PDSIZE
 40
0.0
  9
$PLINEWID
 40
0.0
  9
$SPLFRAME
 70
     0
  9
$SPLINETYPE
 70
     6
  9
$SPLINESEGS
 70
     8
  9
$HANDSEED
  5
110
  9
$SURFTAB1
 70
     6
  9
$SURFTAB2
 70
     6
  9
$SURFTYPE
 70
     6
  9
$SURFU
 70
     6
  9
$SURFV
 70
     6
  9
$UCSBASE
  2

  9
$UCSNAME
  2

  9
$UCSORG
 10
0.0
 20
0.0
 30
0.0
  9
$UCSXDIR
 10
1.0
 20
0.0
 30
0.0
  9
$UCSYDIR
 10
0.0
 20
1.0
 30
0.0
  9
$UCSORTHOREF
  2

  9
$UCSORTHOVIEW
 70
     0
  9
$UCSORGTOP
 10
0.0
 20
0.0
 30
0.0
  9
$UCSORGBOTTOM
 10
0.0
 20
0.0
 30
0.0
  9
$UCSORGLEFT
 10
0.0
 20
0.0
 30
0.0
  9
$UCSORGRIGHT
 10
0.0
 20
0.0
 30
0.0
  9
$UCSORGFRONT
 10
0.0
 20
0.0
 30
0.0
  9
$UCSORGBACK
 10
0.0
 20
0.0
 30
0.0
  9
$PUCSBASE
  2

  9
$PUCSNAME
  2

  9
$PUCSORG
 10
0.0
 20
0.0
 30
0.0
  9
$PUCSXDIR
 10
1.0
 20
0.0
 30
0.0
  9
$PUCSYDIR
 10
0.0
 20
1.0
 30
0.0
  9
$PUCSORTHOREF
  2

  9
$PUCSORTHOVIEW
 70
     0
  9
$PUCSORGTOP
 10
0.0
 20
0.0
 30
0.0
  9
$PUCSORGBOTTOM
 10
0.0
 20
0.0
 30
0.0
  9
$PUCSORGLEFT
 10
0.0
 20
0.0
 30
0.0
  9
$PUCSORGRIGHT
 10
0.0
 20
0.0
 30
0.0
  9
$PUCSORGFRONT
 10
0.0
 20
0.0
 30
0.0
  9
$PUCSORGBACK
 10
0.0
 20
0.0
 30
0.0
  9
$USERI1
 70
     0
  9
$USERI2
 70
     0
  9
$USERI3
 70
     0
  9
$USERI4
 70
     0
  9
$USERI5
 70
     0
  9
$USERR1
 40
0.0
  9
$USERR2
 40
0.0
  9
$USERR3
 40
0.0
  9
$USERR4
 40
0.0
  9
$USERR5
 40
0.0
  9
$WORLDVIEW
 70
     1
  9
$SHADEDGE
 70
     3
  9
$SHADEDIF
 70
    70
  9
$TILEMODE
 70
     1
  9
$MAXACTVP
 70
    64
  9
$PINSBASE
 10
0.0
 20
0.0
 30
0.0
  9
$PLIMCHECK
 70
     0
  9
$PEXTMIN
 10
1.000000000000000E+20
 20
1.000000000000000E+20
 30
1.000000000000000E+20
  9
$PEXTMAX
 10
-1.000000000000000E+20
 20
-1.000000000000000E+20
 30
-1.000000000000000E+20
  9
$PLIMMIN
 10
0.0
 20
0.0
  9
$PLIMMAX
 10
420.0
 20
297.0
  9
$UNITMODE
 70
     0
  9
$VISRETAIN
 70
     1
  9
$PLINEGEN
 70
     0
  9
$PSLTSCALE
 70
     1
  9
$TREEDEPTH
 70
  3020
  9
$CMLSTYLE
  2
Standard
  9
$CMLJUST
 70
     0
  9
$CMLSCALE
 40
20.0
  9
$PROXYGRAPHICS
 70
     1
  9
$MEASUREMENT
 70
     1
  9
$CELWEIGHT
370
    -1
  9
$ENDCAPS
280
     0
  9
$JOINSTYLE
280
     0
  9
$LWDISPLAY
290
     0
  9
$INSUNITS
 70
     4
  9
$HYPERLINKBASE
  1

  9
$STYLESHEET
  1

  9
$XEDIT
290
     1
  9
$CEPSNTYPE
380
     0
  9
$PSTYLEMODE
290
     1
  9
$FINGERPRINTGUID
  2
{497F5A22-3E8D-44A7-B342-5B4236E2B1F3}
  9
$VERSIONGUID
  2
{FAEB1C32-E019-11D5-929B-00C0DF256EC4}
  9
$EXTNAMES
290
     1
  9
$PSVPSCALE
 40
0.0
  9
$OLESTARTUP
290
     0
  0
ENDSEC
  0
SECTION
  2
CLASSES
  0
CLASS
  1
ACDBDICTIONARYWDFLT
  2
AcDbDictionaryWithDefault
  3
ObjectDBX Classes
 90
        0
280
     0
281
     0
  0
CLASS
  1
VISUALSTYLE
  2
AcDbVisualStyle
  3
ObjectDBX Classes
 90
     4095
280
     0
281
     0
  0
CLASS
  1
DICTIONARYVAR
  2
AcDbDictionaryVar
  3
ObjectDBX Classes
 90
        0
280
     0
281
     0
  0
CLASS
  1
ACDBPLACEHOLDER
  2
AcDbPlaceHolder
  3
ObjectDBX Classes
 90
        0
280
     0
281
     0
  0
CLASS
  1
LAYOUT
  2
AcDbLayout
  3
ObjectDBX Classes
 90
        0
280
     0
281
     0
  0
ENDSEC
  0
SECTION
  2
TABLES
  0
TABLE
  2
VPORT
  5
8
330
0
100
AcDbSymbolTable
 70
     1
  0
VPORT
  5
29
330
8
100
AcDbSymbolTableRecord
100
AcDbViewportTableRecord
  2
*Active
 70
     0
 10
0.0
 20
0.0
 11
1.0
 21
1.0
 12
0.0
 22
0.0
 13
0.0
 23
0.0
 14
10.0
 24
10.0
 15
10.0
 25
10.0
 16
0.0
 26
0.0
 36
1.0
 17
0.0
 27
0.0
 37
0.0
 40
3267.0
 41
1.414141414141414
 42
50.0
 43
0.0
 44
0.0
 50
0.0
 51
0.0
 71
     0
 72
 10000
 73
     1
 74
     3
 75
     0
 76
     0
 77
     0
 78
     0
281
     0
 65
     1
110
0.0
120
0.0
130
0.0
111
1.0
121
0.0
131
0.0
112
0.0
122
1.0
132
0.0
 79
     0
146
0.0
  0
ENDTAB
  0
TABLE
  2
LTYPE
  5
5
330
0
100
AcDbSymbolTable
 70
     4
  0
LTYPE
  5
14
330
5
100
AcDbSymbolTableRecord
100
AcDbLinetypeTableRecord
  2
ByBlock
 70
     0
  3

 72
    65
 73
     0
 40
0.0
  0
LTYPE
  5
15
330
5
100
AcDbSymbolTableRecord
100
AcDbLinetypeTableRecord
  2
ByLayer
 70
     0
  3

 72
    65
 73
     0
 40
0.0
  0
LTYPE
  5
16
330
5
100
AcDbSymbolTableRecord
100
AcDbLinetypeTableRecord
  2
Continuous
 70
     0
  3
Solid line
 72
    65
 73
     0
 40
0.0
  0
LTYPE
  5
3C
330
5
100
AcDbSymbolTableRecord
100
AcDbLinetypeTableRecord
  2
JWW_DASHED3
 70
     0
  3
---  ------  ------  ------  ---
 72
    65
 73
     2
 40
3.386666666666667
 49
2.54
 74
     0
 49
-0.8466666666666667
 74
     0
  0
LTYPE
  5
3D
330
5
100
AcDbSymbolTableRecord
100
AcDbLinetypeTableRecord
  2
JWW_CENTER1
 70
     0
  3
-----  --  ----------  --  -----
 72
    65
 73
     4
 40
6.773333333333333
 49
4.233333333333333
 74
     0
 49
-0.8466666666666667
 74
     0
 49
0.8466666666666667
 74
     0
 49
-0.8466666666666667
 74
     0
  0
LTYPE
  5
3E
330
5
100
AcDbSymbolTableRecord
100
AcDbLinetypeTableRecord
  2
JWW_CENTER2
 70
     0
  3
-------------  --  -------------
 72
    65
 73
     4
 40
13.54666666666667
 49
11.00666666666667
 74
     0
 49
-0.8466666666666667
 74
     0
 49
0.8466666666666667
 74
     0
 49
-0.8466666666666667
 74
     0
  0
ENDTAB
  0
TABLE
  2
LAYER
  5
2
330
0
100
AcDbSymbolTable
 70
     5
  0
LAYER
  5
10
330
2
100
AcDbSymbolTableRecord
100
AcDbLayerTableRecord
  2
0
 70
     0
 62
     7
  6
Continuous
370
    -3
390
F
  0
LAYER
  5
3F
330
2
100
AcDbSymbolTableRecord
100
AcDbLayerTableRecord
  2
A-5
 70
     0
 62
     7
  6
Continuous
370
    -3
390
F
  0
LAYER
  5
40
330
2
100
AcDbSymbolTableRecord
100
AcDbLayerTableRecord
  2
F-5
 70
     0
 62
     7
  6
Continuous
370
    -3
390
F
  0
LAYER
  5
41
330
2
100
AcDbSymbolTableRecord
100
AcDbLayerTableRecord
  2
A-0
 70
     0
 62
     7
  6
Continuous
370
    -3
390
F
  0
LAYER
  5
42
330
2
100
AcDbSymbolTableRecord
100
AcDbLayerTableRecord
  2
A-F
 70
     0
 62
     7
  6
Continuous
370
    -3
390
F
  0
ENDTAB
  0
TABLE
  2
STYLE
  5
3
330
0
100
AcDbSymbolTable
 70
     2
  0
STYLE
  5
11
330
3
100
AcDbSymbolTableRecord
100
AcDbTextStyleTableRecord
  2
Standard
 70
     0
 40
0.0
 41
1.0
 50
0.0
 71
     0
 42
2.5
  3
txt
  4

1001
ACAD
1000

1071
        0
  0
STYLE
  5
3B
330
3
100
AcDbSymbolTableRecord
100
AcDbTextStyleTableRecord
  2
ＭＳ ゴシック
 70
     0
 40
1.0
 41
1.0
 50
0.0
 71
     0
 42
10.0
  3

  4

1001
ACAD
1000
MS Gothic
1071
    32817
  0
ENDTAB
  0
TABLE
  2
VIEW
  5
6
330
0
100
AcDbSymbolTable
 70
     0
  0
ENDTAB
  0
TABLE
  2
UCS
  5
7
330
0
100
AcDbSymbolTable
 70
     0
  0
ENDTAB
  0
TABLE
  2
APPID
  5
9
330
0
100
AcDbSymbolTable
 70
     1
  0
APPID
  5
12
330
9
100
AcDbSymbolTableRecord
100
AcDbRegAppTableRecord
  2
ACAD
 70
     0
  0
ENDTAB
  0
TABLE
  2
DIMSTYLE
  5
A
330
0
100
AcDbSymbolTable
 70
     1
100
AcDbDimStyleTable
  0
DIMSTYLE
105
27
330
A
100
AcDbSymbolTableRecord
100
AcDbDimStyleTableRecord
  2
ISO-25
 70
     0
 41
2.5
 42
0.625
 43
3.75
 44
1.25
 73
     0
 74
     0
 77
     1
 78
     8
140
2.5
141
2.5
143
0.03937007874016
147
0.625
171
     3
172
     1
271
     2
272
     2
274
     3
278
    44
283
     0
284
     8
340
11
  0
ENDTAB
  0
TABLE
  2
BLOCK_RECORD
  5
1
330
0
100
AcDbSymbolTable
 70
     1
  0
BLOCK_RECORD
  5
1F
330
1
100
AcDbSymbolTableRecord
100
AcDbBlockTableRecord
  2
*Model_Space
340
22
  0
BLOCK_RECORD
  5
1B
330
1
100
AcDbSymbolTableRecord
100
AcDbBlockTableRecord
  2
*Paper_Space
340
1E
  0
BLOCK_RECORD
  5
23
330
1
100
AcDbSymbolTableRecord
100
AcDbBlockTableRecord
  2
*Paper_Space0
340
26
  0
ENDTAB
  0
ENDSEC
  0
SECTION
  2
BLOCKS
  0
BLOCK
  5
20
330
1F
100
AcDbEntity
  8
0
100
AcDbBlockBegin
  2
*Model_Space
 70
     0
 10
0.0
 20
0.0
 30
0.0
  3
*Model_Space
  1

  0
ENDBLK
  5
21
330
1F
100
AcDbEntity
  8
0
100
AcDbBlockEnd
  0
BLOCK
  5
1C
330
1B
100
AcDbEntity
 67
     1
  8
0
100
AcDbBlockBegin
  2
*Paper_Space
 70
     0
 10
0.0
 20
0.0
 30
0.0
  3
*Paper_Space
  1

  0
ENDBLK
  5
1D
330
1B
100
AcDbEntity
 67
     1
  8
0
100
AcDbBlockEnd
  0
BLOCK
  5
24
330
23
100
AcDbEntity
  8
0
100
AcDbBlockBegin
  2
*Paper_Space0
 70
     0
 10
0.0
 20
0.0
 30
0.0
  3
*Paper_Space0
  1

  0
ENDBLK
  5
25
330
23
100
AcDbEntity
  8
0
100
AcDbBlockEnd
  0
ENDSEC
  0
SECTION
  2
ENTITIES
  0
LINE
  5
43
330
1F
100
AcDbEntity
  8
A-5
  6
Continuous
 62
     7
370
     9
100
AcDbLine
 10
1026.156332642122
 20
762.2666949250918
 30
0.0
 11
1026.156332642122
 21
692.7656980715583
 31
0.0
  0
LINE
  5
44
330
1F
100
AcDbEntity
  8
A-5
  6
Continuous
 62
     7
370
     9
100
AcDbLine
 10
1081.156332642122
 20
759.2666949250918
 30
0.0
 11
1026.156332642122
 21
759.2666949250918
 31
0.0
  0
LINE
  5
45
330
1F
100
AcDbEntity
  8
A-5
  6
Continuous
 62
     7
370
     9
100
AcDbLine
 10
1081.156332642122
 20
762.2666949250918
 30
0.0
 11
1081.156332642122
 21
692.7656980715583
 31
0.0
  0
TEXT
  5
46
330
1F
100
AcDbEntity
  8
A-5
  6
Continuous
 62
     2
370
     9
100
AcDbText
 10
1401.455863950868
 20
-1124.520568070818
 30
0.0
 40
30.48
  1
本体質量：７．５ｋｇ
 41
1.1125
  7
ＭＳ ゴシック
100
AcDbText
  0
TEXT
  5
47
330
1F
100
AcDbEntity
  8
F-5
  6
Continuous
 62
     7
370
     9
100
AcDbText
 10
-697.837473476024
 20
-1344.558656072391
 30
0.0
 40
22.86
  1
ステンレス製　自転車・バイク盗難防止用パイプ　JP-S27A
 41
1.163522012578616
  7
ＭＳ ゴシック
100
AcDbText
  0
LINE
  5
48
330
1F
100
AcDbEntity
  8
A-5
  6
JWW_DASHED3
 62
     7
370
     9
100
AcDbLine
 10
-274.9936686775571
 20
-106.4632602431242
 30
0.0
 11
-274.9936686775571
 21
-234.9514623365692
 31
0.0
  0
ARC
  5
49
330
1F
100
AcDbEntity
  8
A-0
  6
Continuous
 62
     3
370
     9
100
AcDbCircle
 10
943.6563161461338
 20
-278.6846701580086
 30
0.0
 40
131.3500058973158
100
AcDbArc
 50
0.0
 51
90.00025939941406
  0
ARC
  5
4A
330
1F
100
AcDbEntity
  8
A-0
  6
Continuous
 62
     3
370
     9
100
AcDbCircle
 10
943.6563161461338
 20
-278.6847443899555
 30
0.0
 40
88.64999925768053
100
AcDbArc
 50
0.0
 51
90.00028991699219
  0
LINE
  5
4B
330
1F
100
AcDbEntity
  8
A-0
  6
Continuous
 62
     3
370
     9
100
AcDbLine
 10
943.6557222905595
 20
-147.3346549816993
 30
0.0
 11
75.00633132244296
 21
-147.3387836976254
 31
0.0
  0
LINE
  5
4C
330
1F
100
AcDbEntity
  8
A-0
  6
Continuous
 62
     3
370
     9
100
AcDbLine
 10
943.655870754453
 20
-190.0346523423413
 30
0.0
 11
75.00633132244296
 21
-190.0387810561692
 31
0.0
  0
LINE
  5
4D
330
1F
100
AcDbEntity
  8
A-0
  6
Continuous
 62
     3
370
     9
100
AcDbLine
 10
1032.306333961801
 20
-278.6847443899555
 30
0.0
 11
1032.306333961801
 21
-492.3316390445377
 31
0.0
  0
LINE
  5
4E
330
1F
100
AcDbEntity
  8
A-0
  6
Continuous
 62
     3
370
     9
100
AcDbLine
 10
1075.006331322443
 20
-278.6846701580086
 30
0.0
 11
1075.006331322443
 21
-492.33142686297
 31
0.0
  0
LINE
  5
4F
330
1F
100
AcDbEntity
  8
A-5
  6
Continuous
 62
     7
370
     9
100
AcDbLine
 10
1040.99695197117
 20
-335.6894585234497
 30
0.0
 11
1175.604962535315
 21
-335.6894585234497
 31
0.0
  0
LINE
  5
50
330
1F
100
AcDbEntity
  8
A-5
  6
Continuous
 62
     7
370
     9
100
AcDbLine
 10
1073.006331322443
 20
-335.6894585234497
 30
0.0
 11
1048.220209788098
 21
-338.952613328951
 31
0.0
  0
LINE
  5
51
330
1F
100
AcDbEntity
  8
A-5
  6
Continuous
 62
     7
370
     9
100
AcDbLine
 10
1073.006331322443
 20
-335.6894585234497
 30
0.0
 11
1048.220209788098
 21
-332.4263037179484
 31
0.0
  0
LINE
  5
52
330
1F
100
AcDbEntity
  8
A-5
  6
Continuous
 62
     7
370
     9
100
AcDbLine
 10
1075.006331322443
 20
-335.6894585234497
 30
0.0
 11
1099.792452856788
 21
-338.952613328951
 31
0.0
  0
LINE
  5
53
330
1F
100
AcDbEntity
  8
A-5
  6
Continuous
 62
     7
370
     9
100
AcDbLine
 10
1075.006331322443
 20
-335.6894585234497
 30
0.0
 11
1099.792452856788
 21
-332.4263037179484
 31
0.0
  0
LINE
  5
54
330
1F
100
AcDbEntity
  8
A-5
  6
Continuous
 62
     7
370
     9
100
AcDbLine
 10
1073.006331322443
 20
-332.6894585234497
 30
0.0
 11
1073.006331322443
 21
-353.008344101359
 31
0.0
  0
LINE
  5
55
330
1F
100
AcDbEntity
  8
A-5
  6
Continuous
 62
     7
370
     9
100
AcDbLine
 10
1075.006331322443
 20
-332.6894585234497
 30
0.0
 11
1075.006331322443
 21
-353.008344101359
 31
0.0
  0
ARC
  5
56
330
1F
100
AcDbEntity
  8
A-0
  6
JWW_CENTER1
 62
     4
370
     9
100
AcDbCircle
 10
943.6563161461338
 20
-278.6848186219021
 30
0.0
 40
109.9999979380015
100
AcDbArc
 50
0.0
 51
90.00030517578126
  0
LINE
  5
57
330
1F
100
AcDbEntity
  8
A-0
  6
JWW_CENTER1
 62
     4
370
     9
100
AcDbLine
 10
943.6557222905595
 20
-168.6846536620205
 30
0.0
 11
75.00634060143585
 21
-168.6893721944568
 31
0.0
  0
LINE
  5
58
330
1F
100
AcDbEntity
  8
A-0
  6
JWW_CENTER1
 62
     4
370
     9
100
AcDbLine
 10
1053.656332642122
 20
-278.6848186219021
 30
0.0
 11
1053.656332642122
 21
-564.3742254115414
 31
0.0
  0
ARC
  5
59
330
1F
100
AcDbEntity
  8
A-5
  6
Continuous
 62
     4
370
     9
100
AcDbCircle
 10
943.6563161461338
 20
-278.6846701580086
 30
0.0
 40
129.3500058973158
100
AcDbArc
 50
0.0
 51
90.00025939941406
  0
ARC
  5
5A
330
1F
100
AcDbEntity
  8
A-5
  6
Continuous
 62
     4
370
     9
100
AcDbCircle
 10
943.6563161461338
 20
-278.6847443899555
 30
0.0
 40
90.64999925768052
100
AcDbArc
 50
0.0
 51
90.00028991699219
  0
LINE
  5
5B
330
1F
100
AcDbEntity
  8
A-5
  6
Continuous
 62
     4
370
     9
100
AcDbLine
 10
1073.006331322443
 20
-278.6846701580086
 30
0.0
 11
1073.006331322443
 21
-492.33142686297
 31
0.0
  0
LINE
  5
5C
330
1F
100
AcDbEntity
  8
A-5
  6
Continuous
 62
     4
370
     9
100
AcDbLine
 10
1034.306333961801
 20
-278.6847443899555
 30
0.0
 11
1034.306333961801
 21
-492.3316390445377
 31
0.0
  0
LINE
  5
5D
330
1F
100
AcDbEntity
  8
A-5
  6
Continuous
 62
     7
370
     9
100
AcDbLine
 10
1075.006331322443
 20
3.545639281000064
 30
0.0
 11
1050.220209788098
 21
6.808794086501422
 31
0.0
  0
LINE
  5
5E
330
1F
100
AcDbEntity
  8
A-5
  6
Continuous
 62
     7
370
     9
100
AcDbLine
 10
1075.006331322443
 20
3.545639281000064
 30
0.0
 11
1050.220209788098
 21
0.2824844754987055
 31
0.0
  0
LINE
  5
5F
330
1F
100
AcDbEntity
  8
A-5
  6
Continuous
 62
     7
370
     9
100
AcDbLine
 10
1075.006331322443
 20
6.545639281000035
 30
0.0
 11
1075.006331322443
 21
-119.3396257221161
 31
0.0
  0
LINE
  5
60
330
1F
100
AcDbEntity
  8
A-5
  6
Continuous
 62
     3
370
     9
100
AcDbLine
 10
-1624.993668677557
 20
-278.6846701580086
 30
0.0
 11
-1624.993668677557
 21
-492.3412590195926
 31
0.0
  0
LINE
  5
61
330
1F
100
AcDbEntity
  8
A-F
  6
Continuous
 62
     7
370
     9
100
AcDbLine
 10
-1571.425418382279
 20
-200.9031001358379
 30
0.0
 11
-1557.145084734422
 21
-211.8609231932705
 31
0.0
  0
LINE
  5
62
330
1F
100
AcDbEntity
  8
A-F
  6
Continuous
 62
     7
370
     9
100
AcDbLine
 10
-1571.425418382279
 20
-200.9031001358379
 30
0.0
 11
-1560.467669556793
 21
-215.1833966677212
 31
0.0
  0
LINE
  5
63
330
1F
100
AcDbEntity
  8
A-F
  6
Continuous
 62
     7
370
     9
100
AcDbLine
 10
-1473.18612008833
 20
-299.1423515518633
 30
0.0
 11
-1571.425418382279
 21
-200.9031001358379
 31
0.0
  0
ARC
  5
64
330
1F
100
AcDbEntity
  8
A-0
  6
Continuous
 62
     3
370
     9
100
AcDbCircle
 10
-1493.643662780241
 20
-278.6846701580086
 30
0.0
 40
131.3500058973158
100
AcDbArc
 50
89.99974060058597
 51
180.0
  0
ARC
  5
65
330
1F
100
AcDbEntity
  8
A-0
  6
Continuous
 62
     3
370
     9
100
AcDbCircle
 10
-1493.643662780241
 20
-278.6847443899555
 30
0.0
 40
88.64999925768053
100
AcDbArc
 50
89.99971008300781
 51
180.0
  0
LINE
  5
66
330
1F
100
AcDbEntity
  8
A-F
  6
Continuous
 62
     7
370
     9
100
AcDbLine
 10
-1582.293680595908
 20
-398.5181293188232
 30
0.0
 11
-1582.293680595908
 21
-400.3181055646003
 31
0.0
  0
LINE
  5
67
330
1F
100
AcDbEntity
  8
A-5
  6
Continuous
 62
     7
370
     9
100
AcDbLine
 10
-1624.993668677557
 20
-354.3802727929312
 30
0.0
 11
-1624.993668677557
 21
-389.2175090558106
 31
0.0
  0
LINE
  5
68
330
1F
100
AcDbEntity
  8
A-5
  6
Continuous
 62
     7
370
     9
100
AcDbLine
 10
-1582.293680595908
 20
-354.3802727929312
 30
0.0
 11
-1582.293680595908
 21
-389.2175090558106
 31
0.0
  0
LINE
  5
69
330
1F
100
AcDbEntity
  8
A-0
  6
Continuous
 62
     3
370
     9
100
AcDbLine
 10
-1582.293680595908
 20
-278.6847443899555
 30
0.0
 11
-1582.293680595908
 21
-492.3412590195926
 31
0.0
  0
LINE
  5
6A
330
1F
100
AcDbEntity
  8
A-5
  6
Continuous
 62
     7
370
     9
100
AcDbLine
 10
-1437.850197953379
 20
-362.2928299033609
 30
0.0
 11
-1674.993668677557
 21
-362.2928299033609
 31
0.0
  0
LINE
  5
6B
330
1F
100
AcDbEntity
  8
A-5
  6
Continuous
 62
     7
370
     9
100
AcDbLine
 10
-1624.993668677557
 20
-362.2928299033609
 30
0.0
 11
-1649.779790211902
 21
-365.5559847088622
 31
0.0
  0
LINE
  5
6C
330
1F
100
AcDbEntity
  8
A-5
  6
Continuous
 62
     7
370
     9
100
AcDbLine
 10
-1624.993668677557
 20
-362.2928299033609
 30
0.0
 11
-1649.779790211902
 21
-359.0296750978596
 31
0.0
  0
LINE
  5
6D
330
1F
100
AcDbEntity
  8
A-5
  6
Continuous
 62
     7
370
     9
100
AcDbLine
 10
-1582.293680595908
 20
-362.2928299033609
 30
0.0
 11
-1557.507559061563
 21
-365.5559847088622
 31
0.0
  0
LINE
  5
6E
330
1F
100
AcDbEntity
  8
A-5
  6
Continuous
 62
     7
370
     9
100
AcDbLine
 10
-1582.293680595908
 20
-362.2928299033609
 30
0.0
 11
-1557.507559061563
 21
-359.0296750978596
 31
0.0
  0
LINE
  5
6F
330
1F
100
AcDbEntity
  8
A-5
  6
Continuous
 62
     7
370
     9
100
AcDbLine
 10
-1779.503515729413
 20
-147.334664262039
 30
0.0
 11
-1779.503515729413
 21
-497.3412590195926
 31
0.0
  0
LINE
  5
70
330
1F
100
AcDbEntity
  8
A-5
  6
Continuous
 62
     7
370
     9
100
AcDbLine
 10
-1779.503515729413
 20
-147.334664262039
 30
0.0
 11
-1776.240360923911
 21
-172.1207857963842
 31
0.0
  0
LINE
  5
71
330
1F
100
AcDbEntity
  8
A-5
  6
Continuous
 62
     7
370
     9
100
AcDbLine
 10
-1779.503515729413
 20
-147.334664262039
 30
0.0
 11
-1782.766670534914
 21
-172.1207857963842
 31
0.0
  0
LINE
  5
72
330
1F
100
AcDbEntity
  8
A-5
  6
Continuous
 62
     7
370
     9
100
AcDbLine
 10
-1779.503515729413
 20
-497.3412590195926
 30
0.0
 11
-1776.240360923911
 21
-472.5551374852473
 31
0.0
  0
LINE
  5
73
330
1F
100
AcDbEntity
  8
A-5
  6
Continuous
 62
     7
370
     9
100
AcDbLine
 10
-1779.503515729413
 20
-497.3412590195926
 30
0.0
 11
-1782.766670534914
 21
-472.5551374852473
 31
0.0
  0
LINE
  5
74
330
1F
100
AcDbEntity
  8
A-5
  6
Continuous
 62
     7
370
     9
100
AcDbLine
 10
-1782.503515729413
 20
-147.334664262039
 30
0.0
 11
-1641.865003849144
 21
-147.334664262039
 31
0.0
  0
LINE
  5
75
330
1F
100
AcDbEntity
  8
A-5
  6
Continuous
 62
     7
370
     9
100
AcDbLine
 10
-1878.202517268605
 20
-497.3412590195926
 30
0.0
 11
1243.456197039263
 21
-497.3412590195926
 31
0.0
  0
LINE
  5
76
330
1F
100
AcDbEntity
  8
A-0
  6
JWW_CENTER1
 62
     4
370
     9
100
AcDbLine
 10
-1603.643679276229
 20
-278.6848186219021
 30
0.0
 11
-1603.643679276229
 21
-550.0567892881452
 31
0.0
  0
ARC
  5
77
330
1F
100
AcDbEntity
  8
A-0
  6
JWW_CENTER1
 62
     4
370
     9
100
AcDbCircle
 10
-1493.643662780241
 20
-278.6848186219021
 30
0.0
 40
109.9999979380015
100
AcDbArc
 50
89.99969482421878
 51
180.0000000000001
  0
LINE
  5
78
330
1F
100
AcDbEntity
  8
A-5
  6
Continuous
 62
     7
370
     9
100
AcDbLine
 10
-1624.993668677557
 20
3.545639281000064
 30
0.0
 11
-1600.207547143212
 21
6.808794086501422
 31
0.0
  0
LINE
  5
79
330
1F
100
AcDbEntity
  8
A-5
  6
Continuous
 62
     7
370
     9
100
AcDbLine
 10
-1624.993668677557
 20
3.545639281000064
 30
0.0
 11
-1600.207547143212
 21
0.2824844754987055
 31
0.0
  0
LINE
  5
7A
330
1F
100
AcDbEntity
  8
A-5
  6
Continuous
 62
     7
370
     9
100
AcDbLine
 10
-1624.993668677557
 20
6.545639281000035
 30
0.0
 11
-1624.993668677557
 21
-119.3396257221161
 31
0.0
  0
LINE
  5
7B
330
1F
100
AcDbEntity
  8
A-5
  6
Continuous
 62
     7
370
     9
100
AcDbLine
 10
-1624.993668677557
 20
3.545639281000064
 30
0.0
 11
1075.006331322443
 21
3.545639281000064
 31
0.0
  0
LINE
  5
7C
330
1F
100
AcDbEntity
  8
A-0
  6
Continuous
 62
     3
370
     9
100
AcDbLine
 10
-1493.643068098243
 20
-147.3313278612142
 30
0.0
 11
75.00633132244296
 21
-147.3387836976254
 31
0.0
  0
LINE
  5
7D
330
1F
100
AcDbEntity
  8
A-0
  6
JWW_CENTER1
 62
     4
370
     9
100
AcDbLine
 10
-1493.643141146998
 20
-168.6808512382122
 30
0.0
 11
75.00633132244296
 21
-168.6893721945071
 31
0.0
  0
LINE
  5
7E
330
1F
100
AcDbEntity
  8
A-0
  6
Continuous
 62
     3
370
     9
100
AcDbLine
 10
-1493.643214199005
 20
-190.0313252241268
 30
0.0
 11
75.00633132244296
 21
-190.0387810561692
 31
0.0
  0
LINE
  5
7F
330
1F
100
AcDbEntity
  8
A-5
  6
Continuous
 62
     4
370
     9
100
AcDbLine
 10
943.655731796618
 20
-149.3346549816768
 30
0.0
 11
-274.9936686775571
 21
-149.3404472578705
 31
0.0
  0
LINE
  5
80
330
1F
100
AcDbEntity
  8
A-5
  6
Continuous
 62
     4
370
     9
100
AcDbLine
 10
943.6558612484009
 20
-188.0346523423638
 30
0.0
 11
-274.9936686775571
 21
-188.0404446152394
 31
0.0
  0
LINE
  5
81
330
1F
100
AcDbEntity
  8
A-5
  6
Continuous
 62
     3
370
     9
100
AcDbLine
 10
1509.494971835446
 20
-497.3315329538156
 30
0.0
 11
1369.494971835446
 21
-497.3315329538156
 31
0.0
  0
ARC
  5
82
330
1F
100
AcDbEntity
  8
A-0
  6
Continuous
 62
     3
370
     9
100
AcDbCircle
 10
1439.494971835446
 20
-168.6846559817685
 30
0.0
 40
21.35000100006928
100
AcDbArc
 50
0.000396728515625
 51
180.0003967285156
  0
LINE
  5
83
330
1F
100
AcDbEntity
  8
A-5
  6
Continuous
 62
     3
370
     9
100
AcDbLine
 10
1418.144971835446
 20
-168.6781212317918
 30
0.0
 11
1418.144971835446
 21
-492.3316390445442
 31
0.0
  0
LINE
  5
84
330
1F
100
AcDbEntity
  8
A-5
  6
Continuous
 62
     3
370
     9
100
AcDbLine
 10
1460.844971835447
 20
-168.6781212317918
 30
0.0
 11
1460.844971835447
 21
-492.3314268629634
 31
0.0
  0
LINE
  5
85
330
1F
100
AcDbEntity
  8
A-5
  6
Continuous
 62
     7
370
     9
100
AcDbLine
 10
1661.007281328672
 20
-497.3315329538156
 30
0.0
 11
1292.193813085241
 21
-497.3315329538156
 31
0.0
  0
LINE
  5
86
330
1F
100
AcDbEntity
  8
A-5
  6
Continuous
 62
     7
370
     9
100
AcDbLine
 10
1462.32824703412
 20
-200.0972326007145
 30
0.0
 11
1471.895332843247
 21
-177.0002442879323
 31
0.0
  0
LINE
  5
87
330
1F
100
AcDbEntity
  8
A-5
  6
Continuous
 62
     7
370
     9
100
AcDbLine
 10
1462.32824703412
 20
-200.0972326007145
 30
0.0
 11
1477.547282759338
 21
-180.2633990934336
 31
0.0
  0
LINE
  5
88
330
1F
100
AcDbEntity
  8
A-5
  6
JWW_CENTER1
 62
     4
370
     9
100
AcDbLine
 10
1397.262993746676
 20
-168.6846536620205
 30
0.0
 11
1475.667638764929
 21
-168.6846536620205
 31
0.0
  0
LINE
  5
89
330
1F
100
AcDbEntity
  8
A-0
  6
JWW_CENTER1
 62
     4
370
     9
100
AcDbLine
 10
1439.494971835446
 20
-124.2676932402777
 30
0.0
 11
1439.494971835446
 21
-566.4995443261922
 31
0.0
  0
LINE
  5
8A
330
1F
100
AcDbEntity
  8
A-5
  6
Continuous
 62
     7
370
     9
100
AcDbLine
 10
1550.072160288018
 20
-48.12031679004761
 30
0.0
 11
1832.298261513229
 21
-48.12031679004761
 31
0.0
  0
LINE
  5
8B
330
1F
100
AcDbEntity
  8
A-5
  6
Continuous
 62
     7
370
     9
100
AcDbLine
 10
1462.32824703412
 20
-200.0972326007145
 30
0.0
 11
1550.072160288018
 21
-48.12031679004761
 31
0.0
  0
LINE
  5
8C
330
1F
100
AcDbEntity
  8
A-5
  6
Continuous
 62
     7
370
     9
100
AcDbLine
 10
1466.088158421052
 20
-496.057926244239
 30
0.0
 11
1360.56013400782
 21
-678.8378261503266
 31
0.0
  0
LINE
  5
8D
330
1F
100
AcDbEntity
  8
A-5
  6
Continuous
 62
     7
370
     9
100
AcDbLine
 10
1466.088158421052
 20
-496.057926244239
 30
0.0
 11
1456.521072611925
 21
-519.1549145570211
 31
0.0
  0
LINE
  5
8E
330
1F
100
AcDbEntity
  8
A-5
  6
Continuous
 62
     7
370
     9
100
AcDbLine
 10
1466.088158421052
 20
-496.057926244239
 30
0.0
 11
1450.869122695834
 21
-515.8917597515199
 31
0.0
  0
LINE
  5
8F
330
1F
100
AcDbEntity
  8
A-5
  6
Continuous
 62
     7
370
     9
100
AcDbLine
 10
1360.56013400782
 20
-678.8378261503266
 30
0.0
 11
1796.098653077476
 21
-678.8378261503266
 31
0.0
  0
TEXT
  5
90
330
1F
100
AcDbEntity
  8
A-5
  6
Continuous
 62
     2
370
     9
100
AcDbText
 10
1168.387923355063
 20
-489.6929150003004
 30
0.0
 40
30.48
  1
G.L.
 41
1.09375
  7
ＭＳ ゴシック
100
AcDbText
  0
TEXT
  5
91
330
1F
100
AcDbEntity
  8
A-5
  6
Continuous
 62
     2
370
   211
100
AcDbText
 10
-1784.790636723256
 20
-358.9410068566215
 30
0.0
 40
30.48
  1
350
 50
90.0
 41
1.083333333333333
  7
ＭＳ ゴシック
100
AcDbText
  0
TEXT
  5
92
330
1F
100
AcDbEntity
  8
A-5
  6
Continuous
 62
     2
370
   211
100
AcDbText
 10
-1567.014719230248
 20
-353.3010068566215
 30
0.0
 40
30.48
  1
φ42.7
 41
1.104166666666667
  7
ＭＳ ゴシック
100
AcDbText
  0
TEXT
  5
93
330
1F
100
AcDbEntity
  8
A-5
  6
Continuous
 62
     2
370
   211
100
AcDbText
 10
-306.6278724565933
 20
13.17818460940416
 30
0.0
 40
30.48
  1
2700
 41
1.09375
  7
ＭＳ ゴシック
100
AcDbText
  0
TEXT
  5
94
330
1F
100
AcDbEntity
  8
A-5
  6
Continuous
 62
     7
370
     9
100
AcDbText
 10
1577.543365209704
 20
-39.01913105982595
 30
0.0
 40
22.86
  1
本体：SUS304
 41
1.152777777777778
  7
ＭＳ ゴシック
100
AcDbText
  0
TEXT
  5
95
330
1F
100
AcDbEntity
  8
A-5
  6
Continuous
 62
     7
370
     9
100
AcDbText
 10
1575.751236607009
 20
-80.23808892181444
 30
0.0
 40
22.86
  1
ヘアライン仕上
 41
1.142857142857143
  7
ＭＳ ゴシック
100
AcDbText
  0
TEXT
  5
96
330
1F
100
AcDbEntity
  8
A-5
  6
Continuous
 62
     2
370
     9
100
AcDbText
 10
1579.335493812399
 20
-494.6019247470904
 30
0.0
 40
30.48
  1
G.L.
 41
1.09375
  7
ＭＳ ゴシック
100
AcDbText
  0
TEXT
  5
97
330
1F
100
AcDbEntity
  8
A-5
  6
Continuous
 62
     7
370
     9
100
AcDbText
 10
1399.735467974689
 20
-711.5802594721981
 30
0.0
 40
22.86
  1
ヘアライン仕上、ｔ=5.0
 41
1.159090909090909
  7
ＭＳ ゴシック
100
AcDbText
  0
TEXT
  5
98
330
1F
100
AcDbEntity
  8
A-5
  6
Continuous
 62
     7
370
     9
100
AcDbText
 10
1394.096324028451
 20
-672.1062518485298
 30
0.0
 40
22.86
  1
ベースプレート：SUS304
 41
1.159090909090909
  7
ＭＳ ゴシック
100
AcDbText
  0
LINE
  5
99
330
1F
100
AcDbEntity
  8
A-5
  6
JWW_CENTER1
 62
     4
370
     9
100
AcDbLine
 10
1169.88691175233
 20
615.9865188274532
 30
0.0
 11
75.00634060143568
 21
615.980571399644
 31
0.0
  0
LINE
  5
9A
330
1F
100
AcDbEntity
  8
A-5
  6
Continuous
 62
     3
370
     9
100
AcDbLine
 10
1053.656332642122
 20
637.3358114485154
 30
0.0
 11
75.00633132244282
 21
637.3311598964756
 31
0.0
  0
LINE
  5
9B
330
1F
100
AcDbEntity
  8
A-5
  6
Continuous
 62
     3
370
     9
100
AcDbLine
 10
1053.656332642122
 20
594.6358140868128
 30
0.0
 11
75.00633132244282
 21
594.6311625379317
 31
0.0
  0
ARC
  5
9C
330
1F
100
AcDbEntity
  8
A-5
  6
Continuous
 62
     3
370
     9
100
AcDbCircle
 10
1053.656332642122
 20
615.9858874590677
 30
0.0
 40
21.34992398944775
100
AcDbArc
 50
270.0
 51
89.99999999999997
  0
LINE
  5
9D
330
1F
100
AcDbEntity
  8
A-5
  6
JWW_CENTER1
 62
     4
370
     9
100
AcDbLine
 10
1053.656332642122
 20
694.3257123174197
 30
0.0
 11
1053.656332642122
 21
540.3805657297639
 31
0.0
  0
ARC
  5
9E
330
1F
100
AcDbEntity
  8
A-5
  6
Continuous
 62
     3
370
     9
100
AcDbCircle
 10
-1603.643660718243
 20
615.9858874590677
 30
0.0
 40
21.34992398944775
100
AcDbArc
 50
90.00000000000003
 51
270.0
  0
LINE
  5
9F
330
1F
100
AcDbEntity
  8
A-5
  6
JWW_CENTER1
 62
     4
370
     9
100
AcDbLine
 10
-1603.643660718243
 20
694.3257123174197
 30
0.0
 11
-1603.643660718243
 21
540.3805657297639
 31
0.0
  0
LINE
  5
A0
330
1F
100
AcDbEntity
  8
A-5
  6
JWW_CENTER1
 62
     4
370
     9
100
AcDbLine
 10
-1698.90614875577
 20
615.9902073513977
 30
0.0
 11
75.00633132244282
 21
615.9805713995936
 31
0.0
  0
LINE
  5
A1
330
1F
100
AcDbEntity
  8
A-5
  6
Continuous
 62
     3
370
     9
100
AcDbLine
 10
-1603.643660718243
 20
637.339138568916
 30
0.0
 11
75.00633132244282
 21
637.3311598964756
 31
0.0
  0
LINE
  5
A2
330
1F
100
AcDbEntity
  8
A-5
  6
Continuous
 62
     3
370
     9
100
AcDbLine
 10
-1603.643660718243
 20
594.6391412049541
 30
0.0
 11
75.00633132244282
 21
594.6311625379317
 31
0.0
  0
TEXT
  5
A3
330
1F
100
AcDbEntity
  8
A-5
  6
Continuous
 62
     2
370
   211
100
AcDbText
 10
1109.06786121291
 20
-330.0823119141257
 30
0.0
 40
30.48
  1
2.0
 41
1.083333333333333
  7
ＭＳ ゴシック
100
AcDbText
  0
TEXT
  5
A4
330
1F
100
AcDbEntity
  8
A-F
  6
Continuous
 62
     2
370
     9
100
AcDbText
 10
-1534.84209413859
 20
-228.2082376937211
 30
0.0
 40
30.48
  1
R110
 50
315.00005728
 41
1.09375
  7
ＭＳ ゴシック
100
AcDbText
  0
LINE
  5
A5
330
1F
100
AcDbEntity
  8
A-5
  6
Continuous
 62
     3
370
     9
100
AcDbLine
 10
-1605.643660718242
 20
671.9896898823828
 30
0.0
 11
-1601.643660718242
 21
671.9896898823828
 31
0.0
  0
LINE
  5
A6
330
1F
100
AcDbEntity
  8
A-5
  6
Continuous
 62
     3
370
     9
100
AcDbLine
 10
-1605.643660718242
 20
659.9896898823829
 30
0.0
 11
-1601.643660718242
 21
659.9896898823829
 31
0.0
  0
ARC
  5
A7
330
1F
100
AcDbEntity
  8
A-5
  6
Continuous
 62
     3
370
     9
100
AcDbCircle
 10
-1601.643660718242
 20
665.9896898823829
 30
0.0
 40
6.000000000000001
100
AcDbArc
 50
270.0
 51
90.0
  0
ARC
  5
A8
330
1F
100
AcDbEntity
  8
A-5
  6
Continuous
 62
     3
370
     9
100
AcDbCircle
 10
-1605.643660718242
 20
665.9896898823829
 30
0.0
 40
6.000000000000001
100
AcDbArc
 50
90.00000000000003
 51
270.0
  0
LINE
  5
A9
330
1F
100
AcDbEntity
  8
A-5
  6
JWW_CENTER2
 62
     4
370
     9
100
AcDbLine
 10
-1615.144326150561
 20
665.9896898823829
 30
0.0
 11
-1591.349821835155
 21
665.9896898823829
 31
0.0
  0
LINE
  5
AA
330
1F
100
AcDbEntity
  8
A-5
  6
Continuous
 62
     3
370
     9
100
AcDbLine
 10
-1583.643660718243
 20
685.9896898823829
 30
0.0
 11
-1623.643660718243
 21
685.9896898823829
 31
0.0
  0
ARC
  5
AB
330
1F
100
AcDbEntity
  8
A-5
  6
Continuous
 62
     3
370
     9
100
AcDbCircle
 10
-1583.643660718243
 20
678.4896898823829
 30
0.0
 40
7.5
100
AcDbArc
 50
0.0
 51
90.00000000000001
  0
LINE
  5
AC
330
1F
100
AcDbEntity
  8
A-5
  6
Continuous
 62
     3
370
     9
100
AcDbLine
 10
-1631.143660718243
 20
553.4896898823828
 30
0.0
 11
-1631.143660718243
 21
678.4896898823829
 31
0.0
  0
ARC
  5
AD
330
1F
100
AcDbEntity
  8
A-5
  6
Continuous
 62
     3
370
     9
100
AcDbCircle
 10
-1623.643660718243
 20
553.4896898823828
 30
0.0
 40
7.5
100
AcDbArc
 50
180.0
 51
270.0
  0
LINE
  5
AE
330
1F
100
AcDbEntity
  8
A-5
  6
Continuous
 62
     3
370
     9
100
AcDbLine
 10
-1583.643660718243
 20
545.9896898823828
 30
0.0
 11
-1623.643660718243
 21
545.9896898823828
 31
0.0
  0
ARC
  5
AF
330
1F
100
AcDbEntity
  8
A-5
  6
Continuous
 62
     3
370
     9
100
AcDbCircle
 10
-1583.643660718243
 20
553.4896898823828
 30
0.0
 40
7.5
100
AcDbArc
 50
270.0
 51
0.0
  0
LINE
  5
B0
330
1F
100
AcDbEntity
  8
A-5
  6
Continuous
 62
     3
370
     9
100
AcDbLine
 10
-1605.643660718242
 20
559.9896898823828
 30
0.0
 11
-1601.643660718242
 21
559.9896898823828
 31
0.0
  0
LINE
  5
B1
330
1F
100
AcDbEntity
  8
A-5
  6
Continuous
 62
     3
370
     9
100
AcDbLine
 10
-1605.643660718242
 20
571.9896898823829
 30
0.0
 11
-1601.643660718242
 21
571.9896898823829
 31
0.0
  0
ARC
  5
B2
330
1F
100
AcDbEntity
  8
A-5
  6
Continuous
 62
     3
370
     9
100
AcDbCircle
 10
-1601.643660718242
 20
565.9896898823828
 30
0.0
 40
6.000000000000001
100
AcDbArc
 50
270.0
 51
90.0
  0
ARC
  5
B3
330
1F
100
AcDbEntity
  8
A-5
  6
Continuous
 62
     3
370
     9
100
AcDbCircle
 10
-1605.643660718242
 20
565.9896898823828
 30
0.0
 40
6.000000000000001
100
AcDbArc
 50
90.0
 51
270.0
  0
LINE
  5
B4
330
1F
100
AcDbEntity
  8
A-5
  6
JWW_CENTER2
 62
     4
370
     9
100
AcDbLine
 10
-1615.144326150561
 20
565.9896898823828
 30
0.0
 11
-1591.349821835155
 21
565.9896898823828
 31
0.0
  0
LINE
  5
B5
330
1F
100
AcDbEntity
  8
A-5
  6
Continuous
 62
     3
370
     9
100
AcDbLine
 10
-1576.143660718243
 20
553.4896898823828
 30
0.0
 11
-1576.143660718243
 21
594.6396898823828
 31
0.0
  0
LINE
  5
B6
330
1F
100
AcDbEntity
  8
A-5
  6
Continuous
 62
     3
370
     9
100
AcDbLine
 10
-1576.143660718243
 20
637.3396898823828
 30
0.0
 11
-1576.143660718243
 21
678.4896898823829
 31
0.0
  0
ARC
  5
B7
330
1F
100
AcDbEntity
  8
A-5
  6
Continuous
 62
     3
370
     9
100
AcDbCircle
 10
-1623.643660718243
 20
678.4896898823829
 30
0.0
 40
7.5
100
AcDbArc
 50
90.0
 51
175.6024518509823
  0
ARC
  5
B8
330
1F
100
AcDbEntity
  8
A-5
  6
Continuous
 62
     3
370
     9
100
AcDbCircle
 10
-1623.643660718243
 20
678.4896898823829
 30
0.0
 40
7.5
100
AcDbArc
 50
175.6024518509823
 51
180.0
  0
ARC
  5
B9
330
1F
100
AcDbEntity
  8
A-5
  6
JWW_DASHED3
 62
     3
370
     9
100
AcDbCircle
 10
-1603.643676636871
 20
615.9896898823828
 30
0.0
 40
21.35
100
AcDbArc
 50
270.0
 51
90.0
  0
LINE
  5
BA
330
1F
100
AcDbEntity
  8
A-5
  6
JWW_DASHED3
 62
     3
370
     9
100
AcDbLine
 10
-1576.143660718243
 20
637.3396898823828
 30
0.0
 11
-1576.143660718243
 21
594.6396898823828
 31
0.0
  0
ARC
  5
BB
330
1F
100
AcDbEntity
  8
A-5
  6
JWW_DASHED3
 62
     3
370
     9
100
AcDbCircle
 10
1053.656332642122
 20
615.9858874590677
 30
0.0
 40
21.35
100
AcDbArc
 50
90.0
 51
270.0
  0
LINE
  5
BC
330
1F
100
AcDbEntity
  8
A-5
  6
Continuous
 62
     3
370
     9
100
AcDbLine
 10
1051.656332642122
 20
671.9858874590677
 30
0.0
 11
1055.656332642122
 21
671.9858874590677
 31
0.0
  0
LINE
  5
BD
330
1F
100
AcDbEntity
  8
A-5
  6
Continuous
 62
     3
370
     9
100
AcDbLine
 10
1051.656332642122
 20
659.9858874590677
 30
0.0
 11
1055.656332642122
 21
659.9858874590677
 31
0.0
  0
ARC
  5
BE
330
1F
100
AcDbEntity
  8
A-5
  6
Continuous
 62
     3
370
     9
100
AcDbCircle
 10
1055.656332642122
 20
665.9858874590677
 30
0.0
 40
6.000000000000001
100
AcDbArc
 50
270.0
 51
90.0
  0
ARC
  5
BF
330
1F
100
AcDbEntity
  8
A-5
  6
Continuous
 62
     3
370
     9
100
AcDbCircle
 10
1051.656332642122
 20
665.9858874590677
 30
0.0
 40
6.000000000000001
100
AcDbArc
 50
90.00000000000003
 51
270.0
  0
LINE
  5
C0
330
1F
100
AcDbEntity
  8
A-5
  6
JWW_CENTER2
 62
     4
370
     9
100
AcDbLine
 10
1042.155667209803
 20
665.9858874590677
 30
0.0
 11
1065.95017152521
 21
665.9858874590677
 31
0.0
  0
ARC
  5
C1
330
1F
100
AcDbEntity
  8
A-5
  6
Continuous
 62
     3
370
     9
100
AcDbCircle
 10
1033.656332642122
 20
678.4858874590677
 30
0.0
 40
7.5
100
AcDbArc
 50
90.0
 51
180.0
  0
LINE
  5
C2
330
1F
100
AcDbEntity
  8
A-5
  6
Continuous
 62
     3
370
     9
100
AcDbLine
 10
1073.656332642122
 20
685.9858874590677
 30
0.0
 11
1033.656332642122
 21
685.9858874590677
 31
0.0
  0
ARC
  5
C3
330
1F
100
AcDbEntity
  8
A-5
  6
Continuous
 62
     3
370
     9
100
AcDbCircle
 10
1073.656332642122
 20
678.4858874590677
 30
0.0
 40
7.5
100
AcDbArc
 50
0.0
 51
90.00000000000001
  0
ARC
  5
C4
330
1F
100
AcDbEntity
  8
A-5
  6
Continuous
 62
     3
370
     9
100
AcDbCircle
 10
1033.656332642122
 20
553.4858874590677
 30
0.0
 40
7.5
100
AcDbArc
 50
180.0
 51
270.0
  0
LINE
  5
C5
330
1F
100
AcDbEntity
  8
A-5
  6
Continuous
 62
     3
370
     9
100
AcDbLine
 10
1081.156332642122
 20
553.4858874590677
 30
0.0
 11
1081.156332642122
 21
678.4858874590677
 31
0.0
  0
LINE
  5
C6
330
1F
100
AcDbEntity
  8
A-5
  6
Continuous
 62
     3
370
     9
100
AcDbLine
 10
1073.656332642122
 20
545.9858874590677
 30
0.0
 11
1033.656332642122
 21
545.9858874590677
 31
0.0
  0
ARC
  5
C7
330
1F
100
AcDbEntity
  8
A-5
  6
Continuous
 62
     3
370
     9
100
AcDbCircle
 10
1073.656332642122
 20
553.4858874590677
 30
0.0
 40
7.5
100
AcDbArc
 50
270.0
 51
0.0
  0
LINE
  5
C8
330
1F
100
AcDbEntity
  8
A-5
  6
Continuous
 62
     3
370
     9
100
AcDbLine
 10
1051.656332642122
 20
559.9858874590677
 30
0.0
 11
1055.656332642122
 21
559.9858874590677
 31
0.0
  0
LINE
  5
C9
330
1F
100
AcDbEntity
  8
A-5
  6
Continuous
 62
     3
370
     9
100
AcDbLine
 10
1051.656332642122
 20
571.9858874590677
 30
0.0
 11
1055.656332642122
 21
571.9858874590677
 31
0.0
  0
ARC
  5
CA
330
1F
100
AcDbEntity
  8
A-5
  6
Continuous
 62
     3
370
     9
100
AcDbCircle
 10
1055.656332642122
 20
565.9858874590677
 30
0.0
 40
6.000000000000001
100
AcDbArc
 50
270.0
 51
90.0
  0
ARC
  5
CB
330
1F
100
AcDbEntity
  8
A-5
  6
Continuous
 62
     3
370
     9
100
AcDbCircle
 10
1051.656332642122
 20
565.9858874590677
 30
0.0
 40
6.000000000000001
100
AcDbArc
 50
90.0
 51
270.0
  0
LINE
  5
CC
330
1F
100
AcDbEntity
  8
A-5
  6
JWW_CENTER2
 62
     4
370
     9
100
AcDbLine
 10
1042.155667209803
 20
565.9858874590677
 30
0.0
 11
1065.95017152521
 21
565.9858874590677
 31
0.0
  0
LINE
  5
CD
330
1F
100
AcDbEntity
  8
A-5
  6
Continuous
 62
     3
370
     9
100
AcDbLine
 10
1026.156332642122
 20
637.3358874590677
 30
0.0
 11
1026.156332642122
 21
678.4858874590677
 31
0.0
  0
LINE
  5
CE
330
1F
100
AcDbEntity
  8
A-5
  6
Continuous
 62
     3
370
     9
100
AcDbLine
 10
1026.156332642122
 20
553.4858874590677
 30
0.0
 11
1026.156332642122
 21
594.6358874590676
 31
0.0
  0
LINE
  5
CF
330
1F
100
AcDbEntity
  8
A-5
  6
JWW_DASHED3
 62
     3
370
     9
100
AcDbLine
 10
1026.156332642122
 20
637.3358874590677
 30
0.0
 11
1026.156332642122
 21
594.6358874590676
 31
0.0
  0
LINE
  5
D0
330
1F
100
AcDbEntity
  8
A-5
  6
Continuous
 62
     7
370
     9
100
AcDbLine
 10
1180.561633876018
 20
685.9858874590677
 30
0.0
 11
1180.561633876018
 21
545.9858874590677
 31
0.0
  0
LINE
  5
D1
330
1F
100
AcDbEntity
  8
A-5
  6
Continuous
 62
     7
370
     9
100
AcDbLine
 10
1183.561633876018
 20
685.9858874590677
 30
0.0
 11
1089.378413923285
 21
685.9858874590677
 31
0.0
  0
LINE
  5
D2
330
1F
100
AcDbEntity
  8
A-5
  6
Continuous
 62
     7
370
     9
100
AcDbLine
 10
967.5276062706797
 20
665.9858874590677
 30
0.0
 11
967.5276062706797
 21
565.9858874590677
 31
0.0
  0
LINE
  5
D3
330
1F
100
AcDbEntity
  8
A-5
  6
Continuous
 62
     7
370
     9
100
AcDbLine
 10
964.5276062706802
 20
665.9858874590677
 30
0.0
 11
1013.708312040727
 21
665.9858874590677
 31
0.0
  0
LINE
  5
D4
330
1F
100
AcDbEntity
  8
A-5
  6
Continuous
 62
     7
370
     9
100
AcDbLine
 10
964.5276062706802
 20
565.9858874590677
 30
0.0
 11
1013.708312040727
 21
565.9858874590677
 31
0.0
  0
LINE
  5
D5
330
1F
100
AcDbEntity
  8
A-5
  6
Continuous
 62
     7
370
     9
100
AcDbLine
 10
1058.893585260167
 20
671.4321925777443
 30
0.0
 11
1142.666996153351
 21
755.2056034709284
 31
0.0
  0
LINE
  5
D6
330
1F
100
AcDbEntity
  8
A-5
  6
Continuous
 62
     7
370
     9
100
AcDbLine
 10
1142.666996153351
 20
755.2056034709284
 30
0.0
 11
1344.422785611308
 21
755.2056034709284
 31
0.0
  0
LINE
  5
D7
330
1F
100
AcDbEntity
  8
A-5
  6
Continuous
 62
     7
370
     9
100
AcDbLine
 10
1183.561633876018
 20
545.9858874590677
 30
0.0
 11
1113.014771779445
 21
545.9858874590677
 31
0.0
  0
TEXT
  5
D8
330
1F
100
AcDbEntity
  8
A-5
  6
Continuous
 62
     2
370
   211
100
AcDbText
 10
958.7836511633699
 20
578.3131573747681
 30
0.0
 40
30.48
  1
100
 50
90.0
 41
1.083333333333333
  7
ＭＳ ゴシック
100
AcDbText
  0
TEXT
  5
D9
330
1F
100
AcDbEntity
  8
A-5
  6
Continuous
 62
     2
370
   211
100
AcDbText
 10
1032.406332642122
 20
769.9066949250918
 30
0.0
 40
30.48
  1
55
 41
1.0625
  7
ＭＳ ゴシック
100
AcDbText
  0
TEXT
  5
DA
330
1F
100
AcDbEntity
  8
A-5
  6
Continuous
 62
     2
370
   211
100
AcDbText
 10
1169.921633876018
 20
583.4858874590677
 30
0.0
 40
30.48
  1
140
 50
90.0
 41
1.083333333333333
  7
ＭＳ ゴシック
100
AcDbText
  0
TEXT
  5
DB
330
1F
100
AcDbEntity
  8
A-5
  6
Continuous
 62
     7
370
     9
100
AcDbText
 10
1146.624381876546
 20
760.0741974284978
 30
0.0
 40
22.86
  1
2－φ12×16
 41
1.151515151515152
  7
ＭＳ ゴシック
100
AcDbText
  0
LINE
  5
DC
330
1F
100
AcDbEntity
  8
A-5
  6
Continuous
 62
     7
370
     9
100
AcDbLine
 10
1026.156332642122
 20
759.2666949250918
 30
0.0
 11
1050.942454176467
 21
762.5298497305931
 31
0.0
  0
LINE
  5
DD
330
1F
100
AcDbEntity
  8
A-5
  6
Continuous
 62
     7
370
     9
100
AcDbLine
 10
1026.156332642122
 20
759.2666949250918
 30
0.0
 11
1050.942454176467
 21
756.0035401195904
 31
0.0
  0
LINE
  5
DE
330
1F
100
AcDbEntity
  8
A-5
  6
Continuous
 62
     7
370
     9
100
AcDbLine
 10
1081.156332642122
 20
759.2666949250918
 30
0.0
 11
1056.370211107777
 21
756.0035401195904
 31
0.0
  0
LINE
  5
DF
330
1F
100
AcDbEntity
  8
A-5
  6
Continuous
 62
     7
370
     9
100
AcDbLine
 10
1081.156332642122
 20
759.2666949250918
 30
0.0
 11
1056.370211107777
 21
762.5298497305931
 31
0.0
  0
LINE
  5
E0
330
1F
100
AcDbEntity
  8
A-5
  6
Continuous
 62
     7
370
     9
100
AcDbLine
 10
1180.561633876018
 20
685.9858874590677
 30
0.0
 11
1183.824788681519
 21
661.1997659247224
 31
0.0
  0
LINE
  5
E1
330
1F
100
AcDbEntity
  8
A-5
  6
Continuous
 62
     7
370
     9
100
AcDbLine
 10
1180.561633876018
 20
685.9858874590677
 30
0.0
 11
1177.298479070516
 21
661.1997659247224
 31
0.0
  0
LINE
  5
E2
330
1F
100
AcDbEntity
  8
A-5
  6
Continuous
 62
     7
370
     9
100
AcDbLine
 10
1180.561633876018
 20
545.9858874590677
 30
0.0
 11
1177.298479070516
 21
570.7720089934129
 31
0.0
  0
LINE
  5
E3
330
1F
100
AcDbEntity
  8
A-5
  6
Continuous
 62
     7
370
     9
100
AcDbLine
 10
1180.561633876018
 20
545.9858874590677
 30
0.0
 11
1183.824788681519
 21
570.7720089934129
 31
0.0
  0
LINE
  5
E4
330
1F
100
AcDbEntity
  8
A-5
  6
Continuous
 62
     7
370
     9
100
AcDbLine
 10
967.5276062706797
 20
565.9858874590677
 30
0.0
 11
964.2644514651784
 21
590.7720089934129
 31
0.0
  0
LINE
  5
E5
330
1F
100
AcDbEntity
  8
A-5
  6
Continuous
 62
     7
370
     9
100
AcDbLine
 10
967.5276062706797
 20
565.9858874590677
 30
0.0
 11
970.7907610761811
 21
590.7720089934129
 31
0.0
  0
LINE
  5
E6
330
1F
100
AcDbEntity
  8
A-5
  6
Continuous
 62
     7
370
     9
100
AcDbLine
 10
967.5276062706797
 20
665.9858874590677
 30
0.0
 11
970.7907610761811
 21
641.1997659247224
 31
0.0
  0
LINE
  5
E7
330
1F
100
AcDbEntity
  8
A-5
  6
Continuous
 62
     7
370
     9
100
AcDbLine
 10
967.5276062706797
 20
665.9858874590677
 30
0.0
 11
964.2644514651784
 21
641.1997659247224
 31
0.0
  0
LINE
  5
E8
330
1F
100
AcDbEntity
  8
A-5
  6
Continuous
 62
     7
370
     9
100
AcDbLine
 10
1058.893585260167
 20
671.4321925777443
 30
0.0
 11
1074.112620985386
 21
691.2660260850253
 31
0.0
  0
LINE
  5
E9
330
1F
100
AcDbEntity
  8
A-5
  6
Continuous
 62
     7
370
     9
100
AcDbLine
 10
1058.893585260167
 20
671.4321925777443
 30
0.0
 11
1078.727418767448
 21
686.6512283029624
 31
0.0
  0
LINE
  5
EA
330
1F
100
AcDbEntity
  8
A-5
  6
JWW_DASHED3
 62
     3
370
     9
100
AcDbLine
 10
-1624.993668677557
 20
-492.3316390444916
 30
0.0
 11
-1624.993668677557
 21
-497.3412590195926
 31
0.0
  0
LINE
  5
EB
330
1F
100
AcDbEntity
  8
A-5
  6
JWW_DASHED3
 62
     3
370
     9
100
AcDbLine
 10
-1582.293680595908
 20
-492.3314268629701
 30
0.0
 11
-1582.293680595908
 21
-497.3412590195926
 31
0.0
  0
LINE
  5
EC
330
1F
100
AcDbEntity
  8
A-5
  6
JWW_DASHED3
 62
     7
370
     9
100
AcDbLine
 10
-1595.643679276229
 20
-492.3314932007644
 30
0.0
 11
-1595.643679276229
 21
-497.3412590195926
 31
0.0
  0
LINE
  5
ED
330
1F
100
AcDbEntity
  8
A-5
  6
JWW_DASHED3
 62
     7
370
     9
100
AcDbLine
 10
-1611.643679276229
 20
-492.3315727067432
 30
0.0
 11
-1611.643679276229
 21
-497.3412590195926
 31
0.0
  0
LINE
  5
EE
330
1F
100
AcDbEntity
  8
A-5
  6
Continuous
 62
     3
370
     9
100
AcDbLine
 10
-1576.143679276229
 20
-492.3313963028528
 30
0.0
 11
-1631.143679276229
 21
-492.3316696046549
 31
0.0
  0
LINE
  5
EF
330
1F
100
AcDbEntity
  8
A-5
  6
Continuous
 62
     3
370
     9
100
AcDbLine
 10
-1631.143679276229
 20
-497.3412590195926
 30
0.0
 11
-1576.143679276229
 21
-497.3412590195926
 31
0.0
  0
LINE
  5
F0
330
1F
100
AcDbEntity
  8
A-5
  6
Continuous
 62
     3
370
     9
100
AcDbLine
 10
-1631.143679276229
 20
-492.3316696046549
 30
0.0
 11
-1631.143679276229
 21
-497.3412590195926
 31
0.0
  0
LINE
  5
F1
330
1F
100
AcDbEntity
  8
A-5
  6
Continuous
 62
     3
370
     9
100
AcDbLine
 10
-1576.143679276229
 20
-492.3313963028528
 30
0.0
 11
-1576.143679276229
 21
-497.3412590195926
 31
0.0
  0
LINE
  5
F2
330
1F
100
AcDbEntity
  8
A-5
  6
JWW_DASHED3
 62
     3
370
     9
100
AcDbLine
 10
1032.306343240794
 20
-492.3316390444916
 30
0.0
 11
1032.306343240794
 21
-497.3412590195926
 31
0.0
  0
LINE
  5
F3
330
1F
100
AcDbEntity
  8
A-5
  6
JWW_DASHED3
 62
     3
370
     9
100
AcDbLine
 10
1075.006331322443
 20
-492.3314268629701
 30
0.0
 11
1075.006331322443
 21
-497.3412590195926
 31
0.0
  0
LINE
  5
F4
330
1F
100
AcDbEntity
  8
A-5
  6
JWW_DASHED3
 62
     7
370
     9
100
AcDbLine
 10
1061.656332642121
 20
-492.3314932007644
 30
0.0
 11
1061.656332642121
 21
-497.3412590195926
 31
0.0
  0
LINE
  5
F5
330
1F
100
AcDbEntity
  8
A-5
  6
JWW_DASHED3
 62
     7
370
     9
100
AcDbLine
 10
1045.656332642122
 20
-492.3315727067432
 30
0.0
 11
1045.656332642122
 21
-497.3412590195926
 31
0.0
  0
LINE
  5
F6
330
1F
100
AcDbEntity
  8
A-5
  6
Continuous
 62
     3
370
     9
100
AcDbLine
 10
1081.156332642122
 20
-492.3313963028528
 30
0.0
 11
1026.156332642122
 21
-492.3316696046549
 31
0.0
  0
LINE
  5
F7
330
1F
100
AcDbEntity
  8
A-5
  6
Continuous
 62
     3
370
     9
100
AcDbLine
 10
1026.156332642122
 20
-497.3412590195926
 30
0.0
 11
1081.156332642122
 21
-497.3412590195926
 31
0.0
  0
LINE
  5
F8
330
1F
100
AcDbEntity
  8
A-5
  6
Continuous
 62
     3
370
     9
100
AcDbLine
 10
1026.156332642122
 20
-492.3316696046549
 30
0.0
 11
1026.156332642122
 21
-497.3412590195926
 31
0.0
  0
LINE
  5
F9
330
1F
100
AcDbEntity
  8
A-5
  6
Continuous
 62
     3
370
     9
100
AcDbLine
 10
1081.156332642122
 20
-492.3313963028528
 30
0.0
 11
1081.156332642122
 21
-497.3412590195926
 31
0.0
  0
LINE
  5
FA
330
1F
100
AcDbEntity
  8
A-5
  6
JWW_DASHED3
 62
     3
370
     9
100
AcDbLine
 10
1418.144982434118
 20
-492.3316390444916
 30
0.0
 11
1418.144982434118
 21
-497.3412590195926
 31
0.0
  0
LINE
  5
FB
330
1F
100
AcDbEntity
  8
A-5
  6
JWW_DASHED3
 62
     3
370
     9
100
AcDbLine
 10
1460.844970515767
 20
-492.3314268629701
 30
0.0
 11
1460.844970515767
 21
-497.3412590195926
 31
0.0
  0
LINE
  5
FC
330
1F
100
AcDbEntity
  8
A-5
  6
Continuous
 62
     3
370
     9
100
AcDbLine
 10
1509.494971835446
 20
-492.3311851150969
 30
0.0
 11
1369.494971835446
 21
-492.331880792411
 31
0.0
  0
LINE
  5
FD
330
1F
100
AcDbEntity
  8
A-5
  6
Continuous
 62
     3
370
     9
100
AcDbLine
 10
1369.494971835446
 20
-492.331880792411
 30
0.0
 11
1369.494971835446
 21
-497.3315329538156
 31
0.0
  0
LINE
  5
FE
330
1F
100
AcDbEntity
  8
A-5
  6
Continuous
 62
     3
370
     9
100
AcDbLine
 10
1509.494971835446
 20
-492.3311851150969
 30
0.0
 11
1509.494971835446
 21
-497.3315329538156
 31
0.0
  0
LINE
  5
FF
330
1F
100
AcDbEntity
  8
A-5
  6
JWW_DASHED3
 62
     7
370
     9
100
AcDbLine
 10
1396.494971835446
 20
-497.3218068880385
 30
0.0
 11
1396.494971835446
 21
-492.3316720892166
 31
0.0
  0
LINE
  5
100
330
1F
100
AcDbEntity
  8
A-5
  6
JWW_DASHED3
 62
     7
370
     9
100
AcDbLine
 10
1382.494971835446
 20
-497.3218068880385
 30
0.0
 11
1382.494971835446
 21
-492.331741656948
 31
0.0
  0
LINE
  5
101
330
1F
100
AcDbEntity
  8
A-5
  6
JWW_DASHED3
 62
     7
370
     9
100
AcDbLine
 10
1482.494971835446
 20
-497.3218068880385
 30
0.0
 11
1482.494971835446
 21
-492.3316720892166
 31
0.0
  0
LINE
  5
102
330
1F
100
AcDbEntity
  8
A-5
  6
JWW_DASHED3
 62
     7
370
     9
100
AcDbLine
 10
1496.494971835446
 20
-497.3218068880385
 30
0.0
 11
1496.494971835446
 21
-492.331741656948
 31
0.0
  0
LINE
  5
103
330
1F
100
AcDbEntity
  8
A-5
  6
JWW_CENTER1
 62
     4
370
     9
100
AcDbLine
 10
1489.494971835446
 20
-522.9859495563292
 30
0.0
 11
1489.494971835446
 21
-469.8235053136715
 31
0.0
  0
LINE
  5
104
330
1F
100
AcDbEntity
  8
A-5
  6
JWW_CENTER1
 62
     4
370
     9
100
AcDbLine
 10
1389.494971835446
 20
-522.9859495563292
 30
0.0
 11
1389.494971835446
 21
-469.8235053136715
 31
0.0
  0
ENDSEC
  0
SECTION
  2
OBJECTS
  0
DICTIONARY
  5
C
330
0
100
AcDbDictionary
281
     1
  3
ACAD_GROUP
350
D
  3
ACAD_LAYOUT
350
1A
  3
ACAD_MLEADERSTYLE
350
106
  3
ACAD_MLINESTYLE
350
17
  3
ACAD_PLOTSETTINGS
350
19
  3
ACAD_PLOTSTYLENAME
350
E
  3
ACAD_TABLESTYLE
350
105
  3
ACAD_VISUALSTYLE
350
2A
  3
AcDbVariableDictionary
350
107
  0
DICTIONARY
  5
D
102
{ACAD_REACTORS
330
C
102
}
330
C
100
AcDbDictionary
281
     1
  0
DICTIONARY
  5
1A
102
{ACAD_REACTORS
330
C
102
}
330
C
100
AcDbDictionary
281
     1
  3
Layout1
350
1E
  3
Layout2
350
26
  3
Model
350
22
  0
DICTIONARY
  5
106
102
{ACAD_REACTORS
330
C
102
}
330
C
100
AcDbDictionary
281
     1
  0
DICTIONARY
  5
17
102
{ACAD_REACTORS
330
C
102
}
330
C
100
AcDbDictionary
281
     1
  3
Standard
350
18
  0
DICTIONARY
  5
19
102
{ACAD_REACTORS
330
C
102
}
330
C
100
AcDbDictionary
281
     1
  0
ACDBDICTIONARYWDFLT
  5
E
102
{ACAD_REACTORS
330
C
102
}
330
C
100
AcDbDictionary
281
     1
  3
Normal
350
F
100
AcDbDictionaryWithDefault
340
F
  0
DICTIONARY
  5
105
102
{ACAD_REACTORS
330
C
102
}
330
C
100
AcDbDictionary
281
     1
  0
DICTIONARY
  5
2A
102
{ACAD_REACTORS
330
C
102
}
330
C
100
AcDbDictionary
281
     1
  3
2dWireframe
350
2F
  3
3D Hidden
350
31
  3
3dWireframe
350
30
  3
Basic
350
32
  3
Brighten
350
36
  3
ColorChange
350
3A
  3
Conceptual
350
34
  3
Dim
350
35
  3
Facepattern
350
39
  3
Flat
350
2B
  3
FlatWithEdges
350
2C
  3
Gouraud
350
2D
  3
GouraudWithEdges
350
2E
  3
Linepattern
350
38
  3
Realistic
350
33
  3
Thicken
350
37
  0
DICTIONARY
  5
107
102
{ACAD_REACTORS
330
C
102
}
330
C
100
AcDbDictionary
281
     1
  3
PSOLHEIGHT
350
109
  3
PSOLWIDTH
350
108
  0
LAYOUT
  5
1E
102
{ACAD_REACTORS
330
1A
102
}
102
{ACAD_XDICTIONARY
360
10A
102
}
330
1A
100
AcDbPlotSettings
  1

  2
none_device
  4

  6

 40
0.0
 41
0.0
 42
0.0
 43
0.0
 44
0.0
 45
0.0
 46
0.0
 47
0.0
 48
0.0
 49
0.0
140
0.0
141
0.0
142
1.0
143
1.0
 70
   688
 72
     0
 73
     0
 74
     5
  7

 75
    16
147
1.0
148
0.0
149
0.0
100
AcDbLayout
  1
Layout1
 70
     1
 71
     1
 10
0.0
 20
0.0
 11
420.0
 21
297.0
 12
0.0
 22
0.0
 32
0.0
 14
1.000000000000000E+20
 24
1.000000000000000E+20
 34
1.000000000000000E+20
 15
-1.000000000000000E+20
 25
-1.000000000000000E+20
 35
-1.000000000000000E+20
146
0.0
 13
0.0
 23
0.0
 33
0.0
 16
1.0
 26
0.0
 36
0.0
 17
0.0
 27
1.0
 37
0.0
 76
     0
330
1B
  0
LAYOUT
  5
26
102
{ACAD_REACTORS
330
1A
102
}
102
{ACAD_XDICTIONARY
360
10E
102
}
330
1A
100
AcDbPlotSettings
  1

  2
none_device
  4

  6

 40
0.0
 41
0.0
 42
0.0
 43
0.0
 44
0.0
 45
0.0
 46
0.0
 47
0.0
 48
0.0
 49
0.0
140
0.0
141
0.0
142
1.0
143
1.0
 70
   688
 72
     0
 73
     0
 74
     5
  7

 75
    16
147
1.0
148
0.0
149
0.0
100
AcDbLayout
  1
Layout2
 70
     1
 71
     2
 10
0.0
 20
0.0
 11
0.0
 21
0.0
 12
0.0
 22
0.0
 32
0.0
 14
0.0
 24
0.0
 34
0.0
 15
0.0
 25
0.0
 35
0.0
146
0.0
 13
0.0
 23
0.0
 33
0.0
 16
1.0
 26
0.0
 36
0.0
 17
0.0
 27
1.0
 37
0.0
 76
     0
330
23
  0
LAYOUT
  5
22
102
{ACAD_REACTORS
330
1A
102
}
102
{ACAD_XDICTIONARY
360
10C
102
}
330
1A
100
AcDbPlotSettings
  1

  2
none_device
  4

  6

 40
0.0
 41
0.0
 42
0.0
 43
0.0
 44
0.0
 45
0.0
 46
0.0
 47
0.0
 48
0.0
 49
0.0
140
0.0
141
0.0
142
1.0
143
1.0
 70
  1712
 72
     0
 73
     0
 74
     0
  7

 75
     0
147
1.0
148
0.0
149
0.0
100
AcDbLayout
  1
Model
 70
     1
 71
     0
 10
-2100.0
 20
-1485.0
 11
2100.0
 21
1485.0
 12
0.0
 22
0.0
 32
0.0
 14
-2100.0
 24
-1485.0
 34
0.0
 15
2100.0
 25
1485.0
 35
0.0
146
0.0
 13
0.0
 23
0.0
 33
0.0
 16
1.0
 26
0.0
 36
0.0
 17
0.0
 27
1.0
 37
0.0
 76
     0
330
1F
331
29
  0
MLINESTYLE
  5
18
102
{ACAD_REACTORS
330
17
102
}
330
17
100
AcDbMlineStyle
  2
Standard
 70
     0
  3

 62
   256
 51
90.0
 52
90.0
 71
     2
 49
0.5
 62
   256
  6
BYLAYER
 49
-0.5
 62
   256
  6
BYLAYER
  0
ACDBPLACEHOLDER
  5
F
102
{ACAD_REACTORS
330
E
102
}
330
E
  0
VISUALSTYLE
  5
2F
102
{ACAD_REACTORS
330
2A
102
}
330
2A
100
AcDbVisualStyle
  2
2dWireframe
 70
     4
 71
     0
 72
     2
 73
     0
 90
        0
 40
-0.6
 41
-30.0
 62
     5
 63
     7
 74
     1
 91
        4
 64
     7
 65
   257
 75
     1
175
     1
 42
1.0
 92
        0
 66
   257
 43
1.0
 76
     1
 77
     6
 78
     2
 67
     7
 79
     5
170
     0
171
     0
290
     0
174
     0
 93
        1
 44
0.0
173
     0
291
     0
 45
0.0
1001
ACAD
1000
AcDbSavedByObjectVersion
1070
     0
  0
VISUALSTYLE
  5
31
102
{ACAD_REACTORS
330
2A
102
}
330
2A
100
AcDbVisualStyle
  2
3D Hidden
 70
     6
 71
     1
 72
     2
 73
     2
 90
        0
 40
-0.6
 41
-30.0
 62
     5
 63
     7
 74
     2
 91
        2
 64
     7
 65
   257
 75
     2
175
     1
 42
40.0
 92
        0
 66
   257
 43
1.0
 76
     1
 77
     6
 78
     2
 67
     7
 79
     3
170
     0
171
     0
290
     0
174
     0
 93
        1
 44
0.0
173
     0
291
     0
 45
0.0
1001
ACAD
1000
AcDbSavedByObjectVersion
1070
     0
  0
VISUALSTYLE
  5
30
102
{ACAD_REACTORS
330
2A
102
}
330
2A
100
AcDbVisualStyle
  2
3dWireframe
 70
     5
 71
     0
 72
     2
 73
     0
 90
        0
 40
-0.6
 41
-30.0
 62
     5
 63
     7
 74
     1
 91
        4
 64
     7
 65
   257
 75
     1
175
     1
 42
1.0
 92
        0
 66
   257
 43
1.0
 76
     1
 77
     6
 78
     2
 67
     7
 79
     5
170
     0
171
     0
290
     0
174
     0
 93
        1
 44
0.0
173
     0
291
     0
 45
0.0
1001
ACAD
1000
AcDbSavedByObjectVersion
1070
     0
  0
VISUALSTYLE
  5
32
102
{ACAD_REACTORS
330
2A
102
}
330
2A
100
AcDbVisualStyle
  2
Basic
 70
     7
 71
     1
 72
     0
 73
     1
 90
        0
 40
-0.6
 41
-30.0
 62
     5
 63
     7
 74
     0
 91
        4
 64
     7
 65
   257
 75
     1
175
     1
 42
1.0
 92
        8
 66
     7
 43
1.0
 76
     1
 77
     6
 78
     2
 67
     7
 79
     5
170
     0
171
     0
290
     0
174
     0
 93
        1
 44
0.0
173
     0
291
     1
 45
0.0
1001
ACAD
1000
AcDbSavedByObjectVersion
1070
     0
  0
VISUALSTYLE
  5
36
102
{ACAD_REACTORS
330
2A
102
}
330
2A
100
AcDbVisualStyle
  2
Brighten
 70
    12
 71
     2
 72
     2
 73
     0
 90
        0
 40
-0.6
 41
-30.0
 62
     5
 63
     7
 74
     1
 91
        4
 64
     7
 65
   257
 75
     1
175
     1
 42
1.0
 92
        8
 66
     7
 43
1.0
 76
     1
 77
     6
 78
     2
 67
     7
 79
     5
170
     0
171
     0
290
     0
174
     0
 93
        1
 44
50.0
173
     0
291
     1
 45
0.0
1001
ACAD
1000
AcDbSavedByObjectVersion
1070
     0
  0
VISUALSTYLE
  5
3A
102
{ACAD_REACTORS
330
2A
102
}
330
2A
100
AcDbVisualStyle
  2
ColorChange
 70
    16
 71
     2
 72
     2
 73
     3
 90
        0
 40
-0.6
 41
-30.0
 62
     5
 63
     8
 74
     1
 91
        4
 64
     7
 65
   257
 75
     1
175
     1
 42
1.0
 92
        8
 66
     8
 43
1.0
 76
     1
 77
     6
 78
     2
 67
     7
 79
     5
170
     0
171
     0
290
     0
174
     0
 93
        1
 44
0.0
173
     0
291
     1
 45
0.0
1001
ACAD
1000
AcDbSavedByObjectVersion
1070
     0
  0
VISUALSTYLE
  5
34
102
{ACAD_REACTORS
330
2A
102
}
330
2A
100
AcDbVisualStyle
  2
Conceptual
 70
     9
 71
     3
 72
     2
 73
     0
 90
        0
 40
-0.6
 41
-30.0
 62
     5
 63
     7
 74
     2
 91
        2
 64
     7
 65
   257
 75
     1
175
     1
 42
40.0
 92
        8
 66
     7
 43
1.0
 76
     1
 77
     6
 78
     2
 67
     7
 79
     3
170
     0
171
     0
290
     0
174
     0
 93
        1
 44
0.0
173
     0
291
     0
 45
0.0
1001
ACAD
1000
AcDbSavedByObjectVersion
1070
     0
  0
VISUALSTYLE
  5
35
102
{ACAD_REACTORS
330
2A
102
}
330
2A
100
AcDbVisualStyle
  2
Dim
 70
    11
 71
     2
 72
     2
 73
     0
 90
        0
 40
-0.6
 41
-30.0
 62
     5
 63
     7
 74
     1
 91
        4
 64
     7
 65
   257
 75
     1
175
     1
 42
1.0
 92
        8
 66
     7
 43
1.0
 76
     1
 77
     6
 78
     2
 67
     7
 79
     5
170
     0
171
     0
290
     0
174
     0
 93
        1
 44
-50.0
173
     0
291
     1
 45
0.0
1001
ACAD
1000
AcDbSavedByObjectVersion
1070
     0
  0
VISUALSTYLE
  5
39
102
{ACAD_REACTORS
330
2A
102
}
330
2A
100
AcDbVisualStyle
  2
Facepattern
 70
    15
 71
     2
 72
     2
 73
     0
 90
        0
 40
-0.6
 41
-30.0
 62
     5
 63
     7
 74
     1
 91
        4
 64
     7
 65
   257
 75
     1
175
     1
 42
1.0
 92
        8
 66
     7
 43
1.0
 76
     1
 77
     6
 78
     2
 67
     7
 79
     5
170
     0
171
     0
290
     0
174
     0
 93
        1
 44
0.0
173
     0
291
     1
 45
0.0
1001
ACAD
1000
AcDbSavedByObjectVersion
1070
     0
  0
VISUALSTYLE
  5
2B
102
{ACAD_REACTORS
330
2A
102
}
330
2A
100
AcDbVisualStyle
  2
Flat
 70
     0
 71
     2
 72
     1
 73
     1
 90
        2
 40
-0.6
 41
30.0
 62
     5
 63
     7
 74
     0
 91
        4
 64
     7
 65
   257
 75
     1
175
     1
 42
1.0
 92
        8
 66
     7
 43
1.0
 76
     1
 77
     6
 78
     2
 67
     7
 79
     5
170
     0
171
     0
290
     0
174
     0
 93
       13
 44
0.0
173
     0
291
     1
 45
0.0
1001
ACAD
1000
AcDbSavedByObjectVersion
1070
     0
  0
VISUALSTYLE
  5
2C
102
{ACAD_REACTORS
330
2A
102
}
330
2A
100
AcDbVisualStyle
  2
FlatWithEdges
 70
     1
 71
     2
 72
     1
 73
     1
 90
        2
 40
-0.6
 41
30.0
 62
     5
 63
     7
 74
     1
 91
        4
 64
     7
 65
   257
 75
     1
175
     1
 42
1.0
 92
        0
 66
   257
 43
1.0
 76
     1
 77
     6
 78
     2
 67
     7
 79
     5
170
     0
171
     0
290
     0
174
     0
 93
       13
 44
0.0
173
     0
291
     1
 45
0.0
1001
ACAD
1000
AcDbSavedByObjectVersion
1070
     0
  0
VISUALSTYLE
  5
2D
102
{ACAD_REACTORS
330
2A
102
}
330
2A
100
AcDbVisualStyle
  2
Gouraud
 70
     2
 71
     2
 72
     2
 73
     1
 90
        2
 40
-0.6
 41
30.0
 62
     5
 63
     7
 74
     0
 91
        4
 64
     7
 65
   257
 75
     1
175
     1
 42
1.0
 92
        0
 66
     7
 43
1.0
 76
     1
 77
     6
 78
     2
 67
     7
 79
     5
170
     0
171
     0
290
     0
174
     0
 93
       13
 44
0.0
173
     0
291
     1
 45
0.0
1001
ACAD
1000
AcDbSavedByObjectVersion
1070
     0
  0
VISUALSTYLE
  5
2E
102
{ACAD_REACTORS
330
2A
102
}
330
2A
100
AcDbVisualStyle
  2
GouraudWithEdges
 70
     3
 71
     2
 72
     2
 73
     1
 90
        2
 40
-0.6
 41
30.0
 62
     5
 63
     7
 74
     1
 91
        4
 64
     7
 65
   257
 75
     1
175
     1
 42
1.0
 92
        0
 66
   257
 43
1.0
 76
     1
 77
     6
 78
     2
 67
     7
 79
     5
170
     0
171
     0
290
     0
174
     0
 93
       13
 44
0.0
173
     0
291
     1
 45
0.0
1001
ACAD
1000
AcDbSavedByObjectVersion
1070
     0
  0
VISUALSTYLE
  5
38
102
{ACAD_REACTORS
330
2A
102
}
330
2A
100
AcDbVisualStyle
  2
Linepattern
 70
    14
 71
     2
 72
     2
 73
     0
 90
        0
 40
-0.6
 41
-30.0
 62
     5
 63
     7
 74
     1
 91
        4
 64
     7
 65
   257
 75
     7
175
     7
 42
1.0
 92
        8
 66
     7
 43
1.0
 76
     1
 77
     6
 78
     2
 67
     7
 79
     5
170
     0
171
     0
290
     0
174
     0
 93
        1
 44
0.0
173
     0
291
     1
 45
0.0
1001
ACAD
1000
AcDbSavedByObjectVersion
1070
     0
  0
VISUALSTYLE
  5
33
102
{ACAD_REACTORS
330
2A
102
}
330
2A
100
AcDbVisualStyle
  2
Realistic
 70
     8
 71
     2
 72
     2
 73
     0
 90
        0
 40
-0.6
 41
-30.0
 62
     5
 63
     7
 74
     1
 91
        0
 64
     7
 65
   257
 75
     1
175
     1
 42
1.0
 92
        8
 66
     8
 43
1.0
 76
     1
 77
     6
 78
     2
 67
     7
 79
     5
170
     0
171
     0
290
     0
174
     0
 93
       13
 44
0.0
173
     0
291
     0
 45
0.0
1001
ACAD
1000
AcDbSavedByObjectVersion
1070
     0
  0
VISUALSTYLE
  5
37
102
{ACAD_REACTORS
330
2A
102
}
330
2A
100
AcDbVisualStyle
  2
Thicken
 70
    13
 71
     2
 72
     2
 73
     0
 90
        0
 40
-0.6
 41
-30.0
 62
     5
 63
     7
 74
     1
 91
        4
 64
     7
 65
   257
 75
     1
175
     1
 42
1.0
 92
       12
 66
     7
 43
1.0
 76
     1
 77
     6
 78
     2
 67
     7
 79
     5
170
     0
171
     0
290
     0
174
     0
 93
        1
 44
0.0
173
     0
291
     1
 45
0.0
1001
ACAD
1000
AcDbSavedByObjectVersion
1070
     0
  0
DICTIONARYVAR
  5
109
102
{ACAD_REACTORS
330
107
102
}
330
107
100
DictionaryVariables
280
     0
  1
80.000000
  0
DICTIONARYVAR
  5
108
102
{ACAD_REACTORS
330
107
102
}
330
107
100
DictionaryVariables
280
     0
  1
5.000000
  0
DICTIONARY
  5
10A
330
1E
100
AcDbDictionary
280
     1
281
     1
  3
ACAD_XREC_ROUNDTRIP
360
10B
  0
DICTIONARY
  5
10E
330
26
100
AcDbDictionary
280
     1
281
     1
  3
ACAD_XREC_ROUNDTRIP
360
10F
  0
DICTIONARY
  5
10C
330
22
100
AcDbDictionary
280
     1
281
     1
  3
ACAD_XREC_ROUNDTRIP
360
10D
  0
XRECORD
  5
10B
102
{ACAD_REACTORS
330
10A
102
}
330
10A
100
AcDbXrecord
280
     1
102
SHADEPLOT
 70
     0
102
SHADEPLOTRESLEVEL
 70
     5
102
SHADEPLOTCUSTOMDPI
 70
   300
  0
XRECORD
  5
10F
102
{ACAD_REACTORS
330
10E
102
}
330
10E
100
AcDbXrecord
280
     1
102
SHADEPLOT
 70
     0
102
SHADEPLOTRESLEVEL
 70
     5
102
SHADEPLOTCUSTOMDPI
 70
   300
  0
XRECORD
  5
10D
102
{ACAD_REACTORS
330
10C
102
}
330
10C
100
AcDbXrecord
280
     1
102
SHADEPLOT
 70
     0
102
SHADEPLOTRESLEVEL
 70
     5
102
SHADEPLOTCUSTOMDPI
 70
   300
  0
ENDSEC
  0
EOF
