  0
SECTION
  2
HEADER
  9
$ACADVER
  1
AC1015
  9
$ACADMAINTVER
 70
     6
  9
$DWGCODEPAGE
  3
ANSI_932
  9
$INSBASE
 10
0.0
 20
0.0
 30
0.0
  9
$EXTMIN
 10
-2100.0
 20
-1485.0
 30
0.0
  9
$EXTMAX
 10
2100.0
 20
1485.0
 30
0.0
  9
$LIMMIN
 10
-2100.0
 20
-1485.0
  9
$LIMMAX
 10
2100.0
 20
1485.0
  9
$ORTHOMODE
 70
     0
  9
$REGENMODE
 70
     1
  9
$FILLMODE
 70
     1
  9
$QTEXTMODE
 70
     0
  9
$MIRRTEXT
 70
     1
  9
$LTSCALE
 40
10.0
  9
$ATTMODE
 70
     1
  9
$TEXTSIZE
 40
2.5
  9
$TRACEWID
 40
1.0
  9
$TEXTSTYLE
  7
Standard
  9
$CLAYER
  8
0
  9
$CELTYPE
  6
ByLayer
  9
$CECOLOR
 62
   256
  9
$CELTSCALE
 40
1.0
  9
$DISPSILH
 70
     0
  9
$DIMSCALE
 40
1.0
  9
$DIMASZ
 40
2.5
  9
$DIMEXO
 40
0.625
  9
$DIMDLI
 40
3.75
  9
$DIMRND
 40
0.0
  9
$DIMDLE
 40
0.0
  9
$DIMEXE
 40
1.25
  9
$DIMTP
 40
0.0
  9
$DIMTM
 40
0.0
  9
$DIMTXT
 40
2.5
  9
$DIMCEN
 40
2.5
  9
$DIMTSZ
 40
0.0
  9
$DIMTOL
 70
     0
  9
$DIMLIM
 70
     0
  9
$DIMTIH
 70
     0
  9
$DIMTOH
 70
     0
  9
$DIMSE1
 70
     0
  9
$DIMSE2
 70
     0
  9
$DIMTAD
 70
     1
  9
$DIMZIN
 70
     8
  9
$DIMBLK
  1

  9
$DIMASO
 70
     1
  9
$DIMSHO
 70
     1
  9
$DIMPOST
  1

  9
$DIMAPOST
  1

  9
$DIMALT
 70
     0
  9
$DIMALTD
 70
     3
  9
$DIMALTF
 40
0.03937007874016
  9
$DIMLFAC
 40
1.0
  9
$DIMTOFL
 70
     1
  9
$DIMTVP
 40
0.0
  9
$DIMTIX
 70
     0
  9
$DIMSOXD
 70
     0
  9
$DIMSAH
 70
     0
  9
$DIMBLK1
  1

  9
$DIMBLK2
  1

  9
$DIMSTYLE
  2
ISO-25
  9
$DIMCLRD
 70
     0
  9
$DIMCLRE
 70
     0
  9
$DIMCLRT
 70
     0
  9
$DIMTFAC
 40
1.0
  9
$DIMGAP
 40
0.625
  9
$DIMJUST
 70
     0
  9
$DIMSD1
 70
     0
  9
$DIMSD2
 70
     0
  9
$DIMTOLJ
 70
     0
  9
$DIMTZIN
 70
     8
  9
$DIMALTZ
 70
     0
  9
$DIMALTTZ
 70
     0
  9
$DIMUPT
 70
     0
  9
$DIMDEC
 70
     2
  9
$DIMTDEC
 70
     2
  9
$DIMALTU
 70
     2
  9
$DIMALTTD
 70
     3
  9
$DIMTXSTY
  7
Standard
  9
$DIMAUNIT
 70
     0
  9
$DIMADEC
 70
     0
  9
$DIMALTRND
 40
0.0
  9
$DIMAZIN
 70
     0
  9
$DIMDSEP
 70
    44
  9
$DIMATFIT
 70
     3
  9
$DIMFRAC
 70
     0
  9
$DIMLDRBLK
  1

  9
$DIMLUNIT
 70
     2
  9
$DIMLWD
 70
    -2
  9
$DIMLWE
 70
    -2
  9
$DIMTMOVE
 70
     0
  9
$LUNITS
 70
     2
  9
$LUPREC
 70
     4
  9
$SKETCHINC
 40
1.0
  9
$FILLETRAD
 40
10.0
  9
$AUNITS
 70
     0
  9
$AUPREC
 70
     0
  9
$MENU
  1
.
  9
$ELEVATION
 40
0.0
  9
$PELEVATION
 40
0.0
  9
$THICKNESS
 40
0.0
  9
$LIMCHECK
 70
     0
  9
$CHAMFERA
 40
10.0
  9
$CHAMFERB
 40
10.0
  9
$CHAMFERC
 40
20.0
  9
$CHAMFERD
 40
0.0
  9
$SKPOLY
 70
     0
  9
$TDCREATE
 40
2456911.467502743
  9
$TDUCREATE
 40
2456911.092502743
  9
$TDUPDATE
 40
2456911.467502755
  9
$TDUUPDATE
 40
2456911.092502755
  9
$TDINDWG
 40
0.0000000116
  9
$TDUSRTIMER
 40
0.0000000116
  9
$USRTIMER
 70
     1
  9
$ANGBASE
 50
0.0
  9
$ANGDIR
 70
     0
  9
$PDMODE
 70
     0
  9
$PDSIZE
 40
0.0
  9
$PLINEWID
 40
0.0
  9
$SPLFRAME
 70
     0
  9
$SPLINETYPE
 70
     6
  9
$SPLINESEGS
 70
     8
  9
$HANDSEED
  5
FA
  9
$SURFTAB1
 70
     6
  9
$SURFTAB2
 70
     6
  9
$SURFTYPE
 70
     6
  9
$SURFU
 70
     6
  9
$SURFV
 70
     6
  9
$UCSBASE
  2

  9
$UCSNAME
  2

  9
$UCSORG
 10
0.0
 20
0.0
 30
0.0
  9
$UCSXDIR
 10
1.0
 20
0.0
 30
0.0
  9
$UCSYDIR
 10
0.0
 20
1.0
 30
0.0
  9
$UCSORTHOREF
  2

  9
$UCSORTHOVIEW
 70
     0
  9
$UCSORGTOP
 10
0.0
 20
0.0
 30
0.0
  9
$UCSORGBOTTOM
 10
0.0
 20
0.0
 30
0.0
  9
$UCSORGLEFT
 10
0.0
 20
0.0
 30
0.0
  9
$UCSORGRIGHT
 10
0.0
 20
0.0
 30
0.0
  9
$UCSORGFRONT
 10
0.0
 20
0.0
 30
0.0
  9
$UCSORGBACK
 10
0.0
 20
0.0
 30
0.0
  9
$PUCSBASE
  2

  9
$PUCSNAME
  2

  9
$PUCSORG
 10
0.0
 20
0.0
 30
0.0
  9
$PUCSXDIR
 10
1.0
 20
0.0
 30
0.0
  9
$PUCSYDIR
 10
0.0
 20
1.0
 30
0.0
  9
$PUCSORTHOREF
  2

  9
$PUCSORTHOVIEW
 70
     0
  9
$PUCSORGTOP
 10
0.0
 20
0.0
 30
0.0
  9
$PUCSORGBOTTOM
 10
0.0
 20
0.0
 30
0.0
  9
$PUCSORGLEFT
 10
0.0
 20
0.0
 30
0.0
  9
$PUCSORGRIGHT
 10
0.0
 20
0.0
 30
0.0
  9
$PUCSORGFRONT
 10
0.0
 20
0.0
 30
0.0
  9
$PUCSORGBACK
 10
0.0
 20
0.0
 30
0.0
  9
$USERI1
 70
     0
  9
$USERI2
 70
     0
  9
$USERI3
 70
     0
  9
$USERI4
 70
     0
  9
$USERI5
 70
     0
  9
$USERR1
 40
0.0
  9
$USERR2
 40
0.0
  9
$USERR3
 40
0.0
  9
$USERR4
 40
0.0
  9
$USERR5
 40
0.0
  9
$WORLDVIEW
 70
     1
  9
$SHADEDGE
 70
     3
  9
$SHADEDIF
 70
    70
  9
$TILEMODE
 70
     1
  9
$MAXACTVP
 70
    64
  9
$PINSBASE
 10
0.0
 20
0.0
 30
0.0
  9
$PLIMCHECK
 70
     0
  9
$PEXTMIN
 10
1.000000000000000E+20
 20
1.000000000000000E+20
 30
1.000000000000000E+20
  9
$PEXTMAX
 10
-1.000000000000000E+20
 20
-1.000000000000000E+20
 30
-1.000000000000000E+20
  9
$PLIMMIN
 10
0.0
 20
0.0
  9
$PLIMMAX
 10
420.0
 20
297.0
  9
$UNITMODE
 70
     0
  9
$VISRETAIN
 70
     1
  9
$PLINEGEN
 70
     0
  9
$PSLTSCALE
 70
     1
  9
$TREEDEPTH
 70
  3020
  9
$CMLSTYLE
  2
Standard
  9
$CMLJUST
 70
     0
  9
$CMLSCALE
 40
20.0
  9
$PROXYGRAPHICS
 70
     1
  9
$MEASUREMENT
 70
     1
  9
$CELWEIGHT
370
    -1
  9
$ENDCAPS
280
     0
  9
$JOINSTYLE
280
     0
  9
$LWDISPLAY
290
     0
  9
$INSUNITS
 70
     4
  9
$HYPERLINKBASE
  1

  9
$STYLESHEET
  1

  9
$XEDIT
290
     1
  9
$CEPSNTYPE
380
     0
  9
$PSTYLEMODE
290
     1
  9
$FINGERPRINTGUID
  2
{DF0CD7D5-2CF2-4B99-8F4A-8F89E87C7F0C}
  9
$VERSIONGUID
  2
{FAEB1C32-E019-11D5-929B-00C0DF256EC4}
  9
$EXTNAMES
290
     1
  9
$PSVPSCALE
 40
0.0
  9
$OLESTARTUP
290
     0
  0
ENDSEC
  0
SECTION
  2
CLASSES
  0
CLASS
  1
ACDBDICTIONARYWDFLT
  2
AcDbDictionaryWithDefault
  3
ObjectDBX Classes
 90
        0
280
     0
281
     0
  0
CLASS
  1
VISUALSTYLE
  2
AcDbVisualStyle
  3
ObjectDBX Classes
 90
     4095
280
     0
281
     0
  0
CLASS
  1
DICTIONARYVAR
  2
AcDbDictionaryVar
  3
ObjectDBX Classes
 90
        0
280
     0
281
     0
  0
CLASS
  1
ACDBPLACEHOLDER
  2
AcDbPlaceHolder
  3
ObjectDBX Classes
 90
        0
280
     0
281
     0
  0
CLASS
  1
LAYOUT
  2
AcDbLayout
  3
ObjectDBX Classes
 90
        0
280
     0
281
     0
  0
ENDSEC
  0
SECTION
  2
TABLES
  0
TABLE
  2
VPORT
  5
8
330
0
100
AcDbSymbolTable
 70
     1
  0
VPORT
  5
29
330
8
100
AcDbSymbolTableRecord
100
AcDbViewportTableRecord
  2
*Active
 70
     0
 10
0.0
 20
0.0
 11
1.0
 21
1.0
 12
0.0
 22
0.0
 13
0.0
 23
0.0
 14
10.0
 24
10.0
 15
10.0
 25
10.0
 16
0.0
 26
0.0
 36
1.0
 17
0.0
 27
0.0
 37
0.0
 40
3267.0
 41
1.414141414141414
 42
50.0
 43
0.0
 44
0.0
 50
0.0
 51
0.0
 71
     0
 72
 10000
 73
     1
 74
     3
 75
     0
 76
     0
 77
     0
 78
     0
281
     0
 65
     1
110
0.0
120
0.0
130
0.0
111
1.0
121
0.0
131
0.0
112
0.0
122
1.0
132
0.0
 79
     0
146
0.0
  0
ENDTAB
  0
TABLE
  2
LTYPE
  5
5
330
0
100
AcDbSymbolTable
 70
     5
  0
LTYPE
  5
14
330
5
100
AcDbSymbolTableRecord
100
AcDbLinetypeTableRecord
  2
ByBlock
 70
     0
  3

 72
    65
 73
     0
 40
0.0
  0
LTYPE
  5
15
330
5
100
AcDbSymbolTableRecord
100
AcDbLinetypeTableRecord
  2
ByLayer
 70
     0
  3

 72
    65
 73
     0
 40
0.0
  0
LTYPE
  5
16
330
5
100
AcDbSymbolTableRecord
100
AcDbLinetypeTableRecord
  2
Continuous
 70
     0
  3
Solid line
 72
    65
 73
     0
 40
0.0
  0
LTYPE
  5
3C
330
5
100
AcDbSymbolTableRecord
100
AcDbLinetypeTableRecord
  2
JWW_CENTER1
 70
     0
  3
-----  --  ----------  --  -----
 72
    65
 73
     4
 40
6.773333333333333
 49
4.233333333333333
 74
     0
 49
-0.8466666666666667
 74
     0
 49
0.8466666666666667
 74
     0
 49
-0.8466666666666667
 74
     0
  0
LTYPE
  5
3D
330
5
100
AcDbSymbolTableRecord
100
AcDbLinetypeTableRecord
  2
JWW_CENTER2
 70
     0
  3
-------------  --  -------------
 72
    65
 73
     4
 40
13.54666666666667
 49
11.00666666666667
 74
     0
 49
-0.8466666666666667
 74
     0
 49
0.8466666666666667
 74
     0
 49
-0.8466666666666667
 74
     0
  0
LTYPE
  5
3E
330
5
100
AcDbSymbolTableRecord
100
AcDbLinetypeTableRecord
  2
JWW_DASHED1
 70
     0
  3
-  --  --  --  --  --  --  --  -
 72
    65
 73
     2
 40
1.693333333333333
 49
0.8466666666666667
 74
     0
 49
-0.8466666666666667
 74
     0
  0
LTYPE
  5
3F
330
5
100
AcDbSymbolTableRecord
100
AcDbLinetypeTableRecord
  2
JWW_DASHED2
 70
     0
  3
--    ----    ----    ----    --
 72
    65
 73
     2
 40
3.386666666666667
 49
1.693333333333333
 74
     0
 49
-1.693333333333333
 74
     0
  0
ENDTAB
  0
TABLE
  2
LAYER
  5
2
330
0
100
AcDbSymbolTable
 70
     6
  0
LAYER
  5
10
330
2
100
AcDbSymbolTableRecord
100
AcDbLayerTableRecord
  2
0
 70
     0
 62
     7
  6
Continuous
370
    -3
390
F
  0
LAYER
  5
40
330
2
100
AcDbSymbolTableRecord
100
AcDbLayerTableRecord
  2
A-5
 70
     0
 62
     7
  6
Continuous
370
    -3
390
F
  0
LAYER
  5
41
330
2
100
AcDbSymbolTableRecord
100
AcDbLayerTableRecord
  2
F-5
 70
     0
 62
     7
  6
Continuous
370
    -3
390
F
  0
LAYER
  5
42
330
2
100
AcDbSymbolTableRecord
100
AcDbLayerTableRecord
  2
A-0
 70
     0
 62
     7
  6
Continuous
370
    -3
390
F
  0
LAYER
  5
43
330
2
100
AcDbSymbolTableRecord
100
AcDbLayerTableRecord
  2
A-F
 70
     0
 62
     7
  6
Continuous
370
    -3
390
F
  0
LAYER
  5
44
330
2
100
AcDbSymbolTableRecord
100
AcDbLayerTableRecord
  2
A-4
 70
     0
 62
     7
  6
Continuous
370
    -3
390
F
  0
ENDTAB
  0
TABLE
  2
STYLE
  5
3
330
0
100
AcDbSymbolTable
 70
     2
  0
STYLE
  5
11
330
3
100
AcDbSymbolTableRecord
100
AcDbTextStyleTableRecord
  2
Standard
 70
     0
 40
0.0
 41
1.0
 50
0.0
 71
     0
 42
2.5
  3
txt
  4

1001
ACAD
1000

1071
        0
  0
STYLE
  5
3B
330
3
100
AcDbSymbolTableRecord
100
AcDbTextStyleTableRecord
  2
ＭＳ ゴシック
 70
     0
 40
1.0
 41
1.0
 50
0.0
 71
     0
 42
10.0
  3

  4

1001
ACAD
1000
MS Gothic
1071
    32817
  0
ENDTAB
  0
TABLE
  2
VIEW
  5
6
330
0
100
AcDbSymbolTable
 70
     0
  0
ENDTAB
  0
TABLE
  2
UCS
  5
7
330
0
100
AcDbSymbolTable
 70
     0
  0
ENDTAB
  0
TABLE
  2
APPID
  5
9
330
0
100
AcDbSymbolTable
 70
     1
  0
APPID
  5
12
330
9
100
AcDbSymbolTableRecord
100
AcDbRegAppTableRecord
  2
ACAD
 70
     0
  0
ENDTAB
  0
TABLE
  2
DIMSTYLE
  5
A
330
0
100
AcDbSymbolTable
 70
     1
100
AcDbDimStyleTable
  0
DIMSTYLE
105
27
330
A
100
AcDbSymbolTableRecord
100
AcDbDimStyleTableRecord
  2
ISO-25
 70
     0
 41
2.5
 42
0.625
 43
3.75
 44
1.25
 73
     0
 74
     0
 77
     1
 78
     8
140
2.5
141
2.5
143
0.03937007874016
147
0.625
171
     3
172
     1
271
     2
272
     2
274
     3
278
    44
283
     0
284
     8
340
11
  0
ENDTAB
  0
TABLE
  2
BLOCK_RECORD
  5
1
330
0
100
AcDbSymbolTable
 70
     1
  0
BLOCK_RECORD
  5
1F
330
1
100
AcDbSymbolTableRecord
100
AcDbBlockTableRecord
  2
*Model_Space
340
22
  0
BLOCK_RECORD
  5
1B
330
1
100
AcDbSymbolTableRecord
100
AcDbBlockTableRecord
  2
*Paper_Space
340
1E
  0
BLOCK_RECORD
  5
23
330
1
100
AcDbSymbolTableRecord
100
AcDbBlockTableRecord
  2
*Paper_Space0
340
26
  0
ENDTAB
  0
ENDSEC
  0
SECTION
  2
BLOCKS
  0
BLOCK
  5
20
330
1F
100
AcDbEntity
  8
0
100
AcDbBlockBegin
  2
*Model_Space
 70
     0
 10
0.0
 20
0.0
 30
0.0
  3
*Model_Space
  1

  0
ENDBLK
  5
21
330
1F
100
AcDbEntity
  8
0
100
AcDbBlockEnd
  0
BLOCK
  5
1C
330
1B
100
AcDbEntity
 67
     1
  8
0
100
AcDbBlockBegin
  2
*Paper_Space
 70
     0
 10
0.0
 20
0.0
 30
0.0
  3
*Paper_Space
  1

  0
ENDBLK
  5
1D
330
1B
100
AcDbEntity
 67
     1
  8
0
100
AcDbBlockEnd
  0
BLOCK
  5
24
330
23
100
AcDbEntity
  8
0
100
AcDbBlockBegin
  2
*Paper_Space0
 70
     0
 10
0.0
 20
0.0
 30
0.0
  3
*Paper_Space0
  1

  0
ENDBLK
  5
25
330
23
100
AcDbEntity
  8
0
100
AcDbBlockEnd
  0
ENDSEC
  0
SECTION
  2
ENTITIES
  0
TEXT
  5
45
330
1F
100
AcDbEntity
  8
A-5
  6
Continuous
 62
     2
370
     9
100
AcDbText
 10
1410.388597793689
 20
-1113.078764454532
 30
0.0
 40
30.48
  1
本体質量：８．０ｋｇ
 41
1.1125
  7
ＭＳ ゴシック
100
AcDbText
  0
TEXT
  5
46
330
1F
100
AcDbEntity
  8
F-5
  6
Continuous
 62
     7
370
     9
100
AcDbText
 10
-735.7372525911802
 20
-1344.694601998124
 30
0.0
 40
22.86
  1
ステンレス製　自転車・バイク盗難防止用パイプ　JP-S27B
 41
1.163522012578616
  7
ＭＳ ゴシック
100
AcDbText
  0
ARC
  5
47
330
1F
100
AcDbEntity
  8
A-0
  6
Continuous
 62
     3
370
     9
100
AcDbCircle
 10
1605.098607486694
 20
345.7752383577609
 30
0.0
 40
21.35000100006928
100
AcDbArc
 50
0.000396728515625
 51
180.0003967285156
  0
LINE
  5
48
330
1F
100
AcDbEntity
  8
A-5
  6
Continuous
 62
     3
370
     9
100
AcDbLine
 10
1626.448606167014
 20
-232.8736260258907
 30
0.0
 11
1583.748608806372
 21
-232.873848721731
 31
0.0
  0
LINE
  5
49
330
1F
100
AcDbEntity
  8
A-5
  6
Continuous
 62
     3
370
     9
100
AcDbLine
 10
1583.748608806372
 20
17.1259863183872
 30
0.0
 11
1583.748608806372
 21
-232.873848721731
 31
0.0
  0
LINE
  5
4A
330
1F
100
AcDbEntity
  8
A-5
  6
Continuous
 62
     3
370
     9
100
AcDbLine
 10
1626.448606167014
 20
17.1259863183872
 30
0.0
 11
1626.448606167014
 21
-232.8736260258907
 31
0.0
  0
LINE
  5
4B
330
1F
100
AcDbEntity
  8
A-5
  6
Continuous
 62
     3
370
     9
100
AcDbLine
 10
1583.748607486694
 20
345.7817731077376
 30
0.0
 11
1583.748607486694
 21
17.12932675599262
 31
0.0
  0
LINE
  5
4C
330
1F
100
AcDbEntity
  8
A-5
  6
Continuous
 62
     3
370
     9
100
AcDbLine
 10
1626.448607486694
 20
345.7817731077376
 30
0.0
 11
1626.448607486694
 21
17.12932675599262
 31
0.0
  0
LINE
  5
4D
330
1F
100
AcDbEntity
  8
A-5
  6
Continuous
 62
     7
370
     9
100
AcDbLine
 10
1446.364928939157
 20
17.12523935783015
 30
0.0
 11
1857.907710439678
 21
17.12523935783015
 31
0.0
  0
LINE
  5
4E
330
1F
100
AcDbEntity
  8
A-5
  6
JWW_CENTER1
 62
     4
370
     9
100
AcDbLine
 10
1546.544288357429
 20
345.7750736540686
 30
0.0
 11
1660.656143827839
 21
345.7750736540686
 31
0.0
  0
LINE
  5
4F
330
1F
100
AcDbEntity
  8
A-0
  6
JWW_CENTER2
 62
     4
370
     9
100
AcDbLine
 10
1605.098607486694
 20
392.1219329902062
 30
0.0
 11
1605.098607486694
 21
-282.9654847263016
 31
0.0
  0
LINE
  5
50
330
1F
100
AcDbEntity
  8
A-5
  6
Continuous
 62
     7
370
     9
100
AcDbLine
 10
1625.719694996467
 20
199.4837983319524
 30
0.0
 11
1635.286780805594
 21
222.5807866447346
 31
0.0
  0
LINE
  5
51
330
1F
100
AcDbEntity
  8
A-5
  6
Continuous
 62
     7
370
     9
100
AcDbLine
 10
1625.719694996467
 20
199.4837983319524
 30
0.0
 11
1640.938730721685
 21
219.3176318392333
 31
0.0
  0
LINE
  5
52
330
1F
100
AcDbEntity
  8
A-5
  6
Continuous
 62
     7
370
     9
100
AcDbLine
 10
1441.540802538925
 20
476.0560280149144
 30
0.0
 11
1785.3987462543
 21
476.0560280149144
 31
0.0
  0
LINE
  5
53
330
1F
100
AcDbEntity
  8
A-5
  6
Continuous
 62
     7
370
     9
100
AcDbLine
 10
1625.719694996467
 20
199.4837983319524
 30
0.0
 11
1785.3987462543
 21
476.0560280149144
 31
0.0
  0
ARC
  5
54
330
1F
100
AcDbEntity
  8
A-0
  6
Continuous
 62
     3
370
     9
100
AcDbCircle
 10
1058.910466334556
 20
235.7752241815209
 30
0.0
 40
131.3500058973158
100
AcDbArc
 50
0.0
 51
90.00025939941406
  0
ARC
  5
55
330
1F
100
AcDbEntity
  8
A-0
  6
Continuous
 62
     3
370
     9
100
AcDbCircle
 10
1058.910466334556
 20
235.775149949574
 30
0.0
 40
88.64999925768053
100
AcDbArc
 50
0.0
 51
90.00028991699219
  0
LINE
  5
56
330
1F
100
AcDbEntity
  8
A-0
  6
Continuous
 62
     3
370
     9
100
AcDbLine
 10
1058.909872478982
 20
367.1252393578301
 30
0.0
 11
190.2604815108654
 21
367.1211106419041
 31
0.0
  0
LINE
  5
57
330
1F
100
AcDbEntity
  8
A-0
  6
Continuous
 62
     3
370
     9
100
AcDbLine
 10
1058.910020942875
 20
324.4252419971882
 30
0.0
 11
190.2604815108654
 21
324.4211132833602
 31
0.0
  0
LINE
  5
58
330
1F
100
AcDbEntity
  8
A-5
  6
JWW_CENTER2
 62
     4
370
     9
100
AcDbLine
 10
1168.910464272558
 20
235.7750757176274
 30
0.0
 11
1168.910464272558
 21
-259.4151198755449
 31
0.0
  0
ARC
  5
59
330
1F
100
AcDbEntity
  8
A-0
  6
JWW_CENTER2
 62
     4
370
     9
100
AcDbCircle
 10
1058.910466334556
 20
235.7750757176274
 30
0.0
 40
109.9999979380015
100
AcDbArc
 50
0.0
 51
90.00030517578126
  0
LINE
  5
5A
330
1F
100
AcDbEntity
  8
A-0
  6
Continuous
 62
     3
370
     9
100
AcDbLine
 10
1147.560484150224
 20
235.775149949574
 30
0.0
 11
1147.560484150224
 21
-232.8716963502444
 31
0.0
  0
LINE
  5
5B
330
1F
100
AcDbEntity
  8
A-0
  6
Continuous
 62
     3
370
     9
100
AcDbLine
 10
1190.260481510865
 20
235.7752241815209
 30
0.0
 11
1190.260481510865
 21
-232.871473654404
 31
0.0
  0
LINE
  5
5C
330
1F
100
AcDbEntity
  8
A-5
  6
Continuous
 62
     3
370
     9
100
AcDbLine
 10
1190.260481510865
 20
-232.871473654404
 30
0.0
 11
1147.560484150224
 21
-232.8716963502444
 31
0.0
  0
LINE
  5
5D
330
1F
100
AcDbEntity
  8
A-5
  6
Continuous
 62
     7
370
     9
100
AcDbLine
 10
1190.260481510865
 20
549.2437533933481
 30
0.0
 11
1165.47435997652
 21
552.5069081988495
 31
0.0
  0
LINE
  5
5E
330
1F
100
AcDbEntity
  8
A-5
  6
Continuous
 62
     7
370
     9
100
AcDbLine
 10
1190.260481510865
 20
549.2437533933481
 30
0.0
 11
1165.47435997652
 21
545.9805985878468
 31
0.0
  0
LINE
  5
5F
330
1F
100
AcDbEntity
  8
A-5
  6
Continuous
 62
     7
370
     9
100
AcDbLine
 10
1190.260481510865
 20
552.2437533933481
 30
0.0
 11
1190.260481510865
 21
387.1238403669862
 31
0.0
  0
LINE
  5
60
330
1F
100
AcDbEntity
  8
A-5
  6
Continuous
 62
     7
370
     9
100
AcDbLine
 10
1159.167779422218
 20
162.0399743868435
 30
0.0
 11
1288.813370897711
 21
162.0399743868435
 31
0.0
  0
LINE
  5
61
330
1F
100
AcDbEntity
  8
A-5
  6
Continuous
 62
     7
370
     9
100
AcDbLine
 10
1188.260481510865
 20
162.0399743868435
 30
0.0
 11
1163.47435997652
 21
158.7768195813422
 31
0.0
  0
LINE
  5
62
330
1F
100
AcDbEntity
  8
A-5
  6
Continuous
 62
     7
370
     9
100
AcDbLine
 10
1188.260481510865
 20
162.0399743868435
 30
0.0
 11
1163.47435997652
 21
165.3031291923448
 31
0.0
  0
LINE
  5
63
330
1F
100
AcDbEntity
  8
A-5
  6
Continuous
 62
     7
370
     9
100
AcDbLine
 10
1190.260481510865
 20
162.0399743868435
 30
0.0
 11
1215.046603045211
 21
158.7768195813422
 31
0.0
  0
LINE
  5
64
330
1F
100
AcDbEntity
  8
A-5
  6
Continuous
 62
     7
370
     9
100
AcDbLine
 10
1190.260481510865
 20
162.0399743868435
 30
0.0
 11
1215.046603045211
 21
165.3031291923448
 31
0.0
  0
LINE
  5
65
330
1F
100
AcDbEntity
  8
A-5
  6
Continuous
 62
     7
370
     9
100
AcDbLine
 10
1188.260481510865
 20
165.0399743868435
 30
0.0
 11
1188.260481510865
 21
150.2540115254351
 31
0.0
  0
LINE
  5
66
330
1F
100
AcDbEntity
  8
A-5
  6
Continuous
 62
     7
370
     9
100
AcDbLine
 10
1190.260481510865
 20
165.0399743868435
 30
0.0
 11
1190.260481510865
 21
150.2540115254351
 31
0.0
  0
ARC
  5
67
330
1F
100
AcDbEntity
  8
A-5
  6
Continuous
 62
     4
370
     9
100
AcDbCircle
 10
1058.910466334556
 20
235.7752241815209
 30
0.0
 40
129.3500058973158
100
AcDbArc
 50
0.0
 51
90.00025939941406
  0
ARC
  5
68
330
1F
100
AcDbEntity
  8
A-5
  6
Continuous
 62
     4
370
     9
100
AcDbCircle
 10
1058.910466334556
 20
235.775149949574
 30
0.0
 40
90.64999925768052
100
AcDbArc
 50
0.0
 51
90.00028991699219
  0
LINE
  5
69
330
1F
100
AcDbEntity
  8
A-5
  6
Continuous
 62
     4
370
     9
100
AcDbLine
 10
1188.260481510865
 20
235.7752241815209
 30
0.0
 11
1188.260481510865
 21
-232.871473654404
 31
0.0
  0
LINE
  5
6A
330
1F
100
AcDbEntity
  8
A-5
  6
Continuous
 62
     4
370
     9
100
AcDbLine
 10
1149.560484150223
 20
235.775149949574
 30
0.0
 11
1149.560484150223
 21
-232.8716963502444
 31
0.0
  0
LINE
  5
6B
330
1F
100
AcDbEntity
  8
A-5
  6
JWW_CENTER2
 62
     4
370
     9
100
AcDbLine
 10
-1488.389501250828
 20
235.7750757176273
 30
0.0
 11
-1488.389501250828
 21
-259.453858434107
 31
0.0
  0
LINE
  5
6C
330
1F
100
AcDbEntity
  8
A-F
  6
Continuous
 62
     7
370
     9
100
AcDbLine
 10
-1456.171258914864
 20
313.5567942036916
 30
0.0
 11
-1441.890925267007
 21
302.598971146259
 31
0.0
  0
LINE
  5
6D
330
1F
100
AcDbEntity
  8
A-F
  6
Continuous
 62
     7
370
     9
100
AcDbLine
 10
-1456.171258914864
 20
313.5567942036916
 30
0.0
 11
-1445.213510089378
 21
299.2764976718083
 31
0.0
  0
LINE
  5
6E
330
1F
100
AcDbEntity
  8
A-F
  6
Continuous
 62
     7
370
     9
100
AcDbLine
 10
-1364.663313473555
 20
222.0488924282326
 30
0.0
 11
-1456.171258914864
 21
313.5567942036916
 31
0.0
  0
ARC
  5
6F
330
1F
100
AcDbEntity
  8
A-0
  6
Continuous
 62
     3
370
     9
100
AcDbCircle
 10
-1378.389503312826
 20
235.7752241815209
 30
0.0
 40
131.3500058973158
100
AcDbArc
 50
89.99974060058597
 51
180.0
  0
ARC
  5
70
330
1F
100
AcDbEntity
  8
A-0
  6
Continuous
 62
     3
370
     9
100
AcDbCircle
 10
-1378.389503312826
 20
235.775149949574
 30
0.0
 40
88.64999925768053
100
AcDbArc
 50
89.99971008300781
 51
180.0
  0
ARC
  5
71
330
1F
100
AcDbEntity
  8
A-0
  6
JWW_CENTER2
 62
     4
370
     9
100
AcDbCircle
 10
-1378.389503312826
 20
235.7750757176274
 30
0.0
 40
109.9999979380015
100
AcDbArc
 50
89.99969482421878
 51
180.0000000000001
  0
LINE
  5
72
330
1F
100
AcDbEntity
  8
A-5
  6
Continuous
 62
     3
370
     9
100
AcDbLine
 10
-1509.739509210142
 20
235.7752241815209
 30
0.0
 11
-1509.739509210142
 21
-232.8812739521763
 31
0.0
  0
LINE
  5
73
330
1F
100
AcDbEntity
  8
A-0
  6
Continuous
 62
     3
370
     9
100
AcDbLine
 10
-1467.039521128493
 20
235.775149949574
 30
0.0
 11
-1467.039521128493
 21
-232.8814966479683
 31
0.0
  0
LINE
  5
74
330
1F
100
AcDbEntity
  8
A-5
  6
Continuous
 62
     3
370
     9
100
AcDbLine
 10
-1509.739509210142
 20
-232.8812739521763
 30
0.0
 11
-1467.039521128493
 21
-232.8814966479683
 31
0.0
  0
LINE
  5
75
330
1F
100
AcDbEntity
  8
A-5
  6
Continuous
 62
     7
370
     9
100
AcDbLine
 10
-1640.806596282195
 20
367.1252393578301
 30
0.0
 11
-1640.806596282195
 21
-232.8812739521763
 31
0.0
  0
LINE
  5
76
330
1F
100
AcDbEntity
  8
A-5
  6
Continuous
 62
     7
370
     9
100
AcDbLine
 10
-1640.806596282195
 20
367.1252393578301
 30
0.0
 11
-1637.543441476693
 21
342.3391178234849
 31
0.0
  0
LINE
  5
77
330
1F
100
AcDbEntity
  8
A-5
  6
Continuous
 62
     7
370
     9
100
AcDbLine
 10
-1640.806596282195
 20
367.1252393578301
 30
0.0
 11
-1644.069751087696
 21
342.3391178234849
 31
0.0
  0
LINE
  5
78
330
1F
100
AcDbEntity
  8
A-5
  6
Continuous
 62
     7
370
     9
100
AcDbLine
 10
-1644.069751087696
 20
-7.660882176515109
 30
0.0
 11
-1637.543441476693
 21
41.9113608921754
 31
0.0
  0
LINE
  5
79
330
1F
100
AcDbEntity
  8
A-5
  6
Continuous
 62
     7
370
     9
100
AcDbLine
 10
-1637.543441476693
 20
-7.660882176515109
 30
0.0
 11
-1644.069751087696
 21
41.9113608921754
 31
0.0
  0
LINE
  5
7A
330
1F
100
AcDbEntity
  8
A-5
  6
Continuous
 62
     7
370
     9
100
AcDbLine
 10
-1661.204163874488
 20
17.12523935783015
 30
0.0
 11
1431.877357652357
 21
17.12523935783015
 31
0.0
  0
LINE
  5
7B
330
1F
100
AcDbEntity
  8
A-5
  6
Continuous
 62
     7
370
     9
100
AcDbLine
 10
-1640.806596282195
 20
-232.8812739521763
 30
0.0
 11
-1637.543441476693
 21
-208.0951524178311
 31
0.0
  0
LINE
  5
7C
330
1F
100
AcDbEntity
  8
A-5
  6
Continuous
 62
     7
370
     9
100
AcDbLine
 10
-1640.806596282195
 20
-232.8812739521763
 30
0.0
 11
-1644.069751087696
 21
-208.0951524178311
 31
0.0
  0
LINE
  5
7D
330
1F
100
AcDbEntity
  8
A-5
  6
Continuous
 62
     7
370
     9
100
AcDbLine
 10
-1727.784955205267
 20
-232.8812739521763
 30
0.0
 11
-1522.775990943059
 21
-232.8812739521763
 31
0.0
  0
LINE
  5
7E
330
1F
100
AcDbEntity
  8
A-F
  6
Continuous
 62
     7
370
     9
100
AcDbLine
 10
-1467.039521128493
 20
145.8999010875918
 30
0.0
 11
-1467.039521128493
 21
144.0999248418147
 31
0.0
  0
LINE
  5
7F
330
1F
100
AcDbEntity
  8
A-5
  6
Continuous
 62
     7
370
     9
100
AcDbLine
 10
-1509.739509210142
 20
190.0377576134838
 30
0.0
 11
-1509.739509210142
 21
151.2074484179996
 31
0.0
  0
LINE
  5
80
330
1F
100
AcDbEntity
  8
A-5
  6
Continuous
 62
     7
370
     9
100
AcDbLine
 10
-1467.039521128493
 20
190.0377576134838
 30
0.0
 11
-1467.039521128493
 21
151.2074484179996
 31
0.0
  0
LINE
  5
81
330
1F
100
AcDbEntity
  8
A-5
  6
Continuous
 62
     7
370
     9
100
AcDbLine
 10
-1310.086645942192
 20
154.2074484179996
 30
0.0
 11
-1559.739509210142
 21
154.2074484179996
 31
0.0
  0
LINE
  5
82
330
1F
100
AcDbEntity
  8
A-5
  6
Continuous
 62
     7
370
     9
100
AcDbLine
 10
-1509.739509210142
 20
154.2074484179996
 30
0.0
 11
-1534.525630744487
 21
150.9442936124983
 31
0.0
  0
LINE
  5
83
330
1F
100
AcDbEntity
  8
A-5
  6
Continuous
 62
     7
370
     9
100
AcDbLine
 10
-1509.739509210142
 20
154.2074484179996
 30
0.0
 11
-1534.525630744487
 21
157.4706032235009
 31
0.0
  0
LINE
  5
84
330
1F
100
AcDbEntity
  8
A-5
  6
Continuous
 62
     7
370
     9
100
AcDbLine
 10
-1467.039521128493
 20
154.2074484179996
 30
0.0
 11
-1442.253399594148
 21
150.9442936124983
 31
0.0
  0
LINE
  5
85
330
1F
100
AcDbEntity
  8
A-5
  6
Continuous
 62
     7
370
     9
100
AcDbLine
 10
-1467.039521128493
 20
154.2074484179996
 30
0.0
 11
-1442.253399594148
 21
157.4706032235009
 31
0.0
  0
LINE
  5
86
330
1F
100
AcDbEntity
  8
A-5
  6
Continuous
 62
     7
370
     9
100
AcDbLine
 10
-1727.784955205267
 20
367.1252393578301
 30
0.0
 11
-1458.266531928015
 21
367.1252393578301
 31
0.0
  0
LINE
  5
87
330
1F
100
AcDbEntity
  8
A-5
  6
Continuous
 62
     7
370
     9
100
AcDbLine
 10
-1509.739509210142
 20
552.2437533933481
 30
0.0
 11
-1509.739509210142
 21
327.6398965801884
 31
0.0
  0
LINE
  5
88
330
1F
100
AcDbEntity
  8
A-5
  6
Continuous
 62
     7
370
     9
100
AcDbLine
 10
-1509.739509210142
 20
549.2437533933481
 30
0.0
 11
-1484.953387675796
 21
552.5069081988495
 31
0.0
  0
LINE
  5
89
330
1F
100
AcDbEntity
  8
A-5
  6
Continuous
 62
     7
370
     9
100
AcDbLine
 10
-1509.739509210142
 20
549.2437533933481
 30
0.0
 11
-1484.953387675796
 21
545.9805985878468
 31
0.0
  0
LINE
  5
8A
330
1F
100
AcDbEntity
  8
A-0
  6
Continuous
 62
     3
370
     9
100
AcDbLine
 10
-1378.388908642244
 20
367.1285664782712
 30
0.0
 11
190.2604815108654
 21
367.1211106419041
 31
0.0
  0
LINE
  5
8B
330
1F
100
AcDbEntity
  8
A-5
  6
JWW_CENTER2
 62
     4
370
     9
100
AcDbLine
 10
-1378.388908642244
 20
345.7750736540686
 30
0.0
 11
1058.910466334556
 21
345.7750736540686
 31
0.0
  0
LINE
  5
8C
330
1F
100
AcDbEntity
  8
A-0
  6
Continuous
 62
     3
370
     9
100
AcDbLine
 10
-1378.388908642244
 20
324.4285691146642
 30
0.0
 11
190.2604815108654
 21
324.4211132833602
 31
0.0
  0
LINE
  5
8D
330
1F
100
AcDbEntity
  8
A-5
  6
Continuous
 62
     7
370
     9
100
AcDbLine
 10
-1509.739509210142
 20
549.2437533933481
 30
0.0
 11
1190.260481510865
 21
549.2437533933481
 31
0.0
  0
LINE
  5
8E
330
1F
100
AcDbEntity
  8
A-5
  6
JWW_CENTER1
 62
     4
370
     9
100
AcDbLine
 10
-159.7395092101419
 20
293.0547821317779
 30
0.0
 11
-159.8033097819246
 21
402.6059458362244
 31
0.0
  0
LINE
  5
8F
330
1F
100
AcDbEntity
  8
A-5
  6
Continuous
 62
     4
370
     9
100
AcDbLine
 10
1058.909881985041
 20
365.1252393578527
 30
0.0
 11
-159.7814783381816
 21
365.1194468822226
 31
0.0
  0
LINE
  5
90
330
1F
100
AcDbEntity
  8
A-5
  6
Continuous
 62
     4
370
     9
100
AcDbLine
 10
1058.910011436823
 20
326.4252419971656
 30
0.0
 11
-159.7589401754723
 21
326.4194496319783
 31
0.0
  0
TEXT
  5
91
330
1F
100
AcDbEntity
  8
A-5
  6
Continuous
 62
     2
370
     9
100
AcDbText
 10
1740.39271228139
 20
21.2970981691825
 30
0.0
 40
30.48
  1
G.L.
 41
1.09375
  7
ＭＳ ゴシック
100
AcDbText
  0
TEXT
  5
92
330
1F
100
AcDbEntity
  8
A-5
  6
Continuous
 62
     7
370
     9
100
AcDbText
 10
1456.626950006142
 20
486.3908459671646
 30
0.0
 40
22.86
  1
本体：ＳＵＳ３０４
 41
1.148148148148148
  7
ＭＳ ゴシック
100
AcDbText
  0
TEXT
  5
93
330
1F
100
AcDbEntity
  8
A-5
  6
Continuous
 62
     7
370
     9
100
AcDbText
 10
1466.650288662327
 20
438.779987350287
 30
0.0
 40
22.86
  1
ヘアライン仕上
 41
1.142857142857143
  7
ＭＳ ゴシック
100
AcDbText
  0
TEXT
  5
94
330
1F
100
AcDbEntity
  8
A-5
  6
Continuous
 62
     2
370
     9
100
AcDbText
 10
1290.720214355234
 20
21.67833033779001
 30
0.0
 40
30.48
  1
G.L.
 41
1.09375
  7
ＭＳ ゴシック
100
AcDbText
  0
TEXT
  5
95
330
1F
100
AcDbEntity
  8
A-5
  6
Continuous
 62
     2
370
   211
100
AcDbText
 10
1219.552247624181
 20
167.0956882705961
 30
0.0
 40
30.48
  1
2.0
 41
1.083333333333333
  7
ＭＳ ゴシック
100
AcDbText
  0
TEXT
  5
96
330
1F
100
AcDbEntity
  8
A-F
  6
Continuous
 62
     2
370
     9
100
AcDbText
 10
-1422.838087239965
 20
288.5550157472934
 30
0.0
 40
30.48
  1
R110
 50
315.0000572847237
 41
1.093750000000003
  7
ＭＳ ゴシック
100
AcDbText
  0
TEXT
  5
97
330
1F
100
AcDbEntity
  8
A-5
  6
Continuous
 62
     2
370
   211
100
AcDbText
 10
-1441.339508606429
 20
157.3168951441832
 30
0.0
 40
30.48
  1
φ42.7
 41
1.104166666666667
  7
ＭＳ ゴシック
100
AcDbText
  0
TEXT
  5
98
330
1F
100
AcDbEntity
  8
A-5
  6
Continuous
 62
     2
370
   211
100
AcDbText
 10
-1651.446596282195
 20
157.7090261013043
 30
0.0
 40
30.48
  1
350
 50
90.0
 41
1.083333333333333
  7
ＭＳ ゴシック
100
AcDbText
  0
TEXT
  5
99
330
1F
100
AcDbEntity
  8
A-5
  6
Continuous
 62
     2
370
   211
100
AcDbText
 10
-1651.446596282195
 20
-142.2942305536989
 30
0.0
 40
30.48
  1
250
 50
90.0
 41
1.083333333333333
  7
ＭＳ ゴシック
100
AcDbText
  0
TEXT
  5
9A
330
1F
100
AcDbEntity
  8
A-5
  6
Continuous
 62
     2
370
   211
100
AcDbText
 10
-237.0498643587193
 20
561.5349635719831
 30
0.0
 40
30.48
  1
2700
 41
1.09375
  7
ＭＳ ゴシック
100
AcDbText
  0
LINE
  5
9B
330
1F
100
AcDbEntity
  8
A-5
  6
Continuous
 62
     7
370
     9
100
AcDbLine
 10
-1724.784955205266
 20
-232.8812739521763
 30
0.0
 11
-1724.784955205266
 21
367.1252393578301
 31
0.0
  0
LINE
  5
9C
330
1F
100
AcDbEntity
  8
A-5
  6
Continuous
 62
     7
370
     9
100
AcDbLine
 10
-1724.784955205266
 20
-232.8812739521763
 30
0.0
 11
-1728.048110010768
 21
-208.095152417831
 31
0.0
  0
LINE
  5
9D
330
1F
100
AcDbEntity
  8
A-5
  6
Continuous
 62
     7
370
     9
100
AcDbLine
 10
-1724.784955205266
 20
-232.8812739521763
 30
0.0
 11
-1721.521800399765
 21
-208.095152417831
 31
0.0
  0
LINE
  5
9E
330
1F
100
AcDbEntity
  8
A-5
  6
Continuous
 62
     7
370
     9
100
AcDbLine
 10
-1724.784955205266
 20
367.1252393578301
 30
0.0
 11
-1728.048110010768
 21
342.3391178234849
 31
0.0
  0
LINE
  5
9F
330
1F
100
AcDbEntity
  8
A-5
  6
Continuous
 62
     7
370
     9
100
AcDbLine
 10
-1724.784955205266
 20
367.1252393578301
 30
0.0
 11
-1721.521800399765
 21
342.3391178234849
 31
0.0
  0
TEXT
  5
A0
330
1F
100
AcDbEntity
  8
A-5
  6
Continuous
 62
     2
370
   211
100
AcDbText
 10
-1735.424955205267
 20
34.62198270282691
 30
0.0
 40
30.48
  1
600
 50
90.0
 41
1.083333333333333
  7
ＭＳ ゴシック
100
AcDbText
  0
LINE
  5
A1
330
1F
100
AcDbEntity
  8
A-5
  6
Continuous
 62
     7
370
     9
100
AcDbLine
 10
1626.448606167015
 20
-138.623743970846
 30
0.0
 11
1626.448606167015
 21
-127.1236070541442
 31
0.0
  0
LINE
  5
A2
330
1F
100
AcDbEntity
  8
A-5
  6
Continuous
 62
     7
370
     9
100
AcDbLine
 10
1630.957825774806
 20
-138.623743970846
 30
0.0
 11
1626.448606167015
 21
-138.623743970846
 31
0.0
  0
LINE
  5
A3
330
1F
100
AcDbEntity
  8
A-5
  6
Continuous
 62
     7
370
     9
100
AcDbLine
 10
1630.957825774806
 20
-127.1236070541442
 30
0.0
 11
1626.448606167015
 21
-127.1236070541442
 31
0.0
  0
LINE
  5
A4
330
1F
100
AcDbEntity
  8
A-5
  6
Continuous
 62
     7
370
     9
100
AcDbLine
 10
1630.957825774806
 20
-135.7369872800734
 30
0.0
 11
1626.448606167015
 21
-135.7369872800734
 31
0.0
  0
LINE
  5
A5
330
1F
100
AcDbEntity
  8
A-5
  6
Continuous
 62
     7
370
     9
100
AcDbLine
 10
1630.957825774806
 20
-130.0104874648283
 30
0.0
 11
1626.448606167015
 21
-130.0104874648283
 31
0.0
  0
LINE
  5
A6
330
1F
100
AcDbEntity
  8
A-5
  6
Continuous
 62
     7
370
     9
100
AcDbLine
 10
1631.448622663002
 20
-137.1803037655041
 30
0.0
 11
1631.448622663002
 21
-128.5671709793976
 31
0.0
  0
ARC
  5
A7
330
1F
100
AcDbEntity
  8
A-5
  6
Continuous
 62
     7
370
     9
100
AcDbCircle
 10
1629.080685420338
 20
-137.1803037655041
 30
0.0
 40
2.367928785246772
100
AcDbArc
 50
322.4427795410156
 51
37.55722045898439
  0
ARC
  5
A8
330
1F
100
AcDbEntity
  8
A-5
  6
Continuous
 62
     7
370
     9
100
AcDbCircle
 10
1622.850645566032
 20
-132.8737373724507
 30
0.0
 40
8.59791813669978
100
AcDbArc
 50
340.5480041503906
 51
19.4519958496094
  0
ARC
  5
A9
330
1F
100
AcDbEntity
  8
A-5
  6
Continuous
 62
     7
370
     9
100
AcDbCircle
 10
1629.080685420338
 20
-128.5671709793976
 30
0.0
 40
2.367928785246772
100
AcDbArc
 50
322.4427795410156
 51
37.55722045898439
  0
LINE
  5
AA
330
1F
100
AcDbEntity
  8
A-5
  6
Continuous
 62
     7
370
     9
100
AcDbLine
 10
1583.748608806371
 20
-138.623743970846
 30
0.0
 11
1583.748608806371
 21
-127.1236070541442
 31
0.0
  0
LINE
  5
AB
330
1F
100
AcDbEntity
  8
A-5
  6
Continuous
 62
     7
370
     9
100
AcDbLine
 10
1579.239389198581
 20
-138.623743970846
 30
0.0
 11
1583.748608806371
 21
-138.623743970846
 31
0.0
  0
LINE
  5
AC
330
1F
100
AcDbEntity
  8
A-5
  6
Continuous
 62
     7
370
     9
100
AcDbLine
 10
1579.239389198581
 20
-127.1236070541442
 30
0.0
 11
1583.748608806371
 21
-127.1236070541442
 31
0.0
  0
LINE
  5
AD
330
1F
100
AcDbEntity
  8
A-5
  6
Continuous
 62
     7
370
     9
100
AcDbLine
 10
1579.239389198581
 20
-135.7369872800734
 30
0.0
 11
1583.748608806371
 21
-135.7369872800734
 31
0.0
  0
LINE
  5
AE
330
1F
100
AcDbEntity
  8
A-5
  6
Continuous
 62
     7
370
     9
100
AcDbLine
 10
1579.239389198581
 20
-130.0104874648283
 30
0.0
 11
1583.748608806371
 21
-130.0104874648283
 31
0.0
  0
LINE
  5
AF
330
1F
100
AcDbEntity
  8
A-5
  6
Continuous
 62
     7
370
     9
100
AcDbLine
 10
1578.748592310383
 20
-137.1803037655041
 30
0.0
 11
1578.748592310383
 21
-128.5671709793976
 31
0.0
  0
ARC
  5
B0
330
1F
100
AcDbEntity
  8
A-5
  6
Continuous
 62
     7
370
     9
100
AcDbCircle
 10
1581.116529553047
 20
-137.1803037655041
 30
0.0
 40
2.367928785246772
100
AcDbArc
 50
142.4427795410156
 51
217.5572204589844
  0
ARC
  5
B1
330
1F
100
AcDbEntity
  8
A-5
  6
Continuous
 62
     7
370
     9
100
AcDbCircle
 10
1587.346569407353
 20
-132.8737373724507
 30
0.0
 40
8.59791813669978
100
AcDbArc
 50
160.5480041503906
 51
199.4519958496094
  0
ARC
  5
B2
330
1F
100
AcDbEntity
  8
A-5
  6
Continuous
 62
     7
370
     9
100
AcDbCircle
 10
1581.116529553047
 20
-128.5671709793976
 30
0.0
 40
2.367928785246772
100
AcDbArc
 50
142.4427795410156
 51
217.5572204589844
  0
LINE
  5
B3
330
1F
100
AcDbEntity
  8
A-5
  6
Continuous
 62
     7
370
     9
100
AcDbLine
 10
1505.098607486694
 20
-135.3336603691781
 30
0.0
 11
1505.098607486694
 21
-130.4138143757236
 31
0.0
  0
LINE
  5
B4
330
1F
100
AcDbEntity
  8
A-5
  6
Continuous
 62
     7
370
     9
100
AcDbLine
 10
1505.098607486694
 20
-130.4138143757236
 30
0.0
 11
1505.638583039638
 21
-129.8737769628226
 31
0.0
  0
LINE
  5
B5
330
1F
100
AcDbEntity
  8
A-5
  6
Continuous
 62
     7
370
     9
100
AcDbLine
 10
1505.638583039638
 20
-135.8736977820791
 30
0.0
 11
1505.098607486694
 21
-135.3336603691781
 31
0.0
  0
LINE
  5
B6
330
1F
100
AcDbEntity
  8
A-5
  6
Continuous
 62
     7
370
     9
100
AcDbLine
 10
1505.638583039638
 20
-135.8736977820791
 30
0.0
 11
1505.638583039638
 21
-129.8737769628226
 31
0.0
  0
LINE
  5
B7
330
1F
100
AcDbEntity
  8
A-5
  6
Continuous
 62
     7
370
     9
100
AcDbLine
 10
1505.638583039638
 20
-129.8737769628226
 30
0.0
 11
1578.748592310383
 21
-129.8737769628226
 31
0.0
  0
LINE
  5
B8
330
1F
100
AcDbEntity
  8
A-5
  6
Continuous
 62
     7
370
     9
100
AcDbLine
 10
1505.638583039638
 20
-135.8736977820791
 30
0.0
 11
1578.748592310383
 21
-135.8736977820791
 31
0.0
  0
LINE
  5
B9
330
1F
100
AcDbEntity
  8
A-5
  6
Continuous
 62
     7
370
     9
100
AcDbLine
 10
1505.098607486694
 20
-135.3336603691781
 30
0.0
 11
1578.748592310383
 21
-135.3336603691781
 31
0.0
  0
LINE
  5
BA
330
1F
100
AcDbEntity
  8
A-5
  6
Continuous
 62
     7
370
     9
100
AcDbLine
 10
1505.098607486694
 20
-130.4138143757236
 30
0.0
 11
1578.748592310383
 21
-130.4138143757236
 31
0.0
  0
LINE
  5
BB
330
1F
100
AcDbEntity
  8
A-5
  6
Continuous
 62
     7
370
     9
100
AcDbLine
 10
1704.558631933747
 20
-135.8736977820791
 30
0.0
 11
1704.558631933747
 21
-129.8737769628226
 31
0.0
  0
LINE
  5
BC
330
1F
100
AcDbEntity
  8
A-5
  6
Continuous
 62
     7
370
     9
100
AcDbLine
 10
1704.558631933747
 20
-129.8737769628226
 30
0.0
 11
1631.448622663002
 21
-129.8737769628226
 31
0.0
  0
LINE
  5
BD
330
1F
100
AcDbEntity
  8
A-5
  6
Continuous
 62
     7
370
     9
100
AcDbLine
 10
1705.098607486694
 20
-130.4138143757236
 30
0.0
 11
1704.558631933747
 21
-129.8737769628226
 31
0.0
  0
LINE
  5
BE
330
1F
100
AcDbEntity
  8
A-5
  6
Continuous
 62
     7
370
     9
100
AcDbLine
 10
1704.558631933747
 20
-135.8736977820791
 30
0.0
 11
1705.098607486694
 21
-135.3336603691781
 31
0.0
  0
LINE
  5
BF
330
1F
100
AcDbEntity
  8
A-5
  6
Continuous
 62
     7
370
     9
100
AcDbLine
 10
1704.558631933747
 20
-135.8736977820791
 30
0.0
 11
1631.448622663002
 21
-135.8736977820791
 31
0.0
  0
LINE
  5
C0
330
1F
100
AcDbEntity
  8
A-5
  6
Continuous
 62
     7
370
     9
100
AcDbLine
 10
1705.098607486694
 20
-135.3336603691781
 30
0.0
 11
1631.448622663002
 21
-135.3336603691781
 31
0.0
  0
LINE
  5
C1
330
1F
100
AcDbEntity
  8
A-5
  6
Continuous
 62
     7
370
     9
100
AcDbLine
 10
1705.098607486694
 20
-135.3336603691781
 30
0.0
 11
1705.098607486694
 21
-130.4138143757236
 31
0.0
  0
LINE
  5
C2
330
1F
100
AcDbEntity
  8
A-5
  6
Continuous
 62
     7
370
     9
100
AcDbLine
 10
1705.098607486694
 20
-130.4138143757236
 30
0.0
 11
1631.448622663002
 21
-130.4138143757236
 31
0.0
  0
LINE
  5
C3
330
1F
100
AcDbEntity
  8
A-5
  6
JWW_CENTER2
 62
     4
370
     9
100
AcDbLine
 10
1495.931034973799
 20
-132.8737373724507
 30
0.0
 11
1714.760577748935
 21
-132.8737373724507
 31
0.0
  0
LINE
  5
C4
330
1F
100
AcDbEntity
  8
A-5
  6
JWW_DASHED1
 62
     7
370
     9
100
AcDbLine
 10
1626.448606167015
 20
-129.8737769628226
 30
0.0
 11
1583.748608806372
 21
-129.8737769628226
 31
0.0
  0
LINE
  5
C5
330
1F
100
AcDbEntity
  8
A-5
  6
JWW_DASHED1
 62
     7
370
     9
100
AcDbLine
 10
1626.448606167015
 20
-135.8736977820791
 30
0.0
 11
1583.748608806372
 21
-135.8736977820791
 31
0.0
  0
LINE
  5
C6
330
1F
100
AcDbEntity
  8
A-5
  6
Continuous
 62
     7
370
     9
100
AcDbLine
 10
1794.00677555791
 20
-232.8736260258907
 30
0.0
 11
1797.269930363412
 21
-208.0875044915455
 31
0.0
  0
LINE
  5
C7
330
1F
100
AcDbEntity
  8
A-5
  6
Continuous
 62
     7
370
     9
100
AcDbLine
 10
1794.00677555791
 20
-232.8736260258907
 30
0.0
 11
1790.743620752409
 21
-208.0875044915455
 31
0.0
  0
LINE
  5
C8
330
1F
100
AcDbEntity
  8
A-5
  6
Continuous
 62
     7
370
     9
100
AcDbLine
 10
1797.006775557911
 20
-232.8736260258907
 30
0.0
 11
1679.012128522007
 21
-232.8736260258907
 31
0.0
  0
LINE
  5
C9
330
1F
100
AcDbEntity
  8
A-5
  6
Continuous
 62
     7
370
     9
100
AcDbLine
 10
1794.00677555791
 20
-132.8737373724507
 30
0.0
 11
1794.00677555791
 21
-232.8736260258907
 31
0.0
  0
LINE
  5
CA
330
1F
100
AcDbEntity
  8
A-5
  6
Continuous
 62
     7
370
     9
100
AcDbLine
 10
1794.00677555791
 20
-132.8737373724507
 30
0.0
 11
1797.269930363412
 21
-157.6598589067959
 31
0.0
  0
LINE
  5
CB
330
1F
100
AcDbEntity
  8
A-5
  6
Continuous
 62
     7
370
     9
100
AcDbLine
 10
1794.00677555791
 20
-132.8737373724507
 30
0.0
 11
1790.743620752409
 21
-157.6598589067959
 31
0.0
  0
LINE
  5
CC
330
1F
100
AcDbEntity
  8
A-5
  6
Continuous
 62
     7
370
     9
100
AcDbLine
 10
1797.006775557911
 20
-132.8737373724507
 30
0.0
 11
1724.543003998152
 21
-132.8737373724507
 31
0.0
  0
TEXT
  5
CD
330
1F
100
AcDbEntity
  8
A-4
  6
Continuous
 62
     2
370
   211
100
AcDbText
 10
1783.36677555791
 20
-215.3736816991707
 30
0.0
 40
30.48
  1
100
 50
90.0
 41
1.083333333333333
  7
ＭＳ ゴシック
100
AcDbText
  0
LINE
  5
CE
330
1F
100
AcDbEntity
  8
A-5
  6
Continuous
 62
     7
370
     9
100
AcDbLine
 10
869.0749765233573
 20
-457.1062450206378
 30
0.0
 11
1363.653913681929
 21
-457.1062450206378
 31
0.0
  0
LINE
  5
CF
330
1F
100
AcDbEntity
  8
A-5
  6
Continuous
 62
     7
370
     9
100
AcDbLine
 10
1432.675005737276
 20
-620.5932241296925
 30
0.0
 11
1007.418386072176
 21
-620.5932241296925
 31
0.0
  0
TEXT
  5
D0
330
1F
100
AcDbEntity
  8
A-5
  6
Continuous
 62
     7
370
     9
100
AcDbText
 10
1030.865762284267
 20
-613.4793521034139
 30
0.0
 40
22.86
  1
六角ナット：ＳＳ４００
 41
1.15151515151515
  7
ＭＳ ゴシック
100
AcDbText
  0
TEXT
  5
D1
330
1F
100
AcDbEntity
  8
A-5
  6
Continuous
 62
     7
370
     9
100
AcDbText
 10
874.3218649001227
 20
-406.0641221413364
 30
0.0
 40
22.86
  1
アンカー
 41
1.125
  7
ＭＳ ゴシック
100
AcDbText
  0
TEXT
  5
D2
330
1F
100
AcDbEntity
  8
A-5
  6
Continuous
 62
     7
370
     9
100
AcDbText
 10
874.3218649001233
 20
-442.3715461196258
 30
0.0
 40
22.86
  1
全ネジボルト：ＳＳ４００
 41
1.152777777777776
  7
ＭＳ ゴシック
100
AcDbText
  0
TEXT
  5
D3
330
1F
100
AcDbEntity
  8
A-5
  6
Continuous
 62
     7
370
     9
100
AcDbText
 10
873.2911881416351
 20
-489.2439725575844
 30
0.0
 40
22.86
  1
ユニクロメッキ，Ｍ６×２００
 41
1.154761904761903
  7
ＭＳ ゴシック
100
AcDbText
  0
LINE
  5
D4
330
1F
100
AcDbEntity
  8
A-5
  6
Continuous
 62
     7
370
     9
100
AcDbLine
 10
1581.195123529013
 20
-137.3942107661647
 30
0.0
 11
1432.675005737276
 21
-620.5932241296925
 31
0.0
  0
LINE
  5
D5
330
1F
100
AcDbEntity
  8
A-5
  6
Continuous
 62
     7
370
     9
100
AcDbLine
 10
1551.315249523446
 20
-132.0672767268838
 30
0.0
 11
1363.653913681929
 21
-457.1062450206378
 31
0.0
  0
LINE
  5
D6
330
1F
100
AcDbEntity
  8
A-5
  6
Continuous
 62
     7
370
     9
100
AcDbLine
 10
1581.195123529013
 20
-137.3942107661647
 30
0.0
 11
1570.793747495705
 21
-160.1276965660529
 31
0.0
  0
LINE
  5
D7
330
1F
100
AcDbEntity
  8
A-5
  6
Continuous
 62
     7
370
     9
100
AcDbLine
 10
1581.195123529013
 20
-137.3942107661647
 30
0.0
 11
1577.032024876075
 21
-162.0451460345456
 31
0.0
  0
LINE
  5
D8
330
1F
100
AcDbEntity
  8
A-5
  6
Continuous
 62
     7
370
     9
100
AcDbLine
 10
1551.315249523446
 20
-132.0672767268838
 30
0.0
 11
1541.748163714319
 21
-155.164265039666
 31
0.0
  0
LINE
  5
D9
330
1F
100
AcDbEntity
  8
A-5
  6
Continuous
 62
     7
370
     9
100
AcDbLine
 10
1551.315249523446
 20
-132.0672767268838
 30
0.0
 11
1536.096213798228
 21
-151.9011102341646
 31
0.0
  0
TEXT
  5
DA
330
1F
100
AcDbEntity
  8
A-5
  6
Continuous
 62
     7
370
     9
100
AcDbText
 10
1034.905937228847
 20
-649.8409266046325
 30
0.0
 40
22.86
  1
ユニクロメッキ，Ｍ６
 41
1.149999999999998
  7
ＭＳ ゴシック
100
AcDbText
  0
CIRCLE
  5
DB
330
1F
100
AcDbEntity
  8
A-5
  6
Continuous
 62
     7
370
     9
100
AcDbCircle
 10
1168.907857906522
 20
-132.8737149081225
 30
0.0
 40
3.0
  0
LINE
  5
DC
330
1F
100
AcDbEntity
  8
A-5
  6
JWW_CENTER2
 62
     4
370
     9
100
AcDbLine
 10
1182.943580866587
 20
-132.8737373724508
 30
0.0
 11
1155.195151192868
 21
-132.8737373724508
 31
0.0
  0
CIRCLE
  5
DD
330
1F
100
AcDbEntity
  8
A-5
  6
Continuous
 62
     7
370
     9
100
AcDbCircle
 10
1168.907857906522
 20
-132.8737149081225
 30
0.0
 40
2.458499908447266
  0
CIRCLE
  5
DE
330
1F
100
AcDbEntity
  8
A-5
  6
Continuous
 62
     4
370
     9
100
AcDbCircle
 10
1168.910464272558
 20
-132.8737373724508
 30
0.0
 40
4.0
  0
LINE
  5
DF
330
1F
100
AcDbEntity
  8
A-5
  6
JWW_DASHED2
 62
     7
370
     9
100
AcDbLine
 10
1163.157851230802
 20
-132.8737149081225
 30
0.0
 11
1166.044583332243
 21
-137.8737816653247
 31
0.0
  0
LINE
  5
E0
330
1F
100
AcDbEntity
  8
A-5
  6
JWW_DASHED2
 62
     7
370
     9
100
AcDbLine
 10
1166.044583332243
 20
-137.8737816653247
 30
0.0
 11
1171.771132480802
 21
-137.8737816653247
 31
0.0
  0
LINE
  5
E1
330
1F
100
AcDbEntity
  8
A-5
  6
JWW_DASHED2
 62
     7
370
     9
100
AcDbLine
 10
1174.657864582243
 20
-132.8737149081225
 30
0.0
 11
1171.771132480802
 21
-137.8737816653247
 31
0.0
  0
LINE
  5
E2
330
1F
100
AcDbEntity
  8
A-5
  6
JWW_DASHED2
 62
     7
370
     9
100
AcDbLine
 10
1174.657864582243
 20
-132.8737149081225
 30
0.0
 11
1171.771132480802
 21
-127.8737492403978
 31
0.0
  0
LINE
  5
E3
330
1F
100
AcDbEntity
  8
A-5
  6
JWW_DASHED2
 62
     7
370
     9
100
AcDbLine
 10
1166.044583332243
 20
-127.8737492403978
 30
0.0
 11
1171.771132480802
 21
-127.8737492403978
 31
0.0
  0
LINE
  5
E4
330
1F
100
AcDbEntity
  8
A-5
  6
JWW_DASHED2
 62
     7
370
     9
100
AcDbLine
 10
1163.157851230802
 20
-132.8737149081225
 30
0.0
 11
1166.044583332243
 21
-127.8737492403978
 31
0.0
  0
LINE
  5
E5
330
1F
100
AcDbEntity
  8
A-5
  6
JWW_CENTER2
 62
     4
370
     9
100
AcDbLine
 10
-1474.3563846568
 20
-132.8835376701747
 30
0.0
 11
-1502.104814330519
 21
-132.8835376701747
 31
0.0
  0
LINE
  5
E6
330
1F
100
AcDbEntity
  8
A-5
  6
Continuous
 62
     7
370
     9
100
AcDbLine
 10
-1494.142114292584
 20
-132.8835152058464
 30
0.0
 11
-1491.255382191144
 21
-127.8835495381218
 31
0.0
  0
LINE
  5
E7
330
1F
100
AcDbEntity
  8
A-5
  6
Continuous
 62
     7
370
     9
100
AcDbLine
 10
-1494.142114292584
 20
-132.8835152058464
 30
0.0
 11
-1491.255382191144
 21
-137.8835819630485
 31
0.0
  0
LINE
  5
E8
330
1F
100
AcDbEntity
  8
A-5
  6
Continuous
 62
     7
370
     9
100
AcDbLine
 10
-1491.255382191144
 20
-137.8835819630485
 30
0.0
 11
-1485.528833042584
 21
-137.8835819630485
 31
0.0
  0
LINE
  5
E9
330
1F
100
AcDbEntity
  8
A-5
  6
Continuous
 62
     7
370
     9
100
AcDbLine
 10
-1482.642100941144
 20
-132.8835152058464
 30
0.0
 11
-1485.528833042584
 21
-137.8835819630485
 31
0.0
  0
LINE
  5
EA
330
1F
100
AcDbEntity
  8
A-5
  6
Continuous
 62
     7
370
     9
100
AcDbLine
 10
-1482.642100941144
 20
-132.8835152058464
 30
0.0
 11
-1485.528833042584
 21
-127.8835495381218
 31
0.0
  0
LINE
  5
EB
330
1F
100
AcDbEntity
  8
A-5
  6
Continuous
 62
     7
370
     9
100
AcDbLine
 10
-1491.255382191144
 20
-127.8835495381218
 30
0.0
 11
-1485.528833042584
 21
-127.8835495381218
 31
0.0
  0
CIRCLE
  5
EC
330
1F
100
AcDbEntity
  8
A-5
  6
Continuous
 62
     7
370
     9
100
AcDbCircle
 10
-1488.368650322534
 20
-132.8835152058464
 30
0.0
 40
4.999999046325684
  0
CIRCLE
  5
ED
330
1F
100
AcDbEntity
  8
A-5
  6
Continuous
 62
     7
370
     9
100
AcDbCircle
 10
-1488.392107616864
 20
-132.8835152058464
 30
0.0
 40
3.0
  0
CIRCLE
  5
EE
330
1F
100
AcDbEntity
  8
A-5
  6
Continuous
 62
     7
370
     9
100
AcDbCircle
 10
-1488.392107616864
 20
-132.8835152058464
 30
0.0
 40
2.458499908447266
  0
ENDSEC
  0
SECTION
  2
OBJECTS
  0
DICTIONARY
  5
C
330
0
100
AcDbDictionary
281
     1
  3
ACAD_GROUP
350
D
  3
ACAD_LAYOUT
350
1A
  3
ACAD_MLEADERSTYLE
350
F0
  3
ACAD_MLINESTYLE
350
17
  3
ACAD_PLOTSETTINGS
350
19
  3
ACAD_PLOTSTYLENAME
350
E
  3
ACAD_TABLESTYLE
350
EF
  3
ACAD_VISUALSTYLE
350
2A
  3
AcDbVariableDictionary
350
F1
  0
DICTIONARY
  5
D
102
{ACAD_REACTORS
330
C
102
}
330
C
100
AcDbDictionary
281
     1
  0
DICTIONARY
  5
1A
102
{ACAD_REACTORS
330
C
102
}
330
C
100
AcDbDictionary
281
     1
  3
Layout1
350
1E
  3
Layout2
350
26
  3
Model
350
22
  0
DICTIONARY
  5
F0
102
{ACAD_REACTORS
330
C
102
}
330
C
100
AcDbDictionary
281
     1
  0
DICTIONARY
  5
17
102
{ACAD_REACTORS
330
C
102
}
330
C
100
AcDbDictionary
281
     1
  3
Standard
350
18
  0
DICTIONARY
  5
19
102
{ACAD_REACTORS
330
C
102
}
330
C
100
AcDbDictionary
281
     1
  0
ACDBDICTIONARYWDFLT
  5
E
102
{ACAD_REACTORS
330
C
102
}
330
C
100
AcDbDictionary
281
     1
  3
Normal
350
F
100
AcDbDictionaryWithDefault
340
F
  0
DICTIONARY
  5
EF
102
{ACAD_REACTORS
330
C
102
}
330
C
100
AcDbDictionary
281
     1
  0
DICTIONARY
  5
2A
102
{ACAD_REACTORS
330
C
102
}
330
C
100
AcDbDictionary
281
     1
  3
2dWireframe
350
2F
  3
3D Hidden
350
31
  3
3dWireframe
350
30
  3
Basic
350
32
  3
Brighten
350
36
  3
ColorChange
350
3A
  3
Conceptual
350
34
  3
Dim
350
35
  3
Facepattern
350
39
  3
Flat
350
2B
  3
FlatWithEdges
350
2C
  3
Gouraud
350
2D
  3
GouraudWithEdges
350
2E
  3
Linepattern
350
38
  3
Realistic
350
33
  3
Thicken
350
37
  0
DICTIONARY
  5
F1
102
{ACAD_REACTORS
330
C
102
}
330
C
100
AcDbDictionary
281
     1
  3
PSOLHEIGHT
350
F3
  3
PSOLWIDTH
350
F2
  0
LAYOUT
  5
1E
102
{ACAD_REACTORS
330
1A
102
}
102
{ACAD_XDICTIONARY
360
F4
102
}
330
1A
100
AcDbPlotSettings
  1

  2
none_device
  4

  6

 40
0.0
 41
0.0
 42
0.0
 43
0.0
 44
0.0
 45
0.0
 46
0.0
 47
0.0
 48
0.0
 49
0.0
140
0.0
141
0.0
142
1.0
143
1.0
 70
   688
 72
     0
 73
     0
 74
     5
  7

 75
    16
147
1.0
148
0.0
149
0.0
100
AcDbLayout
  1
Layout1
 70
     1
 71
     1
 10
0.0
 20
0.0
 11
420.0
 21
297.0
 12
0.0
 22
0.0
 32
0.0
 14
1.000000000000000E+20
 24
1.000000000000000E+20
 34
1.000000000000000E+20
 15
-1.000000000000000E+20
 25
-1.000000000000000E+20
 35
-1.000000000000000E+20
146
0.0
 13
0.0
 23
0.0
 33
0.0
 16
1.0
 26
0.0
 36
0.0
 17
0.0
 27
1.0
 37
0.0
 76
     0
330
1B
  0
LAYOUT
  5
26
102
{ACAD_REACTORS
330
1A
102
}
102
{ACAD_XDICTIONARY
360
F8
102
}
330
1A
100
AcDbPlotSettings
  1

  2
none_device
  4

  6

 40
0.0
 41
0.0
 42
0.0
 43
0.0
 44
0.0
 45
0.0
 46
0.0
 47
0.0
 48
0.0
 49
0.0
140
0.0
141
0.0
142
1.0
143
1.0
 70
   688
 72
     0
 73
     0
 74
     5
  7

 75
    16
147
1.0
148
0.0
149
0.0
100
AcDbLayout
  1
Layout2
 70
     1
 71
     2
 10
0.0
 20
0.0
 11
0.0
 21
0.0
 12
0.0
 22
0.0
 32
0.0
 14
0.0
 24
0.0
 34
0.0
 15
0.0
 25
0.0
 35
0.0
146
0.0
 13
0.0
 23
0.0
 33
0.0
 16
1.0
 26
0.0
 36
0.0
 17
0.0
 27
1.0
 37
0.0
 76
     0
330
23
  0
LAYOUT
  5
22
102
{ACAD_REACTORS
330
1A
102
}
102
{ACAD_XDICTIONARY
360
F6
102
}
330
1A
100
AcDbPlotSettings
  1

  2
none_device
  4

  6

 40
0.0
 41
0.0
 42
0.0
 43
0.0
 44
0.0
 45
0.0
 46
0.0
 47
0.0
 48
0.0
 49
0.0
140
0.0
141
0.0
142
1.0
143
1.0
 70
  1712
 72
     0
 73
     0
 74
     0
  7

 75
     0
147
1.0
148
0.0
149
0.0
100
AcDbLayout
  1
Model
 70
     1
 71
     0
 10
-2100.0
 20
-1485.0
 11
2100.0
 21
1485.0
 12
0.0
 22
0.0
 32
0.0
 14
-2100.0
 24
-1485.0
 34
0.0
 15
2100.0
 25
1485.0
 35
0.0
146
0.0
 13
0.0
 23
0.0
 33
0.0
 16
1.0
 26
0.0
 36
0.0
 17
0.0
 27
1.0
 37
0.0
 76
     0
330
1F
331
29
  0
MLINESTYLE
  5
18
102
{ACAD_REACTORS
330
17
102
}
330
17
100
AcDbMlineStyle
  2
Standard
 70
     0
  3

 62
   256
 51
90.0
 52
90.0
 71
     2
 49
0.5
 62
   256
  6
BYLAYER
 49
-0.5
 62
   256
  6
BYLAYER
  0
ACDBPLACEHOLDER
  5
F
102
{ACAD_REACTORS
330
E
102
}
330
E
  0
VISUALSTYLE
  5
2F
102
{ACAD_REACTORS
330
2A
102
}
330
2A
100
AcDbVisualStyle
  2
2dWireframe
 70
     4
 71
     0
 72
     2
 73
     0
 90
        0
 40
-0.6
 41
-30.0
 62
     5
 63
     7
 74
     1
 91
        4
 64
     7
 65
   257
 75
     1
175
     1
 42
1.0
 92
        0
 66
   257
 43
1.0
 76
     1
 77
     6
 78
     2
 67
     7
 79
     5
170
     0
171
     0
290
     0
174
     0
 93
        1
 44
0.0
173
     0
291
     0
 45
0.0
1001
ACAD
1000
AcDbSavedByObjectVersion
1070
     0
  0
VISUALSTYLE
  5
31
102
{ACAD_REACTORS
330
2A
102
}
330
2A
100
AcDbVisualStyle
  2
3D Hidden
 70
     6
 71
     1
 72
     2
 73
     2
 90
        0
 40
-0.6
 41
-30.0
 62
     5
 63
     7
 74
     2
 91
        2
 64
     7
 65
   257
 75
     2
175
     1
 42
40.0
 92
        0
 66
   257
 43
1.0
 76
     1
 77
     6
 78
     2
 67
     7
 79
     3
170
     0
171
     0
290
     0
174
     0
 93
        1
 44
0.0
173
     0
291
     0
 45
0.0
1001
ACAD
1000
AcDbSavedByObjectVersion
1070
     0
  0
VISUALSTYLE
  5
30
102
{ACAD_REACTORS
330
2A
102
}
330
2A
100
AcDbVisualStyle
  2
3dWireframe
 70
     5
 71
     0
 72
     2
 73
     0
 90
        0
 40
-0.6
 41
-30.0
 62
     5
 63
     7
 74
     1
 91
        4
 64
     7
 65
   257
 75
     1
175
     1
 42
1.0
 92
        0
 66
   257
 43
1.0
 76
     1
 77
     6
 78
     2
 67
     7
 79
     5
170
     0
171
     0
290
     0
174
     0
 93
        1
 44
0.0
173
     0
291
     0
 45
0.0
1001
ACAD
1000
AcDbSavedByObjectVersion
1070
     0
  0
VISUALSTYLE
  5
32
102
{ACAD_REACTORS
330
2A
102
}
330
2A
100
AcDbVisualStyle
  2
Basic
 70
     7
 71
     1
 72
     0
 73
     1
 90
        0
 40
-0.6
 41
-30.0
 62
     5
 63
     7
 74
     0
 91
        4
 64
     7
 65
   257
 75
     1
175
     1
 42
1.0
 92
        8
 66
     7
 43
1.0
 76
     1
 77
     6
 78
     2
 67
     7
 79
     5
170
     0
171
     0
290
     0
174
     0
 93
        1
 44
0.0
173
     0
291
     1
 45
0.0
1001
ACAD
1000
AcDbSavedByObjectVersion
1070
     0
  0
VISUALSTYLE
  5
36
102
{ACAD_REACTORS
330
2A
102
}
330
2A
100
AcDbVisualStyle
  2
Brighten
 70
    12
 71
     2
 72
     2
 73
     0
 90
        0
 40
-0.6
 41
-30.0
 62
     5
 63
     7
 74
     1
 91
        4
 64
     7
 65
   257
 75
     1
175
     1
 42
1.0
 92
        8
 66
     7
 43
1.0
 76
     1
 77
     6
 78
     2
 67
     7
 79
     5
170
     0
171
     0
290
     0
174
     0
 93
        1
 44
50.0
173
     0
291
     1
 45
0.0
1001
ACAD
1000
AcDbSavedByObjectVersion
1070
     0
  0
VISUALSTYLE
  5
3A
102
{ACAD_REACTORS
330
2A
102
}
330
2A
100
AcDbVisualStyle
  2
ColorChange
 70
    16
 71
     2
 72
     2
 73
     3
 90
        0
 40
-0.6
 41
-30.0
 62
     5
 63
     8
 74
     1
 91
        4
 64
     7
 65
   257
 75
     1
175
     1
 42
1.0
 92
        8
 66
     8
 43
1.0
 76
     1
 77
     6
 78
     2
 67
     7
 79
     5
170
     0
171
     0
290
     0
174
     0
 93
        1
 44
0.0
173
     0
291
     1
 45
0.0
1001
ACAD
1000
AcDbSavedByObjectVersion
1070
     0
  0
VISUALSTYLE
  5
34
102
{ACAD_REACTORS
330
2A
102
}
330
2A
100
AcDbVisualStyle
  2
Conceptual
 70
     9
 71
     3
 72
     2
 73
     0
 90
        0
 40
-0.6
 41
-30.0
 62
     5
 63
     7
 74
     2
 91
        2
 64
     7
 65
   257
 75
     1
175
     1
 42
40.0
 92
        8
 66
     7
 43
1.0
 76
     1
 77
     6
 78
     2
 67
     7
 79
     3
170
     0
171
     0
290
     0
174
     0
 93
        1
 44
0.0
173
     0
291
     0
 45
0.0
1001
ACAD
1000
AcDbSavedByObjectVersion
1070
     0
  0
VISUALSTYLE
  5
35
102
{ACAD_REACTORS
330
2A
102
}
330
2A
100
AcDbVisualStyle
  2
Dim
 70
    11
 71
     2
 72
     2
 73
     0
 90
        0
 40
-0.6
 41
-30.0
 62
     5
 63
     7
 74
     1
 91
        4
 64
     7
 65
   257
 75
     1
175
     1
 42
1.0
 92
        8
 66
     7
 43
1.0
 76
     1
 77
     6
 78
     2
 67
     7
 79
     5
170
     0
171
     0
290
     0
174
     0
 93
        1
 44
-50.0
173
     0
291
     1
 45
0.0
1001
ACAD
1000
AcDbSavedByObjectVersion
1070
     0
  0
VISUALSTYLE
  5
39
102
{ACAD_REACTORS
330
2A
102
}
330
2A
100
AcDbVisualStyle
  2
Facepattern
 70
    15
 71
     2
 72
     2
 73
     0
 90
        0
 40
-0.6
 41
-30.0
 62
     5
 63
     7
 74
     1
 91
        4
 64
     7
 65
   257
 75
     1
175
     1
 42
1.0
 92
        8
 66
     7
 43
1.0
 76
     1
 77
     6
 78
     2
 67
     7
 79
     5
170
     0
171
     0
290
     0
174
     0
 93
        1
 44
0.0
173
     0
291
     1
 45
0.0
1001
ACAD
1000
AcDbSavedByObjectVersion
1070
     0
  0
VISUALSTYLE
  5
2B
102
{ACAD_REACTORS
330
2A
102
}
330
2A
100
AcDbVisualStyle
  2
Flat
 70
     0
 71
     2
 72
     1
 73
     1
 90
        2
 40
-0.6
 41
30.0
 62
     5
 63
     7
 74
     0
 91
        4
 64
     7
 65
   257
 75
     1
175
     1
 42
1.0
 92
        8
 66
     7
 43
1.0
 76
     1
 77
     6
 78
     2
 67
     7
 79
     5
170
     0
171
     0
290
     0
174
     0
 93
       13
 44
0.0
173
     0
291
     1
 45
0.0
1001
ACAD
1000
AcDbSavedByObjectVersion
1070
     0
  0
VISUALSTYLE
  5
2C
102
{ACAD_REACTORS
330
2A
102
}
330
2A
100
AcDbVisualStyle
  2
FlatWithEdges
 70
     1
 71
     2
 72
     1
 73
     1
 90
        2
 40
-0.6
 41
30.0
 62
     5
 63
     7
 74
     1
 91
        4
 64
     7
 65
   257
 75
     1
175
     1
 42
1.0
 92
        0
 66
   257
 43
1.0
 76
     1
 77
     6
 78
     2
 67
     7
 79
     5
170
     0
171
     0
290
     0
174
     0
 93
       13
 44
0.0
173
     0
291
     1
 45
0.0
1001
ACAD
1000
AcDbSavedByObjectVersion
1070
     0
  0
VISUALSTYLE
  5
2D
102
{ACAD_REACTORS
330
2A
102
}
330
2A
100
AcDbVisualStyle
  2
Gouraud
 70
     2
 71
     2
 72
     2
 73
     1
 90
        2
 40
-0.6
 41
30.0
 62
     5
 63
     7
 74
     0
 91
        4
 64
     7
 65
   257
 75
     1
175
     1
 42
1.0
 92
        0
 66
     7
 43
1.0
 76
     1
 77
     6
 78
     2
 67
     7
 79
     5
170
     0
171
     0
290
     0
174
     0
 93
       13
 44
0.0
173
     0
291
     1
 45
0.0
1001
ACAD
1000
AcDbSavedByObjectVersion
1070
     0
  0
VISUALSTYLE
  5
2E
102
{ACAD_REACTORS
330
2A
102
}
330
2A
100
AcDbVisualStyle
  2
GouraudWithEdges
 70
     3
 71
     2
 72
     2
 73
     1
 90
        2
 40
-0.6
 41
30.0
 62
     5
 63
     7
 74
     1
 91
        4
 64
     7
 65
   257
 75
     1
175
     1
 42
1.0
 92
        0
 66
   257
 43
1.0
 76
     1
 77
     6
 78
     2
 67
     7
 79
     5
170
     0
171
     0
290
     0
174
     0
 93
       13
 44
0.0
173
     0
291
     1
 45
0.0
1001
ACAD
1000
AcDbSavedByObjectVersion
1070
     0
  0
VISUALSTYLE
  5
38
102
{ACAD_REACTORS
330
2A
102
}
330
2A
100
AcDbVisualStyle
  2
Linepattern
 70
    14
 71
     2
 72
     2
 73
     0
 90
        0
 40
-0.6
 41
-30.0
 62
     5
 63
     7
 74
     1
 91
        4
 64
     7
 65
   257
 75
     7
175
     7
 42
1.0
 92
        8
 66
     7
 43
1.0
 76
     1
 77
     6
 78
     2
 67
     7
 79
     5
170
     0
171
     0
290
     0
174
     0
 93
        1
 44
0.0
173
     0
291
     1
 45
0.0
1001
ACAD
1000
AcDbSavedByObjectVersion
1070
     0
  0
VISUALSTYLE
  5
33
102
{ACAD_REACTORS
330
2A
102
}
330
2A
100
AcDbVisualStyle
  2
Realistic
 70
     8
 71
     2
 72
     2
 73
     0
 90
        0
 40
-0.6
 41
-30.0
 62
     5
 63
     7
 74
     1
 91
        0
 64
     7
 65
   257
 75
     1
175
     1
 42
1.0
 92
        8
 66
     8
 43
1.0
 76
     1
 77
     6
 78
     2
 67
     7
 79
     5
170
     0
171
     0
290
     0
174
     0
 93
       13
 44
0.0
173
     0
291
     0
 45
0.0
1001
ACAD
1000
AcDbSavedByObjectVersion
1070
     0
  0
VISUALSTYLE
  5
37
102
{ACAD_REACTORS
330
2A
102
}
330
2A
100
AcDbVisualStyle
  2
Thicken
 70
    13
 71
     2
 72
     2
 73
     0
 90
        0
 40
-0.6
 41
-30.0
 62
     5
 63
     7
 74
     1
 91
        4
 64
     7
 65
   257
 75
     1
175
     1
 42
1.0
 92
       12
 66
     7
 43
1.0
 76
     1
 77
     6
 78
     2
 67
     7
 79
     5
170
     0
171
     0
290
     0
174
     0
 93
        1
 44
0.0
173
     0
291
     1
 45
0.0
1001
ACAD
1000
AcDbSavedByObjectVersion
1070
     0
  0
DICTIONARYVAR
  5
F3
102
{ACAD_REACTORS
330
F1
102
}
330
F1
100
DictionaryVariables
280
     0
  1
80.000000
  0
DICTIONARYVAR
  5
F2
102
{ACAD_REACTORS
330
F1
102
}
330
F1
100
DictionaryVariables
280
     0
  1
5.000000
  0
DICTIONARY
  5
F4
330
1E
100
AcDbDictionary
280
     1
281
     1
  3
ACAD_XREC_ROUNDTRIP
360
F5
  0
DICTIONARY
  5
F8
330
26
100
AcDbDictionary
280
     1
281
     1
  3
ACAD_XREC_ROUNDTRIP
360
F9
  0
DICTIONARY
  5
F6
330
22
100
AcDbDictionary
280
     1
281
     1
  3
ACAD_XREC_ROUNDTRIP
360
F7
  0
XRECORD
  5
F5
102
{ACAD_REACTORS
330
F4
102
}
330
F4
100
AcDbXrecord
280
     1
102
SHADEPLOT
 70
     0
102
SHADEPLOTRESLEVEL
 70
     5
102
SHADEPLOTCUSTOMDPI
 70
   300
  0
XRECORD
  5
F9
102
{ACAD_REACTORS
330
F8
102
}
330
F8
100
AcDbXrecord
280
     1
102
SHADEPLOT
 70
     0
102
SHADEPLOTRESLEVEL
 70
     5
102
SHADEPLOTCUSTOMDPI
 70
   300
  0
XRECORD
  5
F7
102
{ACAD_REACTORS
330
F6
102
}
330
F6
100
AcDbXrecord
280
     1
102
SHADEPLOT
 70
     0
102
SHADEPLOTRESLEVEL
 70
     5
102
SHADEPLOTCUSTOMDPI
 70
   300
  0
ENDSEC
  0
EOF
