  0
SECTION
  2
HEADER
  9
$ACADVER
  1
AC1015
  9
$ACADMAINTVER
 70
     6
  9
$DWGCODEPAGE
  3
ANSI_932
  9
$INSBASE
 10
0.0
 20
0.0
 30
0.0
  9
$EXTMIN
 10
-2970.0
 20
-2100.0
 30
0.0
  9
$EXTMAX
 10
2970.0
 20
2100.0
 30
0.0
  9
$LIMMIN
 10
-2970.0
 20
-2100.0
  9
$LIMMAX
 10
2970.0
 20
2100.0
  9
$ORTHOMODE
 70
     0
  9
$REGENMODE
 70
     1
  9
$FILLMODE
 70
     1
  9
$QTEXTMODE
 70
     0
  9
$MIRRTEXT
 70
     1
  9
$LTSCALE
 40
10.0
  9
$ATTMODE
 70
     1
  9
$TEXTSIZE
 40
2.5
  9
$TRACEWID
 40
1.0
  9
$TEXTSTYLE
  7
Standard
  9
$CLAYER
  8
0
  9
$CELTYPE
  6
ByLayer
  9
$CECOLOR
 62
   256
  9
$CELTSCALE
 40
1.0
  9
$DISPSILH
 70
     0
  9
$DIMSCALE
 40
1.0
  9
$DIMASZ
 40
2.5
  9
$DIMEXO
 40
0.625
  9
$DIMDLI
 40
3.75
  9
$DIMRND
 40
0.0
  9
$DIMDLE
 40
0.0
  9
$DIMEXE
 40
1.25
  9
$DIMTP
 40
0.0
  9
$DIMTM
 40
0.0
  9
$DIMTXT
 40
2.5
  9
$DIMCEN
 40
2.5
  9
$DIMTSZ
 40
0.0
  9
$DIMTOL
 70
     0
  9
$DIMLIM
 70
     0
  9
$DIMTIH
 70
     0
  9
$DIMTOH
 70
     0
  9
$DIMSE1
 70
     0
  9
$DIMSE2
 70
     0
  9
$DIMTAD
 70
     1
  9
$DIMZIN
 70
     8
  9
$DIMBLK
  1

  9
$DIMASO
 70
     1
  9
$DIMSHO
 70
     1
  9
$DIMPOST
  1

  9
$DIMAPOST
  1

  9
$DIMALT
 70
     0
  9
$DIMALTD
 70
     3
  9
$DIMALTF
 40
0.03937007874016
  9
$DIMLFAC
 40
1.0
  9
$DIMTOFL
 70
     1
  9
$DIMTVP
 40
0.0
  9
$DIMTIX
 70
     0
  9
$DIMSOXD
 70
     0
  9
$DIMSAH
 70
     0
  9
$DIMBLK1
  1

  9
$DIMBLK2
  1

  9
$DIMSTYLE
  2
ISO-25
  9
$DIMCLRD
 70
     0
  9
$DIMCLRE
 70
     0
  9
$DIMCLRT
 70
     0
  9
$DIMTFAC
 40
1.0
  9
$DIMGAP
 40
0.625
  9
$DIMJUST
 70
     0
  9
$DIMSD1
 70
     0
  9
$DIMSD2
 70
     0
  9
$DIMTOLJ
 70
     0
  9
$DIMTZIN
 70
     8
  9
$DIMALTZ
 70
     0
  9
$DIMALTTZ
 70
     0
  9
$DIMUPT
 70
     0
  9
$DIMDEC
 70
     2
  9
$DIMTDEC
 70
     2
  9
$DIMALTU
 70
     2
  9
$DIMALTTD
 70
     3
  9
$DIMTXSTY
  7
Standard
  9
$DIMAUNIT
 70
     0
  9
$DIMADEC
 70
     0
  9
$DIMALTRND
 40
0.0
  9
$DIMAZIN
 70
     0
  9
$DIMDSEP
 70
    44
  9
$DIMATFIT
 70
     3
  9
$DIMFRAC
 70
     0
  9
$DIMLDRBLK
  1

  9
$DIMLUNIT
 70
     2
  9
$DIMLWD
 70
    -2
  9
$DIMLWE
 70
    -2
  9
$DIMTMOVE
 70
     0
  9
$LUNITS
 70
     2
  9
$LUPREC
 70
     4
  9
$SKETCHINC
 40
1.0
  9
$FILLETRAD
 40
10.0
  9
$AUNITS
 70
     0
  9
$AUPREC
 70
     0
  9
$MENU
  1
.
  9
$ELEVATION
 40
0.0
  9
$PELEVATION
 40
0.0
  9
$THICKNESS
 40
0.0
  9
$LIMCHECK
 70
     0
  9
$CHAMFERA
 40
10.0
  9
$CHAMFERB
 40
10.0
  9
$CHAMFERC
 40
20.0
  9
$CHAMFERD
 40
0.0
  9
$SKPOLY
 70
     0
  9
$TDCREATE
 40
2456911.468091933
  9
$TDUCREATE
 40
2456911.093091933
  9
$TDUPDATE
 40
2456911.468091944
  9
$TDUUPDATE
 40
2456911.093091944
  9
$TDINDWG
 40
0.0000000116
  9
$TDUSRTIMER
 40
0.0000000116
  9
$USRTIMER
 70
     1
  9
$ANGBASE
 50
0.0
  9
$ANGDIR
 70
     0
  9
$PDMODE
 70
     0
  9
$PDSIZE
 40
0.0
  9
$PLINEWID
 40
0.0
  9
$SPLFRAME
 70
     0
  9
$SPLINETYPE
 70
     6
  9
$SPLINESEGS
 70
     8
  9
$HANDSEED
  5
2C0
  9
$SURFTAB1
 70
     6
  9
$SURFTAB2
 70
     6
  9
$SURFTYPE
 70
     6
  9
$SURFU
 70
     6
  9
$SURFV
 70
     6
  9
$UCSBASE
  2

  9
$UCSNAME
  2

  9
$UCSORG
 10
0.0
 20
0.0
 30
0.0
  9
$UCSXDIR
 10
1.0
 20
0.0
 30
0.0
  9
$UCSYDIR
 10
0.0
 20
1.0
 30
0.0
  9
$UCSORTHOREF
  2

  9
$UCSORTHOVIEW
 70
     0
  9
$UCSORGTOP
 10
0.0
 20
0.0
 30
0.0
  9
$UCSORGBOTTOM
 10
0.0
 20
0.0
 30
0.0
  9
$UCSORGLEFT
 10
0.0
 20
0.0
 30
0.0
  9
$UCSORGRIGHT
 10
0.0
 20
0.0
 30
0.0
  9
$UCSORGFRONT
 10
0.0
 20
0.0
 30
0.0
  9
$UCSORGBACK
 10
0.0
 20
0.0
 30
0.0
  9
$PUCSBASE
  2

  9
$PUCSNAME
  2

  9
$PUCSORG
 10
0.0
 20
0.0
 30
0.0
  9
$PUCSXDIR
 10
1.0
 20
0.0
 30
0.0
  9
$PUCSYDIR
 10
0.0
 20
1.0
 30
0.0
  9
$PUCSORTHOREF
  2

  9
$PUCSORTHOVIEW
 70
     0
  9
$PUCSORGTOP
 10
0.0
 20
0.0
 30
0.0
  9
$PUCSORGBOTTOM
 10
0.0
 20
0.0
 30
0.0
  9
$PUCSORGLEFT
 10
0.0
 20
0.0
 30
0.0
  9
$PUCSORGRIGHT
 10
0.0
 20
0.0
 30
0.0
  9
$PUCSORGFRONT
 10
0.0
 20
0.0
 30
0.0
  9
$PUCSORGBACK
 10
0.0
 20
0.0
 30
0.0
  9
$USERI1
 70
     0
  9
$USERI2
 70
     0
  9
$USERI3
 70
     0
  9
$USERI4
 70
     0
  9
$USERI5
 70
     0
  9
$USERR1
 40
0.0
  9
$USERR2
 40
0.0
  9
$USERR3
 40
0.0
  9
$USERR4
 40
0.0
  9
$USERR5
 40
0.0
  9
$WORLDVIEW
 70
     1
  9
$SHADEDGE
 70
     3
  9
$SHADEDIF
 70
    70
  9
$TILEMODE
 70
     1
  9
$MAXACTVP
 70
    64
  9
$PINSBASE
 10
0.0
 20
0.0
 30
0.0
  9
$PLIMCHECK
 70
     0
  9
$PEXTMIN
 10
1.000000000000000E+20
 20
1.000000000000000E+20
 30
1.000000000000000E+20
  9
$PEXTMAX
 10
-1.000000000000000E+20
 20
-1.000000000000000E+20
 30
-1.000000000000000E+20
  9
$PLIMMIN
 10
0.0
 20
0.0
  9
$PLIMMAX
 10
420.0
 20
297.0
  9
$UNITMODE
 70
     0
  9
$VISRETAIN
 70
     1
  9
$PLINEGEN
 70
     0
  9
$PSLTSCALE
 70
     1
  9
$TREEDEPTH
 70
  3020
  9
$CMLSTYLE
  2
Standard
  9
$CMLJUST
 70
     0
  9
$CMLSCALE
 40
20.0
  9
$PROXYGRAPHICS
 70
     1
  9
$MEASUREMENT
 70
     1
  9
$CELWEIGHT
370
    -1
  9
$ENDCAPS
280
     0
  9
$JOINSTYLE
280
     0
  9
$LWDISPLAY
290
     0
  9
$INSUNITS
 70
     4
  9
$HYPERLINKBASE
  1

  9
$STYLESHEET
  1

  9
$XEDIT
290
     1
  9
$CEPSNTYPE
380
     0
  9
$PSTYLEMODE
290
     1
  9
$FINGERPRINTGUID
  2
{C76878DD-7224-491A-B06A-8D53D91A5E91}
  9
$VERSIONGUID
  2
{FAEB1C32-E019-11D5-929B-00C0DF256EC4}
  9
$EXTNAMES
290
     1
  9
$PSVPSCALE
 40
0.0
  9
$OLESTARTUP
290
     0
  0
ENDSEC
  0
SECTION
  2
CLASSES
  0
CLASS
  1
ACDBDICTIONARYWDFLT
  2
AcDbDictionaryWithDefault
  3
ObjectDBX Classes
 90
        0
280
     0
281
     0
  0
CLASS
  1
VISUALSTYLE
  2
AcDbVisualStyle
  3
ObjectDBX Classes
 90
     4095
280
     0
281
     0
  0
CLASS
  1
DICTIONARYVAR
  2
AcDbDictionaryVar
  3
ObjectDBX Classes
 90
        0
280
     0
281
     0
  0
CLASS
  1
ACDBPLACEHOLDER
  2
AcDbPlaceHolder
  3
ObjectDBX Classes
 90
        0
280
     0
281
     0
  0
CLASS
  1
LAYOUT
  2
AcDbLayout
  3
ObjectDBX Classes
 90
        0
280
     0
281
     0
  0
ENDSEC
  0
SECTION
  2
TABLES
  0
TABLE
  2
VPORT
  5
8
330
0
100
AcDbSymbolTable
 70
     1
  0
VPORT
  5
29
330
8
100
AcDbSymbolTableRecord
100
AcDbViewportTableRecord
  2
*Active
 70
     0
 10
0.0
 20
0.0
 11
1.0
 21
1.0
 12
0.0
 22
0.0
 13
0.0
 23
0.0
 14
10.0
 24
10.0
 15
10.0
 25
10.0
 16
0.0
 26
0.0
 36
1.0
 17
0.0
 27
0.0
 37
0.0
 40
4620.0
 41
1.414285714285715
 42
50.0
 43
0.0
 44
0.0
 50
0.0
 51
0.0
 71
     0
 72
 10000
 73
     1
 74
     3
 75
     0
 76
     0
 77
     0
 78
     0
281
     0
 65
     1
110
0.0
120
0.0
130
0.0
111
1.0
121
0.0
131
0.0
112
0.0
122
1.0
132
0.0
 79
     0
146
0.0
  0
ENDTAB
  0
TABLE
  2
LTYPE
  5
5
330
0
100
AcDbSymbolTable
 70
     3
  0
LTYPE
  5
14
330
5
100
AcDbSymbolTableRecord
100
AcDbLinetypeTableRecord
  2
ByBlock
 70
     0
  3

 72
    65
 73
     0
 40
0.0
  0
LTYPE
  5
15
330
5
100
AcDbSymbolTableRecord
100
AcDbLinetypeTableRecord
  2
ByLayer
 70
     0
  3

 72
    65
 73
     0
 40
0.0
  0
LTYPE
  5
16
330
5
100
AcDbSymbolTableRecord
100
AcDbLinetypeTableRecord
  2
Continuous
 70
     0
  3
Solid line
 72
    65
 73
     0
 40
0.0
  0
LTYPE
  5
3C
330
5
100
AcDbSymbolTableRecord
100
AcDbLinetypeTableRecord
  2
JWW_CENTER1
 70
     0
  3
-----  --  ----------  --  -----
 72
    65
 73
     4
 40
6.773333333333333
 49
4.233333333333333
 74
     0
 49
-0.8466666666666667
 74
     0
 49
0.8466666666666667
 74
     0
 49
-0.8466666666666667
 74
     0
  0
LTYPE
  5
3D
330
5
100
AcDbSymbolTableRecord
100
AcDbLinetypeTableRecord
  2
JWW_DASHED3
 70
     0
  3
---  ------  ------  ------  ---
 72
    65
 73
     2
 40
3.386666666666667
 49
2.54
 74
     0
 49
-0.8466666666666667
 74
     0
  0
ENDTAB
  0
TABLE
  2
LAYER
  5
2
330
0
100
AcDbSymbolTable
 70
     6
  0
LAYER
  5
10
330
2
100
AcDbSymbolTableRecord
100
AcDbLayerTableRecord
  2
0
 70
     0
 62
     7
  6
Continuous
370
    -3
390
F
  0
LAYER
  5
3E
330
2
100
AcDbSymbolTableRecord
100
AcDbLayerTableRecord
  2
6-0
 70
     0
 62
     7
  6
Continuous
370
    -3
390
F
  0
LAYER
  5
3F
330
2
100
AcDbSymbolTableRecord
100
AcDbLayerTableRecord
  2
5-0
 70
     0
 62
     7
  6
Continuous
370
    -3
390
F
  0
LAYER
  5
40
330
2
100
AcDbSymbolTableRecord
100
AcDbLayerTableRecord
  2
0-0_通り芯
 70
     0
 62
     7
  6
Continuous
370
    -3
390
F
  0
LAYER
  5
41
330
2
100
AcDbSymbolTableRecord
100
AcDbLayerTableRecord
  2
3-0
 70
     0
 62
     7
  6
Continuous
370
    -3
390
F
  0
LAYER
  5
42
330
2
100
AcDbSymbolTableRecord
100
AcDbLayerTableRecord
  2
4-0
 70
     0
 62
     7
  6
Continuous
370
    -3
390
F
  0
ENDTAB
  0
TABLE
  2
STYLE
  5
3
330
0
100
AcDbSymbolTable
 70
     2
  0
STYLE
  5
11
330
3
100
AcDbSymbolTableRecord
100
AcDbTextStyleTableRecord
  2
Standard
 70
     0
 40
0.0
 41
1.0
 50
0.0
 71
     0
 42
2.5
  3
txt
  4

1001
ACAD
1000

1071
        0
  0
STYLE
  5
3B
330
3
100
AcDbSymbolTableRecord
100
AcDbTextStyleTableRecord
  2
ＭＳ ゴシック
 70
     0
 40
1.0
 41
1.0
 50
0.0
 71
     0
 42
10.0
  3

  4

1001
ACAD
1000
MS Gothic
1071
    32817
  0
ENDTAB
  0
TABLE
  2
VIEW
  5
6
330
0
100
AcDbSymbolTable
 70
     0
  0
ENDTAB
  0
TABLE
  2
UCS
  5
7
330
0
100
AcDbSymbolTable
 70
     0
  0
ENDTAB
  0
TABLE
  2
APPID
  5
9
330
0
100
AcDbSymbolTable
 70
     1
  0
APPID
  5
12
330
9
100
AcDbSymbolTableRecord
100
AcDbRegAppTableRecord
  2
ACAD
 70
     0
  0
ENDTAB
  0
TABLE
  2
DIMSTYLE
  5
A
330
0
100
AcDbSymbolTable
 70
     1
100
AcDbDimStyleTable
  0
DIMSTYLE
105
27
330
A
100
AcDbSymbolTableRecord
100
AcDbDimStyleTableRecord
  2
ISO-25
 70
     0
 41
2.5
 42
0.625
 43
3.75
 44
1.25
 73
     0
 74
     0
 77
     1
 78
     8
140
2.5
141
2.5
143
0.03937007874016
147
0.625
171
     3
172
     1
271
     2
272
     2
274
     3
278
    44
283
     0
284
     8
340
11
  0
ENDTAB
  0
TABLE
  2
BLOCK_RECORD
  5
1
330
0
100
AcDbSymbolTable
 70
     1
  0
BLOCK_RECORD
  5
1F
330
1
100
AcDbSymbolTableRecord
100
AcDbBlockTableRecord
  2
*Model_Space
340
22
  0
BLOCK_RECORD
  5
1B
330
1
100
AcDbSymbolTableRecord
100
AcDbBlockTableRecord
  2
*Paper_Space
340
1E
  0
BLOCK_RECORD
  5
23
330
1
100
AcDbSymbolTableRecord
100
AcDbBlockTableRecord
  2
*Paper_Space0
340
26
  0
ENDTAB
  0
ENDSEC
  0
SECTION
  2
BLOCKS
  0
BLOCK
  5
20
330
1F
100
AcDbEntity
  8
0
100
AcDbBlockBegin
  2
*Model_Space
 70
     0
 10
0.0
 20
0.0
 30
0.0
  3
*Model_Space
  1

  0
ENDBLK
  5
21
330
1F
100
AcDbEntity
  8
0
100
AcDbBlockEnd
  0
BLOCK
  5
1C
330
1B
100
AcDbEntity
 67
     1
  8
0
100
AcDbBlockBegin
  2
*Paper_Space
 70
     0
 10
0.0
 20
0.0
 30
0.0
  3
*Paper_Space
  1

  0
ENDBLK
  5
1D
330
1B
100
AcDbEntity
 67
     1
  8
0
100
AcDbBlockEnd
  0
BLOCK
  5
24
330
23
100
AcDbEntity
  8
0
100
AcDbBlockBegin
  2
*Paper_Space0
 70
     0
 10
0.0
 20
0.0
 30
0.0
  3
*Paper_Space0
  1

  0
ENDBLK
  5
25
330
23
100
AcDbEntity
  8
0
100
AcDbBlockEnd
  0
ENDSEC
  0
SECTION
  2
ENTITIES
  0
TEXT
  5
43
330
1F
100
AcDbEntity
  8
6-0
  6
Continuous
 62
     2
370
     9
100
AcDbText
 10
793.8032383075188
 20
206.1199837894657
 30
0.0
 40
30.48
  1
（別途）
 41
1.09375
  7
ＭＳ ゴシック
100
AcDbText
  0
LINE
  5
44
330
1F
100
AcDbEntity
  8
5-0
  6
Continuous
 62
     7
370
     9
100
AcDbLine
 10
1240.407497337212
 20
-221.1650372197707
 30
0.0
 11
1240.407497337212
 21
-231.1650372197707
 31
0.0
  0
LINE
  5
45
330
1F
100
AcDbEntity
  8
0-0_通り芯
  6
JWW_CENTER1
 62
     7
370
     9
100
AcDbLine
 10
-2264.862931739206
 20
1176.353740478531
 30
0.0
 11
-1152.078890108677
 21
1176.353740478531
 31
0.0
  0
LINE
  5
46
330
1F
100
AcDbEntity
  8
3-0
  6
Continuous
 62
     7
370
     9
100
AcDbLine
 10
1572.907497337212
 20
-527.6650372197707
 30
0.0
 11
2610.66760051864
 21
-527.6650372197707
 31
0.0
  0
ARC
  5
47
330
1F
100
AcDbEntity
  8
4-0
  6
Continuous
 62
     7
370
     9
100
AcDbCircle
 10
-1864.174183663226
 20
1349.353440325551
 30
0.0
 40
2000.0
100
AcDbArc
 50
345.5224878140701
 51
14.47751218592993
  0
LINE
  5
48
330
1F
100
AcDbEntity
  8
4-0
  6
JWW_CENTER1
 62
     7
370
     9
100
AcDbLine
 10
-591.3452928635701
 20
1349.353440325551
 30
0.0
 11
181.8075097755658
 21
1349.353440325551
 31
0.0
  0
ARC
  5
49
330
1F
100
AcDbEntity
  8
4-0
  6
Continuous
 62
     7
370
     9
100
AcDbCircle
 10
-1864.174183663226
 20
1349.353440325551
 30
0.0
 40
1862.0
100
AcDbArc
 50
344.4232793621383
 51
15.57672063786177
  0
LINE
  5
4A
330
1F
100
AcDbEntity
  8
4-0
  6
Continuous
 62
     7
370
     9
100
AcDbLine
 10
256.27783142405
 20
440.4047877983973
 30
0.0
 11
253.0146766185486
 21
465.1909093327425
 31
0.0
  0
LINE
  5
4B
330
1F
100
AcDbEntity
  8
4-0
  6
Continuous
 62
     7
370
     9
100
AcDbLine
 10
256.27783142405
 20
440.4047877983973
 30
0.0
 11
259.5409862295513
 21
465.1909093327425
 31
0.0
  0
LINE
  5
4C
330
1F
100
AcDbEntity
  8
4-0
  6
Continuous
 62
     7
370
     9
100
AcDbLine
 10
256.27783142405
 20
420.4047877983973
 30
0.0
 11
253.0146766185486
 21
395.6186662640521
 31
0.0
  0
LINE
  5
4D
330
1F
100
AcDbEntity
  8
4-0
  6
Continuous
 62
     7
370
     9
100
AcDbLine
 10
256.27783142405
 20
420.4047877983973
 30
0.0
 11
259.5409862295513
 21
395.6186662640521
 31
0.0
  0
LINE
  5
4E
330
1F
100
AcDbEntity
  8
4-0
  6
Continuous
 62
     7
370
     9
100
AcDbLine
 10
259.2778314240499
 20
440.4047877983973
 30
0.0
 11
165.8258163367736
 21
440.4047877983973
 31
0.0
  0
LINE
  5
4F
330
1F
100
AcDbEntity
  8
4-0
  6
Continuous
 62
     7
370
     9
100
AcDbLine
 10
259.2778314240499
 20
420.4047877983973
 30
0.0
 11
165.8258163367736
 21
420.4047877983973
 31
0.0
  0
TEXT
  5
50
330
1F
100
AcDbEntity
  8
4-0
  6
Continuous
 62
     2
370
   211
100
AcDbText
 10
244.63783142405
 20
420.4047877983973
 30
0.0
 40
30.48
  1
1
 50
90.0
 41
0.9999999999999998
  7
ＭＳ ゴシック
100
AcDbText
  0
LINE
  5
51
330
1F
100
AcDbEntity
  8
4-0
  6
Continuous
 62
     7
370
     9
100
AcDbLine
 10
353.5606693405982
 20
420.4047877983973
 30
0.0
 11
353.5606693405982
 21
520.4047877983974
 31
0.0
  0
LINE
  5
52
330
1F
100
AcDbEntity
  8
4-0
  6
Continuous
 62
     7
370
     9
100
AcDbLine
 10
353.5606693405982
 20
420.4047877983973
 30
0.0
 11
350.2975145350969
 21
445.1909093327425
 31
0.0
  0
LINE
  5
53
330
1F
100
AcDbEntity
  8
4-0
  6
Continuous
 62
     7
370
     9
100
AcDbLine
 10
353.5606693405982
 20
420.4047877983973
 30
0.0
 11
356.8238241460996
 21
445.1909093327425
 31
0.0
  0
LINE
  5
54
330
1F
100
AcDbEntity
  8
4-0
  6
Continuous
 62
     7
370
     9
100
AcDbLine
 10
353.5606693405982
 20
520.4047877983974
 30
0.0
 11
350.2975145350969
 21
495.6186662640521
 31
0.0
  0
LINE
  5
55
330
1F
100
AcDbEntity
  8
4-0
  6
Continuous
 62
     7
370
     9
100
AcDbLine
 10
353.5606693405982
 20
520.4047877983974
 30
0.0
 11
356.8238241460996
 21
495.6186662640521
 31
0.0
  0
LINE
  5
56
330
1F
100
AcDbEntity
  8
4-0
  6
Continuous
 62
     7
370
     9
100
AcDbLine
 10
356.5606693405982
 20
420.4047877983973
 30
0.0
 11
165.8258163367736
 21
420.4047877983973
 31
0.0
  0
TEXT
  5
57
330
1F
100
AcDbEntity
  8
4-0
  6
Continuous
 62
     2
370
   211
100
AcDbText
 10
341.9206693405984
 20
460.4047877983973
 30
0.0
 40
30.48
  1
5
 50
90.0
 41
0.9999999999999998
  7
ＭＳ ゴシック
100
AcDbText
  0
LINE
  5
58
330
1F
100
AcDbEntity
  8
4-0
  6
Continuous
 62
     7
370
     9
100
AcDbLine
 10
45.75916976380888
 20
492.4047904423054
 30
0.0
 11
36.19208395468164
 21
469.3078021295232
 31
0.0
  0
LINE
  5
59
330
1F
100
AcDbEntity
  8
4-0
  6
Continuous
 62
     7
370
     9
100
AcDbLine
 10
45.75916976380888
 20
492.4047904423054
 30
0.0
 11
30.54013403859088
 21
472.5709569350245
 31
0.0
  0
LINE
  5
5A
330
1F
100
AcDbEntity
  8
4-0
  6
Continuous
 62
     7
370
     9
100
AcDbLine
 10
26.46682720033496
 20
420.4047877983973
 30
0.0
 11
23.20367239483367
 21
445.1909093327425
 31
0.0
  0
LINE
  5
5B
330
1F
100
AcDbEntity
  8
4-0
  6
Continuous
 62
     7
370
     9
100
AcDbLine
 10
26.46682720033496
 20
420.4047877983973
 30
0.0
 11
29.72998200583625
 21
445.1909093327425
 31
0.0
  0
LINE
  5
5C
330
1F
100
AcDbEntity
  8
4-0
  6
Continuous
 62
     7
370
     9
100
AcDbLine
 10
135.8258163367736
 20
440.4047877983973
 30
0.0
 11
135.8258163367736
 21
420.4047877983973
 31
0.0
  0
LINE
  5
5D
330
1F
100
AcDbEntity
  8
4-0
  6
Continuous
 62
     7
370
     9
100
AcDbLine
 10
135.8258163367736
 20
440.4047877983973
 30
0.0
 11
-2.738248268736569
 21
520.4047877983974
 31
0.0
  0
TEXT
  5
5E
330
1F
100
AcDbEntity
  8
4-0
  6
Continuous
 62
     3
370
     9
100
AcDbText
 10
-567.2762579331559
 20
155.9500586496441
 30
0.0
 40
38.1
  1
固定穴・センターマーク詳細　S=2:1
 41
1.096969696969697
  7
ＭＳ ゴシック
100
AcDbText
  0
LINE
  5
5F
330
1F
100
AcDbEntity
  8
4-0
  6
Continuous
 62
     7
370
     9
100
AcDbLine
 10
256.27783142405
 20
486.6511526500618
 30
0.0
 11
256.27783142405
 21
375.9839915280895
 31
0.0
  0
CIRCLE
  5
60
330
1F
100
AcDbEntity
  8
0-0_通り芯
  6
Continuous
 62
     7
370
     9
100
AcDbCircle
 10
-1706.841969026264
 20
1176.353740478531
 30
0.0
 40
254.0
  0
CIRCLE
  5
61
330
1F
100
AcDbEntity
  8
0-0_通り芯
  6
JWW_DASHED3
 62
     7
370
     9
100
AcDbCircle
 10
-1706.841969026264
 20
1176.353740478531
 30
0.0
 40
233.0
  0
CIRCLE
  5
62
330
1F
100
AcDbEntity
  8
0-0_通り芯
  6
Continuous
 62
     7
370
     9
100
AcDbCircle
 10
-2081.841969026264
 20
1176.353740478531
 30
0.0
 40
35.0
  0
CIRCLE
  5
63
330
1F
100
AcDbEntity
  8
0-0_通り芯
  6
Continuous
 62
     7
370
     9
100
AcDbCircle
 10
-2081.841969026264
 20
1176.353740478531
 30
0.0
 40
20.0
  0
LINE
  5
64
330
1F
100
AcDbEntity
  8
0-0_通り芯
  6
JWW_CENTER1
 62
     7
370
     9
100
AcDbLine
 10
-2081.841969026264
 20
1129.992485467017
 30
0.0
 11
-2081.841969026264
 21
1222.215119735327
 31
0.0
  0
CIRCLE
  5
65
330
1F
100
AcDbEntity
  8
0-0_通り芯
  6
Continuous
 62
     7
370
     9
100
AcDbCircle
 10
-1331.841969026264
 20
1176.353740478531
 30
0.0
 40
35.0
  0
CIRCLE
  5
66
330
1F
100
AcDbEntity
  8
0-0_通り芯
  6
Continuous
 62
     7
370
     9
100
AcDbCircle
 10
-1331.841969026264
 20
1176.353740478531
 30
0.0
 40
20.0
  0
LINE
  5
67
330
1F
100
AcDbEntity
  8
0-0_通り芯
  6
JWW_CENTER1
 62
     7
370
     9
100
AcDbLine
 10
-1331.841969026264
 20
1129.992485467017
 30
0.0
 11
-1331.841969026264
 21
1222.215119735327
 31
0.0
  0
CIRCLE
  5
68
330
1F
100
AcDbEntity
  8
0-0_通り芯
  6
Continuous
 62
     7
370
     9
100
AcDbCircle
 10
-1894.341969026264
 20
851.5942140593668
 30
0.0
 40
35.0
  0
CIRCLE
  5
69
330
1F
100
AcDbEntity
  8
0-0_通り芯
  6
Continuous
 62
     7
370
     9
100
AcDbCircle
 10
-1894.341969026264
 20
851.5942140593668
 30
0.0
 40
20.0
  0
LINE
  5
6A
330
1F
100
AcDbEntity
  8
0-0_通り芯
  6
JWW_CENTER1
 62
     7
370
     9
100
AcDbLine
 10
-1854.191944434964
 20
828.4135865536098
 30
0.0
 11
-1934.059088515242
 21
874.5249036877647
 31
0.0
  0
CIRCLE
  5
6B
330
1F
100
AcDbEntity
  8
0-0_通り芯
  6
Continuous
 62
     7
370
     9
100
AcDbCircle
 10
-1519.341969026264
 20
1501.113266897696
 30
0.0
 40
35.0
  0
CIRCLE
  5
6C
330
1F
100
AcDbEntity
  8
0-0_通り芯
  6
Continuous
 62
     7
370
     9
100
AcDbCircle
 10
-1519.341969026264
 20
1501.113266897696
 30
0.0
 40
20.0
  0
LINE
  5
6D
330
1F
100
AcDbEntity
  8
0-0_通り芯
  6
JWW_CENTER1
 62
     7
370
     9
100
AcDbLine
 10
-1479.191944434964
 20
1477.932639391939
 30
0.0
 11
-1559.059088515242
 21
1524.043956526094
 31
0.0
  0
CIRCLE
  5
6E
330
1F
100
AcDbEntity
  8
0-0_通り芯
  6
Continuous
 62
     7
370
     9
100
AcDbCircle
 10
-1519.341969026264
 20
851.5942140593668
 30
0.0
 40
35.0
  0
CIRCLE
  5
6F
330
1F
100
AcDbEntity
  8
0-0_通り芯
  6
Continuous
 62
     7
370
     9
100
AcDbCircle
 10
-1519.341969026264
 20
851.5942140593668
 30
0.0
 40
20.0
  0
LINE
  5
70
330
1F
100
AcDbEntity
  8
0-0_通り芯
  6
JWW_CENTER1
 62
     7
370
     9
100
AcDbLine
 10
-1479.191944434964
 20
874.7748415651239
 30
0.0
 11
-1559.059088515242
 21
828.663524430969
 31
0.0
  0
CIRCLE
  5
71
330
1F
100
AcDbEntity
  8
0-0_通り芯
  6
Continuous
 62
     7
370
     9
100
AcDbCircle
 10
-1894.341969026264
 20
1501.113266897696
 30
0.0
 40
35.0
  0
CIRCLE
  5
72
330
1F
100
AcDbEntity
  8
0-0_通り芯
  6
Continuous
 62
     7
370
     9
100
AcDbCircle
 10
-1894.341969026264
 20
1501.113266897696
 30
0.0
 40
20.0
  0
LINE
  5
73
330
1F
100
AcDbEntity
  8
0-0_通り芯
  6
JWW_CENTER1
 62
     7
370
     9
100
AcDbLine
 10
-1854.191944434964
 20
1524.293894403453
 30
0.0
 11
-1934.059088515242
 21
1478.182577269298
 31
0.0
  0
LINE
  5
74
330
1F
100
AcDbEntity
  8
0-0_通り芯
  6
JWW_CENTER1
 62
     7
370
     9
100
AcDbLine
 10
-1917.677399967193
 20
811.1760620531634
 30
0.0
 11
-1866.801970265985
 21
899.2948911525538
 31
0.0
  0
LINE
  5
75
330
1F
100
AcDbEntity
  8
0-0_通り芯
  6
JWW_CENTER1
 62
     7
370
     9
100
AcDbLine
 10
-1544.495821901276
 20
1457.545515712062
 30
0.0
 11
-1493.880192720495
 21
1545.21435711024
 31
0.0
  0
LINE
  5
76
330
1F
100
AcDbEntity
  8
0-0_通り芯
  6
JWW_CENTER1
 62
     7
370
     9
100
AcDbLine
 10
-1496.416641379073
 20
811.886381794268
 30
0.0
 11
-1551.620413749753
 21
907.5021203097529
 31
0.0
  0
LINE
  5
77
330
1F
100
AcDbEntity
  8
0-0_通り芯
  6
JWW_CENTER1
 62
     7
370
     9
100
AcDbLine
 10
-1866.594359628401
 20
1453.052997632022
 30
0.0
 11
-1921.183437367835
 21
1547.604053815049
 31
0.0
  0
CIRCLE
  5
78
330
1F
100
AcDbEntity
  8
0-0_通り芯
  6
Continuous
 62
     7
370
     9
100
AcDbCircle
 10
-1706.841969026264
 20
1176.353740478531
 30
0.0
 40
270.0
  0
CIRCLE
  5
79
330
1F
100
AcDbEntity
  8
0-0_通り芯
  6
Continuous
 62
     7
370
     9
100
AcDbCircle
 10
-1706.841969026264
 20
1176.353740478531
 30
0.0
 40
30.0
  0
CIRCLE
  5
7A
330
1F
100
AcDbEntity
  8
0-0_通り芯
  6
Continuous
 62
     7
370
     9
100
AcDbCircle
 10
-1706.841969026264
 20
1176.353740478531
 30
0.0
 40
25.0
  0
ARC
  5
7B
330
1F
100
AcDbEntity
  8
0-0_通り芯
  6
Continuous
 62
     7
370
     9
100
AcDbCircle
 10
-1999.718317910879
 20
-132.7692173890526
 30
0.0
 40
25.0
100
AcDbArc
 50
270.0
 51
354.9203921399854
  0
ARC
  5
7C
330
1F
100
AcDbEntity
  8
0-0_通り芯
  6
Continuous
 62
     7
370
     9
100
AcDbCircle
 10
-1413.965620141649
 20
-132.7692173890526
 30
0.0
 40
25.0
100
AcDbArc
 50
185.0796078600145
 51
270.0
  0
ARC
  5
7D
330
1F
100
AcDbEntity
  8
0-0_通り芯
  6
Continuous
 62
     7
370
     9
100
AcDbCircle
 10
-1771.129375742105
 20
34.73078261094741
 30
0.0
 40
7.5
100
AcDbArc
 50
5.710593137499684
 51
90.00000000000006
  0
ARC
  5
7E
330
1F
100
AcDbEntity
  8
0-0_通り芯
  6
Continuous
 62
     7
370
     9
100
AcDbCircle
 10
-1642.554562310423
 20
34.73078261094741
 30
0.0
 40
7.5
100
AcDbArc
 50
90.0
 51
174.2894068625003
  0
LINE
  5
7F
330
1F
100
AcDbEntity
  8
0-0_通り芯
  6
JWW_CENTER1
 62
     7
370
     9
100
AcDbLine
 10
-2081.841969026264
 20
-150.4423342503738
 30
0.0
 11
-2081.841969026264
 21
-193.7219746975524
 31
0.0
  0
LINE
  5
80
330
1F
100
AcDbEntity
  8
0-0_通り芯
  6
Continuous
 62
     7
370
     9
100
AcDbLine
 10
-2101.841969026264
 20
-172.7692173890526
 30
0.0
 11
-2101.841969026264
 21
-182.7692173890526
 31
0.0
  0
LINE
  5
81
330
1F
100
AcDbEntity
  8
0-0_通り芯
  6
Continuous
 62
     7
370
     9
100
AcDbLine
 10
-2061.841969026264
 20
-172.7692173890526
 30
0.0
 11
-2061.841969026264
 21
-182.7692173890526
 31
0.0
  0
LINE
  5
82
330
1F
100
AcDbEntity
  8
0-0_通り芯
  6
Continuous
 62
     7
370
     9
100
AcDbLine
 10
-2061.841969026264
 20
-172.7692173890526
 30
0.0
 11
-2101.841969026264
 21
-172.7692173890526
 31
0.0
  0
LINE
  5
83
330
1F
100
AcDbEntity
  8
0-0_通り芯
  6
Continuous
 62
     7
370
     9
100
AcDbLine
 10
-2101.841969026264
 20
-172.7692173890526
 30
0.0
 11
-2116.841969026264
 21
-157.7692173890526
 31
0.0
  0
LINE
  5
84
330
1F
100
AcDbEntity
  8
0-0_通り芯
  6
Continuous
 62
     7
370
     9
100
AcDbLine
 10
-2061.841969026264
 20
-172.7692173890526
 30
0.0
 11
-2046.841969026264
 21
-157.7692173890526
 31
0.0
  0
LINE
  5
85
330
1F
100
AcDbEntity
  8
0-0_通り芯
  6
JWW_CENTER1
 62
     7
370
     9
100
AcDbLine
 10
-1331.841969026264
 20
-150.4423342503738
 30
0.0
 11
-1331.841969026264
 21
-193.7219746975524
 31
0.0
  0
LINE
  5
86
330
1F
100
AcDbEntity
  8
0-0_通り芯
  6
Continuous
 62
     7
370
     9
100
AcDbLine
 10
-1311.841969026264
 20
-172.7692173890526
 30
0.0
 11
-1311.841969026264
 21
-182.7692173890526
 31
0.0
  0
LINE
  5
87
330
1F
100
AcDbEntity
  8
0-0_通り芯
  6
Continuous
 62
     7
370
     9
100
AcDbLine
 10
-1351.841969026264
 20
-172.7692173890526
 30
0.0
 11
-1351.841969026264
 21
-182.7692173890526
 31
0.0
  0
LINE
  5
88
330
1F
100
AcDbEntity
  8
0-0_通り芯
  6
Continuous
 62
     7
370
     9
100
AcDbLine
 10
-1351.841969026264
 20
-172.7692173890526
 30
0.0
 11
-1311.841969026264
 21
-172.7692173890526
 31
0.0
  0
LINE
  5
89
330
1F
100
AcDbEntity
  8
0-0_通り芯
  6
Continuous
 62
     7
370
     9
100
AcDbLine
 10
-1311.841969026264
 20
-172.7692173890526
 30
0.0
 11
-1296.841969026264
 21
-157.7692173890526
 31
0.0
  0
LINE
  5
8A
330
1F
100
AcDbEntity
  8
0-0_通り芯
  6
Continuous
 62
     7
370
     9
100
AcDbLine
 10
-1351.841969026264
 20
-172.7692173890526
 30
0.0
 11
-1366.841969026264
 21
-157.7692173890526
 31
0.0
  0
LINE
  5
8B
330
1F
100
AcDbEntity
  8
0-0_通り芯
  6
JWW_CENTER1
 62
     7
370
     9
100
AcDbLine
 10
-1706.841969026264
 20
125.7758679596334
 30
0.0
 11
-1706.841969026264
 21
-209.3990381310614
 31
0.0
  0
LINE
  5
8C
330
1F
100
AcDbEntity
  8
0-0_通り芯
  6
Continuous
 62
     7
370
     9
100
AcDbLine
 10
-1956.841969026264
 20
198.5170704517733
 30
0.0
 11
-1456.841969026264
 21
198.5170704517733
 31
0.0
  0
LINE
  5
8D
330
1F
100
AcDbEntity
  8
0-0_通り芯
  6
Continuous
 62
     7
370
     9
100
AcDbLine
 10
-1956.841969026264
 20
198.5170704517733
 30
0.0
 11
-1932.055847491919
 21
201.7802252572747
 31
0.0
  0
LINE
  5
8E
330
1F
100
AcDbEntity
  8
0-0_通り芯
  6
Continuous
 62
     7
370
     9
100
AcDbLine
 10
-1956.841969026264
 20
198.5170704517733
 30
0.0
 11
-1932.055847491919
 21
195.253915646272
 31
0.0
  0
LINE
  5
8F
330
1F
100
AcDbEntity
  8
0-0_通り芯
  6
Continuous
 62
     7
370
     9
100
AcDbLine
 10
-1456.841969026264
 20
198.5170704517733
 30
0.0
 11
-1481.62809056061
 21
201.7802252572747
 31
0.0
  0
LINE
  5
90
330
1F
100
AcDbEntity
  8
0-0_通り芯
  6
Continuous
 62
     7
370
     9
100
AcDbLine
 10
-1456.841969026264
 20
198.5170704517733
 30
0.0
 11
-1481.62809056061
 21
195.253915646272
 31
0.0
  0
LINE
  5
91
330
1F
100
AcDbEntity
  8
0-0_通り芯
  6
Continuous
 62
     7
370
     9
100
AcDbLine
 10
-1956.841969026264
 20
201.5170704517733
 30
0.0
 11
-1956.841969026264
 21
97.23078261094741
 31
0.0
  0
LINE
  5
92
330
1F
100
AcDbEntity
  8
0-0_通り芯
  6
Continuous
 62
     7
370
     9
100
AcDbLine
 10
-1456.841969026264
 20
201.5170704517733
 30
0.0
 11
-1456.841969026264
 21
97.23078261094741
 31
0.0
  0
LINE
  5
93
330
1F
100
AcDbEntity
  8
0-0_通り芯
  6
Continuous
 62
     7
370
     9
100
AcDbLine
 10
-2081.841969026264
 20
556.442765252997
 30
0.0
 11
-1331.841969026264
 21
556.442765252997
 31
0.0
  0
LINE
  5
94
330
1F
100
AcDbEntity
  8
0-0_通り芯
  6
Continuous
 62
     7
370
     9
100
AcDbLine
 10
-2081.841969026264
 20
556.442765252997
 30
0.0
 11
-2057.055847491919
 21
559.7059200584984
 31
0.0
  0
LINE
  5
95
330
1F
100
AcDbEntity
  8
0-0_通り芯
  6
Continuous
 62
     7
370
     9
100
AcDbLine
 10
-2081.841969026264
 20
556.442765252997
 30
0.0
 11
-2057.055847491919
 21
553.1796104474957
 31
0.0
  0
LINE
  5
96
330
1F
100
AcDbEntity
  8
0-0_通り芯
  6
Continuous
 62
     7
370
     9
100
AcDbLine
 10
-1331.841969026264
 20
556.442765252997
 30
0.0
 11
-1356.62809056061
 21
559.7059200584984
 31
0.0
  0
LINE
  5
97
330
1F
100
AcDbEntity
  8
0-0_通り芯
  6
Continuous
 62
     7
370
     9
100
AcDbLine
 10
-1331.841969026264
 20
556.442765252997
 30
0.0
 11
-1356.62809056061
 21
553.1796104474957
 31
0.0
  0
LINE
  5
98
330
1F
100
AcDbEntity
  8
0-0_通り芯
  6
Continuous
 62
     7
370
     9
100
AcDbLine
 10
-2081.841969026264
 20
553.4427652529971
 30
0.0
 11
-2081.841969026264
 21
1099.992485467017
 31
0.0
  0
LINE
  5
99
330
1F
100
AcDbEntity
  8
0-0_通り芯
  6
Continuous
 62
     7
370
     9
100
AcDbLine
 10
-1331.841969026264
 20
553.4427652529971
 30
0.0
 11
-1331.841969026264
 21
1099.992485467017
 31
0.0
  0
TEXT
  5
9A
330
1F
100
AcDbEntity
  8
0-0_通り芯
  6
Continuous
 62
     2
370
   211
100
AcDbText
 10
-1767.940063727352
 20
572.9177022367672
 30
0.0
 40
30.48
  1
φ150
 41
1.1
  7
ＭＳ ゴシック
100
AcDbText
  0
TEXT
  5
9B
330
1F
100
AcDbEntity
  8
0-0_通り芯
  6
Continuous
 62
     2
370
   211
100
AcDbText
 10
-1767.940063727352
 20
214.9920074355434
 30
0.0
 40
30.48
  1
φ100
 41
1.1
  7
ＭＳ ゴシック
100
AcDbText
  0
LINE
  5
9C
330
1F
100
AcDbEntity
  8
0-0_通り芯
  6
JWW_CENTER1
 62
     7
370
     9
100
AcDbLine
 10
-1706.841969026264
 20
1733.407326196995
 30
0.0
 11
-1706.841969026264
 21
632.3095940511039
 31
0.0
  0
TEXT
  5
9D
330
1F
100
AcDbEntity
  8
6-0
  6
Continuous
 62
     2
370
     9
100
AcDbText
 10
-1639.501289767842
 20
-525.5379879621669
 30
0.0
 40
30.48
  1
本体材質：鋳鉄製(ＦＣＤ500)
 41
1.12037037037037
  7
ＭＳ ゴシック
100
AcDbText
  0
LINE
  5
9E
330
1F
100
AcDbEntity
  8
3-0
  6
Continuous
 62
     7
370
     9
100
AcDbLine
 10
-249.5215654314887
 20
-1277.665037219771
 30
0.0
 11
2610.66760051864
 21
-1277.665037219771
 31
0.0
  0
LINE
  5
9F
330
1F
100
AcDbEntity
  8
3-0
  6
Continuous
 62
     7
370
     9
100
AcDbLine
 10
2610.66760051864
 20
-693.3512051001994
 30
0.0
 11
2026.353768399069
 21
-1277.665037219771
 31
0.0
  0
LINE
  5
A0
330
1F
100
AcDbEntity
  8
3-0
  6
Continuous
 62
     7
370
     9
100
AcDbLine
 10
2610.66760051864
 20
-728.7065441595271
 30
0.0
 11
2061.709107458397
 21
-1277.665037219771
 31
0.0
  0
LINE
  5
A1
330
1F
100
AcDbEntity
  8
3-0
  6
Continuous
 62
     7
370
     9
100
AcDbLine
 10
-152.9355534822758
 20
-527.6650372197707
 30
0.0
 11
-249.5215654314887
 21
-624.2510491689836
 31
0.0
  0
LINE
  5
A2
330
1F
100
AcDbEntity
  8
3-0
  6
Continuous
 62
     7
370
     9
100
AcDbLine
 10
-188.2908925416032
 20
-527.6650372197707
 30
0.0
 11
-249.5215654314887
 21
-588.8957101096562
 31
0.0
  0
LINE
  5
A3
330
1F
100
AcDbEntity
  8
3-0
  6
Continuous
 62
     7
370
     9
100
AcDbLine
 10
-223.6462316009306
 20
-527.6650372197707
 30
0.0
 11
-249.5215654314887
 21
-553.5403710503289
 31
0.0
  0
LINE
  5
A4
330
1F
100
AcDbEntity
  8
3-0
  6
Continuous
 62
     7
370
     9
100
AcDbLine
 10
2610.66760051864
 20
-764.0618832188546
 30
0.0
 11
2097.064446517724
 21
-1277.665037219771
 31
0.0
  0
TEXT
  5
A5
330
1F
100
AcDbEntity
  8
6-0
  6
Continuous
 62
     2
370
     9
100
AcDbText
 10
-669.079965606191
 20
-943.5431470335341
 30
0.0
 40
30.48
  1
スラブコンクリート
 41
1.111111111111111
  7
ＭＳ ゴシック
100
AcDbText
  0
LINE
  5
A6
330
1F
100
AcDbEntity
  8
3-0
  6
Continuous
 62
     7
370
     9
100
AcDbLine
 10
-249.5215654314887
 20
-527.6650372197707
 30
0.0
 11
782.9074973372124
 21
-527.6650372197707
 31
0.0
  0
LINE
  5
A7
330
1F
100
AcDbEntity
  8
3-0
  6
Continuous
 62
     7
370
     9
100
AcDbLine
 10
847.0644465177241
 20
-527.6650372197707
 30
0.0
 11
822.9074973372124
 21
-551.8219864002824
 31
0.0
  0
LINE
  5
A8
330
1F
100
AcDbEntity
  8
3-0
  6
Continuous
 62
     7
370
     9
100
AcDbLine
 10
782.9074973372124
 20
-591.8219864002824
 30
0.0
 11
97.06444651772429
 21
-1277.665037219771
 31
0.0
  0
LINE
  5
A9
330
1F
100
AcDbEntity
  8
3-0
  6
Continuous
 62
     7
370
     9
100
AcDbLine
 10
782.9074973372124
 20
-556.4666473409552
 30
0.0
 11
61.70910745839663
 21
-1277.665037219771
 31
0.0
  0
LINE
  5
AA
330
1F
100
AcDbEntity
  8
3-0
  6
Continuous
 62
     7
370
     9
100
AcDbLine
 10
776.3537683990694
 20
-527.6650372197707
 30
0.0
 11
26.35376839906954
 21
-1277.665037219771
 31
0.0
  0
LINE
  5
AB
330
1F
100
AcDbEntity
  8
3-0
  6
Continuous
 62
     7
370
     9
100
AcDbLine
 10
822.9074973372124
 20
-527.6650372197707
 30
0.0
 11
1532.907497337212
 21
-527.6650372197707
 31
0.0
  0
LINE
  5
AC
330
1F
100
AcDbEntity
  8
3-0
  6
Continuous
 62
     7
370
     9
100
AcDbLine
 10
1847.064446517724
 20
-527.6650372197707
 30
0.0
 11
1097.064446517724
 21
-1277.665037219771
 31
0.0
  0
CIRCLE
  5
AD
330
1F
100
AcDbEntity
  8
0-0_通り芯
  6
Continuous
 62
     7
370
     9
100
AcDbCircle
 10
-1706.841969026264
 20
1176.353740478531
 30
0.0
 40
462.5
  0
CIRCLE
  5
AE
330
1F
100
AcDbEntity
  8
0-0_通り芯
  6
Continuous
 62
     7
370
     9
100
AcDbCircle
 10
-1706.841969026264
 20
1176.353740478531
 30
0.0
 40
428.0
  0
LINE
  5
AF
330
1F
100
AcDbEntity
  8
0-0_通り芯
  6
Continuous
 62
     7
370
     9
100
AcDbLine
 10
-1726.841969026264
 20
748.8212855701349
 30
0.0
 11
-1706.841969026264
 21
743.3537404785313
 31
0.0
  0
LINE
  5
B0
330
1F
100
AcDbEntity
  8
0-0_通り芯
  6
Continuous
 62
     7
370
     9
100
AcDbLine
 10
-1706.841969026264
 20
743.3537404785313
 30
0.0
 11
-1686.841969026264
 21
748.8212855701349
 31
0.0
  0
LINE
  5
B1
330
1F
100
AcDbEntity
  8
0-0_通り芯
  6
Continuous
 62
     7
370
     9
100
AcDbLine
 10
-1686.841969026264
 20
748.8212855701349
 30
0.0
 11
-1706.841969026264
 21
713.8537404785313
 31
0.0
  0
LINE
  5
B2
330
1F
100
AcDbEntity
  8
0-0_通り芯
  6
Continuous
 62
     7
370
     9
100
AcDbLine
 10
-1706.841969026264
 20
713.8537404785313
 30
0.0
 11
-1726.841969026264
 21
748.8212855701349
 31
0.0
  0
LINE
  5
B3
330
1F
100
AcDbEntity
  8
0-0_通り芯
  6
Continuous
 62
     7
370
     9
100
AcDbLine
 10
-1279.309514117868
 20
1156.353740478531
 30
0.0
 11
-1273.841969026264
 21
1176.353740478531
 31
0.0
  0
LINE
  5
B4
330
1F
100
AcDbEntity
  8
0-0_通り芯
  6
Continuous
 62
     7
370
     9
100
AcDbLine
 10
-1273.841969026264
 20
1176.353740478531
 30
0.0
 11
-1279.309514117868
 21
1196.353740478531
 31
0.0
  0
LINE
  5
B5
330
1F
100
AcDbEntity
  8
0-0_通り芯
  6
Continuous
 62
     7
370
     9
100
AcDbLine
 10
-1279.309514117868
 20
1196.353740478531
 30
0.0
 11
-1244.341969026264
 21
1176.353740478531
 31
0.0
  0
LINE
  5
B6
330
1F
100
AcDbEntity
  8
0-0_通り芯
  6
Continuous
 62
     7
370
     9
100
AcDbLine
 10
-1244.341969026264
 20
1176.353740478531
 30
0.0
 11
-1279.309514117868
 21
1156.353740478531
 31
0.0
  0
LINE
  5
B7
330
1F
100
AcDbEntity
  8
0-0_通り芯
  6
Continuous
 62
     7
370
     9
100
AcDbLine
 10
-1686.841969026264
 20
1603.886195386928
 30
0.0
 11
-1706.841969026264
 21
1609.353740478532
 31
0.0
  0
LINE
  5
B8
330
1F
100
AcDbEntity
  8
0-0_通り芯
  6
Continuous
 62
     7
370
     9
100
AcDbLine
 10
-1706.841969026264
 20
1609.353740478532
 30
0.0
 11
-1726.841969026264
 21
1603.886195386928
 31
0.0
  0
LINE
  5
B9
330
1F
100
AcDbEntity
  8
0-0_通り芯
  6
Continuous
 62
     7
370
     9
100
AcDbLine
 10
-1726.841969026264
 20
1603.886195386928
 30
0.0
 11
-1706.841969026264
 21
1638.853740478531
 31
0.0
  0
LINE
  5
BA
330
1F
100
AcDbEntity
  8
0-0_通り芯
  6
Continuous
 62
     7
370
     9
100
AcDbLine
 10
-1706.841969026264
 20
1638.853740478531
 30
0.0
 11
-1686.841969026264
 21
1603.886195386928
 31
0.0
  0
LINE
  5
BB
330
1F
100
AcDbEntity
  8
0-0_通り芯
  6
Continuous
 62
     7
370
     9
100
AcDbLine
 10
-2134.374423934661
 20
1196.353740478532
 30
0.0
 11
-2139.841969026264
 21
1176.353740478532
 31
0.0
  0
LINE
  5
BC
330
1F
100
AcDbEntity
  8
0-0_通り芯
  6
Continuous
 62
     7
370
     9
100
AcDbLine
 10
-2139.841969026264
 20
1176.353740478532
 30
0.0
 11
-2134.374423934661
 21
1156.353740478532
 31
0.0
  0
LINE
  5
BD
330
1F
100
AcDbEntity
  8
0-0_通り芯
  6
Continuous
 62
     7
370
     9
100
AcDbLine
 10
-2134.374423934661
 20
1156.353740478532
 30
0.0
 11
-2169.341969026264
 21
1176.353740478532
 31
0.0
  0
LINE
  5
BE
330
1F
100
AcDbEntity
  8
0-0_通り芯
  6
Continuous
 62
     7
370
     9
100
AcDbLine
 10
-2169.341969026264
 20
1176.353740478532
 30
0.0
 11
-2134.374423934661
 21
1196.353740478532
 31
0.0
  0
LINE
  5
BF
330
1F
100
AcDbEntity
  8
0-0_通り芯
  6
Continuous
 62
     7
370
     9
100
AcDbLine
 10
-1960.892903291669
 20
21.65777212513714
 30
0.0
 11
-1974.816501893562
 21
-134.9827121461475
 31
0.0
  0
ARC
  5
C0
330
1F
100
AcDbEntity
  8
0-0_通り芯
  6
Continuous
 62
     7
370
     9
100
AcDbCircle
 10
-1911.089271257035
 20
17.23078261094741
 30
0.0
 40
50.0
100
AcDbArc
 50
90.0
 51
174.9203921399854
  0
LINE
  5
C1
330
1F
100
AcDbEntity
  8
0-0_通り芯
  6
Continuous
 62
     7
370
     9
100
AcDbLine
 10
-1502.594666795493
 20
67.23078261094741
 30
0.0
 11
-1911.089271257035
 21
67.23078261094741
 31
0.0
  0
LINE
  5
C2
330
1F
100
AcDbEntity
  8
0-0_通り芯
  6
Continuous
 62
     7
370
     9
100
AcDbLine
 10
-1452.791034760859
 20
21.65777212513714
 30
0.0
 11
-1438.867436158967
 21
-134.9827121461475
 31
0.0
  0
ARC
  5
C3
330
1F
100
AcDbEntity
  8
0-0_通り芯
  6
Continuous
 62
     7
370
     9
100
AcDbCircle
 10
-1502.594666795493
 20
17.23078261094742
 30
0.0
 40
50.0
100
AcDbArc
 50
5.079607860014543
 51
89.99999999999994
  0
LINE
  5
C4
330
1F
100
AcDbEntity
  8
0-0_通り芯
  6
Continuous
 62
     7
370
     9
100
AcDbLine
 10
-1911.089271257035
 20
42.23078261094741
 30
0.0
 11
-1771.129375742105
 21
42.23078261094741
 31
0.0
  0
LINE
  5
C5
330
1F
100
AcDbEntity
  8
0-0_通り芯
  6
Continuous
 62
     7
370
     9
100
AcDbLine
 10
-1935.991087274352
 20
19.44427736804227
 30
0.0
 11
-1953.96562014165
 21
-182.7692173890526
 31
0.0
  0
ARC
  5
C6
330
1F
100
AcDbEntity
  8
0-0_通り芯
  6
Continuous
 62
     7
370
     9
100
AcDbCircle
 10
-1911.089271257035
 20
17.23078261094741
 30
0.0
 40
25.0
100
AcDbArc
 50
90.0
 51
174.9203921399854
  0
LINE
  5
C7
330
1F
100
AcDbEntity
  8
0-0_通り芯
  6
Continuous
 62
     7
370
     9
100
AcDbLine
 10
-1502.594666795493
 20
42.23078261094741
 30
0.0
 11
-1642.554562310423
 21
42.23078261094741
 31
0.0
  0
LINE
  5
C8
330
1F
100
AcDbEntity
  8
0-0_通り芯
  6
Continuous
 62
     7
370
     9
100
AcDbLine
 10
-1477.692850778176
 20
19.44427736804223
 30
0.0
 11
-1459.718317910879
 21
-182.7692173890526
 31
0.0
  0
ARC
  5
C9
330
1F
100
AcDbEntity
  8
0-0_通り芯
  6
Continuous
 62
     7
370
     9
100
AcDbCircle
 10
-1502.594666795493
 20
17.23078261094742
 30
0.0
 40
25.0
100
AcDbArc
 50
5.079607860014543
 51
90.00000000000006
  0
LINE
  5
CA
330
1F
100
AcDbEntity
  8
0-0_通り芯
  6
Continuous
 62
     7
370
     9
100
AcDbLine
 10
-1736.841969026264
 20
-32.76921738905259
 30
0.0
 11
-1706.841969026264
 21
-40.80769316198626
 31
0.0
  0
LINE
  5
CB
330
1F
100
AcDbEntity
  8
0-0_通り芯
  6
Continuous
 62
     7
370
     9
100
AcDbLine
 10
-1676.841969026264
 20
-32.76921738905259
 30
0.0
 11
-1706.841969026264
 21
-40.80769316198626
 31
0.0
  0
LINE
  5
CC
330
1F
100
AcDbEntity
  8
0-0_通り芯
  6
Continuous
 62
     7
370
     9
100
AcDbLine
 10
-1676.841969026264
 20
67.23078261094741
 30
0.0
 11
-1676.841969026264
 21
-32.76921738905259
 31
0.0
  0
LINE
  5
CD
330
1F
100
AcDbEntity
  8
0-0_通り芯
  6
Continuous
 62
     7
370
     9
100
AcDbLine
 10
-1681.841969026264
 20
67.23078261094741
 30
0.0
 11
-1681.841969026264
 21
-34.1089633512081
 31
0.0
  0
LINE
  5
CE
330
1F
100
AcDbEntity
  8
0-0_通り芯
  6
Continuous
 62
     7
370
     9
100
AcDbLine
 10
-1731.841969026264
 20
67.23078261094741
 30
0.0
 11
-1731.841969026264
 21
-34.1089633512081
 31
0.0
  0
LINE
  5
CF
330
1F
100
AcDbEntity
  8
0-0_通り芯
  6
Continuous
 62
     7
370
     9
100
AcDbLine
 10
-1736.841969026264
 20
67.23078261094741
 30
0.0
 11
-1736.841969026264
 21
-32.76921738905259
 31
0.0
  0
LINE
  5
D0
330
1F
100
AcDbEntity
  8
0-0_通り芯
  6
Continuous
 62
     7
370
     9
100
AcDbLine
 10
-1736.841969026264
 20
-32.76921738905259
 30
0.0
 11
-1676.841969026264
 21
-32.76921738905259
 31
0.0
  0
LINE
  5
D1
330
1F
100
AcDbEntity
  8
0-0_通り芯
  6
Continuous
 62
     7
370
     9
100
AcDbLine
 10
-1757.517341236998
 20
-51.01549528171006
 30
0.0
 11
-1763.66659681553
 21
35.47706050360489
 31
0.0
  0
ARC
  5
D2
330
1F
100
AcDbEntity
  8
0-0_通り芯
  6
Continuous
 62
     7
370
     9
100
AcDbCircle
 10
-1750.054562310423
 20
-50.26921738905259
 30
0.0
 40
7.5
100
AcDbArc
 50
185.7105931374997
 51
270.0
  0
LINE
  5
D3
330
1F
100
AcDbEntity
  8
0-0_通り芯
  6
Continuous
 62
     7
370
     9
100
AcDbLine
 10
-1663.629375742105
 20
-57.76921738905259
 30
0.0
 11
-1750.054562310423
 21
-57.76921738905259
 31
0.0
  0
ARC
  5
D4
330
1F
100
AcDbEntity
  8
0-0_通り芯
  6
Continuous
 62
     7
370
     9
100
AcDbCircle
 10
-1663.629375742105
 20
-50.26921738905259
 30
0.0
 40
7.5
100
AcDbArc
 50
270.0
 51
354.2894068625004
  0
LINE
  5
D5
330
1F
100
AcDbEntity
  8
0-0_通り芯
  6
Continuous
 62
     7
370
     9
100
AcDbLine
 10
-1650.017341236998
 20
35.47706050360489
 30
0.0
 11
-1656.16659681553
 21
-51.01549528171006
 31
0.0
  0
LINE
  5
D6
330
1F
100
AcDbEntity
  8
0-0_通り芯
  6
Continuous
 62
     7
370
     9
100
AcDbLine
 10
-1999.718317910879
 20
-157.7692173890526
 30
0.0
 11
-2134.700952874886
 21
-157.7692173890526
 31
0.0
  0
LINE
  5
D7
330
1F
100
AcDbEntity
  8
0-0_通り芯
  6
Continuous
 62
     7
370
     9
100
AcDbLine
 10
-2169.341969026264
 20
-177.7692173890526
 30
0.0
 11
-2134.700952874886
 21
-157.7692173890526
 31
0.0
  0
LINE
  5
D8
330
1F
100
AcDbEntity
  8
0-0_通り芯
  6
Continuous
 62
     7
370
     9
100
AcDbLine
 10
-2169.341969026264
 20
-177.7692173890526
 30
0.0
 11
-2169.341969026264
 21
-182.7692173890526
 31
0.0
  0
LINE
  5
D9
330
1F
100
AcDbEntity
  8
0-0_通り芯
  6
Continuous
 62
     7
370
     9
100
AcDbLine
 10
-1244.341969026264
 20
-177.7692173890526
 30
0.0
 11
-1278.982985177642
 21
-157.7692173890526
 31
0.0
  0
LINE
  5
DA
330
1F
100
AcDbEntity
  8
0-0_通り芯
  6
Continuous
 62
     7
370
     9
100
AcDbLine
 10
-1244.341969026264
 20
-177.7692173890526
 30
0.0
 11
-1244.341969026264
 21
-182.7692173890526
 31
0.0
  0
LINE
  5
DB
330
1F
100
AcDbEntity
  8
0-0_通り芯
  6
Continuous
 62
     7
370
     9
100
AcDbLine
 10
-1413.965620141649
 20
-157.7692173890526
 30
0.0
 11
-1278.982985177642
 21
-157.7692173890526
 31
0.0
  0
LINE
  5
DC
330
1F
100
AcDbEntity
  8
0-0_通り芯
  6
Continuous
 62
     7
370
     9
100
AcDbLine
 10
-1099.322242229807
 20
-182.7692173890526
 30
0.0
 11
-1099.322242229807
 21
67.23078261094739
 31
0.0
  0
LINE
  5
DD
330
1F
100
AcDbEntity
  8
0-0_通り芯
  6
Continuous
 62
     7
370
     9
100
AcDbLine
 10
-1099.322242229807
 20
-182.7692173890526
 30
0.0
 11
-1102.585397035309
 21
-157.9830958547073
 31
0.0
  0
LINE
  5
DE
330
1F
100
AcDbEntity
  8
0-0_通り芯
  6
Continuous
 62
     7
370
     9
100
AcDbLine
 10
-1099.322242229807
 20
-182.7692173890526
 30
0.0
 11
-1096.059087424306
 21
-157.9830958547073
 31
0.0
  0
LINE
  5
DF
330
1F
100
AcDbEntity
  8
0-0_通り芯
  6
Continuous
 62
     7
370
     9
100
AcDbLine
 10
-1099.322242229807
 20
67.23078261094739
 30
0.0
 11
-1102.585397035309
 21
42.44466107660212
 31
0.0
  0
LINE
  5
E0
330
1F
100
AcDbEntity
  8
0-0_通り芯
  6
Continuous
 62
     7
370
     9
100
AcDbLine
 10
-1099.322242229807
 20
67.23078261094739
 30
0.0
 11
-1096.059087424306
 21
42.44466107660212
 31
0.0
  0
LINE
  5
E1
330
1F
100
AcDbEntity
  8
0-0_通り芯
  6
Continuous
 62
     7
370
     9
100
AcDbLine
 10
-1096.322242229807
 20
-182.7692173890526
 30
0.0
 11
-1214.341969026264
 21
-182.7692173890526
 31
0.0
  0
LINE
  5
E2
330
1F
100
AcDbEntity
  8
0-0_通り芯
  6
Continuous
 62
     7
370
     9
100
AcDbLine
 10
-1096.322242229807
 20
67.23078261094739
 30
0.0
 11
-1426.841969026264
 21
67.2307826109474
 31
0.0
  0
TEXT
  5
E3
330
1F
100
AcDbEntity
  8
0-0_通り芯
  6
Continuous
 62
     2
370
   211
100
AcDbText
 10
-1110.962242229807
 20
-79.01921738905259
 30
0.0
 40
30.48
  1
50
 50
90.0
 41
1.0625
  7
ＭＳ ゴシック
100
AcDbText
  0
LINE
  5
E4
330
1F
100
AcDbEntity
  8
0-0_通り芯
  6
Continuous
 62
     7
370
     9
100
AcDbLine
 10
-1156.358188278013
 20
-157.7692173890526
 30
0.0
 11
-1159.621343083515
 21
-132.9830958547073
 31
0.0
  0
LINE
  5
E5
330
1F
100
AcDbEntity
  8
0-0_通り芯
  6
Continuous
 62
     7
370
     9
100
AcDbLine
 10
-1156.358188278013
 20
-157.7692173890526
 30
0.0
 11
-1153.095033472512
 21
-132.9830958547073
 31
0.0
  0
LINE
  5
E6
330
1F
100
AcDbEntity
  8
0-0_通り芯
  6
Continuous
 62
     7
370
     9
100
AcDbLine
 10
-1156.358188278013
 20
-182.7692173890526
 30
0.0
 11
-1159.621343083515
 21
-207.5553389233978
 31
0.0
  0
LINE
  5
E7
330
1F
100
AcDbEntity
  8
0-0_通り芯
  6
Continuous
 62
     7
370
     9
100
AcDbLine
 10
-1156.358188278013
 20
-182.7692173890526
 30
0.0
 11
-1153.095033472512
 21
-207.5553389233978
 31
0.0
  0
LINE
  5
E8
330
1F
100
AcDbEntity
  8
0-0_通り芯
  6
Continuous
 62
     7
370
     9
100
AcDbLine
 10
-1153.358188278014
 20
-157.7692173890526
 30
0.0
 11
-1248.982985177642
 21
-157.7692173890526
 31
0.0
  0
LINE
  5
E9
330
1F
100
AcDbEntity
  8
0-0_通り芯
  6
Continuous
 62
     7
370
     9
100
AcDbLine
 10
-1153.358188278014
 20
-182.7692173890526
 30
0.0
 11
-1214.341969026264
 21
-182.7692173890526
 31
0.0
  0
TEXT
  5
EA
330
1F
100
AcDbEntity
  8
0-0_通り芯
  6
Continuous
 62
     2
370
   211
100
AcDbText
 10
-1167.998188278013
 20
-180.2692173890526
 30
0.0
 40
30.48
  1
5
 50
90.0
 41
0.9999999999999998
  7
ＭＳ ゴシック
100
AcDbText
  0
LINE
  5
EB
330
1F
100
AcDbEntity
  8
0-0_通り芯
  6
Continuous
 62
     7
370
     9
100
AcDbLine
 10
-1156.358188278013
 20
-119.3743162714069
 30
0.0
 11
-1156.358188278013
 21
-218.6421061827384
 31
0.0
  0
LINE
  5
EC
330
1F
100
AcDbEntity
  8
0-0_通り芯
  6
Continuous
 62
     7
370
     9
100
AcDbLine
 10
-1278.982985177642
 20
-157.7692173890526
 30
0.0
 11
-1273.982985177642
 21
-172.7692173890526
 31
0.0
  0
LINE
  5
ED
330
1F
100
AcDbEntity
  8
0-0_通り芯
  6
Continuous
 62
     7
370
     9
100
AcDbLine
 10
-1273.982985177642
 20
-172.7692173890526
 30
0.0
 11
-1244.341969026264
 21
-177.7692173890526
 31
0.0
  0
LINE
  5
EE
330
1F
100
AcDbEntity
  8
0-0_通り芯
  6
Continuous
 62
     7
370
     9
100
AcDbLine
 10
-2169.341969026264
 20
-177.7692173890526
 30
0.0
 11
-2134.700952874886
 21
-157.7692173890526
 31
0.0
  0
LINE
  5
EF
330
1F
100
AcDbEntity
  8
0-0_通り芯
  6
Continuous
 62
     7
370
     9
100
AcDbLine
 10
-2134.700952874886
 20
-157.7692173890526
 30
0.0
 11
-2139.700952874886
 21
-172.7692173890526
 31
0.0
  0
LINE
  5
F0
330
1F
100
AcDbEntity
  8
0-0_通り芯
  6
Continuous
 62
     7
370
     9
100
AcDbLine
 10
-2139.700952874886
 20
-172.7692173890526
 30
0.0
 11
-2169.341969026264
 21
-177.7692173890526
 31
0.0
  0
LINE
  5
F1
330
1F
100
AcDbEntity
  8
0-0_通り芯
  6
Continuous
 62
     7
370
     9
100
AcDbLine
 10
-1444.718317910879
 20
-182.7692173890526
 30
0.0
 11
-1439.718317910879
 21
-175.2692173890526
 31
0.0
  0
LINE
  5
F2
330
1F
100
AcDbEntity
  8
0-0_通り芯
  6
Continuous
 62
     7
370
     9
100
AcDbLine
 10
-1434.718317910879
 20
-175.2692173890526
 30
0.0
 11
-1429.718317910879
 21
-182.7692173890526
 31
0.0
  0
LINE
  5
F3
330
1F
100
AcDbEntity
  8
0-0_通り芯
  6
Continuous
 62
     7
370
     9
100
AcDbLine
 10
-1439.718317910879
 20
-175.2692173890526
 30
0.0
 11
-1434.718317910879
 21
-175.2692173890526
 31
0.0
  0
LINE
  5
F4
330
1F
100
AcDbEntity
  8
0-0_通り芯
  6
Continuous
 62
     7
370
     9
100
AcDbLine
 10
-1414.718317910879
 20
-182.7692173890526
 30
0.0
 11
-1409.718317910879
 21
-175.2692173890526
 31
0.0
  0
LINE
  5
F5
330
1F
100
AcDbEntity
  8
0-0_通り芯
  6
Continuous
 62
     7
370
     9
100
AcDbLine
 10
-1404.718317910879
 20
-175.2692173890526
 30
0.0
 11
-1399.718317910879
 21
-182.7692173890526
 31
0.0
  0
LINE
  5
F6
330
1F
100
AcDbEntity
  8
0-0_通り芯
  6
Continuous
 62
     7
370
     9
100
AcDbLine
 10
-1409.718317910879
 20
-175.2692173890526
 30
0.0
 11
-1404.718317910879
 21
-175.2692173890526
 31
0.0
  0
LINE
  5
F7
330
1F
100
AcDbEntity
  8
0-0_通り芯
  6
Continuous
 62
     7
370
     9
100
AcDbLine
 10
-1384.718317910879
 20
-182.7692173890526
 30
0.0
 11
-1379.718317910879
 21
-175.2692173890526
 31
0.0
  0
LINE
  5
F8
330
1F
100
AcDbEntity
  8
0-0_通り芯
  6
Continuous
 62
     7
370
     9
100
AcDbLine
 10
-1374.718317910879
 20
-175.2692173890526
 30
0.0
 11
-1369.718317910879
 21
-182.7692173890526
 31
0.0
  0
LINE
  5
F9
330
1F
100
AcDbEntity
  8
0-0_通り芯
  6
Continuous
 62
     7
370
     9
100
AcDbLine
 10
-1379.718317910879
 20
-175.2692173890526
 30
0.0
 11
-1374.718317910879
 21
-175.2692173890526
 31
0.0
  0
LINE
  5
FA
330
1F
100
AcDbEntity
  8
0-0_通り芯
  6
Continuous
 62
     7
370
     9
100
AcDbLine
 10
-1294.718317910879
 20
-182.7692173890526
 30
0.0
 11
-1289.718317910879
 21
-175.2692173890526
 31
0.0
  0
LINE
  5
FB
330
1F
100
AcDbEntity
  8
0-0_通り芯
  6
Continuous
 62
     7
370
     9
100
AcDbLine
 10
-1284.718317910879
 20
-175.2692173890526
 30
0.0
 11
-1279.718317910879
 21
-182.7692173890526
 31
0.0
  0
LINE
  5
FC
330
1F
100
AcDbEntity
  8
0-0_通り芯
  6
Continuous
 62
     7
370
     9
100
AcDbLine
 10
-1289.718317910879
 20
-175.2692173890526
 30
0.0
 11
-1284.718317910879
 21
-175.2692173890526
 31
0.0
  0
LINE
  5
FD
330
1F
100
AcDbEntity
  8
0-0_通り芯
  6
Continuous
 62
     7
370
     9
100
AcDbLine
 10
-1706.841969026264
 20
-182.7692173890526
 30
0.0
 11
-1444.718317910879
 21
-182.7692173890526
 31
0.0
  0
LINE
  5
FE
330
1F
100
AcDbEntity
  8
0-0_通り芯
  6
Continuous
 62
     7
370
     9
100
AcDbLine
 10
-1429.718317910879
 20
-182.7692173890526
 30
0.0
 11
-1414.718317910879
 21
-182.7692173890526
 31
0.0
  0
LINE
  5
FF
330
1F
100
AcDbEntity
  8
0-0_通り芯
  6
Continuous
 62
     7
370
     9
100
AcDbLine
 10
-1399.718317910879
 20
-182.7692173890526
 30
0.0
 11
-1384.718317910879
 21
-182.7692173890526
 31
0.0
  0
LINE
  5
100
330
1F
100
AcDbEntity
  8
0-0_通り芯
  6
Continuous
 62
     7
370
     9
100
AcDbLine
 10
-1369.718317910879
 20
-182.7692173890526
 30
0.0
 11
-1294.718317910879
 21
-182.7692173890526
 31
0.0
  0
LINE
  5
101
330
1F
100
AcDbEntity
  8
0-0_通り芯
  6
Continuous
 62
     7
370
     9
100
AcDbLine
 10
-1279.718317910879
 20
-182.7692173890526
 30
0.0
 11
-1244.341969026264
 21
-182.7692173890526
 31
0.0
  0
LINE
  5
102
330
1F
100
AcDbEntity
  8
0-0_通り芯
  6
Continuous
 62
     7
370
     9
100
AcDbLine
 10
-1968.965620141649
 20
-182.7692173890526
 30
0.0
 11
-1973.965620141649
 21
-175.2692173890526
 31
0.0
  0
LINE
  5
103
330
1F
100
AcDbEntity
  8
0-0_通り芯
  6
Continuous
 62
     7
370
     9
100
AcDbLine
 10
-1978.965620141649
 20
-175.2692173890526
 30
0.0
 11
-1983.965620141649
 21
-182.7692173890526
 31
0.0
  0
LINE
  5
104
330
1F
100
AcDbEntity
  8
0-0_通り芯
  6
Continuous
 62
     7
370
     9
100
AcDbLine
 10
-1973.965620141649
 20
-175.2692173890526
 30
0.0
 11
-1978.965620141649
 21
-175.2692173890526
 31
0.0
  0
LINE
  5
105
330
1F
100
AcDbEntity
  8
0-0_通り芯
  6
Continuous
 62
     7
370
     9
100
AcDbLine
 10
-1998.965620141649
 20
-182.7692173890526
 30
0.0
 11
-2003.965620141649
 21
-175.2692173890526
 31
0.0
  0
LINE
  5
106
330
1F
100
AcDbEntity
  8
0-0_通り芯
  6
Continuous
 62
     7
370
     9
100
AcDbLine
 10
-2008.965620141649
 20
-175.2692173890526
 30
0.0
 11
-2013.965620141649
 21
-182.7692173890526
 31
0.0
  0
LINE
  5
107
330
1F
100
AcDbEntity
  8
0-0_通り芯
  6
Continuous
 62
     7
370
     9
100
AcDbLine
 10
-2003.965620141649
 20
-175.2692173890526
 30
0.0
 11
-2008.965620141649
 21
-175.2692173890526
 31
0.0
  0
LINE
  5
108
330
1F
100
AcDbEntity
  8
0-0_通り芯
  6
Continuous
 62
     7
370
     9
100
AcDbLine
 10
-2028.965620141649
 20
-182.7692173890526
 30
0.0
 11
-2033.965620141649
 21
-175.2692173890526
 31
0.0
  0
LINE
  5
109
330
1F
100
AcDbEntity
  8
0-0_通り芯
  6
Continuous
 62
     7
370
     9
100
AcDbLine
 10
-2038.965620141649
 20
-175.2692173890526
 30
0.0
 11
-2043.965620141649
 21
-182.7692173890526
 31
0.0
  0
LINE
  5
10A
330
1F
100
AcDbEntity
  8
0-0_通り芯
  6
Continuous
 62
     7
370
     9
100
AcDbLine
 10
-2033.965620141649
 20
-175.2692173890526
 30
0.0
 11
-2038.965620141649
 21
-175.2692173890526
 31
0.0
  0
LINE
  5
10B
330
1F
100
AcDbEntity
  8
0-0_通り芯
  6
Continuous
 62
     7
370
     9
100
AcDbLine
 10
-2118.965620141649
 20
-182.7692173890526
 30
0.0
 11
-2123.965620141649
 21
-175.2692173890526
 31
0.0
  0
LINE
  5
10C
330
1F
100
AcDbEntity
  8
0-0_通り芯
  6
Continuous
 62
     7
370
     9
100
AcDbLine
 10
-2128.965620141649
 20
-175.2692173890526
 30
0.0
 11
-2133.965620141649
 21
-182.7692173890526
 31
0.0
  0
LINE
  5
10D
330
1F
100
AcDbEntity
  8
0-0_通り芯
  6
Continuous
 62
     7
370
     9
100
AcDbLine
 10
-2123.965620141649
 20
-175.2692173890526
 30
0.0
 11
-2128.965620141649
 21
-175.2692173890526
 31
0.0
  0
LINE
  5
10E
330
1F
100
AcDbEntity
  8
0-0_通り芯
  6
Continuous
 62
     7
370
     9
100
AcDbLine
 10
-2169.341969026264
 20
-182.7692173890526
 30
0.0
 11
-2133.965620141649
 21
-182.7692173890526
 31
0.0
  0
LINE
  5
10F
330
1F
100
AcDbEntity
  8
0-0_通り芯
  6
Continuous
 62
     7
370
     9
100
AcDbLine
 10
-2118.965620141649
 20
-182.7692173890526
 30
0.0
 11
-2043.965620141649
 21
-182.7692173890526
 31
0.0
  0
LINE
  5
110
330
1F
100
AcDbEntity
  8
0-0_通り芯
  6
Continuous
 62
     7
370
     9
100
AcDbLine
 10
-2028.965620141649
 20
-182.7692173890526
 30
0.0
 11
-2013.965620141649
 21
-182.7692173890526
 31
0.0
  0
LINE
  5
111
330
1F
100
AcDbEntity
  8
0-0_通り芯
  6
Continuous
 62
     7
370
     9
100
AcDbLine
 10
-1998.965620141649
 20
-182.7692173890526
 30
0.0
 11
-1983.965620141649
 21
-182.7692173890526
 31
0.0
  0
LINE
  5
112
330
1F
100
AcDbEntity
  8
0-0_通り芯
  6
Continuous
 62
     7
370
     9
100
AcDbLine
 10
-1968.965620141649
 20
-182.7692173890526
 30
0.0
 11
-1706.841969026264
 21
-182.7692173890526
 31
0.0
  0
LINE
  5
113
330
1F
100
AcDbEntity
  8
0-0_通り芯
  6
Continuous
 62
     7
370
     9
100
AcDbLine
 10
-2169.341969026264
 20
-341.6654233536331
 30
0.0
 11
-1244.341969026264
 21
-341.6654233536331
 31
0.0
  0
LINE
  5
114
330
1F
100
AcDbEntity
  8
0-0_通り芯
  6
Continuous
 62
     7
370
     9
100
AcDbLine
 10
-2169.341969026264
 20
-341.6654233536331
 30
0.0
 11
-2144.555847491919
 21
-338.4022685481318
 31
0.0
  0
LINE
  5
115
330
1F
100
AcDbEntity
  8
0-0_通り芯
  6
Continuous
 62
     7
370
     9
100
AcDbLine
 10
-2169.341969026264
 20
-341.6654233536331
 30
0.0
 11
-2144.555847491919
 21
-344.9285781591343
 31
0.0
  0
LINE
  5
116
330
1F
100
AcDbEntity
  8
0-0_通り芯
  6
Continuous
 62
     7
370
     9
100
AcDbLine
 10
-1244.341969026264
 20
-341.6654233536331
 30
0.0
 11
-1269.128090560609
 21
-338.4022685481318
 31
0.0
  0
LINE
  5
117
330
1F
100
AcDbEntity
  8
0-0_通り芯
  6
Continuous
 62
     7
370
     9
100
AcDbLine
 10
-1244.341969026264
 20
-341.6654233536331
 30
0.0
 11
-1269.128090560609
 21
-344.9285781591343
 31
0.0
  0
LINE
  5
118
330
1F
100
AcDbEntity
  8
0-0_通り芯
  6
Continuous
 62
     7
370
     9
100
AcDbLine
 10
-2169.341969026264
 20
-344.665423353633
 30
0.0
 11
-2169.341969026264
 21
-212.7692173890526
 31
0.0
  0
LINE
  5
119
330
1F
100
AcDbEntity
  8
0-0_通り芯
  6
Continuous
 62
     7
370
     9
100
AcDbLine
 10
-1244.341969026264
 20
-344.665423353633
 30
0.0
 11
-1244.341969026264
 21
-212.7692173890526
 31
0.0
  0
TEXT
  5
11A
330
1F
100
AcDbEntity
  8
0-0_通り芯
  6
Continuous
 62
     2
370
   211
100
AcDbText
 10
-1739.341969026264
 20
-330.025423353633
 30
0.0
 40
30.48
  1
185
 41
1.083333333333333
  7
ＭＳ ゴシック
100
AcDbText
  0
TEXT
  5
11B
330
1F
100
AcDbEntity
  8
6-0
  6
Continuous
 62
     2
370
     9
100
AcDbText
 10
-1638.191532690969
 20
-590.7055518656139
 30
0.0
 40
30.48
  1
表面処理：溶融亜鉛めっき(ＨＤＺ55以上)
 41
1.121710526315789
  7
ＭＳ ゴシック
100
AcDbText
  0
LINE
  5
11C
330
1F
100
AcDbEntity
  8
4-0
  6
Continuous
 62
     7
370
     9
100
AcDbLine
 10
-74.17418366322636
 20
673.9175686464404
 30
0.0
 11
-74.17418366322636
 21
550.4047877983974
 31
0.0
  0
LINE
  5
11D
330
1F
100
AcDbEntity
  8
4-0
  6
JWW_CENTER1
 62
     7
370
     9
100
AcDbLine
 10
-214.1741836632264
 20
1523.007782543952
 30
0.0
 11
-214.1741836632264
 21
1170.591617453668
 31
0.0
  0
LINE
  5
11E
330
1F
100
AcDbEntity
  8
4-0
  6
JWW_CENTER1
 62
     7
370
     9
100
AcDbLine
 10
-214.1741836632264
 20
563.9234844416
 30
0.0
 11
-214.1741836632264
 21
376.0621775507871
 31
0.0
  0
CIRCLE
  5
11F
330
1F
100
AcDbEntity
  8
4-0
  6
Continuous
 62
     7
370
     9
100
AcDbCircle
 10
-214.1741836632264
 20
1349.353440325551
 30
0.0
 40
140.0
  0
CIRCLE
  5
120
330
1F
100
AcDbEntity
  8
4-0
  6
Continuous
 62
     7
370
     9
100
AcDbCircle
 10
-214.1741836632264
 20
1349.353440325551
 30
0.0
 40
80.0
  0
LINE
  5
121
330
1F
100
AcDbEntity
  8
4-0
  6
Continuous
 62
     7
370
     9
100
AcDbLine
 10
-134.1741836632264
 20
460.4047877983973
 30
0.0
 11
-134.1741836632264
 21
420.4047877983973
 31
0.0
  0
LINE
  5
122
330
1F
100
AcDbEntity
  8
4-0
  6
Continuous
 62
     7
370
     9
100
AcDbLine
 10
-294.1741836632264
 20
460.4047877983973
 30
0.0
 11
-134.1741836632264
 21
460.4047877983973
 31
0.0
  0
LINE
  5
123
330
1F
100
AcDbEntity
  8
4-0
  6
Continuous
 62
     7
370
     9
100
AcDbLine
 10
-294.1741836632264
 20
460.4047877983973
 30
0.0
 11
-294.1741836632264
 21
420.4047877983973
 31
0.0
  0
LINE
  5
124
330
1F
100
AcDbEntity
  8
4-0
  6
Continuous
 62
     7
370
     9
100
AcDbLine
 10
-134.1741836632264
 20
460.4047877983973
 30
0.0
 11
-74.17418366322636
 21
520.4047877983974
 31
0.0
  0
LINE
  5
125
330
1F
100
AcDbEntity
  8
4-0
  6
Continuous
 62
     7
370
     9
100
AcDbLine
 10
-354.1741836632264
 20
520.4047877983974
 30
0.0
 11
-294.1741836632264
 21
460.4047877983973
 31
0.0
  0
LINE
  5
126
330
1F
100
AcDbEntity
  8
4-0
  6
Continuous
 62
     7
370
     9
100
AcDbLine
 10
-354.1741836632264
 20
670.9175686464403
 30
0.0
 11
-74.17418366322636
 21
670.9175686464403
 31
0.0
  0
LINE
  5
127
330
1F
100
AcDbEntity
  8
4-0
  6
Continuous
 62
     7
370
     9
100
AcDbLine
 10
-354.1741836632264
 20
670.9175686464403
 30
0.0
 11
-329.3880621288811
 21
674.1807234519416
 31
0.0
  0
LINE
  5
128
330
1F
100
AcDbEntity
  8
4-0
  6
Continuous
 62
     7
370
     9
100
AcDbLine
 10
-354.1741836632264
 20
670.9175686464403
 30
0.0
 11
-329.3880621288811
 21
667.654413840939
 31
0.0
  0
LINE
  5
129
330
1F
100
AcDbEntity
  8
4-0
  6
Continuous
 62
     7
370
     9
100
AcDbLine
 10
-74.17418366322636
 20
670.9175686464403
 30
0.0
 11
-98.96030519757161
 21
674.1807234519416
 31
0.0
  0
LINE
  5
12A
330
1F
100
AcDbEntity
  8
4-0
  6
Continuous
 62
     7
370
     9
100
AcDbLine
 10
-74.17418366322636
 20
670.9175686464403
 30
0.0
 11
-98.96030519757161
 21
667.654413840939
 31
0.0
  0
LINE
  5
12B
330
1F
100
AcDbEntity
  8
4-0
  6
Continuous
 62
     7
370
     9
100
AcDbLine
 10
-354.1741836632264
 20
673.9175686464404
 30
0.0
 11
-354.1741836632264
 21
550.4047877983974
 31
0.0
  0
LINE
  5
12C
330
1F
100
AcDbEntity
  8
4-0
  6
Continuous
 62
     7
370
     9
100
AcDbLine
 10
-294.1741836632264
 20
288.7349911171431
 30
0.0
 11
-134.1741836632264
 21
288.7349911171431
 31
0.0
  0
LINE
  5
12D
330
1F
100
AcDbEntity
  8
4-0
  6
Continuous
 62
     7
370
     9
100
AcDbLine
 10
-294.1741836632264
 20
288.7349911171431
 30
0.0
 11
-269.3880621288811
 21
291.9981459226444
 31
0.0
  0
LINE
  5
12E
330
1F
100
AcDbEntity
  8
4-0
  6
Continuous
 62
     7
370
     9
100
AcDbLine
 10
-294.1741836632264
 20
288.7349911171431
 30
0.0
 11
-269.3880621288811
 21
285.4718363116418
 31
0.0
  0
LINE
  5
12F
330
1F
100
AcDbEntity
  8
4-0
  6
Continuous
 62
     7
370
     9
100
AcDbLine
 10
-134.1741836632264
 20
288.7349911171431
 30
0.0
 11
-158.9603051975716
 21
291.9981459226444
 31
0.0
  0
LINE
  5
130
330
1F
100
AcDbEntity
  8
4-0
  6
Continuous
 62
     7
370
     9
100
AcDbLine
 10
-134.1741836632264
 20
288.7349911171431
 30
0.0
 11
-158.9603051975716
 21
285.4718363116418
 31
0.0
  0
LINE
  5
131
330
1F
100
AcDbEntity
  8
4-0
  6
Continuous
 62
     7
370
     9
100
AcDbLine
 10
-294.1741836632264
 20
285.7349911171431
 30
0.0
 11
-294.1741836632264
 21
390.4047877983973
 31
0.0
  0
LINE
  5
132
330
1F
100
AcDbEntity
  8
4-0
  6
Continuous
 62
     7
370
     9
100
AcDbLine
 10
-134.1741836632264
 20
285.7349911171431
 30
0.0
 11
-134.1741836632264
 21
390.4047877983973
 31
0.0
  0
TEXT
  5
133
330
1F
100
AcDbEntity
  8
4-0
  6
Continuous
 62
     2
370
   211
100
AcDbText
 10
-261.4744117341844
 20
686.28932777901
 30
0.0
 40
30.48
  1
φ14
 41
1.09375
  7
ＭＳ ゴシック
100
AcDbText
  0
TEXT
  5
134
330
1F
100
AcDbEntity
  8
4-0
  6
Continuous
 62
     2
370
   211
100
AcDbText
 10
-270.2811583378583
 20
303.9602119018875
 30
0.0
 40
30.48
  1
φ8.5
 41
1.1
  7
ＭＳ ゴシック
100
AcDbText
  0
LINE
  5
135
330
1F
100
AcDbEntity
  8
4-0
  6
Continuous
 62
     7
370
     9
100
AcDbLine
 10
135.8258163367736
 20
1349.353440325551
 30
0.0
 11
-3.89355967124402
 21
1429.353440325551
 31
0.0
  0
LINE
  5
136
330
1F
100
AcDbEntity
  8
4-0
  6
Continuous
 62
     7
370
     9
100
AcDbLine
 10
-3.89355967124402
 20
1429.353440325551
 30
0.0
 11
17.82581633677353
 21
1349.353440325551
 31
0.0
  0
LINE
  5
137
330
1F
100
AcDbEntity
  8
4-0
  6
Continuous
 62
     7
370
     9
100
AcDbLine
 10
17.82581633677353
 20
1349.353440325551
 30
0.0
 11
-3.89355967124402
 21
1269.353440325551
 31
0.0
  0
LINE
  5
138
330
1F
100
AcDbEntity
  8
4-0
  6
Continuous
 62
     7
370
     9
100
AcDbLine
 10
-3.89355967124402
 20
1269.353440325551
 30
0.0
 11
135.8258163367736
 21
1349.353440325551
 31
0.0
  0
LINE
  5
139
330
1F
100
AcDbEntity
  8
4-0
  6
Continuous
 62
     7
370
     9
100
AcDbLine
 10
-2.738248268736569
 20
520.4047877983974
 30
0.0
 11
17.26175173126343
 21
460.4047877983973
 31
0.0
  0
LINE
  5
13A
330
1F
100
AcDbEntity
  8
4-0
  6
Continuous
 62
     7
370
     9
100
AcDbLine
 10
17.26175173126343
 20
460.4047877983973
 30
0.0
 11
135.8258163367736
 21
440.4047877983973
 31
0.0
  0
ARC
  5
13B
330
1F
100
AcDbEntity
  8
4-0
  6
Continuous
 62
     7
370
     9
100
AcDbCircle
 10
170.4668324881511
 20
420.4047877983973
 30
0.0
 40
144.0000052878162
100
AcDbArc
 50
131.1058063577223
 51
180.0
  0
LINE
  5
13C
330
1F
100
AcDbEntity
  8
4-0
  6
Continuous
 62
     7
370
     9
100
AcDbLine
 10
356.5606693405982
 20
520.4047877983974
 30
0.0
 11
81.50120128201945
 21
520.4047877983974
 31
0.0
  0
TEXT
  5
13D
330
1F
100
AcDbEntity
  8
4-0
  6
Continuous
 62
     2
370
     9
100
AcDbText
 10
38.3940259650612
 20
505.0641145865466
 30
0.0
 40
30.48
  1
30ﾟ
 50
54.99999999999999
 41
1.083333333333331
  7
ＭＳ ゴシック
100
AcDbText
  0
LINE
  5
13E
330
1F
100
AcDbEntity
  8
4-0
  6
Continuous
 62
     7
370
     9
100
AcDbLine
 10
-6.174183663226351
 20
420.4047877983973
 30
0.0
 11
-26.17418366322635
 21
450.4047877983973
 31
0.0
  0
LINE
  5
13F
330
1F
100
AcDbEntity
  8
4-0
  6
Continuous
 62
     7
370
     9
100
AcDbLine
 10
-46.17418366322635
 20
450.4047877983973
 30
0.0
 11
-66.17418366322636
 21
420.4047877983973
 31
0.0
  0
LINE
  5
140
330
1F
100
AcDbEntity
  8
4-0
  6
Continuous
 62
     7
370
     9
100
AcDbLine
 10
-46.17418366322639
 20
450.4047877983973
 30
0.0
 11
-26.17418366322635
 21
450.4047877983973
 31
0.0
  0
LINE
  5
141
330
1F
100
AcDbEntity
  8
4-0
  6
Continuous
 62
     7
370
     9
100
AcDbLine
 10
-6.174183663226387
 20
420.4047877983973
 30
0.0
 11
135.8258163367736
 21
420.4047877983973
 31
0.0
  0
LINE
  5
142
330
1F
100
AcDbEntity
  8
4-0
  6
Continuous
 62
     7
370
     9
100
AcDbLine
 10
-366.1741836632264
 20
420.4047877983973
 30
0.0
 11
-386.1741836632264
 21
450.4047877983973
 31
0.0
  0
LINE
  5
143
330
1F
100
AcDbEntity
  8
4-0
  6
Continuous
 62
     7
370
     9
100
AcDbLine
 10
-406.1741836632264
 20
450.4047877983973
 30
0.0
 11
-426.1741836632264
 21
420.4047877983973
 31
0.0
  0
LINE
  5
144
330
1F
100
AcDbEntity
  8
4-0
  6
Continuous
 62
     7
370
     9
100
AcDbLine
 10
-406.1741836632264
 20
450.4047877983973
 30
0.0
 11
-386.1741836632264
 21
450.4047877983973
 31
0.0
  0
LINE
  5
145
330
1F
100
AcDbEntity
  8
4-0
  6
Continuous
 62
     7
370
     9
100
AcDbLine
 10
-486.1741836632264
 20
420.4047877983973
 30
0.0
 11
-506.1741836632264
 21
450.4047877983973
 31
0.0
  0
LINE
  5
146
330
1F
100
AcDbEntity
  8
4-0
  6
Continuous
 62
     7
370
     9
100
AcDbLine
 10
-526.1741836632264
 20
450.4047877983973
 30
0.0
 11
-546.1741836632264
 21
420.4047877983973
 31
0.0
  0
LINE
  5
147
330
1F
100
AcDbEntity
  8
4-0
  6
Continuous
 62
     7
370
     9
100
AcDbLine
 10
-526.1741836632264
 20
450.4047877983973
 30
0.0
 11
-506.1741836632264
 21
450.4047877983973
 31
0.0
  0
LINE
  5
148
330
1F
100
AcDbEntity
  8
4-0
  6
Continuous
 62
     7
370
     9
100
AcDbLine
 10
-606.1741836632264
 20
420.4047877983973
 30
0.0
 11
-626.1741836632264
 21
450.4047877983973
 31
0.0
  0
LINE
  5
149
330
1F
100
AcDbEntity
  8
4-0
  6
Continuous
 62
     7
370
     9
100
AcDbLine
 10
-646.1741836632264
 20
450.4047877983973
 30
0.0
 11
-666.1741836632264
 21
420.4047877983973
 31
0.0
  0
LINE
  5
14A
330
1F
100
AcDbEntity
  8
4-0
  6
Continuous
 62
     7
370
     9
100
AcDbLine
 10
-646.1741836632264
 20
450.4047877983973
 30
0.0
 11
-626.1741836632264
 21
450.4047877983973
 31
0.0
  0
LINE
  5
14B
330
1F
100
AcDbEntity
  8
4-0
  6
Continuous
 62
     7
370
     9
100
AcDbLine
 10
-606.1741836632264
 20
420.4047877983973
 30
0.0
 11
-546.1741836632264
 21
420.4047877983973
 31
0.0
  0
LINE
  5
14C
330
1F
100
AcDbEntity
  8
4-0
  6
Continuous
 62
     7
370
     9
100
AcDbLine
 10
-486.1741836632264
 20
420.4047877983973
 30
0.0
 11
-426.1741836632264
 21
420.4047877983973
 31
0.0
  0
LINE
  5
14D
330
1F
100
AcDbEntity
  8
4-0
  6
Continuous
 62
     7
370
     9
100
AcDbLine
 10
-366.1741836632264
 20
420.4047877983973
 30
0.0
 11
-66.17418366322639
 21
420.4047877983973
 31
0.0
  0
LINE
  5
14E
330
1F
100
AcDbEntity
  8
4-0
  6
Continuous
 62
     7
370
     9
100
AcDbLine
 10
-710.8273934777691
 20
420.4047877983973
 30
0.0
 11
-666.1741836632264
 21
420.4047877983973
 31
0.0
  0
LINE
  5
14F
330
1F
100
AcDbEntity
  8
4-0
  6
Continuous
 62
     7
370
     9
100
AcDbLine
 10
-710.8273934777691
 20
520.4047877983974
 30
0.0
 11
-2.738248268736569
 21
520.4047877983974
 31
0.0
  0
LINE
  5
150
330
1F
100
AcDbEntity
  8
4-0
  6
Continuous
 62
     7
370
     9
100
AcDbLine
 10
-666.1741836632264
 20
291.0072672300809
 30
0.0
 11
-606.1741836632264
 21
291.0072672300809
 31
0.0
  0
LINE
  5
151
330
1F
100
AcDbEntity
  8
4-0
  6
Continuous
 62
     7
370
     9
100
AcDbLine
 10
-666.1741836632264
 20
291.0072672300809
 30
0.0
 11
-641.3880621288811
 21
294.2704220355822
 31
0.0
  0
LINE
  5
152
330
1F
100
AcDbEntity
  8
4-0
  6
Continuous
 62
     7
370
     9
100
AcDbLine
 10
-666.1741836632264
 20
291.0072672300809
 30
0.0
 11
-641.3880621288811
 21
287.7441124245796
 31
0.0
  0
LINE
  5
153
330
1F
100
AcDbEntity
  8
4-0
  6
Continuous
 62
     7
370
     9
100
AcDbLine
 10
-606.1741836632264
 20
291.0072672300809
 30
0.0
 11
-630.9603051975716
 21
294.2704220355822
 31
0.0
  0
LINE
  5
154
330
1F
100
AcDbEntity
  8
4-0
  6
Continuous
 62
     7
370
     9
100
AcDbLine
 10
-606.1741836632264
 20
291.0072672300809
 30
0.0
 11
-630.9603051975716
 21
287.7441124245796
 31
0.0
  0
LINE
  5
155
330
1F
100
AcDbEntity
  8
4-0
  6
Continuous
 62
     7
370
     9
100
AcDbLine
 10
-666.1741836632264
 20
288.0072672300809
 30
0.0
 11
-666.1741836632264
 21
390.4047877983973
 31
0.0
  0
LINE
  5
156
330
1F
100
AcDbEntity
  8
4-0
  6
Continuous
 62
     7
370
     9
100
AcDbLine
 10
-606.1741836632264
 20
288.0072672300809
 30
0.0
 11
-606.1741836632264
 21
390.4047877983973
 31
0.0
  0
TEXT
  5
157
330
1F
100
AcDbEntity
  8
4-0
  6
Continuous
 62
     2
370
   211
100
AcDbText
 10
-646.1741836632264
 20
302.6472672300809
 30
0.0
 40
30.48
  1
3
 41
0.9999999999999998
  7
ＭＳ ゴシック
100
AcDbText
  0
LINE
  5
158
330
1F
100
AcDbEntity
  8
4-0
  6
Continuous
 62
     7
370
     9
100
AcDbLine
 10
-606.1741836632264
 20
291.0072672300809
 30
0.0
 11
-546.1741836632264
 21
291.0072672300809
 31
0.0
  0
LINE
  5
159
330
1F
100
AcDbEntity
  8
4-0
  6
Continuous
 62
     7
370
     9
100
AcDbLine
 10
-606.1741836632264
 20
291.0072672300809
 30
0.0
 11
-581.3880621288811
 21
294.2704220355822
 31
0.0
  0
LINE
  5
15A
330
1F
100
AcDbEntity
  8
4-0
  6
Continuous
 62
     7
370
     9
100
AcDbLine
 10
-606.1741836632264
 20
291.0072672300809
 30
0.0
 11
-581.3880621288811
 21
287.7441124245796
 31
0.0
  0
LINE
  5
15B
330
1F
100
AcDbEntity
  8
4-0
  6
Continuous
 62
     7
370
     9
100
AcDbLine
 10
-546.1741836632264
 20
291.0072672300809
 30
0.0
 11
-570.9603051975716
 21
294.2704220355822
 31
0.0
  0
LINE
  5
15C
330
1F
100
AcDbEntity
  8
4-0
  6
Continuous
 62
     7
370
     9
100
AcDbLine
 10
-546.1741836632264
 20
291.0072672300809
 30
0.0
 11
-570.9603051975716
 21
287.7441124245796
 31
0.0
  0
LINE
  5
15D
330
1F
100
AcDbEntity
  8
4-0
  6
Continuous
 62
     7
370
     9
100
AcDbLine
 10
-546.1741836632264
 20
288.0072672300809
 30
0.0
 11
-546.1741836632264
 21
390.4047877983973
 31
0.0
  0
TEXT
  5
15E
330
1F
100
AcDbEntity
  8
4-0
  6
Continuous
 62
     2
370
   211
100
AcDbText
 10
-586.1741836632264
 20
302.6472672300809
 30
0.0
 40
30.48
  1
3
 41
0.9999999999999998
  7
ＭＳ ゴシック
100
AcDbText
  0
LINE
  5
15F
330
1F
100
AcDbEntity
  8
4-0
  6
Continuous
 62
     7
370
     9
100
AcDbLine
 10
-546.1741836632264
 20
291.0072672300809
 30
0.0
 11
-486.1741836632264
 21
291.0072672300809
 31
0.0
  0
LINE
  5
160
330
1F
100
AcDbEntity
  8
4-0
  6
Continuous
 62
     7
370
     9
100
AcDbLine
 10
-546.1741836632264
 20
291.0072672300809
 30
0.0
 11
-521.3880621288811
 21
294.2704220355822
 31
0.0
  0
LINE
  5
161
330
1F
100
AcDbEntity
  8
4-0
  6
Continuous
 62
     7
370
     9
100
AcDbLine
 10
-546.1741836632264
 20
291.0072672300809
 30
0.0
 11
-521.3880621288811
 21
287.7441124245796
 31
0.0
  0
LINE
  5
162
330
1F
100
AcDbEntity
  8
4-0
  6
Continuous
 62
     7
370
     9
100
AcDbLine
 10
-486.1741836632264
 20
291.0072672300809
 30
0.0
 11
-510.9603051975716
 21
294.2704220355822
 31
0.0
  0
LINE
  5
163
330
1F
100
AcDbEntity
  8
4-0
  6
Continuous
 62
     7
370
     9
100
AcDbLine
 10
-486.1741836632264
 20
291.0072672300809
 30
0.0
 11
-510.9603051975716
 21
287.7441124245796
 31
0.0
  0
LINE
  5
164
330
1F
100
AcDbEntity
  8
4-0
  6
Continuous
 62
     7
370
     9
100
AcDbLine
 10
-486.1741836632264
 20
288.0072672300809
 30
0.0
 11
-486.1741836632264
 21
390.4047877983973
 31
0.0
  0
TEXT
  5
165
330
1F
100
AcDbEntity
  8
4-0
  6
Continuous
 62
     2
370
   211
100
AcDbText
 10
-526.1741836632264
 20
302.6472672300809
 30
0.0
 40
30.48
  1
3
 41
0.9999999999999998
  7
ＭＳ ゴシック
100
AcDbText
  0
LINE
  5
166
330
1F
100
AcDbEntity
  8
4-0
  6
Continuous
 62
     7
370
     9
100
AcDbLine
 10
-486.1741836632264
 20
291.0072672300809
 30
0.0
 11
-426.1741836632264
 21
291.0072672300809
 31
0.0
  0
LINE
  5
167
330
1F
100
AcDbEntity
  8
4-0
  6
Continuous
 62
     7
370
     9
100
AcDbLine
 10
-486.1741836632264
 20
291.0072672300809
 30
0.0
 11
-461.3880621288811
 21
294.2704220355822
 31
0.0
  0
LINE
  5
168
330
1F
100
AcDbEntity
  8
4-0
  6
Continuous
 62
     7
370
     9
100
AcDbLine
 10
-486.1741836632264
 20
291.0072672300809
 30
0.0
 11
-461.3880621288811
 21
287.7441124245796
 31
0.0
  0
LINE
  5
169
330
1F
100
AcDbEntity
  8
4-0
  6
Continuous
 62
     7
370
     9
100
AcDbLine
 10
-426.1741836632264
 20
291.0072672300809
 30
0.0
 11
-450.9603051975716
 21
294.2704220355822
 31
0.0
  0
LINE
  5
16A
330
1F
100
AcDbEntity
  8
4-0
  6
Continuous
 62
     7
370
     9
100
AcDbLine
 10
-426.1741836632264
 20
291.0072672300809
 30
0.0
 11
-450.9603051975716
 21
287.7441124245796
 31
0.0
  0
LINE
  5
16B
330
1F
100
AcDbEntity
  8
4-0
  6
Continuous
 62
     7
370
     9
100
AcDbLine
 10
-426.1741836632264
 20
288.0072672300809
 30
0.0
 11
-426.1741836632264
 21
390.4047877983973
 31
0.0
  0
TEXT
  5
16C
330
1F
100
AcDbEntity
  8
4-0
  6
Continuous
 62
     2
370
   211
100
AcDbText
 10
-466.1741836632264
 20
302.6472672300809
 30
0.0
 40
30.48
  1
3
 41
0.9999999999999998
  7
ＭＳ ゴシック
100
AcDbText
  0
LINE
  5
16D
330
1F
100
AcDbEntity
  8
4-0
  6
Continuous
 62
     7
370
     9
100
AcDbLine
 10
-801.7479072637659
 20
450.4047877983973
 30
0.0
 11
-805.0110620692672
 21
475.1909093327425
 31
0.0
  0
LINE
  5
16E
330
1F
100
AcDbEntity
  8
4-0
  6
Continuous
 62
     7
370
     9
100
AcDbLine
 10
-801.7479072637659
 20
450.4047877983973
 30
0.0
 11
-798.4847524582644
 21
475.1909093327425
 31
0.0
  0
LINE
  5
16F
330
1F
100
AcDbEntity
  8
4-0
  6
Continuous
 62
     7
370
     9
100
AcDbLine
 10
-801.7479072637659
 20
420.4047877983973
 30
0.0
 11
-805.0110620692672
 21
395.6186662640521
 31
0.0
  0
LINE
  5
170
330
1F
100
AcDbEntity
  8
4-0
  6
Continuous
 62
     7
370
     9
100
AcDbLine
 10
-801.7479072637659
 20
420.4047877983973
 30
0.0
 11
-798.4847524582644
 21
395.6186662640521
 31
0.0
  0
LINE
  5
171
330
1F
100
AcDbEntity
  8
4-0
  6
Continuous
 62
     7
370
     9
100
AcDbLine
 10
-804.7479072637658
 20
450.4047877983973
 30
0.0
 11
-676.1741836632264
 21
450.4047877983973
 31
0.0
  0
LINE
  5
172
330
1F
100
AcDbEntity
  8
4-0
  6
Continuous
 62
     7
370
     9
100
AcDbLine
 10
-804.7479072637658
 20
420.4047877983973
 30
0.0
 11
-740.8273934777691
 21
420.4047877983973
 31
0.0
  0
TEXT
  5
173
330
1F
100
AcDbEntity
  8
4-0
  6
Continuous
 62
     2
370
   211
100
AcDbText
 10
-813.3879072637658
 20
402.9047877983973
 30
0.0
 40
30.48
  1
1.5
 50
90.0
 41
1.083333333333333
  7
ＭＳ ゴシック
100
AcDbText
  0
LINE
  5
174
330
1F
100
AcDbEntity
  8
4-0
  6
Continuous
 62
     7
370
     9
100
AcDbLine
 10
-801.7479072637659
 20
499.3520851417682
 30
0.0
 11
-801.7479072637659
 21
377.0971092787812
 31
0.0
  0
LINE
  5
175
330
1F
100
AcDbEntity
  8
3-0
  6
Continuous
 62
     7
370
     9
100
AcDbLine
 10
1572.907497337212
 20
-512.6650372197707
 30
0.0
 11
2610.66760051864
 21
-512.6650372197707
 31
0.0
  0
LINE
  5
176
330
1F
100
AcDbEntity
  8
3-0
  6
Continuous
 62
     7
370
     9
100
AcDbLine
 10
1927.907497337212
 20
-492.6650372197707
 30
0.0
 11
1927.907497337212
 21
-512.6650372197706
 31
0.0
  0
LINE
  5
177
330
1F
100
AcDbEntity
  8
6-0
  6
Continuous
 62
     7
370
     9
100
AcDbLine
 10
1281.622116959868
 20
-512.6650372197706
 30
0.0
 11
1296.841152685086
 21
-532.4988707270516
 31
0.0
  0
LINE
  5
178
330
1F
100
AcDbEntity
  8
6-0
  6
Continuous
 62
     7
370
     9
100
AcDbLine
 10
1281.622116959868
 20
-512.6650372197706
 30
0.0
 11
1291.189202768995
 21
-535.7620255325529
 31
0.0
  0
ARC
  5
179
330
1F
100
AcDbEntity
  8
3-0
  6
Continuous
 62
     7
370
     9
100
AcDbCircle
 10
1470.783846221827
 20
-442.6650372197707
 30
0.0
 40
15.0
100
AcDbArc
 50
185.0796078600145
 51
270.0
  0
ARC
  5
17A
330
1F
100
AcDbEntity
  8
3-0
  6
Continuous
 62
     7
370
     9
100
AcDbCircle
 10
885.031148452598
 20
-442.6650372197707
 30
0.0
 40
15.0
100
AcDbArc
 50
270.0
 51
354.9203921399854
  0
LINE
  5
17B
330
1F
100
AcDbEntity
  8
3-0
  6
Continuous
 62
     7
370
     9
100
AcDbLine
 10
1454.835814668836
 20
-432.6650372197707
 30
0.0
 11
1444.796386226101
 21
-432.6650372197707
 31
0.0
  0
LINE
  5
17C
330
1F
100
AcDbEntity
  8
3-0
  6
Continuous
 62
     7
370
     9
100
AcDbLine
 10
911.0186084483234
 20
-432.6650372197707
 30
0.0
 11
900.9791800055888
 21
-432.6650372197707
 31
0.0
  0
LINE
  5
17D
330
1F
100
AcDbEntity
  8
3-0
  6
Continuous
 62
     7
370
     9
100
AcDbLine
 10
1455.842756611437
 20
-443.9931340740276
 30
0.0
 11
1454.835814668836
 21
-432.6650372197707
 31
0.0
  0
LINE
  5
17E
330
1F
100
AcDbEntity
  8
3-0
  6
Continuous
 62
     7
370
     9
100
AcDbLine
 10
899.9722380629883
 20
-443.9931340740276
 30
0.0
 11
900.9791800055888
 21
-432.6650372197707
 31
0.0
  0
LINE
  5
17F
330
1F
100
AcDbEntity
  8
6-0
  6
Continuous
 62
     7
370
     9
100
AcDbLine
 10
1552.907497337212
 20
-467.665037219771
 30
0.0
 11
1568.12653306243
 21
-447.83120371249
 31
0.0
  0
LINE
  5
180
330
1F
100
AcDbEntity
  8
6-0
  6
Continuous
 62
     7
370
     9
100
AcDbLine
 10
1552.907497337212
 20
-467.665037219771
 30
0.0
 11
1562.474583146339
 21
-444.5680489069886
 31
0.0
  0
LINE
  5
181
330
1F
100
AcDbEntity
  8
6-0
  6
Continuous
 62
     7
370
     9
100
AcDbLine
 10
1552.907497337212
 20
-467.6650372197707
 30
0.0
 11
1741.818731070761
 21
-140.4611822727452
 31
0.0
  0
LINE
  5
182
330
1F
100
AcDbEntity
  8
3-0
  6
Continuous
 62
     7
370
     9
100
AcDbLine
 10
427.9074973372127
 20
-492.6650372197707
 30
0.0
 11
427.9074973372127
 21
-512.6650372197706
 31
0.0
  0
LINE
  5
183
330
1F
100
AcDbEntity
  8
3-0
  6
Continuous
 62
     7
370
     9
100
AcDbLine
 10
2177.907497337212
 20
-502.6650372197707
 30
0.0
 11
2177.907497337212
 21
-512.6650372197706
 31
0.0
  0
ARC
  5
184
330
1F
100
AcDbEntity
  8
3-0
  6
Continuous
 62
     7
370
     9
100
AcDbCircle
 10
1927.907497337212
 20
-492.6650372197707
 30
0.0
 40
10.0
100
AcDbArc
 50
0.0
 51
90.0
  0
LINE
  5
185
330
1F
100
AcDbEntity
  8
3-0
  6
Continuous
 62
     7
370
     9
100
AcDbLine
 10
1947.907497337212
 20
-502.6650372197707
 30
0.0
 11
2177.907497337212
 21
-502.6650372197707
 31
0.0
  0
ARC
  5
186
330
1F
100
AcDbEntity
  8
3-0
  6
Continuous
 62
     7
370
     9
100
AcDbCircle
 10
1947.907497337212
 20
-492.6650372197707
 30
0.0
 40
10.0
100
AcDbArc
 50
180.0
 51
270.0
  0
ARC
  5
187
330
1F
100
AcDbEntity
  8
3-0
  6
Continuous
 62
     7
370
     9
100
AcDbCircle
 10
1947.907497337212
 20
-492.6650372197707
 30
0.0
 40
20.0
100
AcDbArc
 50
180.0
 51
270.0
  0
LINE
  5
188
330
1F
100
AcDbEntity
  8
3-0
  6
Continuous
 62
     7
370
     9
100
AcDbLine
 10
177.9074973372127
 20
-502.6650372197707
 30
0.0
 11
177.9074973372127
 21
-512.6650372197706
 31
0.0
  0
LINE
  5
189
330
1F
100
AcDbEntity
  8
3-0
  6
Continuous
 62
     7
370
     9
100
AcDbLine
 10
407.9074973372127
 20
-502.6650372197707
 30
0.0
 11
177.9074973372127
 21
-502.6650372197707
 31
0.0
  0
ARC
  5
18A
330
1F
100
AcDbEntity
  8
3-0
  6
Continuous
 62
     7
370
     9
100
AcDbCircle
 10
407.9074973372127
 20
-492.6650372197707
 30
0.0
 40
10.0
100
AcDbArc
 50
270.0
 51
0.0
  0
ARC
  5
18B
330
1F
100
AcDbEntity
  8
3-0
  6
Continuous
 62
     7
370
     9
100
AcDbCircle
 10
407.9074973372127
 20
-492.6650372197707
 30
0.0
 40
20.0
100
AcDbArc
 50
270.0
 51
0.0
  0
ARC
  5
18C
330
1F
100
AcDbEntity
  8
3-0
  6
Continuous
 62
     7
370
     9
100
AcDbCircle
 10
427.9074973372127
 20
-492.6650372197707
 30
0.0
 40
10.0
100
AcDbArc
 50
90.0
 51
180.0
  0
LINE
  5
18D
330
1F
100
AcDbEntity
  8
3-0
  6
Continuous
 62
     7
370
     9
100
AcDbLine
 10
427.9074973372127
 20
-497.6650372197707
 30
0.0
 11
782.9074973372124
 21
-497.6650372197707
 31
0.0
  0
LINE
  5
18E
330
1F
100
AcDbEntity
  8
3-0
  6
Continuous
 62
     7
370
     9
100
AcDbLine
 10
427.9074973372127
 20
-502.6650372197707
 30
0.0
 11
782.9074973372124
 21
-502.6650372197707
 31
0.0
  0
LINE
  5
18F
330
1F
100
AcDbEntity
  8
3-0
  6
Continuous
 62
     7
370
     9
100
AcDbLine
 10
427.9074973372127
 20
-507.6650372197707
 30
0.0
 11
782.9074973372124
 21
-507.6650372197707
 31
0.0
  0
LINE
  5
190
330
1F
100
AcDbEntity
  8
3-0
  6
Continuous
 62
     7
370
     9
100
AcDbLine
 10
-249.5215654314887
 20
-512.6650372197707
 30
0.0
 11
782.9074973372124
 21
-512.6650372197707
 31
0.0
  0
LINE
  5
191
330
1F
100
AcDbEntity
  8
3-0
  6
Continuous
 62
     7
370
     9
100
AcDbLine
 10
822.9074973372124
 20
-497.6650372197707
 30
0.0
 11
1532.907497337212
 21
-497.6650372197707
 31
0.0
  0
LINE
  5
192
330
1F
100
AcDbEntity
  8
3-0
  6
Continuous
 62
     7
370
     9
100
AcDbLine
 10
822.9074973372124
 20
-502.6650372197707
 30
0.0
 11
1532.907497337212
 21
-502.6650372197707
 31
0.0
  0
LINE
  5
193
330
1F
100
AcDbEntity
  8
3-0
  6
Continuous
 62
     7
370
     9
100
AcDbLine
 10
822.9074973372124
 20
-507.6650372197707
 30
0.0
 11
1532.907497337212
 21
-507.6650372197707
 31
0.0
  0
LINE
  5
194
330
1F
100
AcDbEntity
  8
3-0
  6
Continuous
 62
     7
370
     9
100
AcDbLine
 10
1572.907497337212
 20
-497.6650372197707
 30
0.0
 11
1927.907497337212
 21
-497.6650372197707
 31
0.0
  0
LINE
  5
195
330
1F
100
AcDbEntity
  8
3-0
  6
Continuous
 62
     7
370
     9
100
AcDbLine
 10
1572.907497337212
 20
-502.6650372197707
 30
0.0
 11
1927.907497337212
 21
-502.6650372197707
 31
0.0
  0
LINE
  5
196
330
1F
100
AcDbEntity
  8
3-0
  6
Continuous
 62
     7
370
     9
100
AcDbLine
 10
1572.907497337212
 20
-507.6650372197707
 30
0.0
 11
1927.907497337212
 21
-507.6650372197707
 31
0.0
  0
TEXT
  5
197
330
1F
100
AcDbEntity
  8
6-0
  6
Continuous
 62
     2
370
     9
100
AcDbText
 10
1045.565953352657
 20
-717.3785530535366
 30
0.0
 40
30.48
  1
ブチルシート　
 41
1.107142857142857
  7
ＭＳ ゴシック
100
AcDbText
  0
TEXT
  5
198
330
1F
100
AcDbEntity
  8
6-0
  6
Continuous
 62
     2
370
     9
100
AcDbText
 10
1038.305592374015
 20
-782.6908996109776
 30
0.0
 40
30.48
  1
ｔ＝3　□300
 41
1.114583333333333
  7
ＭＳ ゴシック
100
AcDbText
  0
LINE
  5
199
330
1F
100
AcDbEntity
  8
6-0
  6
Continuous
 62
     7
370
     9
100
AcDbLine
 10
1281.622116959868
 20
-512.6650372197706
 30
0.0
 11
1410.457743339783
 21
-735.8148879347459
 31
0.0
  0
LINE
  5
19A
330
1F
100
AcDbEntity
  8
6-0
  6
Continuous
 62
     7
370
     9
100
AcDbLine
 10
1410.457743339783
 20
-735.8148879347459
 30
0.0
 11
1034.623899759536
 21
-735.8148879347459
 31
0.0
  0
LINE
  5
19B
330
1F
100
AcDbEntity
  8
3-0
  6
Continuous
 62
     7
370
     9
100
AcDbLine
 10
822.9074973372124
 20
-505.1650372197707
 30
0.0
 11
782.9074973372124
 21
-528.2590479873556
 31
0.0
  0
LINE
  5
19C
330
1F
100
AcDbEntity
  8
3-0
  6
Continuous
 62
     7
370
     9
100
AcDbLine
 10
815.7655792366834
 20
-709.2884255576414
 30
0.0
 11
793.3547722264211
 21
-722.227311017773
 31
0.0
  0
LINE
  5
19D
330
1F
100
AcDbEntity
  8
3-0
  6
Continuous
 62
     7
370
     9
100
AcDbLine
 10
822.9074973372124
 20
-680.1650372197707
 30
0.0
 11
787.5093394207896
 21
-700.6021732216343
 31
0.0
  0
LINE
  5
19E
330
1F
100
AcDbEntity
  8
3-0
  6
Continuous
 62
     7
370
     9
100
AcDbLine
 10
822.9074973372124
 20
-655.1650372197707
 30
0.0
 11
782.9074973372124
 21
-678.2590479873556
 31
0.0
  0
LINE
  5
19F
330
1F
100
AcDbEntity
  8
3-0
  6
Continuous
 62
     7
370
     9
100
AcDbLine
 10
822.9074973372124
 20
-630.1650372197707
 30
0.0
 11
782.9074973372124
 21
-653.2590479873556
 31
0.0
  0
LINE
  5
1A0
330
1F
100
AcDbEntity
  8
3-0
  6
Continuous
 62
     7
370
     9
100
AcDbLine
 10
822.9074973372124
 20
-605.1650372197707
 30
0.0
 11
782.9074973372124
 21
-628.2590479873556
 31
0.0
  0
LINE
  5
1A1
330
1F
100
AcDbEntity
  8
3-0
  6
Continuous
 62
     7
370
     9
100
AcDbLine
 10
822.9074973372124
 20
-580.1650372197707
 30
0.0
 11
782.9074973372124
 21
-603.2590479873556
 31
0.0
  0
LINE
  5
1A2
330
1F
100
AcDbEntity
  8
3-0
  6
Continuous
 62
     7
370
     9
100
AcDbLine
 10
822.9074973372124
 20
-555.1650372197707
 30
0.0
 11
782.9074973372124
 21
-578.2590479873556
 31
0.0
  0
LINE
  5
1A3
330
1F
100
AcDbEntity
  8
3-0
  6
Continuous
 62
     7
370
     9
100
AcDbLine
 10
822.9074973372124
 20
-530.1650372197707
 30
0.0
 11
782.9074973372124
 21
-553.2590479873556
 31
0.0
  0
LINE
  5
1A4
330
1F
100
AcDbEntity
  8
3-0
  6
Continuous
 62
     7
370
     9
100
AcDbLine
 10
802.9074973372124
 20
-742.6650372197707
 30
0.0
 11
817.9074973372124
 21
-686.6842751062379
 31
0.0
  0
LINE
  5
1A5
330
1F
100
AcDbEntity
  8
3-0
  6
Continuous
 62
     7
370
     9
100
AcDbLine
 10
802.9074973372124
 20
-742.6650372197707
 30
0.0
 11
787.9074973372124
 21
-686.6842751062376
 31
0.0
  0
LINE
  5
1A6
330
1F
100
AcDbEntity
  8
3-0
  6
Continuous
 62
     7
370
     9
100
AcDbLine
 10
787.9074973372124
 20
-482.6650372197707
 30
0.0
 11
787.9074973372124
 21
-686.6842751062376
 31
0.0
  0
LINE
  5
1A7
330
1F
100
AcDbEntity
  8
3-0
  6
Continuous
 62
     7
370
     9
100
AcDbLine
 10
817.9074973372124
 20
-482.6650372197707
 30
0.0
 11
817.9074973372124
 21
-686.6842751062379
 31
0.0
  0
LINE
  5
1A8
330
1F
100
AcDbEntity
  8
3-0
  6
Continuous
 62
     7
370
     9
100
AcDbLine
 10
817.9074973372124
 20
-483.0517885657189
 30
0.0
 11
782.9074973372124
 21
-503.2590479873556
 31
0.0
  0
LINE
  5
1A9
330
1F
100
AcDbEntity
  8
3-0
  6
Continuous
 62
     7
370
     9
100
AcDbLine
 10
1572.907497337212
 20
-505.1650372197711
 30
0.0
 11
1532.907497337212
 21
-528.259047987356
 31
0.0
  0
LINE
  5
1AA
330
1F
100
AcDbEntity
  8
3-0
  6
Continuous
 62
     7
370
     9
100
AcDbLine
 10
1565.765579236683
 20
-709.2884255576416
 30
0.0
 11
1543.354772226421
 21
-722.2273110177732
 31
0.0
  0
LINE
  5
1AB
330
1F
100
AcDbEntity
  8
3-0
  6
Continuous
 62
     7
370
     9
100
AcDbLine
 10
1572.907497337212
 20
-680.165037219771
 30
0.0
 11
1537.509339420789
 21
-700.6021732216345
 31
0.0
  0
LINE
  5
1AC
330
1F
100
AcDbEntity
  8
3-0
  6
Continuous
 62
     7
370
     9
100
AcDbLine
 10
1572.907497337212
 20
-655.165037219771
 30
0.0
 11
1532.907497337212
 21
-678.2590479873559
 31
0.0
  0
LINE
  5
1AD
330
1F
100
AcDbEntity
  8
3-0
  6
Continuous
 62
     7
370
     9
100
AcDbLine
 10
1572.907497337212
 20
-630.1650372197711
 30
0.0
 11
1532.907497337212
 21
-653.2590479873559
 31
0.0
  0
LINE
  5
1AE
330
1F
100
AcDbEntity
  8
3-0
  6
Continuous
 62
     7
370
     9
100
AcDbLine
 10
1572.907497337212
 20
-605.1650372197711
 30
0.0
 11
1532.907497337212
 21
-628.259047987356
 31
0.0
  0
LINE
  5
1AF
330
1F
100
AcDbEntity
  8
3-0
  6
Continuous
 62
     7
370
     9
100
AcDbLine
 10
1572.907497337212
 20
-580.1650372197711
 30
0.0
 11
1532.907497337212
 21
-603.259047987356
 31
0.0
  0
LINE
  5
1B0
330
1F
100
AcDbEntity
  8
3-0
  6
Continuous
 62
     7
370
     9
100
AcDbLine
 10
1572.907497337212
 20
-555.1650372197711
 30
0.0
 11
1532.907497337212
 21
-578.259047987356
 31
0.0
  0
LINE
  5
1B1
330
1F
100
AcDbEntity
  8
3-0
  6
Continuous
 62
     7
370
     9
100
AcDbLine
 10
1572.907497337212
 20
-530.1650372197711
 30
0.0
 11
1532.907497337212
 21
-553.259047987356
 31
0.0
  0
LINE
  5
1B2
330
1F
100
AcDbEntity
  8
3-0
  6
Continuous
 62
     7
370
     9
100
AcDbLine
 10
1552.907497337212
 20
-742.665037219771
 30
0.0
 11
1567.907497337212
 21
-686.6842751062381
 31
0.0
  0
LINE
  5
1B3
330
1F
100
AcDbEntity
  8
3-0
  6
Continuous
 62
     7
370
     9
100
AcDbLine
 10
1552.907497337212
 20
-742.665037219771
 30
0.0
 11
1537.907497337212
 21
-686.6842751062379
 31
0.0
  0
LINE
  5
1B4
330
1F
100
AcDbEntity
  8
3-0
  6
Continuous
 62
     7
370
     9
100
AcDbLine
 10
1537.907497337212
 20
-482.665037219771
 30
0.0
 11
1537.907497337212
 21
-686.6842751062379
 31
0.0
  0
LINE
  5
1B5
330
1F
100
AcDbEntity
  8
3-0
  6
Continuous
 62
     7
370
     9
100
AcDbLine
 10
1567.907497337212
 20
-482.665037219771
 30
0.0
 11
1567.907497337212
 21
-686.6842751062381
 31
0.0
  0
LINE
  5
1B6
330
1F
100
AcDbEntity
  8
3-0
  6
Continuous
 62
     7
370
     9
100
AcDbLine
 10
1567.907497337212
 20
-483.0517885657192
 30
0.0
 11
1532.907497337212
 21
-503.259047987356
 31
0.0
  0
LINE
  5
1B7
330
1F
100
AcDbEntity
  8
3-0
  6
Continuous
 62
     7
370
     9
100
AcDbLine
 10
822.9074973372124
 20
-512.6650372197707
 30
0.0
 11
1532.907497337212
 21
-512.6650372197707
 31
0.0
  0
LINE
  5
1B8
330
1F
100
AcDbEntity
  8
6-0
  6
Continuous
 62
     7
370
     9
100
AcDbLine
 10
1573.224004743772
 20
-622.8136403240838
 30
0.0
 11
1588.44304046899
 21
-602.9798068168028
 31
0.0
  0
LINE
  5
1B9
330
1F
100
AcDbEntity
  8
6-0
  6
Continuous
 62
     7
370
     9
100
AcDbLine
 10
1573.224004743772
 20
-622.8136403240838
 30
0.0
 11
1582.7910905529
 21
-599.7166520113016
 31
0.0
  0
LINE
  5
1BA
330
1F
100
AcDbEntity
  8
6-0
  6
Continuous
 62
     7
370
     9
100
AcDbLine
 10
1573.224004743772
 20
-622.8136403240838
 30
0.0
 11
1757.718732530386
 21
-303.2593980690786
 31
0.0
  0
TEXT
  5
1BB
330
1F
100
AcDbEntity
  8
6-0
  6
Continuous
 62
     2
370
     9
100
AcDbText
 10
1753.623228194065
 20
-123.3822558371744
 30
0.0
 40
30.48
  1
タッピンネジ　φ6×50
 41
1.119047619047619
  7
ＭＳ ゴシック
100
AcDbText
  0
TEXT
  5
1BC
330
1F
100
AcDbEntity
  8
6-0
  6
Continuous
 62
     2
370
     9
100
AcDbText
 10
1828.589048110603
 20
-285.7027317927066
 30
0.0
 40
30.48
  1
ナイロンプラグ　φ８×40
 41
1.119791666666667
  7
ＭＳ ゴシック
100
AcDbText
  0
ARC
  5
1BD
330
1F
100
AcDbEntity
  8
0-0_通り芯
  6
Continuous
 62
     7
370
     9
100
AcDbCircle
 10
885.0311484525982
 20
-442.6650372197707
 30
0.0
 40
25.0
100
AcDbArc
 50
270.0
 51
354.9203921399854
  0
ARC
  5
1BE
330
1F
100
AcDbEntity
  8
0-0_通り芯
  6
Continuous
 62
     7
370
     9
100
AcDbCircle
 10
1470.783846221827
 20
-442.6650372197707
 30
0.0
 40
25.0
100
AcDbArc
 50
185.0796078600145
 51
270.0
  0
ARC
  5
1BF
330
1F
100
AcDbEntity
  8
0-0_通り芯
  6
Continuous
 62
     7
370
     9
100
AcDbCircle
 10
1113.620090621372
 20
-275.1650372197707
 30
0.0
 40
7.5
100
AcDbArc
 50
5.710593137499684
 51
90.00000000000006
  0
ARC
  5
1C0
330
1F
100
AcDbEntity
  8
0-0_通り芯
  6
Continuous
 62
     7
370
     9
100
AcDbCircle
 10
1242.194904053054
 20
-275.1650372197707
 30
0.0
 40
7.5
100
AcDbArc
 50
90.0
 51
174.2894068625003
  0
LINE
  5
1C1
330
1F
100
AcDbEntity
  8
0-0_通り芯
  6
JWW_CENTER1
 62
     7
370
     9
100
AcDbLine
 10
802.9074973372127
 20
-460.3381540810918
 30
0.0
 11
802.9074973372127
 21
-503.6177945282705
 31
0.0
  0
LINE
  5
1C2
330
1F
100
AcDbEntity
  8
0-0_通り芯
  6
Continuous
 62
     7
370
     9
100
AcDbLine
 10
822.9074973372127
 20
-482.6650372197707
 30
0.0
 11
822.9074973372127
 21
-492.6650372197707
 31
0.0
  0
LINE
  5
1C3
330
1F
100
AcDbEntity
  8
0-0_通り芯
  6
Continuous
 62
     7
370
     9
100
AcDbLine
 10
782.9074973372127
 20
-482.6650372197707
 30
0.0
 11
767.9074973372127
 21
-467.6650372197707
 31
0.0
  0
LINE
  5
1C4
330
1F
100
AcDbEntity
  8
0-0_通り芯
  6
Continuous
 62
     7
370
     9
100
AcDbLine
 10
822.9074973372127
 20
-482.6650372197707
 30
0.0
 11
837.9074973372127
 21
-467.6650372197707
 31
0.0
  0
LINE
  5
1C5
330
1F
100
AcDbEntity
  8
0-0_通り芯
  6
JWW_CENTER1
 62
     7
370
     9
100
AcDbLine
 10
1552.907497337213
 20
-460.3381540810918
 30
0.0
 11
1552.907497337213
 21
-503.6177945282705
 31
0.0
  0
LINE
  5
1C6
330
1F
100
AcDbEntity
  8
0-0_通り芯
  6
Continuous
 62
     7
370
     9
100
AcDbLine
 10
1572.907497337213
 20
-482.6650372197707
 30
0.0
 11
1572.907497337213
 21
-492.6650372197707
 31
0.0
  0
LINE
  5
1C7
330
1F
100
AcDbEntity
  8
0-0_通り芯
  6
Continuous
 62
     7
370
     9
100
AcDbLine
 10
1532.907497337213
 20
-482.6650372197707
 30
0.0
 11
1532.907497337213
 21
-492.6650372197707
 31
0.0
  0
LINE
  5
1C8
330
1F
100
AcDbEntity
  8
0-0_通り芯
  6
Continuous
 62
     7
370
     9
100
AcDbLine
 10
1572.907497337213
 20
-482.6650372197707
 30
0.0
 11
1587.907497337213
 21
-467.6650372197707
 31
0.0
  0
LINE
  5
1C9
330
1F
100
AcDbEntity
  8
0-0_通り芯
  6
Continuous
 62
     7
370
     9
100
AcDbLine
 10
1532.907497337213
 20
-482.6650372197707
 30
0.0
 11
1517.907497337213
 21
-467.6650372197707
 31
0.0
  0
LINE
  5
1CA
330
1F
100
AcDbEntity
  8
0-0_通り芯
  6
Continuous
 62
     7
370
     9
100
AcDbLine
 10
923.8565630718074
 20
-288.2380477055809
 30
0.0
 11
909.9329644699153
 21
-444.8785319768655
 31
0.0
  0
ARC
  5
1CB
330
1F
100
AcDbEntity
  8
0-0_通り芯
  6
Continuous
 62
     7
370
     9
100
AcDbCircle
 10
973.6601951064417
 20
-292.6650372197707
 30
0.0
 40
50.0
100
AcDbArc
 50
90.0
 51
174.9203921399854
  0
LINE
  5
1CC
330
1F
100
AcDbEntity
  8
0-0_通り芯
  6
Continuous
 62
     7
370
     9
100
AcDbLine
 10
1431.958431602618
 20
-288.2380477055809
 30
0.0
 11
1445.88203020451
 21
-444.8785319768655
 31
0.0
  0
ARC
  5
1CD
330
1F
100
AcDbEntity
  8
0-0_通り芯
  6
Continuous
 62
     7
370
     9
100
AcDbCircle
 10
1382.154799567984
 20
-292.6650372197707
 30
0.0
 40
50.0
100
AcDbArc
 50
5.079607860014543
 51
89.99999999999994
  0
LINE
  5
1CE
330
1F
100
AcDbEntity
  8
0-0_通り芯
  6
Continuous
 62
     7
370
     9
100
AcDbLine
 10
973.6601951064415
 20
-267.6650372197707
 30
0.0
 11
1113.620090621372
 21
-267.6650372197707
 31
0.0
  0
LINE
  5
1CF
330
1F
100
AcDbEntity
  8
0-0_通り芯
  6
Continuous
 62
     7
370
     9
100
AcDbLine
 10
948.7583790891244
 20
-290.4515424626758
 30
0.0
 11
930.7838462218272
 21
-492.6650372197707
 31
0.0
  0
ARC
  5
1D0
330
1F
100
AcDbEntity
  8
0-0_通り芯
  6
Continuous
 62
     7
370
     9
100
AcDbCircle
 10
973.6601951064415
 20
-292.6650372197707
 30
0.0
 40
25.0
100
AcDbArc
 50
90.0
 51
174.9203921399854
  0
LINE
  5
1D1
330
1F
100
AcDbEntity
  8
0-0_通り芯
  6
Continuous
 62
     7
370
     9
100
AcDbLine
 10
1382.154799567984
 20
-267.6650372197707
 30
0.0
 11
1242.194904053054
 21
-267.6650372197707
 31
0.0
  0
LINE
  5
1D2
330
1F
100
AcDbEntity
  8
0-0_通り芯
  6
Continuous
 62
     7
370
     9
100
AcDbLine
 10
1407.056615585301
 20
-290.4515424626759
 30
0.0
 11
1425.031148452598
 21
-492.6650372197707
 31
0.0
  0
ARC
  5
1D3
330
1F
100
AcDbEntity
  8
0-0_通り芯
  6
Continuous
 62
     7
370
     9
100
AcDbCircle
 10
1382.154799567984
 20
-292.6650372197707
 30
0.0
 40
25.0
100
AcDbArc
 50
5.079607860014543
 51
90.00000000000006
  0
LINE
  5
1D4
330
1F
100
AcDbEntity
  8
0-0_通り芯
  6
Continuous
 62
     7
370
     9
100
AcDbLine
 10
1147.907497337213
 20
-342.6650372197707
 30
0.0
 11
1177.907497337213
 21
-350.7035129927044
 31
0.0
  0
LINE
  5
1D5
330
1F
100
AcDbEntity
  8
0-0_通り芯
  6
Continuous
 62
     7
370
     9
100
AcDbLine
 10
1207.907497337213
 20
-342.6650372197707
 30
0.0
 11
1177.907497337213
 21
-350.7035129927044
 31
0.0
  0
LINE
  5
1D6
330
1F
100
AcDbEntity
  8
0-0_通り芯
  6
Continuous
 62
     7
370
     9
100
AcDbLine
 10
1147.907497337213
 20
-342.6650372197707
 30
0.0
 11
1207.907497337213
 21
-342.6650372197707
 31
0.0
  0
LINE
  5
1D7
330
1F
100
AcDbEntity
  8
0-0_通り芯
  6
Continuous
 62
     7
370
     9
100
AcDbLine
 10
1127.232125126478
 20
-360.9113151124282
 30
0.0
 11
1121.082869547947
 21
-274.4187593271132
 31
0.0
  0
ARC
  5
1D8
330
1F
100
AcDbEntity
  8
0-0_通り芯
  6
Continuous
 62
     7
370
     9
100
AcDbCircle
 10
1134.694904053054
 20
-360.1650372197707
 30
0.0
 40
7.5
100
AcDbArc
 50
185.7105931374997
 51
270.0
  0
LINE
  5
1D9
330
1F
100
AcDbEntity
  8
0-0_通り芯
  6
Continuous
 62
     7
370
     9
100
AcDbLine
 10
1221.120090621372
 20
-367.6650372197707
 30
0.0
 11
1134.694904053054
 21
-367.6650372197707
 31
0.0
  0
ARC
  5
1DA
330
1F
100
AcDbEntity
  8
0-0_通り芯
  6
Continuous
 62
     7
370
     9
100
AcDbCircle
 10
1221.120090621372
 20
-360.1650372197707
 30
0.0
 40
7.5
100
AcDbArc
 50
270.0
 51
354.2894068625004
  0
LINE
  5
1DB
330
1F
100
AcDbEntity
  8
0-0_通り芯
  6
Continuous
 62
     7
370
     9
100
AcDbLine
 10
1234.732125126478
 20
-274.4187593271132
 30
0.0
 11
1228.582869547947
 21
-360.9113151124282
 31
0.0
  0
LINE
  5
1DC
330
1F
100
AcDbEntity
  8
0-0_通り芯
  6
Continuous
 62
     7
370
     9
100
AcDbLine
 10
885.0311484525982
 20
-467.6650372197707
 30
0.0
 11
750.0485134885903
 21
-467.6650372197707
 31
0.0
  0
LINE
  5
1DD
330
1F
100
AcDbEntity
  8
0-0_通り芯
  6
Continuous
 62
     7
370
     9
100
AcDbLine
 10
715.4074973372127
 20
-487.6650372197707
 30
0.0
 11
750.0485134885903
 21
-467.6650372197707
 31
0.0
  0
LINE
  5
1DE
330
1F
100
AcDbEntity
  8
0-0_通り芯
  6
Continuous
 62
     7
370
     9
100
AcDbLine
 10
715.4074973372127
 20
-487.6650372197707
 30
0.0
 11
715.4074973372127
 21
-492.6650372197707
 31
0.0
  0
LINE
  5
1DF
330
1F
100
AcDbEntity
  8
0-0_通り芯
  6
Continuous
 62
     7
370
     9
100
AcDbLine
 10
1640.407497337213
 20
-487.6650372197707
 30
0.0
 11
1605.766481185835
 21
-467.6650372197707
 31
0.0
  0
LINE
  5
1E0
330
1F
100
AcDbEntity
  8
0-0_通り芯
  6
Continuous
 62
     7
370
     9
100
AcDbLine
 10
1640.407497337213
 20
-487.6650372197707
 30
0.0
 11
1640.407497337213
 21
-492.6650372197707
 31
0.0
  0
LINE
  5
1E1
330
1F
100
AcDbEntity
  8
0-0_通り芯
  6
Continuous
 62
     7
370
     9
100
AcDbLine
 10
1470.783846221827
 20
-467.6650372197707
 30
0.0
 11
1605.766481185835
 21
-467.6650372197707
 31
0.0
  0
LINE
  5
1E2
330
1F
100
AcDbEntity
  8
0-0_通り芯
  6
Continuous
 62
     7
370
     9
100
AcDbLine
 10
1605.766481185835
 20
-467.6650372197707
 30
0.0
 11
1610.766481185835
 21
-482.6650372197707
 31
0.0
  0
LINE
  5
1E3
330
1F
100
AcDbEntity
  8
0-0_通り芯
  6
Continuous
 62
     7
370
     9
100
AcDbLine
 10
1610.766481185835
 20
-482.6650372197707
 30
0.0
 11
1640.407497337213
 21
-487.6650372197707
 31
0.0
  0
LINE
  5
1E4
330
1F
100
AcDbEntity
  8
0-0_通り芯
  6
Continuous
 62
     7
370
     9
100
AcDbLine
 10
715.4074973372127
 20
-487.6650372197707
 30
0.0
 11
750.0485134885906
 21
-467.6650372197707
 31
0.0
  0
LINE
  5
1E5
330
1F
100
AcDbEntity
  8
0-0_通り芯
  6
Continuous
 62
     7
370
     9
100
AcDbLine
 10
750.0485134885906
 20
-467.6650372197707
 30
0.0
 11
745.0485134885906
 21
-482.6650372197707
 31
0.0
  0
LINE
  5
1E6
330
1F
100
AcDbEntity
  8
0-0_通り芯
  6
Continuous
 62
     7
370
     9
100
AcDbLine
 10
745.0485134885906
 20
-482.6650372197707
 30
0.0
 11
715.4074973372127
 21
-487.6650372197707
 31
0.0
  0
LINE
  5
1E7
330
1F
100
AcDbEntity
  8
0-0_通り芯
  6
Continuous
 62
     7
370
     9
100
AcDbLine
 10
1440.031148452598
 20
-492.6650372197707
 30
0.0
 11
1445.031148452598
 21
-485.1650372197707
 31
0.0
  0
LINE
  5
1E8
330
1F
100
AcDbEntity
  8
0-0_通り芯
  6
Continuous
 62
     7
370
     9
100
AcDbLine
 10
1450.031148452598
 20
-485.1650372197707
 30
0.0
 11
1455.031148452598
 21
-492.6650372197707
 31
0.0
  0
LINE
  5
1E9
330
1F
100
AcDbEntity
  8
0-0_通り芯
  6
Continuous
 62
     7
370
     9
100
AcDbLine
 10
1445.031148452598
 20
-485.1650372197707
 30
0.0
 11
1450.031148452598
 21
-485.1650372197707
 31
0.0
  0
LINE
  5
1EA
330
1F
100
AcDbEntity
  8
0-0_通り芯
  6
Continuous
 62
     7
370
     9
100
AcDbLine
 10
1470.031148452598
 20
-492.6650372197707
 30
0.0
 11
1475.031148452598
 21
-485.1650372197707
 31
0.0
  0
LINE
  5
1EB
330
1F
100
AcDbEntity
  8
0-0_通り芯
  6
Continuous
 62
     7
370
     9
100
AcDbLine
 10
1480.031148452598
 20
-485.1650372197707
 30
0.0
 11
1485.031148452598
 21
-492.6650372197707
 31
0.0
  0
LINE
  5
1EC
330
1F
100
AcDbEntity
  8
0-0_通り芯
  6
Continuous
 62
     7
370
     9
100
AcDbLine
 10
1475.031148452598
 20
-485.1650372197707
 30
0.0
 11
1480.031148452598
 21
-485.1650372197707
 31
0.0
  0
LINE
  5
1ED
330
1F
100
AcDbEntity
  8
0-0_通り芯
  6
Continuous
 62
     7
370
     9
100
AcDbLine
 10
1500.031148452598
 20
-492.6650372197707
 30
0.0
 11
1505.031148452598
 21
-485.1650372197707
 31
0.0
  0
LINE
  5
1EE
330
1F
100
AcDbEntity
  8
0-0_通り芯
  6
Continuous
 62
     7
370
     9
100
AcDbLine
 10
1510.031148452598
 20
-485.1650372197707
 30
0.0
 11
1515.031148452598
 21
-492.6650372197707
 31
0.0
  0
LINE
  5
1EF
330
1F
100
AcDbEntity
  8
0-0_通り芯
  6
Continuous
 62
     7
370
     9
100
AcDbLine
 10
1505.031148452598
 20
-485.1650372197707
 30
0.0
 11
1510.031148452598
 21
-485.1650372197707
 31
0.0
  0
LINE
  5
1F0
330
1F
100
AcDbEntity
  8
0-0_通り芯
  6
Continuous
 62
     7
370
     9
100
AcDbLine
 10
1590.031148452598
 20
-492.6650372197707
 30
0.0
 11
1595.031148452598
 21
-485.1650372197707
 31
0.0
  0
LINE
  5
1F1
330
1F
100
AcDbEntity
  8
0-0_通り芯
  6
Continuous
 62
     7
370
     9
100
AcDbLine
 10
1600.031148452598
 20
-485.1650372197707
 30
0.0
 11
1605.031148452598
 21
-492.6650372197707
 31
0.0
  0
LINE
  5
1F2
330
1F
100
AcDbEntity
  8
0-0_通り芯
  6
Continuous
 62
     7
370
     9
100
AcDbLine
 10
1595.031148452598
 20
-485.1650372197707
 30
0.0
 11
1600.031148452598
 21
-485.1650372197707
 31
0.0
  0
LINE
  5
1F3
330
1F
100
AcDbEntity
  8
0-0_通り芯
  6
Continuous
 62
     7
370
     9
100
AcDbLine
 10
1177.907497337213
 20
-492.6650372197707
 30
0.0
 11
1440.031148452598
 21
-492.6650372197707
 31
0.0
  0
LINE
  5
1F4
330
1F
100
AcDbEntity
  8
0-0_通り芯
  6
Continuous
 62
     7
370
     9
100
AcDbLine
 10
1455.031148452598
 20
-492.6650372197707
 30
0.0
 11
1470.031148452598
 21
-492.6650372197707
 31
0.0
  0
LINE
  5
1F5
330
1F
100
AcDbEntity
  8
0-0_通り芯
  6
Continuous
 62
     7
370
     9
100
AcDbLine
 10
1485.031148452598
 20
-492.6650372197707
 30
0.0
 11
1500.031148452598
 21
-492.6650372197707
 31
0.0
  0
LINE
  5
1F6
330
1F
100
AcDbEntity
  8
0-0_通り芯
  6
Continuous
 62
     7
370
     9
100
AcDbLine
 10
1605.031148452598
 20
-492.6650372197707
 30
0.0
 11
1640.407497337213
 21
-492.6650372197707
 31
0.0
  0
LINE
  5
1F7
330
1F
100
AcDbEntity
  8
0-0_通り芯
  6
Continuous
 62
     7
370
     9
100
AcDbLine
 10
915.7838462218274
 20
-492.6650372197707
 30
0.0
 11
910.7838462218274
 21
-485.1650372197707
 31
0.0
  0
LINE
  5
1F8
330
1F
100
AcDbEntity
  8
0-0_通り芯
  6
Continuous
 62
     7
370
     9
100
AcDbLine
 10
905.7838462218274
 20
-485.1650372197707
 30
0.0
 11
900.7838462218274
 21
-492.6650372197707
 31
0.0
  0
LINE
  5
1F9
330
1F
100
AcDbEntity
  8
0-0_通り芯
  6
Continuous
 62
     7
370
     9
100
AcDbLine
 10
910.7838462218274
 20
-485.1650372197707
 30
0.0
 11
905.7838462218274
 21
-485.1650372197707
 31
0.0
  0
LINE
  5
1FA
330
1F
100
AcDbEntity
  8
0-0_通り芯
  6
Continuous
 62
     7
370
     9
100
AcDbLine
 10
885.7838462218274
 20
-492.6650372197707
 30
0.0
 11
880.7838462218274
 21
-485.1650372197707
 31
0.0
  0
LINE
  5
1FB
330
1F
100
AcDbEntity
  8
0-0_通り芯
  6
Continuous
 62
     7
370
     9
100
AcDbLine
 10
875.7838462218274
 20
-485.1650372197707
 30
0.0
 11
870.7838462218274
 21
-492.6650372197707
 31
0.0
  0
LINE
  5
1FC
330
1F
100
AcDbEntity
  8
0-0_通り芯
  6
Continuous
 62
     7
370
     9
100
AcDbLine
 10
880.7838462218274
 20
-485.1650372197707
 30
0.0
 11
875.7838462218274
 21
-485.1650372197707
 31
0.0
  0
LINE
  5
1FD
330
1F
100
AcDbEntity
  8
0-0_通り芯
  6
Continuous
 62
     7
370
     9
100
AcDbLine
 10
855.7838462218274
 20
-492.6650372197707
 30
0.0
 11
850.7838462218274
 21
-485.1650372197707
 31
0.0
  0
LINE
  5
1FE
330
1F
100
AcDbEntity
  8
0-0_通り芯
  6
Continuous
 62
     7
370
     9
100
AcDbLine
 10
845.7838462218274
 20
-485.1650372197707
 30
0.0
 11
840.7838462218274
 21
-492.6650372197707
 31
0.0
  0
LINE
  5
1FF
330
1F
100
AcDbEntity
  8
0-0_通り芯
  6
Continuous
 62
     7
370
     9
100
AcDbLine
 10
850.7838462218274
 20
-485.1650372197707
 30
0.0
 11
845.7838462218274
 21
-485.1650372197707
 31
0.0
  0
LINE
  5
200
330
1F
100
AcDbEntity
  8
0-0_通り芯
  6
Continuous
 62
     7
370
     9
100
AcDbLine
 10
765.7838462218274
 20
-492.6650372197707
 30
0.0
 11
760.7838462218274
 21
-485.1650372197707
 31
0.0
  0
LINE
  5
201
330
1F
100
AcDbEntity
  8
0-0_通り芯
  6
Continuous
 62
     7
370
     9
100
AcDbLine
 10
755.7838462218274
 20
-485.1650372197707
 30
0.0
 11
750.7838462218274
 21
-492.6650372197707
 31
0.0
  0
LINE
  5
202
330
1F
100
AcDbEntity
  8
0-0_通り芯
  6
Continuous
 62
     7
370
     9
100
AcDbLine
 10
760.7838462218274
 20
-485.1650372197707
 30
0.0
 11
755.7838462218274
 21
-485.1650372197707
 31
0.0
  0
LINE
  5
203
330
1F
100
AcDbEntity
  8
0-0_通り芯
  6
Continuous
 62
     7
370
     9
100
AcDbLine
 10
715.4074973372127
 20
-492.6650372197707
 30
0.0
 11
750.7838462218274
 21
-492.6650372197707
 31
0.0
  0
LINE
  5
204
330
1F
100
AcDbEntity
  8
0-0_通り芯
  6
Continuous
 62
     7
370
     9
100
AcDbLine
 10
855.7838462218274
 20
-492.6650372197707
 30
0.0
 11
870.7838462218274
 21
-492.6650372197707
 31
0.0
  0
LINE
  5
205
330
1F
100
AcDbEntity
  8
0-0_通り芯
  6
Continuous
 62
     7
370
     9
100
AcDbLine
 10
885.7838462218274
 20
-492.6650372197707
 30
0.0
 11
900.7838462218274
 21
-492.6650372197707
 31
0.0
  0
LINE
  5
206
330
1F
100
AcDbEntity
  8
0-0_通り芯
  6
Continuous
 62
     7
370
     9
100
AcDbLine
 10
915.7838462218274
 20
-492.6650372197707
 30
0.0
 11
1177.907497337213
 21
-492.6650372197707
 31
0.0
  0
LINE
  5
207
330
1F
100
AcDbEntity
  8
0-0_通り芯
  6
Continuous
 62
     7
370
     9
100
AcDbLine
 10
1382.154799567984
 20
-242.6650372197707
 30
0.0
 11
1202.907497337212
 21
-242.6650372197707
 31
0.0
  0
LINE
  5
208
330
1F
100
AcDbEntity
  8
0-0_通り芯
  6
Continuous
 62
     7
370
     9
100
AcDbLine
 10
427.9074973372127
 20
-492.6650372197707
 30
0.0
 11
750.7838462218274
 21
-492.6650372197707
 31
0.0
  0
LINE
  5
209
330
1F
100
AcDbEntity
  8
0-0_通り芯
  6
Continuous
 62
     7
370
     9
100
AcDbLine
 10
765.7838462218274
 20
-492.6650372197707
 30
0.0
 11
782.9074973372124
 21
-492.6650372197707
 31
0.0
  0
LINE
  5
20A
330
1F
100
AcDbEntity
  8
0-0_通り芯
  6
Continuous
 62
     7
370
     9
100
AcDbLine
 10
1572.907497337212
 20
-492.6650372197707
 30
0.0
 11
1590.031148452598
 21
-492.6650372197707
 31
0.0
  0
LINE
  5
20B
330
1F
100
AcDbEntity
  8
0-0_通り芯
  6
Continuous
 62
     7
370
     9
100
AcDbLine
 10
1605.031148452598
 20
-492.6650372197707
 30
0.0
 11
1927.907497337212
 21
-492.6650372197707
 31
0.0
  0
LINE
  5
20C
330
1F
100
AcDbEntity
  8
0-0_通り芯
  6
Continuous
 62
     7
370
     9
100
AcDbLine
 10
1515.031148452598
 20
-492.6650372197707
 30
0.0
 11
1532.907497337213
 21
-492.6650372197707
 31
0.0
  0
LINE
  5
20D
330
1F
100
AcDbEntity
  8
0-0_通り芯
  6
Continuous
 62
     7
370
     9
100
AcDbLine
 10
1572.907497337212
 20
-492.6650372197707
 30
0.0
 11
1590.031148452598
 21
-492.6650372197707
 31
0.0
  0
LINE
  5
20E
330
1F
100
AcDbEntity
  8
0-0_通り芯
  6
Continuous
 62
     7
370
     9
100
AcDbLine
 10
765.7838462218274
 20
-492.6650372197707
 30
0.0
 11
782.9074973372124
 21
-492.6650372197707
 31
0.0
  0
LINE
  5
20F
330
1F
100
AcDbEntity
  8
0-0_通り芯
  6
Continuous
 62
     7
370
     9
100
AcDbLine
 10
822.9074973372127
 20
-492.6650372197707
 30
0.0
 11
840.7838462218274
 21
-492.6650372197707
 31
0.0
  0
ARC
  5
210
330
1F
100
AcDbEntity
  8
3-0
  6
Continuous
 62
     7
370
     9
100
AcDbCircle
 10
750.0485134885901
 20
-467.6650372197707
 30
0.0
 40
10.0
100
AcDbArc
 50
90.0
 51
120.0
  0
LINE
  5
211
330
1F
100
AcDbEntity
  8
3-0
  6
Continuous
 62
     7
370
     9
100
AcDbLine
 10
750.04851348859
 20
-457.6650372197707
 30
0.0
 11
885.031148452598
 21
-457.6650372197707
 31
0.0
  0
ARC
  5
212
330
1F
100
AcDbEntity
  8
3-0
  6
Continuous
 62
     7
370
     9
100
AcDbCircle
 10
750.04851348859
 20
-467.6650372197707
 30
0.0
 40
10.0
100
AcDbArc
 50
90.0
 51
120.0
  0
LINE
  5
213
330
1F
100
AcDbEntity
  8
3-0
  6
Continuous
 62
     7
370
     9
100
AcDbLine
 10
427.9074973372127
 20
-482.6650372197707
 30
0.0
 11
704.0677513750569
 21
-482.6650372197707
 31
0.0
  0
LINE
  5
214
330
1F
100
AcDbEntity
  8
3-0
  6
Continuous
 62
     7
370
     9
100
AcDbLine
 10
745.04851348859
 20
-459.0047831819263
 30
0.0
 11
704.0677513750569
 21
-482.6650372197707
 31
0.0
  0
LINE
  5
215
330
1F
100
AcDbEntity
  8
3-0
  6
Continuous
 62
     7
370
     9
100
AcDbLine
 10
1651.747243299368
 20
-482.6650372197707
 30
0.0
 11
1610.766481185834
 21
-459.0047831819263
 31
0.0
  0
LINE
  5
216
330
1F
100
AcDbEntity
  8
3-0
  6
Continuous
 62
     7
370
     9
100
AcDbLine
 10
1927.907497337212
 20
-482.6650372197707
 30
0.0
 11
1651.747243299368
 21
-482.6650372197707
 31
0.0
  0
LINE
  5
217
330
1F
100
AcDbEntity
  8
3-0
  6
Continuous
 62
     7
370
     9
100
AcDbLine
 10
1605.766481185834
 20
-457.6650372197707
 30
0.0
 11
1470.783846221827
 21
-457.6650372197707
 31
0.0
  0
ARC
  5
218
330
1F
100
AcDbEntity
  8
3-0
  6
Continuous
 62
     7
370
     9
100
AcDbCircle
 10
1605.766481185834
 20
-467.6650372197707
 30
0.0
 40
10.0
100
AcDbArc
 50
60.00000000000014
 51
90.0
  0
LINE
  5
219
330
1F
100
AcDbEntity
  8
6-0
  6
Continuous
 62
     7
370
     9
100
AcDbLine
 10
725.7075901190199
 20
-470.1199631849647
 30
0.0
 11
710.4885543938018
 21
-450.2861296776838
 31
0.0
  0
LINE
  5
21A
330
1F
100
AcDbEntity
  8
6-0
  6
Continuous
 62
     7
370
     9
100
AcDbLine
 10
725.7075901190199
 20
-470.1199631849647
 30
0.0
 11
716.1405043098925
 21
-447.0229748721824
 31
0.0
  0
LINE
  5
21B
330
1F
100
AcDbEntity
  8
6-0
  6
Continuous
 62
     7
370
     9
100
AcDbLine
 10
1567.216312069846
 20
-720.1680173063261
 30
0.0
 11
1582.435347795065
 21
-740.0018508136068
 31
0.0
  0
LINE
  5
21C
330
1F
100
AcDbEntity
  8
6-0
  6
Continuous
 62
     7
370
     9
100
AcDbLine
 10
1567.216312069846
 20
-720.1680173063261
 30
0.0
 11
1576.783397878974
 21
-743.2650056191083
 31
0.0
  0
LINE
  5
21D
330
1F
100
AcDbEntity
  8
6-0
  6
Continuous
 62
     7
370
     9
100
AcDbLine
 10
1567.216312069846
 20
-720.1680173063261
 30
0.0
 11
1696.051938449762
 21
-943.3178680213013
 31
0.0
  0
LINE
  5
21E
330
1F
100
AcDbEntity
  8
5-0
  6
Continuous
 62
     7
370
     9
100
AcDbLine
 10
1147.907497337212
 20
-337.6650372197707
 30
0.0
 11
1207.907497337212
 21
-337.6650372197707
 31
0.0
  0
LINE
  5
21F
330
1F
100
AcDbEntity
  8
5-0
  6
Continuous
 62
     7
370
     9
100
AcDbLine
 10
1147.907497337212
 20
-337.6650372197707
 30
0.0
 11
1152.907497337212
 21
-342.6650372197707
 31
0.0
  0
LINE
  5
220
330
1F
100
AcDbEntity
  8
5-0
  6
Continuous
 62
     7
370
     9
100
AcDbLine
 10
1202.907497337212
 20
-342.6650372197707
 30
0.0
 11
1207.907497337212
 21
-337.6650372197707
 31
0.0
  0
LINE
  5
221
330
1F
100
AcDbEntity
  8
3-0
  6
Continuous
 62
     7
370
     9
100
AcDbLine
 10
1152.907497337212
 20
-342.6650372197707
 30
0.0
 11
1202.907497337212
 21
-342.6650372197707
 31
0.0
  0
LINE
  5
222
330
1F
100
AcDbEntity
  8
5-0
  6
Continuous
 62
     7
370
     9
100
AcDbLine
 10
1152.907497337212
 20
-42.66503721977067
 30
0.0
 11
1202.907497337212
 21
-42.66503721977067
 31
0.0
  0
LINE
  5
223
330
1F
100
AcDbEntity
  8
5-0
  6
Continuous
 62
     7
370
     9
100
AcDbLine
 10
1147.907497337212
 20
-47.66503721977067
 30
0.0
 11
1207.907497337212
 21
-47.66503721977067
 31
0.0
  0
LINE
  5
224
330
1F
100
AcDbEntity
  8
5-0
  6
Continuous
 62
     7
370
     9
100
AcDbLine
 10
1152.907497337212
 20
-42.66503721977067
 30
0.0
 11
1147.907497337212
 21
-47.66503721977067
 31
0.0
  0
LINE
  5
225
330
1F
100
AcDbEntity
  8
5-0
  6
Continuous
 62
     7
370
     9
100
AcDbLine
 10
1202.907497337212
 20
-42.66503721977067
 30
0.0
 11
1207.907497337212
 21
-47.66503721977067
 31
0.0
  0
LINE
  5
226
330
1F
100
AcDbEntity
  8
6-0
  6
Continuous
 62
     7
370
     9
100
AcDbLine
 10
1183.714639808938
 20
-42.81236387393868
 30
0.0
 11
1432.648065729011
 21
413.3529775218109
 31
0.0
  0
LINE
  5
227
330
1F
100
AcDbEntity
  8
6-0
  6
Continuous
 62
     7
370
     9
100
AcDbLine
 10
1183.714639808938
 20
-42.81236387393907
 30
0.0
 11
1193.281725618066
 21
-19.71537556115667
 31
0.0
  0
LINE
  5
228
330
1F
100
AcDbEntity
  8
6-0
  6
Continuous
 62
     7
370
     9
100
AcDbLine
 10
1183.714639808938
 20
-42.81236387393907
 30
0.0
 11
1198.933675534156
 21
-22.97853036665803
 31
0.0
  0
LINE
  5
229
330
1F
100
AcDbEntity
  8
0-0_通り芯
  6
JWW_CENTER1
 62
     7
370
     9
100
AcDbLine
 10
1177.907497337212
 20
-14.9328576313296
 30
0.0
 11
1177.907497337212
 21
-519.2948579617795
 31
0.0
  0
LINE
  5
22A
330
1F
100
AcDbEntity
  8
0-0_通り芯
  6
Continuous
 62
     7
370
     9
100
AcDbLine
 10
1147.907497337212
 20
-47.66503721977067
 30
0.0
 11
1147.907497337212
 21
-342.6650372197707
 31
0.0
  0
LINE
  5
22B
330
1F
100
AcDbEntity
  8
0-0_通り芯
  6
Continuous
 62
     7
370
     9
100
AcDbLine
 10
1152.907497337212
 20
-42.66503721977067
 30
0.0
 11
1152.907497337212
 21
-342.6650372197707
 31
0.0
  0
LINE
  5
22C
330
1F
100
AcDbEntity
  8
0-0_通り芯
  6
Continuous
 62
     7
370
     9
100
AcDbLine
 10
1207.907497337212
 20
-47.66503721977067
 30
0.0
 11
1207.907497337212
 21
-342.6650372197707
 31
0.0
  0
LINE
  5
22D
330
1F
100
AcDbEntity
  8
0-0_通り芯
  6
Continuous
 62
     7
370
     9
100
AcDbLine
 10
1202.907497337212
 20
-42.66503721977067
 30
0.0
 11
1202.907497337212
 21
-342.6650372197707
 31
0.0
  0
TEXT
  5
22E
330
1F
100
AcDbEntity
  8
6-0
  6
Continuous
 62
     2
370
     9
100
AcDbText
 10
1832.127395562263
 20
-351.6761938318117
 30
0.0
 40
30.48
  1
穿孔径８㎜　穿孔深さ50㎜
 41
1.114583333333333
  7
ＭＳ ゴシック
100
AcDbText
  0
LINE
  5
22F
330
1F
100
AcDbEntity
  8
6-0
  6
Continuous
 62
     7
370
     9
100
AcDbLine
 10
1757.718732530386
 20
-303.2593980690786
 30
0.0
 11
2372.333155850122
 21
-303.2593980690786
 31
0.0
  0
LINE
  5
230
330
1F
100
AcDbEntity
  8
6-0
  6
Continuous
 62
     7
370
     9
100
AcDbLine
 10
588.1446384261496
 20
-482.8621788851455
 30
0.0
 11
578.5775526170223
 21
-459.7651905723632
 31
0.0
  0
LINE
  5
231
330
1F
100
AcDbEntity
  8
6-0
  6
Continuous
 62
     7
370
     9
100
AcDbLine
 10
588.1446384261496
 20
-482.8621788851455
 30
0.0
 11
572.9256027009317
 21
-463.0283453778645
 31
0.0
  0
TEXT
  5
232
330
1F
100
AcDbEntity
  8
6-0
  6
Continuous
 62
     2
370
     9
100
AcDbText
 10
129.830517340572
 20
-153.798940655588
 30
0.0
 40
30.48
  1
クロス付ブチルシート
 41
1.1125
  7
ＭＳ ゴシック
100
AcDbText
  0
TEXT
  5
233
330
1F
100
AcDbEntity
  8
6-0
  6
Continuous
 62
     2
370
     9
100
AcDbText
 10
134.2748599212462
 20
-214.908651139859
 30
0.0
 40
30.48
  1
ｔ＝2　□400
 41
1.114583333333333
  7
ＭＳ ゴシック
100
AcDbText
  0
LINE
  5
234
330
1F
100
AcDbEntity
  8
6-0
  6
Continuous
 62
     7
370
     9
100
AcDbLine
 10
725.7075901190199
 20
-470.1199631849647
 30
0.0
 11
552.0107803991448
 21
-169.2682636375172
 31
0.0
  0
LINE
  5
235
330
1F
100
AcDbEntity
  8
6-0
  6
Continuous
 62
     7
370
     9
100
AcDbLine
 10
552.0107803991448
 20
-169.2682636375172
 30
0.0
 11
123.1640034695606
 21
-169.2682636375172
 31
0.0
  0
LINE
  5
236
330
1F
100
AcDbEntity
  8
6-0
  6
Continuous
 62
     7
370
     9
100
AcDbLine
 10
588.1446384261496
 20
-482.8621788851455
 30
0.0
 11
496.1644862835579
 21
-323.5478820862609
 31
0.0
  0
LINE
  5
237
330
1F
100
AcDbEntity
  8
3-0
  6
Continuous
 62
     7
370
     9
100
AcDbLine
 10
900.9791800055888
 20
-432.6650372197707
 30
0.0
 11
911.9980648817614
 21
-421.646152343598
 31
0.0
  0
LINE
  5
238
330
1F
100
AcDbEntity
  8
3-0
  6
Continuous
 62
     7
370
     9
100
AcDbLine
 10
909.4644613798275
 20
-432.6650372197706
 30
0.0
 11
911.1702325525674
 21
-430.9592660470307
 31
0.0
  0
LINE
  5
239
330
1F
100
AcDbEntity
  8
3-0
  6
Continuous
 62
     7
370
     9
100
AcDbLine
 10
907.3431410362675
 20
-432.6650372197707
 30
0.0
 11
911.3771906348659
 21
-428.6309876211724
 31
0.0
  0
LINE
  5
23A
330
1F
100
AcDbEntity
  8
3-0
  6
Continuous
 62
     7
370
     9
100
AcDbLine
 10
905.221820692708
 20
-432.6650372197707
 30
0.0
 11
911.5841487171643
 21
-426.3027091953143
 31
0.0
  0
LINE
  5
23B
330
1F
100
AcDbEntity
  8
3-0
  6
Continuous
 62
     7
370
     9
100
AcDbLine
 10
903.1005003491484
 20
-432.6650372197707
 30
0.0
 11
911.7911067994629
 21
-423.974430769456
 31
0.0
  0
LINE
  5
23C
330
1F
100
AcDbEntity
  8
3-0
  6
Continuous
 62
     7
370
     9
100
AcDbLine
 10
1454.835814668836
 20
-432.6650372197707
 30
0.0
 11
1443.816929792663
 21
-421.646152343598
 31
0.0
  0
LINE
  5
23D
330
1F
100
AcDbEntity
  8
3-0
  6
Continuous
 62
     7
370
     9
100
AcDbLine
 10
1446.350533294597
 20
-432.6650372197706
 30
0.0
 11
1444.644762121857
 21
-430.9592660470307
 31
0.0
  0
LINE
  5
23E
330
1F
100
AcDbEntity
  8
3-0
  6
Continuous
 62
     7
370
     9
100
AcDbLine
 10
1448.471853638157
 20
-432.6650372197707
 30
0.0
 11
1444.437804039559
 21
-428.6309876211724
 31
0.0
  0
LINE
  5
23F
330
1F
100
AcDbEntity
  8
3-0
  6
Continuous
 62
     7
370
     9
100
AcDbLine
 10
1450.593173981717
 20
-432.6650372197707
 30
0.0
 11
1444.23084595726
 21
-426.3027091953143
 31
0.0
  0
LINE
  5
240
330
1F
100
AcDbEntity
  8
3-0
  6
Continuous
 62
     7
370
     9
100
AcDbLine
 10
1452.714494325276
 20
-432.6650372197707
 30
0.0
 11
1444.023887874962
 21
-423.974430769456
 31
0.0
  0
LINE
  5
241
330
1F
100
AcDbEntity
  8
6-0
  6
Continuous
 62
     7
370
     9
100
AcDbLine
 10
906.6801354607986
 20
-426.9960418453303
 30
0.0
 11
694.8688083602312
 21
-60.12806168855649
 31
0.0
  0
LINE
  5
242
330
1F
100
AcDbEntity
  8
6-0
  6
Continuous
 62
     7
370
     9
100
AcDbLine
 10
906.6801354607986
 20
-426.9960418453303
 30
0.0
 11
891.4610997355805
 21
-407.1622083380494
 31
0.0
  0
LINE
  5
243
330
1F
100
AcDbEntity
  8
6-0
  6
Continuous
 62
     7
370
     9
100
AcDbLine
 10
906.6801354607986
 20
-426.9960418453303
 30
0.0
 11
897.1130496516713
 21
-403.899053532548
 31
0.0
  0
LINE
  5
244
330
1F
100
AcDbEntity
  8
3-0
  6
Continuous
 62
     7
370
     9
100
AcDbLine
 10
177.9074973372127
 20
-511.1503185940092
 30
0.0
 11
176.3927787114511
 21
-512.6650372197709
 31
0.0
  0
LINE
  5
245
330
1F
100
AcDbEntity
  8
3-0
  6
Continuous
 62
     7
370
     9
100
AcDbLine
 10
177.9074973372127
 20
-509.0289982504496
 30
0.0
 11
174.2714583678916
 21
-512.6650372197707
 31
0.0
  0
LINE
  5
246
330
1F
100
AcDbEntity
  8
3-0
  6
Continuous
 62
     7
370
     9
100
AcDbLine
 10
177.9074973372127
 20
-506.9076779068899
 30
0.0
 11
172.1501380243319
 21
-512.6650372197707
 31
0.0
  0
LINE
  5
247
330
1F
100
AcDbEntity
  8
3-0
  6
Continuous
 62
     7
370
     9
100
AcDbLine
 10
177.9074973372127
 20
-504.7863575633303
 30
0.0
 11
170.0288176807722
 21
-512.6650372197707
 31
0.0
  0
LINE
  5
248
330
1F
100
AcDbEntity
  8
3-0
  6
Continuous
 62
     7
370
     9
100
AcDbLine
 10
177.9074973372127
 20
-502.6650372197707
 30
0.0
 11
167.9074973372126
 21
-512.6650372197707
 31
0.0
  0
LINE
  5
249
330
1F
100
AcDbEntity
  8
6-0
  6
Continuous
 62
     7
370
     9
100
AcDbLine
 10
173.5657598251497
 20
-507.0067747318337
 30
0.0
 11
120.278883348973
 21
-414.7111972984487
 31
0.0
  0
LINE
  5
24A
330
1F
100
AcDbEntity
  8
6-0
  6
Continuous
 62
     7
370
     9
100
AcDbLine
 10
173.5657598251497
 20
-507.0067747318337
 30
0.0
 11
158.3467240999316
 21
-487.1729412245528
 31
0.0
  0
LINE
  5
24B
330
1F
100
AcDbEntity
  8
6-0
  6
Continuous
 62
     7
370
     9
100
AcDbLine
 10
173.5657598251497
 20
-507.0067747318337
 30
0.0
 11
163.9986740160224
 21
-483.9097864190514
 31
0.0
  0
LINE
  5
24C
330
1F
100
AcDbEntity
  8
3-0
  6
Continuous
 62
     7
370
     9
100
AcDbLine
 10
2177.907497337212
 20
-511.1503185940092
 30
0.0
 11
2179.422215962973
 21
-512.6650372197709
 31
0.0
  0
LINE
  5
24D
330
1F
100
AcDbEntity
  8
3-0
  6
Continuous
 62
     7
370
     9
100
AcDbLine
 10
2177.907497337212
 20
-509.0289982504496
 30
0.0
 11
2181.543536306533
 21
-512.6650372197707
 31
0.0
  0
LINE
  5
24E
330
1F
100
AcDbEntity
  8
3-0
  6
Continuous
 62
     7
370
     9
100
AcDbLine
 10
2177.907497337212
 20
-506.9076779068899
 30
0.0
 11
2183.664856650093
 21
-512.6650372197707
 31
0.0
  0
LINE
  5
24F
330
1F
100
AcDbEntity
  8
3-0
  6
Continuous
 62
     7
370
     9
100
AcDbLine
 10
2177.907497337212
 20
-504.7863575633303
 30
0.0
 11
2185.786176993652
 21
-512.6650372197707
 31
0.0
  0
LINE
  5
250
330
1F
100
AcDbEntity
  8
3-0
  6
Continuous
 62
     7
370
     9
100
AcDbLine
 10
2177.907497337212
 20
-502.6650372197707
 30
0.0
 11
2187.907497337212
 21
-512.6650372197707
 31
0.0
  0
LINE
  5
251
330
1F
100
AcDbEntity
  8
3-0
  6
Continuous
 62
     7
370
     9
100
AcDbLine
 10
1776.353768399069
 20
-527.6650372197707
 30
0.0
 11
1574.438565019477
 21
-729.5802405993627
 31
0.0
  0
LINE
  5
252
330
1F
100
AcDbEntity
  8
5-0
  6
Continuous
 62
     7
370
     9
100
AcDbLine
 10
1064.407497337213
 20
218.6573795541481
 30
0.0
 11
1064.407497337213
 21
-231.1650372197707
 31
0.0
  0
LINE
  5
253
330
1F
100
AcDbEntity
  8
5-0
  6
Continuous
 62
     7
370
     9
100
AcDbLine
 10
1152.907497337213
 20
-231.1650372197707
 30
0.0
 11
1064.407497337213
 21
-231.1650372197707
 31
0.0
  0
LINE
  5
254
330
1F
100
AcDbEntity
  8
5-0
  6
Continuous
 62
     7
370
     9
100
AcDbLine
 10
1302.907497337212
 20
-231.1650372197707
 30
0.0
 11
1202.907497337212
 21
-231.1650372197707
 31
0.0
  0
LINE
  5
255
330
1F
100
AcDbEntity
  8
5-0
  6
Continuous
 62
     7
370
     9
100
AcDbLine
 10
1302.907497337212
 20
-231.1650372197707
 30
0.0
 11
1302.907497337212
 21
-242.6650372197707
 31
0.0
  0
LINE
  5
256
330
1F
100
AcDbEntity
  8
5-0
  6
Continuous
 62
     7
370
     9
100
AcDbLine
 10
1052.907497337212
 20
-231.1650372197707
 30
0.0
 11
1052.907497337212
 21
218.6573795541481
 31
0.0
  0
ARC
  5
257
330
1F
100
AcDbEntity
  8
5-0
  6
Continuous
 62
     7
370
     9
100
AcDbCircle
 10
1064.407497337213
 20
-231.1650372197707
 30
0.0
 40
11.5
100
AcDbArc
 50
180.0
 51
270.0
  0
LINE
  5
258
330
1F
100
AcDbEntity
  8
0-0_通り芯
  6
Continuous
 62
     7
370
     9
100
AcDbLine
 10
973.6601951064417
 20
-242.6650372197707
 30
0.0
 11
1152.907497337213
 21
-242.6650372197707
 31
0.0
  0
LINE
  5
259
330
1F
100
AcDbEntity
  8
5-0
  6
Continuous
 62
     7
370
     9
100
AcDbLine
 10
1240.407497337212
 20
-221.1650372197707
 30
0.0
 11
1207.907497337212
 21
-221.1650372197707
 31
0.0
  0
LINE
  5
25A
330
1F
100
AcDbEntity
  8
5-0
  6
Continuous
 62
     7
370
     9
100
AcDbLine
 10
1147.907497337212
 20
-221.1650372197707
 30
0.0
 11
1115.407497337212
 21
-221.1650372197707
 31
0.0
  0
LINE
  5
25B
330
1F
100
AcDbEntity
  8
5-0
  6
Continuous
 62
     7
370
     9
100
AcDbLine
 10
1122.907497337212
 20
-206.1650372197707
 30
0.0
 11
1122.907497337212
 21
-221.1650372197707
 31
0.0
  0
LINE
  5
25C
330
1F
100
AcDbEntity
  8
5-0
  6
Continuous
 62
     7
370
     9
100
AcDbLine
 10
1232.907497337212
 20
-206.1650372197707
 30
0.0
 11
1232.907497337212
 21
-221.1650372197707
 31
0.0
  0
LINE
  5
25D
330
1F
100
AcDbEntity
  8
5-0
  6
Continuous
 62
     7
370
     9
100
AcDbLine
 10
1152.907497337212
 20
-206.1650372197707
 30
0.0
 11
1122.907497337212
 21
-206.1650372197707
 31
0.0
  0
LINE
  5
25E
330
1F
100
AcDbEntity
  8
5-0
  6
Continuous
 62
     7
370
     9
100
AcDbLine
 10
1232.907497337212
 20
-206.1650372197707
 30
0.0
 11
1202.907497337212
 21
-206.1650372197707
 31
0.0
  0
LINE
  5
25F
330
1F
100
AcDbEntity
  8
5-0
  6
Continuous
 62
     7
370
     9
100
AcDbLine
 10
1232.907497337212
 20
-161.9385399116669
 30
0.0
 11
1232.907497337212
 21
-206.1650372197707
 31
0.0
  0
LINE
  5
260
330
1F
100
AcDbEntity
  8
5-0
  6
Continuous
 62
     7
370
     9
100
AcDbLine
 10
1222.907497337212
 20
-156.1650372197707
 30
0.0
 11
1232.907497337212
 21
-161.9385399116669
 31
0.0
  0
LINE
  5
261
330
1F
100
AcDbEntity
  8
5-0
  6
Continuous
 62
     7
370
     9
100
AcDbLine
 10
1222.907497337212
 20
-156.1650372197707
 30
0.0
 11
1202.907497337212
 21
-156.1650372197707
 31
0.0
  0
LINE
  5
262
330
1F
100
AcDbEntity
  8
5-0
  6
Continuous
 62
     7
370
     9
100
AcDbLine
 10
1152.907497337212
 20
-156.1650372197707
 30
0.0
 11
1132.907497337212
 21
-156.1650372197707
 31
0.0
  0
LINE
  5
263
330
1F
100
AcDbEntity
  8
5-0
  6
Continuous
 62
     7
370
     9
100
AcDbLine
 10
1132.907497337212
 20
-156.1650372197707
 30
0.0
 11
1122.907497337212
 21
-161.9385399116669
 31
0.0
  0
LINE
  5
264
330
1F
100
AcDbEntity
  8
5-0
  6
Continuous
 62
     7
370
     9
100
AcDbLine
 10
1122.907497337212
 20
-161.9385399116669
 30
0.0
 11
1122.907497337212
 21
-206.1650372197707
 31
0.0
  0
LINE
  5
265
330
1F
100
AcDbEntity
  8
5-0
  6
Continuous
 62
     7
370
     9
100
AcDbLine
 10
1152.907497337212
 20
-156.1650372197707
 30
0.0
 11
1122.907497337212
 21
-156.1650372197707
 31
0.0
  0
LINE
  5
266
330
1F
100
AcDbEntity
  8
5-0
  6
Continuous
 62
     7
370
     9
100
AcDbLine
 10
1232.907497337212
 20
-156.1650372197707
 30
0.0
 11
1202.907497337212
 21
-156.1650372197707
 31
0.0
  0
LINE
  5
267
330
1F
100
AcDbEntity
  8
5-0
  6
Continuous
 62
     7
370
     9
100
AcDbLine
 10
1232.907497337212
 20
-111.9385399116669
 30
0.0
 11
1232.907497337212
 21
-156.1650372197707
 31
0.0
  0
LINE
  5
268
330
1F
100
AcDbEntity
  8
5-0
  6
Continuous
 62
     7
370
     9
100
AcDbLine
 10
1222.907497337212
 20
-106.1650372197707
 30
0.0
 11
1232.907497337212
 21
-111.9385399116669
 31
0.0
  0
LINE
  5
269
330
1F
100
AcDbEntity
  8
5-0
  6
Continuous
 62
     7
370
     9
100
AcDbLine
 10
1222.907497337212
 20
-106.1650372197707
 30
0.0
 11
1202.907497337212
 21
-106.1650372197707
 31
0.0
  0
LINE
  5
26A
330
1F
100
AcDbEntity
  8
5-0
  6
Continuous
 62
     7
370
     9
100
AcDbLine
 10
1152.907497337212
 20
-106.1650372197707
 30
0.0
 11
1132.907497337212
 21
-106.1650372197707
 31
0.0
  0
LINE
  5
26B
330
1F
100
AcDbEntity
  8
5-0
  6
Continuous
 62
     7
370
     9
100
AcDbLine
 10
1132.907497337212
 20
-106.1650372197707
 30
0.0
 11
1122.907497337212
 21
-111.9385399116669
 31
0.0
  0
LINE
  5
26C
330
1F
100
AcDbEntity
  8
5-0
  6
Continuous
 62
     7
370
     9
100
AcDbLine
 10
1122.907497337212
 20
-111.9385399116669
 30
0.0
 11
1122.907497337212
 21
-156.1650372197707
 31
0.0
  0
LINE
  5
26D
330
1F
100
AcDbEntity
  8
6-0
  6
Continuous
 62
     7
370
     9
100
AcDbLine
 10
1232.59021193944
 20
-215.3122897454826
 30
0.0
 11
1247.809247664658
 21
-195.4784562382016
 31
0.0
  0
LINE
  5
26E
330
1F
100
AcDbEntity
  8
6-0
  6
Continuous
 62
     7
370
     9
100
AcDbLine
 10
1232.59021193944
 20
-215.3122897454826
 30
0.0
 11
1242.157297748567
 21
-192.2153014327004
 31
0.0
  0
LINE
  5
26F
330
1F
100
AcDbEntity
  8
6-0
  6
Continuous
 62
     7
370
     9
100
AcDbLine
 10
1232.907497337212
 20
-187.2750986064768
 30
0.0
 11
1248.12653306243
 21
-167.4412650991957
 31
0.0
  0
LINE
  5
270
330
1F
100
AcDbEntity
  8
6-0
  6
Continuous
 62
     7
370
     9
100
AcDbLine
 10
1232.907497337212
 20
-187.2750986064768
 30
0.0
 11
1242.47458314634
 21
-164.1781102936944
 31
0.0
  0
LINE
  5
271
330
1F
100
AcDbEntity
  8
6-0
  6
Continuous
 62
     7
370
     9
100
AcDbLine
 10
1232.21417905769
 20
-135.4366613960644
 30
0.0
 11
1247.433214782908
 21
-115.6028278887834
 31
0.0
  0
LINE
  5
272
330
1F
100
AcDbEntity
  8
6-0
  6
Continuous
 62
     7
370
     9
100
AcDbLine
 10
1232.21417905769
 20
-135.4366613960644
 30
0.0
 11
1241.781264866817
 21
-112.339673083282
 31
0.0
  0
LINE
  5
273
330
1F
100
AcDbEntity
  8
5-0
  6
Continuous
 62
     7
370
     9
100
AcDbLine
 10
1147.907497337212
 20
-231.1650372197707
 30
0.0
 11
1115.407497337212
 21
-231.1650372197707
 31
0.0
  0
LINE
  5
274
330
1F
100
AcDbEntity
  8
5-0
  6
Continuous
 62
     7
370
     9
100
AcDbLine
 10
1240.407497337212
 20
-231.1650372197707
 30
0.0
 11
1207.907497337212
 21
-231.1650372197707
 31
0.0
  0
LINE
  5
275
330
1F
100
AcDbEntity
  8
5-0
  6
Continuous
 62
     7
370
     9
100
AcDbLine
 10
1115.407497337212
 20
-221.1650372197707
 30
0.0
 11
1115.407497337212
 21
-231.1650372197707
 31
0.0
  0
LINE
  5
276
330
1F
100
AcDbEntity
  8
6-0
  6
Continuous
 62
     7
370
     9
100
AcDbLine
 10
1232.59021193944
 20
-215.3122897454826
 30
0.0
 11
1412.169799550815
 21
95.72867999968558
 31
0.0
  0
LINE
  5
277
330
1F
100
AcDbEntity
  8
6-0
  6
Continuous
 62
     7
370
     9
100
AcDbLine
 10
1232.907497337212
 20
-187.2750986064764
 30
0.0
 11
1454.034832016124
 21
195.7286799996856
 31
0.0
  0
LINE
  5
278
330
1F
100
AcDbEntity
  8
6-0
  6
Continuous
 62
     7
370
     9
100
AcDbLine
 10
1232.21417905769
 20
-135.436661396064
 30
0.0
 11
1481.147604977763
 21
295.7286799996856
 31
0.0
  0
TEXT
  5
279
330
1F
100
AcDbEntity
  8
6-0
  6
Continuous
 62
     2
370
     9
100
AcDbText
 10
1463.255661717405
 20
114.5985913667152
 30
0.0
 40
30.48
  1
ばね座金　呼び12（SUS）
 41
1.114130434782609
  7
ＭＳ ゴシック
100
AcDbText
  0
LINE
  5
27A
330
1F
100
AcDbEntity
  8
6-0
  6
Continuous
 62
     7
370
     9
100
AcDbLine
 10
1412.169799550815
 20
95.72867999968558
 30
0.0
 11
1949.169203197767
 21
95.72867999968558
 31
0.0
  0
TEXT
  5
27B
330
1F
100
AcDbEntity
  8
6-0
  6
Continuous
 62
     2
370
     9
100
AcDbText
 10
1469.295414875387
 20
215.2611439997386
 30
0.0
 40
30.48
  1
六角ナット　M12（SUS）
 41
1.113636363636364
  7
ＭＳ ゴシック
100
AcDbText
  0
TEXT
  5
27C
330
1F
100
AcDbEntity
  8
6-0
  6
Continuous
 62
     2
370
     9
100
AcDbText
 10
1477.348419086028
 20
313.9104455801015
 30
0.0
 40
30.48
  1
六角ナット　M12（SUS）
 41
1.113636363636364
  7
ＭＳ ゴシック
100
AcDbText
  0
LINE
  5
27D
330
1F
100
AcDbEntity
  8
5-0
  6
Continuous
 62
     7
370
     9
100
AcDbLine
 10
1142.907497337212
 20
-206.1650372197707
 30
0.0
 11
1142.907497337212
 21
-242.6650372197707
 31
0.0
  0
LINE
  5
27E
330
1F
100
AcDbEntity
  8
5-0
  6
Continuous
 62
     7
370
     9
100
AcDbLine
 10
1212.907497337212
 20
-206.1650372197707
 30
0.0
 11
1212.907497337212
 21
-242.6650372197707
 31
0.0
  0
LINE
  5
27F
330
1F
100
AcDbEntity
  8
6-0
  6
Continuous
 62
     7
370
     9
100
AcDbLine
 10
1240.407497337212
 20
-226.8887665942739
 30
0.0
 11
1368.935740054542
 21
-4.271320000314418
 31
0.0
  0
LINE
  5
280
330
1F
100
AcDbEntity
  8
6-0
  6
Continuous
 62
     7
370
     9
100
AcDbLine
 10
1240.407497337212
 20
-226.8887665942739
 30
0.0
 11
1255.626533062431
 21
-207.0549330869928
 31
0.0
  0
LINE
  5
281
330
1F
100
AcDbEntity
  8
6-0
  6
Continuous
 62
     7
370
     9
100
AcDbLine
 10
1240.407497337212
 20
-226.8887665942739
 30
0.0
 11
1249.97458314634
 21
-203.7917782814918
 31
0.0
  0
LINE
  5
282
330
1F
100
AcDbEntity
  8
6-0
  6
Continuous
 62
     7
370
     9
100
AcDbLine
 10
1050.039610648885
 20
57.71855250942123
 30
0.0
 11
1034.820574923667
 21
77.55238601670213
 31
0.0
  0
LINE
  5
283
330
1F
100
AcDbEntity
  8
6-0
  6
Continuous
 62
     7
370
     9
100
AcDbLine
 10
1050.039610648885
 20
57.71855250942123
 30
0.0
 11
1040.472524839758
 21
80.81554082220349
 31
0.0
  0
LINE
  5
284
330
1F
100
AcDbEntity
  8
6-0
  6
Continuous
 62
     7
370
     9
100
AcDbLine
 10
1050.039610648885
 20
57.71855250942119
 30
0.0
 11
975.3410267541175
 21
187.100295068605
 31
0.0
  0
LINE
  5
285
330
1F
100
AcDbEntity
  8
0-0_通り芯
  6
Continuous
 62
     7
370
     9
100
AcDbLine
 10
782.9074973372127
 20
-482.6650372197707
 30
0.0
 11
782.9074973372127
 21
-492.6650372197707
 31
0.0
  0
LINE
  5
286
330
1F
100
AcDbEntity
  8
0-0_通り芯
  6
Continuous
 62
     7
370
     9
100
AcDbLine
 10
825.4074973372124
 20
-482.6650372197707
 30
0.0
 11
780.4074973372124
 21
-482.6650372197707
 31
0.0
  0
LINE
  5
287
330
1F
100
AcDbEntity
  8
5-0
  6
Continuous
 62
     7
370
     9
100
AcDbLine
 10
780.4074973372124
 20
-692.6650372197707
 30
0.0
 11
780.4074973372124
 21
-482.6650372197707
 31
0.0
  0
LINE
  5
288
330
1F
100
AcDbEntity
  8
3-0
  6
Continuous
 62
     7
370
     9
100
AcDbLine
 10
780.4074973372124
 20
-692.6650372197707
 30
0.0
 11
790.849783677812
 21
-692.6650372197707
 31
0.0
  0
LINE
  5
289
330
1F
100
AcDbEntity
  8
3-0
  6
Continuous
 62
     7
370
     9
100
AcDbLine
 10
814.965210996613
 20
-692.6650372197707
 30
0.0
 11
825.4074973372124
 21
-692.6650372197707
 31
0.0
  0
LINE
  5
28A
330
1F
100
AcDbEntity
  8
5-0
  6
Continuous
 62
     7
370
     9
100
AcDbLine
 10
825.4074973372124
 20
-482.6650372197707
 30
0.0
 11
825.4074973372124
 21
-692.6650372197707
 31
0.0
  0
LINE
  5
28B
330
1F
100
AcDbEntity
  8
5-0
  6
Continuous
 62
     7
370
     9
100
AcDbLine
 10
785.4074973372124
 20
-692.6650372197707
 30
0.0
 11
785.4074973372124
 21
-482.6650372197707
 31
0.0
  0
LINE
  5
28C
330
1F
100
AcDbEntity
  8
5-0
  6
Continuous
 62
     7
370
     9
100
AcDbLine
 10
820.4074973372124
 20
-482.6650372197707
 30
0.0
 11
820.4074973372124
 21
-692.6650372197707
 31
0.0
  0
LINE
  5
28D
330
1F
100
AcDbEntity
  8
3-0
  6
Continuous
 62
     7
370
     9
100
AcDbLine
 10
1530.407497337212
 20
-692.665037219771
 30
0.0
 11
1540.849783677812
 21
-692.665037219771
 31
0.0
  0
LINE
  5
28E
330
1F
100
AcDbEntity
  8
3-0
  6
Continuous
 62
     7
370
     9
100
AcDbLine
 10
1564.965210996613
 20
-692.665037219771
 30
0.0
 11
1575.407497337212
 21
-692.665037219771
 31
0.0
  0
LINE
  5
28F
330
1F
100
AcDbEntity
  8
5-0
  6
Continuous
 62
     7
370
     9
100
AcDbLine
 10
1575.407497337212
 20
-482.6650372197707
 30
0.0
 11
1575.407497337212
 21
-692.665037219771
 31
0.0
  0
LINE
  5
290
330
1F
100
AcDbEntity
  8
0-0_通り芯
  6
Continuous
 62
     7
370
     9
100
AcDbLine
 10
1530.407497337212
 20
-482.6650372197707
 30
0.0
 11
1575.407497337212
 21
-482.6650372197707
 31
0.0
  0
LINE
  5
291
330
1F
100
AcDbEntity
  8
5-0
  6
Continuous
 62
     7
370
     9
100
AcDbLine
 10
1530.407497337212
 20
-692.665037219771
 30
0.0
 11
1530.407497337212
 21
-482.6650372197707
 31
0.0
  0
LINE
  5
292
330
1F
100
AcDbEntity
  8
5-0
  6
Continuous
 62
     7
370
     9
100
AcDbLine
 10
1535.407497337212
 20
-692.665037219771
 30
0.0
 11
1535.407497337212
 21
-482.665037219771
 31
0.0
  0
LINE
  5
293
330
1F
100
AcDbEntity
  8
5-0
  6
Continuous
 62
     7
370
     9
100
AcDbLine
 10
1570.407497337212
 20
-482.665037219771
 30
0.0
 11
1570.407497337212
 21
-692.665037219771
 31
0.0
  0
TEXT
  5
294
330
1F
100
AcDbEntity
  8
6-0
  6
Continuous
 62
     2
370
     9
100
AcDbText
 10
702.6728384898875
 20
206.1199837894657
 30
0.0
 40
30.48
  1
架台　
 41
1.083333333333333
  7
ＭＳ ゴシック
100
AcDbText
  0
LINE
  5
295
330
1F
100
AcDbEntity
  8
6-0
  6
Continuous
 62
     7
370
     9
100
AcDbLine
 10
975.3410267541175
 20
187.100295068605
 30
0.0
 11
681.9140461746939
 21
187.100295068605
 31
0.0
  0
TEXT
  5
296
330
1F
100
AcDbEntity
  8
6-0
  6
Continuous
 62
     2
370
     9
100
AcDbText
 10
1479.413523764897
 20
13.16270108028014
 30
0.0
 40
30.48
  1
平座金　呼び12（SUS）
 41
1.113095238095238
  7
ＭＳ ゴシック
100
AcDbText
  0
LINE
  5
297
330
1F
100
AcDbEntity
  8
6-0
  6
Continuous
 62
     7
370
     9
100
AcDbLine
 10
1368.935740054542
 20
-4.271320000314418
 30
0.0
 11
1949.169203197767
 21
-4.271320000314418
 31
0.0
  0
LINE
  5
298
330
1F
100
AcDbEntity
  8
6-0
  6
Continuous
 62
     7
370
     9
100
AcDbLine
 10
1454.034832016124
 20
195.7286799996856
 30
0.0
 11
1949.169203197767
 21
195.7286799996856
 31
0.0
  0
LINE
  5
299
330
1F
100
AcDbEntity
  8
6-0
  6
Continuous
 62
     7
370
     9
100
AcDbLine
 10
1481.147604977763
 20
295.7286799996856
 30
0.0
 11
1949.169203197767
 21
295.7286799996856
 31
0.0
  0
LINE
  5
29A
330
1F
100
AcDbEntity
  8
6-0
  6
Continuous
 62
     7
370
     9
100
AcDbLine
 10
1432.648065729011
 20
413.3529775218109
 30
0.0
 11
1949.169203197767
 21
413.3529775218109
 31
0.0
  0
TEXT
  5
29B
330
1F
100
AcDbEntity
  8
6-0
  6
Continuous
 62
     2
370
     9
100
AcDbText
 10
1463.875584149137
 20
433.3807834247287
 30
0.0
 40
30.48
  1
ボルト　M12×60（SUS）
 41
1.113636363636364
  7
ＭＳ ゴシック
100
AcDbText
  0
LINE
  5
29C
330
1F
100
AcDbEntity
  8
3-0
  6
Continuous
 62
     7
370
     9
100
AcDbLine
 10
822.9074973372124
 20
-482.6650372197707
 30
0.0
 11
822.9074973372124
 21
-777.6650372197707
 31
0.0
  0
LINE
  5
29D
330
1F
100
AcDbEntity
  8
5-0
  6
Continuous
 62
     7
370
     9
100
AcDbLine
 10
782.9074973372124
 20
-777.6650372197707
 30
0.0
 11
822.9074973372124
 21
-777.6650372197707
 31
0.0
  0
LINE
  5
29E
330
1F
100
AcDbEntity
  8
3-0
  6
Continuous
 62
     7
370
     9
100
AcDbLine
 10
782.9074973372124
 20
-777.6650372197707
 30
0.0
 11
782.9074973372124
 21
-482.6650372197707
 31
0.0
  0
LINE
  5
29F
330
1F
100
AcDbEntity
  8
0-0_通り芯
  6
JWW_CENTER1
 62
     7
370
     9
100
AcDbLine
 10
802.9074973372124
 20
-460.3381540810918
 30
0.0
 11
802.9074973372124
 21
-791.6004245997356
 31
0.0
  0
LINE
  5
2A0
330
1F
100
AcDbEntity
  8
3-0
  6
Continuous
 62
     7
370
     9
100
AcDbLine
 10
1532.907497337212
 20
-777.6650372197707
 30
0.0
 11
1532.907497337212
 21
-482.665037219771
 31
0.0
  0
LINE
  5
2A1
330
1F
100
AcDbEntity
  8
5-0
  6
Continuous
 62
     7
370
     9
100
AcDbLine
 10
1532.907497337212
 20
-777.6650372197707
 30
0.0
 11
1572.907497337212
 21
-777.6650372197707
 31
0.0
  0
LINE
  5
2A2
330
1F
100
AcDbEntity
  8
3-0
  6
Continuous
 62
     7
370
     9
100
AcDbLine
 10
1572.907497337212
 20
-482.665037219771
 30
0.0
 11
1572.907497337212
 21
-777.6650372197707
 31
0.0
  0
LINE
  5
2A3
330
1F
100
AcDbEntity
  8
0-0_通り芯
  6
JWW_CENTER1
 62
     7
370
     9
100
AcDbLine
 10
1552.907497337212
 20
-460.3381540810918
 30
0.0
 11
1552.907497337212
 21
-793.1193541929279
 31
0.0
  0
LINE
  5
2A4
330
1F
100
AcDbEntity
  8
3-0
  6
Continuous
 62
     7
370
     9
100
AcDbLine
 10
1811.709107458397
 20
-527.6650372197706
 30
0.0
 11
1572.907497337212
 21
-766.4666473409554
 31
0.0
  0
LINE
  5
2A5
330
1F
100
AcDbEntity
  8
3-0
  6
Continuous
 62
     7
370
     9
100
AcDbLine
 10
1561.709107458397
 20
-777.6650372197707
 30
0.0
 11
1061.709107458397
 21
-1277.665037219771
 31
0.0
  0
TEXT
  5
2A6
330
1F
100
AcDbEntity
  8
6-0
  6
Continuous
 62
     2
370
     9
100
AcDbText
 10
2217.621093080623
 20
-125.5364893417765
 30
0.0
 40
30.48
  1
（SUS)
 41
1.104166666666667
  7
ＭＳ ゴシック
100
AcDbText
  0
LINE
  5
2A7
330
1F
100
AcDbEntity
  8
6-0
  6
Continuous
 62
     7
370
     9
100
AcDbLine
 10
1741.818731070761
 20
-140.4611822727452
 30
0.0
 11
2353.590041963393
 21
-140.4611822727452
 31
0.0
  0
TEXT
  5
2A8
330
1F
100
AcDbEntity
  8
6-0
  6
Continuous
 62
     2
370
     9
100
AcDbText
 10
1706.993992042883
 20
-924.8815331400922
 30
0.0
 40
30.48
  1
非硬化型注入止水材（別途）
 41
1.115384615384615
  7
ＭＳ ゴシック
100
AcDbText
  0
TEXT
  5
2A9
330
1F
100
AcDbEntity
  8
6-0
  6
Continuous
 62
     2
370
     9
100
AcDbText
 10
-482.5744671262021
 20
-533.3881581773015
 30
0.0
 40
30.48
  1
既存防水層
 41
1.1
  7
ＭＳ ゴシック
100
AcDbText
  0
TEXT
  5
2AA
330
1F
100
AcDbEntity
  8
6-0
  6
Continuous
 62
     2
370
     9
100
AcDbText
 10
-375.4989295791191
 20
-397.7990787772959
 30
0.0
 40
30.48
  1
ブチルシール材（別途）
 41
1.113636363636364
  7
ＭＳ ゴシック
100
AcDbText
  0
TEXT
  5
2AB
330
1F
100
AcDbEntity
  8
6-0
  6
Continuous
 62
     2
370
     9
100
AcDbText
 10
-45.09343308539055
 20
-304.5598424877597
 30
0.0
 40
30.48
  1
トップコート塗付（別途）
 41
1.114583333333333
  7
ＭＳ ゴシック
100
AcDbText
  0
TEXT
  5
2AC
330
1F
100
AcDbEntity
  8
6-0
  6
Continuous
 62
     2
370
     9
100
AcDbText
 10
195.967357356748
 20
-41.88586498390499
 30
0.0
 40
30.48
  1
ブチルシール材（別途）
 41
1.113636363636363
  7
ＭＳ ゴシック
100
AcDbText
  0
LINE
  5
2AD
330
1F
100
AcDbEntity
  8
6-0
  6
Continuous
 62
     7
370
     9
100
AcDbLine
 10
694.8688083602312
 20
-60.12806168855649
 30
0.0
 11
181.3010971525558
 21
-60.12806168855649
 31
0.0
  0
LINE
  5
2AE
330
1F
100
AcDbEntity
  8
6-0
  6
Continuous
 62
     7
370
     9
100
AcDbLine
 10
496.1644862835579
 20
-323.5478820862609
 30
0.0
 11
-36.25712085636202
 21
-323.5478820862609
 31
0.0
  0
LINE
  5
2AF
330
1F
100
AcDbEntity
  8
6-0
  6
Continuous
 62
     7
370
     9
100
AcDbLine
 10
120.278883348973
 20
-414.7111972984487
 30
0.0
 11
-388.1600449168697
 21
-414.7111972984487
 31
0.0
  0
LINE
  5
2B0
330
1F
100
AcDbEntity
  8
6-0
  6
Continuous
 62
     7
370
     9
100
AcDbLine
 10
2280.931231387121
 20
-943.3178680213013
 30
0.0
 11
1696.051938449762
 21
-943.3178680213013
 31
0.0
  0
TEXT
  5
2B1
330
1F
100
AcDbEntity
  8
5-0
  6
Continuous
 62
     7
370
     9
100
AcDbText
 10
834.3824647336012
 20
-823.0370807721841
 30
0.0
 40
22.86
  1
*ブチルシートは専用接着剤(別途)にて貼付
 41
1.158119658119658
  7
ＭＳ ゴシック
100
AcDbText
  0
LINE
  5
2B2
330
1F
100
AcDbEntity
  8
3-0
  6
Continuous
 62
     7
370
     9
100
AcDbLine
 10
1532.907497337212
 20
-771.111308281628
 30
0.0
 11
1518.793438573673
 21
-785.2253670451671
 31
0.0
  0
LINE
  5
2B3
330
1F
100
AcDbEntity
  8
3-0
  6
Continuous
 62
     7
370
     9
100
AcDbLine
 10
1467.273623860174
 20
-836.7451817586666
 30
0.0
 11
1026.353768399069
 21
-1277.665037219771
 31
0.0
  0
TEXT
  5
2B4
330
1F
100
AcDbEntity
  8
6-0
  6
Continuous
 62
     2
370
     9
100
AcDbText
 10
-265.38167474813
 20
-1913.819405258355
 30
0.0
 40
30.48
  1
太陽光発電用　あと付基礎金具　KPV-1850N　露出防水　納まり図
 41
1.120762711864407
  7
ＭＳ ゴシック
100
AcDbText
  0
ENDSEC
  0
SECTION
  2
OBJECTS
  0
DICTIONARY
  5
C
330
0
100
AcDbDictionary
281
     1
  3
ACAD_GROUP
350
D
  3
ACAD_LAYOUT
350
1A
  3
ACAD_MLEADERSTYLE
350
2B6
  3
ACAD_MLINESTYLE
350
17
  3
ACAD_PLOTSETTINGS
350
19
  3
ACAD_PLOTSTYLENAME
350
E
  3
ACAD_TABLESTYLE
350
2B5
  3
ACAD_VISUALSTYLE
350
2A
  3
AcDbVariableDictionary
350
2B7
  0
DICTIONARY
  5
D
102
{ACAD_REACTORS
330
C
102
}
330
C
100
AcDbDictionary
281
     1
  0
DICTIONARY
  5
1A
102
{ACAD_REACTORS
330
C
102
}
330
C
100
AcDbDictionary
281
     1
  3
Layout1
350
1E
  3
Layout2
350
26
  3
Model
350
22
  0
DICTIONARY
  5
2B6
102
{ACAD_REACTORS
330
C
102
}
330
C
100
AcDbDictionary
281
     1
  0
DICTIONARY
  5
17
102
{ACAD_REACTORS
330
C
102
}
330
C
100
AcDbDictionary
281
     1
  3
Standard
350
18
  0
DICTIONARY
  5
19
102
{ACAD_REACTORS
330
C
102
}
330
C
100
AcDbDictionary
281
     1
  0
ACDBDICTIONARYWDFLT
  5
E
102
{ACAD_REACTORS
330
C
102
}
330
C
100
AcDbDictionary
281
     1
  3
Normal
350
F
100
AcDbDictionaryWithDefault
340
F
  0
DICTIONARY
  5
2B5
102
{ACAD_REACTORS
330
C
102
}
330
C
100
AcDbDictionary
281
     1
  0
DICTIONARY
  5
2A
102
{ACAD_REACTORS
330
C
102
}
330
C
100
AcDbDictionary
281
     1
  3
2dWireframe
350
2F
  3
3D Hidden
350
31
  3
3dWireframe
350
30
  3
Basic
350
32
  3
Brighten
350
36
  3
ColorChange
350
3A
  3
Conceptual
350
34
  3
Dim
350
35
  3
Facepattern
350
39
  3
Flat
350
2B
  3
FlatWithEdges
350
2C
  3
Gouraud
350
2D
  3
GouraudWithEdges
350
2E
  3
Linepattern
350
38
  3
Realistic
350
33
  3
Thicken
350
37
  0
DICTIONARY
  5
2B7
102
{ACAD_REACTORS
330
C
102
}
330
C
100
AcDbDictionary
281
     1
  3
PSOLHEIGHT
350
2B9
  3
PSOLWIDTH
350
2B8
  0
LAYOUT
  5
1E
102
{ACAD_REACTORS
330
1A
102
}
102
{ACAD_XDICTIONARY
360
2BA
102
}
330
1A
100
AcDbPlotSettings
  1

  2
none_device
  4

  6

 40
0.0
 41
0.0
 42
0.0
 43
0.0
 44
0.0
 45
0.0
 46
0.0
 47
0.0
 48
0.0
 49
0.0
140
0.0
141
0.0
142
1.0
143
1.0
 70
   688
 72
     0
 73
     0
 74
     5
  7

 75
    16
147
1.0
148
0.0
149
0.0
100
AcDbLayout
  1
Layout1
 70
     1
 71
     1
 10
0.0
 20
0.0
 11
420.0
 21
297.0
 12
0.0
 22
0.0
 32
0.0
 14
1.000000000000000E+20
 24
1.000000000000000E+20
 34
1.000000000000000E+20
 15
-1.000000000000000E+20
 25
-1.000000000000000E+20
 35
-1.000000000000000E+20
146
0.0
 13
0.0
 23
0.0
 33
0.0
 16
1.0
 26
0.0
 36
0.0
 17
0.0
 27
1.0
 37
0.0
 76
     0
330
1B
  0
LAYOUT
  5
26
102
{ACAD_REACTORS
330
1A
102
}
102
{ACAD_XDICTIONARY
360
2BE
102
}
330
1A
100
AcDbPlotSettings
  1

  2
none_device
  4

  6

 40
0.0
 41
0.0
 42
0.0
 43
0.0
 44
0.0
 45
0.0
 46
0.0
 47
0.0
 48
0.0
 49
0.0
140
0.0
141
0.0
142
1.0
143
1.0
 70
   688
 72
     0
 73
     0
 74
     5
  7

 75
    16
147
1.0
148
0.0
149
0.0
100
AcDbLayout
  1
Layout2
 70
     1
 71
     2
 10
0.0
 20
0.0
 11
0.0
 21
0.0
 12
0.0
 22
0.0
 32
0.0
 14
0.0
 24
0.0
 34
0.0
 15
0.0
 25
0.0
 35
0.0
146
0.0
 13
0.0
 23
0.0
 33
0.0
 16
1.0
 26
0.0
 36
0.0
 17
0.0
 27
1.0
 37
0.0
 76
     0
330
23
  0
LAYOUT
  5
22
102
{ACAD_REACTORS
330
1A
102
}
102
{ACAD_XDICTIONARY
360
2BC
102
}
330
1A
100
AcDbPlotSettings
  1

  2
none_device
  4

  6

 40
0.0
 41
0.0
 42
0.0
 43
0.0
 44
0.0
 45
0.0
 46
0.0
 47
0.0
 48
0.0
 49
0.0
140
0.0
141
0.0
142
1.0
143
1.0
 70
  1712
 72
     0
 73
     0
 74
     0
  7

 75
     0
147
1.0
148
0.0
149
0.0
100
AcDbLayout
  1
Model
 70
     1
 71
     0
 10
-2970.0
 20
-2100.0
 11
2970.0
 21
2100.0
 12
0.0
 22
0.0
 32
0.0
 14
-2970.0
 24
-2100.0
 34
0.0
 15
2970.0
 25
2100.0
 35
0.0
146
0.0
 13
0.0
 23
0.0
 33
0.0
 16
1.0
 26
0.0
 36
0.0
 17
0.0
 27
1.0
 37
0.0
 76
     0
330
1F
331
29
  0
MLINESTYLE
  5
18
102
{ACAD_REACTORS
330
17
102
}
330
17
100
AcDbMlineStyle
  2
Standard
 70
     0
  3

 62
   256
 51
90.0
 52
90.0
 71
     2
 49
0.5
 62
   256
  6
BYLAYER
 49
-0.5
 62
   256
  6
BYLAYER
  0
ACDBPLACEHOLDER
  5
F
102
{ACAD_REACTORS
330
E
102
}
330
E
  0
VISUALSTYLE
  5
2F
102
{ACAD_REACTORS
330
2A
102
}
330
2A
100
AcDbVisualStyle
  2
2dWireframe
 70
     4
 71
     0
 72
     2
 73
     0
 90
        0
 40
-0.6
 41
-30.0
 62
     5
 63
     7
 74
     1
 91
        4
 64
     7
 65
   257
 75
     1
175
     1
 42
1.0
 92
        0
 66
   257
 43
1.0
 76
     1
 77
     6
 78
     2
 67
     7
 79
     5
170
     0
171
     0
290
     0
174
     0
 93
        1
 44
0.0
173
     0
291
     0
 45
0.0
1001
ACAD
1000
AcDbSavedByObjectVersion
1070
     0
  0
VISUALSTYLE
  5
31
102
{ACAD_REACTORS
330
2A
102
}
330
2A
100
AcDbVisualStyle
  2
3D Hidden
 70
     6
 71
     1
 72
     2
 73
     2
 90
        0
 40
-0.6
 41
-30.0
 62
     5
 63
     7
 74
     2
 91
        2
 64
     7
 65
   257
 75
     2
175
     1
 42
40.0
 92
        0
 66
   257
 43
1.0
 76
     1
 77
     6
 78
     2
 67
     7
 79
     3
170
     0
171
     0
290
     0
174
     0
 93
        1
 44
0.0
173
     0
291
     0
 45
0.0
1001
ACAD
1000
AcDbSavedByObjectVersion
1070
     0
  0
VISUALSTYLE
  5
30
102
{ACAD_REACTORS
330
2A
102
}
330
2A
100
AcDbVisualStyle
  2
3dWireframe
 70
     5
 71
     0
 72
     2
 73
     0
 90
        0
 40
-0.6
 41
-30.0
 62
     5
 63
     7
 74
     1
 91
        4
 64
     7
 65
   257
 75
     1
175
     1
 42
1.0
 92
        0
 66
   257
 43
1.0
 76
     1
 77
     6
 78
     2
 67
     7
 79
     5
170
     0
171
     0
290
     0
174
     0
 93
        1
 44
0.0
173
     0
291
     0
 45
0.0
1001
ACAD
1000
AcDbSavedByObjectVersion
1070
     0
  0
VISUALSTYLE
  5
32
102
{ACAD_REACTORS
330
2A
102
}
330
2A
100
AcDbVisualStyle
  2
Basic
 70
     7
 71
     1
 72
     0
 73
     1
 90
        0
 40
-0.6
 41
-30.0
 62
     5
 63
     7
 74
     0
 91
        4
 64
     7
 65
   257
 75
     1
175
     1
 42
1.0
 92
        8
 66
     7
 43
1.0
 76
     1
 77
     6
 78
     2
 67
     7
 79
     5
170
     0
171
     0
290
     0
174
     0
 93
        1
 44
0.0
173
     0
291
     1
 45
0.0
1001
ACAD
1000
AcDbSavedByObjectVersion
1070
     0
  0
VISUALSTYLE
  5
36
102
{ACAD_REACTORS
330
2A
102
}
330
2A
100
AcDbVisualStyle
  2
Brighten
 70
    12
 71
     2
 72
     2
 73
     0
 90
        0
 40
-0.6
 41
-30.0
 62
     5
 63
     7
 74
     1
 91
        4
 64
     7
 65
   257
 75
     1
175
     1
 42
1.0
 92
        8
 66
     7
 43
1.0
 76
     1
 77
     6
 78
     2
 67
     7
 79
     5
170
     0
171
     0
290
     0
174
     0
 93
        1
 44
50.0
173
     0
291
     1
 45
0.0
1001
ACAD
1000
AcDbSavedByObjectVersion
1070
     0
  0
VISUALSTYLE
  5
3A
102
{ACAD_REACTORS
330
2A
102
}
330
2A
100
AcDbVisualStyle
  2
ColorChange
 70
    16
 71
     2
 72
     2
 73
     3
 90
        0
 40
-0.6
 41
-30.0
 62
     5
 63
     8
 74
     1
 91
        4
 64
     7
 65
   257
 75
     1
175
     1
 42
1.0
 92
        8
 66
     8
 43
1.0
 76
     1
 77
     6
 78
     2
 67
     7
 79
     5
170
     0
171
     0
290
     0
174
     0
 93
        1
 44
0.0
173
     0
291
     1
 45
0.0
1001
ACAD
1000
AcDbSavedByObjectVersion
1070
     0
  0
VISUALSTYLE
  5
34
102
{ACAD_REACTORS
330
2A
102
}
330
2A
100
AcDbVisualStyle
  2
Conceptual
 70
     9
 71
     3
 72
     2
 73
     0
 90
        0
 40
-0.6
 41
-30.0
 62
     5
 63
     7
 74
     2
 91
        2
 64
     7
 65
   257
 75
     1
175
     1
 42
40.0
 92
        8
 66
     7
 43
1.0
 76
     1
 77
     6
 78
     2
 67
     7
 79
     3
170
     0
171
     0
290
     0
174
     0
 93
        1
 44
0.0
173
     0
291
     0
 45
0.0
1001
ACAD
1000
AcDbSavedByObjectVersion
1070
     0
  0
VISUALSTYLE
  5
35
102
{ACAD_REACTORS
330
2A
102
}
330
2A
100
AcDbVisualStyle
  2
Dim
 70
    11
 71
     2
 72
     2
 73
     0
 90
        0
 40
-0.6
 41
-30.0
 62
     5
 63
     7
 74
     1
 91
        4
 64
     7
 65
   257
 75
     1
175
     1
 42
1.0
 92
        8
 66
     7
 43
1.0
 76
     1
 77
     6
 78
     2
 67
     7
 79
     5
170
     0
171
     0
290
     0
174
     0
 93
        1
 44
-50.0
173
     0
291
     1
 45
0.0
1001
ACAD
1000
AcDbSavedByObjectVersion
1070
     0
  0
VISUALSTYLE
  5
39
102
{ACAD_REACTORS
330
2A
102
}
330
2A
100
AcDbVisualStyle
  2
Facepattern
 70
    15
 71
     2
 72
     2
 73
     0
 90
        0
 40
-0.6
 41
-30.0
 62
     5
 63
     7
 74
     1
 91
        4
 64
     7
 65
   257
 75
     1
175
     1
 42
1.0
 92
        8
 66
     7
 43
1.0
 76
     1
 77
     6
 78
     2
 67
     7
 79
     5
170
     0
171
     0
290
     0
174
     0
 93
        1
 44
0.0
173
     0
291
     1
 45
0.0
1001
ACAD
1000
AcDbSavedByObjectVersion
1070
     0
  0
VISUALSTYLE
  5
2B
102
{ACAD_REACTORS
330
2A
102
}
330
2A
100
AcDbVisualStyle
  2
Flat
 70
     0
 71
     2
 72
     1
 73
     1
 90
        2
 40
-0.6
 41
30.0
 62
     5
 63
     7
 74
     0
 91
        4
 64
     7
 65
   257
 75
     1
175
     1
 42
1.0
 92
        8
 66
     7
 43
1.0
 76
     1
 77
     6
 78
     2
 67
     7
 79
     5
170
     0
171
     0
290
     0
174
     0
 93
       13
 44
0.0
173
     0
291
     1
 45
0.0
1001
ACAD
1000
AcDbSavedByObjectVersion
1070
     0
  0
VISUALSTYLE
  5
2C
102
{ACAD_REACTORS
330
2A
102
}
330
2A
100
AcDbVisualStyle
  2
FlatWithEdges
 70
     1
 71
     2
 72
     1
 73
     1
 90
        2
 40
-0.6
 41
30.0
 62
     5
 63
     7
 74
     1
 91
        4
 64
     7
 65
   257
 75
     1
175
     1
 42
1.0
 92
        0
 66
   257
 43
1.0
 76
     1
 77
     6
 78
     2
 67
     7
 79
     5
170
     0
171
     0
290
     0
174
     0
 93
       13
 44
0.0
173
     0
291
     1
 45
0.0
1001
ACAD
1000
AcDbSavedByObjectVersion
1070
     0
  0
VISUALSTYLE
  5
2D
102
{ACAD_REACTORS
330
2A
102
}
330
2A
100
AcDbVisualStyle
  2
Gouraud
 70
     2
 71
     2
 72
     2
 73
     1
 90
        2
 40
-0.6
 41
30.0
 62
     5
 63
     7
 74
     0
 91
        4
 64
     7
 65
   257
 75
     1
175
     1
 42
1.0
 92
        0
 66
     7
 43
1.0
 76
     1
 77
     6
 78
     2
 67
     7
 79
     5
170
     0
171
     0
290
     0
174
     0
 93
       13
 44
0.0
173
     0
291
     1
 45
0.0
1001
ACAD
1000
AcDbSavedByObjectVersion
1070
     0
  0
VISUALSTYLE
  5
2E
102
{ACAD_REACTORS
330
2A
102
}
330
2A
100
AcDbVisualStyle
  2
GouraudWithEdges
 70
     3
 71
     2
 72
     2
 73
     1
 90
        2
 40
-0.6
 41
30.0
 62
     5
 63
     7
 74
     1
 91
        4
 64
     7
 65
   257
 75
     1
175
     1
 42
1.0
 92
        0
 66
   257
 43
1.0
 76
     1
 77
     6
 78
     2
 67
     7
 79
     5
170
     0
171
     0
290
     0
174
     0
 93
       13
 44
0.0
173
     0
291
     1
 45
0.0
1001
ACAD
1000
AcDbSavedByObjectVersion
1070
     0
  0
VISUALSTYLE
  5
38
102
{ACAD_REACTORS
330
2A
102
}
330
2A
100
AcDbVisualStyle
  2
Linepattern
 70
    14
 71
     2
 72
     2
 73
     0
 90
        0
 40
-0.6
 41
-30.0
 62
     5
 63
     7
 74
     1
 91
        4
 64
     7
 65
   257
 75
     7
175
     7
 42
1.0
 92
        8
 66
     7
 43
1.0
 76
     1
 77
     6
 78
     2
 67
     7
 79
     5
170
     0
171
     0
290
     0
174
     0
 93
        1
 44
0.0
173
     0
291
     1
 45
0.0
1001
ACAD
1000
AcDbSavedByObjectVersion
1070
     0
  0
VISUALSTYLE
  5
33
102
{ACAD_REACTORS
330
2A
102
}
330
2A
100
AcDbVisualStyle
  2
Realistic
 70
     8
 71
     2
 72
     2
 73
     0
 90
        0
 40
-0.6
 41
-30.0
 62
     5
 63
     7
 74
     1
 91
        0
 64
     7
 65
   257
 75
     1
175
     1
 42
1.0
 92
        8
 66
     8
 43
1.0
 76
     1
 77
     6
 78
     2
 67
     7
 79
     5
170
     0
171
     0
290
     0
174
     0
 93
       13
 44
0.0
173
     0
291
     0
 45
0.0
1001
ACAD
1000
AcDbSavedByObjectVersion
1070
     0
  0
VISUALSTYLE
  5
37
102
{ACAD_REACTORS
330
2A
102
}
330
2A
100
AcDbVisualStyle
  2
Thicken
 70
    13
 71
     2
 72
     2
 73
     0
 90
        0
 40
-0.6
 41
-30.0
 62
     5
 63
     7
 74
     1
 91
        4
 64
     7
 65
   257
 75
     1
175
     1
 42
1.0
 92
       12
 66
     7
 43
1.0
 76
     1
 77
     6
 78
     2
 67
     7
 79
     5
170
     0
171
     0
290
     0
174
     0
 93
        1
 44
0.0
173
     0
291
     1
 45
0.0
1001
ACAD
1000
AcDbSavedByObjectVersion
1070
     0
  0
DICTIONARYVAR
  5
2B9
102
{ACAD_REACTORS
330
2B7
102
}
330
2B7
100
DictionaryVariables
280
     0
  1
80.000000
  0
DICTIONARYVAR
  5
2B8
102
{ACAD_REACTORS
330
2B7
102
}
330
2B7
100
DictionaryVariables
280
     0
  1
5.000000
  0
DICTIONARY
  5
2BA
330
1E
100
AcDbDictionary
280
     1
281
     1
  3
ACAD_XREC_ROUNDTRIP
360
2BB
  0
DICTIONARY
  5
2BE
330
26
100
AcDbDictionary
280
     1
281
     1
  3
ACAD_XREC_ROUNDTRIP
360
2BF
  0
DICTIONARY
  5
2BC
330
22
100
AcDbDictionary
280
     1
281
     1
  3
ACAD_XREC_ROUNDTRIP
360
2BD
  0
XRECORD
  5
2BB
102
{ACAD_REACTORS
330
2BA
102
}
330
2BA
100
AcDbXrecord
280
     1
102
SHADEPLOT
 70
     0
102
SHADEPLOTRESLEVEL
 70
     5
102
SHADEPLOTCUSTOMDPI
 70
   300
  0
XRECORD
  5
2BF
102
{ACAD_REACTORS
330
2BE
102
}
330
2BE
100
AcDbXrecord
280
     1
102
SHADEPLOT
 70
     0
102
SHADEPLOTRESLEVEL
 70
     5
102
SHADEPLOTCUSTOMDPI
 70
   300
  0
XRECORD
  5
2BD
102
{ACAD_REACTORS
330
2BC
102
}
330
2BC
100
AcDbXrecord
280
     1
102
SHADEPLOT
 70
     0
102
SHADEPLOTRESLEVEL
 70
     5
102
SHADEPLOTCUSTOMDPI
 70
   300
  0
ENDSEC
  0
EOF
