  0
SECTION
  2
HEADER
  9
$ACADVER
  1
AC1015
  9
$ACADMAINTVER
 70
     6
  9
$DWGCODEPAGE
  3
ANSI_932
  9
$INSBASE
 10
0.0
 20
0.0
 30
0.0
  9
$EXTMIN
 10
-2100.0
 20
-1485.0
 30
0.0
  9
$EXTMAX
 10
2100.0
 20
1485.0
 30
0.0
  9
$LIMMIN
 10
-2100.0
 20
-1485.0
  9
$LIMMAX
 10
2100.0
 20
1485.0
  9
$ORTHOMODE
 70
     0
  9
$REGENMODE
 70
     1
  9
$FILLMODE
 70
     1
  9
$QTEXTMODE
 70
     0
  9
$MIRRTEXT
 70
     1
  9
$LTSCALE
 40
10.0
  9
$ATTMODE
 70
     1
  9
$TEXTSIZE
 40
2.5
  9
$TRACEWID
 40
1.0
  9
$TEXTSTYLE
  7
Standard
  9
$CLAYER
  8
0
  9
$CELTYPE
  6
ByLayer
  9
$CECOLOR
 62
   256
  9
$CELTSCALE
 40
1.0
  9
$DISPSILH
 70
     0
  9
$DIMSCALE
 40
1.0
  9
$DIMASZ
 40
2.5
  9
$DIMEXO
 40
0.625
  9
$DIMDLI
 40
3.75
  9
$DIMRND
 40
0.0
  9
$DIMDLE
 40
0.0
  9
$DIMEXE
 40
1.25
  9
$DIMTP
 40
0.0
  9
$DIMTM
 40
0.0
  9
$DIMTXT
 40
2.5
  9
$DIMCEN
 40
2.5
  9
$DIMTSZ
 40
0.0
  9
$DIMTOL
 70
     0
  9
$DIMLIM
 70
     0
  9
$DIMTIH
 70
     0
  9
$DIMTOH
 70
     0
  9
$DIMSE1
 70
     0
  9
$DIMSE2
 70
     0
  9
$DIMTAD
 70
     1
  9
$DIMZIN
 70
     8
  9
$DIMBLK
  1

  9
$DIMASO
 70
     1
  9
$DIMSHO
 70
     1
  9
$DIMPOST
  1

  9
$DIMAPOST
  1

  9
$DIMALT
 70
     0
  9
$DIMALTD
 70
     3
  9
$DIMALTF
 40
0.03937007874016
  9
$DIMLFAC
 40
1.0
  9
$DIMTOFL
 70
     1
  9
$DIMTVP
 40
0.0
  9
$DIMTIX
 70
     0
  9
$DIMSOXD
 70
     0
  9
$DIMSAH
 70
     0
  9
$DIMBLK1
  1

  9
$DIMBLK2
  1

  9
$DIMSTYLE
  2
ISO-25
  9
$DIMCLRD
 70
     0
  9
$DIMCLRE
 70
     0
  9
$DIMCLRT
 70
     0
  9
$DIMTFAC
 40
1.0
  9
$DIMGAP
 40
0.625
  9
$DIMJUST
 70
     0
  9
$DIMSD1
 70
     0
  9
$DIMSD2
 70
     0
  9
$DIMTOLJ
 70
     0
  9
$DIMTZIN
 70
     8
  9
$DIMALTZ
 70
     0
  9
$DIMALTTZ
 70
     0
  9
$DIMUPT
 70
     0
  9
$DIMDEC
 70
     2
  9
$DIMTDEC
 70
     2
  9
$DIMALTU
 70
     2
  9
$DIMALTTD
 70
     3
  9
$DIMTXSTY
  7
Standard
  9
$DIMAUNIT
 70
     0
  9
$DIMADEC
 70
     0
  9
$DIMALTRND
 40
0.0
  9
$DIMAZIN
 70
     0
  9
$DIMDSEP
 70
    44
  9
$DIMATFIT
 70
     3
  9
$DIMFRAC
 70
     0
  9
$DIMLDRBLK
  1

  9
$DIMLUNIT
 70
     2
  9
$DIMLWD
 70
    -2
  9
$DIMLWE
 70
    -2
  9
$DIMTMOVE
 70
     0
  9
$LUNITS
 70
     2
  9
$LUPREC
 70
     4
  9
$SKETCHINC
 40
1.0
  9
$FILLETRAD
 40
10.0
  9
$AUNITS
 70
     0
  9
$AUPREC
 70
     0
  9
$MENU
  1
.
  9
$ELEVATION
 40
0.0
  9
$PELEVATION
 40
0.0
  9
$THICKNESS
 40
0.0
  9
$LIMCHECK
 70
     0
  9
$CHAMFERA
 40
10.0
  9
$CHAMFERB
 40
10.0
  9
$CHAMFERC
 40
20.0
  9
$CHAMFERD
 40
0.0
  9
$SKPOLY
 70
     0
  9
$TDCREATE
 40
2456904.663118495
  9
$TDUCREATE
 40
2456904.288118495
  9
$TDUPDATE
 40
2456904.663118507
  9
$TDUUPDATE
 40
2456904.288118507
  9
$TDINDWG
 40
0.0000000116
  9
$TDUSRTIMER
 40
0.0000000116
  9
$USRTIMER
 70
     1
  9
$ANGBASE
 50
0.0
  9
$ANGDIR
 70
     0
  9
$PDMODE
 70
     0
  9
$PDSIZE
 40
0.0
  9
$PLINEWID
 40
0.0
  9
$SPLFRAME
 70
     0
  9
$SPLINETYPE
 70
     6
  9
$SPLINESEGS
 70
     8
  9
$HANDSEED
  5
B9
  9
$SURFTAB1
 70
     6
  9
$SURFTAB2
 70
     6
  9
$SURFTYPE
 70
     6
  9
$SURFU
 70
     6
  9
$SURFV
 70
     6
  9
$UCSBASE
  2

  9
$UCSNAME
  2

  9
$UCSORG
 10
0.0
 20
0.0
 30
0.0
  9
$UCSXDIR
 10
1.0
 20
0.0
 30
0.0
  9
$UCSYDIR
 10
0.0
 20
1.0
 30
0.0
  9
$UCSORTHOREF
  2

  9
$UCSORTHOVIEW
 70
     0
  9
$UCSORGTOP
 10
0.0
 20
0.0
 30
0.0
  9
$UCSORGBOTTOM
 10
0.0
 20
0.0
 30
0.0
  9
$UCSORGLEFT
 10
0.0
 20
0.0
 30
0.0
  9
$UCSORGRIGHT
 10
0.0
 20
0.0
 30
0.0
  9
$UCSORGFRONT
 10
0.0
 20
0.0
 30
0.0
  9
$UCSORGBACK
 10
0.0
 20
0.0
 30
0.0
  9
$PUCSBASE
  2

  9
$PUCSNAME
  2

  9
$PUCSORG
 10
0.0
 20
0.0
 30
0.0
  9
$PUCSXDIR
 10
1.0
 20
0.0
 30
0.0
  9
$PUCSYDIR
 10
0.0
 20
1.0
 30
0.0
  9
$PUCSORTHOREF
  2

  9
$PUCSORTHOVIEW
 70
     0
  9
$PUCSORGTOP
 10
0.0
 20
0.0
 30
0.0
  9
$PUCSORGBOTTOM
 10
0.0
 20
0.0
 30
0.0
  9
$PUCSORGLEFT
 10
0.0
 20
0.0
 30
0.0
  9
$PUCSORGRIGHT
 10
0.0
 20
0.0
 30
0.0
  9
$PUCSORGFRONT
 10
0.0
 20
0.0
 30
0.0
  9
$PUCSORGBACK
 10
0.0
 20
0.0
 30
0.0
  9
$USERI1
 70
     0
  9
$USERI2
 70
     0
  9
$USERI3
 70
     0
  9
$USERI4
 70
     0
  9
$USERI5
 70
     0
  9
$USERR1
 40
0.0
  9
$USERR2
 40
0.0
  9
$USERR3
 40
0.0
  9
$USERR4
 40
0.0
  9
$USERR5
 40
0.0
  9
$WORLDVIEW
 70
     1
  9
$SHADEDGE
 70
     3
  9
$SHADEDIF
 70
    70
  9
$TILEMODE
 70
     1
  9
$MAXACTVP
 70
    64
  9
$PINSBASE
 10
0.0
 20
0.0
 30
0.0
  9
$PLIMCHECK
 70
     0
  9
$PEXTMIN
 10
1.000000000000000E+20
 20
1.000000000000000E+20
 30
1.000000000000000E+20
  9
$PEXTMAX
 10
-1.000000000000000E+20
 20
-1.000000000000000E+20
 30
-1.000000000000000E+20
  9
$PLIMMIN
 10
0.0
 20
0.0
  9
$PLIMMAX
 10
420.0
 20
297.0
  9
$UNITMODE
 70
     0
  9
$VISRETAIN
 70
     1
  9
$PLINEGEN
 70
     0
  9
$PSLTSCALE
 70
     1
  9
$TREEDEPTH
 70
  3020
  9
$CMLSTYLE
  2
Standard
  9
$CMLJUST
 70
     0
  9
$CMLSCALE
 40
20.0
  9
$PROXYGRAPHICS
 70
     1
  9
$MEASUREMENT
 70
     1
  9
$CELWEIGHT
370
    -1
  9
$ENDCAPS
280
     0
  9
$JOINSTYLE
280
     0
  9
$LWDISPLAY
290
     0
  9
$INSUNITS
 70
     4
  9
$HYPERLINKBASE
  1

  9
$STYLESHEET
  1

  9
$XEDIT
290
     1
  9
$CEPSNTYPE
380
     0
  9
$PSTYLEMODE
290
     1
  9
$FINGERPRINTGUID
  2
{45CD53BC-966F-4B87-84C8-9BE01A04A960}
  9
$VERSIONGUID
  2
{FAEB1C32-E019-11D5-929B-00C0DF256EC4}
  9
$EXTNAMES
290
     1
  9
$PSVPSCALE
 40
0.0
  9
$OLESTARTUP
290
     0
  0
ENDSEC
  0
SECTION
  2
CLASSES
  0
CLASS
  1
ACDBDICTIONARYWDFLT
  2
AcDbDictionaryWithDefault
  3
ObjectDBX Classes
 90
        0
280
     0
281
     0
  0
CLASS
  1
VISUALSTYLE
  2
AcDbVisualStyle
  3
ObjectDBX Classes
 90
     4095
280
     0
281
     0
  0
CLASS
  1
DICTIONARYVAR
  2
AcDbDictionaryVar
  3
ObjectDBX Classes
 90
        0
280
     0
281
     0
  0
CLASS
  1
ACDBPLACEHOLDER
  2
AcDbPlaceHolder
  3
ObjectDBX Classes
 90
        0
280
     0
281
     0
  0
CLASS
  1
LAYOUT
  2
AcDbLayout
  3
ObjectDBX Classes
 90
        0
280
     0
281
     0
  0
ENDSEC
  0
SECTION
  2
TABLES
  0
TABLE
  2
VPORT
  5
8
330
0
100
AcDbSymbolTable
 70
     1
  0
VPORT
  5
29
330
8
100
AcDbSymbolTableRecord
100
AcDbViewportTableRecord
  2
*Active
 70
     0
 10
0.0
 20
0.0
 11
1.0
 21
1.0
 12
0.0
 22
0.0
 13
0.0
 23
0.0
 14
10.0
 24
10.0
 15
10.0
 25
10.0
 16
0.0
 26
0.0
 36
1.0
 17
0.0
 27
0.0
 37
0.0
 40
3267.0
 41
1.414141414141414
 42
50.0
 43
0.0
 44
0.0
 50
0.0
 51
0.0
 71
     0
 72
 10000
 73
     1
 74
     3
 75
     0
 76
     0
 77
     0
 78
     0
281
     0
 65
     1
110
0.0
120
0.0
130
0.0
111
1.0
121
0.0
131
0.0
112
0.0
122
1.0
132
0.0
 79
     0
146
0.0
  0
ENDTAB
  0
TABLE
  2
LTYPE
  5
5
330
0
100
AcDbSymbolTable
 70
     3
  0
LTYPE
  5
14
330
5
100
AcDbSymbolTableRecord
100
AcDbLinetypeTableRecord
  2
ByBlock
 70
     0
  3

 72
    65
 73
     0
 40
0.0
  0
LTYPE
  5
15
330
5
100
AcDbSymbolTableRecord
100
AcDbLinetypeTableRecord
  2
ByLayer
 70
     0
  3

 72
    65
 73
     0
 40
0.0
  0
LTYPE
  5
16
330
5
100
AcDbSymbolTableRecord
100
AcDbLinetypeTableRecord
  2
Continuous
 70
     0
  3
Solid line
 72
    65
 73
     0
 40
0.0
  0
LTYPE
  5
3C
330
5
100
AcDbSymbolTableRecord
100
AcDbLinetypeTableRecord
  2
JWW_DASHED1
 70
     0
  3
-  --  --  --  --  --  --  --  -
 72
    65
 73
     2
 40
1.693333333333333
 49
0.8466666666666667
 74
     0
 49
-0.8466666666666667
 74
     0
  0
LTYPE
  5
3D
330
5
100
AcDbSymbolTableRecord
100
AcDbLinetypeTableRecord
  2
JWW_CENTER1
 70
     0
  3
-----  --  ----------  --  -----
 72
    65
 73
     4
 40
6.773333333333333
 49
4.233333333333333
 74
     0
 49
-0.8466666666666667
 74
     0
 49
0.8466666666666667
 74
     0
 49
-0.8466666666666667
 74
     0
  0
ENDTAB
  0
TABLE
  2
LAYER
  5
2
330
0
100
AcDbSymbolTable
 70
     4
  0
LAYER
  5
10
330
2
100
AcDbSymbolTableRecord
100
AcDbLayerTableRecord
  2
0
 70
     0
 62
     7
  6
Continuous
370
    -3
390
F
  0
LAYER
  5
3E
330
2
100
AcDbSymbolTableRecord
100
AcDbLayerTableRecord
  2
1-0
 70
     0
 62
     7
  6
Continuous
370
    -3
390
F
  0
LAYER
  5
3F
330
2
100
AcDbSymbolTableRecord
100
AcDbLayerTableRecord
  2
1-4
 70
     0
 62
     7
  6
Continuous
370
    -3
390
F
  0
LAYER
  5
40
330
2
100
AcDbSymbolTableRecord
100
AcDbLayerTableRecord
  2
F-5
 70
     0
 62
     7
  6
Continuous
370
    -3
390
F
  0
ENDTAB
  0
TABLE
  2
STYLE
  5
3
330
0
100
AcDbSymbolTable
 70
     2
  0
STYLE
  5
11
330
3
100
AcDbSymbolTableRecord
100
AcDbTextStyleTableRecord
  2
Standard
 70
     0
 40
0.0
 41
1.0
 50
0.0
 71
     0
 42
2.5
  3
txt
  4

1001
ACAD
1000

1071
        0
  0
STYLE
  5
3B
330
3
100
AcDbSymbolTableRecord
100
AcDbTextStyleTableRecord
  2
ＭＳ ゴシック
 70
     0
 40
1.0
 41
1.0
 50
0.0
 71
     0
 42
10.0
  3
msgothic.ttc
  4

1001
ACAD
1000
MS Gothic
1071
    32817
  0
ENDTAB
  0
TABLE
  2
VIEW
  5
6
330
0
100
AcDbSymbolTable
 70
     0
  0
ENDTAB
  0
TABLE
  2
UCS
  5
7
330
0
100
AcDbSymbolTable
 70
     0
  0
ENDTAB
  0
TABLE
  2
APPID
  5
9
330
0
100
AcDbSymbolTable
 70
     1
  0
APPID
  5
12
330
9
100
AcDbSymbolTableRecord
100
AcDbRegAppTableRecord
  2
ACAD
 70
     0
  0
ENDTAB
  0
TABLE
  2
DIMSTYLE
  5
A
330
0
100
AcDbSymbolTable
 70
     1
100
AcDbDimStyleTable
  0
DIMSTYLE
105
27
330
A
100
AcDbSymbolTableRecord
100
AcDbDimStyleTableRecord
  2
ISO-25
 70
     0
 41
2.5
 42
0.625
 43
3.75
 44
1.25
 73
     0
 74
     0
 77
     1
 78
     8
140
2.5
141
2.5
143
0.03937007874016
147
0.625
171
     3
172
     1
271
     2
272
     2
274
     3
278
    44
283
     0
284
     8
340
11
  0
ENDTAB
  0
TABLE
  2
BLOCK_RECORD
  5
1
330
0
100
AcDbSymbolTable
 70
     1
  0
BLOCK_RECORD
  5
1F
330
1
100
AcDbSymbolTableRecord
100
AcDbBlockTableRecord
  2
*Model_Space
340
22
  0
BLOCK_RECORD
  5
1B
330
1
100
AcDbSymbolTableRecord
100
AcDbBlockTableRecord
  2
*Paper_Space
340
1E
  0
BLOCK_RECORD
  5
23
330
1
100
AcDbSymbolTableRecord
100
AcDbBlockTableRecord
  2
*Paper_Space0
340
26
  0
ENDTAB
  0
ENDSEC
  0
SECTION
  2
BLOCKS
  0
BLOCK
  5
20
330
1F
100
AcDbEntity
  8
0
100
AcDbBlockBegin
  2
*Model_Space
 70
     0
 10
0.0
 20
0.0
 30
0.0
  3
*Model_Space
  1

  0
ENDBLK
  5
21
330
1F
100
AcDbEntity
  8
0
100
AcDbBlockEnd
  0
BLOCK
  5
1C
330
1B
100
AcDbEntity
 67
     1
  8
0
100
AcDbBlockBegin
  2
*Paper_Space
 70
     0
 10
0.0
 20
0.0
 30
0.0
  3
*Paper_Space
  1

  0
ENDBLK
  5
1D
330
1B
100
AcDbEntity
 67
     1
  8
0
100
AcDbBlockEnd
  0
BLOCK
  5
24
330
23
100
AcDbEntity
  8
0
100
AcDbBlockBegin
  2
*Paper_Space0
 70
     0
 10
0.0
 20
0.0
 30
0.0
  3
*Paper_Space0
  1

  0
ENDBLK
  5
25
330
23
100
AcDbEntity
  8
0
100
AcDbBlockEnd
  0
ENDSEC
  0
SECTION
  2
ENTITIES
  0
LINE
  5
41
330
1F
100
AcDbEntity
  8
1-0
  6
Continuous
 62
     3
370
     9
100
AcDbLine
 10
-641.29733523807
 20
-684.0348197318411
 30
0.0
 11
58.70262352195965
 21
-684.0348197318411
 31
0.0
  0
LINE
  5
42
330
1F
100
AcDbEntity
  8
1-0
  6
Continuous
 62
     3
370
     9
100
AcDbLine
 10
-601.297326990076
 20
-644.0348114838471
 30
0.0
 11
-426.2974919499578
 21
-644.0348114838471
 31
0.0
  0
LINE
  5
43
330
1F
100
AcDbEntity
  8
1-0
  6
Continuous
 62
     3
370
     9
100
AcDbLine
 10
-426.2974919499578
 20
-644.0348114838471
 30
0.0
 11
58.70262352195965
 21
-644.0348114838471
 31
0.0
  0
LINE
  5
44
330
1F
100
AcDbEntity
  8
1-0
  6
Continuous
 62
     3
370
     9
100
AcDbLine
 10
-406.2974259660049
 20
-684.0348197318411
 30
0.0
 11
-406.2974259660049
 21
-664.0347537478884
 31
0.0
  0
LINE
  5
45
330
1F
100
AcDbEntity
  8
1-0
  6
Continuous
 62
     3
370
     9
100
AcDbLine
 10
-601.297326990076
 20
-647.0348956133867
 30
0.0
 11
-426.2974919499578
 21
-647.0348956133867
 31
0.0
  0
LINE
  5
46
330
1F
100
AcDbEntity
  8
1-0
  6
Continuous
 62
     3
370
     9
100
AcDbLine
 10
-409.2972626557221
 20
-684.0348197318411
 30
0.0
 11
-409.2972626557221
 21
-664.0347537478884
 31
0.0
  0
LINE
  5
47
330
1F
100
AcDbEntity
  8
1-0
  6
Continuous
 62
     3
370
     9
100
AcDbLine
 10
526.702880859375
 20
-684.0348197318411
 30
0.0
 11
526.702880859375
 21
-664.0347537478884
 31
0.0
  0
LINE
  5
48
330
1F
100
AcDbEntity
  8
1-0
  6
Continuous
 62
     3
370
     9
100
AcDbLine
 10
718.7025740339953
 20
-647.0348956133867
 30
0.0
 11
543.7027389938771
 21
-647.0348956133867
 31
0.0
  0
LINE
  5
49
330
1F
100
AcDbEntity
  8
1-0
  6
Continuous
 62
     3
370
     9
100
AcDbLine
 10
523.702673009924
 20
-684.0348197318411
 30
0.0
 11
523.702673009924
 21
-664.0347537478884
 31
0.0
  0
LINE
  5
4A
330
1F
100
AcDbEntity
  8
1-0
  6
Continuous
 62
     3
370
     9
100
AcDbLine
 10
543.7027389938771
 20
-644.0348114838471
 30
0.0
 11
58.70262352195965
 21
-644.0348114838471
 31
0.0
  0
LINE
  5
4B
330
1F
100
AcDbEntity
  8
1-0
  6
Continuous
 62
     3
370
     9
100
AcDbLine
 10
718.7025740339953
 20
-644.0348114838471
 30
0.0
 11
543.7027389938771
 21
-644.0348114838471
 31
0.0
  0
LINE
  5
4C
330
1F
100
AcDbEntity
  8
1-0
  6
Continuous
 62
     3
370
     9
100
AcDbLine
 10
758.7027060019005
 20
-684.0348197318411
 30
0.0
 11
58.70262352195965
 21
-684.0348197318411
 31
0.0
  0
LINE
  5
4D
330
1F
100
AcDbEntity
  8
1-0
  6
JWW_DASHED1
 62
     3
370
     9
100
AcDbLine
 10
113.7028049778294
 20
1020.049092060811
 30
0.0
 11
113.7028049778294
 21
995.0492570206927
 31
0.0
  0
LINE
  5
4E
330
1F
100
AcDbEntity
  8
1-0
  6
JWW_DASHED1
 62
     3
370
     9
100
AcDbLine
 10
63.70288745777032
 20
1020.049092060811
 30
0.0
 11
63.70288745777032
 21
995.0492570206927
 31
0.0
  0
LINE
  5
4F
330
1F
100
AcDbEntity
  8
1-0
  6
JWW_CENTER1
 62
     3
370
     9
100
AcDbLine
 10
38.79163587415547
 20
1020.049092060811
 30
0.0
 11
169.7635135135135
 21
1020.049092060811
 31
0.0
  0
LINE
  5
50
330
1F
100
AcDbEntity
  8
1-0
  6
JWW_DASHED1
 62
     3
370
     9
100
AcDbLine
 10
53.70285446579402
 20
1070.049257020693
 30
0.0
 11
128.702854465794
 21
1070.049257020693
 31
0.0
  0
LINE
  5
51
330
1F
100
AcDbEntity
  8
1-0
  6
JWW_DASHED1
 62
     3
370
     9
100
AcDbLine
 10
63.70288745777032
 20
1045.049174540752
 30
0.0
 11
113.7028049778294
 21
1045.049174540752
 31
0.0
  0
LINE
  5
52
330
1F
100
AcDbEntity
  8
1-0
  6
JWW_DASHED1
 62
     3
370
     9
100
AcDbLine
 10
158.7029534417232
 20
1020.049092060811
 30
0.0
 11
158.7029534417232
 21
1040.049158044764
 31
0.0
  0
LINE
  5
53
330
1F
100
AcDbEntity
  8
1-0
  6
JWW_DASHED1
 62
     3
370
     9
100
AcDbLine
 10
53.70285446579402
 20
1020.049092060811
 30
0.0
 11
53.70285446579402
 21
1070.049257020693
 31
0.0
  0
LINE
  5
54
330
1F
100
AcDbEntity
  8
1-0
  6
Continuous
 62
     3
370
     9
100
AcDbLine
 10
-258.4557198189398
 20
-684.0348197318411
 30
0.0
 11
-258.8935645850927
 21
-674.9405402106207
 31
0.0
  0
LINE
  5
55
330
1F
100
AcDbEntity
  8
1-0
  6
Continuous
 62
     3
370
     9
100
AcDbLine
 10
-267.3324997360641
 20
-671.5569243559967
 30
0.0
 11
-280.4600483662372
 21
-684.0348197318411
 31
0.0
  0
LINE
  5
56
330
1F
100
AcDbEntity
  8
1-0
  6
JWW_DASHED1
 62
     3
370
     9
100
AcDbLine
 10
63.70288745777032
 20
1020.049092060811
 30
0.0
 11
63.70288745777032
 21
1045.049174540752
 31
0.0
  0
LINE
  5
57
330
1F
100
AcDbEntity
  8
1-0
  6
JWW_DASHED1
 62
     3
370
     9
100
AcDbLine
 10
113.7028049778294
 20
1020.049092060811
 30
0.0
 11
113.7028049778294
 21
1045.049174540752
 31
0.0
  0
LINE
  5
58
330
1F
100
AcDbEntity
  8
1-0
  6
JWW_DASHED1
 62
     3
370
     9
100
AcDbLine
 10
53.70285446579402
 20
1020.049092060811
 30
0.0
 11
53.70285446579402
 21
970.0491745407519
 31
0.0
  0
LINE
  5
59
330
1F
100
AcDbEntity
  8
1-0
  6
JWW_DASHED1
 62
     3
370
     9
100
AcDbLine
 10
158.7029534417232
 20
1020.049092060811
 30
0.0
 11
158.7029534417232
 21
1000.049273516681
 31
0.0
  0
LINE
  5
5A
330
1F
100
AcDbEntity
  8
1-0
  6
JWW_DASHED1
 62
     3
370
     9
100
AcDbLine
 10
63.70288745777032
 20
995.0492570206927
 30
0.0
 11
113.7028049778294
 21
995.0492570206927
 31
0.0
  0
LINE
  5
5B
330
1F
100
AcDbEntity
  8
1-0
  6
JWW_DASHED1
 62
     3
370
     9
100
AcDbLine
 10
53.70285446579402
 20
970.0491745407519
 30
0.0
 11
128.702854465794
 21
970.0491745407519
 31
0.0
  0
LINE
  5
5C
330
1F
100
AcDbEntity
  8
1-0
  6
JWW_DASHED1
 62
     3
370
     9
100
AcDbLine
 10
63.70288745777032
 20
-194.9510811470648
 30
0.0
 11
-11.29711254222968
 21
-194.9510811470648
 31
0.0
  0
LINE
  5
5D
330
1F
100
AcDbEntity
  8
1-0
  6
JWW_DASHED1
 62
     3
370
     9
100
AcDbLine
 10
53.70285446579402
 20
-169.9509986671239
 30
0.0
 11
3.702689505912247
 21
-169.9509986671239
 31
0.0
  0
LINE
  5
5E
330
1F
100
AcDbEntity
  8
1-0
  6
JWW_DASHED1
 62
     3
370
     9
100
AcDbLine
 10
-41.29721151815858
 20
-144.9510399070945
 30
0.0
 11
-41.29721151815858
 21
-164.9509821711359
 31
0.0
  0
LINE
  5
5F
330
1F
100
AcDbEntity
  8
1-0
  6
JWW_DASHED1
 62
     3
370
     9
100
AcDbLine
 10
63.70288745777032
 20
-144.9510399070945
 30
0.0
 11
63.70288745777032
 21
-194.9510811470648
 31
0.0
  0
LINE
  5
60
330
1F
100
AcDbEntity
  8
1-0
  6
JWW_DASHED1
 62
     3
370
     9
100
AcDbLine
 10
3.702689505912247
 20
-144.9510399070945
 30
0.0
 11
3.702689505912247
 21
-119.9510811470648
 31
0.0
  0
LINE
  5
61
330
1F
100
AcDbEntity
  8
1-0
  6
JWW_DASHED1
 62
     3
370
     9
100
AcDbLine
 10
53.70285446579402
 20
-144.9510399070945
 30
0.0
 11
53.70285446579402
 21
-119.9510811470648
 31
0.0
  0
LINE
  5
62
330
1F
100
AcDbEntity
  8
1-0
  6
JWW_DASHED1
 62
     3
370
     9
100
AcDbLine
 10
63.70288745777032
 20
-144.9510399070945
 30
0.0
 11
63.70288745777032
 21
-94.95099866712394
 31
0.0
  0
LINE
  5
63
330
1F
100
AcDbEntity
  8
1-0
  6
JWW_DASHED1
 62
     3
370
     9
100
AcDbLine
 10
-41.29721151815858
 20
-144.9510399070945
 30
0.0
 11
-41.29721151815858
 21
-124.9510976430531
 31
0.0
  0
LINE
  5
64
330
1F
100
AcDbEntity
  8
1-0
  6
JWW_DASHED1
 62
     3
370
     9
100
AcDbLine
 10
53.70285446579402
 20
-119.9510811470648
 30
0.0
 11
3.702689505912247
 21
-119.9510811470648
 31
0.0
  0
LINE
  5
65
330
1F
100
AcDbEntity
  8
1-0
  6
JWW_DASHED1
 62
     3
370
     9
100
AcDbLine
 10
63.70288745777032
 20
-94.95099866712394
 30
0.0
 11
-11.29711254222968
 21
-94.95099866712394
 31
0.0
  0
LINE
  5
66
330
1F
100
AcDbEntity
  8
1-0
  6
JWW_CENTER1
 62
     3
370
     9
100
AcDbLine
 10
78.61410604940886
 20
-144.9510399070945
 30
0.0
 11
-52.3578953098604
 21
-144.9510399070945
 31
0.0
  0
LINE
  5
67
330
1F
100
AcDbEntity
  8
1-0
  6
JWW_DASHED1
 62
     3
370
     9
100
AcDbLine
 10
53.70285446579402
 20
-144.9510399070945
 30
0.0
 11
53.70285446579402
 21
-169.9509986671239
 31
0.0
  0
LINE
  5
68
330
1F
100
AcDbEntity
  8
1-0
  6
JWW_DASHED1
 62
     3
370
     9
100
AcDbLine
 10
3.702689505912247
 20
-144.9510399070945
 30
0.0
 11
3.702689505912247
 21
-169.9509986671239
 31
0.0
  0
LINE
  5
69
330
1F
100
AcDbEntity
  8
1-0
  6
JWW_CENTER1
 62
     3
370
     9
100
AcDbLine
 10
58.70262352195965
 20
-714.1661855336781
 30
0.0
 11
58.70262352195965
 21
-604.5346316775759
 31
0.0
  0
LINE
  5
6A
330
1F
100
AcDbEntity
  8
1-4
  6
Continuous
 62
     7
370
     9
100
AcDbLine
 10
-406.2974259660049
 20
-834.0348197318411
 30
0.0
 11
523.702673009924
 21
-834.0348197318411
 31
0.0
  0
LINE
  5
6B
330
1F
100
AcDbEntity
  8
1-4
  6
Continuous
 62
     7
370
     9
100
AcDbLine
 10
-406.2974259660049
 20
-709.0348403518265
 30
0.0
 11
-406.2974259660049
 21
-837.0348420014252
 31
0.0
  0
LINE
  5
6C
330
1F
100
AcDbEntity
  8
1-4
  6
Continuous
 62
     7
370
     9
100
AcDbLine
 10
523.702673009924
 20
-709.0348403518265
 30
0.0
 11
523.702673009924
 21
-837.0348420014252
 31
0.0
  0
LINE
  5
6D
330
1F
100
AcDbEntity
  8
1-4
  6
Continuous
 62
     7
370
     9
100
AcDbLine
 10
-406.2974259660049
 20
-834.0348197318411
 30
0.0
 11
-381.5112552127323
 21
-830.7716452108846
 31
0.0
  0
LINE
  5
6E
330
1F
100
AcDbEntity
  8
1-4
  6
Continuous
 62
     7
370
     9
100
AcDbLine
 10
-406.2974259660049
 20
-834.0348197318411
 30
0.0
 11
-381.5112552127323
 21
-837.2979942527977
 31
0.0
  0
LINE
  5
6F
330
1F
100
AcDbEntity
  8
1-4
  6
Continuous
 62
     7
370
     9
100
AcDbLine
 10
523.702673009924
 20
-834.0348197318411
 30
0.0
 11
498.9166259765625
 21
-830.7716452108846
 31
0.0
  0
LINE
  5
70
330
1F
100
AcDbEntity
  8
1-4
  6
Continuous
 62
     7
370
     9
100
AcDbLine
 10
523.702673009924
 20
-834.0348197318411
 30
0.0
 11
498.9166259765625
 21
-837.2979942527977
 31
0.0
  0
LINE
  5
71
330
1F
100
AcDbEntity
  8
1-4
  6
Continuous
 62
     7
370
     9
100
AcDbLine
 10
-641.29733523807
 20
-934.0348403518265
 30
0.0
 11
758.7027060019005
 21
-934.0348403518265
 31
0.0
  0
LINE
  5
72
330
1F
100
AcDbEntity
  8
1-4
  6
Continuous
 62
     7
370
     9
100
AcDbLine
 10
-641.29733523807
 20
-709.0348403518265
 30
0.0
 11
-641.29733523807
 21
-937.0348626214104
 31
0.0
  0
LINE
  5
73
330
1F
100
AcDbEntity
  8
1-4
  6
Continuous
 62
     7
370
     9
100
AcDbLine
 10
758.7027060019005
 20
-709.0348403518265
 30
0.0
 11
758.7027060019005
 21
-937.0348626214104
 31
0.0
  0
LINE
  5
74
330
1F
100
AcDbEntity
  8
1-4
  6
Continuous
 62
     7
370
     9
100
AcDbLine
 10
-641.29733523807
 20
-934.0348403518265
 30
0.0
 11
-616.5111644847971
 21
-930.7716658308699
 31
0.0
  0
LINE
  5
75
330
1F
100
AcDbEntity
  8
1-4
  6
Continuous
 62
     7
370
     9
100
AcDbLine
 10
-641.29733523807
 20
-934.0348403518265
 30
0.0
 11
-616.5111644847971
 21
-937.2980148727829
 31
0.0
  0
LINE
  5
76
330
1F
100
AcDbEntity
  8
1-4
  6
Continuous
 62
     7
370
     9
100
AcDbLine
 10
758.7027060019005
 20
-934.0348403518265
 30
0.0
 11
733.9166589685391
 21
-930.7716658308699
 31
0.0
  0
LINE
  5
77
330
1F
100
AcDbEntity
  8
1-4
  6
Continuous
 62
     7
370
     9
100
AcDbLine
 10
758.7027060019005
 20
-934.0348403518265
 30
0.0
 11
733.9166589685391
 21
-937.2980148727829
 31
0.0
  0
LINE
  5
78
330
1F
100
AcDbEntity
  8
1-4
  6
Continuous
 62
     7
370
     9
100
AcDbLine
 10
743.702656513936
 20
-644.0348114838471
 30
0.0
 11
911.7026664115286
 21
-644.0348114838471
 31
0.0
  0
LINE
  5
79
330
1F
100
AcDbEntity
  8
1-4
  6
Continuous
 62
     7
370
     9
100
AcDbLine
 10
783.7025410420188
 20
-684.0348197318411
 30
0.0
 11
911.7026664115286
 21
-684.0348197318411
 31
0.0
  0
LINE
  5
7A
330
1F
100
AcDbEntity
  8
1-4
  6
Continuous
 62
     7
370
     9
100
AcDbLine
 10
908.7027060019005
 20
-644.0348114838471
 30
0.0
 11
905.4394696209886
 21
-619.24870259053
 31
0.0
  0
LINE
  5
7B
330
1F
100
AcDbEntity
  8
1-4
  6
Continuous
 62
     7
370
     9
100
AcDbLine
 10
908.7027060019005
 20
-644.0348114838471
 30
0.0
 11
911.9659423828125
 21
-619.24870259053
 31
0.0
  0
LINE
  5
7C
330
1F
100
AcDbEntity
  8
1-4
  6
Continuous
 62
     7
370
     9
100
AcDbLine
 10
908.7027060019005
 20
-684.0348197318411
 30
0.0
 11
905.4394696209886
 21
-708.8209286251583
 31
0.0
  0
LINE
  5
7D
330
1F
100
AcDbEntity
  8
1-4
  6
Continuous
 62
     7
370
     9
100
AcDbLine
 10
908.7027060019005
 20
-684.0348197318411
 30
0.0
 11
911.9659423828125
 21
-708.8209286251583
 31
0.0
  0
LINE
  5
7E
330
1F
100
AcDbEntity
  8
1-4
  6
Continuous
 62
     7
370
     9
100
AcDbLine
 10
908.7027060019005
 20
-591.4853358913113
 30
0.0
 11
908.7027060019005
 21
-740.4941538217905
 31
0.0
  0
LINE
  5
7F
330
1F
100
AcDbEntity
  8
1-4
  6
Continuous
 62
     7
370
     9
100
AcDbLine
 10
738.7026400179479
 20
-649.3938013025231
 30
0.0
 11
748.2696533203125
 21
-626.2968403584248
 31
0.0
  0
LINE
  5
80
330
1F
100
AcDbEntity
  8
1-4
  6
Continuous
 62
     7
370
     9
100
AcDbLine
 10
738.7026400179479
 20
-649.3938013025231
 30
0.0
 11
753.9216737489443
 21
-629.5599530194256
 31
0.0
  0
LINE
  5
81
330
1F
100
AcDbEntity
  8
1-4
  6
Continuous
 62
     7
370
     9
100
AcDbLine
 10
738.7026400179479
 20
-649.3938013025231
 30
0.0
 11
828.3993282833615
 21
-494.0348114838471
 31
0.0
  0
LINE
  5
82
330
1F
100
AcDbEntity
  8
1-4
  6
Continuous
 62
     7
370
     9
100
AcDbLine
 10
828.3993282833615
 20
-494.0348114838471
 30
0.0
 11
1115.1123046875
 21
-494.0348114838471
 31
0.0
  0
LINE
  5
83
330
1F
100
AcDbEntity
  8
1-0
  6
Continuous
 62
     3
370
     9
100
AcDbLine
 10
-280.2877065297719
 20
755.6873548353042
 30
0.0
 11
-262.5008660393792
 21
753.1461478568415
 31
0.0
  0
LINE
  5
84
330
1F
100
AcDbEntity
  8
1-0
  6
Continuous
 62
     3
370
     9
100
AcDbLine
 10
-259.2464137721706
 20
776.7118216849665
 30
0.0
 11
-256.8382056983739
 21
758.7608048722552
 31
0.0
  0
LINE
  5
85
330
1F
100
AcDbEntity
  8
1-0
  6
JWW_CENTER1
 62
     3
370
     9
100
AcDbLine
 10
-233.514404296875
 20
729.766548775338
 30
0.0
 11
-301.3746519346495
 21
797.6269201330238
 31
0.0
  0
LINE
  5
86
330
1F
100
AcDbEntity
  8
1-0
  6
Continuous
 62
     3
370
     9
100
AcDbLine
 10
-259.435581516575
 20
98.55881974503802
 30
0.0
 11
-256.8943745381122
 21
116.3456602354307
 31
0.0
  0
LINE
  5
87
330
1F
100
AcDbEntity
  8
1-0
  6
Continuous
 62
     3
370
     9
100
AcDbLine
 10
-280.4600483662372
 20
119.6001125026393
 30
0.0
 11
-262.509031553526
 21
122.0083205764359
 31
0.0
  0
LINE
  5
88
330
1F
100
AcDbEntity
  8
1-0
  6
JWW_CENTER1
 62
     3
370
     9
100
AcDbLine
 10
-233.5147754566088
 20
145.3321219779352
 30
0.0
 11
-301.3751468142948
 21
77.4718743401607
 31
0.0
  0
LINE
  5
89
330
1F
100
AcDbEntity
  8
1-0
  6
Continuous
 62
     3
370
     9
100
AcDbLine
 10
397.6929535736909
 20
119.4109447582349
 30
0.0
 11
379.9062368032097
 21
121.9521517366977
 31
0.0
  0
LINE
  5
8A
330
1F
100
AcDbEntity
  8
1-0
  6
Continuous
 62
     3
370
     9
100
AcDbLine
 10
376.6516608160896
 20
98.38647790857266
 30
0.0
 11
374.2433290223818
 21
116.3374947212839
 31
0.0
  0
LINE
  5
8B
330
1F
100
AcDbEntity
  8
1-0
  6
JWW_CENTER1
 62
     3
370
     9
100
AcDbLine
 10
350.919651340794
 20
145.331750818201
 30
0.0
 11
418.78002269848
 21
77.47137946051538
 31
0.0
  0
LINE
  5
8C
330
1F
100
AcDbEntity
  8
1-0
  6
Continuous
 62
     3
370
     9
100
AcDbLine
 10
376.8409522804055
 20
776.5396035684123
 30
0.0
 11
374.2997453019427
 21
758.7526393581084
 31
0.0
  0
LINE
  5
8D
330
1F
100
AcDbEntity
  8
1-0
  6
Continuous
 62
     3
370
     9
100
AcDbLine
 10
397.8654191300677
 20
755.498310810811
 30
0.0
 11
379.9141548775339
 21
753.0899790171031
 31
0.0
  0
LINE
  5
8E
330
1F
100
AcDbEntity
  8
1-0
  6
JWW_CENTER1
 62
     3
370
     9
100
AcDbLine
 10
350.9201462204393
 20
729.7660538956927
 30
0.0
 11
418.780517578125
 21
797.6264252533783
 31
0.0
  0
LINE
  5
8F
330
1F
100
AcDbEntity
  8
1-0
  6
JWW_CENTER1
 62
     3
370
     9
100
AcDbLine
 10
-735.8153884475294
 20
437.5491497967695
 30
0.0
 11
881.5800847233953
 21
437.5491497967695
 31
0.0
  0
LINE
  5
90
330
1F
100
AcDbEntity
  8
1-0
  6
JWW_CENTER1
 62
     3
370
     9
100
AcDbLine
 10
58.70262352195965
 20
-374.1891891891892
 30
0.0
 11
58.70262352195965
 21
1247.86792652027
 31
0.0
  0
LINE
  5
91
330
1F
100
AcDbEntity
  8
1-0
  6
Continuous
 62
     3
370
     9
100
AcDbLine
 10
375.8610905827703
 20
-684.0348197318411
 30
0.0
 11
376.298811629012
 21
-674.9405402106207
 31
0.0
  0
LINE
  5
92
330
1F
100
AcDbEntity
  8
1-0
  6
Continuous
 62
     3
370
     9
100
AcDbLine
 10
384.7377467799834
 20
-671.5569243559967
 30
0.0
 11
397.8654191300677
 21
-684.0348197318411
 31
0.0
  0
ARC
  5
93
330
1F
100
AcDbEntity
  8
1-0
  6
Continuous
 62
     3
370
     9
100
AcDbCircle
 10
718.7025740339953
 20
-684.0348197318411
 30
0.0
 40
37.00000144339896
100
AcDbArc
 50
0.0
 51
90.0
  0
ARC
  5
94
330
1F
100
AcDbEntity
  8
1-0
  6
Continuous
 62
     3
370
     9
100
AcDbCircle
 10
-601.297326990076
 20
-684.0348197318411
 30
0.0
 40
40.00000051549964
100
AcDbArc
 50
90.0
 51
180.0
  0
ARC
  5
95
330
1F
100
AcDbEntity
  8
1-0
  6
Continuous
 62
     3
370
     9
100
AcDbCircle
 10
-426.2974919499578
 20
-664.0347537478884
 30
0.0
 40
20.00000025774982
100
AcDbArc
 50
0.0
 51
90.0
  0
ARC
  5
96
330
1F
100
AcDbEntity
  8
1-0
  6
Continuous
 62
     3
370
     9
100
AcDbCircle
 10
-426.2974919499578
 20
-664.0347537478884
 30
0.0
 40
17.00000118564915
100
AcDbArc
 50
2.244827270507812
 51
89.99998474121094
  0
ARC
  5
97
330
1F
100
AcDbEntity
  8
1-0
  6
Continuous
 62
     3
370
     9
100
AcDbCircle
 10
-601.297326990076
 20
-684.0348197318411
 30
0.0
 40
37.00000144339896
100
AcDbArc
 50
90.0
 51
180.0
  0
ARC
  5
98
330
1F
100
AcDbEntity
  8
1-0
  6
Continuous
 62
     3
370
     9
100
AcDbCircle
 10
543.7027389938771
 20
-664.0347537478884
 30
0.0
 40
17.00000118564915
100
AcDbArc
 50
90.0
 51
179.999984741211
  0
ARC
  5
99
330
1F
100
AcDbEntity
  8
1-0
  6
Continuous
 62
     3
370
     9
100
AcDbCircle
 10
543.7027389938771
 20
-664.0347537478884
 30
0.0
 40
20.00000025774982
100
AcDbArc
 50
90.0
 51
180.0
  0
ARC
  5
9A
330
1F
100
AcDbEntity
  8
1-0
  6
Continuous
 62
     3
370
     9
100
AcDbCircle
 10
718.7025740339953
 20
-684.0348197318411
 30
0.0
 40
40.00000051549964
100
AcDbArc
 50
0.0
 51
90.0
  0
ARC
  5
9B
330
1F
100
AcDbEntity
  8
1-0
  6
Continuous
 62
     3
370
     9
100
AcDbCircle
 10
-263.8877662452489
 20
-675.1810517182221
 30
0.0
 40
5.000000064437454
100
AcDbArc
 50
2.756790161132812
 51
133.5465545654297
  0
ARC
  5
9C
330
1F
100
AcDbEntity
  8
1-0
  6
JWW_DASHED1
 62
     3
370
     9
100
AcDbCircle
 10
128.702854465794
 20
1040.049158044764
 30
0.0
 40
30.00000038662472
100
AcDbArc
 50
0.0
 51
90.0
  0
ARC
  5
9D
330
1F
100
AcDbEntity
  8
1-0
  6
JWW_DASHED1
 62
     3
370
     9
100
AcDbCircle
 10
128.702854465794
 20
1000.049273516681
 30
0.0
 40
30.00000038662472
100
AcDbArc
 50
270.0
 51
0.0
  0
ARC
  5
9E
330
1F
100
AcDbEntity
  8
1-0
  6
JWW_DASHED1
 62
     3
370
     9
100
AcDbCircle
 10
-11.29711254222968
 20
-164.9509821711359
 30
0.0
 40
30.00000038662472
100
AcDbArc
 50
180.0
 51
270.0
  0
ARC
  5
9F
330
1F
100
AcDbEntity
  8
1-0
  6
JWW_DASHED1
 62
     3
370
     9
100
AcDbCircle
 10
-11.29711254222968
 20
-124.9510976430531
 30
0.0
 40
30.00000038662472
100
AcDbArc
 50
90.0
 51
180.0
  0
CIRCLE
  5
A0
330
1F
100
AcDbEntity
  8
1-0
  6
Continuous
 62
     3
370
     9
100
AcDbCircle
 10
58.70262352195965
 20
437.5490260768584
 30
0.0
 40
465.0000185579867
  0
ARC
  5
A1
330
1F
100
AcDbEntity
  8
1-0
  6
Continuous
 62
     3
370
     9
100
AcDbCircle
 10
-261.7938067461992
 20
758.0959340688346
 30
0.0
 40
5.000000064437454
100
AcDbArc
 50
261.8698883056641
 51
7.640899658203159
  0
ARC
  5
A2
330
1F
100
AcDbEntity
  8
1-0
  6
Continuous
 62
     3
370
     9
100
AcDbCircle
 10
-261.8441607501055
 20
117.0527195286107
 30
0.0
 40
5.000000064437454
100
AcDbArc
 50
351.8698883056641
 51
97.64089965820315
  0
ARC
  5
A3
330
1F
100
AcDbEntity
  8
1-0
  6
Continuous
 62
     3
370
     9
100
AcDbCircle
 10
379.1990537901185
 20
117.0023655247044
 30
0.0
 40
5.000000064437454
100
AcDbArc
 50
81.86988830566409
 51
187.6408996582032
  0
ARC
  5
A4
330
1F
100
AcDbEntity
  8
1-0
  6
Continuous
 62
     3
370
     9
100
AcDbCircle
 10
379.2495315139359
 20
758.0454563450169
 30
0.0
 40
5.000000064437454
100
AcDbArc
 50
171.8698883056641
 51
277.6408996582031
  0
CIRCLE
  5
A5
330
1F
100
AcDbEntity
  8
1-0
  6
Continuous
 62
     3
370
     9
100
AcDbCircle
 10
58.70262352195965
 20
437.5490260768584
 30
0.0
 40
700.0000206199853
  0
ARC
  5
A6
330
1F
100
AcDbEntity
  8
1-0
  6
Continuous
 62
     3
370
     9
100
AcDbCircle
 10
381.2928895692568
 20
-675.1810517182221
 30
0.0
 40
5.000000064437454
100
AcDbArc
 50
46.45344543457033
 51
177.2432098388672
  0
TEXT
  5
A7
330
1F
100
AcDbEntity
  8
1-4
  6
Continuous
 62
     2
370
     9
100
AcDbText
 10
850.1122387035474
 20
-542.5174476087416
 30
0.0
 40
30.48
  1
ＳＵＳ３０４
 41
1.104166666666667
  7
ＭＳ ゴシック
100
AcDbText
  0
TEXT
  5
A8
330
1F
100
AcDbEntity
  8
1-0
  6
Continuous
 62
     2
370
     9
100
AcDbText
 10
1408.713527370144
 20
-1049.841088999155
 30
0.0
 40
30.48
  1
処理：２Ｂ仕上
 41
1.107142857142857
  7
ＭＳ ゴシック
100
AcDbText
  0
TEXT
  5
A9
330
1F
100
AcDbEntity
  8
1-4
  6
Continuous
 62
     2
370
     9
100
AcDbText
 10
893.0626734470379
 20
-674.0347849243987
 30
0.0
 40
30.48
  1
4
 50
90.00000250447816
 41
1.000000000000001
  7
ＭＳ ゴシック
100
AcDbText
  0
TEXT
  5
AA
330
1F
100
AcDbEntity
  8
1-4
  6
Continuous
 62
     2
370
     9
100
AcDbText
 10
871.7992751662797
 20
-470.6715011679159
 30
0.0
 40
30.48
  1
ｔ＝０．３
 41
1.1
  7
ＭＳ ゴシック
100
AcDbText
  0
TEXT
  5
AB
330
1F
100
AcDbEntity
  8
1-4
  6
Continuous
 62
     2
370
     9
100
AcDbText
 10
14.95274724187098
 20
-818.3948485998204
 30
0.0
 40
30.48
  1
φ93
 41
1.09375
  7
ＭＳ ゴシック
100
AcDbText
  0
TEXT
  5
AC
330
1F
100
AcDbEntity
  8
1-4
  6
Continuous
 62
     2
370
     9
100
AcDbText
 10
3.702747241870838
 20
-918.3948692198057
 30
0.0
 40
30.48
  1
φ140
 41
1.1
  7
ＭＳ ゴシック
100
AcDbText
  0
TEXT
  5
AD
330
1F
100
AcDbEntity
  8
F-5
  6
Continuous
 62
     2
370
     9
100
AcDbText
 10
-729.607416101404
 20
-1353.465154501425
 30
0.0
 40
30.48
  1
ステンレスシーリングプレート　ＫＳ－９－７５
 41
1.119318181818182
  7
ＭＳ ゴシック
100
AcDbText
  0
ENDSEC
  0
SECTION
  2
OBJECTS
  0
DICTIONARY
  5
C
330
0
100
AcDbDictionary
281
     1
  3
ACAD_GROUP
350
D
  3
ACAD_LAYOUT
350
1A
  3
ACAD_MLEADERSTYLE
350
AF
  3
ACAD_MLINESTYLE
350
17
  3
ACAD_PLOTSETTINGS
350
19
  3
ACAD_PLOTSTYLENAME
350
E
  3
ACAD_TABLESTYLE
350
AE
  3
ACAD_VISUALSTYLE
350
2A
  3
AcDbVariableDictionary
350
B0
  0
DICTIONARY
  5
D
102
{ACAD_REACTORS
330
C
102
}
330
C
100
AcDbDictionary
281
     1
  0
DICTIONARY
  5
1A
102
{ACAD_REACTORS
330
C
102
}
330
C
100
AcDbDictionary
281
     1
  3
Layout1
350
1E
  3
Layout2
350
26
  3
Model
350
22
  0
DICTIONARY
  5
AF
102
{ACAD_REACTORS
330
C
102
}
330
C
100
AcDbDictionary
281
     1
  0
DICTIONARY
  5
17
102
{ACAD_REACTORS
330
C
102
}
330
C
100
AcDbDictionary
281
     1
  3
Standard
350
18
  0
DICTIONARY
  5
19
102
{ACAD_REACTORS
330
C
102
}
330
C
100
AcDbDictionary
281
     1
  0
ACDBDICTIONARYWDFLT
  5
E
102
{ACAD_REACTORS
330
C
102
}
330
C
100
AcDbDictionary
281
     1
  3
Normal
350
F
100
AcDbDictionaryWithDefault
340
F
  0
DICTIONARY
  5
AE
102
{ACAD_REACTORS
330
C
102
}
330
C
100
AcDbDictionary
281
     1
  0
DICTIONARY
  5
2A
102
{ACAD_REACTORS
330
C
102
}
330
C
100
AcDbDictionary
281
     1
  3
2dWireframe
350
2F
  3
3D Hidden
350
31
  3
3dWireframe
350
30
  3
Basic
350
32
  3
Brighten
350
36
  3
ColorChange
350
3A
  3
Conceptual
350
34
  3
Dim
350
35
  3
Facepattern
350
39
  3
Flat
350
2B
  3
FlatWithEdges
350
2C
  3
Gouraud
350
2D
  3
GouraudWithEdges
350
2E
  3
Linepattern
350
38
  3
Realistic
350
33
  3
Thicken
350
37
  0
DICTIONARY
  5
B0
102
{ACAD_REACTORS
330
C
102
}
330
C
100
AcDbDictionary
281
     1
  3
PSOLHEIGHT
350
B2
  3
PSOLWIDTH
350
B1
  0
LAYOUT
  5
1E
102
{ACAD_REACTORS
330
1A
102
}
102
{ACAD_XDICTIONARY
360
B3
102
}
330
1A
100
AcDbPlotSettings
  1

  2
none_device
  4

  6

 40
0.0
 41
0.0
 42
0.0
 43
0.0
 44
0.0
 45
0.0
 46
0.0
 47
0.0
 48
0.0
 49
0.0
140
0.0
141
0.0
142
1.0
143
1.0
 70
   688
 72
     0
 73
     0
 74
     5
  7

 75
    16
147
1.0
148
0.0
149
0.0
100
AcDbLayout
  1
Layout1
 70
     1
 71
     1
 10
0.0
 20
0.0
 11
420.0
 21
297.0
 12
0.0
 22
0.0
 32
0.0
 14
1.000000000000000E+20
 24
1.000000000000000E+20
 34
1.000000000000000E+20
 15
-1.000000000000000E+20
 25
-1.000000000000000E+20
 35
-1.000000000000000E+20
146
0.0
 13
0.0
 23
0.0
 33
0.0
 16
1.0
 26
0.0
 36
0.0
 17
0.0
 27
1.0
 37
0.0
 76
     0
330
1B
  0
LAYOUT
  5
26
102
{ACAD_REACTORS
330
1A
102
}
102
{ACAD_XDICTIONARY
360
B7
102
}
330
1A
100
AcDbPlotSettings
  1

  2
none_device
  4

  6

 40
0.0
 41
0.0
 42
0.0
 43
0.0
 44
0.0
 45
0.0
 46
0.0
 47
0.0
 48
0.0
 49
0.0
140
0.0
141
0.0
142
1.0
143
1.0
 70
   688
 72
     0
 73
     0
 74
     5
  7

 75
    16
147
1.0
148
0.0
149
0.0
100
AcDbLayout
  1
Layout2
 70
     1
 71
     2
 10
0.0
 20
0.0
 11
0.0
 21
0.0
 12
0.0
 22
0.0
 32
0.0
 14
0.0
 24
0.0
 34
0.0
 15
0.0
 25
0.0
 35
0.0
146
0.0
 13
0.0
 23
0.0
 33
0.0
 16
1.0
 26
0.0
 36
0.0
 17
0.0
 27
1.0
 37
0.0
 76
     0
330
23
  0
LAYOUT
  5
22
102
{ACAD_REACTORS
330
1A
102
}
102
{ACAD_XDICTIONARY
360
B5
102
}
330
1A
100
AcDbPlotSettings
  1

  2
none_device
  4

  6

 40
0.0
 41
0.0
 42
0.0
 43
0.0
 44
0.0
 45
0.0
 46
0.0
 47
0.0
 48
0.0
 49
0.0
140
0.0
141
0.0
142
1.0
143
1.0
 70
  1712
 72
     0
 73
     0
 74
     0
  7

 75
     0
147
1.0
148
0.0
149
0.0
100
AcDbLayout
  1
Model
 70
     1
 71
     0
 10
-2100.0
 20
-1485.0
 11
2100.0
 21
1485.0
 12
0.0
 22
0.0
 32
0.0
 14
-2100.0
 24
-1485.0
 34
0.0
 15
2100.0
 25
1485.0
 35
0.0
146
0.0
 13
0.0
 23
0.0
 33
0.0
 16
1.0
 26
0.0
 36
0.0
 17
0.0
 27
1.0
 37
0.0
 76
     0
330
1F
331
29
  0
MLINESTYLE
  5
18
102
{ACAD_REACTORS
330
17
102
}
330
17
100
AcDbMlineStyle
  2
Standard
 70
     0
  3

 62
   256
 51
90.0
 52
90.0
 71
     2
 49
0.5
 62
   256
  6
BYLAYER
 49
-0.5
 62
   256
  6
BYLAYER
  0
ACDBPLACEHOLDER
  5
F
102
{ACAD_REACTORS
330
E
102
}
330
E
  0
VISUALSTYLE
  5
2F
102
{ACAD_REACTORS
330
2A
102
}
330
2A
100
AcDbVisualStyle
  2
2dWireframe
 70
     4
 71
     0
 72
     2
 73
     0
 90
        0
 40
-0.6
 41
-30.0
 62
     5
 63
     7
 74
     1
 91
        4
 64
     7
 65
   257
 75
     1
175
     1
 42
1.0
 92
        0
 66
   257
 43
1.0
 76
     1
 77
     6
 78
     2
 67
     7
 79
     5
170
     0
171
     0
290
     0
174
     0
 93
        1
 44
0.0
173
     0
291
     0
 45
0.0
1001
ACAD
1000
AcDbSavedByObjectVersion
1070
     0
  0
VISUALSTYLE
  5
31
102
{ACAD_REACTORS
330
2A
102
}
330
2A
100
AcDbVisualStyle
  2
3D Hidden
 70
     6
 71
     1
 72
     2
 73
     2
 90
        0
 40
-0.6
 41
-30.0
 62
     5
 63
     7
 74
     2
 91
        2
 64
     7
 65
   257
 75
     2
175
     1
 42
40.0
 92
        0
 66
   257
 43
1.0
 76
     1
 77
     6
 78
     2
 67
     7
 79
     3
170
     0
171
     0
290
     0
174
     0
 93
        1
 44
0.0
173
     0
291
     0
 45
0.0
1001
ACAD
1000
AcDbSavedByObjectVersion
1070
     0
  0
VISUALSTYLE
  5
30
102
{ACAD_REACTORS
330
2A
102
}
330
2A
100
AcDbVisualStyle
  2
3dWireframe
 70
     5
 71
     0
 72
     2
 73
     0
 90
        0
 40
-0.6
 41
-30.0
 62
     5
 63
     7
 74
     1
 91
        4
 64
     7
 65
   257
 75
     1
175
     1
 42
1.0
 92
        0
 66
   257
 43
1.0
 76
     1
 77
     6
 78
     2
 67
     7
 79
     5
170
     0
171
     0
290
     0
174
     0
 93
        1
 44
0.0
173
     0
291
     0
 45
0.0
1001
ACAD
1000
AcDbSavedByObjectVersion
1070
     0
  0
VISUALSTYLE
  5
32
102
{ACAD_REACTORS
330
2A
102
}
330
2A
100
AcDbVisualStyle
  2
Basic
 70
     7
 71
     1
 72
     0
 73
     1
 90
        0
 40
-0.6
 41
-30.0
 62
     5
 63
     7
 74
     0
 91
        4
 64
     7
 65
   257
 75
     1
175
     1
 42
1.0
 92
        8
 66
     7
 43
1.0
 76
     1
 77
     6
 78
     2
 67
     7
 79
     5
170
     0
171
     0
290
     0
174
     0
 93
        1
 44
0.0
173
     0
291
     1
 45
0.0
1001
ACAD
1000
AcDbSavedByObjectVersion
1070
     0
  0
VISUALSTYLE
  5
36
102
{ACAD_REACTORS
330
2A
102
}
330
2A
100
AcDbVisualStyle
  2
Brighten
 70
    12
 71
     2
 72
     2
 73
     0
 90
        0
 40
-0.6
 41
-30.0
 62
     5
 63
     7
 74
     1
 91
        4
 64
     7
 65
   257
 75
     1
175
     1
 42
1.0
 92
        8
 66
     7
 43
1.0
 76
     1
 77
     6
 78
     2
 67
     7
 79
     5
170
     0
171
     0
290
     0
174
     0
 93
        1
 44
50.0
173
     0
291
     1
 45
0.0
1001
ACAD
1000
AcDbSavedByObjectVersion
1070
     0
  0
VISUALSTYLE
  5
3A
102
{ACAD_REACTORS
330
2A
102
}
330
2A
100
AcDbVisualStyle
  2
ColorChange
 70
    16
 71
     2
 72
     2
 73
     3
 90
        0
 40
-0.6
 41
-30.0
 62
     5
 63
     8
 74
     1
 91
        4
 64
     7
 65
   257
 75
     1
175
     1
 42
1.0
 92
        8
 66
     8
 43
1.0
 76
     1
 77
     6
 78
     2
 67
     7
 79
     5
170
     0
171
     0
290
     0
174
     0
 93
        1
 44
0.0
173
     0
291
     1
 45
0.0
1001
ACAD
1000
AcDbSavedByObjectVersion
1070
     0
  0
VISUALSTYLE
  5
34
102
{ACAD_REACTORS
330
2A
102
}
330
2A
100
AcDbVisualStyle
  2
Conceptual
 70
     9
 71
     3
 72
     2
 73
     0
 90
        0
 40
-0.6
 41
-30.0
 62
     5
 63
     7
 74
     2
 91
        2
 64
     7
 65
   257
 75
     1
175
     1
 42
40.0
 92
        8
 66
     7
 43
1.0
 76
     1
 77
     6
 78
     2
 67
     7
 79
     3
170
     0
171
     0
290
     0
174
     0
 93
        1
 44
0.0
173
     0
291
     0
 45
0.0
1001
ACAD
1000
AcDbSavedByObjectVersion
1070
     0
  0
VISUALSTYLE
  5
35
102
{ACAD_REACTORS
330
2A
102
}
330
2A
100
AcDbVisualStyle
  2
Dim
 70
    11
 71
     2
 72
     2
 73
     0
 90
        0
 40
-0.6
 41
-30.0
 62
     5
 63
     7
 74
     1
 91
        4
 64
     7
 65
   257
 75
     1
175
     1
 42
1.0
 92
        8
 66
     7
 43
1.0
 76
     1
 77
     6
 78
     2
 67
     7
 79
     5
170
     0
171
     0
290
     0
174
     0
 93
        1
 44
-50.0
173
     0
291
     1
 45
0.0
1001
ACAD
1000
AcDbSavedByObjectVersion
1070
     0
  0
VISUALSTYLE
  5
39
102
{ACAD_REACTORS
330
2A
102
}
330
2A
100
AcDbVisualStyle
  2
Facepattern
 70
    15
 71
     2
 72
     2
 73
     0
 90
        0
 40
-0.6
 41
-30.0
 62
     5
 63
     7
 74
     1
 91
        4
 64
     7
 65
   257
 75
     1
175
     1
 42
1.0
 92
        8
 66
     7
 43
1.0
 76
     1
 77
     6
 78
     2
 67
     7
 79
     5
170
     0
171
     0
290
     0
174
     0
 93
        1
 44
0.0
173
     0
291
     1
 45
0.0
1001
ACAD
1000
AcDbSavedByObjectVersion
1070
     0
  0
VISUALSTYLE
  5
2B
102
{ACAD_REACTORS
330
2A
102
}
330
2A
100
AcDbVisualStyle
  2
Flat
 70
     0
 71
     2
 72
     1
 73
     1
 90
        2
 40
-0.6
 41
30.0
 62
     5
 63
     7
 74
     0
 91
        4
 64
     7
 65
   257
 75
     1
175
     1
 42
1.0
 92
        8
 66
     7
 43
1.0
 76
     1
 77
     6
 78
     2
 67
     7
 79
     5
170
     0
171
     0
290
     0
174
     0
 93
       13
 44
0.0
173
     0
291
     1
 45
0.0
1001
ACAD
1000
AcDbSavedByObjectVersion
1070
     0
  0
VISUALSTYLE
  5
2C
102
{ACAD_REACTORS
330
2A
102
}
330
2A
100
AcDbVisualStyle
  2
FlatWithEdges
 70
     1
 71
     2
 72
     1
 73
     1
 90
        2
 40
-0.6
 41
30.0
 62
     5
 63
     7
 74
     1
 91
        4
 64
     7
 65
   257
 75
     1
175
     1
 42
1.0
 92
        0
 66
   257
 43
1.0
 76
     1
 77
     6
 78
     2
 67
     7
 79
     5
170
     0
171
     0
290
     0
174
     0
 93
       13
 44
0.0
173
     0
291
     1
 45
0.0
1001
ACAD
1000
AcDbSavedByObjectVersion
1070
     0
  0
VISUALSTYLE
  5
2D
102
{ACAD_REACTORS
330
2A
102
}
330
2A
100
AcDbVisualStyle
  2
Gouraud
 70
     2
 71
     2
 72
     2
 73
     1
 90
        2
 40
-0.6
 41
30.0
 62
     5
 63
     7
 74
     0
 91
        4
 64
     7
 65
   257
 75
     1
175
     1
 42
1.0
 92
        0
 66
     7
 43
1.0
 76
     1
 77
     6
 78
     2
 67
     7
 79
     5
170
     0
171
     0
290
     0
174
     0
 93
       13
 44
0.0
173
     0
291
     1
 45
0.0
1001
ACAD
1000
AcDbSavedByObjectVersion
1070
     0
  0
VISUALSTYLE
  5
2E
102
{ACAD_REACTORS
330
2A
102
}
330
2A
100
AcDbVisualStyle
  2
GouraudWithEdges
 70
     3
 71
     2
 72
     2
 73
     1
 90
        2
 40
-0.6
 41
30.0
 62
     5
 63
     7
 74
     1
 91
        4
 64
     7
 65
   257
 75
     1
175
     1
 42
1.0
 92
        0
 66
   257
 43
1.0
 76
     1
 77
     6
 78
     2
 67
     7
 79
     5
170
     0
171
     0
290
     0
174
     0
 93
       13
 44
0.0
173
     0
291
     1
 45
0.0
1001
ACAD
1000
AcDbSavedByObjectVersion
1070
     0
  0
VISUALSTYLE
  5
38
102
{ACAD_REACTORS
330
2A
102
}
330
2A
100
AcDbVisualStyle
  2
Linepattern
 70
    14
 71
     2
 72
     2
 73
     0
 90
        0
 40
-0.6
 41
-30.0
 62
     5
 63
     7
 74
     1
 91
        4
 64
     7
 65
   257
 75
     7
175
     7
 42
1.0
 92
        8
 66
     7
 43
1.0
 76
     1
 77
     6
 78
     2
 67
     7
 79
     5
170
     0
171
     0
290
     0
174
     0
 93
        1
 44
0.0
173
     0
291
     1
 45
0.0
1001
ACAD
1000
AcDbSavedByObjectVersion
1070
     0
  0
VISUALSTYLE
  5
33
102
{ACAD_REACTORS
330
2A
102
}
330
2A
100
AcDbVisualStyle
  2
Realistic
 70
     8
 71
     2
 72
     2
 73
     0
 90
        0
 40
-0.6
 41
-30.0
 62
     5
 63
     7
 74
     1
 91
        0
 64
     7
 65
   257
 75
     1
175
     1
 42
1.0
 92
        8
 66
     8
 43
1.0
 76
     1
 77
     6
 78
     2
 67
     7
 79
     5
170
     0
171
     0
290
     0
174
     0
 93
       13
 44
0.0
173
     0
291
     0
 45
0.0
1001
ACAD
1000
AcDbSavedByObjectVersion
1070
     0
  0
VISUALSTYLE
  5
37
102
{ACAD_REACTORS
330
2A
102
}
330
2A
100
AcDbVisualStyle
  2
Thicken
 70
    13
 71
     2
 72
     2
 73
     0
 90
        0
 40
-0.6
 41
-30.0
 62
     5
 63
     7
 74
     1
 91
        4
 64
     7
 65
   257
 75
     1
175
     1
 42
1.0
 92
       12
 66
     7
 43
1.0
 76
     1
 77
     6
 78
     2
 67
     7
 79
     5
170
     0
171
     0
290
     0
174
     0
 93
        1
 44
0.0
173
     0
291
     1
 45
0.0
1001
ACAD
1000
AcDbSavedByObjectVersion
1070
     0
  0
DICTIONARYVAR
  5
B2
102
{ACAD_REACTORS
330
B0
102
}
330
B0
100
DictionaryVariables
280
     0
  1
80.000000
  0
DICTIONARYVAR
  5
B1
102
{ACAD_REACTORS
330
B0
102
}
330
B0
100
DictionaryVariables
280
     0
  1
5.000000
  0
DICTIONARY
  5
B3
330
1E
100
AcDbDictionary
280
     1
281
     1
  3
ACAD_XREC_ROUNDTRIP
360
B4
  0
DICTIONARY
  5
B7
330
26
100
AcDbDictionary
280
     1
281
     1
  3
ACAD_XREC_ROUNDTRIP
360
B8
  0
DICTIONARY
  5
B5
330
22
100
AcDbDictionary
280
     1
281
     1
  3
ACAD_XREC_ROUNDTRIP
360
B6
  0
XRECORD
  5
B4
102
{ACAD_REACTORS
330
B3
102
}
330
B3
100
AcDbXrecord
280
     1
102
SHADEPLOT
 70
     0
102
SHADEPLOTRESLEVEL
 70
     5
102
SHADEPLOTCUSTOMDPI
 70
   300
  0
XRECORD
  5
B8
102
{ACAD_REACTORS
330
B7
102
}
330
B7
100
AcDbXrecord
280
     1
102
SHADEPLOT
 70
     0
102
SHADEPLOTRESLEVEL
 70
     5
102
SHADEPLOTCUSTOMDPI
 70
   300
  0
XRECORD
  5
B6
102
{ACAD_REACTORS
330
B5
102
}
330
B5
100
AcDbXrecord
280
     1
102
SHADEPLOT
 70
     0
102
SHADEPLOTRESLEVEL
 70
     5
102
SHADEPLOTCUSTOMDPI
 70
   300
  0
ENDSEC
  0
EOF
