  0
SECTION
  2
HEADER
  9
$ACADVER
  1
AC1018
  9
$ACADMAINTVER
 70
     0
  9
$DWGCODEPAGE
  3
ANSI_932
  9
$INSBASE
 10
0.0
 20
0.0
 30
0.0
  9
$EXTMIN
 10
-1050.0
 20
-742.5
 30
0.0
  9
$EXTMAX
 10
1050.0
 20
742.5
 30
0.0
  9
$LIMMIN
 10
-1050.0
 20
-742.5
  9
$LIMMAX
 10
1050.0
 20
742.5
  9
$ORTHOMODE
 70
     0
  9
$REGENMODE
 70
     1
  9
$FILLMODE
 70
     1
  9
$QTEXTMODE
 70
     0
  9
$MIRRTEXT
 70
     1
  9
$LTSCALE
 40
5.0
  9
$ATTMODE
 70
     1
  9
$TEXTSIZE
 40
2.5
  9
$TRACEWID
 40
1.0
  9
$TEXTSTYLE
  7
Standard
  9
$CLAYER
  8
0
  9
$CELTYPE
  6
ByLayer
  9
$CECOLOR
 62
   256
  9
$CELTSCALE
 40
1.0
  9
$DISPSILH
 70
     0
  9
$DIMSCALE
 40
1.0
  9
$DIMASZ
 40
2.5
  9
$DIMEXO
 40
0.625
  9
$DIMDLI
 40
3.75
  9
$DIMRND
 40
0.0
  9
$DIMDLE
 40
0.0
  9
$DIMEXE
 40
1.25
  9
$DIMTP
 40
0.0
  9
$DIMTM
 40
0.0
  9
$DIMTXT
 40
2.5
  9
$DIMCEN
 40
2.5
  9
$DIMTSZ
 40
0.0
  9
$DIMTOL
 70
     0
  9
$DIMLIM
 70
     0
  9
$DIMTIH
 70
     0
  9
$DIMTOH
 70
     0
  9
$DIMSE1
 70
     0
  9
$DIMSE2
 70
     0
  9
$DIMTAD
 70
     1
  9
$DIMZIN
 70
     8
  9
$DIMBLK
  1

  9
$DIMASO
 70
     1
  9
$DIMSHO
 70
     1
  9
$DIMPOST
  1

  9
$DIMAPOST
  1

  9
$DIMALT
 70
     0
  9
$DIMALTD
 70
     3
  9
$DIMALTF
 40
0.03937007874016
  9
$DIMLFAC
 40
1.0
  9
$DIMTOFL
 70
     1
  9
$DIMTVP
 40
0.0
  9
$DIMTIX
 70
     0
  9
$DIMSOXD
 70
     0
  9
$DIMSAH
 70
     0
  9
$DIMBLK1
  1

  9
$DIMBLK2
  1

  9
$DIMSTYLE
  2
ISO-25
  9
$DIMCLRD
 70
     0
  9
$DIMCLRE
 70
     0
  9
$DIMCLRT
 70
     0
  9
$DIMTFAC
 40
1.0
  9
$DIMGAP
 40
0.625
  9
$DIMJUST
 70
     0
  9
$DIMSD1
 70
     0
  9
$DIMSD2
 70
     0
  9
$DIMTOLJ
 70
     0
  9
$DIMTZIN
 70
     8
  9
$DIMALTZ
 70
     0
  9
$DIMALTTZ
 70
     0
  9
$DIMUPT
 70
     0
  9
$DIMDEC
 70
     2
  9
$DIMTDEC
 70
     2
  9
$DIMALTU
 70
     2
  9
$DIMALTTD
 70
     3
  9
$DIMTXSTY
  7
Standard
  9
$DIMAUNIT
 70
     0
  9
$DIMADEC
 70
     0
  9
$DIMALTRND
 40
0.0
  9
$DIMAZIN
 70
     0
  9
$DIMDSEP
 70
    44
  9
$DIMATFIT
 70
     3
  9
$DIMFRAC
 70
     0
  9
$DIMLDRBLK
  1

  9
$DIMLUNIT
 70
     2
  9
$DIMLWD
 70
    -2
  9
$DIMLWE
 70
    -2
  9
$DIMTMOVE
 70
     0
  9
$LUNITS
 70
     2
  9
$LUPREC
 70
     4
  9
$SKETCHINC
 40
1.0
  9
$FILLETRAD
 40
10.0
  9
$AUNITS
 70
     0
  9
$AUPREC
 70
     0
  9
$MENU
  1
.
  9
$ELEVATION
 40
0.0
  9
$PELEVATION
 40
0.0
  9
$THICKNESS
 40
0.0
  9
$LIMCHECK
 70
     0
  9
$CHAMFERA
 40
10.0
  9
$CHAMFERB
 40
10.0
  9
$CHAMFERC
 40
20.0
  9
$CHAMFERD
 40
0.0
  9
$SKPOLY
 70
     0
  9
$TDCREATE
 40
2457352.39880353
  9
$TDUCREATE
 40
2457352.02380353
  9
$TDUPDATE
 40
2457352.398803541
  9
$TDUUPDATE
 40
2457352.023803541
  9
$TDINDWG
 40
0.0000000116
  9
$TDUSRTIMER
 40
0.0000000116
  9
$USRTIMER
 70
     1
  9
$ANGBASE
 50
0.0
  9
$ANGDIR
 70
     0
  9
$PDMODE
 70
     0
  9
$PDSIZE
 40
0.0
  9
$PLINEWID
 40
0.0
  9
$SPLFRAME
 70
     0
  9
$SPLINETYPE
 70
     6
  9
$SPLINESEGS
 70
     8
  9
$HANDSEED
  5
4DE
  9
$SURFTAB1
 70
     6
  9
$SURFTAB2
 70
     6
  9
$SURFTYPE
 70
     6
  9
$SURFU
 70
     6
  9
$SURFV
 70
     6
  9
$UCSBASE
  2

  9
$UCSNAME
  2

  9
$UCSORG
 10
0.0
 20
0.0
 30
0.0
  9
$UCSXDIR
 10
1.0
 20
0.0
 30
0.0
  9
$UCSYDIR
 10
0.0
 20
1.0
 30
0.0
  9
$UCSORTHOREF
  2

  9
$UCSORTHOVIEW
 70
     0
  9
$UCSORGTOP
 10
0.0
 20
0.0
 30
0.0
  9
$UCSORGBOTTOM
 10
0.0
 20
0.0
 30
0.0
  9
$UCSORGLEFT
 10
0.0
 20
0.0
 30
0.0
  9
$UCSORGRIGHT
 10
0.0
 20
0.0
 30
0.0
  9
$UCSORGFRONT
 10
0.0
 20
0.0
 30
0.0
  9
$UCSORGBACK
 10
0.0
 20
0.0
 30
0.0
  9
$PUCSBASE
  2

  9
$PUCSNAME
  2

  9
$PUCSORG
 10
0.0
 20
0.0
 30
0.0
  9
$PUCSXDIR
 10
1.0
 20
0.0
 30
0.0
  9
$PUCSYDIR
 10
0.0
 20
1.0
 30
0.0
  9
$PUCSORTHOREF
  2

  9
$PUCSORTHOVIEW
 70
     0
  9
$PUCSORGTOP
 10
0.0
 20
0.0
 30
0.0
  9
$PUCSORGBOTTOM
 10
0.0
 20
0.0
 30
0.0
  9
$PUCSORGLEFT
 10
0.0
 20
0.0
 30
0.0
  9
$PUCSORGRIGHT
 10
0.0
 20
0.0
 30
0.0
  9
$PUCSORGFRONT
 10
0.0
 20
0.0
 30
0.0
  9
$PUCSORGBACK
 10
0.0
 20
0.0
 30
0.0
  9
$USERI1
 70
     0
  9
$USERI2
 70
     0
  9
$USERI3
 70
     0
  9
$USERI4
 70
     0
  9
$USERI5
 70
     0
  9
$USERR1
 40
0.0
  9
$USERR2
 40
0.0
  9
$USERR3
 40
0.0
  9
$USERR4
 40
0.0
  9
$USERR5
 40
0.0
  9
$WORLDVIEW
 70
     1
  9
$SHADEDGE
 70
     3
  9
$SHADEDIF
 70
    70
  9
$TILEMODE
 70
     1
  9
$MAXACTVP
 70
    64
  9
$PINSBASE
 10
0.0
 20
0.0
 30
0.0
  9
$PLIMCHECK
 70
     0
  9
$PEXTMIN
 10
1.000000000000000E+20
 20
1.000000000000000E+20
 30
1.000000000000000E+20
  9
$PEXTMAX
 10
-1.000000000000000E+20
 20
-1.000000000000000E+20
 30
-1.000000000000000E+20
  9
$PLIMMIN
 10
0.0
 20
0.0
  9
$PLIMMAX
 10
420.0
 20
297.0
  9
$UNITMODE
 70
     0
  9
$VISRETAIN
 70
     1
  9
$PLINEGEN
 70
     0
  9
$PSLTSCALE
 70
     1
  9
$TREEDEPTH
 70
  3020
  9
$CMLSTYLE
  2
Standard
  9
$CMLJUST
 70
     0
  9
$CMLSCALE
 40
20.0
  9
$PROXYGRAPHICS
 70
     1
  9
$MEASUREMENT
 70
     1
  9
$CELWEIGHT
370
    -1
  9
$ENDCAPS
280
     0
  9
$JOINSTYLE
280
     0
  9
$LWDISPLAY
290
     0
  9
$INSUNITS
 70
     4
  9
$HYPERLINKBASE
  1

  9
$STYLESHEET
  1

  9
$XEDIT
290
     1
  9
$CEPSNTYPE
380
     0
  9
$PSTYLEMODE
290
     1
  9
$FINGERPRINTGUID
  2
{553BBB36-AD49-4DB1-8194-501BC29AA4B4}
  9
$VERSIONGUID
  2
{FAEB1C32-E019-11D5-929B-00C0DF256EC4}
  9
$EXTNAMES
290
     1
  9
$PSVPSCALE
 40
0.0
  9
$OLESTARTUP
290
     0
  9
$SORTENTS
280
   127
  9
$INDEXCTL
280
     0
  9
$HIDETEXT
280
     1
  9
$XCLIPFRAME
290
     0
  9
$HALOGAP
280
     0
  9
$OBSCOLOR
 70
   257
  9
$OBSLTYPE
280
     0
  9
$INTERSECTIONDISPLAY
280
     0
  9
$INTERSECTIONCOLOR
 70
   257
  9
$DIMASSOC
280
     2
  9
$PROJECTNAME
  1

  0
ENDSEC
  0
SECTION
  2
CLASSES
  0
CLASS
  1
ACDBDICTIONARYWDFLT
  2
AcDbDictionaryWithDefault
  3
ObjectDBX Classes
 90
        0
 91
        4
280
     0
281
     0
  0
CLASS
  1
VISUALSTYLE
  2
AcDbVisualStyle
  3
ObjectDBX Classes
 90
     4095
 91
        4
280
     0
281
     0
  0
ENDSEC
  0
SECTION
  2
TABLES
  0
TABLE
  2
VPORT
  5
8
330
0
100
AcDbSymbolTable
 70
     1
  0
VPORT
  5
29
330
8
100
AcDbSymbolTableRecord
100
AcDbViewportTableRecord
  2
*Active
 70
     0
 10
0.0
 20
0.0
 11
1.0
 21
1.0
 12
0.0
 22
0.0
 13
0.0
 23
0.0
 14
10.0
 24
10.0
 15
10.0
 25
10.0
 16
0.0
 26
0.0
 36
1.0
 17
0.0
 27
0.0
 37
0.0
 40
1633.5
 41
1.414141414141414
 42
50.0
 43
0.0
 44
0.0
 50
0.0
 51
0.0
 71
     0
 72
 10000
 73
     1
 74
     3
 75
     0
 76
     0
 77
     0
 78
     0
281
     0
 65
     1
110
0.0
120
0.0
130
0.0
111
1.0
121
0.0
131
0.0
112
0.0
122
1.0
132
0.0
 79
     0
146
0.0
  0
ENDTAB
  0
TABLE
  2
LTYPE
  5
5
330
0
100
AcDbSymbolTable
 70
     5
  0
LTYPE
  5
14
330
5
100
AcDbSymbolTableRecord
100
AcDbLinetypeTableRecord
  2
ByBlock
 70
     0
  3

 72
    65
 73
     0
 40
0.0
  0
LTYPE
  5
15
330
5
100
AcDbSymbolTableRecord
100
AcDbLinetypeTableRecord
  2
ByLayer
 70
     0
  3

 72
    65
 73
     0
 40
0.0
  0
LTYPE
  5
16
330
5
100
AcDbSymbolTableRecord
100
AcDbLinetypeTableRecord
  2
Continuous
 70
     0
  3
Solid line
 72
    65
 73
     0
 40
0.0
  0
LTYPE
  5
3C
330
5
100
AcDbSymbolTableRecord
100
AcDbLinetypeTableRecord
  2
JWW_CENTER1
 70
     0
  3
-----  --  ----------  --  -----
 72
    65
 73
     4
 40
6.773333333333333
 49
4.233333333333333
 74
     0
 49
-0.8466666666666667
 74
     0
 49
0.8466666666666667
 74
     0
 49
-0.8466666666666667
 74
     0
  0
LTYPE
  5
3D
330
5
100
AcDbSymbolTableRecord
100
AcDbLinetypeTableRecord
  2
JWW_DASHED1
 70
     0
  3
-  --  --  --  --  --  --  --  -
 72
    65
 73
     2
 40
1.693333333333333
 49
0.8466666666666667
 74
     0
 49
-0.8466666666666667
 74
     0
  0
LTYPE
  5
3E
330
5
100
AcDbSymbolTableRecord
100
AcDbLinetypeTableRecord
  2
JWW_DASHED3
 70
     0
  3
---  ------  ------  ------  ---
 72
    65
 73
     2
 40
3.386666666666667
 49
2.54
 74
     0
 49
-0.8466666666666667
 74
     0
  0
LTYPE
  5
3F
330
5
100
AcDbSymbolTableRecord
100
AcDbLinetypeTableRecord
  2
JWW_PHANTOM2
 70
     0
  3
------------  -  -  ------------
 72
    65
 73
     6
 40
13.54666666666667
 49
10.16
 74
     0
 49
-0.8466666666666667
 74
     0
 49
0.4233333333333333
 74
     0
 49
-0.8466666666666667
 74
     0
 49
0.4233333333333333
 74
     0
 49
-0.8466666666666667
 74
     0
  0
ENDTAB
  0
TABLE
  2
LAYER
  5
2
330
0
100
AcDbSymbolTable
 70
    19
  0
LAYER
  5
10
330
2
100
AcDbSymbolTableRecord
100
AcDbLayerTableRecord
  2
0
 70
     0
 62
     7
  6
Continuous
370
    -3
390
F
  0
LAYER
  5
40
330
2
100
AcDbSymbolTableRecord
100
AcDbLayerTableRecord
  2
その他
 70
     0
 62
     7
  6
Continuous
370
    -3
390
F
  0
LAYER
  5
41
330
2
100
AcDbSymbolTableRecord
100
AcDbLayerTableRecord
  2
1-4ﾚｲﾔ
 70
     0
 62
     7
  6
Continuous
370
    -3
390
F
  0
LAYER
  5
42
330
2
100
AcDbSymbolTableRecord
100
AcDbLayerTableRecord
  2
F-0ﾚｲﾔ
 70
     0
 62
     7
  6
Continuous
370
    -3
390
F
  0
LAYER
  5
43
330
2
100
AcDbSymbolTableRecord
100
AcDbLayerTableRecord
  2
通り芯
 70
     0
 62
     7
  6
Continuous
370
    -3
390
F
  0
LAYER
  5
44
330
2
100
AcDbSymbolTableRecord
100
AcDbLayerTableRecord
  2
躯体
 70
     0
 62
     7
  6
Continuous
370
    -3
390
F
  0
LAYER
  5
45
330
2
100
AcDbSymbolTableRecord
100
AcDbLayerTableRecord
  2
0-A
 70
     0
 62
     7
  6
Continuous
370
    -3
390
F
  0
LAYER
  5
46
330
2
100
AcDbSymbolTableRecord
100
AcDbLayerTableRecord
  2
仕上
 70
     0
 62
     7
  6
Continuous
370
    -3
390
F
  0
LAYER
  5
47
330
2
100
AcDbSymbolTableRecord
100
AcDbLayerTableRecord
  2
0-9
 70
     0
 62
     7
  6
Continuous
370
    -3
390
F
  0
LAYER
  5
48
330
2
100
AcDbSymbolTableRecord
100
AcDbLayerTableRecord
  2
1-1ﾚｲﾔ
 70
     0
 62
     7
  6
Continuous
370
    -3
390
F
  0
LAYER
  5
49
330
2
100
AcDbSymbolTableRecord
100
AcDbLayerTableRecord
  2
1-5ﾚｲﾔ
 70
     0
 62
     7
  6
Continuous
370
    -3
390
F
  0
LAYER
  5
4A
330
2
100
AcDbSymbolTableRecord
100
AcDbLayerTableRecord
  2
1-6ﾚｲﾔ
 70
     0
 62
     7
  6
Continuous
370
    -3
390
F
  0
LAYER
  5
4B
330
2
100
AcDbSymbolTableRecord
100
AcDbLayerTableRecord
  2
1-A
 70
     0
 62
     7
  6
Continuous
370
    -3
390
F
  0
LAYER
  5
4C
330
2
100
AcDbSymbolTableRecord
100
AcDbLayerTableRecord
  2
1-3ﾚｲﾔ
 70
     0
 62
     7
  6
Continuous
370
    -3
390
F
  0
LAYER
  5
4D
330
2
100
AcDbSymbolTableRecord
100
AcDbLayerTableRecord
  2
1-B
 70
     0
 62
     7
  6
Continuous
370
    -3
390
F
  0
LAYER
  5
4E
330
2
100
AcDbSymbolTableRecord
100
AcDbLayerTableRecord
  2
1-0ﾚｲﾔ
 70
     0
 62
     7
  6
Continuous
370
    -3
390
F
  0
LAYER
  5
4F
330
2
100
AcDbSymbolTableRecord
100
AcDbLayerTableRecord
  2
1-2ﾚｲﾔ
 70
     0
 62
     7
  6
Continuous
370
    -3
390
F
  0
LAYER
  5
50
330
2
100
AcDbSymbolTableRecord
100
AcDbLayerTableRecord
  2
1-D
 70
     0
 62
     7
  6
Continuous
370
    -3
390
F
  0
LAYER
  5
51
330
2
100
AcDbSymbolTableRecord
100
AcDbLayerTableRecord
  2
1-F
 70
     0
 62
     7
  6
Continuous
370
    -3
390
F
  0
ENDTAB
  0
TABLE
  2
STYLE
  5
3
330
0
100
AcDbSymbolTable
 70
     2
  0
STYLE
  5
11
330
3
100
AcDbSymbolTableRecord
100
AcDbTextStyleTableRecord
  2
Standard
 70
     0
 40
0.0
 41
1.0
 50
0.0
 71
     0
 42
2.5
  3
txt
  4

1001
ACAD
1000

1071
        0
  0
STYLE
  5
3B
330
3
100
AcDbSymbolTableRecord
100
AcDbTextStyleTableRecord
  2
ＭＳ ゴシック
 70
     0
 40
1.0
 41
1.0
 50
0.0
 71
     0
 42
10.0
  3

  4

1001
ACAD
1000
MS Gothic
1071
    32817
  0
ENDTAB
  0
TABLE
  2
VIEW
  5
6
330
0
100
AcDbSymbolTable
 70
     0
  0
ENDTAB
  0
TABLE
  2
UCS
  5
7
330
0
100
AcDbSymbolTable
 70
     0
  0
ENDTAB
  0
TABLE
  2
APPID
  5
9
330
0
100
AcDbSymbolTable
 70
     1
  0
APPID
  5
12
330
9
100
AcDbSymbolTableRecord
100
AcDbRegAppTableRecord
  2
ACAD
 70
     0
  0
ENDTAB
  0
TABLE
  2
DIMSTYLE
  5
A
330
0
100
AcDbSymbolTable
 70
     1
100
AcDbDimStyleTable
  0
DIMSTYLE
105
27
330
A
100
AcDbSymbolTableRecord
100
AcDbDimStyleTableRecord
  2
ISO-25
 70
     0
 41
2.5
 42
0.625
 43
3.75
 44
1.25
 73
     0
 74
     0
 77
     1
 78
     8
140
2.5
141
2.5
143
0.03937007874016
147
0.625
171
     3
172
     1
271
     2
272
     2
274
     3
278
    44
283
     0
284
     8
340
11
  0
ENDTAB
  0
TABLE
  2
BLOCK_RECORD
  5
1
330
0
100
AcDbSymbolTable
 70
     1
  0
BLOCK_RECORD
  5
1F
330
1
100
AcDbSymbolTableRecord
100
AcDbBlockTableRecord
  2
*Model_Space
340
22
  0
BLOCK_RECORD
  5
1B
330
1
100
AcDbSymbolTableRecord
100
AcDbBlockTableRecord
  2
*Paper_Space
340
1E
  0
BLOCK_RECORD
  5
23
330
1
100
AcDbSymbolTableRecord
100
AcDbBlockTableRecord
  2
*Paper_Space0
340
26
  0
ENDTAB
  0
ENDSEC
  0
SECTION
  2
BLOCKS
  0
BLOCK
  5
20
330
1F
100
AcDbEntity
  8
0
100
AcDbBlockBegin
  2
*Model_Space
 70
     0
 10
0.0
 20
0.0
 30
0.0
  3
*Model_Space
  1

  0
ENDBLK
  5
21
330
1F
100
AcDbEntity
  8
0
100
AcDbBlockEnd
  0
BLOCK
  5
1C
330
1B
100
AcDbEntity
 67
     1
  8
0
100
AcDbBlockBegin
  2
*Paper_Space
 70
     0
 10
0.0
 20
0.0
 30
0.0
  3
*Paper_Space
  1

  0
ENDBLK
  5
1D
330
1B
100
AcDbEntity
 67
     1
  8
0
100
AcDbBlockEnd
  0
BLOCK
  5
24
330
23
100
AcDbEntity
  8
0
100
AcDbBlockBegin
  2
*Paper_Space0
 70
     0
 10
0.0
 20
0.0
 30
0.0
  3
*Paper_Space0
  1

  0
ENDBLK
  5
25
330
23
100
AcDbEntity
  8
0
100
AcDbBlockEnd
  0
ENDSEC
  0
SECTION
  2
ENTITIES
  0
LINE
  5
52
330
1F
100
AcDbEntity
  8
その他
  6
Continuous
 62
     7
370
     9
100
AcDbLine
 10
-630.6521647685282
 20
348.2157279349663
 30
0.0
 11
-180.6520410486169
 21
348.2157279349663
 31
0.0
  0
LINE
  5
53
330
1F
100
AcDbEntity
  8
その他
  6
Continuous
 62
     7
370
     9
100
AcDbLine
 10
-643.6520344502217
 20
387.7076185071792
 30
0.0
 11
-167.6520476470122
 21
387.7076185071792
 31
0.0
  0
LINE
  5
54
330
1F
100
AcDbEntity
  8
その他
  6
Continuous
 62
     7
370
     9
100
AcDbLine
 10
-643.6520344502217
 20
268.8164953283362
 30
0.0
 11
-643.6520344502217
 21
389.2075987119933
 31
0.0
  0
LINE
  5
55
330
1F
100
AcDbEntity
  8
その他
  6
Continuous
 62
     7
370
     9
100
AcDbLine
 10
-167.6520476470122
 20
268.8164953283362
 30
0.0
 11
-167.6520476470122
 21
389.2075987119933
 31
0.0
  0
LINE
  5
56
330
1F
100
AcDbEntity
  8
その他
  6
Continuous
 62
     7
370
     9
100
AcDbLine
 10
-730.5512299408783
 20
248.3161060230152
 30
0.0
 11
-730.548941122519
 21
-201.6839558369404
 31
0.0
  0
LINE
  5
57
330
1F
100
AcDbEntity
  8
その他
  6
Continuous
 62
     7
370
     9
100
AcDbLine
 10
-770.0431823730469
 20
261.3158519847974
 30
0.0
 11
-770.0407698347761
 21
-214.6841966783678
 31
0.0
  0
LINE
  5
58
330
1F
100
AcDbEntity
  8
その他
  6
Continuous
 62
     7
370
     9
100
AcDbLine
 10
-651.152059194204
 20
261.3164705843539
 30
0.0
 11
-771.543162577861
 21
261.3158519847974
 31
0.0
  0
LINE
  5
59
330
1F
100
AcDbEntity
  8
その他
  6
Continuous
 62
     7
370
     9
100
AcDbLine
 10
-651.1495847959776
 20
-214.6835780788112
 30
0.0
 11
-771.5407500395904
 21
-214.6841966783678
 31
0.0
  0
LINE
  5
5A
330
1F
100
AcDbEntity
  8
1-4ﾚｲﾔ
  6
Continuous
 62
     7
370
     9
100
AcDbLine
 10
-544.6459177378061
 20
-320.2414373449377
 30
0.0
 11
-279.3817674791491
 21
-320.2414373449377
 31
0.0
  0
TEXT
  5
5B
330
1F
100
AcDbEntity
  8
F-0ﾚｲﾔ
  6
Continuous
 62
     7
370
     9
100
AcDbText
 10
-408.4733540302998
 20
-663.4403704339104
 30
0.0
 40
11.43
  1
アルミ＋スチール製　アルミ目地
 41
1.155555555555555
  7
ＭＳ ゴシック
100
AcDbText
  0
TEXT
  5
5C
330
1F
100
AcDbEntity
  8
その他
  6
Continuous
 62
     2
370
     9
100
AcDbText
 10
-421.9021029085726
 20
354.0356883445947
 30
0.0
 40
15.24
  1
450
 41
1.083333333333333
  7
ＭＳ ゴシック
100
AcDbText
  0
TEXT
  5
5D
330
1F
100
AcDbEntity
  8
その他
  6
Continuous
 62
     2
370
     9
100
AcDbText
 10
-421.9020410486169
 20
393.5275789168076
 30
0.0
 40
15.24
  1
476
 41
1.083333333333333
  7
ＭＳ ゴシック
100
AcDbText
  0
TEXT
  5
5E
330
1F
100
AcDbEntity
  8
その他
  6
Continuous
 62
     2
370
     9
100
AcDbText
 10
-736.3699531513005
 20
7.06602806069402
 30
0.0
 40
15.24
  1
450
 50
90.0003271676473
 41
1.083333333333333
  7
ＭＳ ゴシック
100
AcDbText
  0
TEXT
  5
5F
330
1F
100
AcDbEntity
  8
その他
  6
Continuous
 62
     2
370
     9
100
AcDbText
 10
-775.8618437235132
 20
7.065780620871362
 30
0.0
 40
15.24
  1
476
 50
90.0003271676473
 41
1.083333333333333
  7
ＭＳ ゴシック
100
AcDbText
  0
TEXT
  5
60
330
1F
100
AcDbEntity
  8
1-4ﾚｲﾔ
  6
Continuous
 62
     2
370
     9
100
AcDbText
 10
-532.9222168793549
 20
-314.0614519933752
 30
0.0
 40
15.24
  1
平面詳細図　Ｓ＝１：５
 41
1.113636363636364
  7
ＭＳ ゴシック
100
AcDbText
  0
TEXT
  5
61
330
1F
100
AcDbEntity
  8
F-0ﾚｲﾔ
  6
Continuous
 62
     7
370
     9
100
AcDbText
 10
-408.473331348316
 20
-683.4403745579075
 30
0.0
 40
11.43
  1
　　　　　　一般型　フロアハッチ　　　ＭＯＦＥ－４５０－１２．５－Ｍ
 41
1.161764705882353
  7
ＭＳ ゴシック
100
AcDbText
  0
LWPOLYLINE
  5
62
330
1F
100
AcDbEntity
  8
その他
  6
Continuous
 62
     7
370
     9
100
AcDbPolyline
 90
        4
 70
     1
 43
0.5
 10
-630.4021647685282
 20
348.2157279349663
 42
0.4142135623731
 10
-630.6521647685282
 20
348.4657279349663
 42
0.4142135623731
 10
-630.9021647685282
 20
348.2157279349663
 42
0.4142135623731
 10
-630.6521647685282
 20
347.9657279349663
 42
0.4142135623731
  0
LWPOLYLINE
  5
63
330
1F
100
AcDbEntity
  8
その他
  6
Continuous
 62
     7
370
     9
100
AcDbPolyline
 90
        4
 70
     1
 43
0.5
 10
-180.4020410486169
 20
348.2157279349663
 42
0.4142135623731
 10
-180.6520410486169
 20
348.4657279349663
 42
0.4142135623731
 10
-180.9020410486169
 20
348.2157279349663
 42
0.4142135623731
 10
-180.6520410486169
 20
347.9657279349663
 42
0.4142135623731
  0
LWPOLYLINE
  5
64
330
1F
100
AcDbEntity
  8
その他
  6
Continuous
 62
     7
370
     9
100
AcDbPolyline
 90
        4
 70
     1
 43
0.5
 10
-643.4020344502215
 20
387.7076185071792
 42
0.4142135623731
 10
-643.6520344502217
 20
387.9576185071792
 42
0.4142135623731
 10
-643.9020344502217
 20
387.7076185071792
 42
0.4142135623731
 10
-643.6520344502217
 20
387.4576185071792
 42
0.4142135623731
  0
LWPOLYLINE
  5
65
330
1F
100
AcDbEntity
  8
その他
  6
Continuous
 62
     7
370
     9
100
AcDbPolyline
 90
        4
 70
     1
 43
0.5
 10
-167.4020476470122
 20
387.7076185071792
 42
0.4142135623731
 10
-167.6520476470122
 20
387.9576185071792
 42
0.4142135623731
 10
-167.9020476470122
 20
387.7076185071792
 42
0.4142135623731
 10
-167.6520476470122
 20
387.4576185071792
 42
0.4142135623731
  0
LWPOLYLINE
  5
66
330
1F
100
AcDbEntity
  8
その他
  6
Continuous
 62
     7
370
     9
100
AcDbPolyline
 90
        4
 70
     1
 43
0.5
 10
-730.3012299408783
 20
248.3161060230152
 42
0.4142135623731
 10
-730.5512299408783
 20
248.5661060230152
 42
0.4142135623731
 10
-730.8012299408784
 20
248.3161060230152
 42
0.4142135623731
 10
-730.5512299408783
 20
248.0661060230153
 42
0.4142135623731
  0
LWPOLYLINE
  5
67
330
1F
100
AcDbEntity
  8
その他
  6
Continuous
 62
     7
370
     9
100
AcDbPolyline
 90
        4
 70
     1
 43
0.5
 10
-730.298941122519
 20
-201.6839558369404
 42
0.4142135623731
 10
-730.548941122519
 20
-201.4339558369404
 42
0.4142135623731
 10
-730.7989411225191
 20
-201.6839558369404
 42
0.4142135623731
 10
-730.548941122519
 20
-201.9339558369404
 42
0.4142135623731
  0
LWPOLYLINE
  5
68
330
1F
100
AcDbEntity
  8
その他
  6
Continuous
 62
     7
370
     9
100
AcDbPolyline
 90
        4
 70
     1
 43
0.5
 10
-769.7931823730469
 20
261.3158519847974
 42
0.4142135623731
 10
-770.0431823730469
 20
261.5658519847974
 42
0.4142135623731
 10
-770.2931823730469
 20
261.3158519847974
 42
0.4142135623731
 10
-770.0431823730469
 20
261.0658519847974
 42
0.4142135623731
  0
LWPOLYLINE
  5
69
330
1F
100
AcDbEntity
  8
その他
  6
Continuous
 62
     7
370
     9
100
AcDbPolyline
 90
        4
 70
     1
 43
0.5
 10
-769.7907698347761
 20
-214.6841966783678
 42
0.4142135623731
 10
-770.0407698347761
 20
-214.4341966783678
 42
0.4142135623731
 10
-770.2907698347763
 20
-214.6841966783678
 42
0.4142135623731
 10
-770.0407698347761
 20
-214.9341966783678
 42
0.4142135623731
  0
LINE
  5
6A
330
1F
100
AcDbEntity
  8
通り芯
  6
Continuous
 62
     4
370
     9
100
AcDbLine
 10
-192.6520148906928
 20
-189.6841985047092
 30
0.0
 11
-618.6521196991321
 21
-189.6841985047092
 31
0.0
  0
LINE
  5
6B
330
1F
100
AcDbEntity
  8
通り芯
  6
Continuous
 62
     4
370
     9
100
AcDbLine
 10
-192.6520148906928
 20
236.3158538111389
 30
0.0
 11
-192.6520148906928
 21
-189.6841985047092
 31
0.0
  0
LINE
  5
6C
330
1F
100
AcDbEntity
  8
通り芯
  6
Continuous
 62
     4
370
     9
100
AcDbLine
 10
-618.6521196991321
 20
236.3158538111389
 30
0.0
 11
-192.6520148906928
 21
236.3158538111389
 31
0.0
  0
LINE
  5
6D
330
1F
100
AcDbEntity
  8
通り芯
  6
Continuous
 62
     4
370
     9
100
AcDbLine
 10
-618.6521196991321
 20
-189.6841985047092
 30
0.0
 11
-618.6521196991321
 21
236.3158538111389
 31
0.0
  0
LINE
  5
6E
330
1F
100
AcDbEntity
  8
通り芯
  6
Continuous
 62
     4
370
     9
100
AcDbLine
 10
-630.6521359594631
 20
-201.6841622724495
 30
0.0
 11
-630.6521359594631
 21
248.3158700714702
 31
0.0
  0
LINE
  5
6F
330
1F
100
AcDbEntity
  8
通り芯
  6
Continuous
 62
     4
370
     9
100
AcDbLine
 10
-180.6520511229526
 20
-201.6841622724495
 30
0.0
 11
-630.6521359594631
 21
-201.6841622724495
 31
0.0
  0
LINE
  5
70
330
1F
100
AcDbEntity
  8
通り芯
  6
Continuous
 62
     4
370
     9
100
AcDbLine
 10
-180.6520511229526
 20
248.3158700714702
 30
0.0
 11
-180.6520511229526
 21
-201.6841622724495
 31
0.0
  0
LINE
  5
71
330
1F
100
AcDbEntity
  8
通り芯
  6
Continuous
 62
     4
370
     9
100
AcDbLine
 10
-630.6521359594631
 20
248.3158700714702
 30
0.0
 11
-180.6520511229526
 21
248.3158700714702
 31
0.0
  0
LINE
  5
72
330
1F
100
AcDbEntity
  8
通り芯
  6
Continuous
 62
     4
370
     9
100
AcDbLine
 10
-628.152018837947
 20
245.8158579351361
 30
0.0
 11
-183.1520632592867
 21
245.8158579351361
 31
0.0
  0
LINE
  5
73
330
1F
100
AcDbEntity
  8
通り芯
  6
Continuous
 62
     4
370
     9
100
AcDbLine
 10
-628.152018837947
 20
-199.1841501361152
 30
0.0
 11
-628.152018837947
 21
245.8158579351361
 31
0.0
  0
LINE
  5
74
330
1F
100
AcDbEntity
  8
通り芯
  6
Continuous
 62
     4
370
     9
100
AcDbLine
 10
-183.1520632592867
 20
-199.1841501361152
 30
0.0
 11
-628.152018837947
 21
-199.1841501361152
 31
0.0
  0
LINE
  5
75
330
1F
100
AcDbEntity
  8
通り芯
  6
Continuous
 62
     4
370
     9
100
AcDbLine
 10
-183.1520632592867
 20
245.8158579351361
 30
0.0
 11
-183.1520632592867
 21
-199.1841501361152
 31
0.0
  0
LINE
  5
76
330
1F
100
AcDbEntity
  8
通り芯
  6
Continuous
 62
     4
370
     9
100
AcDbLine
 10
-621.1520268502843
 20
238.8158659474732
 30
0.0
 11
-190.1520027543586
 21
238.8158659474732
 31
0.0
  0
LINE
  5
77
330
1F
100
AcDbEntity
  8
通り芯
  6
Continuous
 62
     4
370
     9
100
AcDbLine
 10
-621.1520268502843
 20
-192.1842106410433
 30
0.0
 11
-621.1520268502843
 21
238.8158659474732
 31
0.0
  0
LINE
  5
78
330
1F
100
AcDbEntity
  8
通り芯
  6
Continuous
 62
     4
370
     9
100
AcDbLine
 10
-190.1520027543586
 20
-192.1842106410433
 30
0.0
 11
-621.1520268502843
 21
-192.1842106410433
 31
0.0
  0
LINE
  5
79
330
1F
100
AcDbEntity
  8
通り芯
  6
Continuous
 62
     4
370
     9
100
AcDbLine
 10
-190.1520027543586
 20
238.8158659474732
 30
0.0
 11
-190.1520027543586
 21
-192.1842106410433
 31
0.0
  0
LINE
  5
7A
330
1F
100
AcDbEntity
  8
躯体
  6
Continuous
 62
     2
370
     9
100
AcDbLine
 10
-631.6520148317785
 20
249.3158539289675
 30
0.0
 11
-179.6520147728643
 21
249.3158539289675
 31
0.0
  0
LINE
  5
7B
330
1F
100
AcDbEntity
  8
躯体
  6
Continuous
 62
     2
370
     9
100
AcDbLine
 10
-643.6520310921098
 20
261.3157652041168
 30
0.0
 11
-167.6520510051241
 21
261.3157652041168
 31
0.0
  0
LINE
  5
7C
330
1F
100
AcDbEntity
  8
躯体
  6
Continuous
 62
     2
370
     9
100
AcDbLine
 10
-631.6520148317785
 20
-202.6841986225377
 30
0.0
 11
-631.6520148317785
 21
249.3158539289675
 31
0.0
  0
LINE
  5
7D
330
1F
100
AcDbEntity
  8
躯体
  6
Continuous
 62
     2
370
     9
100
AcDbLine
 10
-643.6520310921098
 20
-214.684162390278
 30
0.0
 11
-643.6520310921098
 21
261.3157652041168
 31
0.0
  0
LINE
  5
7E
330
1F
100
AcDbEntity
  8
躯体
  6
Continuous
 62
     2
370
     9
100
AcDbLine
 10
-179.6520147728643
 20
-202.6841986225377
 30
0.0
 11
-631.6520148317785
 21
-202.6841986225377
 31
0.0
  0
LINE
  5
7F
330
1F
100
AcDbEntity
  8
躯体
  6
Continuous
 62
     2
370
     9
100
AcDbLine
 10
-179.6520147728643
 20
249.3158539289675
 30
0.0
 11
-179.6520147728643
 21
-202.6841986225377
 31
0.0
  0
LINE
  5
80
330
1F
100
AcDbEntity
  8
躯体
  6
Continuous
 62
     2
370
     9
100
AcDbLine
 10
-167.6520510051241
 20
261.3157652041168
 30
0.0
 11
-167.6520510051241
 21
-214.684162390278
 31
0.0
  0
LINE
  5
81
330
1F
100
AcDbEntity
  8
躯体
  6
Continuous
 62
     2
370
     9
100
AcDbLine
 10
-167.6520510051241
 20
-214.684162390278
 30
0.0
 11
-643.6520310921098
 21
-214.684162390278
 31
0.0
  0
LINE
  5
82
330
1F
100
AcDbEntity
  8
躯体
  6
Continuous
 62
     2
370
     9
100
AcDbLine
 10
-641.1519139705936
 20
258.8157530677827
 30
0.0
 11
-170.1520631414582
 21
258.8157530677827
 31
0.0
  0
LINE
  5
83
330
1F
100
AcDbEntity
  8
躯体
  6
Continuous
 62
     2
370
     9
100
AcDbLine
 10
-170.1520631414582
 20
258.8157530677827
 30
0.0
 11
-170.1520631414582
 21
-212.1841502539438
 31
0.0
  0
LINE
  5
84
330
1F
100
AcDbEntity
  8
躯体
  6
Continuous
 62
     2
370
     9
100
AcDbLine
 10
-170.1520631414582
 20
-212.1841502539438
 30
0.0
 11
-641.1519139705936
 21
-212.1841502539438
 31
0.0
  0
LINE
  5
85
330
1F
100
AcDbEntity
  8
躯体
  6
Continuous
 62
     2
370
     9
100
AcDbLine
 10
-641.1519139705936
 20
-212.1841502539438
 30
0.0
 11
-641.1519139705936
 21
258.8157530677827
 31
0.0
  0
LINE
  5
86
330
1F
100
AcDbEntity
  8
躯体
  6
Continuous
 62
     2
370
     9
100
AcDbLine
 10
-634.1519219829307
 20
-205.1842107588718
 30
0.0
 11
-634.1519219829307
 21
251.8158660653016
 31
0.0
  0
LINE
  5
87
330
1F
100
AcDbEntity
  8
躯体
  6
Continuous
 62
     2
370
     9
100
AcDbLine
 10
-634.1519219829307
 20
251.8158660653016
 30
0.0
 11
-177.1520026365302
 21
251.8158660653016
 31
0.0
  0
LINE
  5
88
330
1F
100
AcDbEntity
  8
躯体
  6
Continuous
 62
     2
370
     9
100
AcDbLine
 10
-177.1520026365302
 20
-205.1842107588718
 30
0.0
 11
-634.1519219829307
 21
-205.1842107588718
 31
0.0
  0
LINE
  5
89
330
1F
100
AcDbEntity
  8
躯体
  6
Continuous
 62
     2
370
     9
100
AcDbLine
 10
-177.1520026365302
 20
251.8158660653016
 30
0.0
 11
-177.1520026365302
 21
-205.1842107588718
 31
0.0
  0
LINE
  5
8A
330
1F
100
AcDbEntity
  8
躯体
  6
Continuous
 62
     2
370
     9
100
AcDbLine
 10
-179.6520147728643
 20
-202.6841986225377
 30
0.0
 11
-167.6520510051241
 21
-214.684162390278
 31
0.0
  0
LINE
  5
8B
330
1F
100
AcDbEntity
  8
躯体
  6
Continuous
 62
     2
370
     9
100
AcDbLine
 10
-631.6520148317785
 20
-202.6841986225377
 30
0.0
 11
-643.6520310921098
 21
-214.684162390278
 31
0.0
  0
LINE
  5
8C
330
1F
100
AcDbEntity
  8
躯体
  6
Continuous
 62
     2
370
     9
100
AcDbLine
 10
-631.6520148317785
 20
249.3158539289675
 30
0.0
 11
-643.6520310921098
 21
261.3157652041168
 31
0.0
  0
LINE
  5
8D
330
1F
100
AcDbEntity
  8
躯体
  6
Continuous
 62
     2
370
     9
100
AcDbLine
 10
-179.6520147728643
 20
249.3158539289675
 30
0.0
 11
-167.6520510051241
 21
261.3157652041168
 31
0.0
  0
LINE
  5
8E
330
1F
100
AcDbEntity
  8
躯体
  6
JWW_CENTER1
 62
     2
370
     9
100
AcDbLine
 10
-270.6520155976636
 20
219.4476746665927
 30
0.0
 11
-270.6520155976636
 21
248.7401676840766
 31
0.0
  0
LINE
  5
8F
330
1F
100
AcDbEntity
  8
0-A
  6
JWW_DASHED1
 62
     2
370
     9
100
AcDbLine
 10
-536.5520276986492
 20
248.3158700714702
 30
0.0
 11
-536.5520276986492
 21
248.0158224216301
 31
0.0
  0
LINE
  5
90
330
1F
100
AcDbEntity
  8
0-A
  6
JWW_DASHED1
 62
     2
370
     9
100
AcDbLine
 10
-538.602178330587
 20
245.9658817600561
 30
0.0
 11
-536.5520276986492
 21
248.0158224216301
 31
0.0
  0
LINE
  5
91
330
1F
100
AcDbEntity
  8
0-A
  6
JWW_DASHED1
 62
     2
370
     9
100
AcDbLine
 10
-542.702059653735
 20
245.9658817600561
 30
0.0
 11
-538.602178330587
 21
245.9658817600561
 31
0.0
  0
LINE
  5
92
330
1F
100
AcDbEntity
  8
0-A
  6
JWW_DASHED1
 62
     2
370
     9
100
AcDbLine
 10
-542.702059653735
 20
245.9658817600561
 30
0.0
 11
-544.7520003153089
 21
248.0158224216301
 31
0.0
  0
LINE
  5
93
330
1F
100
AcDbEntity
  8
0-A
  6
JWW_DASHED1
 62
     2
370
     9
100
AcDbLine
 10
-536.5520276986492
 20
248.0158224216301
 30
0.0
 11
-544.7520003153089
 21
248.0158224216301
 31
0.0
  0
LINE
  5
94
330
1F
100
AcDbEntity
  8
0-A
  6
JWW_DASHED1
 62
     2
370
     9
100
AcDbLine
 10
-544.7520003153089
 20
248.3158700714702
 30
0.0
 11
-544.7520003153089
 21
248.0158224216301
 31
0.0
  0
LINE
  5
95
330
1F
100
AcDbEntity
  8
0-A
  6
JWW_DASHED1
 62
     2
370
     9
100
AcDbLine
 10
-538.602178330587
 20
245.9658817600561
 30
0.0
 11
-538.602178330587
 21
239.9824612886292
 31
0.0
  0
LINE
  5
96
330
1F
100
AcDbEntity
  8
0-A
  6
JWW_DASHED1
 62
     2
370
     9
100
AcDbLine
 10
-542.702059653735
 20
245.9658817600561
 30
0.0
 11
-542.702059653735
 21
239.9824612886292
 31
0.0
  0
LINE
  5
97
330
1F
100
AcDbEntity
  8
0-A
  6
JWW_DASHED1
 62
     2
370
     9
100
AcDbLine
 10
-542.702059653735
 20
239.9824612886292
 30
0.0
 11
-540.6521189921609
 21
223.3158536933105
 31
0.0
  0
LINE
  5
98
330
1F
100
AcDbEntity
  8
0-A
  6
JWW_DASHED1
 62
     2
370
     9
100
AcDbLine
 10
-540.6521189921609
 20
223.3158536933105
 30
0.0
 11
-538.602178330587
 21
239.9824612886292
 31
0.0
  0
LINE
  5
99
330
1F
100
AcDbEntity
  8
0-A
  6
JWW_DASHED1
 62
     2
370
     9
100
AcDbLine
 10
-541.3299033264395
 20
224.7298991081799
 30
0.0
 11
-539.944308895862
 21
224.9740946412548
 31
0.0
  0
LINE
  5
9A
330
1F
100
AcDbEntity
  8
0-A
  6
JWW_DASHED1
 62
     2
370
     9
100
AcDbLine
 10
-541.5465927418594
 20
226.4916554454673
 30
0.0
 11
-539.7179608437085
 21
226.8140649390499
 31
0.0
  0
LINE
  5
9B
330
1F
100
AcDbEntity
  8
0-A
  6
JWW_DASHED1
 62
     2
370
     9
100
AcDbLine
 10
-543.0634186497987
 20
238.8241597768425
 30
0.0
 11
-538.13394441936
 21
239.6934370828873
 31
0.0
  0
LINE
  5
9C
330
1F
100
AcDbEntity
  8
0-A
  6
JWW_DASHED1
 62
     2
370
     9
100
AcDbLine
 10
-542.8467292343787
 20
237.0624034395551
 30
0.0
 11
-538.3600825011499
 21
237.8534667850923
 31
0.0
  0
LINE
  5
9D
330
1F
100
AcDbEntity
  8
0-A
  6
JWW_DASHED1
 62
     2
370
     9
100
AcDbLine
 10
-542.6300398189587
 20
235.3006471022677
 30
0.0
 11
-538.5864305533037
 21
236.0136014724792
 31
0.0
  0
LINE
  5
9E
330
1F
100
AcDbEntity
  8
0-A
  6
JWW_DASHED1
 62
     2
370
     9
100
AcDbLine
 10
-542.4133504035389
 20
233.5387857797986
 30
0.0
 11
-538.8127786054574
 21
234.1737361598661
 31
0.0
  0
LINE
  5
9F
330
1F
100
AcDbEntity
  8
0-A
  6
JWW_DASHED1
 62
     2
370
     9
100
AcDbLine
 10
-542.196660988119
 20
231.7770294425112
 30
0.0
 11
-539.0391266576112
 21
232.3337658620711
 31
0.0
  0
LINE
  5
A0
330
1F
100
AcDbEntity
  8
0-A
  6
JWW_DASHED1
 62
     2
370
     9
100
AcDbLine
 10
-541.9799715726991
 20
230.0152731052238
 30
0.0
 11
-539.2654747097649
 21
230.4937955642761
 31
0.0
  0
LINE
  5
A1
330
1F
100
AcDbEntity
  8
0-A
  6
JWW_DASHED1
 62
     2
370
     9
100
AcDbLine
 10
-541.7632821572793
 20
228.2534117827547
 30
0.0
 11
-539.4918227619185
 21
228.6540352368449
 31
0.0
  0
LINE
  5
A2
330
1F
100
AcDbEntity
  8
0-A
  6
JWW_DASHED1
 62
     2
370
     9
100
AcDbLine
 10
-274.7520019059936
 20
248.3158700714702
 30
0.0
 11
-274.7520019059936
 21
248.0158224216301
 31
0.0
  0
LINE
  5
A3
330
1F
100
AcDbEntity
  8
0-A
  6
JWW_DASHED1
 62
     2
370
     9
100
AcDbLine
 10
-272.7019562592377
 20
245.9658817600561
 30
0.0
 11
-274.7520019059936
 21
248.0158224216301
 31
0.0
  0
LINE
  5
A4
330
1F
100
AcDbEntity
  8
0-A
  6
JWW_DASHED1
 62
     2
370
     9
100
AcDbLine
 10
-268.6020749360898
 20
245.9658817600561
 30
0.0
 11
-272.7019562592377
 21
245.9658817600561
 31
0.0
  0
LINE
  5
A5
330
1F
100
AcDbEntity
  8
0-A
  6
JWW_DASHED1
 62
     2
370
     9
100
AcDbLine
 10
-268.6020749360898
 20
245.9658817600561
 30
0.0
 11
-266.5520292893339
 21
248.0158224216301
 31
0.0
  0
LINE
  5
A6
330
1F
100
AcDbEntity
  8
0-A
  6
JWW_DASHED1
 62
     2
370
     9
100
AcDbLine
 10
-274.7520019059936
 20
248.0158224216301
 30
0.0
 11
-266.5520292893339
 21
248.0158224216301
 31
0.0
  0
LINE
  5
A7
330
1F
100
AcDbEntity
  8
0-A
  6
JWW_DASHED1
 62
     2
370
     9
100
AcDbLine
 10
-266.5520292893339
 20
248.3158700714702
 30
0.0
 11
-266.5520292893339
 21
248.0158224216301
 31
0.0
  0
LINE
  5
A8
330
1F
100
AcDbEntity
  8
0-A
  6
JWW_DASHED1
 62
     2
370
     9
100
AcDbLine
 10
-272.7019562592377
 20
245.9658817600561
 30
0.0
 11
-272.7019562592377
 21
239.9824612886292
 31
0.0
  0
LINE
  5
A9
330
1F
100
AcDbEntity
  8
0-A
  6
JWW_DASHED1
 62
     2
370
     9
100
AcDbLine
 10
-268.6020749360898
 20
245.9658817600561
 30
0.0
 11
-268.6020749360898
 21
239.9824612886292
 31
0.0
  0
LINE
  5
AA
330
1F
100
AcDbEntity
  8
0-A
  6
JWW_DASHED1
 62
     2
370
     9
100
AcDbLine
 10
-268.6020749360898
 20
239.9824612886292
 30
0.0
 11
-270.6520155976636
 21
223.3158536933105
 31
0.0
  0
LINE
  5
AB
330
1F
100
AcDbEntity
  8
0-A
  6
JWW_DASHED1
 62
     2
370
     9
100
AcDbLine
 10
-270.6520155976636
 20
223.3158536933105
 30
0.0
 11
-272.7019562592377
 21
239.9824612886292
 31
0.0
  0
LINE
  5
AC
330
1F
100
AcDbEntity
  8
0-A
  6
JWW_DASHED1
 62
     2
370
     9
100
AcDbLine
 10
-269.9742312633851
 20
224.7298991081799
 30
0.0
 11
-271.3598256939625
 21
224.9740946412548
 31
0.0
  0
LINE
  5
AD
330
1F
100
AcDbEntity
  8
0-A
  6
JWW_DASHED1
 62
     2
370
     9
100
AcDbLine
 10
-269.7575418479653
 20
226.4916554454673
 30
0.0
 11
-271.5860687609344
 21
226.8140649390499
 31
0.0
  0
LINE
  5
AE
330
1F
100
AcDbEntity
  8
0-A
  6
JWW_DASHED1
 62
     2
370
     9
100
AcDbLine
 10
-268.2407159400261
 20
238.8241597768425
 30
0.0
 11
-273.1701901704648
 21
239.6934370828873
 31
0.0
  0
LINE
  5
AF
330
1F
100
AcDbEntity
  8
0-A
  6
JWW_DASHED1
 62
     2
370
     9
100
AcDbLine
 10
-268.4574053554461
 20
237.0624034395551
 30
0.0
 11
-272.943947103493
 21
237.8534667850923
 31
0.0
  0
LINE
  5
B0
330
1F
100
AcDbEntity
  8
0-A
  6
JWW_DASHED1
 62
     2
370
     9
100
AcDbLine
 10
-268.6740947708659
 20
235.3006471022677
 30
0.0
 11
-272.7177040365211
 21
236.0136014724792
 31
0.0
  0
LINE
  5
B1
330
1F
100
AcDbEntity
  8
0-A
  6
JWW_DASHED1
 62
     2
370
     9
100
AcDbLine
 10
-268.8907841862858
 20
233.5387857797986
 30
0.0
 11
-272.4913559843674
 21
234.1737361598661
 31
0.0
  0
LINE
  5
B2
330
1F
100
AcDbEntity
  8
0-A
  6
JWW_DASHED1
 62
     2
370
     9
100
AcDbLine
 10
-269.1074736017057
 20
231.7770294425112
 30
0.0
 11
-272.2650079322136
 21
232.3337658620711
 31
0.0
  0
LINE
  5
B3
330
1F
100
AcDbEntity
  8
0-A
  6
JWW_DASHED1
 62
     2
370
     9
100
AcDbLine
 10
-269.3241630171255
 20
230.0152731052238
 30
0.0
 11
-272.0386598800599
 21
230.4937955642761
 31
0.0
  0
LINE
  5
B4
330
1F
100
AcDbEntity
  8
0-A
  6
JWW_DASHED1
 62
     2
370
     9
100
AcDbLine
 10
-269.5408524325455
 20
228.2534117827547
 30
0.0
 11
-271.8123118279062
 21
228.6540352368449
 31
0.0
  0
LINE
  5
B5
330
1F
100
AcDbEntity
  8
仕上
  6
JWW_CENTER1
 62
     3
370
     9
100
AcDbLine
 10
-275.652039870332
 20
80.88460962008341
 30
0.0
 11
-275.652039870332
 21
-35.36201777513412
 31
0.0
  0
LINE
  5
B6
330
1F
100
AcDbEntity
  8
仕上
  6
JWW_CENTER1
 62
     3
370
     9
100
AcDbLine
 10
-535.6520947194927
 20
81.2813486224438
 30
0.0
 11
-535.6520947194927
 21
-36.08352843766951
 31
0.0
  0
LINE
  5
B7
330
1F
100
AcDbEntity
  8
躯体
  6
JWW_CENTER1
 62
     2
370
     9
100
AcDbLine
 10
-602.6519580384478
 20
-120.3329820669754
 30
0.0
 11
-602.6519580384478
 21
-132.6256970144145
 31
0.0
  0
LINE
  5
B8
330
1F
100
AcDbEntity
  8
躯体
  6
JWW_CENTER1
 62
     2
370
     9
100
AcDbLine
 10
-596.649325278735
 20
-126.6841656305613
 30
0.0
 11
-608.9420402261741
 21
-126.6841656305613
 31
0.0
  0
LINE
  5
B9
330
1F
100
AcDbEntity
  8
躯体
  6
JWW_CENTER1
 62
     2
370
     9
100
AcDbLine
 10
-602.6519580384478
 20
-20.33299529322306
 30
0.0
 11
-602.6519580384478
 21
-32.62571024066219
 31
0.0
  0
LINE
  5
BA
330
1F
100
AcDbEntity
  8
躯体
  6
JWW_CENTER1
 62
     2
370
     9
100
AcDbLine
 10
-596.649325278735
 20
-26.68417885680896
 30
0.0
 11
-608.9420402261741
 21
-26.68417885680896
 31
0.0
  0
LINE
  5
BB
330
1F
100
AcDbEntity
  8
躯体
  6
JWW_CENTER1
 62
     2
370
     9
100
AcDbLine
 10
-540.6521189921609
 20
219.4476746665927
 30
0.0
 11
-540.6521189921609
 21
248.7401676840766
 31
0.0
  0
LINE
  5
BC
330
1F
100
AcDbEntity
  8
躯体
  6
JWW_CENTER1
 62
     2
370
     9
100
AcDbLine
 10
-602.6519580384478
 20
166.9646373734052
 30
0.0
 11
-602.6519580384478
 21
179.2573523208443
 31
0.0
  0
LINE
  5
BD
330
1F
100
AcDbEntity
  8
躯体
  6
JWW_CENTER1
 62
     2
370
     9
100
AcDbLine
 10
-596.649325278735
 20
173.3158209369911
 30
0.0
 11
-608.9420402261741
 21
173.3158209369911
 31
0.0
  0
LINE
  5
BE
330
1F
100
AcDbEntity
  8
躯体
  6
JWW_CENTER1
 62
     2
370
     9
100
AcDbLine
 10
-602.6519580384478
 20
66.96462435335746
 30
0.0
 11
-602.6519580384478
 21
79.25733930079645
 31
0.0
  0
LINE
  5
BF
330
1F
100
AcDbEntity
  8
躯体
  6
JWW_CENTER1
 62
     2
370
     9
100
AcDbLine
 10
-596.649325278735
 20
73.31580791694336
 30
0.0
 11
-608.9420402261741
 21
73.31580791694336
 31
0.0
  0
LINE
  5
C0
330
1F
100
AcDbEntity
  8
躯体
  6
JWW_CENTER1
 62
     2
370
     9
100
AcDbLine
 10
-262.0032313284265
 20
-173.684089336616
 30
0.0
 11
-249.7105163809875
 21
-173.684089336616
 31
0.0
  0
LINE
  5
C1
330
1F
100
AcDbEntity
  8
躯体
  6
JWW_CENTER1
 62
     2
370
     9
100
AcDbLine
 10
-255.6520477648407
 20
-167.6814565769032
 30
0.0
 11
-255.6520477648407
 21
-179.9741715243422
 31
0.0
  0
LINE
  5
C2
330
1F
100
AcDbEntity
  8
躯体
  6
JWW_CENTER1
 62
     2
370
     9
100
AcDbLine
 10
-362.0032443484743
 20
-173.684089336616
 30
0.0
 11
-349.7105294010353
 21
-173.684089336616
 31
0.0
  0
LINE
  5
C3
330
1F
100
AcDbEntity
  8
躯体
  6
JWW_CENTER1
 62
     2
370
     9
100
AcDbLine
 10
-355.6520607848884
 20
-167.6814565769032
 30
0.0
 11
-355.6520607848885
 21
-179.9741715243422
 31
0.0
  0
LINE
  5
C4
330
1F
100
AcDbEntity
  8
躯体
  6
JWW_CENTER1
 62
     2
370
     9
100
AcDbLine
 10
-549.3008507688072
 20
-173.684089336616
 30
0.0
 11
-561.5935657162463
 21
-173.684089336616
 31
0.0
  0
LINE
  5
C5
330
1F
100
AcDbEntity
  8
躯体
  6
JWW_CENTER1
 62
     2
370
     9
100
AcDbLine
 10
-555.6520343323931
 20
-167.6814565769032
 30
0.0
 11
-555.6520343323931
 21
-179.9741715243422
 31
0.0
  0
LINE
  5
C6
330
1F
100
AcDbEntity
  8
躯体
  6
JWW_CENTER1
 62
     2
370
     9
100
AcDbLine
 10
-449.3008377487595
 20
-173.684089336616
 30
0.0
 11
-461.5935526961985
 21
-173.684089336616
 31
0.0
  0
LINE
  5
C7
330
1F
100
AcDbEntity
  8
躯体
  6
JWW_CENTER1
 62
     2
370
     9
100
AcDbLine
 10
-455.6520213123454
 20
-167.6814565769032
 30
0.0
 11
-455.6520213123454
 21
-179.9741715243422
 31
0.0
  0
LINE
  5
C8
330
1F
100
AcDbEntity
  8
躯体
  6
JWW_CENTER1
 62
     2
370
     9
100
AcDbLine
 10
-208.652124058786
 20
166.9646373734052
 30
0.0
 11
-208.652124058786
 21
179.2573523208443
 31
0.0
  0
LINE
  5
C9
330
1F
100
AcDbEntity
  8
躯体
  6
JWW_CENTER1
 62
     2
370
     9
100
AcDbLine
 10
-214.6547568184988
 20
173.3158209369911
 30
0.0
 11
-202.3620418710598
 21
173.3158209369911
 31
0.0
  0
LINE
  5
CA
330
1F
100
AcDbEntity
  8
躯体
  6
JWW_CENTER1
 62
     2
370
     9
100
AcDbLine
 10
-208.652124058786
 20
66.96462435335746
 30
0.0
 11
-208.652124058786
 21
79.25733930079645
 31
0.0
  0
LINE
  5
CB
330
1F
100
AcDbEntity
  8
躯体
  6
JWW_CENTER1
 62
     2
370
     9
100
AcDbLine
 10
-214.6547568184988
 20
73.31580791694336
 30
0.0
 11
-202.3620418710598
 21
73.31580791694336
 31
0.0
  0
LINE
  5
CC
330
1F
100
AcDbEntity
  8
躯体
  6
JWW_CENTER1
 62
     2
370
     9
100
AcDbLine
 10
-208.652124058786
 20
-120.3329820669754
 30
0.0
 11
-208.652124058786
 21
-132.6256970144145
 31
0.0
  0
LINE
  5
CD
330
1F
100
AcDbEntity
  8
躯体
  6
JWW_CENTER1
 62
     2
370
     9
100
AcDbLine
 10
-214.6547568184988
 20
-126.6841656305613
 30
0.0
 11
-202.3620418710598
 21
-126.6841656305613
 31
0.0
  0
LINE
  5
CE
330
1F
100
AcDbEntity
  8
躯体
  6
JWW_CENTER1
 62
     2
370
     9
100
AcDbLine
 10
-208.652124058786
 20
-20.33296904692762
 30
0.0
 11
-208.652124058786
 21
-32.62568399436674
 31
0.0
  0
LINE
  5
CF
330
1F
100
AcDbEntity
  8
躯体
  6
JWW_CENTER1
 62
     2
370
     9
100
AcDbLine
 10
-214.6547568184988
 20
-26.68415261051351
 30
0.0
 11
-202.3620418710598
 21
-26.68415261051351
 31
0.0
  0
LINE
  5
D0
330
1F
100
AcDbEntity
  8
躯体
  6
JWW_CENTER1
 62
     2
370
     9
100
AcDbLine
 10
-549.3008507688072
 20
220.3157446430458
 30
0.0
 11
-561.5935657162462
 21
220.3157446430458
 31
0.0
  0
LINE
  5
D1
330
1F
100
AcDbEntity
  8
躯体
  6
JWW_CENTER1
 62
     2
370
     9
100
AcDbLine
 10
-555.6520343323931
 20
214.313111883333
 30
0.0
 11
-555.6520343323931
 21
226.6058268307721
 31
0.0
  0
LINE
  5
D2
330
1F
100
AcDbEntity
  8
躯体
  6
JWW_CENTER1
 62
     2
370
     9
100
AcDbLine
 10
-449.3008377487594
 20
220.3157446430458
 30
0.0
 11
-461.5935526961985
 21
220.3157446430458
 31
0.0
  0
LINE
  5
D3
330
1F
100
AcDbEntity
  8
躯体
  6
JWW_CENTER1
 62
     2
370
     9
100
AcDbLine
 10
-455.6520213123453
 20
214.313111883333
 30
0.0
 11
-455.6520213123453
 21
226.6058268307721
 31
0.0
  0
LINE
  5
D4
330
1F
100
AcDbEntity
  8
躯体
  6
JWW_CENTER1
 62
     2
370
     9
100
AcDbLine
 10
-262.0032313284265
 20
220.3157446430458
 30
0.0
 11
-249.7105163809875
 21
220.3157446430458
 31
0.0
  0
LINE
  5
D5
330
1F
100
AcDbEntity
  8
躯体
  6
JWW_CENTER1
 62
     2
370
     9
100
AcDbLine
 10
-255.6520477648406
 20
214.313111883333
 30
0.0
 11
-255.6520477648406
 21
226.6058268307721
 31
0.0
  0
LINE
  5
D6
330
1F
100
AcDbEntity
  8
躯体
  6
JWW_CENTER1
 62
     2
370
     9
100
AcDbLine
 10
-362.0032443484743
 20
220.3157446430458
 30
0.0
 11
-349.7105294010353
 21
220.3157446430458
 31
0.0
  0
LINE
  5
D7
330
1F
100
AcDbEntity
  8
躯体
  6
JWW_CENTER1
 62
     2
370
     9
100
AcDbLine
 10
-355.6520607848884
 20
214.313111883333
 30
0.0
 11
-355.6520607848884
 21
226.6058268307721
 31
0.0
  0
CIRCLE
  5
D8
330
1F
100
AcDbEntity
  8
躯体
  6
JWW_DASHED1
 62
     2
370
     9
100
AcDbCircle
 10
-602.6519580384478
 20
-126.6841656305613
 30
0.0
 40
1.999999907716361
  0
CIRCLE
  5
D9
330
1F
100
AcDbEntity
  8
躯体
  6
JWW_DASHED1
 62
     2
370
     9
100
AcDbCircle
 10
-602.6519580384478
 20
-26.68417885680896
 30
0.0
 40
1.999999907716361
  0
CIRCLE
  5
DA
330
1F
100
AcDbEntity
  8
躯体
  6
JWW_DASHED1
 62
     2
370
     9
100
AcDbCircle
 10
-602.6519580384478
 20
173.3158209369911
 30
0.0
 40
1.999999907716361
  0
CIRCLE
  5
DB
330
1F
100
AcDbEntity
  8
躯体
  6
JWW_DASHED1
 62
     2
370
     9
100
AcDbCircle
 10
-602.6519580384478
 20
73.31580791694336
 30
0.0
 40
1.999999907716361
  0
CIRCLE
  5
DC
330
1F
100
AcDbEntity
  8
躯体
  6
JWW_DASHED1
 62
     2
370
     9
100
AcDbCircle
 10
-255.6520477648407
 20
-173.684089336616
 30
0.0
 40
1.999999907716361
  0
CIRCLE
  5
DD
330
1F
100
AcDbEntity
  8
躯体
  6
JWW_DASHED1
 62
     2
370
     9
100
AcDbCircle
 10
-355.6520607848884
 20
-173.684089336616
 30
0.0
 40
1.999999907716361
  0
CIRCLE
  5
DE
330
1F
100
AcDbEntity
  8
躯体
  6
JWW_DASHED1
 62
     2
370
     9
100
AcDbCircle
 10
-555.6520343323931
 20
-173.684089336616
 30
0.0
 40
1.999999907716361
  0
CIRCLE
  5
DF
330
1F
100
AcDbEntity
  8
躯体
  6
JWW_DASHED1
 62
     2
370
     9
100
AcDbCircle
 10
-455.6520213123454
 20
-173.684089336616
 30
0.0
 40
1.999999907716361
  0
CIRCLE
  5
E0
330
1F
100
AcDbEntity
  8
躯体
  6
JWW_DASHED1
 62
     2
370
     9
100
AcDbCircle
 10
-208.652124058786
 20
173.3158209369911
 30
0.0
 40
1.999999907716361
  0
CIRCLE
  5
E1
330
1F
100
AcDbEntity
  8
躯体
  6
JWW_DASHED1
 62
     2
370
     9
100
AcDbCircle
 10
-208.652124058786
 20
73.31580791694336
 30
0.0
 40
1.999999907716361
  0
CIRCLE
  5
E2
330
1F
100
AcDbEntity
  8
躯体
  6
JWW_DASHED1
 62
     2
370
     9
100
AcDbCircle
 10
-208.652124058786
 20
-126.6841656305613
 30
0.0
 40
1.999999907716361
  0
CIRCLE
  5
E3
330
1F
100
AcDbEntity
  8
躯体
  6
JWW_DASHED1
 62
     2
370
     9
100
AcDbCircle
 10
-208.652124058786
 20
-26.68415261051351
 30
0.0
 40
1.999999907716361
  0
CIRCLE
  5
E4
330
1F
100
AcDbEntity
  8
躯体
  6
JWW_DASHED1
 62
     2
370
     9
100
AcDbCircle
 10
-555.6520343323931
 20
220.3157446430458
 30
0.0
 40
1.999999907716361
  0
CIRCLE
  5
E5
330
1F
100
AcDbEntity
  8
躯体
  6
JWW_DASHED1
 62
     2
370
     9
100
AcDbCircle
 10
-455.6520213123453
 20
220.3157446430458
 30
0.0
 40
1.999999907716361
  0
CIRCLE
  5
E6
330
1F
100
AcDbEntity
  8
躯体
  6
JWW_DASHED1
 62
     2
370
     9
100
AcDbCircle
 10
-255.6520477648406
 20
220.3157446430458
 30
0.0
 40
1.999999907716361
  0
CIRCLE
  5
E7
330
1F
100
AcDbEntity
  8
躯体
  6
JWW_DASHED1
 62
     2
370
     9
100
AcDbCircle
 10
-355.6520607848884
 20
220.3157446430458
 30
0.0
 40
1.999999907716361
  0
LINE
  5
E8
330
1F
100
AcDbEntity
  8
通り芯
  6
Continuous
 62
     4
370
     9
100
AcDbLine
 10
-630.6521359594631
 20
248.3158700714702
 30
0.0
 11
-618.6520897035156
 21
236.3158538111389
 31
0.0
  0
LINE
  5
E9
330
1F
100
AcDbEntity
  8
通り芯
  6
Continuous
 62
     4
370
     9
100
AcDbLine
 10
-192.6520111413533
 20
236.3158500618182
 30
0.0
 11
-180.6520511229526
 21
248.3158700714702
 31
0.0
  0
LINE
  5
EA
330
1F
100
AcDbEntity
  8
通り芯
  6
Continuous
 62
     4
370
     9
100
AcDbLine
 10
-192.6520148906928
 20
-189.6841985047092
 30
0.0
 11
-180.6520511229526
 21
-201.6841622724495
 31
0.0
  0
LINE
  5
EB
330
1F
100
AcDbEntity
  8
通り芯
  6
Continuous
 62
     4
370
     9
100
AcDbLine
 10
-630.6521359594631
 20
-201.6841622724495
 30
0.0
 11
-618.6521122006028
 21
-189.6841985047092
 31
0.0
  0
LINE
  5
EC
330
1F
100
AcDbEntity
  8
通り芯
  6
JWW_CENTER1
 62
     4
370
     9
100
AcDbLine
 10
-405.6520410486169
 20
-234.684162390278
 30
0.0
 11
-405.6520410486169
 21
281.3157652041168
 31
0.0
  0
LINE
  5
ED
330
1F
100
AcDbEntity
  8
通り芯
  6
JWW_CENTER1
 62
     4
370
     9
100
AcDbLine
 10
-147.6520510051241
 20
23.31582765321485
 30
0.0
 11
-663.65203109211
 21
23.31582765321485
 31
0.0
  0
LINE
  5
EE
330
1F
100
AcDbEntity
  8
0-9
  6
JWW_DASHED3
 62
     2
370
     9
100
AcDbLine
 10
-605.6520410486169
 20
-176.6841723467851
 30
0.0
 11
-205.6520410486169
 21
-176.6841723467851
 31
0.0
  0
LINE
  5
EF
330
1F
100
AcDbEntity
  8
0-9
  6
JWW_DASHED3
 62
     2
370
     9
100
AcDbLine
 10
-205.6520410486169
 20
-176.6841723467851
 30
0.0
 11
-205.6520410486169
 21
223.3158276532149
 31
0.0
  0
LINE
  5
F0
330
1F
100
AcDbEntity
  8
0-9
  6
JWW_DASHED3
 62
     2
370
     9
100
AcDbLine
 10
-205.6520410486169
 20
223.3158276532149
 30
0.0
 11
-605.6520410486169
 21
223.3158276532149
 31
0.0
  0
LINE
  5
F1
330
1F
100
AcDbEntity
  8
0-9
  6
JWW_DASHED3
 62
     2
370
     9
100
AcDbLine
 10
-605.6520410486169
 20
223.3158276532149
 30
0.0
 11
-605.6520410486169
 21
-176.6841723467851
 31
0.0
  0
LINE
  5
F2
330
1F
100
AcDbEntity
  8
その他
  6
Continuous
 62
     7
370
     9
100
AcDbLine
 10
-605.6520410486169
 20
308.7238373627534
 30
0.0
 11
-205.6520410486169
 21
308.7238373627534
 31
0.0
  0
LWPOLYLINE
  5
F3
330
1F
100
AcDbEntity
  8
その他
  6
Continuous
 62
     7
370
     9
100
AcDbPolyline
 90
        4
 70
     1
 43
0.5
 10
-605.402041048617
 20
308.7238373627534
 42
0.4142135623731
 10
-605.6520410486169
 20
308.9738373627534
 42
0.4142135623731
 10
-605.9020410486169
 20
308.7238373627534
 42
0.4142135623731
 10
-605.6520410486169
 20
308.4738373627534
 42
0.4142135623731
  0
LWPOLYLINE
  5
F4
330
1F
100
AcDbEntity
  8
その他
  6
Continuous
 62
     7
370
     9
100
AcDbPolyline
 90
        4
 70
     1
 43
0.5
 10
-205.4020410486169
 20
308.7238373627534
 42
0.4142135623731
 10
-205.6520410486169
 20
308.9738373627534
 42
0.4142135623731
 10
-205.9020410486169
 20
308.7238373627534
 42
0.4142135623731
 10
-205.6520410486169
 20
308.4738373627534
 42
0.4142135623731
  0
TEXT
  5
F5
330
1F
100
AcDbEntity
  8
その他
  6
Continuous
 62
     2
370
   211
100
AcDbText
 10
-421.9020410486169
 20
314.5438374819627
 30
0.0
 40
15.24
  1
400
 41
1.083333333333333
  7
ＭＳ ゴシック
100
AcDbText
  0
LINE
  5
F6
330
1F
100
AcDbEntity
  8
その他
  6
Continuous
 62
     7
370
     9
100
AcDbLine
 10
-630.6521647685282
 20
268.8164953283362
 30
0.0
 11
-630.6521647685282
 21
349.7157081397805
 31
0.0
  0
LINE
  5
F7
330
1F
100
AcDbEntity
  8
その他
  6
Continuous
 62
     7
370
     9
100
AcDbLine
 10
-605.6520410486169
 20
310.223837422358
 30
0.0
 11
-605.6520410486169
 21
268.8164953283362
 31
0.0
  0
LINE
  5
F8
330
1F
100
AcDbEntity
  8
その他
  6
Continuous
 62
     7
370
     9
100
AcDbLine
 10
-180.6520410486169
 20
268.8164953283362
 30
0.0
 11
-180.6520410486169
 21
349.7157081397805
 31
0.0
  0
LINE
  5
F9
330
1F
100
AcDbEntity
  8
その他
  6
Continuous
 62
     7
370
     9
100
AcDbLine
 10
-205.6520410486169
 20
310.223837422358
 30
0.0
 11
-205.6520410486169
 21
268.8164953283362
 31
0.0
  0
LINE
  5
FA
330
1F
100
AcDbEntity
  8
その他
  6
Continuous
 62
     7
370
     9
100
AcDbLine
 10
-691.0597707949393
 20
223.3153603987359
 30
0.0
 11
-691.0562712783083
 21
-176.6846395859559
 31
0.0
  0
LWPOLYLINE
  5
FB
330
1F
100
AcDbEntity
  8
その他
  6
Continuous
 62
     7
370
     9
100
AcDbPolyline
 90
        4
 70
     1
 43
0.5
 10
-690.8097707949391
 20
223.3153603987359
 42
0.4142135623731
 10
-691.0597707949393
 20
223.5653603987359
 42
0.4142135623731
 10
-691.3097707949394
 20
223.3153603987359
 42
0.4142135623731
 10
-691.0597707949393
 20
223.0653603987359
 42
0.4142135623731
  0
LINE
  5
FC
330
1F
100
AcDbEntity
  8
その他
  6
Continuous
 62
     7
370
     9
100
AcDbLine
 10
-692.5597708544865
 20
223.315347275548
 30
0.0
 11
-651.1524287620495
 21
223.3157095397537
 31
0.0
  0
LINE
  5
FD
330
1F
100
AcDbEntity
  8
その他
  6
Continuous
 62
     7
370
     9
100
AcDbLine
 10
-692.5562713378555
 20
-176.6846527091438
 30
0.0
 11
-651.1489292454183
 21
-176.684290444938
 31
0.0
  0
LWPOLYLINE
  5
FE
330
1F
100
AcDbEntity
  8
その他
  6
Continuous
 62
     7
370
     9
100
AcDbPolyline
 90
        4
 70
     1
 43
0.5
 10
-690.8062712783083
 20
-176.6846395859558
 42
0.4142135623731
 10
-691.0562712783083
 20
-176.4346395859559
 42
0.4142135623731
 10
-691.3062712783084
 20
-176.6846395859558
 42
0.4142135623731
 10
-691.0562712783083
 20
-176.9346395859558
 42
0.4142135623731
  0
LINE
  5
FF
330
1F
100
AcDbEntity
  8
その他
  6
Continuous
 62
     7
370
     9
100
AcDbLine
 10
-651.1519906801711
 20
248.3165323890241
 30
0.0
 11
-732.0512101456926
 21
248.3161060230152
 31
0.0
  0
LINE
  5
100
330
1F
100
AcDbEntity
  8
その他
  6
Continuous
 62
     7
370
     9
100
AcDbLine
 10
-651.1487974906346
 20
-201.6835913261661
 30
0.0
 11
-732.0488594673775
 21
-201.6840176968961
 31
0.0
  0
TEXT
  5
101
330
1F
100
AcDbEntity
  8
その他
  6
Continuous
 62
     2
370
   211
100
AcDbText
 10
-696.8778789877473
 20
7.065309489043888
 30
0.0
 40
15.24
  1
400
 50
90.00050126883323
 41
1.083333333333333
  7
ＭＳ ゴシック
100
AcDbText
  0
LINE
  5
102
330
1F
100
AcDbEntity
  8
通り芯
  6
JWW_DASHED1
 62
   211
370
     5
100
AcDbLine
 10
-618.6520897035156
 20
236.3158538111389
 30
0.0
 11
-609.651961274591
 21
227.3157253822144
 31
0.0
  0
LINE
  5
103
330
1F
100
AcDbEntity
  8
通り芯
  6
JWW_DASHED1
 62
   211
370
     5
100
AcDbLine
 10
-609.6519500261107
 20
227.3157366307088
 30
0.0
 11
-201.6520795785322
 21
227.3157366307088
 31
0.0
  0
LINE
  5
104
330
1F
100
AcDbEntity
  8
通り芯
  6
JWW_DASHED1
 62
   211
370
     5
100
AcDbLine
 10
-609.6519500261107
 20
-180.6840813242789
 30
0.0
 11
-609.6519500261107
 21
227.3157366307088
 31
0.0
  0
LINE
  5
105
330
1F
100
AcDbEntity
  8
通り芯
  6
JWW_DASHED1
 62
   211
370
     5
100
AcDbLine
 10
-597.6519337657795
 20
-168.6839600787658
 30
0.0
 11
-597.6519337657795
 21
215.3156153851957
 31
0.0
  0
LINE
  5
106
330
1F
100
AcDbEntity
  8
通り芯
  6
JWW_DASHED1
 62
   211
370
     5
100
AcDbLine
 10
-597.6519337657795
 20
215.3156153851957
 30
0.0
 11
-213.6522008240452
 21
215.3156153851957
 31
0.0
  0
LINE
  5
107
330
1F
100
AcDbEntity
  8
通り芯
  6
JWW_DASHED1
 62
   211
370
     5
100
AcDbLine
 10
-213.6522008240452
 20
215.3156153851957
 30
0.0
 11
-213.6523583018181
 21
-168.6839600787658
 31
0.0
  0
LINE
  5
108
330
1F
100
AcDbEntity
  8
通り芯
  6
JWW_DASHED1
 62
   211
370
     5
100
AcDbLine
 10
-213.6523583018181
 20
-168.6839600787658
 30
0.0
 11
-597.6519337657795
 21
-168.6839600787658
 31
0.0
  0
LINE
  5
109
330
1F
100
AcDbEntity
  8
通り芯
  6
JWW_DASHED1
 62
   211
370
     5
100
AcDbLine
 10
-201.6520795785322
 20
227.3157366307088
 30
0.0
 11
-201.6520795785322
 21
-180.6841338168699
 31
0.0
  0
LINE
  5
10A
330
1F
100
AcDbEntity
  8
通り芯
  6
JWW_DASHED1
 62
   211
370
     5
100
AcDbLine
 10
-192.6520148906928
 20
-189.6841985047092
 30
0.0
 11
-201.6520795785322
 21
-180.6841338168699
 31
0.0
  0
LINE
  5
10B
330
1F
100
AcDbEntity
  8
通り芯
  6
JWW_DASHED1
 62
   211
370
     5
100
AcDbLine
 10
-201.6520795785322
 20
-180.6840813242789
 30
0.0
 11
-609.6519500261107
 21
-180.6840813242789
 31
0.0
  0
LINE
  5
10C
330
1F
100
AcDbEntity
  8
通り芯
  6
JWW_DASHED1
 62
   211
370
     5
100
AcDbLine
 10
-618.6521122006028
 20
-189.6841985047092
 30
0.0
 11
-609.6519725231135
 21
-180.6840588272199
 31
0.0
  0
LINE
  5
10D
330
1F
100
AcDbEntity
  8
通り芯
  6
JWW_DASHED1
 62
   211
370
     5
100
AcDbLine
 10
-201.6520795785322
 20
227.3157366307088
 30
0.0
 11
-192.6519886443592
 21
236.3158275648819
 31
0.0
  0
LINE
  5
10E
330
1F
100
AcDbEntity
  8
1-4ﾚｲﾔ
  6
Continuous
 62
     7
370
     9
100
AcDbLine
 10
523.5165982633023
 20
408.5806474431544
 30
0.0
 11
528.5767426361908
 21
420.0106351701393
 31
0.0
  0
LINE
  5
10F
330
1F
100
AcDbEntity
  8
1-4ﾚｲﾔ
  6
Continuous
 62
     7
370
     9
100
AcDbLine
 10
523.5165982633023
 20
408.5806474431544
 30
0.0
 11
531.3629150390625
 21
418.3115896280151
 31
0.0
  0
LINE
  5
110
330
1F
100
AcDbEntity
  8
1-1ﾚｲﾔ
  6
Continuous
 62
     2
370
     9
100
AcDbLine
 10
535.7995110589106
 20
458.5806886831249
 30
0.0
 11
542.0495935388516
 21
454.8307381710895
 31
0.0
  0
LINE
  5
111
330
1F
100
AcDbEntity
  8
1-1ﾚｲﾔ
  6
Continuous
 62
     2
370
     9
100
AcDbLine
 10
542.0495935388516
 20
454.8307381710895
 30
0.0
 11
542.0495935388516
 21
453.580795907048
 31
0.0
  0
LINE
  5
112
330
1F
100
AcDbEntity
  8
1-5ﾚｲﾔ
  6
Continuous
 62
     7
370
     9
100
AcDbLine
 10
449.5496595228042
 20
391.0805897071958
 30
0.0
 11
449.5496595228042
 21
388.5808288990245
 31
0.0
  0
LINE
  5
113
330
1F
100
AcDbEntity
  8
1-5ﾚｲﾔ
  6
Continuous
 62
     7
370
     9
100
AcDbLine
 10
509.5496100348396
 20
391.0805897071958
 30
0.0
 11
509.5496100348396
 21
388.5808288990245
 31
0.0
  0
LINE
  5
114
330
1F
100
AcDbEntity
  8
1-5ﾚｲﾔ
  6
Continuous
 62
     7
370
     9
100
AcDbLine
 10
493.2997420027451
 20
382.3308701389949
 30
0.0
 11
493.2997420027451
 21
379.9425809709206
 31
0.0
  0
LINE
  5
115
330
1F
100
AcDbEntity
  8
1-5ﾚｲﾔ
  6
Continuous
 62
     7
370
     9
100
AcDbLine
 10
465.7997749947214
 20
382.3308701389949
 30
0.0
 11
465.7997749947214
 21
379.9425809709206
 31
0.0
  0
LINE
  5
116
330
1F
100
AcDbEntity
  8
1-5ﾚｲﾔ
  6
Continuous
 62
     7
370
     9
100
AcDbLine
 10
490.1748244826859
 20
388.5808288990245
 30
0.0
 11
490.1748244826859
 21
382.3308701389949
 31
0.0
  0
LINE
  5
117
330
1F
100
AcDbEntity
  8
1-5ﾚｲﾔ
  6
Continuous
 62
     7
370
     9
100
AcDbLine
 10
493.2997420027451
 20
382.3308701389949
 30
0.0
 11
490.1748244826859
 21
382.3308701389949
 31
0.0
  0
LINE
  5
118
330
1F
100
AcDbEntity
  8
1-5ﾚｲﾔ
  6
Continuous
 62
     7
370
     9
100
AcDbLine
 10
468.9246925147805
 20
388.5808288990245
 30
0.0
 11
468.9246925147805
 21
382.3308701389949
 31
0.0
  0
LINE
  5
119
330
1F
100
AcDbEntity
  8
1-5ﾚｲﾔ
  6
Continuous
 62
     7
370
     9
100
AcDbLine
 10
468.9246925147805
 20
382.3308701389949
 30
0.0
 11
465.7997749947214
 21
382.3308701389949
 31
0.0
  0
LINE
  5
11A
330
1F
100
AcDbEntity
  8
1-5ﾚｲﾔ
  6
Continuous
 62
     7
370
     9
100
AcDbLine
 10
487.0496595228042
 20
388.5808288990245
 30
0.0
 11
487.0496595228042
 21
380.1321198750589
 31
0.0
  0
LINE
  5
11B
330
1F
100
AcDbEntity
  8
1-5ﾚｲﾔ
  6
Continuous
 62
     7
370
     9
100
AcDbLine
 10
487.0496595228042
 20
388.5808288990245
 30
0.0
 11
472.0496100348396
 21
388.5808288990245
 31
0.0
  0
LINE
  5
11C
330
1F
100
AcDbEntity
  8
1-5ﾚｲﾔ
  6
Continuous
 62
     7
370
     9
100
AcDbLine
 10
472.0496100348396
 20
388.5808288990245
 30
0.0
 11
472.0496100348396
 21
380.1321198750589
 31
0.0
  0
LINE
  5
11D
330
1F
100
AcDbEntity
  8
1-1ﾚｲﾔ
  6
Continuous
 62
     2
370
     9
100
AcDbLine
 10
512.0494945629224
 20
388.5808288990245
 30
0.0
 11
493.2997420027451
 21
388.5808288990245
 31
0.0
  0
LINE
  5
11E
330
1F
100
AcDbEntity
  8
1-5ﾚｲﾔ
  6
Continuous
 62
     7
370
     9
100
AcDbLine
 10
493.2997420027451
 20
388.5808288990245
 30
0.0
 11
490.1748244826859
 21
388.5808288990245
 31
0.0
  0
LINE
  5
11F
330
1F
100
AcDbEntity
  8
1-1ﾚｲﾔ
  6
Continuous
 62
     2
370
     9
100
AcDbLine
 10
465.7997749947214
 20
388.5808288990245
 30
0.0
 11
447.0497749947214
 21
388.5808288990245
 31
0.0
  0
LINE
  5
120
330
1F
100
AcDbEntity
  8
1-5ﾚｲﾔ
  6
Continuous
 62
     7
370
     9
100
AcDbLine
 10
465.7997749947214
 20
388.5808288990245
 30
0.0
 11
468.9246925147805
 21
388.5808288990245
 31
0.0
  0
LINE
  5
121
330
1F
100
AcDbEntity
  8
1-1ﾚｲﾔ
  6
Continuous
 62
     2
370
     9
100
AcDbLine
 10
495.174840978674
 20
383.5808124030362
 30
0.0
 11
493.2997420027451
 21
383.5808124030362
 31
0.0
  0
LINE
  5
122
330
1F
100
AcDbEntity
  8
1-1ﾚｲﾔ
  6
Continuous
 62
     2
370
     9
100
AcDbLine
 10
463.9246760187922
 20
383.5808124030362
 30
0.0
 11
465.7997749947214
 21
383.5808124030362
 31
0.0
  0
LINE
  5
123
330
1F
100
AcDbEntity
  8
1-1ﾚｲﾔ
  6
Continuous
 62
     2
370
     9
100
AcDbLine
 10
485.1748079866977
 20
356.0807216751013
 30
0.0
 11
485.1748079866977
 21
353.5805897071958
 31
0.0
  0
LINE
  5
124
330
1F
100
AcDbEntity
  8
1-1ﾚｲﾔ
  6
Continuous
 62
     2
370
     9
100
AcDbLine
 10
488.9247584987331
 20
356.0807216751013
 30
0.0
 11
485.1748079866977
 21
356.0807216751013
 31
0.0
  0
LINE
  5
125
330
1F
100
AcDbEntity
  8
1-1ﾚｲﾔ
  6
Continuous
 62
     2
370
     9
100
AcDbLine
 10
488.9247584987331
 20
364.8308124030362
 30
0.0
 11
488.9247584987331
 21
356.0807216751013
 31
0.0
  0
LINE
  5
126
330
1F
100
AcDbEntity
  8
1-1ﾚｲﾔ
  6
Continuous
 62
     2
370
     9
100
AcDbLine
 10
473.9247090107688
 20
356.0807216751013
 30
0.0
 11
473.9247090107688
 21
353.5805897071958
 31
0.0
  0
LINE
  5
127
330
1F
100
AcDbEntity
  8
1-1ﾚｲﾔ
  6
Continuous
 62
     2
370
     9
100
AcDbLine
 10
470.1745110589107
 20
356.0807216751013
 30
0.0
 11
473.9247090107688
 21
356.0807216751013
 31
0.0
  0
LINE
  5
128
330
1F
100
AcDbEntity
  8
1-1ﾚｲﾔ
  6
Continuous
 62
     2
370
     9
100
AcDbLine
 10
470.1745110589107
 20
364.8308124030362
 30
0.0
 11
470.1745110589107
 21
356.0807216751013
 31
0.0
  0
LINE
  5
129
330
1F
100
AcDbEntity
  8
1-1ﾚｲﾔ
  6
Continuous
 62
     2
370
     9
100
AcDbLine
 10
453.2993625950169
 20
383.5808124030362
 30
0.0
 11
457.6743460990289
 21
383.5808124030362
 31
0.0
  0
LINE
  5
12A
330
1F
100
AcDbEntity
  8
1-1ﾚｲﾔ
  6
Continuous
 62
     2
370
     9
100
AcDbLine
 10
447.0497749947214
 20
388.5808288990245
 30
0.0
 11
447.0497749947214
 21
353.5805897071958
 31
0.0
  0
LINE
  5
12B
330
1F
100
AcDbEntity
  8
1-1ﾚｲﾔ
  6
Continuous
 62
     2
370
     9
100
AcDbLine
 10
450.7997255067568
 20
359.830795907048
 30
0.0
 11
450.7997255067568
 21
381.0808041550422
 31
0.0
  0
LINE
  5
12C
330
1F
100
AcDbEntity
  8
1-1ﾚｲﾔ
  6
Continuous
 62
     2
370
     9
100
AcDbLine
 10
463.9249234586148
 20
357.3306639391427
 30
0.0
 11
453.2993625950169
 21
357.3306639391427
 31
0.0
  0
LINE
  5
12D
330
1F
100
AcDbEntity
  8
1-1ﾚｲﾔ
  6
Continuous
 62
     2
370
     9
100
AcDbLine
 10
466.4248079866977
 20
362.3308041550422
 30
0.0
 11
466.4248079866977
 21
359.830795907048
 31
0.0
  0
LINE
  5
12E
330
1F
100
AcDbEntity
  8
1-1ﾚｲﾔ
  6
Continuous
 62
     2
370
     9
100
AcDbLine
 10
462.6746100348396
 20
364.8308124030362
 30
0.0
 11
463.9249234586148
 21
364.8308124030362
 31
0.0
  0
LINE
  5
12F
330
1F
100
AcDbEntity
  8
1-1ﾚｲﾔ
  6
Continuous
 62
     2
370
     9
100
AcDbLine
 10
460.1749729465794
 20
367.330696931119
 30
0.0
 11
460.1749729465794
 21
381.0808041550422
 31
0.0
  0
LINE
  5
130
330
1F
100
AcDbEntity
  8
1-1ﾚｲﾔ
  6
Continuous
 62
     2
370
     9
100
AcDbLine
 10
524.5496595228042
 20
358.5807299230953
 30
0.0
 11
517.0500059385557
 21
358.5807299230953
 31
0.0
  0
LINE
  5
131
330
1F
100
AcDbEntity
  8
1-1ﾚｲﾔ
  6
Continuous
 62
     2
370
     9
100
AcDbLine
 10
509.5496100348396
 20
383.5808124030362
 30
0.0
 11
501.4246760187922
 21
383.5808124030362
 31
0.0
  0
LINE
  5
132
330
1F
100
AcDbEntity
  8
1-1ﾚｲﾔ
  6
Continuous
 62
     2
370
     9
100
AcDbLine
 10
498.9250389305323
 20
368.5808866349831
 30
0.0
 11
498.9250389305323
 21
381.0808041550422
 31
0.0
  0
LINE
  5
133
330
1F
100
AcDbEntity
  8
1-1ﾚｲﾔ
  6
Continuous
 62
     2
370
     9
100
AcDbLine
 10
495.174840978674
 20
364.8308124030362
 30
0.0
 11
492.6744615709461
 21
364.8308124030362
 31
0.0
  0
LINE
  5
134
330
1F
100
AcDbEntity
  8
1-1ﾚｲﾔ
  6
Continuous
 62
     2
370
     9
100
AcDbLine
 10
529.5496760187922
 20
361.0807381710895
 30
0.0
 11
529.5496760187922
 21
353.5805897071958
 31
0.0
  0
LINE
  5
135
330
1F
100
AcDbEntity
  8
1-1ﾚｲﾔ
  6
Continuous
 62
     2
370
     9
100
AcDbLine
 10
524.5496595228042
 20
361.0807381710895
 30
0.0
 11
524.5496595228042
 21
358.5807299230953
 31
0.0
  0
LINE
  5
136
330
1F
100
AcDbEntity
  8
1-1ﾚｲﾔ
  6
Continuous
 62
     2
370
     9
100
AcDbLine
 10
512.0494945629224
 20
359.830795907048
 30
0.0
 11
512.0494945629224
 21
381.0808041550422
 31
0.0
  0
LINE
  5
137
330
1F
100
AcDbEntity
  8
1-1ﾚｲﾔ
  6
Continuous
 62
     2
370
     9
100
AcDbLine
 10
495.174840978674
 20
357.3306639391427
 30
0.0
 11
509.5496100348396
 21
357.3306639391427
 31
0.0
  0
LINE
  5
138
330
1F
100
AcDbEntity
  8
1-1ﾚｲﾔ
  6
Continuous
 62
     2
370
     9
100
AcDbLine
 10
492.6744615709461
 20
359.830795907048
 30
0.0
 11
492.6744615709461
 21
364.8308124030362
 31
0.0
  0
LINE
  5
139
330
1F
100
AcDbEntity
  8
1-1ﾚｲﾔ
  6
Continuous
 62
     2
370
     9
100
AcDbLine
 10
529.5496760187922
 20
408.5806474431544
 30
0.0
 11
517.0500059385557
 21
408.5806474431544
 31
0.0
  0
LINE
  5
13A
330
1F
100
AcDbEntity
  8
1-1ﾚｲﾔ
  6
Continuous
 62
     2
370
     9
100
AcDbLine
 10
529.5496760187922
 20
401.0804989792609
 30
0.0
 11
529.5496760187922
 21
408.5806474431544
 31
0.0
  0
LINE
  5
13B
330
1F
100
AcDbEntity
  8
1-1ﾚｲﾔ
  6
Continuous
 62
     2
370
     9
100
AcDbLine
 10
524.5496595228042
 20
401.0804989792609
 30
0.0
 11
524.5496595228042
 21
403.580878386989
 31
0.0
  0
LINE
  5
13C
330
1F
100
AcDbEntity
  8
1-1ﾚｲﾔ
  6
Continuous
 62
     2
370
     9
100
AcDbLine
 10
524.5496595228042
 20
403.580878386989
 30
0.0
 11
517.0500059385557
 21
403.580878386989
 31
0.0
  0
LINE
  5
13D
330
1F
100
AcDbEntity
  8
1-1ﾚｲﾔ
  6
Continuous
 62
     2
370
     9
100
AcDbLine
 10
517.0500059385557
 20
403.580878386989
 30
0.0
 11
517.0500059385557
 21
358.5807299230953
 31
0.0
  0
LINE
  5
13E
330
1F
100
AcDbEntity
  8
1-1ﾚｲﾔ
  6
Continuous
 62
     2
370
     9
100
AcDbLine
 10
522.0497749947214
 20
453.580795907048
 30
0.0
 11
542.0495935388516
 21
453.580795907048
 31
0.0
  0
LINE
  5
13F
330
1F
100
AcDbEntity
  8
1-1ﾚｲﾔ
  6
Continuous
 62
     2
370
     9
100
AcDbLine
 10
517.0500059385557
 20
448.5806556911485
 30
0.0
 11
517.0500059385557
 21
408.5806474431544
 31
0.0
  0
LINE
  5
140
330
1F
100
AcDbEntity
  8
1-1ﾚｲﾔ
  6
Continuous
 62
     2
370
     9
100
AcDbLine
 10
529.5496760187922
 20
353.5805897071958
 30
0.0
 11
485.1748079866977
 21
353.5805897071958
 31
0.0
  0
LINE
  5
141
330
1F
100
AcDbEntity
  8
1-1ﾚｲﾔ
  6
Continuous
 62
     2
370
     9
100
AcDbLine
 10
473.9247090107688
 20
353.5805897071958
 30
0.0
 11
447.0497749947214
 21
353.5805897071958
 31
0.0
  0
LINE
  5
142
330
1F
100
AcDbEntity
  8
1-1ﾚｲﾔ
  6
Continuous
 62
     2
370
     9
100
AcDbLine
 10
495.174840978674
 20
372.3305897071958
 30
0.0
 11
495.174840978674
 21
383.5808124030362
 31
0.0
  0
LINE
  5
143
330
1F
100
AcDbEntity
  8
1-1ﾚｲﾔ
  6
Continuous
 62
     2
370
     9
100
AcDbLine
 10
463.9246760187922
 20
372.3305897071958
 30
0.0
 11
463.9246760187922
 21
383.5808124030362
 31
0.0
  0
LINE
  5
144
330
1F
100
AcDbEntity
  8
1-5ﾚｲﾔ
  6
Continuous
 62
     7
370
     9
100
AcDbLine
 10
457.0498079866977
 20
391.0805897071958
 30
0.0
 11
449.5496595228042
 21
391.0805897071958
 31
0.0
  0
LINE
  5
145
330
1F
100
AcDbEntity
  8
1-5ﾚｲﾔ
  6
Continuous
 62
     7
370
     9
100
AcDbLine
 10
497.0499399546031
 20
391.0805897071958
 30
0.0
 11
467.049840978674
 21
391.0805897071958
 31
0.0
  0
LINE
  5
146
330
1F
100
AcDbEntity
  8
1-1ﾚｲﾔ
  6
Continuous
 62
     2
370
     9
100
AcDbLine
 10
535.7995110589106
 20
458.5806886831249
 30
0.0
 11
518.2995770428633
 21
458.5806886831249
 31
0.0
  0
LINE
  5
147
330
1F
100
AcDbEntity
  8
1-1ﾚｲﾔ
  6
Continuous
 62
     2
370
     9
100
AcDbLine
 10
512.0494945629224
 20
453.580795907048
 30
0.0
 11
512.0494945629224
 21
388.5808288990245
 31
0.0
  0
LINE
  5
148
330
1F
100
AcDbEntity
  8
1-1ﾚｲﾔ
  6
Continuous
 62
     2
370
     9
100
AcDbLine
 10
518.2995770428633
 20
458.5806886831249
 30
0.0
 11
512.0494945629224
 21
453.580795907048
 31
0.0
  0
LINE
  5
149
330
1F
100
AcDbEntity
  8
1-1ﾚｲﾔ
  6
Continuous
 62
     2
370
     9
100
AcDbLine
 10
492.6747090107688
 20
369.8305814592018
 30
0.0
 11
466.4248079866977
 21
369.8305814592018
 31
0.0
  0
LINE
  5
14A
330
1F
100
AcDbEntity
  8
1-1ﾚｲﾔ
  6
Continuous
 62
     2
370
     9
100
AcDbLine
 10
473.2996760187922
 20
369.8305814592018
 30
0.0
 11
473.2996760187922
 21
364.8308124030362
 31
0.0
  0
LINE
  5
14B
330
1F
100
AcDbEntity
  8
1-1ﾚｲﾔ
  6
Continuous
 62
     2
370
     9
100
AcDbLine
 10
485.799840978674
 20
369.8305814592018
 30
0.0
 11
485.799840978674
 21
364.8308124030362
 31
0.0
  0
LINE
  5
14C
330
1F
100
AcDbEntity
  8
1-6ﾚｲﾔ
  6
Continuous
 62
     6
370
     9
100
AcDbLine
 10
641.4246430268158
 20
306.7058371470185
 30
0.0
 11
532.0498079866977
 21
416.080795907048
 31
0.0
  0
LINE
  5
14D
330
1F
100
AcDbEntity
  8
1-6ﾚｲﾔ
  6
Continuous
 62
     6
370
     9
100
AcDbLine
 10
641.4246430268158
 20
416.080795907048
 30
0.0
 11
532.0498079866977
 21
306.7058371470185
 31
0.0
  0
LINE
  5
14E
330
1F
100
AcDbEntity
  8
1-6ﾚｲﾔ
  6
Continuous
 62
     6
370
     9
100
AcDbLine
 10
641.4246430268158
 20
416.080795907048
 30
0.0
 11
641.4246430268158
 21
306.7058371470185
 31
0.0
  0
LINE
  5
14F
330
1F
100
AcDbEntity
  8
1-6ﾚｲﾔ
  6
Continuous
 62
     6
370
     9
100
AcDbLine
 10
594.1680908203125
 20
379.6316728337794
 30
0.0
 11
602.7497987489443
 21
366.7589872209206
 31
0.0
  0
LINE
  5
150
330
1F
100
AcDbEntity
  8
1-6ﾚｲﾔ
  6
Continuous
 62
     6
370
     9
100
AcDbLine
 10
602.7497987489443
 20
366.7589872209206
 30
0.0
 11
597.288801863387
 21
357.0071363710473
 31
0.0
  0
LINE
  5
151
330
1F
100
AcDbEntity
  8
1-6ﾚｲﾔ
  6
Continuous
 62
     6
370
     9
100
AcDbLine
 10
597.288801863387
 20
357.0071363710473
 30
0.0
 11
584.4159925306167
 21
349.2054824832728
 31
0.0
  0
LINE
  5
152
330
1F
100
AcDbEntity
  8
1-6ﾚｲﾔ
  6
Continuous
 62
     6
370
     9
100
AcDbLine
 10
584.4159925306167
 20
349.2054824832728
 30
0.0
 11
568.4229670344172
 21
359.7376348138259
 31
0.0
  0
LINE
  5
153
330
1F
100
AcDbEntity
  8
1-6ﾚｲﾔ
  6
Continuous
 62
     6
370
     9
100
AcDbLine
 10
568.4229670344172
 20
359.7376348138259
 30
0.0
 11
578.5647830447635
 21
380.0217617141638
 31
0.0
  0
LINE
  5
154
330
1F
100
AcDbEntity
  8
1-6ﾚｲﾔ
  6
Continuous
 62
     6
370
     9
100
AcDbLine
 10
578.5647830447635
 20
380.0217617141638
 30
0.0
 11
594.1680908203125
 21
379.6316728337794
 31
0.0
  0
LINE
  5
155
330
1F
100
AcDbEntity
  8
1-6ﾚｲﾔ
  6
Continuous
 62
     6
370
     9
100
AcDbLine
 10
597.6787670238599
 20
394.8447680090328
 30
0.0
 11
623.4238908097552
 21
384.702704558864
 31
0.0
  0
LINE
  5
156
330
1F
100
AcDbEntity
  8
1-6ﾚｲﾔ
  6
Continuous
 62
     6
370
     9
100
AcDbLine
 10
623.4238908097552
 20
384.702704558864
 30
0.0
 11
621.0833575274495
 21
351.9359809260515
 31
0.0
  0
LINE
  5
157
330
1F
100
AcDbEntity
  8
1-6ﾚｲﾔ
  6
Continuous
 62
     6
370
     9
100
AcDbLine
 10
621.0833575274495
 20
351.9359809260515
 30
0.0
 11
583.6358147698481
 21
328.9213555829349
 31
0.0
  0
LINE
  5
158
330
1F
100
AcDbEntity
  8
1-6ﾚｲﾔ
  6
Continuous
 62
     6
370
     9
100
AcDbLine
 10
583.6358147698481
 20
328.9213555829349
 30
0.0
 11
553.2096244193415
 21
349.595571363657
 31
0.0
  0
LINE
  5
159
330
1F
100
AcDbEntity
  8
1-6ﾚｲﾔ
  6
Continuous
 62
     6
370
     9
100
AcDbLine
 10
553.2096244193415
 20
349.595571363657
 30
0.0
 11
550.4791259765625
 21
378.0713173122423
 31
0.0
  0
LINE
  5
15A
330
1F
100
AcDbEntity
  8
1-6ﾚｲﾔ
  6
Continuous
 62
     6
370
     9
100
AcDbLine
 10
550.4791259765625
 20
378.0713173122423
 30
0.0
 11
569.5931099556589
 21
399.9157997341173
 31
0.0
  0
LINE
  5
15B
330
1F
100
AcDbEntity
  8
1-6ﾚｲﾔ
  6
Continuous
 62
     6
370
     9
100
AcDbLine
 10
569.5931099556589
 20
399.9157997341173
 30
0.0
 11
580.1251385663008
 21
401.4761552556544
 31
0.0
  0
LINE
  5
15C
330
1F
100
AcDbEntity
  8
1-6ﾚｲﾔ
  6
Continuous
 62
     6
370
     9
100
AcDbLine
 10
580.1251385663008
 20
401.4761552556544
 30
0.0
 11
597.6787670238599
 21
394.8447680090328
 31
0.0
  0
LINE
  5
15D
330
1F
100
AcDbEntity
  8
1-6ﾚｲﾔ
  6
Continuous
 62
     6
370
     9
100
AcDbLine
 10
610.5513289168075
 20
409.667774303902
 30
0.0
 11
633.565954259924
 21
385.8729712000168
 31
0.0
  0
LINE
  5
15E
330
1F
100
AcDbEntity
  8
1-6ﾚｲﾔ
  6
Continuous
 62
     6
370
     9
100
AcDbLine
 10
633.565954259924
 20
385.8729712000168
 30
0.0
 11
637.076877903294
 21
350.7658380048099
 31
0.0
  0
LINE
  5
15F
330
1F
100
AcDbEntity
  8
1-6ﾚｲﾔ
  6
Continuous
 62
     6
370
     9
100
AcDbLine
 10
637.076877903294
 20
350.7658380048099
 30
0.0
 11
609.7711511560391
 21
326.1907334202448
 31
0.0
  0
LINE
  5
160
330
1F
100
AcDbEntity
  8
1-6ﾚｲﾔ
  6
Continuous
 62
     6
370
     9
100
AcDbLine
 10
609.7711511560391
 20
326.1907334202448
 30
0.0
 11
569.2028973553633
 21
317.6090254916131
 31
0.0
  0
LINE
  5
161
330
1F
100
AcDbEntity
  8
1-6ﾚｲﾔ
  6
Continuous
 62
     6
370
     9
100
AcDbLine
 10
569.2028973553633
 20
317.6090254916131
 30
0.0
 11
543.067808408995
 21
333.602298427635
 31
0.0
  0
LINE
  5
162
330
1F
100
AcDbEntity
  8
1-6ﾚｲﾔ
  6
Continuous
 62
     6
370
     9
100
AcDbLine
 10
543.067808408995
 20
333.602298427635
 30
0.0
 11
539.1666721653294
 21
360.1277236942103
 31
0.0
  0
LINE
  5
163
330
1F
100
AcDbEntity
  8
1-6ﾚｲﾔ
  6
Continuous
 62
     6
370
     9
100
AcDbLine
 10
539.1666721653294
 20
360.1277236942103
 30
0.0
 11
536.4364211623734
 21
391.7240569659586
 31
0.0
  0
LINE
  5
164
330
1F
100
AcDbEntity
  8
1-6ﾚｲﾔ
  6
Continuous
 62
     6
370
     9
100
AcDbLine
 10
536.4364211623734
 20
391.7240569659586
 30
0.0
 11
557.8904435441302
 21
406.1570981003547
 31
0.0
  0
LINE
  5
165
330
1F
100
AcDbEntity
  8
1-6ﾚｲﾔ
  6
Continuous
 62
     6
370
     9
100
AcDbLine
 10
557.8904435441302
 20
406.1570981003547
 30
0.0
 11
586.7562783730998
 21
410.4478283447593
 31
0.0
  0
LINE
  5
166
330
1F
100
AcDbEntity
  8
1-6ﾚｲﾔ
  6
Continuous
 62
     6
370
     9
100
AcDbLine
 10
586.7562783730998
 20
410.4478283447593
 30
0.0
 11
610.5513289168075
 21
409.667774303902
 31
0.0
  0
LINE
  5
167
330
1F
100
AcDbEntity
  8
1-6ﾚｲﾔ
  6
Continuous
 62
     6
370
     9
100
AcDbLine
 10
640.5873066670188
 20
332.8221206668666
 30
0.0
 11
607.4306178737331
 21
311.75781600576
 31
0.0
  0
LINE
  5
168
330
1F
100
AcDbEntity
  8
1-6ﾚｲﾔ
  6
Continuous
 62
     6
370
     9
100
AcDbLine
 10
620.0042724609375
 20
416.080795907048
 30
0.0
 11
635.1263097814613
 21
406.1570981003547
 31
0.0
  0
LINE
  5
169
330
1F
100
AcDbEntity
  8
1-6ﾚｲﾔ
  6
Continuous
 62
     6
370
     9
100
AcDbLine
 10
532.0498079866977
 20
403.7409719522338
 30
0.0
 11
547.6800867029141
 21
416.080795907048
 31
0.0
  0
LINE
  5
16A
330
1F
100
AcDbEntity
  8
1-6ﾚｲﾔ
  6
Continuous
 62
     6
370
     9
100
AcDbLine
 10
635.1263097814613
 20
406.1570981003547
 30
0.0
 11
641.4246430268158
 21
392.6857318366299
 31
0.0
  0
LINE
  5
16B
330
1F
100
AcDbEntity
  8
1-6ﾚｲﾔ
  6
Continuous
 62
     6
370
     9
100
AcDbLine
 10
641.4246430268158
 20
337.0460421591595
 30
0.0
 11
640.5873066670188
 21
332.8221206668666
 31
0.0
  0
LINE
  5
16C
330
1F
100
AcDbEntity
  8
1-6ﾚｲﾔ
  6
Continuous
 62
     6
370
     9
100
AcDbLine
 10
607.4306178737331
 20
311.75781600576
 30
0.0
 11
598.3666497307856
 21
306.7058371470185
 31
0.0
  0
LINE
  5
16D
330
1F
100
AcDbEntity
  8
1-6ﾚｲﾔ
  6
Continuous
 62
     6
370
     9
100
AcDbLine
 10
562.4250257337417
 20
306.7058371470185
 30
0.0
 11
547.3584149334883
 21
312.5379937665286
 31
0.0
  0
LINE
  5
16E
330
1F
100
AcDbEntity
  8
1-6ﾚｲﾔ
  6
Continuous
 62
     6
370
     9
100
AcDbLine
 10
547.3584149334883
 20
312.5379937665286
 30
0.0
 11
532.0498079866977
 21
327.3449164729265
 31
0.0
  0
LINE
  5
16F
330
1F
100
AcDbEntity
  8
1-A
  6
Continuous
 62
     2
370
     9
100
AcDbLine
 10
484.6749795449747
 20
369.8305814592018
 30
0.0
 11
484.6749795449747
 21
348.9972618725253
 31
0.0
  0
LINE
  5
170
330
1F
100
AcDbEntity
  8
1-A
  6
Continuous
 62
     2
370
     9
100
AcDbLine
 10
474.425032332137
 20
369.8305814592018
 30
0.0
 11
474.425032332137
 21
348.9972618725253
 31
0.0
  0
LINE
  5
171
330
1F
100
AcDbEntity
  8
1-A
  6
Continuous
 62
     2
370
     9
100
AcDbLine
 10
484.6749795449747
 20
348.9972618725253
 30
0.0
 11
479.5500059385557
 21
307.3306226991723
 31
0.0
  0
LINE
  5
172
330
1F
100
AcDbEntity
  8
1-A
  6
Continuous
 62
     2
370
     9
100
AcDbLine
 10
474.425032332137
 20
348.9972618725253
 30
0.0
 11
479.5500059385557
 21
307.3306226991723
 31
0.0
  0
LINE
  5
173
330
1F
100
AcDbEntity
  8
1-A
  6
Continuous
 62
     2
370
     9
100
AcDbLine
 10
481.2439789643159
 20
310.8656717252491
 30
0.0
 11
477.7805637668919
 21
311.4763532075126
 31
0.0
  0
LINE
  5
174
330
1F
100
AcDbEntity
  8
1-A
  6
Continuous
 62
     2
370
     9
100
AcDbLine
 10
481.785872175887
 20
315.2701005681544
 30
0.0
 11
477.2146688925255
 21
316.0761357903884
 31
0.0
  0
LINE
  5
175
330
1F
100
AcDbEntity
  8
1-A
  6
Continuous
 62
     2
370
     9
100
AcDbLine
 10
485.578134897593
 20
346.1014736282263
 30
0.0
 11
473.2541470914273
 21
348.2744901506081
 31
0.0
  0
LINE
  5
176
330
1F
100
AcDbEntity
  8
1-A
  6
Continuous
 62
     2
370
     9
100
AcDbLine
 10
485.0362416860222
 20
341.6970447853208
 30
0.0
 11
473.8197945259714
 21
343.6747075677322
 31
0.0
  0
LINE
  5
177
330
1F
100
AcDbEntity
  8
1-A
  6
Continuous
 62
     2
370
     9
100
AcDbLine
 10
484.4948433540964
 20
337.2924922225042
 30
0.0
 11
474.3859368401607
 21
339.0750487047677
 31
0.0
  0
LINE
  5
178
330
1F
100
AcDbEntity
  8
1-A
  6
Continuous
 62
     2
370
     9
100
AcDbLine
 10
483.9529501425255
 20
332.8880633795987
 30
0.0
 11
474.9515842747044
 21
334.4752661218918
 31
0.0
  0
LINE
  5
179
330
1F
100
AcDbEntity
  8
1-A
  6
Continuous
 62
     2
370
     9
100
AcDbLine
 10
483.4110569309544
 20
328.4836345366933
 30
0.0
 11
475.5172317092484
 21
329.875483539016
 31
0.0
  0
LINE
  5
17A
330
1F
100
AcDbEntity
  8
1-A
  6
Continuous
 62
     2
370
     9
100
AcDbLine
 10
482.8691637193836
 20
324.0790819738766
 30
0.0
 11
476.0831265836148
 21
325.2755772362287
 31
0.0
  0
LINE
  5
17B
330
1F
100
AcDbEntity
  8
1-A
  6
Continuous
 62
     2
370
     9
100
AcDbLine
 10
482.3277653874578
 20
319.6746531309713
 30
0.0
 11
476.6490214579815
 21
320.6760420931756
 31
0.0
  0
LINE
  5
17C
330
1F
100
AcDbEntity
  8
1-1ﾚｲﾔ
  6
JWW_CENTER1
 62
     2
370
     9
100
AcDbLine
 10
479.5500059385557
 20
392.790522601516
 30
0.0
 11
479.5500059385557
 21
305.781525689565
 31
0.0
  0
LINE
  5
17D
330
1F
100
AcDbEntity
  8
1-6ﾚｲﾔ
  6
Continuous
 62
     6
370
     9
100
AcDbLine
 10
479.4072331608953
 20
308.4901257080405
 30
0.0
 11
447.0497749947214
 21
340.8477075941258
 31
0.0
  0
LINE
  5
17E
330
1F
100
AcDbEntity
  8
1-6ﾚｲﾔ
  6
Continuous
 62
     6
370
     9
100
AcDbLine
 10
474.4487865551099
 20
348.8040113710473
 30
0.0
 11
469.6719607791385
 21
353.5805897071958
 31
0.0
  0
LINE
  5
17F
330
1F
100
AcDbEntity
  8
1-1ﾚｲﾔ
  6
Continuous
 62
     2
370
     9
100
AcDbLine
 10
474.425032332137
 20
364.8308124030362
 30
0.0
 11
470.1745110589107
 21
364.8308124030362
 31
0.0
  0
LINE
  5
180
330
1F
100
AcDbEntity
  8
1-1ﾚｲﾔ
  6
Continuous
 62
     2
370
     9
100
AcDbLine
 10
488.9247584987331
 20
364.8308124030362
 30
0.0
 11
484.6749795449747
 21
364.8308124030362
 31
0.0
  0
LINE
  5
181
330
1F
100
AcDbEntity
  8
1-6ﾚｲﾔ
  6
Continuous
 62
     6
370
     9
100
AcDbLine
 10
529.5496760187922
 20
353.5805897071958
 30
0.0
 11
532.0498079866977
 21
353.5805897071958
 31
0.0
  0
LINE
  5
182
330
1F
100
AcDbEntity
  8
1-6ﾚｲﾔ
  6
Continuous
 62
     6
370
     9
100
AcDbLine
 10
532.0498079866977
 20
326.5584289966807
 30
0.0
 11
505.0273998363599
 21
353.5805897071958
 31
0.0
  0
LINE
  5
183
330
1F
100
AcDbEntity
  8
1-6ﾚｲﾔ
  6
Continuous
 62
     6
370
     9
100
AcDbLine
 10
532.0498079866977
 20
306.7058371470185
 30
0.0
 11
666.3598962732266
 21
306.7058371470185
 31
0.0
  0
LINE
  5
184
330
1F
100
AcDbEntity
  8
1-6ﾚｲﾔ
  6
Continuous
 62
     6
370
     9
100
AcDbLine
 10
532.0498079866977
 20
291.2031136593707
 30
0.0
 11
483.5337870829815
 21
339.7190108431756
 31
0.0
  0
LINE
  5
185
330
1F
100
AcDbEntity
  8
1-6ﾚｲﾔ
  6
Continuous
 62
     6
370
     9
100
AcDbLine
 10
532.0498079866977
 20
281.7057546670776
 30
0.0
 11
641.3598137932856
 21
281.7057546670776
 31
0.0
  0
LINE
  5
186
330
1F
100
AcDbEntity
  8
1-6ﾚｲﾔ
  6
Continuous
 62
     6
370
     9
100
AcDbLine
 10
532.0498079866977
 20
255.8476746021493
 30
0.0
 11
479.6613538587417
 21
308.2361287301055
 31
0.0
  0
LINE
  5
187
330
1F
100
AcDbEntity
  8
1-6ﾚｲﾔ
  6
Continuous
 62
     6
370
     9
100
AcDbLine
 10
532.0498079866977
 20
256.705795907048
 30
0.0
 11
616.3599787531672
 21
256.705795907048
 31
0.0
  0
LINE
  5
188
330
1F
100
AcDbEntity
  8
1-4ﾚｲﾔ
  6
Continuous
 62
     7
370
     9
100
AcDbLine
 10
135.8813311602619
 20
129.7210398497212
 30
0.0
 11
447.0497749947214
 21
129.7210398497212
 31
0.0
  0
LINE
  5
189
330
1F
100
AcDbEntity
  8
1-4ﾚｲﾔ
  6
Continuous
 62
     7
370
     9
100
AcDbLine
 10
447.0497749947214
 20
129.7210398497212
 30
0.0
 11
529.5496760187922
 21
129.7210398497212
 31
0.0
  0
LINE
  5
18A
330
1F
100
AcDbEntity
  8
1-4ﾚｲﾔ
  6
Continuous
 62
     7
370
     9
100
AcDbLine
 10
529.5496760187922
 20
346.0805649632135
 30
0.0
 11
529.5496760187922
 21
128.221059644907
 31
0.0
  0
LINE
  5
18B
330
1F
100
AcDbEntity
  8
1-6ﾚｲﾔ
  6
Continuous
 62
     6
370
     9
100
AcDbLine
 10
447.0497749947214
 20
353.5805897071958
 30
0.0
 11
447.0497749947214
 21
103.6865351912542
 31
0.0
  0
LINE
  5
18C
330
1F
100
AcDbEntity
  8
1-4ﾚｲﾔ
  6
Continuous
 62
     7
370
     9
100
AcDbLine
 10
680.8173102301521
 20
353.5805897071958
 30
0.0
 11
680.8173102301521
 21
453.580795907048
 31
0.0
  0
LINE
  5
18D
330
1F
100
AcDbEntity
  8
1-4ﾚｲﾔ
  6
Continuous
 62
     7
370
     9
100
AcDbLine
 10
539.5497090107688
 20
353.5805897071958
 30
0.0
 11
724.3060962573904
 21
353.5805897071958
 31
0.0
  0
LINE
  5
18E
330
1F
100
AcDbEntity
  8
1-4ﾚｲﾔ
  6
Continuous
 62
     7
370
     9
100
AcDbLine
 10
688.3174586940456
 20
453.580795907048
 30
0.0
 11
682.3172904349665
 21
453.580795907048
 31
0.0
  0
LINE
  5
18F
330
1F
100
AcDbEntity
  8
1-6ﾚｲﾔ
  6
Continuous
 62
     6
370
     9
100
AcDbLine
 10
532.0498079866977
 20
453.580795907048
 30
0.0
 11
532.0498079866977
 21
103.6865351912542
 31
0.0
  0
LINE
  5
190
330
1F
100
AcDbEntity
  8
1-6ﾚｲﾔ
  6
Continuous
 62
     6
370
     9
100
AcDbLine
 10
532.0498079866977
 20
220.4923592648395
 30
0.0
 11
447.0497749947214
 21
305.4923922568157
 31
0.0
  0
LINE
  5
191
330
1F
100
AcDbEntity
  8
1-6ﾚｲﾔ
  6
Continuous
 62
     6
370
     9
100
AcDbLine
 10
532.0498079866977
 20
185.1367964877068
 30
0.0
 11
447.0497749947214
 21
270.1372006394172
 31
0.0
  0
LINE
  5
192
330
1F
100
AcDbEntity
  8
1-6ﾚｲﾔ
  6
Continuous
 62
     6
370
     9
100
AcDbLine
 10
532.0498079866977
 20
149.7818523101308
 30
0.0
 11
447.0497749947214
 21
234.7818853021072
 31
0.0
  0
LINE
  5
193
330
1F
100
AcDbEntity
  8
1-6ﾚｲﾔ
  6
Continuous
 62
     6
370
     9
100
AcDbLine
 10
472.0793028135557
 20
103.6865351912542
 30
0.0
 11
447.0497749947214
 21
128.7161867299999
 31
0.0
  0
LINE
  5
194
330
1F
100
AcDbEntity
  8
1-6ﾚｲﾔ
  6
Continuous
 62
     6
370
     9
100
AcDbLine
 10
532.0498079866977
 20
114.4262895329982
 30
0.0
 11
523.6190383498734
 21
122.8569354499112
 31
0.0
  0
LINE
  5
195
330
1F
100
AcDbEntity
  8
1-6ﾚｲﾔ
  6
Continuous
 62
     6
370
     9
100
AcDbLine
 10
489.842512800887
 20
156.6335847188091
 30
0.0
 11
447.0497749947214
 21
199.4266936847086
 31
0.0
  0
LINE
  5
196
330
1F
100
AcDbEntity
  8
1-6ﾚｲﾔ
  6
Continuous
 62
     6
370
     9
100
AcDbLine
 10
507.4344944309544
 20
103.6865351912542
 30
0.0
 11
488.2640941722974
 21
122.8569354499112
 31
0.0
  0
LINE
  5
197
330
1F
100
AcDbEntity
  8
1-6ﾚｲﾔ
  6
Continuous
 62
     6
370
     9
100
AcDbLine
 10
454.4873211834883
 20
156.6335847188091
 30
0.0
 11
447.0497749947214
 21
164.0713783473986
 31
0.0
  0
LINE
  5
198
330
1F
100
AcDbEntity
  8
1-4ﾚｲﾔ
  6
Continuous
 62
     7
370
     9
100
AcDbLine
 10
305.548838022593
 20
58.50439473781243
 30
0.0
 11
570.8127408414273
 21
58.50439473781243
 31
0.0
  0
LINE
  5
199
330
1F
100
AcDbEntity
  8
1-4ﾚｲﾔ
  6
Continuous
 62
     7
370
     9
100
AcDbLine
 10
470.1267551731419
 20
378.5339060606588
 30
0.0
 11
465.0666108002534
 21
367.103918333674
 31
0.0
  0
LINE
  5
19A
330
1F
100
AcDbEntity
  8
1-4ﾚｲﾔ
  6
Continuous
 62
     7
370
     9
100
AcDbLine
 10
470.1267551731419
 20
378.5339060606588
 30
0.0
 11
462.2809332770271
 21
368.802963875798
 31
0.0
  0
LINE
  5
19B
330
1F
100
AcDbEntity
  8
1-4ﾚｲﾔ
  6
Continuous
 62
     7
370
     9
100
AcDbLine
 10
633.5204253325592
 20
191.996694410532
 30
0.0
 11
826.02068926837
 21
191.996694410532
 31
0.0
  0
LINE
  5
19C
330
1F
100
AcDbEntity
  8
1-4ﾚｲﾔ
  6
Continuous
 62
     7
370
     9
100
AcDbLine
 10
483.9806634026607
 20
346.4049585706883
 30
0.0
 11
493.7743315825591
 21
338.63769881826
 31
0.0
  0
LINE
  5
19D
330
1F
100
AcDbEntity
  8
1-4ﾚｲﾔ
  6
Continuous
 62
     7
370
     9
100
AcDbLine
 10
483.9806634026607
 20
346.4049585706883
 30
0.0
 11
491.4300867029138
 21
336.3674384455827
 31
0.0
  0
LINE
  5
19E
330
1F
100
AcDbEntity
  8
1-4ﾚｲﾔ
  6
Continuous
 62
     7
370
     9
100
AcDbLine
 10
633.5204253325592
 20
191.996694410532
 30
0.0
 11
483.9806634026607
 21
346.4049585706883
 31
0.0
  0
LINE
  5
19F
330
1F
100
AcDbEntity
  8
1-6ﾚｲﾔ
  6
Continuous
 62
     6
370
     9
100
AcDbLine
 10
532.0498079866977
 20
446.0807711630657
 30
0.0
 11
674.5672277502113
 21
446.0807711630657
 31
0.0
  0
LINE
  5
1A0
330
1F
100
AcDbEntity
  8
1-6ﾚｲﾔ
  6
Continuous
 62
     6
370
     9
100
AcDbLine
 10
532.0498079866977
 20
438.5807464190836
 30
0.0
 11
674.5672277502113
 21
438.5807464190836
 31
0.0
  0
LINE
  5
1A1
330
1F
100
AcDbEntity
  8
1-6ﾚｲﾔ
  6
Continuous
 62
     6
370
     9
100
AcDbLine
 10
532.0498079866977
 20
431.0808453950126
 30
0.0
 11
674.5672277502113
 21
431.0808453950126
 31
0.0
  0
LINE
  5
1A2
330
1F
100
AcDbEntity
  8
1-6ﾚｲﾔ
  6
Continuous
 62
     6
370
     9
100
AcDbLine
 10
532.0498079866977
 20
423.580696931119
 30
0.0
 11
674.5672277502113
 21
423.580696931119
 31
0.0
  0
LINE
  5
1A3
330
1F
100
AcDbEntity
  8
1-6ﾚｲﾔ
  6
Continuous
 62
     6
370
     9
100
AcDbLine
 10
532.0498079866977
 20
416.080795907048
 30
0.0
 11
674.5672277502113
 21
416.080795907048
 31
0.0
  0
LINE
  5
1A4
330
1F
100
AcDbEntity
  8
1-4ﾚｲﾔ
  6
Continuous
 62
     7
370
     9
100
AcDbLine
 10
543.2994120829815
 20
458.5806886831249
 30
0.0
 11
724.3060962573904
 21
458.5806886831249
 31
0.0
  0
LINE
  5
1A5
330
1F
100
AcDbEntity
  8
1-4ﾚｲﾔ
  6
Continuous
 62
     7
370
     9
100
AcDbLine
 10
680.8173102301521
 20
453.580795907048
 30
0.0
 11
680.8173102301521
 21
477.1243238710473
 31
0.0
  0
LINE
  5
1A6
330
1F
100
AcDbEntity
  8
1-4ﾚｲﾔ
  6
Continuous
 62
     7
370
     9
100
AcDbLine
 10
722.806116052576
 20
353.5805897071958
 30
0.0
 11
722.806116052576
 21
458.5806886831249
 31
0.0
  0
LINE
  5
1A7
330
1F
100
AcDbEntity
  8
1-6ﾚｲﾔ
  6
Continuous
 62
     6
370
     9
100
AcDbLine
 10
687.0673927100929
 20
446.0807711630657
 30
0.0
 11
716.5560335726352
 21
446.0807711630657
 31
0.0
  0
LINE
  5
1A8
330
1F
100
AcDbEntity
  8
1-6ﾚｲﾔ
  6
Continuous
 62
     6
370
     9
100
AcDbLine
 10
729.0559510926943
 20
446.0807711630657
 30
0.0
 11
768.6079695418075
 21
446.0807711630657
 31
0.0
  0
LINE
  5
1A9
330
1F
100
AcDbEntity
  8
1-6ﾚｲﾔ
  6
Continuous
 62
     6
370
     9
100
AcDbLine
 10
687.0673927100929
 20
438.5807464190836
 30
0.0
 11
716.5560335726352
 21
438.5807464190836
 31
0.0
  0
LINE
  5
1AA
330
1F
100
AcDbEntity
  8
1-6ﾚｲﾔ
  6
Continuous
 62
     6
370
     9
100
AcDbLine
 10
729.0559510926943
 20
438.5807464190836
 30
0.0
 11
768.6079695418075
 21
438.5807464190836
 31
0.0
  0
LINE
  5
1AB
330
1F
100
AcDbEntity
  8
1-6ﾚｲﾔ
  6
Continuous
 62
     6
370
     9
100
AcDbLine
 10
687.0673927100929
 20
431.0808453950126
 30
0.0
 11
716.5560335726352
 21
431.0808453950126
 31
0.0
  0
LINE
  5
1AC
330
1F
100
AcDbEntity
  8
1-6ﾚｲﾔ
  6
Continuous
 62
     6
370
     9
100
AcDbLine
 10
729.0559510926943
 20
431.0808453950126
 30
0.0
 11
768.6079695418075
 21
431.0808453950126
 31
0.0
  0
LINE
  5
1AD
330
1F
100
AcDbEntity
  8
1-6ﾚｲﾔ
  6
Continuous
 62
     6
370
     9
100
AcDbLine
 10
687.0673927100929
 20
423.580696931119
 30
0.0
 11
716.5560335726352
 21
423.580696931119
 31
0.0
  0
LINE
  5
1AE
330
1F
100
AcDbEntity
  8
1-6ﾚｲﾔ
  6
Continuous
 62
     6
370
     9
100
AcDbLine
 10
729.0559510926943
 20
423.580696931119
 30
0.0
 11
768.6079695418075
 21
423.580696931119
 31
0.0
  0
LINE
  5
1AF
330
1F
100
AcDbEntity
  8
1-6ﾚｲﾔ
  6
Continuous
 62
     6
370
     9
100
AcDbLine
 10
687.0673927100929
 20
416.080795907048
 30
0.0
 11
716.5560335726352
 21
416.080795907048
 31
0.0
  0
LINE
  5
1B0
330
1F
100
AcDbEntity
  8
1-6ﾚｲﾔ
  6
Continuous
 62
     6
370
     9
100
AcDbLine
 10
729.0559510926943
 20
416.080795907048
 30
0.0
 11
768.6079695418075
 21
416.080795907048
 31
0.0
  0
LINE
  5
1B1
330
1F
100
AcDbEntity
  8
1-6ﾚｲﾔ
  6
Continuous
 62
     6
370
     9
100
AcDbLine
 10
542.0495935388516
 20
453.580795907048
 30
0.0
 11
716.5560335726352
 21
453.580795907048
 31
0.0
  0
LINE
  5
1B2
330
1F
100
AcDbEntity
  8
1-6ﾚｲﾔ
  6
Continuous
 62
     6
370
     9
100
AcDbLine
 10
729.0559510926943
 20
453.580795907048
 30
0.0
 11
768.6079695418075
 21
453.580795907048
 31
0.0
  0
LINE
  5
1B3
330
1F
100
AcDbEntity
  8
1-5ﾚｲﾔ
  6
Continuous
 62
     7
370
     9
100
AcDbLine
 10
506.3262114653716
 20
388.5808288990245
 30
0.0
 11
508.8260959934544
 21
391.0807134271072
 31
0.0
  0
LINE
  5
1B4
330
1F
100
AcDbEntity
  8
1-5ﾚｲﾔ
  6
Continuous
 62
     7
370
     9
100
AcDbLine
 10
492.3951020111909
 20
379.599505656837
 30
0.0
 11
493.2997420027451
 21
380.504145648391
 31
0.0
  0
LINE
  5
1B5
330
1F
100
AcDbEntity
  8
1-5ﾚｲﾔ
  6
Continuous
 62
     7
370
     9
100
AcDbLine
 10
501.3764252533784
 20
388.5808288990245
 30
0.0
 11
503.8763097814612
 21
391.0807134271072
 31
0.0
  0
LINE
  5
1B6
330
1F
100
AcDbEntity
  8
1-5ﾚｲﾔ
  6
Continuous
 62
     7
370
     9
100
AcDbLine
 10
485.6813173036318
 20
377.8355071612711
 30
0.0
 11
490.1765565614443
 21
382.3308701389949
 31
0.0
  0
LINE
  5
1B7
330
1F
100
AcDbEntity
  8
1-5ﾚｲﾔ
  6
Continuous
 62
     7
370
     9
100
AcDbLine
 10
496.4266390413852
 20
388.5808288990245
 30
0.0
 11
498.926523569468
 21
391.0807134271072
 31
0.0
  0
LINE
  5
1B8
330
1F
100
AcDbEntity
  8
1-5ﾚｲﾔ
  6
Continuous
 62
     7
370
     9
100
AcDbLine
 10
480.2329398490289
 20
377.3370396385725
 30
0.0
 11
482.33642578125
 21
379.4404018508826
 31
0.0
  0
LINE
  5
1B9
330
1F
100
AcDbEntity
  8
1-5ﾚｲﾔ
  6
Continuous
 62
     7
370
     9
100
AcDbLine
 10
487.0496595228042
 20
384.1536355924366
 30
0.0
 11
490.1748244826859
 21
387.278676832407
 31
0.0
  0
LINE
  5
1BA
330
1F
100
AcDbEntity
  8
1-5ﾚｲﾔ
  6
Continuous
 62
     7
370
     9
100
AcDbLine
 10
491.4768528293919
 20
388.5808288990245
 30
0.0
 11
493.9767373574747
 21
391.0807134271072
 31
0.0
  0
LINE
  5
1BB
330
1F
100
AcDbEntity
  8
1-5ﾚｲﾔ
  6
Continuous
 62
     7
370
     9
100
AcDbLine
 10
475.4969416437922
 20
377.5504564855953
 30
0.0
 11
477.3458119985222
 21
379.3993268403251
 31
0.0
  0
LINE
  5
1BC
330
1F
100
AcDbEntity
  8
1-5ﾚｲﾔ
  6
Continuous
 62
     7
370
     9
100
AcDbLine
 10
486.5273140572214
 20
388.5808288990245
 30
0.0
 11
489.0269511454815
 21
391.0807134271072
 31
0.0
  0
LINE
  5
1BD
330
1F
100
AcDbEntity
  8
1-5ﾚｲﾔ
  6
Continuous
 62
     7
370
     9
100
AcDbLine
 10
471.2563179634714
 20
378.2594952973564
 30
0.0
 11
472.9468268317146
 21
379.9502516054223
 31
0.0
  0
LINE
  5
1BE
330
1F
100
AcDbEntity
  8
1-5ﾚｲﾔ
  6
Continuous
 62
     7
370
     9
100
AcDbLine
 10
481.5775278452281
 20
388.5808288990245
 30
0.0
 11
484.0774123733109
 21
391.0807134271072
 31
0.0
  0
LINE
  5
1BF
330
1F
100
AcDbEntity
  8
1-5ﾚｲﾔ
  6
Continuous
 62
     7
370
     9
100
AcDbLine
 10
467.4004632073482
 20
379.3535504731376
 30
0.0
 11
472.0496100348396
 21
384.0028210205405
 31
0.0
  0
LINE
  5
1C0
330
1F
100
AcDbEntity
  8
1-5ﾚｲﾔ
  6
Continuous
 62
     7
370
     9
100
AcDbLine
 10
476.6277416332349
 20
388.5808288990245
 30
0.0
 11
479.1276261613177
 21
391.0807134271072
 31
0.0
  0
LINE
  5
1C1
330
1F
100
AcDbEntity
  8
1-5ﾚｲﾔ
  6
Continuous
 62
     7
370
     9
100
AcDbLine
 10
468.9244450749578
 20
385.827442272652
 30
0.0
 11
474.1778399493245
 21
391.0807134271072
 31
0.0
  0
LINE
  5
1C2
330
1F
100
AcDbEntity
  8
1-5ﾚｲﾔ
  6
Continuous
 62
     7
370
     9
100
AcDbLine
 10
466.7281692092484
 20
388.5808288990245
 30
0.0
 11
469.2280537373313
 21
391.0807134271072
 31
0.0
  0
LINE
  5
1C3
330
1F
100
AcDbEntity
  8
1-5ﾚｲﾔ
  6
Continuous
 62
     7
370
     9
100
AcDbLine
 10
461.7783829972552
 20
388.5808288990245
 30
0.0
 11
464.278267525338
 21
391.0807134271072
 31
0.0
  0
LINE
  5
1C4
330
1F
100
AcDbEntity
  8
1-5ﾚｲﾔ
  6
Continuous
 62
     7
370
     9
100
AcDbLine
 10
456.828596785262
 20
388.5808288990245
 30
0.0
 11
459.3284813133448
 21
391.0807134271072
 31
0.0
  0
LINE
  5
1C5
330
1F
100
AcDbEntity
  8
1-5ﾚｲﾔ
  6
Continuous
 62
     7
370
     9
100
AcDbLine
 10
451.8788105732688
 20
388.5808288990245
 30
0.0
 11
454.3786951013513
 21
391.0807134271072
 31
0.0
  0
LINE
  5
1C6
330
1F
100
AcDbEntity
  8
1-3ﾚｲﾔ
  6
Continuous
 62
     3
370
     9
100
AcDbLine
 10
498.299263619088
 20
417.3308618910008
 30
0.0
 11
498.299263619088
 21
409.3308849853843
 31
0.0
  0
LINE
  5
1C7
330
1F
100
AcDbEntity
  8
1-B
  6
Continuous
 62
     7
370
     9
100
AcDbLine
 10
498.299263619088
 20
417.3308618910008
 30
0.0
 11
498.299263619088
 21
432.2055831088006
 31
0.0
  0
LINE
  5
1C8
330
1F
100
AcDbEntity
  8
1-B
  6
Continuous
 62
     7
370
     9
100
AcDbLine
 10
498.299263619088
 20
453.5806721871367
 30
0.0
 11
498.299263619088
 21
442.4556540415497
 31
0.0
  0
LINE
  5
1C9
330
1F
100
AcDbEntity
  8
1-B
  6
Continuous
 62
     7
370
     9
100
AcDbLine
 10
346.7786221890836
 20
417.3308618910008
 30
0.0
 11
341.7784819731841
 21
422.330878386989
 31
0.0
  0
LINE
  5
1CA
330
1F
100
AcDbEntity
  8
1-B
  6
Continuous
 62
     7
370
     9
100
AcDbLine
 10
352.0818761877112
 20
417.3308618910008
 30
0.0
 11
347.0817359718117
 21
422.330878386989
 31
0.0
  0
LINE
  5
1CB
330
1F
100
AcDbEntity
  8
1-B
  6
Continuous
 62
     7
370
     9
100
AcDbLine
 10
357.3851301863388
 20
417.3308618910008
 30
0.0
 11
352.3849899704393
 21
422.330878386989
 31
0.0
  0
LINE
  5
1CC
330
1F
100
AcDbEntity
  8
1-B
  6
Continuous
 62
     7
370
     9
100
AcDbLine
 10
405.1146636138091
 20
417.3308618910008
 30
0.0
 11
400.1145233979096
 21
422.330878386989
 31
0.0
  0
LINE
  5
1CD
330
1F
100
AcDbEntity
  8
1-B
  6
Continuous
 62
     7
370
     9
100
AcDbLine
 10
410.4179176124367
 20
417.3308618910008
 30
0.0
 11
405.4177773965372
 21
422.330878386989
 31
0.0
  0
LINE
  5
1CE
330
1F
100
AcDbEntity
  8
1-B
  6
Continuous
 62
     7
370
     9
100
AcDbLine
 10
415.7211716110643
 20
417.3308618910008
 30
0.0
 11
410.7210313951649
 21
422.330878386989
 31
0.0
  0
LINE
  5
1CF
330
1F
100
AcDbEntity
  8
1-B
  6
Continuous
 62
     7
370
     9
100
AcDbLine
 10
421.0244256096919
 20
417.3308618910008
 30
0.0
 11
416.0242853937922
 21
422.330878386989
 31
0.0
  0
LINE
  5
1D0
330
1F
100
AcDbEntity
  8
1-B
  6
Continuous
 62
     7
370
     9
100
AcDbLine
 10
426.3276796083193
 20
417.3308618910008
 30
0.0
 11
421.3275393924198
 21
422.330878386989
 31
0.0
  0
LINE
  5
1D1
330
1F
100
AcDbEntity
  8
1-B
  6
Continuous
 62
     7
370
     9
100
AcDbLine
 10
431.6310573268581
 20
417.3308618910008
 30
0.0
 11
426.6309171109586
 21
422.330878386989
 31
0.0
  0
LINE
  5
1D2
330
1F
100
AcDbEntity
  8
1-B
  6
Continuous
 62
     7
370
     9
100
AcDbLine
 10
452.8440733213682
 20
417.3308618910008
 30
0.0
 11
447.8439331054688
 21
422.330878386989
 31
0.0
  0
LINE
  5
1D3
330
1F
100
AcDbEntity
  8
1-B
  6
Continuous
 62
     7
370
     9
100
AcDbLine
 10
458.1473273199958
 20
417.3308618910008
 30
0.0
 11
453.1473108240075
 21
422.330878386989
 31
0.0
  0
LINE
  5
1D4
330
1F
100
AcDbEntity
  8
1-B
  6
Continuous
 62
     7
370
     9
100
AcDbLine
 10
463.4505813186234
 20
417.3308618910008
 30
0.0
 11
458.4505648226352
 21
422.330878386989
 31
0.0
  0
LINE
  5
1D5
330
1F
100
AcDbEntity
  8
1-B
  6
Continuous
 62
     7
370
     9
100
AcDbLine
 10
468.7539590371622
 20
417.3308618910008
 30
0.0
 11
463.7538188212628
 21
422.330878386989
 31
0.0
  0
LINE
  5
1D6
330
1F
100
AcDbEntity
  8
1-B
  6
Continuous
 62
     7
370
     9
100
AcDbLine
 10
474.0572130357899
 20
417.3308618910008
 30
0.0
 11
469.0570728198904
 21
422.330878386989
 31
0.0
  0
LINE
  5
1D7
330
1F
100
AcDbEntity
  8
1-B
  6
Continuous
 62
     7
370
     9
100
AcDbLine
 10
495.2703527502112
 20
417.3308618910008
 30
0.0
 11
490.2702125343117
 21
422.330878386989
 31
0.0
  0
LINE
  5
1D8
330
1F
100
AcDbEntity
  8
1-B
  6
Continuous
 62
     7
370
     9
100
AcDbLine
 10
498.299263619088
 20
419.6050813008402
 30
0.0
 11
495.5735902528505
 21
422.330878386989
 31
0.0
  0
LINE
  5
1D9
330
1F
100
AcDbEntity
  8
1-0ﾚｲﾔ
  6
Continuous
 62
     4
370
     9
100
AcDbLine
 10
507.0493543470229
 20
402.3305649632136
 30
0.0
 11
509.5494863149284
 21
401.0807464190836
 31
0.0
  0
LINE
  5
1DA
330
1F
100
AcDbEntity
  8
1-0ﾚｲﾔ
  6
Continuous
 62
     4
370
     9
100
AcDbLine
 10
509.5494863149284
 20
401.0807464190836
 30
0.0
 11
509.5494863149284
 21
391.0805897071958
 31
0.0
  0
LINE
  5
1DB
330
1F
100
AcDbEntity
  8
1-0ﾚｲﾔ
  6
Continuous
 62
     4
370
     9
100
AcDbLine
 10
497.0495687948693
 20
397.3306721871367
 30
0.0
 11
497.0495687948693
 21
391.0805897071958
 31
0.0
  0
LINE
  5
1DC
330
1F
100
AcDbEntity
  8
1-0ﾚｲﾔ
  6
Continuous
 62
     4
370
     9
100
AcDbLine
 10
502.0493378510346
 20
397.3306721871367
 30
0.0
 11
497.0495687948693
 21
397.3306721871367
 31
0.0
  0
LINE
  5
1DD
330
1F
100
AcDbEntity
  8
1-0ﾚｲﾔ
  6
Continuous
 62
     4
370
     9
100
AcDbLine
 10
502.0493378510346
 20
404.3306210495734
 30
0.0
 11
502.0493378510346
 21
397.3306721871367
 31
0.0
  0
LINE
  5
1DE
330
1F
100
AcDbEntity
  8
1-0ﾚｲﾔ
  6
Continuous
 62
     4
370
     9
100
AcDbLine
 10
502.0493378510346
 20
404.3306210495734
 30
0.0
 11
462.0494533229518
 21
404.3306210495734
 31
0.0
  0
LINE
  5
1DF
330
1F
100
AcDbEntity
  8
1-0ﾚｲﾔ
  6
Continuous
 62
     4
370
     9
100
AcDbLine
 10
467.0494698189401
 20
397.3306721871367
 30
0.0
 11
467.0494698189401
 21
391.0805897071958
 31
0.0
  0
LINE
  5
1E0
330
1F
100
AcDbEntity
  8
1-0ﾚｲﾔ
  6
Continuous
 62
     4
370
     9
100
AcDbLine
 10
467.0494698189401
 20
397.3306721871367
 30
0.0
 11
462.0494533229518
 21
397.3306721871367
 31
0.0
  0
LINE
  5
1E1
330
1F
100
AcDbEntity
  8
1-0ﾚｲﾔ
  6
Continuous
 62
     4
370
     9
100
AcDbLine
 10
462.0494533229518
 20
404.3306210495734
 30
0.0
 11
462.0494533229518
 21
397.3306721871367
 31
0.0
  0
LINE
  5
1E2
330
1F
100
AcDbEntity
  8
1-0ﾚｲﾔ
  6
Continuous
 62
     4
370
     9
100
AcDbLine
 10
427.049090411212
 20
403.080678785532
 30
0.0
 11
427.049090411212
 21
398.0806622895439
 31
0.0
  0
LINE
  5
1E3
330
1F
100
AcDbEntity
  8
1-0ﾚｲﾔ
  6
Continuous
 62
     4
370
     9
100
AcDbLine
 10
457.0493131070523
 20
409.3308849853843
 30
0.0
 11
457.0493131070523
 21
403.080678785532
 31
0.0
  0
LINE
  5
1E4
330
1F
100
AcDbEntity
  8
1-0ﾚｲﾔ
  6
Continuous
 62
     4
370
     9
100
AcDbLine
 10
457.0493131070523
 20
398.0806622895439
 30
0.0
 11
427.049090411212
 21
398.0806622895439
 31
0.0
  0
LINE
  5
1E5
330
1F
100
AcDbEntity
  8
1-0ﾚｲﾔ
  6
Continuous
 62
     4
370
     9
100
AcDbLine
 10
457.0493131070523
 20
398.0806622895439
 30
0.0
 11
457.0493131070523
 21
391.0805897071958
 31
0.0
  0
LINE
  5
1E6
330
1F
100
AcDbEntity
  8
1-0ﾚｲﾔ
  6
Continuous
 62
     4
370
     9
100
AcDbLine
 10
509.5494863149284
 20
391.0805897071958
 30
0.0
 11
497.0495687948693
 21
391.0805897071958
 31
0.0
  0
LINE
  5
1E7
330
1F
100
AcDbEntity
  8
1-0ﾚｲﾔ
  6
Continuous
 62
     4
370
     9
100
AcDbLine
 10
467.0494698189401
 20
391.0805897071958
 30
0.0
 11
457.0493131070523
 21
391.0805897071958
 31
0.0
  0
LINE
  5
1E8
330
1F
100
AcDbEntity
  8
1-0ﾚｲﾔ
  6
Continuous
 62
     4
370
     9
100
AcDbLine
 10
485.7993460990289
 20
458.5806886831249
 30
0.0
 11
479.5495110589107
 21
454.8307381710895
 31
0.0
  0
LINE
  5
1E9
330
1F
100
AcDbEntity
  8
1-0ﾚｲﾔ
  6
Continuous
 62
     4
370
     9
100
AcDbLine
 10
479.5495110589107
 20
454.8307381710895
 30
0.0
 11
479.5495110589107
 21
453.5806721871367
 31
0.0
  0
LINE
  5
1EA
330
1F
100
AcDbEntity
  8
1-0ﾚｲﾔ
  6
Continuous
 62
     4
370
     9
100
AcDbLine
 10
485.7993460990289
 20
458.5806886831249
 30
0.0
 11
503.299280115076
 21
458.5806886831249
 31
0.0
  0
LINE
  5
1EB
330
1F
100
AcDbEntity
  8
1-0ﾚｲﾔ
  6
Continuous
 62
     4
370
     9
100
AcDbLine
 10
503.299280115076
 20
458.5806886831249
 30
0.0
 11
509.5494863149284
 21
453.5806721871367
 31
0.0
  0
LINE
  5
1EC
330
1F
100
AcDbEntity
  8
1-0ﾚｲﾔ
  6
Continuous
 62
     4
370
     9
100
AcDbLine
 10
507.0494780669341
 20
447.9556226991723
 30
0.0
 11
502.0493378510346
 21
442.9554824832728
 31
0.0
  0
LINE
  5
1ED
330
1F
100
AcDbEntity
  8
1-0ﾚｲﾔ
  6
Continuous
 62
     4
370
     9
100
AcDbLine
 10
507.0494780669341
 20
426.7054907312668
 30
0.0
 11
502.0493378510346
 21
431.7056309471662
 31
0.0
  0
LINE
  5
1EE
330
1F
100
AcDbEntity
  8
1-A
  6
Continuous
 62
     2
370
     9
100
AcDbLine
 10
507.0494780669341
 20
447.5806276479686
 30
0.0
 11
506.2993642446159
 21
447.5806276479686
 31
0.0
  0
LINE
  5
1EF
330
1F
100
AcDbEntity
  8
1-A
  6
Continuous
 62
     2
370
     9
100
AcDbLine
 10
501.1745143581081
 20
442.4556540415497
 30
0.0
 11
506.2993642446159
 21
447.5806276479686
 31
0.0
  0
LINE
  5
1F0
330
1F
100
AcDbEntity
  8
1-A
  6
Continuous
 62
     2
370
     9
100
AcDbLine
 10
501.1745143581081
 20
432.2055831088006
 30
0.0
 11
501.1745143581081
 21
442.4556540415497
 31
0.0
  0
LINE
  5
1F1
330
1F
100
AcDbEntity
  8
1-A
  6
Continuous
 62
     2
370
     9
100
AcDbLine
 10
501.1745143581081
 20
432.2055831088006
 30
0.0
 11
506.2993642446159
 21
427.080733222293
 31
0.0
  0
LINE
  5
1F2
330
1F
100
AcDbEntity
  8
1-A
  6
Continuous
 62
     2
370
     9
100
AcDbLine
 10
506.2993642446159
 20
447.5806276479686
 30
0.0
 11
506.2993642446159
 21
427.080733222293
 31
0.0
  0
LINE
  5
1F3
330
1F
100
AcDbEntity
  8
1-A
  6
Continuous
 62
     2
370
     9
100
AcDbLine
 10
507.0494780669341
 20
427.080733222293
 30
0.0
 11
506.2993642446159
 21
427.080733222293
 31
0.0
  0
LINE
  5
1F4
330
1F
100
AcDbEntity
  8
1-A
  6
Continuous
 62
     2
370
     9
100
AcDbLine
 10
501.1745143581081
 20
442.4556540415497
 30
0.0
 11
486.2161584802575
 21
442.4556540415497
 31
0.0
  0
LINE
  5
1F5
330
1F
100
AcDbEntity
  8
1-A
  6
Continuous
 62
     2
370
     9
100
AcDbLine
 10
501.1745143581081
 20
432.2055831088006
 30
0.0
 11
486.2161584802575
 21
432.2055831088006
 31
0.0
  0
LINE
  5
1F6
330
1F
100
AcDbEntity
  8
1-A
  6
Continuous
 62
     2
370
     9
100
AcDbLine
 10
486.2161584802575
 20
432.2055831088006
 30
0.0
 11
444.5495193069047
 21
437.3305567152195
 31
0.0
  0
LINE
  5
1F7
330
1F
100
AcDbEntity
  8
1-A
  6
Continuous
 62
     2
370
     9
100
AcDbLine
 10
444.5495193069047
 20
437.3305567152195
 30
0.0
 11
486.2161584802575
 21
442.4556540415497
 31
0.0
  0
LINE
  5
1F8
330
1F
100
AcDbEntity
  8
1-A
  6
Continuous
 62
     2
370
     9
100
AcDbLine
 10
448.0845683329815
 20
435.6363362496367
 30
0.0
 11
448.6952498152451
 21
439.099875166972
 31
0.0
  0
LINE
  5
1F9
330
1F
100
AcDbEntity
  8
1-A
  6
Continuous
 62
     2
370
     9
100
AcDbLine
 10
452.488997175887
 20
435.0945667579771
 30
0.0
 11
453.2950323981208
 21
439.6657700413386
 31
0.0
  0
LINE
  5
1FA
330
1F
100
AcDbEntity
  8
1-A
  6
Continuous
 62
     2
370
     9
100
AcDbLine
 10
483.3203702359586
 20
431.3023040362711
 30
0.0
 11
485.4933867583404
 21
443.6261681225253
 31
0.0
  0
LINE
  5
1FB
330
1F
100
AcDbEntity
  8
1-A
  6
Continuous
 62
     2
370
     9
100
AcDbLine
 10
478.9159413930534
 20
431.8440735279307
 30
0.0
 11
480.8936041754646
 21
443.0605206879814
 31
0.0
  0
LINE
  5
1FC
330
1F
100
AcDbEntity
  8
1-A
  6
Continuous
 62
     2
370
     9
100
AcDbLine
 10
474.5113888302365
 20
432.3857192996791
 30
0.0
 11
476.2939453125
 21
442.4946258136148
 31
0.0
  0
LINE
  5
1FD
330
1F
100
AcDbEntity
  8
1-A
  6
Continuous
 62
     2
370
     9
100
AcDbLine
 10
470.1069599873313
 20
432.9276125112499
 30
0.0
 11
471.6941627296242
 21
441.9289783790708
 31
0.0
  0
LINE
  5
1FE
330
1F
100
AcDbEntity
  8
1-A
  6
Continuous
 62
     2
370
     9
100
AcDbLine
 10
465.7024074245143
 20
433.4693820029095
 30
0.0
 11
467.0943801467484
 21
441.3630835047043
 31
0.0
  0
LINE
  5
1FF
330
1F
100
AcDbEntity
  8
1-A
  6
Continuous
 62
     2
370
     9
100
AcDbLine
 10
461.2979785816091
 20
434.0111514945692
 30
0.0
 11
462.4945975638727
 21
440.7973123502491
 31
0.0
  0
LINE
  5
200
330
1F
100
AcDbEntity
  8
1-A
  6
Continuous
 62
     2
370
     9
100
AcDbLine
 10
456.8935497387037
 20
434.5527972663174
 30
0.0
 11
457.8949387009081
 21
440.2315411957939
 31
0.0
  0
LINE
  5
201
330
1F
100
AcDbEntity
  8
1-0ﾚｲﾔ
  6
JWW_CENTER1
 62
     4
370
     9
100
AcDbLine
 10
442.3528722814612
 20
437.3305567152195
 30
0.0
 11
508.3750131967906
 21
437.3305567152195
 31
0.0
  0
LINE
  5
202
330
1F
100
AcDbEntity
  8
1-0ﾚｲﾔ
  6
Continuous
 62
     4
370
     9
100
AcDbLine
 10
502.0493378510346
 20
409.3308849853843
 30
0.0
 11
457.0493131070523
 21
409.3308849853843
 31
0.0
  0
LINE
  5
203
330
1F
100
AcDbEntity
  8
1-0ﾚｲﾔ
  6
Continuous
 62
     4
370
     9
100
AcDbLine
 10
444.7993098078547
 20
403.080678785532
 30
0.0
 11
444.7993098078547
 21
398.0806622895439
 31
0.0
  0
LINE
  5
204
330
1F
100
AcDbEntity
  8
1-0ﾚｲﾔ
  6
Continuous
 62
     4
370
     9
100
AcDbLine
 10
434.2993246542443
 20
403.080678785532
 30
0.0
 11
434.2993246542443
 21
398.0806622895439
 31
0.0
  0
LINE
  5
205
330
1F
100
AcDbEntity
  8
1-A
  6
Continuous
 62
     2
370
     9
100
AcDbLine
 10
430.7994120829815
 20
396.0097146939991
 30
0.0
 11
430.7994120829815
 21
398.0806622895439
 31
0.0
  0
LINE
  5
206
330
1F
100
AcDbEntity
  8
1-A
  6
Continuous
 62
     2
370
     9
100
AcDbLine
 10
448.2993460990289
 20
396.0097146939991
 30
0.0
 11
448.2993460990289
 21
398.0806622895439
 31
0.0
  0
LINE
  5
207
330
1F
100
AcDbEntity
  8
1-A
  6
Continuous
 62
     2
370
     9
100
AcDbLine
 10
438.224338840794
 20
395.0807018799155
 30
0.0
 11
440.874295621305
 21
395.0807018799155
 31
0.0
  0
LINE
  5
208
330
1F
100
AcDbEntity
  8
1-A
  6
Continuous
 62
     2
370
     9
100
AcDbLine
 10
438.224338840794
 20
391.6197610807178
 30
0.0
 11
438.224338840794
 21
395.0807018799155
 31
0.0
  0
LINE
  5
209
330
1F
100
AcDbEntity
  8
1-A
  6
Continuous
 62
     2
370
     9
100
AcDbLine
 10
446.316858240076
 20
399.715002318049
 30
0.0
 11
433.2817283836573
 21
405.047330495836
 31
0.0
  0
LINE
  5
20A
330
1F
100
AcDbEntity
  8
1-A
  6
Continuous
 62
     2
370
     9
100
AcDbLine
 10
446.316858240076
 20
404.3527669136992
 30
0.0
 11
433.2817283836573
 21
409.6852188113978
 31
0.0
  0
LINE
  5
20B
330
1F
100
AcDbEntity
  8
1-A
  6
Continuous
 62
     2
370
     9
100
AcDbLine
 10
446.316858240076
 20
408.9904077894383
 30
0.0
 11
433.2817283836573
 21
414.3231071269594
 31
0.0
  0
LINE
  5
20C
330
1F
100
AcDbEntity
  8
1-A
  6
Continuous
 62
     2
370
     9
100
AcDbLine
 10
446.316858240076
 20
413.6281723850886
 30
0.0
 11
432.79934444943
 21
419.1580812612499
 31
0.0
  0
LINE
  5
20D
330
1F
100
AcDbEntity
  8
1-A
  6
Continuous
 62
     2
370
     9
100
AcDbLine
 10
439.5493790910052
 20
438.0805468176266
 30
0.0
 11
444.5493955869932
 21
426.0094425101942
 31
0.0
  0
LINE
  5
20E
330
1F
100
AcDbEntity
  8
1-A
  6
Continuous
 62
     2
370
     9
100
AcDbLine
 10
444.5493955869932
 20
398.0806622895439
 30
0.0
 11
444.5493955869932
 21
426.0094425101942
 31
0.0
  0
LINE
  5
20F
330
1F
100
AcDbEntity
  8
1-A
  6
Continuous
 62
     2
370
     9
100
AcDbLine
 10
434.5493625950169
 20
398.0806622895439
 30
0.0
 11
434.5493625950169
 21
426.0094425101942
 31
0.0
  0
LINE
  5
210
330
1F
100
AcDbEntity
  8
1-A
  6
Continuous
 62
     2
370
     9
100
AcDbLine
 10
439.5493790910052
 20
438.0805468176266
 30
0.0
 11
434.5493625950169
 21
426.0094425101942
 31
0.0
  0
LINE
  5
211
330
1F
100
AcDbEntity
  8
1-A
  6
Continuous
 62
     2
370
     9
100
AcDbLine
 10
444.9163488439612
 20
429.6961721475463
 30
0.0
 11
435.7375686233109
 21
433.4510714560345
 31
0.0
  0
LINE
  5
212
330
1F
100
AcDbEntity
  8
1-A
  6
Continuous
 62
     2
370
     9
100
AcDbLine
 10
446.2994137325802
 20
425.705091528353
 30
0.0
 11
434.5243711729307
 21
430.5220025555911
 31
0.0
  0
LINE
  5
213
330
1F
100
AcDbEntity
  8
1-A
  6
Continuous
 62
     2
370
     9
100
AcDbLine
 10
446.2994137325802
 20
422.2794109038808
 30
0.0
 11
433.3109262827281
 21
427.5926862153251
 31
0.0
  0
LINE
  5
214
330
1F
100
AcDbEntity
  8
1-A
  6
Continuous
 62
     2
370
     9
100
AcDbLine
 10
446.2994137325802
 20
418.273360175418
 30
0.0
 11
432.79934444943
 21
423.7958458569003
 31
0.0
  0
LINE
  5
215
330
1F
100
AcDbEntity
  8
1-A
  6
Continuous
 62
     2
370
     9
100
AcDbLine
 10
443.2080243084883
 20
433.8206228311401
 30
0.0
 11
436.9508897936024
 21
436.3802640763893
 31
0.0
  0
LINE
  5
216
330
1F
100
AcDbEntity
  8
1-A
  6
Continuous
 62
     2
370
     9
100
AcDbLine
 10
440.874295621305
 20
391.6196373608065
 30
0.0
 11
440.874295621305
 21
395.0807018799155
 31
0.0
  0
LINE
  5
217
330
1F
100
AcDbEntity
  8
1-0ﾚｲﾔ
  6
Continuous
 62
     4
370
     9
100
AcDbLine
 10
457.0493131070523
 20
403.080678785532
 30
0.0
 11
444.5493955869932
 21
403.080678785532
 31
0.0
  0
LINE
  5
218
330
1F
100
AcDbEntity
  8
1-0ﾚｲﾔ
  6
Continuous
 62
     4
370
     9
100
AcDbLine
 10
434.5493625950169
 20
403.080678785532
 30
0.0
 11
427.049090411212
 21
403.080678785532
 31
0.0
  0
LINE
  5
219
330
1F
100
AcDbEntity
  8
1-0ﾚｲﾔ
  6
JWW_CENTER1
 62
     4
370
     9
100
AcDbLine
 10
439.5493790910052
 20
440.9595091539865
 30
0.0
 11
439.5493790910052
 21
391.0805897071958
 31
0.0
  0
LINE
  5
21A
330
1F
100
AcDbEntity
  8
1-0ﾚｲﾔ
  6
Continuous
 62
     4
370
     9
100
AcDbLine
 10
507.0493543470229
 20
448.5806556911485
 30
0.0
 11
507.0493543470229
 21
402.3305649632136
 31
0.0
  0
LINE
  5
21B
330
1F
100
AcDbEntity
  8
1-0ﾚｲﾔ
  6
Continuous
 62
     4
370
     9
100
AcDbLine
 10
509.5494863149284
 20
453.5806721871367
 30
0.0
 11
509.5494863149284
 21
449.8307216751013
 31
0.0
  0
LINE
  5
21C
330
1F
100
AcDbEntity
  8
1-0ﾚｲﾔ
  6
Continuous
 62
     4
370
     9
100
AcDbLine
 10
509.5494863149284
 20
449.8307216751013
 30
0.0
 11
507.0493543470229
 21
448.5806556911485
 31
0.0
  0
LINE
  5
21D
330
1F
100
AcDbEntity
  8
1-0ﾚｲﾔ
  6
Continuous
 62
     4
370
     9
100
AcDbLine
 10
479.5495110589107
 20
453.5806721871367
 30
0.0
 11
502.0493378510346
 21
453.5806721871367
 31
0.0
  0
LINE
  5
21E
330
1F
100
AcDbEntity
  8
1-0ﾚｲﾔ
  6
Continuous
 62
     4
370
     9
100
AcDbLine
 10
502.0493378510346
 20
453.5806721871367
 30
0.0
 11
502.0493378510346
 21
443.3304775344763
 31
0.0
  0
LINE
  5
21F
330
1F
100
AcDbEntity
  8
1-0ﾚｲﾔ
  6
Continuous
 62
     4
370
     9
100
AcDbLine
 10
502.0493378510346
 20
431.3306358959628
 30
0.0
 11
502.0493378510346
 21
409.3308849853843
 31
0.0
  0
LINE
  5
220
330
1F
100
AcDbEntity
  8
1-B
  6
Continuous
 62
     7
370
     9
100
AcDbLine
 10
489.9670987515836
 20
417.3308618910008
 30
0.0
 11
484.9669585356841
 21
422.330878386989
 31
0.0
  0
LINE
  5
221
330
1F
100
AcDbEntity
  8
1-B
  6
Continuous
 62
     7
370
     9
100
AcDbLine
 10
479.3604670344172
 20
417.3308618910008
 30
0.0
 11
474.3604505384292
 21
422.330878386989
 31
0.0
  0
LINE
  5
222
330
1F
100
AcDbEntity
  8
1-B
  6
Continuous
 62
     7
370
     9
100
AcDbLine
 10
484.6638447529563
 20
417.3308618910008
 30
0.0
 11
479.6637045370568
 21
422.330878386989
 31
0.0
  0
LINE
  5
223
330
1F
100
AcDbEntity
  8
1-3ﾚｲﾔ
  6
Continuous
 62
     3
370
     9
100
AcDbLine
 10
429.5493460990289
 20
417.3308618910008
 30
0.0
 11
429.5493460990289
 21
409.3308849853843
 31
0.0
  0
LINE
  5
224
330
1F
100
AcDbEntity
  8
1-3ﾚｲﾔ
  6
Continuous
 62
     3
370
     9
100
AcDbLine
 10
449.5494120829815
 20
417.3308618910008
 30
0.0
 11
449.5494120829815
 21
409.3308849853843
 31
0.0
  0
LINE
  5
225
330
1F
100
AcDbEntity
  8
1-3ﾚｲﾔ
  6
Continuous
 62
     3
370
     9
100
AcDbLine
 10
498.299263619088
 20
417.3308618910008
 30
0.0
 11
444.5493955869932
 21
417.3308618910008
 31
0.0
  0
LINE
  5
226
330
1F
100
AcDbEntity
  8
1-3ﾚｲﾔ
  6
Continuous
 62
     3
370
     9
100
AcDbLine
 10
434.5493625950169
 20
417.3308618910008
 30
0.0
 11
279.5495935388513
 21
417.3308618910008
 31
0.0
  0
LINE
  5
227
330
1F
100
AcDbEntity
  8
1-3ﾚｲﾔ
  6
Continuous
 62
     3
370
     9
100
AcDbLine
 10
457.0493131070523
 20
409.3308849853843
 30
0.0
 11
444.5493955869932
 21
409.3308849853843
 31
0.0
  0
LINE
  5
228
330
1F
100
AcDbEntity
  8
1-3ﾚｲﾔ
  6
Continuous
 62
     3
370
     9
100
AcDbLine
 10
434.5493625950169
 20
409.3308849853843
 30
0.0
 11
279.5495935388513
 21
409.3308849853843
 31
0.0
  0
LINE
  5
229
330
1F
100
AcDbEntity
  8
1-B
  6
Continuous
 62
     7
370
     9
100
AcDbLine
 10
498.299263619088
 20
422.330878386989
 30
0.0
 11
444.5493955869932
 21
422.330878386989
 31
0.0
  0
LINE
  5
22A
330
1F
100
AcDbEntity
  8
1-B
  6
Continuous
 62
     7
370
     9
100
AcDbLine
 10
447.5408193227409
 20
417.3308618910008
 30
0.0
 11
444.5493955869932
 21
420.3222856267482
 31
0.0
  0
LINE
  5
22B
330
1F
100
AcDbEntity
  8
1-B
  6
Continuous
 62
     7
370
     9
100
AcDbLine
 10
434.5493625950169
 20
419.7156869015582
 30
0.0
 11
431.9341711095862
 21
422.330878386989
 31
0.0
  0
LINE
  5
22C
330
1F
100
AcDbEntity
  8
1-B
  6
Continuous
 62
     7
370
     9
100
AcDbLine
 10
498.299263619088
 20
431.08059795519
 30
0.0
 11
442.4488789326438
 21
431.08059795519
 31
0.0
  0
LINE
  5
22D
330
1F
100
AcDbEntity
  8
1-4ﾚｲﾔ
  6
Continuous
 62
     7
370
     9
100
AcDbLine
 10
128.3808115366344
 20
409.3308849853843
 30
0.0
 11
88.41593974345443
 21
409.3308849853843
 31
0.0
  0
LINE
  5
22E
330
1F
100
AcDbEntity
  8
1-4ﾚｲﾔ
  6
Continuous
 62
     7
370
     9
100
AcDbLine
 10
128.3808115366344
 20
417.3308618910008
 30
0.0
 11
88.41593974345443
 21
417.3308618910008
 31
0.0
  0
LINE
  5
22F
330
1F
100
AcDbEntity
  8
1-4ﾚｲﾔ
  6
Continuous
 62
     7
370
     9
100
AcDbLine
 10
89.91591994826862
 20
417.3308618910008
 30
0.0
 11
89.91591994826862
 21
422.2676575123057
 31
0.0
  0
LINE
  5
230
330
1F
100
AcDbEntity
  8
1-4ﾚｲﾔ
  6
Continuous
 62
     7
370
     9
100
AcDbLine
 10
128.3808115366344
 20
422.2676575123057
 30
0.0
 11
88.41593974345443
 21
422.2676575123057
 31
0.0
  0
LINE
  5
231
330
1F
100
AcDbEntity
  8
1-4ﾚｲﾔ
  6
Continuous
 62
     7
370
     9
100
AcDbLine
 10
89.91591994826862
 20
422.2676575123057
 30
0.0
 11
89.91591994826862
 21
453.5806721871367
 31
0.0
  0
LINE
  5
232
330
1F
100
AcDbEntity
  8
1-4ﾚｲﾔ
  6
Continuous
 62
     7
370
     9
100
AcDbLine
 10
128.3808115366344
 20
453.5806721871367
 30
0.0
 11
88.41593974345443
 21
453.5806721871367
 31
0.0
  0
LINE
  5
233
330
1F
100
AcDbEntity
  8
1-4ﾚｲﾔ
  6
Continuous
 62
     7
370
     9
100
AcDbLine
 10
89.91591994826862
 20
368.4242572272549
 30
0.0
 11
89.91591994826862
 21
417.3308618910008
 31
0.0
  0
LINE
  5
234
330
1F
100
AcDbEntity
  8
1-4ﾚｲﾔ
  6
Continuous
 62
     7
370
     9
100
AcDbLine
 10
50.15234045080248
 20
405.0224627936612
 30
0.0
 11
50.15234045080248
 21
388.3260896016214
 31
0.0
  0
LINE
  5
235
330
1F
100
AcDbEntity
  8
1-4ﾚｲﾔ
  6
Continuous
 62
     7
370
     9
100
AcDbLine
 10
88.13088906777878
 20
419.900648168978
 30
0.0
 11
50.15234045080248
 21
405.0224627936612
 31
0.0
  0
LINE
  5
236
330
1F
100
AcDbEntity
  8
1-4ﾚｲﾔ
  6
Continuous
 62
     7
370
     9
100
AcDbLine
 10
387.0153066274284
 20
480.9126275555911
 30
0.0
 11
315.0124214790964
 21
480.9126275555911
 31
0.0
  0
LINE
  5
237
330
1F
100
AcDbEntity
  8
1-4ﾚｲﾔ
  6
Continuous
 62
     7
370
     9
100
AcDbLine
 10
351.2861097181167
 20
422.330878386989
 30
0.0
 11
387.0153066274284
 21
480.9126275555911
 31
0.0
  0
LINE
  5
238
330
1F
100
AcDbEntity
  8
1-B
  6
Continuous
 62
     7
370
     9
100
AcDbLine
 10
479.5495110589107
 20
453.5806721871367
 30
0.0
 11
417.2118728225297
 21
453.5806721871367
 31
0.0
  0
LINE
  5
239
330
1F
100
AcDbEntity
  8
1-B
  6
Continuous
 62
     7
370
     9
100
AcDbLine
 10
498.299263619088
 20
446.0806474431544
 30
0.0
 11
412.6375765413852
 21
446.0806474431544
 31
0.0
  0
LINE
  5
23A
330
1F
100
AcDbEntity
  8
1-B
  6
Continuous
 62
     7
370
     9
100
AcDbLine
 10
454.7122439822635
 20
438.5806226991723
 30
0.0
 11
408.0632802602409
 21
438.5806226991723
 31
0.0
  0
LINE
  5
23B
330
1F
100
AcDbEntity
  8
1-B
  6
Continuous
 62
     7
370
     9
100
AcDbLine
 10
436.6498792493667
 20
431.08059795519
 30
0.0
 11
403.4889839790964
 21
431.08059795519
 31
0.0
  0
LINE
  5
23C
330
1F
100
AcDbEntity
  8
1-4ﾚｲﾔ
  6
Continuous
 62
     7
370
     9
100
AcDbLine
 10
351.2861097181167
 20
422.330878386989
 30
0.0
 11
356.3462540910052
 21
433.7608661139737
 31
0.0
  0
LINE
  5
23D
330
1F
100
AcDbEntity
  8
1-4ﾚｲﾔ
  6
Continuous
 62
     7
370
     9
100
AcDbLine
 10
351.2861097181167
 20
422.330878386989
 30
0.0
 11
359.1320553341427
 21
432.0618205718496
 31
0.0
  0
LINE
  5
23E
330
1F
100
AcDbEntity
  8
1-B
  6
Continuous
 62
     7
370
     9
100
AcDbLine
 10
362.3888582796664
 20
417.6303877963006
 30
0.0
 11
357.6882439690667
 21
422.330878386989
 31
0.0
  0
LINE
  5
23F
330
1F
100
AcDbEntity
  8
1-4ﾚｲﾔ
  6
Continuous
 62
     7
370
     9
100
AcDbLine
 10
385.7699420001057
 20
417.3308618910008
 30
0.0
 11
390.8300863729943
 21
428.7608496179855
 31
0.0
  0
LINE
  5
240
330
1F
100
AcDbEntity
  8
1-4ﾚｲﾔ
  6
Continuous
 62
     7
370
     9
100
AcDbLine
 10
385.7699420001057
 20
417.3308618910008
 30
0.0
 11
393.6158876161318
 21
427.0618040758615
 31
0.0
  0
LINE
  5
241
330
1F
100
AcDbEntity
  8
1-4ﾚｲﾔ
  6
Continuous
 62
     7
370
     9
100
AcDbLine
 10
385.7699420001057
 20
417.3308618910008
 30
0.0
 11
517.6848128035263
 21
633.6186913158847
 31
0.0
  0
LINE
  5
242
330
1F
100
AcDbEntity
  8
1-B
  6
Continuous
 62
     7
370
     9
100
AcDbLine
 10
434.5493625950169
 20
422.330878386989
 30
0.0
 11
398.1525730442357
 21
422.330878386989
 31
0.0
  0
LINE
  5
243
330
1F
100
AcDbEntity
  8
1-B
  6
Continuous
 62
     7
370
     9
100
AcDbLine
 10
399.8112858952703
 20
417.3308618910008
 30
0.0
 11
396.8866709116344
 21
420.2554768746367
 31
0.0
  0
LINE
  5
244
330
1F
100
AcDbEntity
  8
1-B
  6
Continuous
 62
     7
370
     9
100
AcDbLine
 10
367.9916381835938
 20
417.3308618910008
 30
0.0
 11
362.9916216876057
 21
422.330878386989
 31
0.0
  0
LINE
  5
245
330
1F
100
AcDbEntity
  8
1-B
  6
Continuous
 62
     7
370
     9
100
AcDbLine
 10
377.936739534945
 20
417.9922685369044
 30
0.0
 11
373.5981296848607
 21
422.330878386989
 31
0.0
  0
LINE
  5
246
330
1F
100
AcDbEntity
  8
1-B
  6
Continuous
 62
     7
370
     9
100
AcDbLine
 10
373.2948921822214
 20
417.3308618910008
 30
0.0
 11
368.2947519663219
 21
422.330878386989
 31
0.0
  0
LINE
  5
247
330
1F
100
AcDbEntity
  8
1-B
  6
Continuous
 62
     7
370
     9
100
AcDbLine
 10
379.9459508947425
 20
421.2864348956461
 30
0.0
 11
378.9015074033995
 21
422.330878386989
 31
0.0
  0
LINE
  5
248
330
1F
100
AcDbEntity
  8
1-B
  6
Continuous
 62
     7
370
     9
100
AcDbLine
 10
399.6422844964104
 20
453.5806721871367
 30
0.0
 11
377.6661640888938
 21
453.5806721871367
 31
0.0
  0
LINE
  5
249
330
1F
100
AcDbEntity
  8
1-B
  6
Continuous
 62
     7
370
     9
100
AcDbLine
 10
363.0246549039273
 20
453.5806721871367
 30
0.0
 11
339.5492966110643
 21
453.5806721871367
 31
0.0
  0
LINE
  5
24A
330
1F
100
AcDbEntity
  8
1-B
  6
Continuous
 62
     7
370
     9
100
AcDbLine
 10
395.0679882152662
 20
446.0806474431544
 30
0.0
 11
373.0918678077492
 21
446.0806474431544
 31
0.0
  0
LINE
  5
24B
330
1F
100
AcDbEntity
  8
1-B
  6
Continuous
 62
     7
370
     9
100
AcDbLine
 10
358.4504823426943
 20
446.0806474431544
 30
0.0
 11
320.799544050887
 21
446.0806474431544
 31
0.0
  0
LINE
  5
24C
330
1F
100
AcDbEntity
  8
1-B
  6
Continuous
 62
     7
370
     9
100
AcDbLine
 10
390.4936919341216
 20
438.5806226991723
 30
0.0
 11
368.5175715266047
 21
438.5806226991723
 31
0.0
  0
LINE
  5
24D
330
1F
100
AcDbEntity
  8
1-B
  6
Continuous
 62
     7
370
     9
100
AcDbLine
 10
353.87618606155
 20
438.5806226991723
 30
0.0
 11
320.799544050887
 21
438.5806226991723
 31
0.0
  0
LINE
  5
24E
330
1F
100
AcDbEntity
  8
1-B
  6
Continuous
 62
     7
370
     9
100
AcDbLine
 10
385.9193956529774
 20
431.08059795519
 30
0.0
 11
363.9432752454604
 21
431.08059795519
 31
0.0
  0
LINE
  5
24F
330
1F
100
AcDbEntity
  8
1-B
  6
Continuous
 62
     7
370
     9
100
AcDbLine
 10
349.3018897804055
 20
431.08059795519
 30
0.0
 11
320.799544050887
 21
431.08059795519
 31
0.0
  0
LINE
  5
250
330
1F
100
AcDbEntity
  8
1-4ﾚｲﾔ
  6
Continuous
 62
     7
370
     9
100
AcDbLine
 10
506.4243213550466
 20
456.0806185751751
 30
0.0
 11
511.4844657279352
 21
467.51060630216
 31
0.0
  0
LINE
  5
251
330
1F
100
AcDbEntity
  8
1-4ﾚｲﾔ
  6
Continuous
 62
     7
370
     9
100
AcDbLine
 10
506.4243213550466
 20
456.0806185751751
 30
0.0
 11
514.2702669710727
 21
465.8114989000802
 31
0.0
  0
ARC
  5
252
330
1F
100
AcDbEntity
  8
1-5ﾚｲﾔ
  6
Continuous
 62
     7
370
     9
100
AcDbCircle
 10
479.5500059385557
 20
414.8307299230953
 30
0.0
 40
37.50000386624723
100
AcDbArc
 50
248.4898071289062
 51
291.5101928710938
  0
ARC
  5
253
330
1F
100
AcDbEntity
  8
1-5ﾚｲﾔ
  6
Continuous
 62
     7
370
     9
100
AcDbCircle
 10
479.5500059385557
 20
414.8307299230953
 30
0.0
 40
35.50000190734863
100
AcDbArc
 50
257.8034057617188
 51
282.1965942382812
  0
ARC
  5
254
330
1F
100
AcDbEntity
  8
1-1ﾚｲﾔ
  6
Continuous
 62
     2
370
     9
100
AcDbCircle
 10
493.2997420027451
 20
386.0809443709417
 30
0.0
 40
2.500003415185052
100
AcDbArc
 50
90.0
 51
270.0
  0
ARC
  5
255
330
1F
100
AcDbEntity
  8
1-1ﾚｲﾔ
  6
Continuous
 62
     2
370
     9
100
AcDbCircle
 10
465.7997749947214
 20
386.0809443709417
 30
0.0
 40
2.500003415185052
100
AcDbArc
 50
270.0
 51
90.0
  0
ARC
  5
256
330
1F
100
AcDbEntity
  8
1-1ﾚｲﾔ
  6
Continuous
 62
     2
370
     9
100
AcDbCircle
 10
501.4246760187922
 20
381.0808041550422
 30
0.0
 40
2.500000032218727
100
AcDbArc
 50
90.0
 51
180.0
  0
ARC
  5
257
330
1F
100
AcDbEntity
  8
1-1ﾚｲﾔ
  6
Continuous
 62
     2
370
     9
100
AcDbCircle
 10
457.6743460990289
 20
381.0808041550422
 30
0.0
 40
2.500000032218727
100
AcDbArc
 50
0.0
 51
90.0
  0
ARC
  5
258
330
1F
100
AcDbEntity
  8
1-1ﾚｲﾔ
  6
Continuous
 62
     2
370
     9
100
AcDbCircle
 10
453.2993625950169
 20
381.0808041550422
 30
0.0
 40
2.500000032218727
100
AcDbArc
 50
90.0
 51
180.0
  0
ARC
  5
259
330
1F
100
AcDbEntity
  8
1-1ﾚｲﾔ
  6
Continuous
 62
     2
370
     9
100
AcDbCircle
 10
453.2993625950169
 20
359.830795907048
 30
0.0
 40
2.500000032218727
100
AcDbArc
 50
180.0
 51
270.0
  0
ARC
  5
25A
330
1F
100
AcDbEntity
  8
1-1ﾚｲﾔ
  6
Continuous
 62
     2
370
     9
100
AcDbCircle
 10
463.9249234586148
 20
359.830795907048
 30
0.0
 40
2.500000032218727
100
AcDbArc
 50
270.0
 51
0.0
  0
ARC
  5
25B
330
1F
100
AcDbEntity
  8
1-1ﾚｲﾔ
  6
Continuous
 62
     2
370
     9
100
AcDbCircle
 10
463.9249234586148
 20
362.3308041550422
 30
0.0
 40
2.500000032218727
100
AcDbArc
 50
0.0
 51
90.0
  0
ARC
  5
25C
330
1F
100
AcDbEntity
  8
1-1ﾚｲﾔ
  6
Continuous
 62
     2
370
     9
100
AcDbCircle
 10
462.6746100348396
 20
367.330696931119
 30
0.0
 40
2.500000032218727
100
AcDbArc
 50
180.0
 51
270.0
  0
ARC
  5
25D
330
1F
100
AcDbEntity
  8
1-1ﾚｲﾔ
  6
Continuous
 62
     2
370
     9
100
AcDbCircle
 10
509.5496100348396
 20
381.0808041550422
 30
0.0
 40
2.500000032218727
100
AcDbArc
 50
0.0
 51
90.0
  0
ARC
  5
25E
330
1F
100
AcDbEntity
  8
1-1ﾚｲﾔ
  6
Continuous
 62
     2
370
     9
100
AcDbCircle
 10
495.174840978674
 20
368.5808866349831
 30
0.0
 40
3.75000004832809
100
AcDbArc
 50
270.0
 51
0.0
  0
ARC
  5
25F
330
1F
100
AcDbEntity
  8
1-1ﾚｲﾔ
  6
Continuous
 62
     2
370
     9
100
AcDbCircle
 10
527.049544050887
 20
361.0807381710895
 30
0.0
 40
2.500003415185052
100
AcDbArc
 50
0.0
 51
180.0
  0
ARC
  5
260
330
1F
100
AcDbEntity
  8
1-1ﾚｲﾔ
  6
Continuous
 62
     2
370
     9
100
AcDbCircle
 10
509.5496100348396
 20
359.830795907048
 30
0.0
 40
2.500000032218727
100
AcDbArc
 50
270.0
 51
0.0
  0
ARC
  5
261
330
1F
100
AcDbEntity
  8
1-1ﾚｲﾔ
  6
Continuous
 62
     2
370
     9
100
AcDbCircle
 10
495.174840978674
 20
359.830795907048
 30
0.0
 40
2.500000032218727
100
AcDbArc
 50
180.0
 51
270.0
  0
ARC
  5
262
330
1F
100
AcDbEntity
  8
1-1ﾚｲﾔ
  6
Continuous
 62
     2
370
     9
100
AcDbCircle
 10
527.049544050887
 20
401.0804989792609
 30
0.0
 40
2.500003415185052
100
AcDbArc
 50
180.0
 51
0.0
  0
ARC
  5
263
330
1F
100
AcDbEntity
  8
1-1ﾚｲﾔ
  6
Continuous
 62
     2
370
     9
100
AcDbCircle
 10
522.0497749947214
 20
448.5806556911485
 30
0.0
 40
5.000000064437454
100
AcDbArc
 50
90.0
 51
180.0
  0
ARC
  5
264
330
1F
100
AcDbEntity
  8
1-1ﾚｲﾔ
  6
Continuous
 62
     2
370
     9
100
AcDbCircle
 10
492.6747090107688
 20
372.3305897071958
 30
0.0
 40
2.500000032218727
100
AcDbArc
 50
270.0
 51
0.0
  0
ARC
  5
265
330
1F
100
AcDbEntity
  8
1-1ﾚｲﾔ
  6
Continuous
 62
     2
370
     9
100
AcDbCircle
 10
466.4248079866977
 20
372.3305897071958
 30
0.0
 40
2.500000032218727
100
AcDbArc
 50
180.0
 51
270.0
  0
ARC
  5
266
330
1F
100
AcDbEntity
  8
1-A
  6
Continuous
 62
     2
370
     9
100
AcDbCircle
 10
479.5500059385557
 20
367.2314735622423
 30
0.0
 40
9.849169125428071
100
AcDbArc
 50
15.30145263671878
 51
164.6985473632813
  0
ARC
  5
267
330
1F
100
AcDbEntity
  8
1-A
  6
Continuous
 62
     2
370
     9
100
AcDbCircle
 10
434.5493625950169
 20
396.0097146939991
 30
0.0
 40
3.75000004832809
100
AcDbArc
 50
180.0
 51
254.5338897705078
  0
ARC
  5
268
330
1F
100
AcDbEntity
  8
1-A
  6
Continuous
 62
     2
370
     9
100
AcDbCircle
 10
444.5493955869932
 20
396.0097146939991
 30
0.0
 40
3.75000004832809
100
AcDbArc
 50
285.4661102294922
 51
0.0
  0
ARC
  5
269
330
1F
100
AcDbEntity
  8
1-A
  6
Continuous
 62
     2
370
     9
100
AcDbCircle
 10
439.5493790910052
 20
414.080616100777
 30
0.0
 40
22.50000077324945
100
AcDbArc
 50
254.5339660644532
 51
266.6239776611328
  0
ARC
  5
26A
330
1F
100
AcDbEntity
  8
1-A
  6
Continuous
 62
     2
370
     9
100
AcDbCircle
 10
439.5493790910052
 20
414.080616100777
 30
0.0
 40
22.50000077324945
100
AcDbArc
 50
273.3760223388672
 51
285.4660186767578
  0
TEXT
  5
26B
330
1F
100
AcDbEntity
  8
1-4ﾚｲﾔ
  6
Continuous
 62
     2
370
     9
100
AcDbText
 10
477.6749110866239
 20
135.5410002593495
 30
0.0
 40
15.24
  1
33
 41
1.0625
  7
ＭＳ ゴシック
100
AcDbText
  0
TEXT
  5
26C
330
1F
100
AcDbEntity
  8
1-4ﾚｲﾔ
  6
Continuous
 62
     2
370
     9
100
AcDbText
 10
674.9973498205237
 20
384.3689123621261
 30
0.0
 40
15.24
  1
40
 50
90.0
 41
1.0625
  7
ＭＳ ゴシック
100
AcDbText
  0
TEXT
  5
26D
330
1F
100
AcDbEntity
  8
1-4ﾚｲﾔ
  6
Continuous
 62
     2
370
     9
100
AcDbText
 10
317.272569811022
 20
64.68438008937494
 30
0.0
 40
15.24
  1
断面詳細図　Ｓ＝１：２
 41
1.113636363636364
  7
ＭＳ ゴシック
100
AcDbText
  0
TEXT
  5
26E
330
1F
100
AcDbEntity
  8
1-4ﾚｲﾔ
  6
Continuous
 62
     7
370
     9
100
AcDbText
 10
238.1808512919659
 20
30.35874162864857
 30
0.0
 40
11.43
  1
処理：陽極酸化塗装複合皮膜処理（アルミ材のみ）
 41
1.159420289855073
  7
ＭＳ ゴシック
100
AcDbText
  0
TEXT
  5
26F
330
1F
100
AcDbEntity
  8
1-4ﾚｲﾔ
  6
Continuous
 62
     7
370
     9
100
AcDbText
 10
636.1645714012353
 20
198.3933931014104
 30
0.0
 40
11.43
  1
木ネジ　φ４．１×２５
 41
1.151515151515152
  7
ＭＳ ゴシック
100
AcDbText
  0
TEXT
  5
270
330
1F
100
AcDbEntity
  8
1-4ﾚｲﾔ
  6
Continuous
 62
     2
370
     9
100
AcDbText
 10
674.9973498205237
 20
464.0294228634723
 30
0.0
 40
15.24
  1
2
 50
90.0
 41
0.9999999999999998
  7
ＭＳ ゴシック
100
AcDbText
  0
TEXT
  5
271
330
1F
100
AcDbEntity
  8
1-4ﾚｲﾔ
  6
Continuous
 62
     2
370
     9
100
AcDbText
 10
716.9861556429477
 20
384.3689123621261
 30
0.0
 40
15.24
  1
42
 50
90.0
 41
1.0625
  7
ＭＳ ゴシック
100
AcDbText
  0
TEXT
  5
272
330
1F
100
AcDbEntity
  8
1-4ﾚｲﾔ
  6
Continuous
 62
     2
370
     9
100
AcDbText
 10
84.59591170027463
 20
371.8850660585472
 30
0.0
 40
15.24
  1
3.2
 50
90.0
 41
1.083333333333333
  7
ＭＳ ゴシック
100
AcDbText
  0
TEXT
  5
273
330
1F
100
AcDbEntity
  8
1-4ﾚｲﾔ
  6
Continuous
 62
     2
370
     9
100
AcDbText
 10
46.34357091955248
 20
391.7867685270068
 30
0.0
 40
15.24
  1
2
 50
90.0
 41
0.9999999999999998
  7
ＭＳ ゴシック
100
AcDbText
  0
TEXT
  5
274
330
1F
100
AcDbEntity
  8
1-4ﾚｲﾔ
  6
Continuous
 62
     2
370
     9
100
AcDbText
 10
84.59591170027463
 20
427.2569206860018
 30
0.0
 40
15.24
  1
12.5
 50
90.0
 41
1.09375
  7
ＭＳ ゴシック
100
AcDbText
  0
TEXT
  5
275
330
1F
100
AcDbEntity
  8
1-4ﾚｲﾔ
  6
Continuous
 62
     7
370
     9
100
AcDbText
 10
316.0561102789802
 20
486.5386749188724
 30
0.0
 40
11.43
  1
接着シロ
 41
1.125
  7
ＭＳ ゴシック
100
AcDbText
  0
LWPOLYLINE
  5
276
330
1F
100
AcDbEntity
  8
1-4ﾚｲﾔ
  6
Continuous
 62
     7
370
     9
100
AcDbPolyline
 90
        4
 70
     1
 43
0.5
 10
447.2997749947214
 20
129.7210398497212
 42
0.4142135623731
 10
447.0497749947214
 20
129.9710398497212
 42
0.4142135623731
 10
446.7997749947214
 20
129.7210398497212
 42
0.4142135623731
 10
447.0497749947214
 20
129.4710398497212
 42
0.4142135623731
  0
LWPOLYLINE
  5
277
330
1F
100
AcDbEntity
  8
1-4ﾚｲﾔ
  6
Continuous
 62
     7
370
     9
100
AcDbPolyline
 90
        4
 70
     1
 43
0.5
 10
529.7996760187922
 20
129.7210398497212
 42
0.4142135623731
 10
529.5496760187922
 20
129.9710398497212
 42
0.4142135623731
 10
529.2996760187922
 20
129.7210398497212
 42
0.4142135623731
 10
529.5496760187922
 20
129.4710398497212
 42
0.4142135623731
  0
LWPOLYLINE
  5
278
330
1F
100
AcDbEntity
  8
1-4ﾚｲﾔ
  6
Continuous
 62
     7
370
     9
100
AcDbPolyline
 90
        4
 70
     1
 43
0.5
 10
681.0673102301521
 20
353.5805897071958
 42
0.4142135623731
 10
680.8173102301521
 20
353.8305897071958
 42
0.4142135623731
 10
680.5673102301521
 20
353.5805897071958
 42
0.4142135623731
 10
680.8173102301521
 20
353.3305897071958
 42
0.4142135623731
  0
LWPOLYLINE
  5
279
330
1F
100
AcDbEntity
  8
1-4ﾚｲﾔ
  6
Continuous
 62
     7
370
     9
100
AcDbPolyline
 90
        4
 70
     1
 43
0.5
 10
681.0673102301521
 20
453.580795907048
 42
0.4142135623731
 10
680.8173102301521
 20
453.830795907048
 42
0.4142135623731
 10
680.5673102301521
 20
453.580795907048
 42
0.4142135623731
 10
680.8173102301521
 20
453.3307959070481
 42
0.4142135623731
  0
LWPOLYLINE
  5
27A
330
1F
100
AcDbEntity
  8
1-4ﾚｲﾔ
  6
Continuous
 62
     7
370
     9
100
AcDbPolyline
 90
        4
 70
     1
 43
0.5
 10
681.0673102301521
 20
458.5806886831249
 42
0.4142135623731
 10
680.8173102301521
 20
458.8306886831248
 42
0.4142135623731
 10
680.5673102301521
 20
458.5806886831249
 42
0.4142135623731
 10
680.8173102301521
 20
458.3306886831249
 42
0.4142135623731
  0
LWPOLYLINE
  5
27B
330
1F
100
AcDbEntity
  8
1-4ﾚｲﾔ
  6
Continuous
 62
     7
370
     9
100
AcDbPolyline
 90
        4
 70
     1
 43
0.5
 10
723.056116052576
 20
353.5805897071958
 42
0.4142135623731
 10
722.806116052576
 20
353.8305897071958
 42
0.4142135623731
 10
722.556116052576
 20
353.5805897071958
 42
0.4142135623731
 10
722.806116052576
 20
353.3305897071958
 42
0.4142135623731
  0
LWPOLYLINE
  5
27C
330
1F
100
AcDbEntity
  8
1-4ﾚｲﾔ
  6
Continuous
 62
     7
370
     9
100
AcDbPolyline
 90
        4
 70
     1
 43
0.5
 10
723.056116052576
 20
458.5806886831249
 42
0.4142135623731
 10
722.806116052576
 20
458.8306886831248
 42
0.4142135623731
 10
722.556116052576
 20
458.5806886831249
 42
0.4142135623731
 10
722.806116052576
 20
458.3306886831249
 42
0.4142135623731
  0
LWPOLYLINE
  5
27D
330
1F
100
AcDbEntity
  8
1-4ﾚｲﾔ
  6
Continuous
 62
     7
370
     9
100
AcDbPolyline
 90
        4
 70
     1
 43
0.5
 10
90.16591994826862
 20
409.3308849853843
 42
0.4142135623731
 10
89.91591994826862
 20
409.5808849853842
 42
0.4142135623731
 10
89.66591994826862
 20
409.3308849853843
 42
0.4142135623731
 10
89.91591994826862
 20
409.0808849853843
 42
0.4142135623731
  0
LWPOLYLINE
  5
27E
330
1F
100
AcDbEntity
  8
1-4ﾚｲﾔ
  6
Continuous
 62
     7
370
     9
100
AcDbPolyline
 90
        4
 70
     1
 43
0.5
 10
90.16591994826862
 20
417.3308618910008
 42
0.4142135623731
 10
89.91591994826862
 20
417.5808618910008
 42
0.4142135623731
 10
89.66591994826862
 20
417.3308618910008
 42
0.4142135623731
 10
89.91591994826862
 20
417.0808618910008
 42
0.4142135623731
  0
LWPOLYLINE
  5
27F
330
1F
100
AcDbEntity
  8
1-4ﾚｲﾔ
  6
Continuous
 62
     7
370
     9
100
AcDbPolyline
 90
        4
 70
     1
 43
0.5
 10
90.16591994826862
 20
422.2676575123057
 42
0.4142135623731
 10
89.91591994826862
 20
422.5176575123057
 42
0.4142135623731
 10
89.66591994826862
 20
422.2676575123057
 42
0.4142135623731
 10
89.91591994826862
 20
422.0176575123057
 42
0.4142135623731
  0
LWPOLYLINE
  5
280
330
1F
100
AcDbEntity
  8
1-4ﾚｲﾔ
  6
Continuous
 62
     7
370
     9
100
AcDbPolyline
 90
        4
 70
     1
 43
0.5
 10
90.16591994826862
 20
453.5806721871367
 42
0.4142135623731
 10
89.91591994826862
 20
453.8306721871367
 42
0.4142135623731
 10
89.66591994826862
 20
453.5806721871367
 42
0.4142135623731
 10
89.91591994826862
 20
453.3306721871367
 42
0.4142135623731
  0
TEXT
  5
281
330
1F
100
AcDbEntity
  8
1-4ﾚｲﾔ
  6
Continuous
 62
     2
370
     9
100
AcDbText
 10
136.8594525311445
 20
135.5410002593495
 30
0.0
 40
15.24
  1
□400
 41
1.1
  7
ＭＳ ゴシック
100
AcDbText
  0
TEXT
  5
282
330
1F
100
AcDbEntity
  8
1-4ﾚｲﾔ
  6
Continuous
 62
     7
370
     9
100
AcDbText
 10
584.9810342625716
 20
581.4932090715131
 30
0.0
 40
11.43
  1
蓋フレーム（Ａ６０６３Ｓ－Ｔ５）
 50
0.0000255446035848
 41
1.15625
  7
ＭＳ ゴシック
100
AcDbText
  0
TEXT
  5
283
330
1F
100
AcDbEntity
  8
1-4ﾚｲﾔ
  6
Continuous
 62
     7
370
     9
100
AcDbText
 10
610.9669179388231
 20
542.5862043800431
 30
0.0
 40
11.43
  1
アルミ受枠（Ａ６０６３Ｓ－Ｔ５）
 41
1.15625
  7
ＭＳ ゴシック
100
AcDbText
  0
LINE
  5
284
330
1F
100
AcDbEntity
  8
1-4ﾚｲﾔ
  6
Continuous
 62
     7
370
     9
100
AcDbLine
 10
506.4243213550466
 20
456.0806185751751
 30
0.0
 11
580.5247874529293
 21
577.5761048432505
 31
0.0
  0
LINE
  5
285
330
1F
100
AcDbEntity
  8
1-4ﾚｲﾔ
  6
Continuous
 62
     7
370
     9
100
AcDbLine
 10
863.4210838356771
 20
577.5761048432505
 30
0.0
 11
580.5247874529293
 21
577.5761048432505
 31
0.0
  0
LINE
  5
286
330
1F
100
AcDbEntity
  8
1-4ﾚｲﾔ
  6
Continuous
 62
     7
370
     9
100
AcDbLine
 10
523.5165982633023
 20
408.5806474431544
 30
0.0
 11
602.380340410035
 21
537.8855200934617
 31
0.0
  0
LINE
  5
287
330
1F
100
AcDbEntity
  8
1-4ﾚｲﾔ
  6
Continuous
 62
     7
370
     9
100
AcDbLine
 10
875.7903531293848
 20
537.8855200934617
 30
0.0
 11
602.380340410035
 21
537.8855200934617
 31
0.0
  0
LINE
  5
288
330
1F
100
AcDbEntity
  8
1-4ﾚｲﾔ
  6
Continuous
 62
     7
370
     9
100
AcDbLine
 10
135.8808362806167
 20
550.4496434476617
 30
0.0
 11
542.049346099029
 21
550.4496434476617
 31
0.0
  0
LINE
  5
289
330
1F
100
AcDbEntity
  8
1-4ﾚｲﾔ
  6
Continuous
 62
     7
370
     9
100
AcDbLine
 10
509.5494863149284
 20
468.1663836920987
 30
0.0
 11
509.5494863149284
 21
551.949623652476
 31
0.0
  0
LINE
  5
28A
330
1F
100
AcDbEntity
  8
1-4ﾚｲﾔ
  6
Continuous
 62
     7
370
     9
100
AcDbLine
 10
512.0494945629224
 20
468.1663836920987
 30
0.0
 11
512.0494945629224
 21
551.949623652476
 31
0.0
  0
LINE
  5
28B
330
1F
100
AcDbEntity
  8
1-4ﾚｲﾔ
  6
Continuous
 62
     7
370
     9
100
AcDbLine
 10
542.049346099029
 20
468.1663836920987
 30
0.0
 11
542.049346099029
 21
592.9478660049357
 31
0.0
  0
LINE
  5
28C
330
1F
100
AcDbEntity
  8
1-4ﾚｲﾔ
  6
Continuous
 62
     7
370
     9
100
AcDbLine
 10
135.8808362806167
 20
591.4480095200329
 30
0.0
 11
542.049346099029
 21
591.4480095200329
 31
0.0
  0
TEXT
  5
28D
330
1F
100
AcDbEntity
  8
1-4ﾚｲﾔ
  6
Continuous
 62
     2
370
     9
100
AcDbText
 10
494.7987489442569
 20
555.7696516956559
 30
0.0
 40
15.24
  1
1
 41
0.9999999999999998
  7
ＭＳ ゴシック
100
AcDbText
  0
TEXT
  5
28E
330
1F
100
AcDbEntity
  8
1-4ﾚｲﾔ
  6
Continuous
 62
     2
370
     9
100
AcDbText
 10
516.4244821909313
 20
555.7696516956559
 30
0.0
 40
15.24
  1
12
 41
1.0625
  7
ＭＳ ゴシック
100
AcDbText
  0
LWPOLYLINE
  5
28F
330
1F
100
AcDbEntity
  8
1-4ﾚｲﾔ
  6
Continuous
 62
     7
370
     9
100
AcDbPolyline
 90
        4
 70
     1
 43
0.5
 10
509.7994863149284
 20
550.4496434476617
 42
0.4142135623731
 10
509.5494863149284
 20
550.6996434476617
 42
0.4142135623731
 10
509.2994863149284
 20
550.4496434476617
 42
0.4142135623731
 10
509.5494863149284
 20
550.1996434476619
 42
0.4142135623731
  0
LWPOLYLINE
  5
290
330
1F
100
AcDbEntity
  8
1-4ﾚｲﾔ
  6
Continuous
 62
     7
370
     9
100
AcDbPolyline
 90
        4
 70
     1
 43
0.5
 10
512.2994945629224
 20
550.4496434476617
 42
0.4142135623731
 10
512.0494945629224
 20
550.6996434476617
 42
0.4142135623731
 10
511.7994945629224
 20
550.4496434476617
 42
0.4142135623731
 10
512.0494945629224
 20
550.1996434476619
 42
0.4142135623731
  0
LWPOLYLINE
  5
291
330
1F
100
AcDbEntity
  8
1-4ﾚｲﾔ
  6
Continuous
 62
     7
370
     9
100
AcDbPolyline
 90
        4
 70
     1
 43
0.5
 10
542.2993460990289
 20
550.4496434476617
 42
0.4142135623731
 10
542.049346099029
 20
550.6996434476617
 42
0.4142135623731
 10
541.799346099029
 20
550.4496434476617
 42
0.4142135623731
 10
542.049346099029
 20
550.1996434476619
 42
0.4142135623731
  0
LWPOLYLINE
  5
292
330
1F
100
AcDbEntity
  8
1-4ﾚｲﾔ
  6
Continuous
 62
     7
370
     9
100
AcDbPolyline
 90
        4
 70
     1
 43
0.5
 10
542.2993460990289
 20
591.4480095200329
 42
0.4142135623731
 10
542.049346099029
 20
591.6980095200329
 42
0.4142135623731
 10
541.799346099029
 20
591.4480095200329
 42
0.4142135623731
 10
542.049346099029
 20
591.1980095200329
 42
0.4142135623731
  0
TEXT
  5
293
330
1F
100
AcDbEntity
  8
1-4ﾚｲﾔ
  6
Continuous
 62
     2
370
     9
100
AcDbText
 10
136.8589576514992
 20
555.7696516956559
 30
0.0
 40
15.24
  1
□450
 41
1.1
  7
ＭＳ ゴシック
100
AcDbText
  0
TEXT
  5
294
330
1F
100
AcDbEntity
  8
1-4ﾚｲﾔ
  6
Continuous
 62
     2
370
     9
100
AcDbText
 10
136.0182808540964
 20
597.3773383312662
 30
0.0
 40
15.24
  1
□476
 41
1.1
  7
ＭＳ ゴシック
100
AcDbText
  0
LINE
  5
295
330
1F
100
AcDbEntity
  8
1-4ﾚｲﾔ
  6
Continuous
 62
     7
370
     9
100
AcDbLine
 10
509.5494863149284
 20
516.068338681233
 30
0.0
 11
272.0494450749578
 21
516.068338681233
 31
0.0
  0
LWPOLYLINE
  5
296
330
1F
100
AcDbEntity
  8
1-4ﾚｲﾔ
  6
Continuous
 62
     7
370
     9
100
AcDbPolyline
 90
        4
 70
     1
 43
0.5
 10
509.7994863149284
 20
516.068338681233
 42
0.4142135623731
 10
509.5494863149284
 20
516.3183386812328
 42
0.4142135623731
 10
509.2994863149284
 20
516.068338681233
 42
0.4142135623731
 10
509.5494863149284
 20
515.818338681233
 42
0.4142135623731
  0
LWPOLYLINE
  5
297
330
1F
100
AcDbEntity
  8
1-4ﾚｲﾔ
  6
Continuous
 62
     7
370
     9
100
AcDbPolyline
 90
        4
 70
     1
 43
0.5
 10
272.2994450749578
 20
516.068338681233
 42
0.4142135623731
 10
272.0494450749578
 20
516.3183386812328
 42
0.4142135623731
 10
271.7994450749578
 20
516.068338681233
 42
0.4142135623731
 10
272.0494450749578
 20
515.818338681233
 42
0.4142135623731
  0
LINE
  5
298
330
1F
100
AcDbEntity
  8
1-4ﾚｲﾔ
  6
Continuous
 62
     7
370
     9
100
AcDbLine
 10
272.0494450749578
 20
517.5683386812328
 30
0.0
 11
272.0494450749578
 21
472.8516237417186
 31
0.0
  0
TEXT
  5
299
330
1F
100
AcDbEntity
  8
1-4ﾚｲﾔ
  6
Continuous
 62
     2
370
   211
100
AcDbText
 10
380.1744656949431
 20
521.8883386812329
 30
0.0
 40
15.24
  1
95
 41
1.0625
  7
ＭＳ ゴシック
100
AcDbText
  0
LINE
  5
29A
330
1F
100
AcDbEntity
  8
通り芯
  6
Continuous
 62
     4
370
     9
100
AcDbLine
 10
-563.1521854474277
 20
-30.68415255159934
 30
0.0
 11
-563.1521854474275
 21
77.31580785802907
 31
0.0
  0
LINE
  5
29B
330
1F
100
AcDbEntity
  8
通り芯
  6
Continuous
 62
     4
370
     9
100
AcDbLine
 10
-510.1520848218997
 20
-32.68415914999451
 30
0.0
 11
-561.152129361068
 21
-32.68415914999451
 31
0.0
  0
LINE
  5
29C
330
1F
100
AcDbEntity
  8
通り芯
  6
Continuous
 62
     4
370
     9
100
AcDbLine
 10
-508.1520287355399
 20
77.31580785802907
 30
0.0
 11
-508.15202873554
 21
-30.68415255159934
 31
0.0
  0
LINE
  5
29D
330
1F
100
AcDbEntity
  8
通り芯
  6
Continuous
 62
     4
370
     9
100
AcDbLine
 10
-510.1520848218997
 20
79.31586394438892
 30
0.0
 11
-561.1521293610678
 21
79.31586394438892
 31
0.0
  0
LINE
  5
29E
330
1F
100
AcDbEntity
  8
通り芯
  6
Continuous
 62
     4
370
     9
100
AcDbLine
 10
-562.5663964113212
 20
-32.09777625831379
 30
0.0
 11
-552.5663139313805
 21
-22.09774326633749
 31
0.0
  0
LINE
  5
29F
330
1F
100
AcDbEntity
  8
通り芯
  6
Continuous
 62
     4
370
     9
100
AcDbLine
 10
-508.7375208438592
 20
78.73002542031796
 30
0.0
 11
-518.7375785798178
 21
68.72999242834157
 31
0.0
  0
LINE
  5
2A0
330
1F
100
AcDbEntity
  8
通り芯
  6
Continuous
 62
     4
370
     9
100
AcDbLine
 10
-508.7375208438593
 20
-32.09777625831379
 30
0.0
 11
-518.7375785798179
 21
-22.09774326633749
 31
0.0
  0
LINE
  5
2A1
330
1F
100
AcDbEntity
  8
通り芯
  6
Continuous
 62
     4
370
     9
100
AcDbLine
 10
-520.1517466541421
 20
69.31583095241254
 30
0.0
 11
-551.1517994413042
 21
69.31583095241254
 31
0.0
  0
LINE
  5
2A2
330
1F
100
AcDbEntity
  8
通り芯
  6
Continuous
 62
     4
370
     9
100
AcDbLine
 10
-518.1517647997292
 20
-20.68413193161405
 30
0.0
 11
-518.1517647997291
 21
67.31567589012369
 31
0.0
  0
LINE
  5
2A3
330
1F
100
AcDbEntity
  8
通り芯
  6
Continuous
 62
     4
370
     9
100
AcDbLine
 10
-553.1519545035932
 20
-20.68413193161405
 30
0.0
 11
-553.1519545035932
 21
67.31567589012369
 31
0.0
  0
LINE
  5
2A4
330
1F
100
AcDbEntity
  8
通り芯
  6
Continuous
 62
     4
370
     9
100
AcDbLine
 10
-551.1517994413044
 20
-22.6842127619561
 30
0.0
 11
-520.1517466541422
 21
-22.6842127619561
 31
0.0
  0
LINE
  5
2A5
330
1F
100
AcDbEntity
  8
仕上
  6
Continuous
 62
     3
370
     9
100
AcDbLine
 10
-531.3520854817393
 20
-9.334178615260669
 30
0.0
 11
-539.9519307493701
 21
-9.334178615260669
 31
0.0
  0
LINE
  5
2A6
330
1F
100
AcDbEntity
  8
仕上
  6
Continuous
 62
     3
370
     9
100
AcDbLine
 10
-529.6520996682891
 20
-7.634180429819253
 30
0.0
 11
-529.6520996682891
 21
54.26583573624914
 31
0.0
  0
LINE
  5
2A7
330
1F
100
AcDbEntity
  8
通り芯
  6
Continuous
 62
     4
370
     9
100
AcDbLine
 10
-531.1521046170856
 20
-9.834180264859498
 30
0.0
 11
-540.1520848218997
 21
-9.834180264859498
 31
0.0
  0
LINE
  5
2A8
330
1F
100
AcDbEntity
  8
通り芯
  6
Continuous
 62
     4
370
     9
100
AcDbLine
 10
-542.152091420295
 20
54.46584134488507
 30
0.0
 11
-542.152091420295
 21
-7.834186038455329
 31
0.0
  0
LINE
  5
2A9
330
1F
100
AcDbEntity
  8
通り芯
  6
Continuous
 62
     4
370
     9
100
AcDbLine
 10
-531.1521046170856
 20
56.46583557128924
 30
0.0
 11
-540.1520848218997
 21
56.46583557128924
 31
0.0
  0
LINE
  5
2AA
330
1F
100
AcDbEntity
  8
通り芯
  6
Continuous
 62
     4
370
     9
100
AcDbLine
 10
-529.1520980186903
 20
54.46584134488507
 30
0.0
 11
-529.1520980186904
 21
-7.834186038455329
 31
0.0
  0
LINE
  5
2AB
330
1F
100
AcDbEntity
  8
仕上
  6
Continuous
 62
     3
370
     9
100
AcDbLine
 10
-541.6520897706962
 20
54.26569964434666
 30
0.0
 11
-541.6520897706962
 21
-7.633821642076555
 31
0.0
  0
LINE
  5
2AC
330
1F
100
AcDbEntity
  8
仕上
  6
Continuous
 62
     3
370
     9
100
AcDbLine
 10
-539.9520792132638
 20
55.96569782978801
 30
0.0
 11
-531.328677674518
 21
55.96569782978801
 31
0.0
  0
LINE
  5
2AD
330
1F
100
AcDbEntity
  8
通り芯
  6
Continuous
 62
     4
370
     9
100
AcDbLine
 10
-562.5663964113212
 20
78.73002542031796
 30
0.0
 11
-552.5663139313803
 21
68.72999242834157
 31
0.0
  0
ARC
  5
2AE
330
1F
100
AcDbEntity
  8
通り芯
  6
Continuous
 62
     4
370
     9
100
AcDbCircle
 10
-551.1517994413042
 20
67.31567589012369
 30
0.0
 40
1.99999983246262
100
AcDbArc
 50
90.0
 51
180.0
  0
ARC
  5
2AF
330
1F
100
AcDbEntity
  8
通り芯
  6
Continuous
 62
     4
370
     9
100
AcDbCircle
 10
-520.1517466541421
 20
67.31567589012369
 30
0.0
 40
1.99999983246262
100
AcDbArc
 50
0.0
 51
90.0
  0
ARC
  5
2B0
330
1F
100
AcDbEntity
  8
通り芯
  6
Continuous
 62
     4
370
     9
100
AcDbCircle
 10
-520.1517466541422
 20
-20.68413193161405
 30
0.0
 40
1.99999983246262
100
AcDbArc
 50
270.0
 51
0.0
  0
ARC
  5
2B1
330
1F
100
AcDbEntity
  8
通り芯
  6
Continuous
 62
     4
370
     9
100
AcDbCircle
 10
-551.1517994413044
 20
-20.68413193161405
 30
0.0
 40
1.99999983246262
100
AcDbArc
 50
180.0
 51
270.0
  0
ARC
  5
2B2
330
1F
100
AcDbEntity
  8
通り芯
  6
Continuous
 62
     4
370
     9
100
AcDbCircle
 10
-561.1521293610678
 20
77.31580785802907
 30
0.0
 40
2.000000025774982
100
AcDbArc
 50
90.0
 51
180.0
  0
ARC
  5
2B3
330
1F
100
AcDbEntity
  8
通り芯
  6
Continuous
 62
     4
370
     9
100
AcDbCircle
 10
-561.152129361068
 20
-30.68420203956379
 30
0.0
 40
2.000000025774982
100
AcDbArc
 50
180.0
 51
270.0
  0
ARC
  5
2B4
330
1F
100
AcDbEntity
  8
通り芯
  6
Continuous
 62
     4
370
     9
100
AcDbCircle
 10
-510.152109565882
 20
-30.68420203956379
 30
0.0
 40
2.000000025774982
100
AcDbArc
 50
270.0
 51
0.0
  0
ARC
  5
2B5
330
1F
100
AcDbEntity
  8
通り芯
  6
Continuous
 62
     4
370
     9
100
AcDbCircle
 10
-510.152109565882
 20
77.31580785802907
 30
0.0
 40
2.000000025774982
100
AcDbArc
 50
0.0
 51
90.0
  0
ARC
  5
2B6
330
1F
100
AcDbEntity
  8
仕上
  6
Continuous
 62
     3
370
     9
100
AcDbCircle
 10
-539.9519307493701
 20
-7.633821642076555
 30
0.0
 40
1.700000891814361
100
AcDbArc
 50
180.0
 51
270.0
  0
ARC
  5
2B7
330
1F
100
AcDbEntity
  8
仕上
  6
Continuous
 62
     3
370
     9
100
AcDbCircle
 10
-531.3522586896152
 20
54.26583573624914
 30
0.0
 40
1.700000891814361
100
AcDbArc
 50
0.0
 51
89.20521545410156
  0
ARC
  5
2B8
330
1F
100
AcDbEntity
  8
仕上
  6
Continuous
 62
     3
370
     9
100
AcDbCircle
 10
-531.3520854817393
 20
-7.634180429819253
 30
0.0
 40
1.700000118564915
100
AcDbArc
 50
270.0
 51
0.0
  0
ARC
  5
2B9
330
1F
100
AcDbEntity
  8
通り芯
  6
Continuous
 62
     4
370
     9
100
AcDbCircle
 10
-535.6520947194927
 20
23.31582765321485
 30
0.0
 40
12.50000025774982
100
AcDbArc
 50
301.3322448730469
 51
58.66775512695313
  0
ARC
  5
2BA
330
1F
100
AcDbEntity
  8
通り芯
  6
Continuous
 62
     4
370
     9
100
AcDbCircle
 10
-535.6520947194927
 20
23.31582765321485
 30
0.0
 40
12.50000025774982
100
AcDbArc
 50
121.3322448730469
 51
238.6677551269532
  0
ARC
  5
2BB
330
1F
100
AcDbEntity
  8
通り芯
  6
Continuous
 62
     4
370
     9
100
AcDbCircle
 10
-540.1520848218997
 20
-7.834186038455329
 30
0.0
 40
2.000000025774982
100
AcDbArc
 50
180.0
 51
270.0
  0
ARC
  5
2BC
330
1F
100
AcDbEntity
  8
通り芯
  6
Continuous
 62
     4
370
     9
100
AcDbCircle
 10
-531.1521046170856
 20
-7.834186038455329
 30
0.0
 40
2.000000025774982
100
AcDbArc
 50
270.0
 51
0.0
  0
ARC
  5
2BD
330
1F
100
AcDbEntity
  8
通り芯
  6
Continuous
 62
     4
370
     9
100
AcDbCircle
 10
-540.1520848218997
 20
54.46584134488507
 30
0.0
 40
2.000000025774982
100
AcDbArc
 50
90.0
 51
180.0
  0
ARC
  5
2BE
330
1F
100
AcDbEntity
  8
通り芯
  6
Continuous
 62
     4
370
     9
100
AcDbCircle
 10
-531.1521046170856
 20
54.46584134488507
 30
0.0
 40
2.000000025774982
100
AcDbArc
 50
0.0
 51
90.0
  0
ARC
  5
2BF
330
1F
100
AcDbEntity
  8
仕上
  6
Continuous
 62
     3
370
     9
100
AcDbCircle
 10
-539.9520792132638
 20
54.26569964434666
 30
0.0
 40
1.700000118564915
100
AcDbArc
 50
90.0
 51
180.0
  0
LINE
  5
2C0
330
1F
100
AcDbEntity
  8
通り芯
  6
Continuous
 62
     4
370
     9
100
AcDbLine
 10
-303.152130598267
 20
-30.68415255159934
 30
0.0
 11
-303.1521305982669
 21
77.31580785802907
 31
0.0
  0
LINE
  5
2C1
330
1F
100
AcDbEntity
  8
通り芯
  6
Continuous
 62
     4
370
     9
100
AcDbLine
 10
-250.1520299727391
 20
-32.68415914999451
 30
0.0
 11
-301.1520745119072
 21
-32.68415914999451
 31
0.0
  0
LINE
  5
2C2
330
1F
100
AcDbEntity
  8
通り芯
  6
Continuous
 62
     4
370
     9
100
AcDbLine
 10
-248.1519738863793
 20
77.31580785802907
 30
0.0
 11
-248.1519738863793
 21
-30.68415255159934
 31
0.0
  0
LINE
  5
2C3
330
1F
100
AcDbEntity
  8
通り芯
  6
Continuous
 62
     4
370
     9
100
AcDbLine
 10
-250.1520299727391
 20
79.31586394438892
 30
0.0
 11
-301.1520745119071
 21
79.31586394438892
 31
0.0
  0
LINE
  5
2C4
330
1F
100
AcDbEntity
  8
通り芯
  6
Continuous
 62
     4
370
     9
100
AcDbLine
 10
-302.5663415621605
 20
-32.09777625831379
 30
0.0
 11
-292.5662590822197
 21
-22.09774326633749
 31
0.0
  0
LINE
  5
2C5
330
1F
100
AcDbEntity
  8
通り芯
  6
Continuous
 62
     4
370
     9
100
AcDbLine
 10
-248.7374659946985
 20
78.73002542031796
 30
0.0
 11
-258.7375237306571
 21
68.72999242834157
 31
0.0
  0
LINE
  5
2C6
330
1F
100
AcDbEntity
  8
通り芯
  6
Continuous
 62
     4
370
     9
100
AcDbLine
 10
-248.7374659946986
 20
-32.09777625831379
 30
0.0
 11
-258.7375237306572
 21
-22.09774326633749
 31
0.0
  0
LINE
  5
2C7
330
1F
100
AcDbEntity
  8
通り芯
  6
Continuous
 62
     4
370
     9
100
AcDbLine
 10
-260.1516918049815
 20
69.31583095241254
 30
0.0
 11
-291.1517445921436
 21
69.31583095241254
 31
0.0
  0
LINE
  5
2C8
330
1F
100
AcDbEntity
  8
通り芯
  6
Continuous
 62
     4
370
     9
100
AcDbLine
 10
-258.1517099505685
 20
-20.68413193161405
 30
0.0
 11
-258.1517099505685
 21
67.31567589012369
 31
0.0
  0
LINE
  5
2C9
330
1F
100
AcDbEntity
  8
通り芯
  6
Continuous
 62
     4
370
     9
100
AcDbLine
 10
-293.1518996544326
 20
-20.68413193161405
 30
0.0
 11
-293.1518996544326
 21
67.31567589012369
 31
0.0
  0
LINE
  5
2CA
330
1F
100
AcDbEntity
  8
通り芯
  6
Continuous
 62
     4
370
     9
100
AcDbLine
 10
-291.1517445921437
 20
-22.6842127619561
 30
0.0
 11
-260.1516918049816
 21
-22.6842127619561
 31
0.0
  0
LINE
  5
2CB
330
1F
100
AcDbEntity
  8
仕上
  6
Continuous
 62
     3
370
     9
100
AcDbLine
 10
-271.3520306325786
 20
-9.334178615260669
 30
0.0
 11
-279.9518759002095
 21
-9.334178615260669
 31
0.0
  0
LINE
  5
2CC
330
1F
100
AcDbEntity
  8
仕上
  6
Continuous
 62
     3
370
     9
100
AcDbLine
 10
-269.6520448191285
 20
-7.634180429819253
 30
0.0
 11
-269.6520448191284
 21
54.26583573624914
 31
0.0
  0
LINE
  5
2CD
330
1F
100
AcDbEntity
  8
通り芯
  6
Continuous
 62
     4
370
     9
100
AcDbLine
 10
-271.1520497679249
 20
-9.834180264859498
 30
0.0
 11
-280.1520299727391
 21
-9.834180264859498
 31
0.0
  0
LINE
  5
2CE
330
1F
100
AcDbEntity
  8
通り芯
  6
Continuous
 62
     4
370
     9
100
AcDbLine
 10
-282.1520365711343
 20
54.46584134488507
 30
0.0
 11
-282.1520365711343
 21
-7.834186038455329
 31
0.0
  0
LINE
  5
2CF
330
1F
100
AcDbEntity
  8
通り芯
  6
Continuous
 62
     4
370
     9
100
AcDbLine
 10
-271.1520497679249
 20
56.46583557128924
 30
0.0
 11
-280.1520299727391
 21
56.46583557128924
 31
0.0
  0
LINE
  5
2D0
330
1F
100
AcDbEntity
  8
通り芯
  6
Continuous
 62
     4
370
     9
100
AcDbLine
 10
-269.1520431695296
 20
54.46584134488507
 30
0.0
 11
-269.1520431695296
 21
-7.834186038455329
 31
0.0
  0
LINE
  5
2D1
330
1F
100
AcDbEntity
  8
仕上
  6
Continuous
 62
     3
370
     9
100
AcDbLine
 10
-281.6520349215355
 20
54.26569964434666
 30
0.0
 11
-281.6520349215355
 21
-7.633821642076555
 31
0.0
  0
LINE
  5
2D2
330
1F
100
AcDbEntity
  8
仕上
  6
Continuous
 62
     3
370
     9
100
AcDbLine
 10
-279.9520243641031
 20
55.96569782978801
 30
0.0
 11
-271.3286228253573
 21
55.96569782978801
 31
0.0
  0
LINE
  5
2D3
330
1F
100
AcDbEntity
  8
通り芯
  6
Continuous
 62
     4
370
     9
100
AcDbLine
 10
-302.5663415621605
 20
78.73002542031796
 30
0.0
 11
-292.5662590822196
 21
68.72999242834157
 31
0.0
  0
ARC
  5
2D4
330
1F
100
AcDbEntity
  8
通り芯
  6
Continuous
 62
     4
370
     9
100
AcDbCircle
 10
-291.1517445921436
 20
67.31567589012369
 30
0.0
 40
1.99999983246262
100
AcDbArc
 50
90.0
 51
180.0
  0
ARC
  5
2D5
330
1F
100
AcDbEntity
  8
通り芯
  6
Continuous
 62
     4
370
     9
100
AcDbCircle
 10
-260.1516918049815
 20
67.31567589012369
 30
0.0
 40
1.99999983246262
100
AcDbArc
 50
0.0
 51
90.0
  0
ARC
  5
2D6
330
1F
100
AcDbEntity
  8
通り芯
  6
Continuous
 62
     4
370
     9
100
AcDbCircle
 10
-260.1516918049816
 20
-20.68413193161405
 30
0.0
 40
1.99999983246262
100
AcDbArc
 50
270.0
 51
0.0
  0
ARC
  5
2D7
330
1F
100
AcDbEntity
  8
通り芯
  6
Continuous
 62
     4
370
     9
100
AcDbCircle
 10
-291.1517445921437
 20
-20.68413193161405
 30
0.0
 40
1.99999983246262
100
AcDbArc
 50
180.0
 51
270.0
  0
ARC
  5
2D8
330
1F
100
AcDbEntity
  8
通り芯
  6
Continuous
 62
     4
370
     9
100
AcDbCircle
 10
-301.1520745119071
 20
77.31580785802907
 30
0.0
 40
2.000000025774982
100
AcDbArc
 50
90.0
 51
180.0
  0
ARC
  5
2D9
330
1F
100
AcDbEntity
  8
通り芯
  6
Continuous
 62
     4
370
     9
100
AcDbCircle
 10
-301.1520745119072
 20
-30.68420203956379
 30
0.0
 40
2.000000025774982
100
AcDbArc
 50
180.0
 51
270.0
  0
ARC
  5
2DA
330
1F
100
AcDbEntity
  8
通り芯
  6
Continuous
 62
     4
370
     9
100
AcDbCircle
 10
-250.1520547167214
 20
-30.68420203956379
 30
0.0
 40
2.000000025774982
100
AcDbArc
 50
270.0
 51
0.0
  0
ARC
  5
2DB
330
1F
100
AcDbEntity
  8
通り芯
  6
Continuous
 62
     4
370
     9
100
AcDbCircle
 10
-250.1520547167213
 20
77.31580785802907
 30
0.0
 40
2.000000025774982
100
AcDbArc
 50
0.0
 51
90.0
  0
ARC
  5
2DC
330
1F
100
AcDbEntity
  8
仕上
  6
Continuous
 62
     3
370
     9
100
AcDbCircle
 10
-279.9518759002095
 20
-7.633821642076555
 30
0.0
 40
1.700000891814361
100
AcDbArc
 50
180.0
 51
270.0
  0
ARC
  5
2DD
330
1F
100
AcDbEntity
  8
仕上
  6
Continuous
 62
     3
370
     9
100
AcDbCircle
 10
-271.3522038404545
 20
54.26583573624914
 30
0.0
 40
1.700000891814361
100
AcDbArc
 50
0.0
 51
89.20521545410156
  0
ARC
  5
2DE
330
1F
100
AcDbEntity
  8
仕上
  6
Continuous
 62
     3
370
     9
100
AcDbCircle
 10
-271.3520306325786
 20
-7.634180429819253
 30
0.0
 40
1.700000118564915
100
AcDbArc
 50
270.0
 51
0.0
  0
ARC
  5
2DF
330
1F
100
AcDbEntity
  8
通り芯
  6
Continuous
 62
     4
370
     9
100
AcDbCircle
 10
-275.652039870332
 20
23.31582765321485
 30
0.0
 40
12.50000025774982
100
AcDbArc
 50
301.3322448730469
 51
58.66775512695313
  0
ARC
  5
2E0
330
1F
100
AcDbEntity
  8
通り芯
  6
Continuous
 62
     4
370
     9
100
AcDbCircle
 10
-275.652039870332
 20
23.31582765321485
 30
0.0
 40
12.50000025774982
100
AcDbArc
 50
121.3322448730469
 51
238.6677551269532
  0
ARC
  5
2E1
330
1F
100
AcDbEntity
  8
通り芯
  6
Continuous
 62
     4
370
     9
100
AcDbCircle
 10
-280.1520299727391
 20
-7.834186038455329
 30
0.0
 40
2.000000025774982
100
AcDbArc
 50
180.0
 51
270.0
  0
ARC
  5
2E2
330
1F
100
AcDbEntity
  8
通り芯
  6
Continuous
 62
     4
370
     9
100
AcDbCircle
 10
-271.1520497679249
 20
-7.834186038455329
 30
0.0
 40
2.000000025774982
100
AcDbArc
 50
270.0
 51
0.0
  0
ARC
  5
2E3
330
1F
100
AcDbEntity
  8
通り芯
  6
Continuous
 62
     4
370
     9
100
AcDbCircle
 10
-280.1520299727391
 20
54.46584134488507
 30
0.0
 40
2.000000025774982
100
AcDbArc
 50
90.0
 51
180.0
  0
ARC
  5
2E4
330
1F
100
AcDbEntity
  8
通り芯
  6
Continuous
 62
     4
370
     9
100
AcDbCircle
 10
-271.1520497679249
 20
54.46584134488507
 30
0.0
 40
2.000000025774982
100
AcDbArc
 50
0.0
 51
90.0
  0
ARC
  5
2E5
330
1F
100
AcDbEntity
  8
仕上
  6
Continuous
 62
     3
370
     9
100
AcDbCircle
 10
-279.9520243641031
 20
54.26569964434666
 30
0.0
 40
1.700000118564915
100
AcDbArc
 50
90.0
 51
180.0
  0
LINE
  5
2E6
330
1F
100
AcDbEntity
  8
1-0ﾚｲﾔ
  6
Continuous
 62
     4
370
     9
100
AcDbLine
 10
281.6304297874239
 20
-350.6023821106076
 30
0.0
 11
304.5011998036558
 21
-347.1718764095941
 31
0.0
  0
LINE
  5
2E7
330
1F
100
AcDbEntity
  8
1-0ﾚｲﾔ
  6
Continuous
 62
     4
370
     9
100
AcDbLine
 10
279.5013338335598
 20
-353.0747389584222
 30
0.0
 11
279.5013338335598
 21
-353.4217733096679
 31
0.0
  0
LINE
  5
2E8
330
1F
100
AcDbEntity
  8
1-2ﾚｲﾔ
  6
Continuous
 62
     3
370
     9
100
AcDbLine
 10
339.5010369057725
 20
-447.1717733096679
 30
0.0
 11
499.5010698977488
 21
-447.1717733096679
 31
0.0
  0
LINE
  5
2E9
330
1F
100
AcDbEntity
  8
1-2ﾚｲﾔ
  6
Continuous
 62
     3
370
     9
100
AcDbLine
 10
339.5010369057725
 20
-453.4218557896089
 30
0.0
 11
499.5010698977488
 21
-453.4218557896089
 31
0.0
  0
LINE
  5
2EA
330
1F
100
AcDbEntity
  8
1-2ﾚｲﾔ
  6
Continuous
 62
     3
370
     9
100
AcDbLine
 10
382.0013008415832
 20
-443.671737018494
 30
0.0
 11
389.5012018656543
 21
-446.4217832072609
 31
0.0
  0
LINE
  5
2EB
330
1F
100
AcDbEntity
  8
1-2ﾚｲﾔ
  6
Continuous
 62
     3
370
     9
100
AcDbLine
 10
457.0013008415834
 20
-443.671737018494
 30
0.0
 11
449.5013998175124
 21
-446.4217832072609
 31
0.0
  0
LINE
  5
2EC
330
1F
100
AcDbEntity
  8
1-2ﾚｲﾔ
  6
Continuous
 62
     3
370
     9
100
AcDbLine
 10
389.5012018656543
 20
-446.4217832072609
 30
0.0
 11
389.5012018656543
 21
-447.1717733096679
 31
0.0
  0
LINE
  5
2ED
330
1F
100
AcDbEntity
  8
1-2ﾚｲﾔ
  6
Continuous
 62
     3
370
     9
100
AcDbLine
 10
449.5013998175124
 20
-446.4217832072609
 30
0.0
 11
449.5013998175124
 21
-447.1717733096679
 31
0.0
  0
LINE
  5
2EE
330
1F
100
AcDbEntity
  8
1-2ﾚｲﾔ
  6
Continuous
 62
     3
370
     9
100
AcDbLine
 10
379.5011379437001
 20
-470.9217898056561
 30
0.0
 11
379.5011379437001
 21
-453.4218557896089
 31
0.0
  0
LINE
  5
2EF
330
1F
100
AcDbEntity
  8
1-2ﾚｲﾔ
  6
Continuous
 62
     3
370
     9
100
AcDbLine
 10
457.0013008415834
 20
-473.4216743337389
 30
0.0
 11
382.0013008415832
 21
-473.4216743337389
 31
0.0
  0
LINE
  5
2F0
330
1F
100
AcDbEntity
  8
1-2ﾚｲﾔ
  6
Continuous
 62
     3
370
     9
100
AcDbLine
 10
459.5011853696662
 20
-470.9217898056561
 30
0.0
 11
459.5011853696662
 21
-453.4218557896089
 31
0.0
  0
LINE
  5
2F1
330
1F
100
AcDbEntity
  8
1-2ﾚｲﾔ
  6
Continuous
 62
     3
370
     9
100
AcDbLine
 10
339.5010369057725
 20
-447.1717733096679
 30
0.0
 11
339.5010369057725
 21
-458.4218722855969
 31
0.0
  0
LINE
  5
2F2
330
1F
100
AcDbEntity
  8
1-2ﾚｲﾔ
  6
Continuous
 62
     3
370
     9
100
AcDbLine
 10
499.5010698977488
 20
-447.1717733096679
 30
0.0
 11
499.5010698977488
 21
-458.4218722855969
 31
0.0
  0
LINE
  5
2F3
330
1F
100
AcDbEntity
  8
1-2ﾚｲﾔ
  6
Continuous
 62
     3
370
     9
100
AcDbLine
 10
339.5010369057725
 20
-458.4218722855969
 30
0.0
 11
378.8761358817014
 21
-458.4218722855969
 31
0.0
  0
LINE
  5
2F4
330
1F
100
AcDbEntity
  8
1-2ﾚｲﾔ
  6
Continuous
 62
     3
370
     9
100
AcDbLine
 10
460.1262183616426
 20
-458.4218722855969
 30
0.0
 11
499.5010698977488
 21
-458.4218722855969
 31
0.0
  0
LINE
  5
2F5
330
1F
100
AcDbEntity
  8
1-2ﾚｲﾔ
  6
Continuous
 62
     3
370
     9
100
AcDbLine
 10
460.1262183616426
 20
-453.4218557896089
 30
0.0
 11
460.1262183616426
 21
-458.4218722855969
 31
0.0
  0
LINE
  5
2F6
330
1F
100
AcDbEntity
  8
1-2ﾚｲﾔ
  6
Continuous
 62
     3
370
     9
100
AcDbLine
 10
378.8761358817014
 20
-453.4218557896089
 30
0.0
 11
378.8761358817014
 21
-458.4218722855969
 31
0.0
  0
LINE
  5
2F7
330
1F
100
AcDbEntity
  8
1-2ﾚｲﾔ
  6
Continuous
 62
     3
370
     9
100
AcDbLine
 10
382.0013008415832
 20
-410.6716776329365
 30
0.0
 11
382.0013008415832
 21
-443.671737018494
 31
0.0
  0
LINE
  5
2F8
330
1F
100
AcDbEntity
  8
1-2ﾚｲﾔ
  6
Continuous
 62
     3
370
     9
100
AcDbLine
 10
457.0013008415834
 20
-410.7122577638488
 30
0.0
 11
457.0013008415834
 21
-443.671737018494
 31
0.0
  0
LINE
  5
2F9
330
1F
100
AcDbEntity
  8
1-0ﾚｲﾔ
  6
Continuous
 62
     4
370
     9
100
AcDbLine
 10
557.3721718957431
 20
-350.6023821106076
 30
0.0
 11
534.501432809489
 21
-347.1718764095941
 31
0.0
  0
LINE
  5
2FA
330
1F
100
AcDbEntity
  8
1-0ﾚｲﾔ
  6
Continuous
 62
     4
370
     9
100
AcDbLine
 10
559.5012678496072
 20
-353.0747389584222
 30
0.0
 11
559.5012678496072
 21
-353.4217733096679
 31
0.0
  0
LINE
  5
2FB
330
1F
100
AcDbEntity
  8
1-2ﾚｲﾔ
  6
Continuous
 62
     3
370
     9
100
AcDbLine
 10
394.5009709218199
 20
-374.6716578377508
 30
0.0
 11
394.5009709218199
 21
-392.243906141963
 31
0.0
  0
LINE
  5
2FC
330
1F
100
AcDbEntity
  8
1-2ﾚｲﾔ
  6
Continuous
 62
     3
370
     9
100
AcDbLine
 10
444.501135881702
 20
-374.6716578377508
 30
0.0
 11
444.501135881702
 21
-392.1717774336651
 31
0.0
  0
LINE
  5
2FD
330
1F
100
AcDbEntity
  8
1-0ﾚｲﾔ
  6
Continuous
 62
     4
370
     9
100
AcDbLine
 10
529.6526639050866
 20
-373.4217155737094
 30
0.0
 11
514.3493769144824
 21
-373.4217155737094
 31
0.0
  0
LINE
  5
2FE
330
1F
100
AcDbEntity
  8
1-A
  6
Continuous
 62
     2
370
     9
100
AcDbLine
 10
306.8979637856553
 20
-379.6716743337389
 30
0.0
 11
306.8979637856553
 21
-373.4217155737094
 31
0.0
  0
LINE
  5
2FF
330
1F
100
AcDbEntity
  8
1-A
  6
Continuous
 62
     2
370
     9
100
AcDbLine
 10
327.1051987611092
 20
-379.6716743337389
 30
0.0
 11
327.1051987611092
 21
-373.4217155737094
 31
0.0
  0
LINE
  5
300
330
1F
100
AcDbEntity
  8
1-A
  6
Continuous
 62
     2
370
     9
100
AcDbLine
 10
322.0534054822348
 20
-379.6716743337389
 30
0.0
 11
322.0534054822348
 21
-373.4217155737094
 31
0.0
  0
LINE
  5
301
330
1F
100
AcDbEntity
  8
1-A
  6
Continuous
 62
     2
370
     9
100
AcDbLine
 10
311.9497570645301
 20
-379.6716743337389
 30
0.0
 11
311.9497570645301
 21
-373.4217155737094
 31
0.0
  0
LINE
  5
302
330
1F
100
AcDbEntity
  8
1-A
  6
Continuous
 62
     2
370
     9
100
AcDbLine
 10
309.4238604250928
 20
-380.9216784577358
 30
0.0
 11
324.5793021216723
 21
-380.9216784577358
 31
0.0
  0
LINE
  5
303
330
1F
100
AcDbEntity
  8
1-A
  6
Continuous
 62
     2
370
     9
100
AcDbLine
 10
327.1051987611092
 20
-373.4217155737094
 30
0.0
 11
324.5018225272092
 21
-373.4217155737094
 31
0.0
  0
LINE
  5
304
330
1F
100
AcDbEntity
  8
1-A
  6
Continuous
 62
     2
370
     9
100
AcDbLine
 10
309.5013090895775
 20
-373.4217155737094
 30
0.0
 11
306.8979637856553
 21
-373.4217155737094
 31
0.0
  0
LINE
  5
305
330
1F
100
AcDbEntity
  8
1-0ﾚｲﾔ
  6
Continuous
 62
     4
370
     9
100
AcDbLine
 10
324.6532247686843
 20
-373.4217155737094
 30
0.0
 11
309.3499377780803
 21
-373.4217155737094
 31
0.0
  0
LINE
  5
306
330
1F
100
AcDbEntity
  8
1-0ﾚｲﾔ
  6
Continuous
 62
     4
370
     9
100
AcDbLine
 10
305.8977810925863
 20
-355.7658326094463
 30
0.0
 11
306.8548164665832
 21
-371.0775944139754
 31
0.0
  0
LINE
  5
307
330
1F
100
AcDbEntity
  8
1-0ﾚｲﾔ
  6
Continuous
 62
     4
370
     9
100
AcDbLine
 10
533.1048205905806
 20
-355.7658326094463
 30
0.0
 11
532.1477852165834
 21
-371.0775944139754
 31
0.0
  0
LINE
  5
308
330
1F
100
AcDbEntity
  8
1-A
  6
Continuous
 62
     2
370
     9
100
AcDbLine
 10
532.1046069675338
 20
-379.6716743337389
 30
0.0
 11
532.1046069675338
 21
-373.4217155737094
 31
0.0
  0
LINE
  5
309
330
1F
100
AcDbEntity
  8
1-A
  6
Continuous
 62
     2
370
     9
100
AcDbLine
 10
511.8974338520353
 20
-379.6716743337389
 30
0.0
 11
511.8974338520353
 21
-373.4217155737094
 31
0.0
  0
LINE
  5
30A
330
1F
100
AcDbEntity
  8
1-A
  6
Continuous
 62
     2
370
     9
100
AcDbLine
 10
516.9491652709543
 20
-379.6716743337389
 30
0.0
 11
516.9491652709543
 21
-373.4217155737094
 31
0.0
  0
LINE
  5
30B
330
1F
100
AcDbEntity
  8
1-A
  6
Continuous
 62
     2
370
     9
100
AcDbLine
 10
527.0528755486147
 20
-379.6716743337389
 30
0.0
 11
527.0528755486147
 21
-373.4217155737094
 31
0.0
  0
LINE
  5
30C
330
1F
100
AcDbEntity
  8
1-A
  6
Continuous
 62
     2
370
     9
100
AcDbLine
 10
529.578741258074
 20
-380.9216784577358
 30
0.0
 11
514.4232995614947
 21
-380.9216784577358
 31
0.0
  0
LINE
  5
30D
330
1F
100
AcDbEntity
  8
1-A
  6
Continuous
 62
     2
370
     9
100
AcDbLine
 10
511.8974338520353
 20
-373.4217155737094
 30
0.0
 11
514.5007482259796
 21
-373.4217155737094
 31
0.0
  0
LINE
  5
30E
330
1F
100
AcDbEntity
  8
1-A
  6
Continuous
 62
     2
370
     9
100
AcDbLine
 10
529.5012925935895
 20
-373.4217155737094
 30
0.0
 11
532.1046069675338
 21
-373.4217155737094
 31
0.0
  0
LINE
  5
30F
330
1F
100
AcDbEntity
  8
1-5ﾚｲﾔ
  6
JWW_PHANTOM2
 62
     7
370
     9
100
AcDbLine
 10
498.6263082647782
 20
-274.6715753578097
 30
0.0
 11
340.3762624884108
 21
-274.6715753578097
 31
0.0
  0
LINE
  5
310
330
1F
100
AcDbEntity
  8
1-5ﾚｲﾔ
  6
JWW_PHANTOM2
 62
     7
370
     9
100
AcDbLine
 10
394.5009709218199
 20
-300.9216001017921
 30
0.0
 11
394.5009709218199
 21
-318.4938484060045
 31
0.0
  0
LINE
  5
311
330
1F
100
AcDbEntity
  8
1-5ﾚｲﾔ
  6
JWW_PHANTOM2
 62
     7
370
     9
100
AcDbLine
 10
444.501135881702
 20
-300.9216001017921
 30
0.0
 11
444.501135881702
 21
-318.4217196977063
 31
0.0
  0
LINE
  5
312
330
1F
100
AcDbEntity
  8
1-5ﾚｲﾔ
  6
JWW_PHANTOM2
 62
     7
370
     9
100
AcDbLine
 10
337.8762851703947
 20
-285.9216124737833
 30
0.0
 11
337.8762851703947
 21
-277.1716454657596
 31
0.0
  0
LINE
  5
313
330
1F
100
AcDbEntity
  8
1-5ﾚｲﾔ
  6
JWW_PHANTOM2
 62
     7
370
     9
100
AcDbLine
 10
387.0009461778376
 20
-293.4215753578098
 30
0.0
 11
342.6262946555879
 21
-293.4215753578098
 31
0.0
  0
LINE
  5
314
330
1F
100
AcDbEntity
  8
1-5ﾚｲﾔ
  6
JWW_PHANTOM2
 62
     7
370
     9
100
AcDbLine
 10
342.6262946555879
 20
-288.4216207217773
 30
0.0
 11
342.6262946555879
 21
-293.4215753578098
 31
0.0
  0
LINE
  5
315
330
1F
100
AcDbEntity
  8
1-5ﾚｲﾔ
  6
JWW_PHANTOM2
 62
     7
370
     9
100
AcDbLine
 10
501.1263165127723
 20
-285.9216124737833
 30
0.0
 11
501.1263165127723
 21
-277.1716454657596
 31
0.0
  0
LINE
  5
316
330
1F
100
AcDbEntity
  8
1-5ﾚｲﾔ
  6
JWW_PHANTOM2
 62
     7
370
     9
100
AcDbLine
 10
452.0011296957061
 20
-293.4215753578098
 30
0.0
 11
496.3763070275791
 21
-293.4215753578098
 31
0.0
  0
LINE
  5
317
330
1F
100
AcDbEntity
  8
1-5ﾚｲﾔ
  6
JWW_PHANTOM2
 62
     7
370
     9
100
AcDbLine
 10
496.3763070275791
 20
-288.4216207217773
 30
0.0
 11
496.3763070275791
 21
-293.4215753578098
 31
0.0
  0
LINE
  5
318
330
1F
100
AcDbEntity
  8
1-5ﾚｲﾔ
  6
JWW_PHANTOM2
 62
     7
370
     9
100
AcDbLine
 10
498.6263082647782
 20
-288.4216207217773
 30
0.0
 11
340.3762624884108
 21
-288.4216207217773
 31
0.0
  0
LINE
  5
319
330
1F
100
AcDbEntity
  8
1-0ﾚｲﾔ
  6
Continuous
 62
     4
370
     9
100
AcDbLine
 10
336.4152148776897
 20
-373.4217155737094
 30
0.0
 11
502.5873868054772
 21
-373.4217155737094
 31
0.0
  0
LINE
  5
31A
330
1F
100
AcDbEntity
  8
1-0ﾚｲﾔ
  6
Continuous
 62
     4
370
     9
100
AcDbLine
 10
559.5012678496072
 20
-353.4217733096679
 30
0.0
 11
279.5013338335598
 21
-353.4217733096679
 31
0.0
  0
LINE
  5
31B
330
1F
100
AcDbEntity
  8
1-0ﾚｲﾔ
  6
Continuous
 62
     4
370
     9
100
AcDbLine
 10
304.5011998036558
 20
-347.1718764095941
 30
0.0
 11
534.5013090895775
 21
-347.1718764095941
 31
0.0
  0
LINE
  5
31C
330
1F
100
AcDbEntity
  8
1-5ﾚｲﾔ
  6
JWW_PHANTOM2
 62
     7
370
     9
100
AcDbLine
 10
382.0013008415832
 20
-345.4701708893764
 30
0.0
 11
382.0013008415832
 21
-336.9622000278901
 31
0.0
  0
LINE
  5
31D
330
1F
100
AcDbEntity
  8
1-5ﾚｲﾔ
  6
JWW_PHANTOM2
 62
     7
370
     9
100
AcDbLine
 10
457.0013008415834
 20
-345.4701708893764
 30
0.0
 11
457.0013008415834
 21
-336.9622000278901
 31
0.0
  0
LINE
  5
31E
330
1F
100
AcDbEntity
  8
1-0ﾚｲﾔ
  6
Continuous
 62
     4
370
     9
100
AcDbLine
 10
327.3435761002405
 20
-367.9539140930294
 30
0.0
 11
327.1483460801813
 21
-371.0775944139754
 31
0.0
  0
LINE
  5
31F
330
1F
100
AcDbEntity
  8
1-0ﾚｲﾔ
  6
Continuous
 62
     4
370
     9
100
AcDbLine
 10
504.1735997884796
 20
-360.9217671236723
 30
0.0
 11
334.8289709647092
 21
-360.9217671236723
 31
0.0
  0
LINE
  5
320
330
1F
100
AcDbEntity
  8
1-0ﾚｲﾔ
  6
Continuous
 62
     4
370
     9
100
AcDbLine
 10
511.6590255829265
 20
-367.9539140930294
 30
0.0
 11
511.8542556029855
 21
-371.0775944139754
 31
0.0
  0
LINE
  5
321
330
1F
100
AcDbEntity
  8
1-0ﾚｲﾔ
  6
Continuous
 62
     4
370
     9
100
AcDbLine
 10
508.4007379984668
 20
-362.2264554484718
 30
0.0
 11
507.5488026891343
 21
-369.0418451332005
 31
0.0
  0
LINE
  5
322
330
1F
100
AcDbEntity
  8
1-0ﾚｲﾔ
  6
Continuous
 62
     4
370
     9
100
AcDbLine
 10
330.6018946146777
 20
-362.2264554484718
 30
0.0
 11
331.4538299240103
 21
-369.0418451332005
 31
0.0
  0
ARC
  5
323
330
1F
100
AcDbEntity
  8
1-0ﾚｲﾔ
  6
Continuous
 62
     4
370
     9
100
AcDbCircle
 10
282.0012183616426
 20
-353.0747389584222
 30
0.0
 40
2.500000032218727
100
AcDbArc
 50
98.53070068359375
 51
180.0
  0
ARC
  5
324
330
1F
100
AcDbEntity
  8
1-2ﾚｲﾔ
  6
Continuous
 62
     3
370
     9
100
AcDbCircle
 10
382.0013008415832
 20
-470.9217898056561
 30
0.0
 40
2.500000032218727
100
AcDbArc
 50
180.0
 51
270.0
  0
ARC
  5
325
330
1F
100
AcDbEntity
  8
1-2ﾚｲﾔ
  6
Continuous
 62
     3
370
     9
100
AcDbCircle
 10
457.0013008415834
 20
-470.9217898056561
 30
0.0
 40
2.500000032218727
100
AcDbArc
 50
270.0
 51
0.0
  0
ARC
  5
326
330
1F
100
AcDbEntity
  8
1-2ﾚｲﾔ
  6
Continuous
 62
     3
370
     9
100
AcDbCircle
 10
444.501135881702
 20
-410.7122577638488
 30
0.0
 40
12.50000064437454
100
AcDbArc
 50
0.0
 51
67.9756622314453
  0
ARC
  5
327
330
1F
100
AcDbEntity
  8
1-2ﾚｲﾔ
  6
Continuous
 62
     3
370
     9
100
AcDbCircle
 10
387.0012864075936
 20
-392.1717774336651
 30
0.0
 40
7.500000096656181
100
AcDbArc
 50
292.0240478515625
 51
359.4492034912109
  0
ARC
  5
328
330
1F
100
AcDbEntity
  8
1-2ﾚｲﾔ
  6
Continuous
 62
     3
370
     9
100
AcDbCircle
 10
452.0010369057728
 20
-392.1717774336651
 30
0.0
 40
7.500000096656181
100
AcDbArc
 50
180.0
 51
247.9759521484375
  0
ARC
  5
329
330
1F
100
AcDbEntity
  8
1-0ﾚｲﾔ
  6
Continuous
 62
     4
370
     9
100
AcDbCircle
 10
557.0013833215244
 20
-353.0747389584222
 30
0.0
 40
2.500000032218727
100
AcDbArc
 50
0.0
 51
81.46929931640625
  0
ARC
  5
32A
330
1F
100
AcDbEntity
  8
1-A
  6
Continuous
 62
     2
370
     9
100
AcDbCircle
 10
317.0015812733824
 20
-370.0883300030802
 30
0.0
 40
10.83333975559956
100
AcDbArc
 50
242.2042083740235
 51
297.7957916259766
  0
ARC
  5
32B
330
1F
100
AcDbEntity
  8
1-A
  6
Continuous
 62
     2
370
     9
100
AcDbCircle
 10
324.5793021216723
 20
-377.7446129950565
 30
0.0
 40
3.17705507214005
100
AcDbArc
 50
217.3407897949219
 51
322.6592102050781
  0
ARC
  5
32C
330
1F
100
AcDbEntity
  8
1-A
  6
Continuous
 62
     2
370
     9
100
AcDbCircle
 10
309.4238604250928
 20
-377.7446129950565
 30
0.0
 40
3.17705507214005
100
AcDbArc
 50
217.3407897949219
 51
322.6592102050781
  0
ARC
  5
32D
330
1F
100
AcDbEntity
  8
1-0ﾚｲﾔ
  6
Continuous
 62
     4
370
     9
100
AcDbCircle
 10
309.3499377780803
 20
-370.9217073257153
 30
0.0
 40
2.500000032218727
100
AcDbArc
 50
183.576416015625
 51
270.0
  0
ARC
  5
32E
330
1F
100
AcDbEntity
  8
1-0ﾚｲﾔ
  6
Continuous
 62
     4
370
     9
100
AcDbCircle
 10
324.6532247686843
 20
-370.9217073257153
 30
0.0
 40
2.500000032218727
100
AcDbArc
 50
270.0
 51
356.423583984375
  0
ARC
  5
32F
330
1F
100
AcDbEntity
  8
1-0ﾚｲﾔ
  6
Continuous
 62
     4
370
     9
100
AcDbCircle
 10
303.4026597810891
 20
-355.9217815576619
 30
0.0
 40
2.500000032218727
100
AcDbArc
 50
3.576416015625
 51
90.00000000000001
  0
ARC
  5
330
330
1F
100
AcDbEntity
  8
1-0ﾚｲﾔ
  6
Continuous
 62
     4
370
     9
100
AcDbCircle
 10
529.6526639050866
 20
-370.9217073257153
 30
0.0
 40
2.500000032218727
100
AcDbArc
 50
270.0
 51
356.423583984375
  0
ARC
  5
331
330
1F
100
AcDbEntity
  8
1-0ﾚｲﾔ
  6
Continuous
 62
     4
370
     9
100
AcDbCircle
 10
514.3493769144824
 20
-370.9217073257153
 30
0.0
 40
2.500000032218727
100
AcDbArc
 50
183.576416015625
 51
270.0
  0
ARC
  5
332
330
1F
100
AcDbEntity
  8
1-0ﾚｲﾔ
  6
Continuous
 62
     4
370
     9
100
AcDbCircle
 10
535.5999419020775
 20
-355.9217815576619
 30
0.0
 40
2.500000032218727
100
AcDbArc
 50
90.0
 51
176.423583984375
  0
ARC
  5
333
330
1F
100
AcDbEntity
  8
1-0ﾚｲﾔ
  6
Continuous
 62
     4
370
     9
100
AcDbCircle
 10
502.5873868054772
 20
-368.4216990777212
 30
0.0
 40
5.000000064437454
100
AcDbArc
 50
270.0
 51
352.8752899169922
  0
ARC
  5
334
330
1F
100
AcDbEntity
  8
1-0ﾚｲﾔ
  6
Continuous
 62
     4
370
     9
100
AcDbCircle
 10
336.4152148776897
 20
-368.4216990777212
 30
0.0
 40
5.000000064437454
100
AcDbArc
 50
187.1247100830078
 51
270.0
  0
ARC
  5
335
330
1F
100
AcDbEntity
  8
1-A
  6
Continuous
 62
     2
370
     9
100
AcDbCircle
 10
522.0010204097845
 20
-370.0883300030802
 30
0.0
 40
10.83333975559956
100
AcDbArc
 50
242.2042083740235
 51
297.7957916259766
  0
ARC
  5
336
330
1F
100
AcDbEntity
  8
1-A
  6
Continuous
 62
     2
370
     9
100
AcDbCircle
 10
514.4232995614947
 20
-377.7446129950565
 30
0.0
 40
3.17705507214005
100
AcDbArc
 50
217.3407897949219
 51
322.6592102050781
  0
ARC
  5
337
330
1F
100
AcDbEntity
  8
1-A
  6
Continuous
 62
     2
370
     9
100
AcDbCircle
 10
529.578741258074
 20
-377.7446129950565
 30
0.0
 40
3.17705507214005
100
AcDbArc
 50
217.3407897949219
 51
322.6592102050781
  0
ARC
  5
338
330
1F
100
AcDbEntity
  8
1-5ﾚｲﾔ
  6
JWW_PHANTOM2
 62
     7
370
     9
100
AcDbCircle
 10
340.3762624884108
 20
-277.1716454657596
 30
0.0
 40
2.500000032218727
100
AcDbArc
 50
90.0
 51
180.0
  0
ARC
  5
339
330
1F
100
AcDbEntity
  8
1-5ﾚｲﾔ
  6
JWW_PHANTOM2
 62
     7
370
     9
100
AcDbCircle
 10
498.6263082647782
 20
-277.1716454657596
 30
0.0
 40
2.500000032218727
100
AcDbArc
 50
0.0
 51
90.0
  0
ARC
  5
33A
330
1F
100
AcDbEntity
  8
1-5ﾚｲﾔ
  6
JWW_PHANTOM2
 62
     7
370
     9
100
AcDbCircle
 10
387.0009461778376
 20
-300.9216001017921
 30
0.0
 40
7.500000096656181
100
AcDbArc
 50
0.0
 51
90.0
  0
ARC
  5
33B
330
1F
100
AcDbEntity
  8
1-5ﾚｲﾔ
  6
JWW_PHANTOM2
 62
     7
370
     9
100
AcDbCircle
 10
452.0011296957061
 20
-300.9216001017921
 30
0.0
 40
7.500000096656181
100
AcDbArc
 50
90.0
 51
180.0
  0
ARC
  5
33C
330
1F
100
AcDbEntity
  8
1-5ﾚｲﾔ
  6
JWW_PHANTOM2
 62
     7
370
     9
100
AcDbCircle
 10
340.3762624884108
 20
-285.9216124737833
 30
0.0
 40
2.500000032218727
100
AcDbArc
 50
180.0
 51
270.0
  0
ARC
  5
33D
330
1F
100
AcDbEntity
  8
1-5ﾚｲﾔ
  6
JWW_PHANTOM2
 62
     7
370
     9
100
AcDbCircle
 10
498.6263082647782
 20
-285.9216124737833
 30
0.0
 40
2.500000032218727
100
AcDbArc
 50
270.0
 51
0.0
  0
ARC
  5
33E
330
1F
100
AcDbEntity
  8
1-5ﾚｲﾔ
  6
JWW_PHANTOM2
 62
     7
370
     9
100
AcDbCircle
 10
394.5012183616426
 20
-336.9622000278901
 30
0.0
 40
12.50000064437454
100
AcDbArc
 50
112.0243377685547
 51
180.0
  0
ARC
  5
33F
330
1F
100
AcDbEntity
  8
1-5ﾚｲﾔ
  6
JWW_PHANTOM2
 62
     7
370
     9
100
AcDbCircle
 10
387.0012864075936
 20
-318.4217196977063
 30
0.0
 40
7.500000096656181
100
AcDbArc
 50
292.0240478515625
 51
359.4492034912109
  0
ARC
  5
340
330
1F
100
AcDbEntity
  8
1-5ﾚｲﾔ
  6
JWW_PHANTOM2
 62
     7
370
     9
100
AcDbCircle
 10
444.5013833215244
 20
-336.9622000278901
 30
0.0
 40
12.50000064437454
100
AcDbArc
 50
0.0
 51
67.9756622314453
  0
ARC
  5
341
330
1F
100
AcDbEntity
  8
1-5ﾚｲﾔ
  6
JWW_PHANTOM2
 62
     7
370
     9
100
AcDbCircle
 10
452.001315275573
 20
-318.4217196977063
 30
0.0
 40
7.500000096656181
100
AcDbArc
 50
180.5507965087891
 51
247.9759521484375
  0
ARC
  5
342
330
1F
100
AcDbEntity
  8
1-2ﾚｲﾔ
  6
Continuous
 62
     3
370
     9
100
AcDbCircle
 10
387.0009461778376
 20
-374.6716578377508
 30
0.0
 40
7.500000096656181
100
AcDbArc
 50
0.0
 51
9.593612670898438
  0
ARC
  5
343
330
1F
100
AcDbEntity
  8
1-2ﾚｲﾔ
  6
Continuous
 62
     3
370
     9
100
AcDbCircle
 10
452.0011296957061
 20
-374.6716578377508
 30
0.0
 40
7.500000096656181
100
AcDbArc
 50
170.4063873291016
 51
180.0
  0
ARC
  5
344
330
1F
100
AcDbEntity
  8
1-0ﾚｲﾔ
  6
Continuous
 62
     4
370
     9
100
AcDbCircle
 10
334.8289709647092
 20
-368.4217609376769
 30
0.0
 40
7.500000096656181
100
AcDbArc
 50
90.0
 51
176.423583984375
  0
ARC
  5
345
330
1F
100
AcDbEntity
  8
1-0ﾚｲﾔ
  6
Continuous
 62
     4
370
     9
100
AcDbCircle
 10
504.1735997884796
 20
-368.4217609376769
 30
0.0
 40
7.500000096656181
100
AcDbArc
 50
3.576400756835938
 51
89.99999999999999
  0
LINE
  5
346
330
1F
100
AcDbEntity
  8
1-2ﾚｲﾔ
  6
JWW_CENTER1
 62
     3
370
     9
100
AcDbLine
 10
419.5013008415832
 20
-342.3338092775207
 30
0.0
 11
419.5013008415832
 21
-476.7467088103541
 31
0.0
  0
LINE
  5
347
330
1F
100
AcDbEntity
  8
1-3ﾚｲﾔ
  6
Continuous
 62
     3
370
     9
100
AcDbLine
 10
324.5014822974535
 20
-397.6717460912874
 30
0.0
 11
324.5014822974535
 21
-389.6717691856709
 31
0.0
  0
LINE
  5
348
330
1F
100
AcDbEntity
  8
1-A
  6
Continuous
 62
     2
370
     9
100
AcDbLine
 10
532.1043595277108
 20
-406.4217130993111
 30
0.0
 11
532.1043595277108
 21
-400.1717543392816
 31
0.0
  0
LINE
  5
349
330
1F
100
AcDbEntity
  8
1-A
  6
Continuous
 62
     2
370
     9
100
AcDbLine
 10
511.8971864122126
 20
-406.4217130993111
 30
0.0
 11
511.8971864122126
 21
-400.1717543392816
 31
0.0
  0
LINE
  5
34A
330
1F
100
AcDbEntity
  8
1-A
  6
Continuous
 62
     2
370
     9
100
AcDbLine
 10
516.9489178311317
 20
-406.4217130993111
 30
0.0
 11
516.9489178311317
 21
-400.1717543392816
 31
0.0
  0
LINE
  5
34B
330
1F
100
AcDbEntity
  8
1-A
  6
Continuous
 62
     2
370
     9
100
AcDbLine
 10
527.0526281087921
 20
-406.4217130993111
 30
0.0
 11
527.0526281087921
 21
-400.1717543392816
 31
0.0
  0
LINE
  5
34C
330
1F
100
AcDbEntity
  8
1-A
  6
Continuous
 62
     2
370
     9
100
AcDbLine
 10
529.5784938182514
 20
-407.6717172233083
 30
0.0
 11
514.4230521216717
 21
-407.6717172233083
 31
0.0
  0
LINE
  5
34D
330
1F
100
AcDbEntity
  8
1-A
  6
Continuous
 62
     2
370
     9
100
AcDbLine
 10
531.5004826405697
 20
-397.6721172510214
 30
0.0
 11
531.5004826405697
 21
-400.1718161992374
 31
0.0
  0
LINE
  5
34E
330
1F
100
AcDbEntity
  8
1-A
  6
Continuous
 62
     2
370
     9
100
AcDbLine
 10
512.500939579442
 20
-397.6721172510214
 30
0.0
 11
512.500939579442
 21
-400.1718161992374
 31
0.0
  0
LINE
  5
34F
330
1F
100
AcDbEntity
  8
1-A
  6
Continuous
 62
     2
370
     9
100
AcDbLine
 10
524.5006574980441
 20
-397.6717460912874
 30
0.0
 11
524.5006574980441
 21
-400.1714450395032
 31
0.0
  0
LINE
  5
350
330
1F
100
AcDbEntity
  8
1-A
  6
Continuous
 62
     2
370
     9
100
AcDbLine
 10
525.7507234819969
 20
-397.6717460912874
 30
0.0
 11
525.7507234819969
 21
-400.1714450395032
 31
0.0
  0
LINE
  5
351
330
1F
100
AcDbEntity
  8
1-A
  6
Continuous
 62
     2
370
     9
100
AcDbLine
 10
532.1043595277108
 20
-400.1717543392816
 30
0.0
 11
511.8971864122126
 21
-400.1717543392816
 31
0.0
  0
LINE
  5
352
330
1F
100
AcDbEntity
  8
1-A
  6
Continuous
 62
     2
370
     9
100
AcDbLine
 10
532.1046378975113
 20
-417.908797565369
 30
0.0
 11
532.1046378975113
 21
-411.9346104876664
 31
0.0
  0
LINE
  5
353
330
1F
100
AcDbEntity
  8
1-A
  6
Continuous
 62
     2
370
     9
100
AcDbLine
 10
530.3502276950725
 20
-410.9216846437316
 30
0.0
 11
532.1046378975113
 21
-411.9346104876664
 31
0.0
  0
LINE
  5
354
330
1F
100
AcDbEntity
  8
1-A
  6
Continuous
 62
     2
370
     9
100
AcDbLine
 10
529.0010620621542
 20
-420.4222912836968
 30
0.0
 11
529.0010620621542
 21
-421.6142707692858
 31
0.0
  0
LINE
  5
355
330
1F
100
AcDbEntity
  8
1-A
  6
Continuous
 62
     2
370
     9
100
AcDbLine
 10
529.6260331941751
 20
-419.3398039196236
 30
0.0
 11
532.1046378975113
 21
-417.908797565369
 31
0.0
  0
LINE
  5
356
330
1F
100
AcDbEntity
  8
1-A
  6
Continuous
 62
     2
370
     9
100
AcDbLine
 10
514.3760385553715
 20
-419.3398039196236
 30
0.0
 11
511.8974338520353
 21
-417.908797565369
 31
0.0
  0
LINE
  5
357
330
1F
100
AcDbEntity
  8
1-A
  6
Continuous
 62
     2
370
     9
100
AcDbLine
 10
515.0010406173697
 20
-421.6142707692858
 30
0.0
 11
515.0010406173697
 21
-420.4222912836968
 31
0.0
  0
LINE
  5
358
330
1F
100
AcDbEntity
  8
1-A
  6
Continuous
 62
     2
370
     9
100
AcDbLine
 10
511.8974338520353
 20
-417.908797565369
 30
0.0
 11
511.8974338520353
 21
-411.9346104876664
 31
0.0
  0
LINE
  5
359
330
1F
100
AcDbEntity
  8
1-A
  6
Continuous
 62
     2
370
     9
100
AcDbLine
 10
527.0528446186369
 20
-417.908797565369
 30
0.0
 11
527.0528446186369
 21
-411.9346104876664
 31
0.0
  0
LINE
  5
35A
330
1F
100
AcDbEntity
  8
1-A
  6
Continuous
 62
     2
370
     9
100
AcDbLine
 10
516.9492271309098
 20
-417.908797565369
 30
0.0
 11
516.9492271309098
 21
-411.9346104876664
 31
0.0
  0
LINE
  5
35B
330
1F
100
AcDbEntity
  8
1-A
  6
Continuous
 62
     2
370
     9
100
AcDbLine
 10
513.6518131244962
 20
-410.9216846437316
 30
0.0
 11
511.8974338520353
 21
-411.9346104876664
 31
0.0
  0
LINE
  5
35C
330
1F
100
AcDbEntity
  8
1-A
  6
Continuous
 62
     2
370
     9
100
AcDbLine
 10
530.3502276950725
 20
-410.9216846437316
 30
0.0
 11
513.6518131244962
 21
-410.9216846437316
 31
0.0
  0
LINE
  5
35D
330
1F
100
AcDbEntity
  8
1-A
  6
Continuous
 62
     2
370
     9
100
AcDbLine
 10
530.3501658351167
 20
-418.9216924793259
 30
0.0
 11
513.651874984452
 21
-418.9216924793259
 31
0.0
  0
LINE
  5
35E
330
1F
100
AcDbEntity
  8
1-A
  6
Continuous
 62
     2
370
     9
100
AcDbLine
 10
527.0005420261272
 20
-407.6717172233083
 30
0.0
 11
527.0005420261272
 21
-410.9216846437316
 31
0.0
  0
LINE
  5
35F
330
1F
100
AcDbEntity
  8
1-A
  6
Continuous
 62
     2
370
     9
100
AcDbLine
 10
525.5003143814902
 20
-407.6717172233083
 30
0.0
 11
525.5003143814902
 21
-410.9216846437316
 31
0.0
  0
LINE
  5
360
330
1F
100
AcDbEntity
  8
1-A
  6
Continuous
 62
     2
370
     9
100
AcDbLine
 10
518.5006129588764
 20
-407.6717172233083
 30
0.0
 11
518.5006129588764
 21
-410.9216846437316
 31
0.0
  0
LINE
  5
361
330
1F
100
AcDbEntity
  8
1-A
  6
Continuous
 62
     2
370
     9
100
AcDbLine
 10
517.0003853142395
 20
-407.6717172233083
 30
0.0
 11
517.0003853142395
 21
-410.9216846437316
 31
0.0
  0
ARC
  5
362
330
1F
100
AcDbEntity
  8
1-A
  6
Continuous
 62
     2
370
     9
100
AcDbCircle
 10
522.0007729699615
 20
-396.8383687686523
 30
0.0
 40
10.83333975559956
100
AcDbArc
 50
242.2042083740234
 51
297.7957916259766
  0
ARC
  5
363
330
1F
100
AcDbEntity
  8
1-A
  6
Continuous
 62
     2
370
     9
100
AcDbCircle
 10
514.4230521216717
 20
-404.4946517606287
 30
0.0
 40
3.17705507214005
100
AcDbArc
 50
217.3407897949219
 51
322.6592102050782
  0
ARC
  5
364
330
1F
100
AcDbEntity
  8
1-A
  6
Continuous
 62
     2
370
     9
100
AcDbCircle
 10
529.5784938182514
 20
-404.4946517606287
 30
0.0
 40
3.17705507214005
100
AcDbArc
 50
217.3407897949219
 51
322.6592102050782
  0
ARC
  5
365
330
1F
100
AcDbEntity
  8
1-A
  6
Continuous
 62
     2
370
     9
100
AcDbCircle
 10
522.0010204097842
 20
-405.8176197023254
 30
0.0
 40
13.10409210823678
100
AcDbArc
 50
247.3243103027343
 51
292.6756896972656
  0
ARC
  5
366
330
1F
100
AcDbEntity
  8
1-A
  6
Continuous
 62
     2
370
     9
100
AcDbCircle
 10
530.3501658351167
 20
-413.0484608492584
 30
0.0
 40
5.873256277393651
100
AcDbArc
 50
235.8464813232422
 51
270.0
  0
ARC
  5
367
330
1F
100
AcDbEntity
  8
1-A
  6
Continuous
 62
     2
370
     9
100
AcDbCircle
 10
522.0010204097842
 20
-424.0257883507099
 30
0.0
 40
13.10409210823678
100
AcDbArc
 50
67.32431030273438
 51
112.6756896972656
  0
ARC
  5
368
330
1F
100
AcDbEntity
  8
1-A
  6
Continuous
 62
     2
370
     9
100
AcDbCircle
 10
530.3501658351167
 20
-416.7949162737992
 30
0.0
 40
5.873256277393651
100
AcDbArc
 50
90.0
 51
124.1535186767578
  0
ARC
  5
369
330
1F
100
AcDbEntity
  8
1-A
  6
Continuous
 62
     2
370
     9
100
AcDbCircle
 10
522.0010204097842
 20
-418.9216924793259
 30
0.0
 40
7.500000096656181
100
AcDbArc
 50
201.0391845703125
 51
338.9608154296875
  0
ARC
  5
36A
330
1F
100
AcDbEntity
  8
1-A
  6
Continuous
 62
     2
370
     9
100
AcDbCircle
 10
530.2510352561735
 20
-420.4222912836968
 30
0.0
 40
1.250000016109364
100
AcDbArc
 50
120.0003967285156
 51
180.0
  0
ARC
  5
36B
330
1F
100
AcDbEntity
  8
1-A
  6
Continuous
 62
     2
370
     9
100
AcDbCircle
 10
513.651874984452
 20
-413.0484608492584
 30
0.0
 40
5.873256277393651
100
AcDbArc
 50
270.0
 51
304.1535186767578
  0
ARC
  5
36C
330
1F
100
AcDbEntity
  8
1-A
  6
Continuous
 62
     2
370
     9
100
AcDbCircle
 10
513.651874984452
 20
-416.7949162737992
 30
0.0
 40
5.873256277393651
100
AcDbArc
 50
55.84648132324219
 51
90.0
  0
ARC
  5
36D
330
1F
100
AcDbEntity
  8
1-A
  6
Continuous
 62
     2
370
     9
100
AcDbCircle
 10
513.7510364933728
 20
-420.4222912836968
 30
0.0
 40
1.250000016109364
100
AcDbArc
 50
0.0
 51
59.99960327148438
  0
LINE
  5
36E
330
1F
100
AcDbEntity
  8
1-3ﾚｲﾔ
  6
Continuous
 62
     3
370
     9
100
AcDbLine
 10
514.5011193857131
 20
-397.6717460912874
 30
0.0
 11
514.5011193857131
 21
-389.6717691856709
 31
0.0
  0
LINE
  5
36F
330
1F
100
AcDbEntity
  8
1-D
  6
Continuous
 62
     7
370
     9
100
AcDbLine
 10
279.5013338335598
 20
-353.4217733096679
 30
0.0
 11
228.2309365441806
 21
-353.4217733096679
 31
0.0
  0
LINE
  5
370
330
1F
100
AcDbEntity
  8
1-D
  6
Continuous
 62
     7
370
     9
100
AcDbLine
 10
299.5012760976011
 20
-359.6717939296531
 30
0.0
 11
228.2309365441806
 21
-359.6717939296531
 31
0.0
  0
LINE
  5
371
330
1F
100
AcDbEntity
  8
1-D
  6
Continuous
 62
     7
370
     9
100
AcDbLine
 10
299.5012760976011
 20
-365.9217526896828
 30
0.0
 11
228.2309365441806
 21
-365.9217526896828
 31
0.0
  0
LINE
  5
372
330
1F
100
AcDbEntity
  8
1-D
  6
Continuous
 62
     7
370
     9
100
AcDbLine
 10
299.5012760976011
 20
-372.1717733096679
 30
0.0
 11
228.2309365441806
 21
-372.1717733096679
 31
0.0
  0
LINE
  5
373
330
1F
100
AcDbEntity
  8
1-D
  6
Continuous
 62
     7
370
     9
100
AcDbLine
 10
299.5012760976011
 20
-378.4217939296531
 30
0.0
 11
228.2309365441806
 21
-378.4217939296531
 31
0.0
  0
LINE
  5
374
330
1F
100
AcDbEntity
  8
1-D
  6
Continuous
 62
     7
370
     9
100
AcDbLine
 10
228.2309365441806
 20
-384.6717526896828
 30
0.0
 11
312.0017812872389
 21
-384.6717526896828
 31
0.0
  0
LINE
  5
375
330
1F
100
AcDbEntity
  8
1-D
  6
Continuous
 62
     7
370
     9
100
AcDbLine
 10
299.5012760976011
 20
-353.4217733096679
 30
0.0
 11
299.5012760976011
 21
-389.6717382556931
 31
0.0
  0
LINE
  5
376
330
1F
100
AcDbEntity
  8
1-D
  6
Continuous
 62
     7
370
     9
100
AcDbLine
 10
322.0019379991267
 20
-384.6717526896828
 30
0.0
 11
394.5009709218199
 21
-384.6717526896828
 31
0.0
  0
LINE
  5
377
330
1F
100
AcDbEntity
  8
1-3ﾚｲﾔ
  6
Continuous
 62
     3
370
     9
100
AcDbLine
 10
228.2309365441806
 20
-389.6717382556931
 30
0.0
 11
394.5009709218199
 21
-389.6717382556931
 31
0.0
  0
ARC
  5
378
330
1F
100
AcDbEntity
  8
1-2ﾚｲﾔ
  6
Continuous
 62
     3
370
     9
100
AcDbCircle
 10
394.5012183616426
 20
-410.7122577638488
 30
0.0
 40
12.50000064437454
100
AcDbArc
 50
112.0243377685547
 51
146.2000779342002
  0
ARC
  5
379
330
1F
100
AcDbEntity
  8
1-2ﾚｲﾔ
  6
Continuous
 62
     3
370
     9
100
AcDbCircle
 10
394.5012183616426
 20
-410.7122577638488
 30
0.0
 40
12.50000064437454
100
AcDbArc
 50
146.2000779342002
 51
180.0
  0
LINE
  5
37A
330
1F
100
AcDbEntity
  8
1-3ﾚｲﾔ
  6
Continuous
 62
     3
370
     9
100
AcDbLine
 10
228.2309365441806
 20
-397.6717460912874
 30
0.0
 11
392.1003398702486
 21
-397.6717460912874
 31
0.0
  0
LINE
  5
37B
330
1F
100
AcDbEntity
  8
1-D
  6
Continuous
 62
     7
370
     9
100
AcDbLine
 10
517.00066368404
 20
-384.6717526896828
 30
0.0
 11
444.5016307613467
 21
-384.6717526896828
 31
0.0
  0
LINE
  5
37C
330
1F
100
AcDbEntity
  8
1-3ﾚｲﾔ
  6
Continuous
 62
     3
370
     9
100
AcDbLine
 10
610.771665138986
 20
-397.6717460912874
 30
0.0
 11
446.9022618129178
 21
-397.6717460912874
 31
0.0
  0
LINE
  5
37D
330
1F
100
AcDbEntity
  8
1-A
  6
Continuous
 62
     2
370
     9
100
AcDbLine
 10
312.0017812872389
 20
-380.9216784577358
 30
0.0
 11
312.0017812872389
 21
-389.6717382556931
 31
0.0
  0
LINE
  5
37E
330
1F
100
AcDbEntity
  8
1-A
  6
Continuous
 62
     2
370
     9
100
AcDbLine
 10
322.0019379991267
 20
-380.9216784577358
 30
0.0
 11
322.0019379991267
 21
-389.6717382556931
 31
0.0
  0
LINE
  5
37F
330
1F
100
AcDbEntity
  8
1-A
  6
Continuous
 62
     2
370
     9
100
AcDbLine
 10
320.5017412844678
 20
-380.9216784577358
 30
0.0
 11
320.5017412844678
 21
-389.6717382556931
 31
0.0
  0
LINE
  5
380
330
1F
100
AcDbEntity
  8
1-A
  6
Continuous
 62
     2
370
     9
100
AcDbLine
 10
313.5020398618535
 20
-380.9216784577358
 30
0.0
 11
313.5020398618535
 21
-389.6717382556931
 31
0.0
  0
LINE
  5
381
330
1F
100
AcDbEntity
  8
1-A
  6
Continuous
 62
     2
370
     9
100
AcDbLine
 10
517.0006327540624
 20
-380.9216784577358
 30
0.0
 11
517.0006327540624
 21
-389.6717382556931
 31
0.0
  0
LINE
  5
382
330
1F
100
AcDbEntity
  8
1-A
  6
Continuous
 62
     2
370
     9
100
AcDbLine
 10
527.0007894659501
 20
-380.9216784577358
 30
0.0
 11
527.0007894659501
 21
-389.6717382556931
 31
0.0
  0
LINE
  5
383
330
1F
100
AcDbEntity
  8
1-A
  6
Continuous
 62
     2
370
     9
100
AcDbLine
 10
518.500860398699
 20
-380.9216784577358
 30
0.0
 11
518.500860398699
 21
-389.6717382556931
 31
0.0
  0
LINE
  5
384
330
1F
100
AcDbEntity
  8
1-A
  6
Continuous
 62
     2
370
     9
100
AcDbLine
 10
525.5005618213131
 20
-380.9216784577358
 30
0.0
 11
525.5005618213131
 21
-389.6717382556931
 31
0.0
  0
LINE
  5
385
330
1F
100
AcDbEntity
  8
1-D
  6
Continuous
 62
     7
370
     9
100
AcDbLine
 10
559.5012678496072
 20
-353.4217733096679
 30
0.0
 11
610.7716651389864
 21
-353.4217733096679
 31
0.0
  0
LINE
  5
386
330
1F
100
AcDbEntity
  8
1-D
  6
Continuous
 62
     7
370
     9
100
AcDbLine
 10
539.5013255855657
 20
-353.4217733096679
 30
0.0
 11
539.5013255855657
 21
-389.6717382556931
 31
0.0
  0
LINE
  5
387
330
1F
100
AcDbEntity
  8
1-3ﾚｲﾔ
  6
Continuous
 62
     3
370
     9
100
AcDbLine
 10
610.771665138986
 20
-389.6717382556931
 30
0.0
 11
609.5276410931139
 21
-389.6717382556931
 31
0.0
  0
LINE
  5
388
330
1F
100
AcDbEntity
  8
1-3ﾚｲﾔ
  6
Continuous
 62
     3
370
     9
100
AcDbLine
 10
609.5276410931139
 20
-389.6717382556931
 30
0.0
 11
444.5016307613467
 21
-389.6717382556931
 31
0.0
  0
LINE
  5
389
330
1F
100
AcDbEntity
  8
1-D
  6
Continuous
 62
     7
370
     9
100
AcDbLine
 10
610.771665138986
 20
-359.6717939296531
 30
0.0
 11
539.5013255855657
 21
-359.6717939296531
 31
0.0
  0
LINE
  5
38A
330
1F
100
AcDbEntity
  8
1-D
  6
Continuous
 62
     7
370
     9
100
AcDbLine
 10
610.771665138986
 20
-378.4217939296531
 30
0.0
 11
539.5013255855657
 21
-378.4217939296531
 31
0.0
  0
LINE
  5
38B
330
1F
100
AcDbEntity
  8
1-D
  6
Continuous
 62
     7
370
     9
100
AcDbLine
 10
610.771665138986
 20
-372.1717733096679
 30
0.0
 11
539.5013255855657
 21
-372.1717733096679
 31
0.0
  0
LINE
  5
38C
330
1F
100
AcDbEntity
  8
1-D
  6
Continuous
 62
     7
370
     9
100
AcDbLine
 10
610.771665138986
 20
-365.9217526896828
 30
0.0
 11
539.5013255855657
 21
-365.9217526896828
 31
0.0
  0
LINE
  5
38D
330
1F
100
AcDbEntity
  8
1-D
  6
Continuous
 62
     7
370
     9
100
AcDbLine
 10
527.0007894659501
 20
-384.6717526896828
 30
0.0
 11
610.771665138986
 21
-384.6717526896828
 31
0.0
  0
LINE
  5
38E
330
1F
100
AcDbEntity
  8
1-A
  6
Continuous
 62
     2
370
     9
100
AcDbLine
 10
306.8982421554556
 20
-406.4217130993111
 30
0.0
 11
306.8982421554556
 21
-400.1717543392816
 31
0.0
  0
LINE
  5
38F
330
1F
100
AcDbEntity
  8
1-A
  6
Continuous
 62
     2
370
     9
100
AcDbLine
 10
327.105415270954
 20
-406.4217130993111
 30
0.0
 11
327.105415270954
 21
-400.1717543392816
 31
0.0
  0
LINE
  5
390
330
1F
100
AcDbEntity
  8
1-A
  6
Continuous
 62
     2
370
     9
100
AcDbLine
 10
322.0536838520353
 20
-406.4217130993111
 30
0.0
 11
322.0536838520353
 21
-400.1717543392816
 31
0.0
  0
LINE
  5
391
330
1F
100
AcDbEntity
  8
1-A
  6
Continuous
 62
     2
370
     9
100
AcDbLine
 10
311.9499735743746
 20
-406.4217130993111
 30
0.0
 11
311.9499735743746
 21
-400.1717543392816
 31
0.0
  0
LINE
  5
392
330
1F
100
AcDbEntity
  8
1-A
  6
Continuous
 62
     2
370
     9
100
AcDbLine
 10
309.4241078649155
 20
-407.6717172233083
 30
0.0
 11
324.5795495614947
 21
-407.6717172233083
 31
0.0
  0
LINE
  5
393
330
1F
100
AcDbEntity
  8
1-A
  6
Continuous
 62
     2
370
     9
100
AcDbLine
 10
307.502119042597
 20
-397.6721172510214
 30
0.0
 11
307.502119042597
 21
-400.1718161992374
 31
0.0
  0
LINE
  5
394
330
1F
100
AcDbEntity
  8
1-A
  6
Continuous
 62
     2
370
     9
100
AcDbLine
 10
326.5016621037246
 20
-397.6721172510214
 30
0.0
 11
326.5016621037246
 21
-400.1718161992374
 31
0.0
  0
LINE
  5
395
330
1F
100
AcDbEntity
  8
1-A
  6
Continuous
 62
     2
370
     9
100
AcDbLine
 10
306.8982421554556
 20
-400.1717543392816
 30
0.0
 11
327.105415270954
 21
-400.1717543392816
 31
0.0
  0
LINE
  5
396
330
1F
100
AcDbEntity
  8
1-A
  6
Continuous
 62
     2
370
     9
100
AcDbLine
 10
306.8979637856553
 20
-417.908797565369
 30
0.0
 11
306.8979637856553
 21
-411.9346104876664
 31
0.0
  0
LINE
  5
397
330
1F
100
AcDbEntity
  8
1-A
  6
Continuous
 62
     2
370
     9
100
AcDbLine
 10
308.6523739880942
 20
-410.9216846437316
 30
0.0
 11
306.8979637856553
 21
-411.9346104876664
 31
0.0
  0
LINE
  5
398
330
1F
100
AcDbEntity
  8
1-A
  6
Continuous
 62
     2
370
     9
100
AcDbLine
 10
310.0015396210124
 20
-420.4222912836968
 30
0.0
 11
310.0015396210124
 21
-421.6142707692858
 31
0.0
  0
LINE
  5
399
330
1F
100
AcDbEntity
  8
1-A
  6
Continuous
 62
     2
370
     9
100
AcDbLine
 10
309.3765684889916
 20
-419.3398039196236
 30
0.0
 11
306.8979637856553
 21
-417.908797565369
 31
0.0
  0
LINE
  5
39A
330
1F
100
AcDbEntity
  8
1-A
  6
Continuous
 62
     2
370
     9
100
AcDbLine
 10
324.6265631277952
 20
-419.3398039196236
 30
0.0
 11
327.1051678311317
 21
-417.908797565369
 31
0.0
  0
LINE
  5
39B
330
1F
100
AcDbEntity
  8
1-A
  6
Continuous
 62
     2
370
     9
100
AcDbLine
 10
324.0015610657967
 20
-421.6142707692858
 30
0.0
 11
324.0015610657967
 21
-420.4222912836968
 31
0.0
  0
LINE
  5
39C
330
1F
100
AcDbEntity
  8
1-A
  6
Continuous
 62
     2
370
     9
100
AcDbLine
 10
327.1051678311317
 20
-417.908797565369
 30
0.0
 11
327.1051678311317
 21
-411.9346104876664
 31
0.0
  0
LINE
  5
39D
330
1F
100
AcDbEntity
  8
1-A
  6
Continuous
 62
     2
370
     9
100
AcDbLine
 10
311.9497570645301
 20
-417.908797565369
 30
0.0
 11
311.9497570645301
 21
-411.9346104876664
 31
0.0
  0
LINE
  5
39E
330
1F
100
AcDbEntity
  8
1-A
  6
Continuous
 62
     2
370
     9
100
AcDbLine
 10
322.0533745522569
 20
-417.908797565369
 30
0.0
 11
322.0533745522569
 21
-411.9346104876664
 31
0.0
  0
LINE
  5
39F
330
1F
100
AcDbEntity
  8
1-A
  6
Continuous
 62
     2
370
     9
100
AcDbLine
 10
325.3507885586707
 20
-410.9216846437316
 30
0.0
 11
327.1051678311317
 21
-411.9346104876664
 31
0.0
  0
LINE
  5
3A0
330
1F
100
AcDbEntity
  8
1-A
  6
Continuous
 62
     2
370
     9
100
AcDbLine
 10
308.6523739880942
 20
-410.9216846437316
 30
0.0
 11
325.3507885586707
 21
-410.9216846437316
 31
0.0
  0
LINE
  5
3A1
330
1F
100
AcDbEntity
  8
1-A
  6
Continuous
 62
     2
370
     9
100
AcDbLine
 10
308.6524358480499
 20
-418.9216924793259
 30
0.0
 11
325.350726698715
 21
-418.9216924793259
 31
0.0
  0
LINE
  5
3A2
330
1F
100
AcDbEntity
  8
1-A
  6
Continuous
 62
     2
370
     9
100
AcDbLine
 10
312.0020596570395
 20
-407.6717172233083
 30
0.0
 11
312.0020596570395
 21
-410.9216846437316
 31
0.0
  0
LINE
  5
3A3
330
1F
100
AcDbEntity
  8
1-A
  6
Continuous
 62
     2
370
     9
100
AcDbLine
 10
313.5022873016765
 20
-407.6717172233083
 30
0.0
 11
313.5022873016765
 21
-410.9216846437316
 31
0.0
  0
LINE
  5
3A4
330
1F
100
AcDbEntity
  8
1-A
  6
Continuous
 62
     2
370
     9
100
AcDbLine
 10
320.5019887242905
 20
-407.6717172233083
 30
0.0
 11
320.5019887242905
 21
-410.9216846437316
 31
0.0
  0
LINE
  5
3A5
330
1F
100
AcDbEntity
  8
1-A
  6
Continuous
 62
     2
370
     9
100
AcDbLine
 10
322.002216368927
 20
-407.6717172233083
 30
0.0
 11
322.002216368927
 21
-410.9216846437316
 31
0.0
  0
ARC
  5
3A6
330
1F
100
AcDbEntity
  8
1-A
  6
Continuous
 62
     2
370
     9
100
AcDbCircle
 10
317.0018287132051
 20
-396.8383687686523
 30
0.0
 40
10.83333975559956
100
AcDbArc
 50
242.2042083740235
 51
297.7957916259766
  0
ARC
  5
3A7
330
1F
100
AcDbEntity
  8
1-A
  6
Continuous
 62
     2
370
     9
100
AcDbCircle
 10
324.5795495614947
 20
-404.4946517606287
 30
0.0
 40
3.17705507214005
100
AcDbArc
 50
217.3407897949218
 51
322.6592102050781
  0
ARC
  5
3A8
330
1F
100
AcDbEntity
  8
1-A
  6
Continuous
 62
     2
370
     9
100
AcDbCircle
 10
309.4241078649155
 20
-404.4946517606287
 30
0.0
 40
3.17705507214005
100
AcDbArc
 50
217.3407897949218
 51
322.6592102050781
  0
ARC
  5
3A9
330
1F
100
AcDbEntity
  8
1-A
  6
Continuous
 62
     2
370
     9
100
AcDbCircle
 10
317.0015812733824
 20
-405.8176197023254
 30
0.0
 40
13.10409210823678
100
AcDbArc
 50
247.3243103027344
 51
292.6756896972656
  0
ARC
  5
3AA
330
1F
100
AcDbEntity
  8
1-A
  6
Continuous
 62
     2
370
     9
100
AcDbCircle
 10
308.6524358480499
 20
-413.0484608492584
 30
0.0
 40
5.873256277393651
100
AcDbArc
 50
270.0
 51
304.1535186767578
  0
ARC
  5
3AB
330
1F
100
AcDbEntity
  8
1-A
  6
Continuous
 62
     2
370
     9
100
AcDbCircle
 10
317.0015812733824
 20
-424.0257883507099
 30
0.0
 40
13.10409210823678
100
AcDbArc
 50
67.32431030273439
 51
112.6756896972656
  0
ARC
  5
3AC
330
1F
100
AcDbEntity
  8
1-A
  6
Continuous
 62
     2
370
     9
100
AcDbCircle
 10
308.6524358480499
 20
-416.7949162737992
 30
0.0
 40
5.873256277393651
100
AcDbArc
 50
55.8464813232422
 51
90.00000000000001
  0
ARC
  5
3AD
330
1F
100
AcDbEntity
  8
1-A
  6
Continuous
 62
     2
370
     9
100
AcDbCircle
 10
317.0015812733824
 20
-418.9216924793259
 30
0.0
 40
7.500000096656181
100
AcDbArc
 50
201.0391845703125
 51
338.9608154296874
  0
ARC
  5
3AE
330
1F
100
AcDbEntity
  8
1-A
  6
Continuous
 62
     2
370
     9
100
AcDbCircle
 10
308.7515664269931
 20
-420.4222912836968
 30
0.0
 40
1.250000016109364
100
AcDbArc
 50
0.0000000000000127
 51
59.99960327148439
  0
ARC
  5
3AF
330
1F
100
AcDbEntity
  8
1-A
  6
Continuous
 62
     2
370
     9
100
AcDbCircle
 10
325.350726698715
 20
-413.0484608492584
 30
0.0
 40
5.873256277393651
100
AcDbArc
 50
235.8464813232422
 51
270.0
  0
ARC
  5
3B0
330
1F
100
AcDbEntity
  8
1-A
  6
Continuous
 62
     2
370
     9
100
AcDbCircle
 10
325.350726698715
 20
-416.7949162737992
 30
0.0
 40
5.873256277393651
100
AcDbArc
 50
90.00000000000001
 51
124.1535186767578
  0
ARC
  5
3B1
330
1F
100
AcDbEntity
  8
1-A
  6
Continuous
 62
     2
370
     9
100
AcDbCircle
 10
325.2515651897938
 20
-420.4222912836968
 30
0.0
 40
1.250000016109364
100
AcDbArc
 50
120.0003967285156
 51
180.0
  0
LINE
  5
3B2
330
1F
100
AcDbEntity
  8
1-0ﾚｲﾔ
  6
Continuous
 62
     4
370
     9
100
AcDbLine
 10
284.5013503295478
 20
-86.1870854930148
 30
0.0
 11
554.5012513536188
 21
-86.1870854930148
 31
0.0
  0
LINE
  5
3B3
330
1F
100
AcDbEntity
  8
1-0ﾚｲﾔ
  6
Continuous
 62
     4
370
     9
100
AcDbLine
 10
279.5013338335598
 20
-218.6873370568345
 30
0.0
 11
279.5013338335598
 21
-91.18722570891428
 31
0.0
  0
LINE
  5
3B4
330
1F
100
AcDbEntity
  8
1-0ﾚｲﾔ
  6
Continuous
 62
     4
370
     9
100
AcDbLine
 10
554.5012513536188
 20
-223.687477272734
 30
0.0
 11
284.5013503295478
 21
-223.687477272734
 31
0.0
  0
LINE
  5
3B5
330
1F
100
AcDbEntity
  8
1-0ﾚｲﾔ
  6
Continuous
 62
     4
370
     9
100
AcDbLine
 10
559.5013915695183
 20
-218.6873370568345
 30
0.0
 11
559.5013915695183
 21
-91.18722570891428
 31
0.0
  0
LINE
  5
3B6
330
1F
100
AcDbEntity
  8
1-0ﾚｲﾔ
  6
Continuous
 62
     4
370
     9
100
AcDbLine
 10
280.9672910627613
 20
-87.65155808328089
 30
0.0
 11
305.9673735427021
 21
-112.651764283133
 31
0.0
  0
LINE
  5
3B7
330
1F
100
AcDbEntity
  8
1-0ﾚｲﾔ
  6
Continuous
 62
     4
370
     9
100
AcDbLine
 10
558.0367952593407
 20
-222.2237470019358
 30
0.0
 11
533.0367127794001
 21
-197.2236026620394
 31
0.0
  0
LINE
  5
3B8
330
1F
100
AcDbEntity
  8
1-0ﾚｲﾔ
  6
Continuous
 62
     4
370
     9
100
AcDbLine
 10
280.9672910627613
 20
-222.2237470019358
 30
0.0
 11
305.9673735427021
 21
-197.2236026620394
 31
0.0
  0
LINE
  5
3B9
330
1F
100
AcDbEntity
  8
1-0ﾚｲﾔ
  6
Continuous
 62
     4
370
     9
100
AcDbLine
 10
534.5013090895771
 20
-193.6881824762285
 30
0.0
 11
534.5013090895771
 21
-116.1880505083231
 31
0.0
  0
LINE
  5
3BA
330
1F
100
AcDbEntity
  8
1-0ﾚｲﾔ
  6
Continuous
 62
     4
370
     9
100
AcDbLine
 10
309.501401879511
 20
-198.688137112261
 30
0.0
 11
529.5009214338553
 21
-198.688137112261
 31
0.0
  0
LINE
  5
3BB
330
1F
100
AcDbEntity
  8
1-0ﾚｲﾔ
  6
Continuous
 62
     4
370
     9
100
AcDbLine
 10
309.501401879511
 20
-111.1876628526009
 30
0.0
 11
529.5009214338553
 21
-111.1876628526009
 31
0.0
  0
LINE
  5
3BC
330
1F
100
AcDbEntity
  8
1-0ﾚｲﾔ
  6
Continuous
 62
     4
370
     9
100
AcDbLine
 10
304.5011998036558
 20
-116.1880505083231
 30
0.0
 11
304.5011998036558
 21
-193.6881824762285
 31
0.0
  0
LINE
  5
3BD
330
1F
100
AcDbEntity
  8
1-2ﾚｲﾔ
  6
Continuous
 62
     3
370
     9
100
AcDbLine
 10
337.8762851703943
 20
-165.6873354072357
 30
0.0
 11
337.8762851703943
 21
-144.1877222381584
 31
0.0
  0
LINE
  5
3BE
330
1F
100
AcDbEntity
  8
1-2ﾚｲﾔ
  6
Continuous
 62
     3
370
     9
100
AcDbLine
 10
342.126280633998
 20
-169.9372999408611
 30
0.0
 11
496.8763210491688
 21
-169.9372999408611
 31
0.0
  0
LINE
  5
3BF
330
1F
100
AcDbEntity
  8
1-0ﾚｲﾔ
  6
Continuous
 62
     4
370
     9
100
AcDbLine
 10
336.6262810463975
 20
-166.1872875688699
 30
0.0
 11
336.6262810463975
 21
-143.6873370568345
 31
0.0
  0
LINE
  5
3C0
330
1F
100
AcDbEntity
  8
1-0ﾚｲﾔ
  6
Continuous
 62
     4
370
     9
100
AcDbLine
 10
497.376335070759
 20
-138.6873205608463
 30
0.0
 11
341.6262666124079
 21
-138.6873205608463
 31
0.0
  0
LINE
  5
3C1
330
1F
100
AcDbEntity
  8
1-0ﾚｲﾔ
  6
Continuous
 62
     4
370
     9
100
AcDbLine
 10
502.3763206367688
 20
-166.1872875688699
 30
0.0
 11
502.3763206367688
 21
-143.6873370568345
 31
0.0
  0
LINE
  5
3C2
330
1F
100
AcDbEntity
  8
1-0ﾚｲﾔ
  6
Continuous
 62
     4
370
     9
100
AcDbLine
 10
497.376335070759
 20
-171.1873040648582
 30
0.0
 11
341.6262666124079
 21
-171.1873040648582
 31
0.0
  0
LINE
  5
3C3
330
1F
100
AcDbEntity
  8
1-0ﾚｲﾔ
  6
JWW_CENTER1
 62
     4
370
     9
100
AcDbLine
 10
274.6396361984243
 20
-154.9373123128522
 30
0.0
 11
567.9278310094464
 21
-154.9373123128522
 31
0.0
  0
LINE
  5
3C4
330
1F
100
AcDbEntity
  8
1-2ﾚｲﾔ
  6
Continuous
 62
     3
370
     9
100
AcDbLine
 10
496.8759808194126
 20
-139.9373246848434
 30
0.0
 11
342.1271776033548
 21
-139.9373246848434
 31
0.0
  0
LINE
  5
3C5
330
1F
100
AcDbEntity
  8
1-2ﾚｲﾔ
  6
Continuous
 62
     3
370
     9
100
AcDbLine
 10
501.1259762830157
 20
-144.1873510784245
 30
0.0
 11
501.1259762830157
 21
-165.7458549252889
 31
0.0
  0
LINE
  5
3C6
330
1F
100
AcDbEntity
  8
1-0ﾚｲﾔ
  6
Continuous
 62
     4
370
     9
100
AcDbLine
 10
558.0367952593407
 20
-87.65155808328089
 30
0.0
 11
533.0367127794001
 21
-112.651764283133
 31
0.0
  0
LINE
  5
3C7
330
1F
100
AcDbEntity
  8
1-0ﾚｲﾔ
  6
JWW_CENTER1
 62
     4
370
     9
100
AcDbLine
 10
419.5013008415834
 20
-79.03421882018968
 30
0.0
 11
419.5013008415834
 21
-233.196806166447
 31
0.0
  0
ARC
  5
3C8
330
1F
100
AcDbEntity
  8
1-0ﾚｲﾔ
  6
Continuous
 62
     4
370
     9
100
AcDbCircle
 10
529.5009214338553
 20
-116.1880505083231
 30
0.0
 40
4.99999958115655
100
AcDbArc
 50
0.0
 51
90.0
  0
ARC
  5
3C9
330
1F
100
AcDbEntity
  8
1-0ﾚｲﾔ
  6
Continuous
 62
     4
370
     9
100
AcDbCircle
 10
529.5009214338553
 20
-193.6881824762285
 30
0.0
 40
4.99999958115655
100
AcDbArc
 50
270.0
 51
0.0
  0
ARC
  5
3CA
330
1F
100
AcDbEntity
  8
1-0ﾚｲﾔ
  6
Continuous
 62
     4
370
     9
100
AcDbCircle
 10
309.501401879511
 20
-193.6881824762285
 30
0.0
 40
4.99999958115655
100
AcDbArc
 50
180.0
 51
270.0
  0
ARC
  5
3CB
330
1F
100
AcDbEntity
  8
1-0ﾚｲﾔ
  6
Continuous
 62
     4
370
     9
100
AcDbCircle
 10
309.501401879511
 20
-116.1880505083231
 30
0.0
 40
4.99999958115655
100
AcDbArc
 50
90.0
 51
180.0
  0
ARC
  5
3CC
330
1F
100
AcDbEntity
  8
1-0ﾚｲﾔ
  6
Continuous
 62
     4
370
     9
100
AcDbCircle
 10
554.5012513536188
 20
-91.18722570891428
 30
0.0
 40
5.000000064437454
100
AcDbArc
 50
0.0
 51
90.0
  0
ARC
  5
3CD
330
1F
100
AcDbEntity
  8
1-0ﾚｲﾔ
  6
Continuous
 62
     4
370
     9
100
AcDbCircle
 10
284.5012266096363
 20
-91.18722570891428
 30
0.0
 40
5.000000064437454
100
AcDbArc
 50
90.0
 51
180.0
  0
ARC
  5
3CE
330
1F
100
AcDbEntity
  8
1-0ﾚｲﾔ
  6
Continuous
 62
     4
370
     9
100
AcDbCircle
 10
284.5012266096363
 20
-218.6872751968789
 30
0.0
 40
5.000000064437454
100
AcDbArc
 50
180.0
 51
270.0
  0
ARC
  5
3CF
330
1F
100
AcDbEntity
  8
1-0ﾚｲﾔ
  6
Continuous
 62
     4
370
     9
100
AcDbCircle
 10
554.5012513536188
 20
-218.6872751968789
 30
0.0
 40
5.000000064437454
100
AcDbArc
 50
270.0
 51
0.0
  0
ARC
  5
3D0
330
1F
100
AcDbEntity
  8
1-2ﾚｲﾔ
  6
Continuous
 62
     3
370
     9
100
AcDbCircle
 10
342.1271776033548
 20
-144.1877222381584
 30
0.0
 40
4.250002229535902
100
AcDbArc
 50
90.0
 51
180.0
  0
ARC
  5
3D1
330
1F
100
AcDbEntity
  8
1-2ﾚｲﾔ
  6
Continuous
 62
     3
370
     9
100
AcDbCircle
 10
496.8763210491688
 20
-165.6869023875461
 30
0.0
 40
4.250002229535902
100
AcDbArc
 50
270.0
 51
359.2052154541016
  0
ARC
  5
3D2
330
1F
100
AcDbEntity
  8
1-2ﾚｲﾔ
  6
Continuous
 62
     3
370
     9
100
AcDbCircle
 10
342.126280633998
 20
-165.6873354072357
 30
0.0
 40
4.250000296412288
100
AcDbArc
 50
180.0
 51
270.0
  0
ARC
  5
3D3
330
1F
100
AcDbEntity
  8
1-0ﾚｲﾔ
  6
Continuous
 62
     4
370
     9
100
AcDbCircle
 10
419.5013008415834
 20
-154.9373123128522
 30
0.0
 40
31.25000064437454
100
AcDbArc
 50
211.3322448730469
 51
328.6677551269532
  0
ARC
  5
3D4
330
1F
100
AcDbEntity
  8
1-0ﾚｲﾔ
  6
Continuous
 62
     4
370
     9
100
AcDbCircle
 10
419.5013008415834
 20
-154.9373123128522
 30
0.0
 40
31.25000064437454
100
AcDbArc
 50
31.33224487304688
 51
148.6677551269531
  0
ARC
  5
3D5
330
1F
100
AcDbEntity
  8
1-0ﾚｲﾔ
  6
Continuous
 62
     4
370
     9
100
AcDbCircle
 10
341.6262666124079
 20
-143.6873370568345
 30
0.0
 40
5.000000064437454
100
AcDbArc
 50
90.0
 51
180.0
  0
ARC
  5
3D6
330
1F
100
AcDbEntity
  8
1-0ﾚｲﾔ
  6
Continuous
 62
     4
370
     9
100
AcDbCircle
 10
341.6262666124079
 20
-166.1872875688699
 30
0.0
 40
5.000000064437454
100
AcDbArc
 50
180.0
 51
270.0
  0
ARC
  5
3D7
330
1F
100
AcDbEntity
  8
1-0ﾚｲﾔ
  6
Continuous
 62
     4
370
     9
100
AcDbCircle
 10
497.376335070759
 20
-143.6873370568345
 30
0.0
 40
5.000000064437454
100
AcDbArc
 50
0.0
 51
90.0
  0
ARC
  5
3D8
330
1F
100
AcDbEntity
  8
1-0ﾚｲﾔ
  6
Continuous
 62
     4
370
     9
100
AcDbCircle
 10
497.376335070759
 20
-166.1872875688699
 30
0.0
 40
5.000000064437454
100
AcDbArc
 50
270.0
 51
0.0
  0
ARC
  5
3D9
330
1F
100
AcDbEntity
  8
1-2ﾚｲﾔ
  6
Continuous
 62
     3
370
     9
100
AcDbCircle
 10
496.8759808194126
 20
-144.1873510784245
 30
0.0
 40
4.250000296412288
100
AcDbArc
 50
0.0
 51
90.0
  0
LINE
  5
3DA
330
1F
100
AcDbEntity
  8
1-4ﾚｲﾔ
  6
Continuous
 62
     7
370
     9
100
AcDbLine
 10
279.5012265451992
 20
-53.61986021720188
 30
0.0
 11
559.5013915695183
 21
-53.61986021720188
 31
0.0
  0
LINE
  5
3DB
330
1F
100
AcDbEntity
  8
1-4ﾚｲﾔ
  6
Continuous
 62
     7
370
     9
100
AcDbLine
 10
279.5012265451992
 20
-53.61986021720188
 30
0.0
 11
291.8942873123716
 21
-51.98828281445124
 31
0.0
  0
LINE
  5
3DC
330
1F
100
AcDbEntity
  8
1-4ﾚｲﾔ
  6
Continuous
 62
     7
370
     9
100
AcDbLine
 10
279.5012265451992
 20
-53.61986021720188
 30
0.0
 11
291.8942873123716
 21
-55.25143761995253
 31
0.0
  0
LINE
  5
3DD
330
1F
100
AcDbEntity
  8
1-4ﾚｲﾔ
  6
Continuous
 62
     7
370
     9
100
AcDbLine
 10
559.5013915695183
 20
-53.61986021720188
 30
0.0
 11
547.1083308023453
 21
-51.98828281445124
 31
0.0
  0
LINE
  5
3DE
330
1F
100
AcDbEntity
  8
1-4ﾚｲﾔ
  6
Continuous
 62
     7
370
     9
100
AcDbLine
 10
559.5013915695183
 20
-53.61986021720188
 30
0.0
 11
547.1083308023453
 21
-55.25143761995253
 31
0.0
  0
LINE
  5
3DF
330
1F
100
AcDbEntity
  8
1-4ﾚｲﾔ
  6
Continuous
 62
     7
370
     9
100
AcDbLine
 10
279.5012265451992
 20
-52.11986021720186
 30
0.0
 11
279.5012265451992
 21
-81.18722570891428
 31
0.0
  0
LINE
  5
3E0
330
1F
100
AcDbEntity
  8
1-4ﾚｲﾔ
  6
Continuous
 62
     7
370
     9
100
AcDbLine
 10
559.5013915695183
 20
-52.11986021720186
 30
0.0
 11
559.5013915695183
 21
-81.18722570891428
 31
0.0
  0
TEXT
  5
3E1
330
1F
100
AcDbEntity
  8
1-4ﾚｲﾔ
  6
Continuous
 62
     2
370
   211
100
AcDbText
 10
403.2513090573589
 20
-47.79986021720187
 30
0.0
 40
15.24
  1
112
 41
1.083333333333333
  7
ＭＳ ゴシック
100
AcDbText
  0
LINE
  5
3E2
330
1F
100
AcDbEntity
  8
1-4ﾚｲﾔ
  6
Continuous
 62
     7
370
     9
100
AcDbLine
 10
602.3234168251453
 20
-223.6872752613164
 30
0.0
 11
602.3234168251453
 21
-86.1870854930148
 31
0.0
  0
LINE
  5
3E3
330
1F
100
AcDbEntity
  8
1-4ﾚｲﾔ
  6
Continuous
 62
     7
370
     9
100
AcDbLine
 10
602.3234168251453
 20
-223.6872752613164
 30
0.0
 11
600.6918394223943
 21
-211.2942144941437
 31
0.0
  0
LINE
  5
3E4
330
1F
100
AcDbEntity
  8
1-4ﾚｲﾔ
  6
Continuous
 62
     7
370
     9
100
AcDbLine
 10
602.3234168251453
 20
-223.6872752613164
 30
0.0
 11
603.9549942278957
 21
-211.2942144941437
 31
0.0
  0
LINE
  5
3E5
330
1F
100
AcDbEntity
  8
1-4ﾚｲﾔ
  6
Continuous
 62
     7
370
     9
100
AcDbLine
 10
602.3234168251453
 20
-86.1870854930148
 30
0.0
 11
600.6918394223943
 21
-98.58014626018743
 31
0.0
  0
LINE
  5
3E6
330
1F
100
AcDbEntity
  8
1-4ﾚｲﾔ
  6
Continuous
 62
     7
370
     9
100
AcDbLine
 10
602.3234168251453
 20
-86.1870854930148
 30
0.0
 11
603.9549942278957
 21
-98.58014626018743
 31
0.0
  0
LINE
  5
3E7
330
1F
100
AcDbEntity
  8
1-4ﾚｲﾔ
  6
Continuous
 62
     7
370
     9
100
AcDbLine
 10
603.823416825145
 20
-223.6872752613164
 30
0.0
 11
564.5012513536188
 21
-223.6872752613164
 31
0.0
  0
LINE
  5
3E8
330
1F
100
AcDbEntity
  8
1-4ﾚｲﾔ
  6
Continuous
 62
     7
370
     9
100
AcDbLine
 10
603.823416825145
 20
-86.1870854930148
 30
0.0
 11
564.5012513536188
 21
-86.1870854930148
 31
0.0
  0
TEXT
  5
3E9
330
1F
100
AcDbEntity
  8
1-4ﾚｲﾔ
  6
Continuous
 62
     2
370
   211
100
AcDbText
 10
596.5034168251451
 20
-165.5621803771655
 30
0.0
 40
15.24
  1
55
 50
90.0
 41
1.0625
  7
ＭＳ ゴシック
100
AcDbText
  0
TEXT
  5
3EA
330
1F
100
AcDbEntity
  8
1-F
  6
Continuous
 62
     2
370
     9
100
AcDbText
 10
313.1677049784183
 20
-533.1559136087282
 30
0.0
 40
15.24
  1
把手詳細図　Ｓ＝１：２
 41
1.113636363636364
  7
ＭＳ ゴシック
100
AcDbText
  0
LINE
  5
3EB
330
1F
100
AcDbEntity
  8
1-F
  6
Continuous
 62
     7
370
     9
100
AcDbLine
 10
308.5067930277363
 20
-543.1742782789405
 30
0.0
 11
562.560304824459
 21
-543.1742782789405
 31
0.0
  0
LINE
  5
3EC
330
1F
100
AcDbEntity
  8
1-A
  6
JWW_CENTER1
 62
     2
370
     9
100
AcDbLine
 10
317.0015812733822
 20
-354.8739976287136
 30
0.0
 11
317.0015812733822
 21
-433.0415366582216
 31
0.0
  0
LINE
  5
3ED
330
1F
100
AcDbEntity
  8
1-A
  6
JWW_CENTER1
 62
     2
370
     9
100
AcDbLine
 10
522.0010204097842
 20
-354.8739976287136
 30
0.0
 11
522.0010204097842
 21
-433.0415366582216
 31
0.0
  0
LINE
  5
3EE
330
1F
100
AcDbEntity
  8
1-A
  6
Continuous
 62
     2
370
     9
100
AcDbLine
 10
319.501218361642
 20
-397.6717460912874
 30
0.0
 11
319.501218361642
 21
-400.1714450395032
 31
0.0
  0
LINE
  5
3EF
330
1F
100
AcDbEntity
  8
1-A
  6
Continuous
 62
     2
370
     9
100
AcDbLine
 10
320.7512843455946
 20
-397.6717460912874
 30
0.0
 11
320.7512843455946
 21
-400.1714450395032
 31
0.0
  0
LINE
  5
3F0
330
1F
100
AcDbEntity
  8
1-A
  6
Continuous
 62
     2
370
     9
100
AcDbLine
 10
243.2989172033365
 20
409.3308849853843
 30
0.0
 11
243.2989172033365
 21
406.8311860371684
 31
0.0
  0
LINE
  5
3F1
330
1F
100
AcDbEntity
  8
1-A
  6
Continuous
 62
     2
370
     9
100
AcDbLine
 10
244.5489831872891
 20
409.3308849853843
 30
0.0
 11
244.5489831872891
 21
406.8311860371684
 31
0.0
  0
LINE
  5
3F2
330
1F
100
AcDbEntity
  8
1-2ﾚｲﾔ
  6
JWW_CENTER1
 62
     3
370
     9
100
AcDbLine
 10
272.0494450749581
 20
327.1456036957939
 30
0.0
 11
272.0494450749581
 21
462.8516237417188
 31
0.0
  0
ARC
  5
3F3
330
1F
100
AcDbEntity
  8
1-A
  6
Continuous
 62
     2
370
     9
100
AcDbCircle
 10
249.0492640314878
 20
386.580710952709
 30
0.0
 40
1.250000016109364
100
AcDbArc
 50
120.0003967285156
 51
180.0
  0
ARC
  5
3F4
330
1F
100
AcDbEntity
  8
1-A
  6
Continuous
 62
     2
370
     9
100
AcDbCircle
 10
249.1484255404086
 20
390.2080859626066
 30
0.0
 40
5.873256277393651
100
AcDbArc
 50
90.0
 51
124.1535186767578
  0
ARC
  5
3F5
330
1F
100
AcDbEntity
  8
1-A
  6
Continuous
 62
     2
370
     9
100
AcDbCircle
 10
249.1484255404086
 20
393.9545413871473
 30
0.0
 40
5.873256277393651
100
AcDbArc
 50
235.8464813232422
 51
270.0
  0
ARC
  5
3F6
330
1F
100
AcDbEntity
  8
1-A
  6
Continuous
 62
     2
370
     9
100
AcDbCircle
 10
232.549265268687
 20
386.580710952709
 30
0.0
 40
1.250000016109364
100
AcDbArc
 50
0.0
 51
59.99960327148438
  0
ARC
  5
3F7
330
1F
100
AcDbEntity
  8
1-A
  6
Continuous
 62
     2
370
     9
100
AcDbCircle
 10
240.7992801150763
 20
388.0813097570799
 30
0.0
 40
7.500000096656181
100
AcDbArc
 50
201.0391845703125
 51
338.9608154296875
  0
ARC
  5
3F8
330
1F
100
AcDbEntity
  8
1-A
  6
Continuous
 62
     2
370
     9
100
AcDbCircle
 10
232.4501346897438
 20
390.2080859626066
 30
0.0
 40
5.873256277393651
100
AcDbArc
 50
55.84648132324219
 51
90.0
  0
ARC
  5
3F9
330
1F
100
AcDbEntity
  8
1-A
  6
Continuous
 62
     2
370
     9
100
AcDbCircle
 10
240.7992801150763
 20
382.9772138856958
 30
0.0
 40
13.10409210823678
100
AcDbArc
 50
67.32431030273438
 51
112.6756896972656
  0
ARC
  5
3FA
330
1F
100
AcDbEntity
  8
1-A
  6
Continuous
 62
     2
370
     9
100
AcDbCircle
 10
232.4501346897438
 20
393.9545413871473
 30
0.0
 40
5.873256277393651
100
AcDbArc
 50
270.0
 51
304.1535186767578
  0
ARC
  5
3FB
330
1F
100
AcDbEntity
  8
1-A
  6
Continuous
 62
     2
370
     9
100
AcDbCircle
 10
240.7992801150763
 20
401.1853825340803
 30
0.0
 40
13.10409210823678
100
AcDbArc
 50
247.3243103027344
 51
292.6756896972656
  0
LINE
  5
3FC
330
1F
100
AcDbEntity
  8
1-A
  6
Continuous
 62
     2
370
     9
100
AcDbLine
 10
245.7999152106208
 20
399.3312850130974
 30
0.0
 11
245.7999152106208
 21
396.0813175926741
 31
0.0
  0
LINE
  5
3FD
330
1F
100
AcDbEntity
  8
1-A
  6
Continuous
 62
     2
370
     9
100
AcDbLine
 10
244.2996875659841
 20
399.3312850130974
 30
0.0
 11
244.2996875659841
 21
396.0813175926741
 31
0.0
  0
LINE
  5
3FE
330
1F
100
AcDbEntity
  8
1-A
  6
Continuous
 62
     2
370
     9
100
AcDbLine
 10
237.2999861433703
 20
399.3312850130974
 30
0.0
 11
237.2999861433703
 21
396.0813175926741
 31
0.0
  0
LINE
  5
3FF
330
1F
100
AcDbEntity
  8
1-A
  6
Continuous
 62
     2
370
     9
100
AcDbLine
 10
235.7997584987334
 20
399.3312850130974
 30
0.0
 11
235.7997584987334
 21
396.0813175926741
 31
0.0
  0
LINE
  5
400
330
1F
100
AcDbEntity
  8
1-A
  6
Continuous
 62
     2
370
     9
100
AcDbLine
 10
232.4501346897438
 20
388.0813097570799
 30
0.0
 11
249.1484255404086
 21
388.0813097570799
 31
0.0
  0
LINE
  5
401
330
1F
100
AcDbEntity
  8
1-A
  6
Continuous
 62
     2
370
     9
100
AcDbLine
 10
232.450072829788
 20
396.0813175926741
 30
0.0
 11
249.1484874003643
 21
396.0813175926741
 31
0.0
  0
LINE
  5
402
330
1F
100
AcDbEntity
  8
1-A
  6
Continuous
 62
     2
370
     9
100
AcDbLine
 10
249.1484874003643
 20
396.0813175926741
 30
0.0
 11
250.9028666728253
 21
395.0683917487394
 31
0.0
  0
LINE
  5
403
330
1F
100
AcDbEntity
  8
1-A
  6
Continuous
 62
     2
370
     9
100
AcDbLine
 10
245.8510733939508
 20
389.0942046710367
 30
0.0
 11
245.8510733939508
 21
395.0683917487394
 31
0.0
  0
LINE
  5
404
330
1F
100
AcDbEntity
  8
1-A
  6
Continuous
 62
     2
370
     9
100
AcDbLine
 10
235.7474559062237
 20
389.0942046710367
 30
0.0
 11
235.7474559062237
 21
395.0683917487394
 31
0.0
  0
LINE
  5
405
330
1F
100
AcDbEntity
  8
1-A
  6
Continuous
 62
     2
370
     9
100
AcDbLine
 10
250.9028666728253
 20
389.0942046710367
 30
0.0
 11
250.9028666728253
 21
395.0683917487394
 31
0.0
  0
LINE
  5
406
330
1F
100
AcDbEntity
  8
1-A
  6
Continuous
 62
     2
370
     9
100
AcDbLine
 10
247.7992599074906
 20
385.3887314671199
 30
0.0
 11
247.7992599074906
 21
386.580710952709
 31
0.0
  0
LINE
  5
407
330
1F
100
AcDbEntity
  8
1-A
  6
Continuous
 62
     2
370
     9
100
AcDbLine
 10
248.4242619694891
 20
387.663198316782
 30
0.0
 11
250.9028666728253
 21
389.0942046710367
 31
0.0
  0
LINE
  5
408
330
1F
100
AcDbEntity
  8
1-A
  6
Continuous
 62
     2
370
     9
100
AcDbLine
 10
233.1742673306854
 20
387.663198316782
 30
0.0
 11
230.6956626273491
 21
389.0942046710367
 31
0.0
  0
LINE
  5
409
330
1F
100
AcDbEntity
  8
1-A
  6
Continuous
 62
     2
370
     9
100
AcDbLine
 10
233.7992384627063
 20
386.580710952709
 30
0.0
 11
233.7992384627063
 21
385.3887314671199
 31
0.0
  0
LINE
  5
40A
330
1F
100
AcDbEntity
  8
1-A
  6
Continuous
 62
     2
370
     9
100
AcDbLine
 10
232.450072829788
 20
396.0813175926741
 30
0.0
 11
230.6956626273491
 21
395.0683917487394
 31
0.0
  0
LINE
  5
40B
330
1F
100
AcDbEntity
  8
1-A
  6
Continuous
 62
     2
370
     9
100
AcDbLine
 10
230.6956626273491
 20
389.0942046710367
 30
0.0
 11
230.6956626273491
 21
395.0683917487394
 31
0.0
  0
LINE
  5
40C
330
1F
100
AcDbEntity
  8
1-A
  6
Continuous
 62
     2
370
     9
100
AcDbLine
 10
237.3000480033258
 20
426.0809113789653
 30
0.0
 11
237.3000480033258
 21
422.330878386989
 31
0.0
  0
LINE
  5
40D
330
1F
100
AcDbEntity
  8
1-A
  6
Continuous
 62
     2
370
     9
100
AcDbLine
 10
244.2997494259399
 20
426.0809113789653
 30
0.0
 11
244.2997494259399
 21
422.330878386989
 31
0.0
  0
LINE
  5
40E
330
1F
100
AcDbEntity
  8
1-A
  6
Continuous
 62
     2
370
     9
100
AcDbLine
 10
245.7999770705769
 20
426.0809113789653
 30
0.0
 11
245.7999770705769
 21
422.330878386989
 31
0.0
  0
LINE
  5
40F
330
1F
100
AcDbEntity
  8
1-A
  6
Continuous
 62
     2
370
     9
100
AcDbLine
 10
235.7998203586891
 20
426.0809113789653
 30
0.0
 11
235.7998203586891
 21
422.330878386989
 31
0.0
  0
LINE
  5
410
330
1F
100
AcDbEntity
  8
1-2ﾚｲﾔ
  6
Continuous
 62
     3
370
     9
100
AcDbLine
 10
295.7996471508133
 20
359.8313732666343
 30
0.0
 11
248.2997378787482
 21
359.8313732666343
 31
0.0
  0
LINE
  5
411
330
1F
100
AcDbEntity
  8
1-2ﾚｲﾔ
  6
Continuous
 62
     3
370
     9
100
AcDbLine
 10
295.7996471508133
 20
359.8313732666343
 30
0.0
 11
295.7996471508133
 21
348.5810268508826
 31
0.0
  0
LINE
  5
412
330
1F
100
AcDbEntity
  8
1-2ﾚｲﾔ
  6
Continuous
 62
     3
370
     9
100
AcDbLine
 10
295.7996471508133
 20
348.5810268508826
 30
0.0
 11
272.0494450749581
 21
348.5810268508826
 31
0.0
  0
LINE
  5
413
330
1F
100
AcDbEntity
  8
1-2ﾚｲﾔ
  6
Continuous
 62
     3
370
     9
100
AcDbLine
 10
248.2997378787482
 20
359.8313732666343
 30
0.0
 11
248.2997378787482
 21
353.5812907866933
 31
0.0
  0
LINE
  5
414
330
1F
100
AcDbEntity
  8
1-2ﾚｲﾔ
  6
Continuous
 62
     3
370
     9
100
AcDbLine
 10
295.7996471508133
 20
353.5812907866933
 30
0.0
 11
248.2997378787482
 21
353.5812907866933
 31
0.0
  0
LINE
  5
415
330
1F
100
AcDbEntity
  8
1-2ﾚｲﾔ
  6
Continuous
 62
     3
370
     9
100
AcDbLine
 10
272.0494450749581
 20
348.5810268508826
 30
0.0
 11
272.0494450749581
 21
353.5812907866933
 31
0.0
  0
LINE
  5
416
330
1F
100
AcDbEntity
  8
1-2ﾚｲﾔ
  6
Continuous
 62
     3
370
     9
100
AcDbLine
 10
277.049894590636
 20
333.580977362918
 30
0.0
 11
267.0497378787482
 21
333.580977362918
 31
0.0
  0
LINE
  5
417
330
1F
100
AcDbEntity
  8
1-2ﾚｲﾔ
  6
Continuous
 62
     3
370
     9
100
AcDbLine
 10
264.5492966110646
 20
336.0813567706459
 30
0.0
 11
264.5492966110646
 21
353.5812907866933
 31
0.0
  0
LINE
  5
418
330
1F
100
AcDbEntity
  8
1-2ﾚｲﾔ
  6
Continuous
 62
     3
370
     9
100
AcDbLine
 10
279.5495935388516
 20
336.0813567706459
 30
0.0
 11
279.5495935388516
 21
348.5810268508826
 31
0.0
  0
LINE
  5
419
330
1F
100
AcDbEntity
  8
1-0ﾚｲﾔ
  6
Continuous
 62
     4
370
     9
100
AcDbLine
 10
228.2996718947955
 20
459.8308371470183
 30
0.0
 11
204.4190690324116
 21
457.3241480238133
 31
0.0
  0
LINE
  5
41A
330
1F
100
AcDbEntity
  8
1-0ﾚｲﾔ
  6
Continuous
 62
     4
370
     9
100
AcDbLine
 10
315.7992182551206
 20
459.8308371470183
 30
0.0
 11
339.6796355376375
 21
457.3241480238133
 31
0.0
  0
LINE
  5
41B
330
1F
100
AcDbEntity
  8
1-0ﾚｲﾔ
  6
Continuous
 62
     4
370
     9
100
AcDbLine
 10
315.7992182551206
 20
459.8308371470183
 30
0.0
 11
228.2996718947955
 21
459.8308371470183
 31
0.0
  0
LINE
  5
41C
330
1F
100
AcDbEntity
  8
1-0ﾚｲﾔ
  6
Continuous
 62
     4
370
     9
100
AcDbLine
 10
340.7991770151503
 20
456.0808866349828
 30
0.0
 11
340.7991770151503
 21
453.5808783869888
 31
0.0
  0
LINE
  5
41D
330
1F
100
AcDbEntity
  8
1-0ﾚｲﾔ
  6
Continuous
 62
     4
370
     9
100
AcDbLine
 10
203.2997131347659
 20
456.0808866349828
 30
0.0
 11
203.2997131347659
 21
453.5808783869888
 31
0.0
  0
LINE
  5
41E
330
1F
100
AcDbEntity
  8
1-0ﾚｲﾔ
  6
Continuous
 62
     4
370
     9
100
AcDbLine
 10
249.549432702967
 20
433.5809361229474
 30
0.0
 11
294.5494574469492
 21
433.5809361229474
 31
0.0
  0
LINE
  5
41F
330
1F
100
AcDbEntity
  8
1-0ﾚｲﾔ
  6
Continuous
 62
     4
370
     9
100
AcDbLine
 10
310.7995729188664
 20
433.5809361229474
 30
0.0
 11
295.7990285512568
 21
433.5809361229474
 31
0.0
  0
LINE
  5
420
330
1F
100
AcDbEntity
  8
1-0ﾚｲﾔ
  6
Continuous
 62
     4
370
     9
100
AcDbLine
 10
233.2993172310498
 20
433.5809361229474
 30
0.0
 11
248.2998615986594
 21
433.5809361229474
 31
0.0
  0
LINE
  5
421
330
1F
100
AcDbEntity
  8
1-A
  6
Continuous
 62
     2
370
     9
100
AcDbLine
 10
312.0492677430852
 20
433.5809361229474
 30
0.0
 11
312.0492677430852
 21
427.330977362918
 31
0.0
  0
LINE
  5
422
330
1F
100
AcDbEntity
  8
1-A
  6
Continuous
 62
     2
370
     9
100
AcDbLine
 10
294.5493337270381
 20
433.5809361229474
 30
0.0
 11
294.5493337270381
 21
427.330977362918
 31
0.0
  0
LINE
  5
423
330
1F
100
AcDbEntity
  8
1-A
  6
Continuous
 62
     2
370
     9
100
AcDbLine
 10
307.6742842390735
 20
426.0809113789653
 30
0.0
 11
298.9243172310498
 21
426.0809113789653
 31
0.0
  0
LINE
  5
424
330
1F
100
AcDbEntity
  8
1-A
  6
Continuous
 62
     2
370
     9
100
AcDbLine
 10
312.0492677430852
 20
433.5809361229474
 30
0.0
 11
310.7995729188664
 21
433.5809361229474
 31
0.0
  0
LINE
  5
425
330
1F
100
AcDbEntity
  8
1-A
  6
Continuous
 62
     2
370
     9
100
AcDbLine
 10
303.2993007350615
 20
427.330977362918
 30
0.0
 11
303.2993007350615
 21
433.5809361229474
 31
0.0
  0
LINE
  5
426
330
1F
100
AcDbEntity
  8
1-A
  6
Continuous
 62
     2
370
     9
100
AcDbLine
 10
232.0495605468753
 20
433.5809361229474
 30
0.0
 11
232.0495605468753
 21
427.330977362918
 31
0.0
  0
LINE
  5
427
330
1F
100
AcDbEntity
  8
1-A
  6
Continuous
 62
     2
370
     9
100
AcDbLine
 10
249.5495564228781
 20
433.5809361229474
 30
0.0
 11
249.5495564228781
 21
427.330977362918
 31
0.0
  0
LINE
  5
428
330
1F
100
AcDbEntity
  8
1-A
  6
Continuous
 62
     2
370
     9
100
AcDbLine
 10
236.4245440508873
 20
426.0809113789653
 30
0.0
 11
245.1746347788222
 21
426.0809113789653
 31
0.0
  0
LINE
  5
429
330
1F
100
AcDbEntity
  8
1-A
  6
Continuous
 62
     2
370
     9
100
AcDbLine
 10
232.0495605468753
 20
433.5809361229474
 30
0.0
 11
233.2993172310498
 21
433.5809361229474
 31
0.0
  0
LINE
  5
42A
330
1F
100
AcDbEntity
  8
1-A
  6
Continuous
 62
     2
370
     9
100
AcDbLine
 10
240.7995894148547
 20
427.330977362918
 30
0.0
 11
240.7995894148547
 21
433.5809361229474
 31
0.0
  0
LINE
  5
42B
330
1F
100
AcDbEntity
  8
1-2ﾚｲﾔ
  6
Continuous
 62
     3
370
     9
100
AcDbLine
 10
279.5495935388516
 20
359.8313732666343
 30
0.0
 11
279.5495935388516
 21
433.5809361229474
 31
0.0
  0
LINE
  5
42C
330
1F
100
AcDbEntity
  8
1-2ﾚｲﾔ
  6
Continuous
 62
     3
370
     9
100
AcDbLine
 10
264.5492966110646
 20
359.8313732666343
 30
0.0
 11
264.5492966110646
 21
433.5809361229474
 31
0.0
  0
LINE
  5
42D
330
1F
100
AcDbEntity
  8
1-0ﾚｲﾔ
  6
Continuous
 62
     4
370
     9
100
AcDbLine
 10
313.4455088022597
 20
435.9249954227257
 30
0.0
 11
314.4029771959461
 21
451.2369428071219
 31
0.0
  0
LINE
  5
42E
330
1F
100
AcDbEntity
  8
1-0ﾚｲﾔ
  6
Continuous
 62
     4
370
     9
100
AcDbLine
 10
230.6533813476565
 20
435.9249954227257
 30
0.0
 11
229.69591295397
 21
451.2369428071219
 31
0.0
  0
LINE
  5
42F
330
1F
100
AcDbEntity
  8
1-0ﾚｲﾔ
  6
Continuous
 62
     4
370
     9
100
AcDbLine
 10
203.2997131347659
 20
453.5808783869888
 30
0.0
 11
340.7991770151503
 21
453.5808783869888
 31
0.0
  0
LINE
  5
430
330
1F
100
AcDbEntity
  8
1-0ﾚｲﾔ
  6
Continuous
 62
     4
370
     9
100
AcDbLine
 10
249.5103372109907
 20
433.893576338847
 30
0.0
 11
249.549432702967
 21
433.5809361229474
 31
0.0
  0
LINE
  5
431
330
1F
100
AcDbEntity
  8
1-0ﾚｲﾔ
  6
Continuous
 62
     4
370
     9
100
AcDbLine
 10
292.8702689505914
 20
439.5111407721769
 30
0.0
 11
293.2990203032625
 21
436.0809443709416
 31
0.0
  0
LINE
  5
432
330
1F
100
AcDbEntity
  8
1-0ﾚｲﾔ
  6
Continuous
 62
     4
370
     9
100
AcDbLine
 10
258.6707450248102
 20
446.0808536430067
 30
0.0
 11
285.428145125106
 21
446.0808536430067
 31
0.0
  0
LINE
  5
433
330
1F
100
AcDbEntity
  8
1-0ﾚｲﾔ
  6
Continuous
 62
     4
370
     9
100
AcDbLine
 10
251.2286211993248
 20
439.5111407721769
 30
0.0
 11
250.7998698466537
 21
436.0809443709416
 31
0.0
  0
ARC
  5
434
330
1F
100
AcDbEntity
  8
1-2ﾚｲﾔ
  6
Continuous
 62
     3
370
     9
100
AcDbCircle
 10
267.0497378787482
 20
336.0813567706459
 30
0.0
 40
2.500000273859179
100
AcDbArc
 50
180.0
 51
270.0
  0
ARC
  5
435
330
1F
100
AcDbEntity
  8
1-2ﾚｲﾔ
  6
Continuous
 62
     3
370
     9
100
AcDbCircle
 10
277.049894590636
 20
336.0813567706459
 30
0.0
 40
2.500000273859179
100
AcDbArc
 50
270.0
 51
0.0
  0
ARC
  5
436
330
1F
100
AcDbEntity
  8
1-0ﾚｲﾔ
  6
Continuous
 62
     4
370
     9
100
AcDbCircle
 10
339.5492347511089
 20
456.0808866349828
 30
0.0
 40
1.250000016109364
100
AcDbArc
 50
0.0
 51
84.00610351562501
  0
ARC
  5
437
330
1F
100
AcDbEntity
  8
1-0ﾚｲﾔ
  6
Continuous
 62
     4
370
     9
100
AcDbCircle
 10
204.5497172587629
 20
456.0808866349828
 30
0.0
 40
1.250000016109364
100
AcDbArc
 50
95.993896484375
 51
180.0
  0
ARC
  5
438
330
1F
100
AcDbEntity
  8
1-A
  6
Continuous
 62
     2
370
     9
100
AcDbCircle
 10
307.6742842390735
 20
434.362227362918
 30
0.0
 40
8.281277321480419
100
AcDbArc
 50
238.1089477539062
 51
301.8907012939453
  0
ARC
  5
439
330
1F
100
AcDbEntity
  8
1-A
  6
Continuous
 62
     2
370
     9
100
AcDbCircle
 10
298.9243172310498
 20
434.362227362918
 30
0.0
 40
8.281277321480419
100
AcDbArc
 50
238.1092987060547
 51
301.8910522460938
  0
ARC
  5
43A
330
1F
100
AcDbEntity
  8
1-A
  6
Continuous
 62
     2
370
     9
100
AcDbCircle
 10
236.4245440508873
 20
434.362227362918
 30
0.0
 40
8.281277321480419
100
AcDbArc
 50
238.1092987060547
 51
301.8910522460938
  0
ARC
  5
43B
330
1F
100
AcDbEntity
  8
1-A
  6
Continuous
 62
     2
370
     9
100
AcDbCircle
 10
245.1746347788222
 20
434.362227362918
 30
0.0
 40
8.281277321480419
100
AcDbArc
 50
238.1089477539062
 51
301.8907012939453
  0
ARC
  5
43C
330
1F
100
AcDbEntity
  8
1-0ﾚｲﾔ
  6
Continuous
 62
     4
370
     9
100
AcDbCircle
 10
316.8980985074433
 20
451.0809319989505
 30
0.0
 40
2.500000032218727
100
AcDbArc
 50
90.0
 51
176.4221649169922
  0
ARC
  5
43D
330
1F
100
AcDbEntity
  8
1-0ﾚｲﾔ
  6
Continuous
 62
     4
370
     9
100
AcDbCircle
 10
310.9503874907625
 20
436.0810062308973
 30
0.0
 40
2.500000032218727
100
AcDbArc
 50
270.0
 51
356.4221649169922
  0
ARC
  5
43E
330
1F
100
AcDbEntity
  8
1-0ﾚｲﾔ
  6
Continuous
 62
     4
370
     9
100
AcDbCircle
 10
227.200791642473
 20
451.0809319989505
 30
0.0
 40
2.500000032218727
100
AcDbArc
 50
3.577835083007803
 51
89.99999999999999
  0
ARC
  5
43F
330
1F
100
AcDbEntity
  8
1-0ﾚｲﾔ
  6
Continuous
 62
     4
370
     9
100
AcDbCircle
 10
233.1485026591537
 20
436.0810062308973
 30
0.0
 40
2.500000032218727
100
AcDbArc
 50
183.5778350830078
 51
270.0
  0
ARC
  5
440
330
1F
100
AcDbEntity
  8
1-0ﾚｲﾔ
  6
Continuous
 62
     4
370
     9
100
AcDbCircle
 10
295.7990285512568
 20
436.0809443709416
 30
0.0
 40
2.500000032218727
100
AcDbArc
 50
180.0
 51
270.0
  0
ARC
  5
441
330
1F
100
AcDbEntity
  8
1-0ﾚｲﾔ
  6
Continuous
 62
     4
370
     9
100
AcDbCircle
 10
248.2998615986594
 20
436.0809443709416
 30
0.0
 40
2.500000032218727
100
AcDbArc
 50
270.0
 51
0.0
  0
ARC
  5
442
330
1F
100
AcDbEntity
  8
1-0ﾚｲﾔ
  6
Continuous
 62
     4
370
     9
100
AcDbCircle
 10
285.428145125106
 20
438.5808288990242
 30
0.0
 40
7.500000096656181
100
AcDbArc
 50
7.125366210937503
 51
90.00000000000001
  0
ARC
  5
443
330
1F
100
AcDbEntity
  8
1-0ﾚｲﾔ
  6
Continuous
 62
     4
370
     9
100
AcDbCircle
 10
258.6707450248102
 20
438.5808288990242
 30
0.0
 40
7.500000096656181
100
AcDbArc
 50
90.0
 51
172.8746337890625
  0
LINE
  5
444
330
1F
100
AcDbEntity
  8
1-3ﾚｲﾔ
  6
Continuous
 62
     3
370
     9
100
AcDbLine
 10
308.299440950961
 20
409.3308849853843
 30
0.0
 11
308.299440950961
 21
417.3308618910008
 31
0.0
  0
LINE
  5
445
330
1F
100
AcDbEntity
  8
1-3ﾚｲﾔ
  6
Continuous
 62
     3
370
     9
100
AcDbLine
 10
235.7994491989552
 20
409.3308849853843
 30
0.0
 11
235.7994491989552
 21
417.3308618910008
 31
0.0
  0
LINE
  5
446
330
1F
100
AcDbEntity
  8
1-D
  6
Continuous
 62
     7
370
     9
100
AcDbLine
 10
223.2994079589847
 20
417.3308618910008
 30
0.0
 11
223.2994079589847
 21
453.5808783869888
 31
0.0
  0
LINE
  5
447
330
1F
100
AcDbEntity
  8
1-D
  6
Continuous
 62
     7
370
     9
100
AcDbLine
 10
320.7994821909315
 20
417.3308618910008
 30
0.0
 11
320.7994821909315
 21
453.5808783869888
 31
0.0
  0
LINE
  5
448
330
1F
100
AcDbEntity
  8
1-A
  6
Continuous
 62
     2
370
     9
100
AcDbLine
 10
298.2989130793393
 20
426.0809113789653
 30
0.0
 11
298.2989130793393
 21
422.330878386989
 31
0.0
  0
LINE
  5
449
330
1F
100
AcDbEntity
  8
1-A
  6
Continuous
 62
     2
370
     9
100
AcDbLine
 10
308.2990697912271
 20
426.0809113789653
 30
0.0
 11
308.2990697912271
 21
422.330878386989
 31
0.0
  0
LINE
  5
44A
330
1F
100
AcDbEntity
  8
1-A
  6
Continuous
 62
     2
370
     9
100
AcDbLine
 10
306.7988421465904
 20
426.0809113789653
 30
0.0
 11
306.7988421465904
 21
422.330878386989
 31
0.0
  0
LINE
  5
44B
330
1F
100
AcDbEntity
  8
1-A
  6
Continuous
 62
     2
370
     9
100
AcDbLine
 10
299.7991407239763
 20
426.0809113789653
 30
0.0
 11
299.7991407239763
 21
422.330878386989
 31
0.0
  0
ARC
  5
44C
330
1F
100
AcDbEntity
  8
1-A
  6
Continuous
 62
     2
370
     9
100
AcDbCircle
 10
311.5489753516945
 20
386.580710952709
 30
0.0
 40
1.250000016109364
100
AcDbArc
 50
120.0003967285156
 51
180.0
  0
ARC
  5
44D
330
1F
100
AcDbEntity
  8
1-A
  6
Continuous
 62
     2
370
     9
100
AcDbCircle
 10
311.6481368606156
 20
390.2080859626066
 30
0.0
 40
5.873256277393651
100
AcDbArc
 50
90.0
 51
124.1535186767578
  0
ARC
  5
44E
330
1F
100
AcDbEntity
  8
1-A
  6
Continuous
 62
     2
370
     9
100
AcDbCircle
 10
311.6481368606156
 20
393.9545413871473
 30
0.0
 40
5.873256277393651
100
AcDbArc
 50
235.8464813232422
 51
270.0
  0
ARC
  5
44F
330
1F
100
AcDbEntity
  8
1-A
  6
Continuous
 62
     2
370
     9
100
AcDbCircle
 10
295.0489765888938
 20
386.580710952709
 30
0.0
 40
1.250000016109364
100
AcDbArc
 50
0.0
 51
59.99960327148438
  0
ARC
  5
450
330
1F
100
AcDbEntity
  8
1-A
  6
Continuous
 62
     2
370
     9
100
AcDbCircle
 10
303.2989914352831
 20
388.0813097570799
 30
0.0
 40
7.500000096656181
100
AcDbArc
 50
201.0391845703125
 51
338.9608154296875
  0
ARC
  5
451
330
1F
100
AcDbEntity
  8
1-A
  6
Continuous
 62
     2
370
     9
100
AcDbCircle
 10
294.9498460099505
 20
390.2080859626066
 30
0.0
 40
5.873256277393651
100
AcDbArc
 50
55.84648132324219
 51
90.0
  0
ARC
  5
452
330
1F
100
AcDbEntity
  8
1-A
  6
Continuous
 62
     2
370
     9
100
AcDbCircle
 10
303.2989914352831
 20
382.9772138856958
 30
0.0
 40
13.10409210823678
100
AcDbArc
 50
67.32431030273438
 51
112.6756896972656
  0
ARC
  5
453
330
1F
100
AcDbEntity
  8
1-A
  6
Continuous
 62
     2
370
     9
100
AcDbCircle
 10
294.9498460099505
 20
393.9545413871473
 30
0.0
 40
5.873256277393651
100
AcDbArc
 50
270.0
 51
304.1535186767578
  0
ARC
  5
454
330
1F
100
AcDbEntity
  8
1-A
  6
Continuous
 62
     2
370
     9
100
AcDbCircle
 10
303.2989914352831
 20
401.1853825340803
 30
0.0
 40
13.10409210823678
100
AcDbArc
 50
247.3243103027344
 51
292.6756896972656
  0
LINE
  5
455
330
1F
100
AcDbEntity
  8
1-A
  6
Continuous
 62
     2
370
     9
100
AcDbLine
 10
308.2996265308279
 20
399.3312850130974
 30
0.0
 11
308.2996265308279
 21
396.0813175926741
 31
0.0
  0
LINE
  5
456
330
1F
100
AcDbEntity
  8
1-A
  6
Continuous
 62
     2
370
     9
100
AcDbLine
 10
306.7993988861912
 20
399.3312850130974
 30
0.0
 11
306.7993988861912
 21
396.0813175926741
 31
0.0
  0
LINE
  5
457
330
1F
100
AcDbEntity
  8
1-A
  6
Continuous
 62
     2
370
     9
100
AcDbLine
 10
299.7996974635771
 20
399.3312850130974
 30
0.0
 11
299.7996974635771
 21
396.0813175926741
 31
0.0
  0
LINE
  5
458
330
1F
100
AcDbEntity
  8
1-A
  6
Continuous
 62
     2
370
     9
100
AcDbLine
 10
298.2994698189401
 20
399.3312850130974
 30
0.0
 11
298.2994698189401
 21
396.0813175926741
 31
0.0
  0
LINE
  5
459
330
1F
100
AcDbEntity
  8
1-A
  6
Continuous
 62
     2
370
     9
100
AcDbLine
 10
294.9498460099505
 20
388.0813097570799
 30
0.0
 11
311.6481368606156
 21
388.0813097570799
 31
0.0
  0
LINE
  5
45A
330
1F
100
AcDbEntity
  8
1-A
  6
Continuous
 62
     2
370
     9
100
AcDbLine
 10
294.9497841499948
 20
396.0813175926741
 30
0.0
 11
311.6481987205714
 21
396.0813175926741
 31
0.0
  0
LINE
  5
45B
330
1F
100
AcDbEntity
  8
1-A
  6
Continuous
 62
     2
370
     9
100
AcDbLine
 10
311.6481987205714
 20
396.0813175926741
 30
0.0
 11
313.4025779930323
 21
395.0683917487394
 31
0.0
  0
LINE
  5
45C
330
1F
100
AcDbEntity
  8
1-A
  6
Continuous
 62
     2
370
     9
100
AcDbLine
 10
308.3507847141576
 20
389.0942046710367
 30
0.0
 11
308.3507847141576
 21
395.0683917487394
 31
0.0
  0
LINE
  5
45D
330
1F
100
AcDbEntity
  8
1-A
  6
Continuous
 62
     2
370
     9
100
AcDbLine
 10
298.2471672264307
 20
389.0942046710367
 30
0.0
 11
298.2471672264307
 21
395.0683917487394
 31
0.0
  0
LINE
  5
45E
330
1F
100
AcDbEntity
  8
1-A
  6
Continuous
 62
     2
370
     9
100
AcDbLine
 10
313.4025779930323
 20
389.0942046710367
 30
0.0
 11
313.4025779930323
 21
395.0683917487394
 31
0.0
  0
LINE
  5
45F
330
1F
100
AcDbEntity
  8
1-A
  6
Continuous
 62
     2
370
     9
100
AcDbLine
 10
310.2989712276977
 20
385.3887314671199
 30
0.0
 11
310.2989712276977
 21
386.580710952709
 31
0.0
  0
LINE
  5
460
330
1F
100
AcDbEntity
  8
1-A
  6
Continuous
 62
     2
370
     9
100
AcDbLine
 10
310.9239732896958
 20
387.663198316782
 30
0.0
 11
313.4025779930323
 21
389.0942046710367
 31
0.0
  0
LINE
  5
461
330
1F
100
AcDbEntity
  8
1-A
  6
Continuous
 62
     2
370
     9
100
AcDbLine
 10
295.6739786508922
 20
387.663198316782
 30
0.0
 11
293.195373947556
 21
389.0942046710367
 31
0.0
  0
LINE
  5
462
330
1F
100
AcDbEntity
  8
1-A
  6
Continuous
 62
     2
370
     9
100
AcDbLine
 10
296.298949782913
 20
386.580710952709
 30
0.0
 11
296.298949782913
 21
385.3887314671199
 31
0.0
  0
LINE
  5
463
330
1F
100
AcDbEntity
  8
1-A
  6
Continuous
 62
     2
370
     9
100
AcDbLine
 10
294.9497841499948
 20
396.0813175926741
 30
0.0
 11
293.195373947556
 21
395.0683917487394
 31
0.0
  0
LINE
  5
464
330
1F
100
AcDbEntity
  8
1-A
  6
Continuous
 62
     2
370
     9
100
AcDbLine
 10
293.195373947556
 20
389.0942046710367
 30
0.0
 11
293.195373947556
 21
395.0683917487394
 31
0.0
  0
LINE
  5
465
330
1F
100
AcDbEntity
  8
1-A
  6
Continuous
 62
     2
370
     9
100
AcDbLine
 10
250.2987423458617
 20
409.3305138256504
 30
0.0
 11
250.2987423458617
 21
406.8308767373901
 31
0.0
  0
LINE
  5
466
330
1F
100
AcDbEntity
  8
1-A
  6
Continuous
 62
     2
370
     9
100
AcDbLine
 10
250.2987423458617
 20
406.8308767373901
 30
0.0
 11
231.2991992847344
 21
406.8308767373901
 31
0.0
  0
LINE
  5
467
330
1F
100
AcDbEntity
  8
1-A
  6
Continuous
 62
     2
370
     9
100
AcDbLine
 10
231.2991992847344
 20
409.3305138256504
 30
0.0
 11
231.2991992847344
 21
406.8308767373901
 31
0.0
  0
LINE
  5
468
330
1F
100
AcDbEntity
  8
1-A
  6
Continuous
 62
     2
370
     9
100
AcDbLine
 10
249.5495564228781
 20
406.8308767373901
 30
0.0
 11
249.5495564228781
 21
400.5809179773607
 31
0.0
  0
LINE
  5
469
330
1F
100
AcDbEntity
  8
1-A
  6
Continuous
 62
     2
370
     9
100
AcDbLine
 10
232.049622406831
 20
406.8308767373901
 30
0.0
 11
232.049622406831
 21
400.5809179773607
 31
0.0
  0
LINE
  5
46A
330
1F
100
AcDbEntity
  8
1-A
  6
Continuous
 62
     2
370
     9
100
AcDbLine
 10
240.7995894148547
 20
400.5809179773607
 30
0.0
 11
240.7995894148547
 21
406.8308767373901
 31
0.0
  0
ARC
  5
46B
330
1F
100
AcDbEntity
  8
1-A
  6
Continuous
 62
     2
370
     9
100
AcDbCircle
 10
236.4246059108427
 20
407.6121679773607
 30
0.0
 40
8.281277321480419
100
AcDbArc
 50
238.1092987060547
 51
301.8910522460938
  0
ARC
  5
46C
330
1F
100
AcDbEntity
  8
1-A
  6
Continuous
 62
     2
370
     9
100
AcDbCircle
 10
245.1745729188664
 20
407.6121679773607
 30
0.0
 40
8.281277321480419
100
AcDbArc
 50
238.1089477539062
 51
301.8907012939453
  0
LINE
  5
46D
330
1F
100
AcDbEntity
  8
1-A
  6
Continuous
 62
     2
370
     9
100
AcDbLine
 10
305.7986285235435
 20
409.3308849853843
 30
0.0
 11
305.7986285235435
 21
406.8311860371684
 31
0.0
  0
LINE
  5
46E
330
1F
100
AcDbEntity
  8
1-A
  6
Continuous
 62
     2
370
     9
100
AcDbLine
 10
307.0486945074961
 20
409.3308849853843
 30
0.0
 11
307.0486945074961
 21
406.8311860371684
 31
0.0
  0
LINE
  5
46F
330
1F
100
AcDbEntity
  8
1-A
  6
Continuous
 62
     2
370
     9
100
AcDbLine
 10
312.7984536660688
 20
409.3305138256504
 30
0.0
 11
312.7984536660688
 21
406.8308767373901
 31
0.0
  0
LINE
  5
470
330
1F
100
AcDbEntity
  8
1-A
  6
Continuous
 62
     2
370
     9
100
AcDbLine
 10
312.7984536660688
 20
406.8308767373901
 30
0.0
 11
293.7989106049412
 21
406.8308767373901
 31
0.0
  0
LINE
  5
471
330
1F
100
AcDbEntity
  8
1-A
  6
Continuous
 62
     2
370
     9
100
AcDbLine
 10
293.7989106049412
 20
409.3305138256504
 30
0.0
 11
293.7989106049412
 21
406.8308767373901
 31
0.0
  0
LINE
  5
472
330
1F
100
AcDbEntity
  8
1-A
  6
Continuous
 62
     2
370
     9
100
AcDbLine
 10
312.0492677430852
 20
406.8308767373901
 30
0.0
 11
312.0492677430852
 21
400.5809179773607
 31
0.0
  0
LINE
  5
473
330
1F
100
AcDbEntity
  8
1-A
  6
Continuous
 62
     2
370
     9
100
AcDbLine
 10
294.5493337270381
 20
406.8308767373901
 30
0.0
 11
294.5493337270381
 21
400.5809179773607
 31
0.0
  0
LINE
  5
474
330
1F
100
AcDbEntity
  8
1-A
  6
Continuous
 62
     2
370
     9
100
AcDbLine
 10
303.2993007350615
 20
400.5809179773607
 30
0.0
 11
303.2993007350615
 21
406.8308767373901
 31
0.0
  0
ARC
  5
475
330
1F
100
AcDbEntity
  8
1-A
  6
Continuous
 62
     2
370
     9
100
AcDbCircle
 10
307.6742842390735
 20
407.6121679773607
 30
0.0
 40
8.281277321480419
100
AcDbArc
 50
238.1089477539062
 51
301.8907012939453
  0
ARC
  5
476
330
1F
100
AcDbEntity
  8
1-A
  6
Continuous
 62
     2
370
     9
100
AcDbCircle
 10
298.9243172310498
 20
407.6121679773607
 30
0.0
 40
8.281277321480419
100
AcDbArc
 50
238.1092987060547
 51
301.8910522460938
  0
LINE
  5
477
330
1F
100
AcDbEntity
  8
1-B
  6
Continuous
 62
     7
370
     9
100
AcDbLine
 10
221.8201508393179
 20
417.3308618910008
 30
0.0
 11
216.8200106234184
 21
422.330878386989
 31
0.0
  0
LINE
  5
478
330
1F
100
AcDbEntity
  8
1-B
  6
Continuous
 62
     7
370
     9
100
AcDbLine
 10
216.5168968406905
 20
417.3308618910008
 30
0.0
 11
211.5167566247911
 21
422.330878386989
 31
0.0
  0
LINE
  5
479
330
1F
100
AcDbEntity
  8
1-B
  6
Continuous
 62
     7
370
     9
100
AcDbLine
 10
211.2136428420632
 20
417.3308618910008
 30
0.0
 11
206.2135026261637
 21
422.330878386989
 31
0.0
  0
LINE
  5
47A
330
1F
100
AcDbEntity
  8
1-B
  6
Continuous
 62
     7
370
     9
100
AcDbLine
 10
205.9103888434359
 20
417.3308618910008
 30
0.0
 11
200.9102486275364
 21
422.330878386989
 31
0.0
  0
LINE
  5
47B
330
1F
100
AcDbEntity
  8
1-B
  6
Continuous
 62
     7
370
     9
100
AcDbLine
 10
200.6071348448086
 20
417.3308618910008
 30
0.0
 11
195.6069946289091
 21
422.330878386989
 31
0.0
  0
LINE
  5
47C
330
1F
100
AcDbEntity
  8
1-B
  6
Continuous
 62
     7
370
     9
100
AcDbLine
 10
195.3038808461812
 20
417.3308618910008
 30
0.0
 11
190.3037406302818
 21
422.330878386989
 31
0.0
  0
LINE
  5
47D
330
1F
100
AcDbEntity
  8
1-B
  6
Continuous
 62
     7
370
     9
100
AcDbLine
 10
190.0006268475539
 20
417.3308618910008
 30
0.0
 11
185.0004866316544
 21
422.330878386989
 31
0.0
  0
LINE
  5
47E
330
1F
100
AcDbEntity
  8
1-B
  6
Continuous
 62
     7
370
     9
100
AcDbLine
 10
184.6973728489266
 20
417.3308618910008
 30
0.0
 11
179.6972326330271
 21
422.330878386989
 31
0.0
  0
LINE
  5
47F
330
1F
100
AcDbEntity
  8
1-B
  6
Continuous
 62
     7
370
     9
100
AcDbLine
 10
179.3941188502993
 20
417.3308618910008
 30
0.0
 11
174.3939786343998
 21
422.330878386989
 31
0.0
  0
LINE
  5
480
330
1F
100
AcDbEntity
  8
1-B
  6
Continuous
 62
     7
370
     9
100
AcDbLine
 10
223.2994079589847
 20
421.1547641517038
 30
0.0
 11
222.1232646220457
 21
422.330878386989
 31
0.0
  0
TEXT
  5
481
330
1F
100
AcDbEntity
  8
1-0ﾚｲﾔ
  6
Continuous
 62
     7
370
     9
100
AcDbText
 10
253.4411736287068
 20
638.5388134851446
 30
0.0
 40
11.43
  1
把手カバー
 50
0.0000429614057315
 41
1.133333333333334
  7
ＭＳ ゴシック
100
AcDbText
  0
TEXT
  5
482
330
1F
100
AcDbEntity
  8
1-0ﾚｲﾔ
  6
Continuous
 62
     7
370
     9
100
AcDbText
 10
229.9450453806272
 20
616.6933413040074
 30
0.0
 40
11.43
  1
（ＳＣＳ１３）
 41
1.142857142857143
  7
ＭＳ ゴシック
100
AcDbText
  0
LINE
  5
483
330
1F
100
AcDbEntity
  8
1-0ﾚｲﾔ
  6
Continuous
 62
     7
370
     9
100
AcDbLine
 10
234.2732798237222
 20
631.5403411456459
 30
0.0
 11
365.4842067409211
 21
631.5403411456459
 31
0.0
  0
LINE
  5
484
330
1F
100
AcDbEntity
  8
1-4ﾚｲﾔ
  6
Continuous
 62
     7
370
     9
100
AcDbLine
 10
365.4842067409211
 20
631.5403411456459
 30
0.0
 11
260.7582544491274
 21
459.8315794664862
 31
0.0
  0
LINE
  5
485
330
1F
100
AcDbEntity
  8
1-4ﾚｲﾔ
  6
Continuous
 62
     7
370
     9
100
AcDbLine
 10
260.5492644963507
 20
459.8315794664862
 30
0.0
 11
265.6093861319255
 21
471.2615912352111
 31
0.0
  0
LINE
  5
486
330
1F
100
AcDbEntity
  8
1-4ﾚｲﾔ
  6
Continuous
 62
     7
370
     9
100
AcDbLine
 10
260.5492644963507
 20
459.8315794664862
 30
0.0
 11
268.3952713998085
 21
469.5624671788635
 31
0.0
  0
LINE
  5
487
330
1F
100
AcDbEntity
  8
1-D
  6
Continuous
 62
     7
370
     9
100
AcDbLine
 10
203.2997131347659
 20
453.5808783869888
 30
0.0
 11
135.8808362806167
 21
453.5808783869888
 31
0.0
  0
LINE
  5
488
330
1F
100
AcDbEntity
  8
1-3ﾚｲﾔ
  6
Continuous
 62
     3
370
     9
100
AcDbLine
 10
264.5492966110646
 20
409.3308849853843
 30
0.0
 11
135.8808362806167
 21
409.3308849853843
 31
0.0
  0
LINE
  5
489
330
1F
100
AcDbEntity
  8
1-D
  6
Continuous
 62
     7
370
     9
100
AcDbLine
 10
135.8808362806167
 20
422.330878386989
 30
0.0
 11
264.5492966110646
 21
422.330878386989
 31
0.0
  0
LINE
  5
48A
330
1F
100
AcDbEntity
  8
1-3ﾚｲﾔ
  6
Continuous
 62
     3
370
     9
100
AcDbLine
 10
264.5492966110646
 20
417.3308618910008
 30
0.0
 11
135.8808362806167
 21
417.3308618910008
 31
0.0
  0
LINE
  5
48B
330
1F
100
AcDbEntity
  8
1-B
  6
Continuous
 62
     7
370
     9
100
AcDbLine
 10
223.2994079589847
 20
446.0806474431546
 30
0.0
 11
135.8808362806167
 21
446.0806474431546
 31
0.0
  0
LINE
  5
48C
330
1F
100
AcDbEntity
  8
1-B
  6
Continuous
 62
     7
370
     9
100
AcDbLine
 10
223.2994079589847
 20
431.08059795519
 30
0.0
 11
135.8808362806167
 21
431.08059795519
 31
0.0
  0
LINE
  5
48D
330
1F
100
AcDbEntity
  8
1-B
  6
Continuous
 62
     7
370
     9
100
AcDbLine
 10
223.2994079589847
 20
438.5806226991723
 30
0.0
 11
135.8808362806167
 21
438.5806226991723
 31
0.0
  0
LINE
  5
48E
330
1F
100
AcDbEntity
  8
1-B
  6
Continuous
 62
     7
370
     9
100
AcDbLine
 10
174.0908648516719
 20
417.3308618910008
 30
0.0
 11
169.0907246357725
 21
422.330878386989
 31
0.0
  0
LINE
  5
48F
330
1F
100
AcDbEntity
  8
1-B
  6
Continuous
 62
     7
370
     9
100
AcDbLine
 10
168.7876108530446
 20
417.3308618910008
 30
0.0
 11
163.7874706371451
 21
422.330878386989
 31
0.0
  0
LINE
  5
490
330
1F
100
AcDbEntity
  8
1-B
  6
Continuous
 62
     7
370
     9
100
AcDbLine
 10
163.4843568544173
 20
417.3308618910008
 30
0.0
 11
158.4842166385178
 21
422.330878386989
 31
0.0
  0
LINE
  5
491
330
1F
100
AcDbEntity
  8
1-B
  6
Continuous
 62
     7
370
     9
100
AcDbLine
 10
158.18110285579
 20
417.3308618910008
 30
0.0
 11
153.1809626398905
 21
422.330878386989
 31
0.0
  0
LINE
  5
492
330
1F
100
AcDbEntity
  8
1-B
  6
Continuous
 62
     7
370
     9
100
AcDbLine
 10
152.8778488571626
 20
417.3308618910008
 30
0.0
 11
147.8777086412632
 21
422.330878386989
 31
0.0
  0
LINE
  5
493
330
1F
100
AcDbEntity
  8
1-B
  6
Continuous
 62
     7
370
     9
100
AcDbLine
 10
147.5745948585353
 20
417.3308618910008
 30
0.0
 11
142.5744546426358
 21
422.330878386989
 31
0.0
  0
LINE
  5
494
330
1F
100
AcDbEntity
  8
1-B
  6
Continuous
 62
     7
370
     9
100
AcDbLine
 10
142.271340859908
 20
417.3308618910008
 30
0.0
 11
137.2712006440085
 21
422.330878386989
 31
0.0
  0
LINE
  5
495
330
1F
100
AcDbEntity
  8
1-B
  6
Continuous
 62
     7
370
     9
100
AcDbLine
 10
136.9680868612807
 20
417.3308618910008
 30
0.0
 11
135.8808362806167
 21
418.4180855695101
 31
0.0
  0
LINE
  5
496
330
1F
100
AcDbEntity
  8
1-B
  6
Continuous
 62
     7
370
     9
100
AcDbLine
 10
380.5829847181167
 20
422.330878386989
 30
0.0
 11
279.5495935388516
 21
422.330878386989
 31
0.0
  0
LINE
  5
497
330
1F
100
AcDbEntity
  8
1-B
  6
Continuous
 62
     7
370
     9
100
AcDbLine
 10
341.475368190456
 20
417.3308618910008
 30
0.0
 11
336.4752279745565
 21
422.330878386989
 31
0.0
  0
LINE
  5
498
330
1F
100
AcDbEntity
  8
1-B
  6
Continuous
 62
     7
370
     9
100
AcDbLine
 10
336.1721141918284
 20
417.3308618910008
 30
0.0
 11
331.1719739759289
 21
422.330878386989
 31
0.0
  0
LINE
  5
499
330
1F
100
AcDbEntity
  8
1-B
  6
Continuous
 62
     7
370
     9
100
AcDbLine
 10
330.8688601932008
 20
417.3308618910008
 30
0.0
 11
325.8687199773013
 21
422.330878386989
 31
0.0
  0
LINE
  5
49A
330
1F
100
AcDbEntity
  8
1-B
  6
Continuous
 62
     7
370
     9
100
AcDbLine
 10
325.5656061945731
 20
417.3308618910008
 30
0.0
 11
320.7994821909315
 21
422.0968679650617
 31
0.0
  0
TEXT
  5
49B
330
1F
100
AcDbEntity
  8
1-F
  6
Continuous
 62
     7
370
     9
100
AcDbText
 10
182.058478764578
 20
-295.2536972946997
 30
0.0
 40
11.43
  1
把手カバ－
 41
1.133333333333333
  7
ＭＳ ゴシック
100
AcDbText
  0
TEXT
  5
49C
330
1F
100
AcDbEntity
  8
1-F
  6
Continuous
 62
     7
370
     9
100
AcDbText
 10
181.5586356314957
 20
-318.3193571012347
 30
0.0
 40
11.43
  1
ＳＣＳ１３
 41
1.133333333333333
  7
ＭＳ ゴシック
100
AcDbText
  0
LINE
  5
49D
330
1F
100
AcDbEntity
  8
1-F
  6
Continuous
 62
     7
370
     9
100
AcDbLine
 10
178.0597336999196
 20
-302.3537436814185
 30
0.0
 11
269.95032585525
 21
-302.3537436814185
 31
0.0
  0
LINE
  5
49E
330
1F
100
AcDbEntity
  8
1-F
  6
Continuous
 62
     7
370
     9
100
AcDbLine
 10
269.95032585525
 20
-302.3537436814185
 30
0.0
 11
314.807026981873
 21
-347.171876409594
 31
0.0
  0
LINE
  5
49F
330
1F
100
AcDbEntity
  8
1-F
  6
Continuous
 62
     7
370
     9
100
AcDbLine
 10
314.807026981873
 20
-347.171876409594
 30
0.0
 11
304.8868383555505
 21
-339.5666244336115
 31
0.0
  0
LINE
  5
4A0
330
1F
100
AcDbEntity
  8
1-F
  6
Continuous
 62
     7
370
     9
100
AcDbLine
 10
314.807026981873
 20
-347.171876409594
 30
0.0
 11
307.193244640237
 21
-337.2582333630549
 31
0.0
  0
LINE
  5
4A1
330
1F
100
AcDbEntity
  8
1-F
  6
Continuous
 62
     7
370
     9
100
AcDbLine
 10
310.157775860511
 20
-453.0189613805987
 30
0.0
 11
382.0013008415834
 21
-425.5265671239605
 31
0.0
  0
LINE
  5
4A2
330
1F
100
AcDbEntity
  8
1-F
  6
Continuous
 62
     7
370
     9
100
AcDbLine
 10
382.0013008415834
 20
-425.5265671239605
 30
0.0
 11
371.009885594794
 21
-431.4796159959794
 31
0.0
  0
LINE
  5
4A3
330
1F
100
AcDbEntity
  8
1-F
  6
Continuous
 62
     7
370
     9
100
AcDbLine
 10
382.0013008415834
 20
-425.5265671239605
 30
0.0
 11
369.8436465627374
 21
-428.4319831761052
 31
0.0
  0
LINE
  5
4A4
330
1F
100
AcDbEntity
  8
1-F
  6
Continuous
 62
     7
370
     9
100
AcDbLine
 10
197.4457183062285
 20
-453.0189613805987
 30
0.0
 11
310.157775860511
 21
-453.0189613805987
 31
0.0
  0
TEXT
  5
4A5
330
1F
100
AcDbEntity
  8
1-F
  6
Continuous
 62
     7
370
     9
100
AcDbText
 10
220.0517470833698
 20
-447.0526842611941
 30
0.0
 40
11.43
  1
把手本体
 41
1.125
  7
ＭＳ ゴシック
100
AcDbText
  0
TEXT
  5
4A6
330
1F
100
AcDbEntity
  8
1-F
  6
Continuous
 62
     7
370
     9
100
AcDbText
 10
202.9784850273369
 20
-471.4776317283015
 30
0.0
 40
11.43
  1
強化ナイロン
 41
1.138888888888889
  7
ＭＳ ゴシック
100
AcDbText
  0
LINE
  5
4A7
330
1F
100
AcDbEntity
  8
1-A
  6
JWW_CENTER1
 62
     2
370
     9
100
AcDbLine
 10
240.7995894148547
 20
425.0774191782683
 30
0.0
 11
240.7995894148547
 21
409.3308849853843
 31
0.0
  0
LINE
  5
4A8
330
1F
100
AcDbEntity
  8
1-A
  6
JWW_CENTER1
 62
     2
370
     9
100
AcDbLine
 10
303.2993007350615
 20
425.0774191782683
 30
0.0
 11
303.2993007350615
 21
409.3308849853843
 31
0.0
  0
LINE
  5
4A9
330
1F
100
AcDbEntity
  8
1-A
  6
JWW_CENTER1
 62
     2
370
     9
100
AcDbLine
 10
240.7995894148547
 20
455.303306992352
 30
0.0
 11
240.7995894148547
 21
434.5732935316258
 31
0.0
  0
LINE
  5
4AA
330
1F
100
AcDbEntity
  8
1-A
  6
JWW_CENTER1
 62
     2
370
     9
100
AcDbLine
 10
303.2993007350615
 20
455.303306992352
 30
0.0
 11
303.2993007350615
 21
434.5732935316258
 31
0.0
  0
LINE
  5
4AB
330
1F
100
AcDbEntity
  8
1-A
  6
JWW_CENTER1
 62
     2
370
     9
100
AcDbLine
 10
303.2993007350615
 20
401.7547992379101
 30
0.0
 11
303.2993007350615
 21
377.6793993751567
 31
0.0
  0
LINE
  5
4AC
330
1F
100
AcDbEntity
  8
1-A
  6
JWW_CENTER1
 62
     2
370
     9
100
AcDbLine
 10
240.7995894148547
 20
401.7547992379101
 30
0.0
 11
240.7995894148547
 21
377.6793993751567
 31
0.0
  0
LINE
  5
4AD
330
1F
100
AcDbEntity
  8
1-D
  6
Continuous
 62
     7
370
     9
100
AcDbLine
 10
229.5244819409847
 20
-384.6717526896813
 30
0.0
 11
234.5244365770172
 21
-389.6717073257138
 31
0.0
  0
LINE
  5
4AE
330
1F
100
AcDbEntity
  8
1-D
  6
Continuous
 62
     7
370
     9
100
AcDbLine
 10
234.8277827998865
 20
-384.6717526896786
 30
0.0
 11
239.827737435919
 21
-389.6717073257111
 31
0.0
  0
LINE
  5
4AF
330
1F
100
AcDbEntity
  8
1-D
  6
Continuous
 62
     7
370
     9
100
AcDbLine
 10
240.1310836587842
 20
-384.6717526896808
 30
0.0
 11
245.1310382948169
 21
-389.6717073257136
 31
0.0
  0
LINE
  5
4B0
330
1F
100
AcDbEntity
  8
1-D
  6
Continuous
 62
     7
370
     9
100
AcDbLine
 10
245.4343845176811
 20
-384.6717526896823
 30
0.0
 11
250.4343391537137
 21
-389.6717073257148
 31
0.0
  0
LINE
  5
4B1
330
1F
100
AcDbEntity
  8
1-D
  6
Continuous
 62
     7
370
     9
100
AcDbLine
 10
250.737685376583
 20
-384.6717526896796
 30
0.0
 11
255.7376400126155
 21
-389.6717073257121
 31
0.0
  0
LINE
  5
4B2
330
1F
100
AcDbEntity
  8
1-D
  6
Continuous
 62
     7
370
     9
100
AcDbLine
 10
256.0409862354813
 20
-384.6717526896825
 30
0.0
 11
261.040940871514
 21
-389.6717073257151
 31
0.0
  0
LINE
  5
4B3
330
1F
100
AcDbEntity
  8
1-D
  6
Continuous
 62
     7
370
     9
100
AcDbLine
 10
261.3442870943833
 20
-384.6717526896799
 30
0.0
 11
266.344241730416
 21
-389.6717073257126
 31
0.0
  0
LINE
  5
4B4
330
1F
100
AcDbEntity
  8
1-D
  6
Continuous
 62
     7
370
     9
100
AcDbLine
 10
266.6475879532794
 20
-384.6717526896805
 30
0.0
 11
271.6475425893119
 21
-389.671707325713
 31
0.0
  0
LINE
  5
4B5
330
1F
100
AcDbEntity
  8
1-D
  6
Continuous
 62
     7
370
     9
100
AcDbLine
 10
271.9508888121783
 20
-384.671752689684
 30
0.0
 11
276.9508434482111
 21
-389.6717073257167
 31
0.0
  0
LINE
  5
4B6
330
1F
100
AcDbEntity
  8
1-D
  6
Continuous
 62
     7
370
     9
100
AcDbLine
 10
277.2541896710804
 20
-384.6717526896816
 30
0.0
 11
282.2541443071131
 21
-389.6717073257142
 31
0.0
  0
LINE
  5
4B7
330
1F
100
AcDbEntity
  8
1-D
  6
Continuous
 62
     7
370
     9
100
AcDbLine
 10
282.5574905299759
 20
-384.6717526896816
 30
0.0
 11
287.5574451660083
 21
-389.671707325714
 31
0.0
  0
LINE
  5
4B8
330
1F
100
AcDbEntity
  8
1-D
  6
Continuous
 62
     7
370
     9
100
AcDbLine
 10
287.8607913888777
 20
-384.6717526896788
 30
0.0
 11
292.8607460249102
 21
-389.6717073257113
 31
0.0
  0
LINE
  5
4B9
330
1F
100
AcDbEntity
  8
1-D
  6
Continuous
 62
     7
370
     9
100
AcDbLine
 10
293.1640922477774
 20
-384.6717526896831
 30
0.0
 11
298.1640468838101
 21
-389.6717073257158
 31
0.0
  0
LINE
  5
4BA
330
1F
100
AcDbEntity
  8
1-D
  6
Continuous
 62
     7
370
     9
100
AcDbLine
 10
298.4673931066723
 20
-384.6717526896825
 30
0.0
 11
299.5012760976012
 21
-385.7056356806115
 31
0.0
  0
LINE
  5
4BB
330
1F
100
AcDbEntity
  8
1-D
  6
Continuous
 62
     7
370
     9
100
AcDbLine
 10
539.5013255855666
 20
-387.0571465181177
 30
0.0
 11
542.1158863931631
 21
-389.6717073257142
 31
0.0
  0
LINE
  5
4BC
330
1F
100
AcDbEntity
  8
1-D
  6
Continuous
 62
     7
370
     9
100
AcDbLine
 10
542.4192326160351
 20
-384.6717526896816
 30
0.0
 11
547.4191872520676
 21
-389.6717073257141
 31
0.0
  0
LINE
  5
4BD
330
1F
100
AcDbEntity
  8
1-D
  6
Continuous
 62
     7
370
     9
100
AcDbLine
 10
547.7225334749322
 20
-384.6717526896833
 30
0.0
 11
552.7224881109648
 21
-389.6717073257159
 31
0.0
  0
LINE
  5
4BE
330
1F
100
AcDbEntity
  8
1-D
  6
Continuous
 62
     7
370
     9
100
AcDbLine
 10
553.0258343338344
 20
-384.6717526896808
 30
0.0
 11
558.0257889698667
 21
-389.6717073257132
 31
0.0
  0
LINE
  5
4BF
330
1F
100
AcDbEntity
  8
1-D
  6
Continuous
 62
     7
370
     9
100
AcDbLine
 10
558.3291351927314
 20
-384.6717526896825
 30
0.0
 11
563.3290898287639
 21
-389.671707325715
 31
0.0
  0
LINE
  5
4C0
330
1F
100
AcDbEntity
  8
1-D
  6
Continuous
 62
     7
370
     9
100
AcDbLine
 10
563.6324360516262
 20
-384.6717526896817
 30
0.0
 11
568.6323906876587
 21
-389.6717073257142
 31
0.0
  0
LINE
  5
4C1
330
1F
100
AcDbEntity
  8
1-D
  6
Continuous
 62
     7
370
     9
100
AcDbLine
 10
568.9357369105305
 20
-384.6717526896816
 30
0.0
 11
573.935691546563
 21
-389.6717073257141
 31
0.0
  0
LINE
  5
4C2
330
1F
100
AcDbEntity
  8
1-D
  6
Continuous
 62
     7
370
     9
100
AcDbLine
 10
574.2390377694279
 20
-384.6717526896834
 30
0.0
 11
579.2389924054603
 21
-389.6717073257159
 31
0.0
  0
LINE
  5
4C3
330
1F
100
AcDbEntity
  8
1-D
  6
Continuous
 62
     7
370
     9
100
AcDbLine
 10
579.5423386283297
 20
-384.6717526896808
 30
0.0
 11
584.5422932643622
 21
-389.6717073257133
 31
0.0
  0
LINE
  5
4C4
330
1F
100
AcDbEntity
  8
1-D
  6
Continuous
 62
     7
370
     9
100
AcDbLine
 10
584.8456394872271
 20
-384.6717526896827
 30
0.0
 11
589.8455941232594
 21
-389.671707325715
 31
0.0
  0
LINE
  5
4C5
330
1F
100
AcDbEntity
  8
1-D
  6
Continuous
 62
     7
370
     9
100
AcDbLine
 10
590.1489403461217
 20
-384.6717526896817
 30
0.0
 11
595.1488949821542
 21
-389.6717073257142
 31
0.0
  0
LINE
  5
4C6
330
1F
100
AcDbEntity
  8
1-D
  6
Continuous
 62
     7
370
     9
100
AcDbLine
 10
595.4522412050262
 20
-384.6717526896817
 30
0.0
 11
600.4521958410586
 21
-389.6717073257142
 31
0.0
  0
LINE
  5
4C7
330
1F
100
AcDbEntity
  8
1-D
  6
Continuous
 62
     7
370
     9
100
AcDbLine
 10
600.7555420639235
 20
-384.6717526896836
 30
0.0
 11
605.7554966999558
 21
-389.6717073257159
 31
0.0
  0
LINE
  5
4C8
330
1F
100
AcDbEntity
  8
1-D
  6
Continuous
 62
     7
370
     9
100
AcDbLine
 10
606.0588429228253
 20
-384.6717526896809
 30
0.0
 11
610.7716651389878
 21
-389.3845749058435
 31
0.0
  0
LINE
  5
4C9
330
1F
100
AcDbEntity
  8
1-4ﾚｲﾔ
  6
Continuous
 62
     7
370
     9
100
AcDbLine
 10
272.0494450749581
 20
333.580977362918
 30
0.0
 11
266.9893007020696
 21
322.1509896359332
 31
0.0
  0
LINE
  5
4CA
330
1F
100
AcDbEntity
  8
1-4ﾚｲﾔ
  6
Continuous
 62
     7
370
     9
100
AcDbLine
 10
272.0494450749581
 20
333.580977362918
 30
0.0
 11
264.2033757390206
 21
323.8501588979686
 31
0.0
  0
LINE
  5
4CB
330
1F
100
AcDbEntity
  8
1-4ﾚｲﾔ
  6
Continuous
 62
     7
370
     9
100
AcDbLine
 10
249.1640828510892
 20
296.0580531694011
 30
0.0
 11
272.0494450749581
 21
333.580977362918
 31
0.0
  0
LINE
  5
4CC
330
1F
100
AcDbEntity
  8
1-0ﾚｲﾔ
  6
Continuous
 62
     7
370
     9
100
AcDbLine
 10
121.2407438742858
 20
296.0580531694011
 30
0.0
 11
249.1640828510892
 21
296.0580531694011
 31
0.0
  0
TEXT
  5
4CD
330
1F
100
AcDbEntity
  8
1-0ﾚｲﾔ
  6
Continuous
 62
     7
370
     9
100
AcDbText
 10
151.4524133626875
 20
301.4461871432187
 30
0.0
 40
11.43
  1
把手本体
 41
1.125
  7
ＭＳ ゴシック
100
AcDbText
  0
TEXT
  5
4CE
330
1F
100
AcDbEntity
  8
1-0ﾚｲﾔ
  6
Continuous
 62
     7
370
     9
100
AcDbText
 10
116.4524133626875
 20
278.835878470288
 30
0.0
 40
11.43
  1
（強化ナイロン）
 41
1.145833333333333
  7
ＭＳ ゴシック
100
AcDbText
  0
LINE
  5
4CF
330
1F
100
AcDbEntity
  8
1-4ﾚｲﾔ
  6
Continuous
 62
     7
370
     9
100
AcDbLine
 10
386.2333359931238
 20
240.9818347711024
 30
0.0
 11
470.1267551731419
 21
378.5339060606588
 31
0.0
  0
TEXT
  5
4D0
330
1F
100
AcDbEntity
  8
1-4ﾚｲﾔ
  6
Continuous
 62
     7
370
     9
100
AcDbText
 10
199.5241954889123
 20
223.3195900875595
 30
0.0
 40
11.43
  1
（軟質ポリ塩化ビニル）
 41
1.151515151515152
  7
ＭＳ ゴシック
100
AcDbText
  0
TEXT
  5
4D1
330
1F
100
AcDbEntity
  8
1-4ﾚｲﾔ
  6
Continuous
 62
     7
370
     9
100
AcDbText
 10
251.9316160703675
 20
247.029337501098
 30
0.0
 40
11.43
  1
クッション
 41
1.133333333333334
  7
ＭＳ ゴシック
100
AcDbText
  0
LINE
  5
4D2
330
1F
100
AcDbEntity
  8
1-4ﾚｲﾔ
  6
Continuous
 62
     7
370
     9
100
AcDbLine
 10
202.969503932321
 20
240.9818347711024
 30
0.0
 11
386.2333359931238
 21
240.9818347711024
 31
0.0
  0
LINE
  5
4D3
330
1F
100
AcDbEntity
  8
その他
  6
Continuous
 62
     7
370
     9
100
AcDbLine
 10
-535.6520947194927
 20
-63.58848674283848
 30
0.0
 11
-275.652039870332
 21
-63.58848674283848
 31
0.0
  0
LWPOLYLINE
  5
4D4
330
1F
100
AcDbEntity
  8
その他
  6
Continuous
 62
     7
370
     9
100
AcDbPolyline
 90
        4
 70
     1
 43
0.5
 10
-535.4020947194927
 20
-63.58848674283848
 42
0.4142135623731
 10
-535.6520947194927
 20
-63.33848674283847
 42
0.4142135623731
 10
-535.9020947194927
 20
-63.58848674283848
 42
0.4142135623731
 10
-535.6520947194927
 20
-63.83848674283848
 42
0.4142135623731
  0
LWPOLYLINE
  5
4D5
330
1F
100
AcDbEntity
  8
その他
  6
Continuous
 62
     7
370
     9
100
AcDbPolyline
 90
        4
 70
     1
 43
0.5
 10
-275.402039870332
 20
-63.58848674283848
 42
0.4142135623731
 10
-275.652039870332
 20
-63.33848674283847
 42
0.4142135623731
 10
-275.902039870332
 20
-63.58848674283848
 42
0.4142135623731
 10
-275.652039870332
 20
-63.83848674283848
 42
0.4142135623731
  0
LINE
  5
4D6
330
1F
100
AcDbEntity
  8
その他
  6
Continuous
 62
     7
370
     9
100
AcDbLine
 10
-535.6520947194927
 20
-65.08848674283848
 30
0.0
 11
-535.6520947194927
 21
-46.08352843766951
 31
0.0
  0
LINE
  5
4D7
330
1F
100
AcDbEntity
  8
その他
  6
Continuous
 62
     7
370
     9
100
AcDbLine
 10
-275.652039870332
 20
-65.08848674283848
 30
0.0
 11
-275.652039870332
 21
-45.36201777513412
 31
0.0
  0
TEXT
  5
4D8
330
1F
100
AcDbEntity
  8
その他
  6
Continuous
 62
     2
370
   211
100
AcDbText
 10
-421.9020672949124
 20
-57.76848674283848
 30
0.0
 40
15.24
  1
260
 41
1.083333333333333
  7
ＭＳ ゴシック
100
AcDbText
  0
TEXT
  5
4D9
330
1F
100
AcDbEntity
  8
1-4ﾚｲﾔ
  6
Continuous
 62
     7
370
     9
100
AcDbText
 10
526.4461909113704
 20
638.7158360582833
 30
0.0
 40
11.43
  1
底板　ｔ＝３．２
 41
1.145833333333333
  7
ＭＳ ゴシック
100
AcDbText
  0
TEXT
  5
4DA
330
1F
100
AcDbEntity
  8
1-4ﾚｲﾔ
  6
Continuous
 62
     7
370
     9
100
AcDbText
 10
526.4461909113704
 20
617.3926836422968
 30
0.0
 40
11.43
  1
溶融亜鉛めっき鋼板
 41
1.148148148148149
  7
ＭＳ ゴシック
100
AcDbText
  0
LINE
  5
4DB
330
1F
100
AcDbEntity
  8
1-4ﾚｲﾔ
  6
Continuous
 62
     7
370
     9
100
AcDbLine
 10
683.7550605010049
 20
633.6186913158847
 30
0.0
 11
517.6848128035263
 21
633.6186913158847
 31
0.0
  0
ENDSEC
  0
SECTION
  2
OBJECTS
  0
DICTIONARY
  5
C
330
0
100
AcDbDictionary
281
     1
  3
ACAD_GROUP
350
D
  3
ACAD_LAYOUT
350
1A
  3
ACAD_MLEADERSTYLE
350
4DD
  3
ACAD_MLINESTYLE
350
17
  3
ACAD_PLOTSETTINGS
350
19
  3
ACAD_PLOTSTYLENAME
350
E
  3
ACAD_TABLESTYLE
350
4DC
  3
ACAD_VISUALSTYLE
350
2A
  0
DICTIONARY
  5
D
102
{ACAD_REACTORS
330
C
102
}
330
C
100
AcDbDictionary
281
     1
  0
DICTIONARY
  5
1A
102
{ACAD_REACTORS
330
C
102
}
330
C
100
AcDbDictionary
281
     1
  3
Layout1
350
1E
  3
Layout2
350
26
  3
Model
350
22
  0
DICTIONARY
  5
4DD
102
{ACAD_REACTORS
330
C
102
}
330
C
100
AcDbDictionary
281
     1
  0
DICTIONARY
  5
17
102
{ACAD_REACTORS
330
C
102
}
330
C
100
AcDbDictionary
281
     1
  3
Standard
350
18
  0
DICTIONARY
  5
19
102
{ACAD_REACTORS
330
C
102
}
330
C
100
AcDbDictionary
281
     1
  0
ACDBDICTIONARYWDFLT
  5
E
102
{ACAD_REACTORS
330
C
102
}
330
C
100
AcDbDictionary
281
     1
  3
Normal
350
F
100
AcDbDictionaryWithDefault
340
F
  0
DICTIONARY
  5
4DC
102
{ACAD_REACTORS
330
C
102
}
330
C
100
AcDbDictionary
281
     1
  0
DICTIONARY
  5
2A
102
{ACAD_REACTORS
330
C
102
}
330
C
100
AcDbDictionary
281
     1
  3
2dWireframe
350
2F
  3
3D Hidden
350
31
  3
3dWireframe
350
30
  3
Basic
350
32
  3
Brighten
350
36
  3
ColorChange
350
3A
  3
Conceptual
350
34
  3
Dim
350
35
  3
Facepattern
350
39
  3
Flat
350
2B
  3
FlatWithEdges
350
2C
  3
Gouraud
350
2D
  3
GouraudWithEdges
350
2E
  3
Linepattern
350
38
  3
Realistic
350
33
  3
Thicken
350
37
  0
LAYOUT
  5
1E
102
{ACAD_REACTORS
330
1A
102
}
330
1A
100
AcDbPlotSettings
  1

  2
none_device
  4

  6

 40
0.0
 41
0.0
 42
0.0
 43
0.0
 44
0.0
 45
0.0
 46
0.0
 47
0.0
 48
0.0
 49
0.0
140
0.0
141
0.0
142
1.0
143
1.0
 70
   688
 72
     0
 73
     0
 74
     5
  7

 75
    16
 76
     0
 77
     5
 78
   300
147
1.0
148
0.0
149
0.0
100
AcDbLayout
  1
Layout1
 70
     1
 71
     1
 10
0.0
 20
0.0
 11
420.0
 21
297.0
 12
0.0
 22
0.0
 32
0.0
 14
1.000000000000000E+20
 24
1.000000000000000E+20
 34
1.000000000000000E+20
 15
-1.000000000000000E+20
 25
-1.000000000000000E+20
 35
-1.000000000000000E+20
146
0.0
 13
0.0
 23
0.0
 33
0.0
 16
1.0
 26
0.0
 36
0.0
 17
0.0
 27
1.0
 37
0.0
 76
     0
330
1B
  0
LAYOUT
  5
26
102
{ACAD_REACTORS
330
1A
102
}
330
1A
100
AcDbPlotSettings
  1

  2
none_device
  4

  6

 40
0.0
 41
0.0
 42
0.0
 43
0.0
 44
0.0
 45
0.0
 46
0.0
 47
0.0
 48
0.0
 49
0.0
140
0.0
141
0.0
142
1.0
143
1.0
 70
   688
 72
     0
 73
     0
 74
     5
  7

 75
    16
 76
     0
 77
     5
 78
   300
147
1.0
148
0.0
149
0.0
100
AcDbLayout
  1
Layout2
 70
     1
 71
     2
 10
0.0
 20
0.0
 11
0.0
 21
0.0
 12
0.0
 22
0.0
 32
0.0
 14
0.0
 24
0.0
 34
0.0
 15
0.0
 25
0.0
 35
0.0
146
0.0
 13
0.0
 23
0.0
 33
0.0
 16
1.0
 26
0.0
 36
0.0
 17
0.0
 27
1.0
 37
0.0
 76
     0
330
23
  0
LAYOUT
  5
22
102
{ACAD_REACTORS
330
1A
102
}
330
1A
100
AcDbPlotSettings
  1

  2
none_device
  4

  6

 40
0.0
 41
0.0
 42
0.0
 43
0.0
 44
0.0
 45
0.0
 46
0.0
 47
0.0
 48
0.0
 49
0.0
140
0.0
141
0.0
142
1.0
143
1.0
 70
  1712
 72
     0
 73
     0
 74
     0
  7

 75
     0
 76
     0
 77
     5
 78
   300
147
1.0
148
0.0
149
0.0
100
AcDbLayout
  1
Model
 70
     1
 71
     0
 10
-1050.0
 20
-742.5
 11
1050.0
 21
742.5
 12
0.0
 22
0.0
 32
0.0
 14
-1050.0
 24
-742.5
 34
0.0
 15
1050.0
 25
742.5
 35
0.0
146
0.0
 13
0.0
 23
0.0
 33
0.0
 16
1.0
 26
0.0
 36
0.0
 17
0.0
 27
1.0
 37
0.0
 76
     0
330
1F
331
29
  0
MLINESTYLE
  5
18
102
{ACAD_REACTORS
330
17
102
}
330
17
100
AcDbMlineStyle
  2
Standard
 70
     0
  3

 62
   256
 51
90.0
 52
90.0
 71
     2
 49
0.5
 62
   256
  6
BYLAYER
 49
-0.5
 62
   256
  6
BYLAYER
  0
ACDBPLACEHOLDER
  5
F
102
{ACAD_REACTORS
330
E
102
}
330
E
  0
VISUALSTYLE
  5
2F
102
{ACAD_REACTORS
330
2A
102
}
330
2A
100
AcDbVisualStyle
  2
2dWireframe
 70
     4
 71
     0
 72
     2
 73
     0
 90
        0
 40
-0.6
 41
-30.0
 62
     5
 63
     7
421
 16777215
 74
     1
 91
        4
 64
     7
 65
   257
 75
     1
175
     1
 42
1.0
 92
        0
 66
   257
 43
1.0
 76
     1
 77
     6
 78
     2
 67
     7
 79
     5
170
     0
171
     0
290
     0
174
     0
 93
        1
 44
0.0
173
     0
291
     0
 45
0.0
1001
ACAD
1000
AcDbSavedByObjectVersion
1070
     0
  0
VISUALSTYLE
  5
31
102
{ACAD_REACTORS
330
2A
102
}
330
2A
100
AcDbVisualStyle
  2
3D Hidden
 70
     6
 71
     1
 72
     2
 73
     2
 90
        0
 40
-0.6
 41
-30.0
 62
     5
 63
     7
421
 16777215
 74
     2
 91
        2
 64
     7
 65
   257
 75
     2
175
     1
 42
40.0
 92
        0
 66
   257
 43
1.0
 76
     1
 77
     6
 78
     2
 67
     7
 79
     3
170
     0
171
     0
290
     0
174
     0
 93
        1
 44
0.0
173
     0
291
     0
 45
0.0
1001
ACAD
1000
AcDbSavedByObjectVersion
1070
     0
  0
VISUALSTYLE
  5
30
102
{ACAD_REACTORS
330
2A
102
}
330
2A
100
AcDbVisualStyle
  2
3dWireframe
 70
     5
 71
     0
 72
     2
 73
     0
 90
        0
 40
-0.6
 41
-30.0
 62
     5
 63
     7
421
 16777215
 74
     1
 91
        4
 64
     7
 65
   257
 75
     1
175
     1
 42
1.0
 92
        0
 66
   257
 43
1.0
 76
     1
 77
     6
 78
     2
 67
     7
 79
     5
170
     0
171
     0
290
     0
174
     0
 93
        1
 44
0.0
173
     0
291
     0
 45
0.0
1001
ACAD
1000
AcDbSavedByObjectVersion
1070
     0
  0
VISUALSTYLE
  5
32
102
{ACAD_REACTORS
330
2A
102
}
330
2A
100
AcDbVisualStyle
  2
Basic
 70
     7
 71
     1
 72
     0
 73
     1
 90
        0
 40
-0.6
 41
-30.0
 62
     5
 63
     7
421
 16777215
 74
     0
 91
        4
 64
     7
 65
   257
 75
     1
175
     1
 42
1.0
 92
        8
 66
     7
 43
1.0
 76
     1
 77
     6
 78
     2
 67
     7
 79
     5
170
     0
171
     0
290
     0
174
     0
 93
        1
 44
0.0
173
     0
291
     1
 45
0.0
1001
ACAD
1000
AcDbSavedByObjectVersion
1070
     0
  0
VISUALSTYLE
  5
36
102
{ACAD_REACTORS
330
2A
102
}
330
2A
100
AcDbVisualStyle
  2
Brighten
 70
    12
 71
     2
 72
     2
 73
     0
 90
        0
 40
-0.6
 41
-30.0
 62
     5
 63
     7
421
 16777215
 74
     1
 91
        4
 64
     7
 65
   257
 75
     1
175
     1
 42
1.0
 92
        8
 66
     7
 43
1.0
 76
     1
 77
     6
 78
     2
 67
     7
 79
     5
170
     0
171
     0
290
     0
174
     0
 93
        1
 44
50.0
173
     0
291
     1
 45
0.0
1001
ACAD
1000
AcDbSavedByObjectVersion
1070
     0
  0
VISUALSTYLE
  5
3A
102
{ACAD_REACTORS
330
2A
102
}
330
2A
100
AcDbVisualStyle
  2
ColorChange
 70
    16
 71
     2
 72
     2
 73
     3
 90
        0
 40
-0.6
 41
-30.0
 62
     5
 63
     8
421
  8421504
 74
     1
 91
        4
 64
     7
 65
   257
 75
     1
175
     1
 42
1.0
 92
        8
 66
     8
424
  8421504
 43
1.0
 76
     1
 77
     6
 78
     2
 67
     7
 79
     5
170
     0
171
     0
290
     0
174
     0
 93
        1
 44
0.0
173
     0
291
     1
 45
0.0
1001
ACAD
1000
AcDbSavedByObjectVersion
1070
     0
  0
VISUALSTYLE
  5
34
102
{ACAD_REACTORS
330
2A
102
}
330
2A
100
AcDbVisualStyle
  2
Conceptual
 70
     9
 71
     3
 72
     2
 73
     0
 90
        0
 40
-0.6
 41
-30.0
 62
     5
 63
     7
421
 16777215
 74
     2
 91
        2
 64
     7
 65
   257
 75
     1
175
     1
 42
40.0
 92
        8
 66
     7
 43
1.0
 76
     1
 77
     6
 78
     2
 67
     7
 79
     3
170
     0
171
     0
290
     0
174
     0
 93
        1
 44
0.0
173
     0
291
     0
 45
0.0
1001
ACAD
1000
AcDbSavedByObjectVersion
1070
     0
  0
VISUALSTYLE
  5
35
102
{ACAD_REACTORS
330
2A
102
}
330
2A
100
AcDbVisualStyle
  2
Dim
 70
    11
 71
     2
 72
     2
 73
     0
 90
        0
 40
-0.6
 41
-30.0
 62
     5
 63
     7
421
 16777215
 74
     1
 91
        4
 64
     7
 65
   257
 75
     1
175
     1
 42
1.0
 92
        8
 66
     7
 43
1.0
 76
     1
 77
     6
 78
     2
 67
     7
 79
     5
170
     0
171
     0
290
     0
174
     0
 93
        1
 44
-50.0
173
     0
291
     1
 45
0.0
1001
ACAD
1000
AcDbSavedByObjectVersion
1070
     0
  0
VISUALSTYLE
  5
39
102
{ACAD_REACTORS
330
2A
102
}
330
2A
100
AcDbVisualStyle
  2
Facepattern
 70
    15
 71
     2
 72
     2
 73
     0
 90
        0
 40
-0.6
 41
-30.0
 62
     5
 63
     7
421
 16777215
 74
     1
 91
        4
 64
     7
 65
   257
 75
     1
175
     1
 42
1.0
 92
        8
 66
     7
 43
1.0
 76
     1
 77
     6
 78
     2
 67
     7
 79
     5
170
     0
171
     0
290
     0
174
     0
 93
        1
 44
0.0
173
     0
291
     1
 45
0.0
1001
ACAD
1000
AcDbSavedByObjectVersion
1070
     0
  0
VISUALSTYLE
  5
2B
102
{ACAD_REACTORS
330
2A
102
}
330
2A
100
AcDbVisualStyle
  2
Flat
 70
     0
 71
     2
 72
     1
 73
     1
 90
        2
 40
-0.6
 41
30.0
 62
     5
 63
     7
421
 16777215
 74
     0
 91
        4
 64
     7
 65
   257
 75
     1
175
     1
 42
1.0
 92
        8
 66
     7
 43
1.0
 76
     1
 77
     6
 78
     2
 67
     7
 79
     5
170
     0
171
     0
290
     0
174
     0
 93
       13
 44
0.0
173
     0
291
     1
 45
0.0
1001
ACAD
1000
AcDbSavedByObjectVersion
1070
     0
  0
VISUALSTYLE
  5
2C
102
{ACAD_REACTORS
330
2A
102
}
330
2A
100
AcDbVisualStyle
  2
FlatWithEdges
 70
     1
 71
     2
 72
     1
 73
     1
 90
        2
 40
-0.6
 41
30.0
 62
     5
 63
     7
421
 16777215
 74
     1
 91
        4
 64
     7
 65
   257
 75
     1
175
     1
 42
1.0
 92
        0
 66
   257
 43
1.0
 76
     1
 77
     6
 78
     2
 67
     7
 79
     5
170
     0
171
     0
290
     0
174
     0
 93
       13
 44
0.0
173
     0
291
     1
 45
0.0
1001
ACAD
1000
AcDbSavedByObjectVersion
1070
     0
  0
VISUALSTYLE
  5
2D
102
{ACAD_REACTORS
330
2A
102
}
330
2A
100
AcDbVisualStyle
  2
Gouraud
 70
     2
 71
     2
 72
     2
 73
     1
 90
        2
 40
-0.6
 41
30.0
 62
     5
 63
     7
421
 16777215
 74
     0
 91
        4
 64
     7
 65
   257
 75
     1
175
     1
 42
1.0
 92
        0
 66
     7
 43
1.0
 76
     1
 77
     6
 78
     2
 67
     7
 79
     5
170
     0
171
     0
290
     0
174
     0
 93
       13
 44
0.0
173
     0
291
     1
 45
0.0
1001
ACAD
1000
AcDbSavedByObjectVersion
1070
     0
  0
VISUALSTYLE
  5
2E
102
{ACAD_REACTORS
330
2A
102
}
330
2A
100
AcDbVisualStyle
  2
GouraudWithEdges
 70
     3
 71
     2
 72
     2
 73
     1
 90
        2
 40
-0.6
 41
30.0
 62
     5
 63
     7
421
 16777215
 74
     1
 91
        4
 64
     7
 65
   257
 75
     1
175
     1
 42
1.0
 92
        0
 66
   257
 43
1.0
 76
     1
 77
     6
 78
     2
 67
     7
 79
     5
170
     0
171
     0
290
     0
174
     0
 93
       13
 44
0.0
173
     0
291
     1
 45
0.0
1001
ACAD
1000
AcDbSavedByObjectVersion
1070
     0
  0
VISUALSTYLE
  5
38
102
{ACAD_REACTORS
330
2A
102
}
330
2A
100
AcDbVisualStyle
  2
Linepattern
 70
    14
 71
     2
 72
     2
 73
     0
 90
        0
 40
-0.6
 41
-30.0
 62
     5
 63
     7
421
 16777215
 74
     1
 91
        4
 64
     7
 65
   257
 75
     7
175
     7
 42
1.0
 92
        8
 66
     7
 43
1.0
 76
     1
 77
     6
 78
     2
 67
     7
 79
     5
170
     0
171
     0
290
     0
174
     0
 93
        1
 44
0.0
173
     0
291
     1
 45
0.0
1001
ACAD
1000
AcDbSavedByObjectVersion
1070
     0
  0
VISUALSTYLE
  5
33
102
{ACAD_REACTORS
330
2A
102
}
330
2A
100
AcDbVisualStyle
  2
Realistic
 70
     8
 71
     2
 72
     2
 73
     0
 90
        0
 40
-0.6
 41
-30.0
 62
     5
 63
     7
421
 16777215
 74
     1
 91
        0
 64
     7
 65
   257
 75
     1
175
     1
 42
1.0
 92
        8
 66
     8
424
  7895160
 43
1.0
 76
     1
 77
     6
 78
     2
 67
     7
 79
     5
170
     0
171
     0
290
     0
174
     0
 93
       13
 44
0.0
173
     0
291
     0
 45
0.0
1001
ACAD
1000
AcDbSavedByObjectVersion
1070
     0
  0
VISUALSTYLE
  5
37
102
{ACAD_REACTORS
330
2A
102
}
330
2A
100
AcDbVisualStyle
  2
Thicken
 70
    13
 71
     2
 72
     2
 73
     0
 90
        0
 40
-0.6
 41
-30.0
 62
     5
 63
     7
421
 16777215
 74
     1
 91
        4
 64
     7
 65
   257
 75
     1
175
     1
 42
1.0
 92
       12
 66
     7
 43
1.0
 76
     1
 77
     6
 78
     2
 67
     7
 79
     5
170
     0
171
     0
290
     0
174
     0
 93
        1
 44
0.0
173
     0
291
     1
 45
0.0
1001
ACAD
1000
AcDbSavedByObjectVersion
1070
     0
  0
ENDSEC
  0
EOF
