  0
SECTION
  2
HEADER
  9
$ACADVER
  1
AC1018
  9
$ACADMAINTVER
 70
     0
  9
$DWGCODEPAGE
  3
ANSI_932
  9
$INSBASE
 10
0.0
 20
0.0
 30
0.0
  9
$EXTMIN
 10
-1050.0
 20
-742.5
 30
0.0
  9
$EXTMAX
 10
1050.0
 20
742.5
 30
0.0
  9
$LIMMIN
 10
-1050.0
 20
-742.5
  9
$LIMMAX
 10
1050.0
 20
742.5
  9
$ORTHOMODE
 70
     0
  9
$REGENMODE
 70
     1
  9
$FILLMODE
 70
     1
  9
$QTEXTMODE
 70
     0
  9
$MIRRTEXT
 70
     1
  9
$LTSCALE
 40
5.0
  9
$ATTMODE
 70
     1
  9
$TEXTSIZE
 40
2.5
  9
$TRACEWID
 40
1.0
  9
$TEXTSTYLE
  7
Standard
  9
$CLAYER
  8
0
  9
$CELTYPE
  6
ByLayer
  9
$CECOLOR
 62
   256
  9
$CELTSCALE
 40
1.0
  9
$DISPSILH
 70
     0
  9
$DIMSCALE
 40
1.0
  9
$DIMASZ
 40
2.5
  9
$DIMEXO
 40
0.625
  9
$DIMDLI
 40
3.75
  9
$DIMRND
 40
0.0
  9
$DIMDLE
 40
0.0
  9
$DIMEXE
 40
1.25
  9
$DIMTP
 40
0.0
  9
$DIMTM
 40
0.0
  9
$DIMTXT
 40
2.5
  9
$DIMCEN
 40
2.5
  9
$DIMTSZ
 40
0.0
  9
$DIMTOL
 70
     0
  9
$DIMLIM
 70
     0
  9
$DIMTIH
 70
     0
  9
$DIMTOH
 70
     0
  9
$DIMSE1
 70
     0
  9
$DIMSE2
 70
     0
  9
$DIMTAD
 70
     1
  9
$DIMZIN
 70
     8
  9
$DIMBLK
  1

  9
$DIMASO
 70
     1
  9
$DIMSHO
 70
     1
  9
$DIMPOST
  1

  9
$DIMAPOST
  1

  9
$DIMALT
 70
     0
  9
$DIMALTD
 70
     3
  9
$DIMALTF
 40
0.03937007874016
  9
$DIMLFAC
 40
1.0
  9
$DIMTOFL
 70
     1
  9
$DIMTVP
 40
0.0
  9
$DIMTIX
 70
     0
  9
$DIMSOXD
 70
     0
  9
$DIMSAH
 70
     0
  9
$DIMBLK1
  1

  9
$DIMBLK2
  1

  9
$DIMSTYLE
  2
ISO-25
  9
$DIMCLRD
 70
     0
  9
$DIMCLRE
 70
     0
  9
$DIMCLRT
 70
     0
  9
$DIMTFAC
 40
1.0
  9
$DIMGAP
 40
0.625
  9
$DIMJUST
 70
     0
  9
$DIMSD1
 70
     0
  9
$DIMSD2
 70
     0
  9
$DIMTOLJ
 70
     0
  9
$DIMTZIN
 70
     8
  9
$DIMALTZ
 70
     0
  9
$DIMALTTZ
 70
     0
  9
$DIMUPT
 70
     0
  9
$DIMDEC
 70
     2
  9
$DIMTDEC
 70
     2
  9
$DIMALTU
 70
     2
  9
$DIMALTTD
 70
     3
  9
$DIMTXSTY
  7
Standard
  9
$DIMAUNIT
 70
     0
  9
$DIMADEC
 70
     0
  9
$DIMALTRND
 40
0.0
  9
$DIMAZIN
 70
     0
  9
$DIMDSEP
 70
    44
  9
$DIMATFIT
 70
     3
  9
$DIMFRAC
 70
     0
  9
$DIMLDRBLK
  1

  9
$DIMLUNIT
 70
     2
  9
$DIMLWD
 70
    -2
  9
$DIMLWE
 70
    -2
  9
$DIMTMOVE
 70
     0
  9
$LUNITS
 70
     2
  9
$LUPREC
 70
     4
  9
$SKETCHINC
 40
1.0
  9
$FILLETRAD
 40
10.0
  9
$AUNITS
 70
     0
  9
$AUPREC
 70
     0
  9
$MENU
  1
.
  9
$ELEVATION
 40
0.0
  9
$PELEVATION
 40
0.0
  9
$THICKNESS
 40
0.0
  9
$LIMCHECK
 70
     0
  9
$CHAMFERA
 40
10.0
  9
$CHAMFERB
 40
10.0
  9
$CHAMFERC
 40
20.0
  9
$CHAMFERD
 40
0.0
  9
$SKPOLY
 70
     0
  9
$TDCREATE
 40
2457352.398806239
  9
$TDUCREATE
 40
2457352.023806239
  9
$TDUPDATE
 40
2457352.39880625
  9
$TDUUPDATE
 40
2457352.02380625
  9
$TDINDWG
 40
0.0000000116
  9
$TDUSRTIMER
 40
0.0000000116
  9
$USRTIMER
 70
     1
  9
$ANGBASE
 50
0.0
  9
$ANGDIR
 70
     0
  9
$PDMODE
 70
     0
  9
$PDSIZE
 40
0.0
  9
$PLINEWID
 40
0.0
  9
$SPLFRAME
 70
     0
  9
$SPLINETYPE
 70
     6
  9
$SPLINESEGS
 70
     8
  9
$HANDSEED
  5
5CD
  9
$SURFTAB1
 70
     6
  9
$SURFTAB2
 70
     6
  9
$SURFTYPE
 70
     6
  9
$SURFU
 70
     6
  9
$SURFV
 70
     6
  9
$UCSBASE
  2

  9
$UCSNAME
  2

  9
$UCSORG
 10
0.0
 20
0.0
 30
0.0
  9
$UCSXDIR
 10
1.0
 20
0.0
 30
0.0
  9
$UCSYDIR
 10
0.0
 20
1.0
 30
0.0
  9
$UCSORTHOREF
  2

  9
$UCSORTHOVIEW
 70
     0
  9
$UCSORGTOP
 10
0.0
 20
0.0
 30
0.0
  9
$UCSORGBOTTOM
 10
0.0
 20
0.0
 30
0.0
  9
$UCSORGLEFT
 10
0.0
 20
0.0
 30
0.0
  9
$UCSORGRIGHT
 10
0.0
 20
0.0
 30
0.0
  9
$UCSORGFRONT
 10
0.0
 20
0.0
 30
0.0
  9
$UCSORGBACK
 10
0.0
 20
0.0
 30
0.0
  9
$PUCSBASE
  2

  9
$PUCSNAME
  2

  9
$PUCSORG
 10
0.0
 20
0.0
 30
0.0
  9
$PUCSXDIR
 10
1.0
 20
0.0
 30
0.0
  9
$PUCSYDIR
 10
0.0
 20
1.0
 30
0.0
  9
$PUCSORTHOREF
  2

  9
$PUCSORTHOVIEW
 70
     0
  9
$PUCSORGTOP
 10
0.0
 20
0.0
 30
0.0
  9
$PUCSORGBOTTOM
 10
0.0
 20
0.0
 30
0.0
  9
$PUCSORGLEFT
 10
0.0
 20
0.0
 30
0.0
  9
$PUCSORGRIGHT
 10
0.0
 20
0.0
 30
0.0
  9
$PUCSORGFRONT
 10
0.0
 20
0.0
 30
0.0
  9
$PUCSORGBACK
 10
0.0
 20
0.0
 30
0.0
  9
$USERI1
 70
     0
  9
$USERI2
 70
     0
  9
$USERI3
 70
     0
  9
$USERI4
 70
     0
  9
$USERI5
 70
     0
  9
$USERR1
 40
0.0
  9
$USERR2
 40
0.0
  9
$USERR3
 40
0.0
  9
$USERR4
 40
0.0
  9
$USERR5
 40
0.0
  9
$WORLDVIEW
 70
     1
  9
$SHADEDGE
 70
     3
  9
$SHADEDIF
 70
    70
  9
$TILEMODE
 70
     1
  9
$MAXACTVP
 70
    64
  9
$PINSBASE
 10
0.0
 20
0.0
 30
0.0
  9
$PLIMCHECK
 70
     0
  9
$PEXTMIN
 10
1.000000000000000E+20
 20
1.000000000000000E+20
 30
1.000000000000000E+20
  9
$PEXTMAX
 10
-1.000000000000000E+20
 20
-1.000000000000000E+20
 30
-1.000000000000000E+20
  9
$PLIMMIN
 10
0.0
 20
0.0
  9
$PLIMMAX
 10
420.0
 20
297.0
  9
$UNITMODE
 70
     0
  9
$VISRETAIN
 70
     1
  9
$PLINEGEN
 70
     0
  9
$PSLTSCALE
 70
     1
  9
$TREEDEPTH
 70
  3020
  9
$CMLSTYLE
  2
Standard
  9
$CMLJUST
 70
     0
  9
$CMLSCALE
 40
20.0
  9
$PROXYGRAPHICS
 70
     1
  9
$MEASUREMENT
 70
     1
  9
$CELWEIGHT
370
    -1
  9
$ENDCAPS
280
     0
  9
$JOINSTYLE
280
     0
  9
$LWDISPLAY
290
     0
  9
$INSUNITS
 70
     4
  9
$HYPERLINKBASE
  1

  9
$STYLESHEET
  1

  9
$XEDIT
290
     1
  9
$CEPSNTYPE
380
     0
  9
$PSTYLEMODE
290
     1
  9
$FINGERPRINTGUID
  2
{1E3FD13E-168B-4195-BA19-B9742882112A}
  9
$VERSIONGUID
  2
{FAEB1C32-E019-11D5-929B-00C0DF256EC4}
  9
$EXTNAMES
290
     1
  9
$PSVPSCALE
 40
0.0
  9
$OLESTARTUP
290
     0
  9
$SORTENTS
280
   127
  9
$INDEXCTL
280
     0
  9
$HIDETEXT
280
     1
  9
$XCLIPFRAME
290
     0
  9
$HALOGAP
280
     0
  9
$OBSCOLOR
 70
   257
  9
$OBSLTYPE
280
     0
  9
$INTERSECTIONDISPLAY
280
     0
  9
$INTERSECTIONCOLOR
 70
   257
  9
$DIMASSOC
280
     2
  9
$PROJECTNAME
  1

  0
ENDSEC
  0
SECTION
  2
CLASSES
  0
CLASS
  1
ACDBDICTIONARYWDFLT
  2
AcDbDictionaryWithDefault
  3
ObjectDBX Classes
 90
        0
 91
        4
280
     0
281
     0
  0
CLASS
  1
VISUALSTYLE
  2
AcDbVisualStyle
  3
ObjectDBX Classes
 90
     4095
 91
        4
280
     0
281
     0
  0
ENDSEC
  0
SECTION
  2
TABLES
  0
TABLE
  2
VPORT
  5
8
330
0
100
AcDbSymbolTable
 70
     1
  0
VPORT
  5
29
330
8
100
AcDbSymbolTableRecord
100
AcDbViewportTableRecord
  2
*Active
 70
     0
 10
0.0
 20
0.0
 11
1.0
 21
1.0
 12
0.0
 22
0.0
 13
0.0
 23
0.0
 14
10.0
 24
10.0
 15
10.0
 25
10.0
 16
0.0
 26
0.0
 36
1.0
 17
0.0
 27
0.0
 37
0.0
 40
1633.5
 41
1.414141414141414
 42
50.0
 43
0.0
 44
0.0
 50
0.0
 51
0.0
 71
     0
 72
 10000
 73
     1
 74
     3
 75
     0
 76
     0
 77
     0
 78
     0
281
     0
 65
     1
110
0.0
120
0.0
130
0.0
111
1.0
121
0.0
131
0.0
112
0.0
122
1.0
132
0.0
 79
     0
146
0.0
  0
ENDTAB
  0
TABLE
  2
LTYPE
  5
5
330
0
100
AcDbSymbolTable
 70
     5
  0
LTYPE
  5
14
330
5
100
AcDbSymbolTableRecord
100
AcDbLinetypeTableRecord
  2
ByBlock
 70
     0
  3

 72
    65
 73
     0
 40
0.0
  0
LTYPE
  5
15
330
5
100
AcDbSymbolTableRecord
100
AcDbLinetypeTableRecord
  2
ByLayer
 70
     0
  3

 72
    65
 73
     0
 40
0.0
  0
LTYPE
  5
16
330
5
100
AcDbSymbolTableRecord
100
AcDbLinetypeTableRecord
  2
Continuous
 70
     0
  3
Solid line
 72
    65
 73
     0
 40
0.0
  0
LTYPE
  5
3C
330
5
100
AcDbSymbolTableRecord
100
AcDbLinetypeTableRecord
  2
JWW_CENTER1
 70
     0
  3
-----  --  ----------  --  -----
 72
    65
 73
     4
 40
6.773333333333333
 49
4.233333333333333
 74
     0
 49
-0.8466666666666667
 74
     0
 49
0.8466666666666667
 74
     0
 49
-0.8466666666666667
 74
     0
  0
LTYPE
  5
3D
330
5
100
AcDbSymbolTableRecord
100
AcDbLinetypeTableRecord
  2
JWW_DASHED1
 70
     0
  3
-  --  --  --  --  --  --  --  -
 72
    65
 73
     2
 40
1.693333333333333
 49
0.8466666666666667
 74
     0
 49
-0.8466666666666667
 74
     0
  0
LTYPE
  5
3E
330
5
100
AcDbSymbolTableRecord
100
AcDbLinetypeTableRecord
  2
JWW_DASHED3
 70
     0
  3
---  ------  ------  ------  ---
 72
    65
 73
     2
 40
3.386666666666667
 49
2.54
 74
     0
 49
-0.8466666666666667
 74
     0
  0
LTYPE
  5
3F
330
5
100
AcDbSymbolTableRecord
100
AcDbLinetypeTableRecord
  2
JWW_PHANTOM2
 70
     0
  3
------------  -  -  ------------
 72
    65
 73
     6
 40
13.54666666666667
 49
10.16
 74
     0
 49
-0.8466666666666667
 74
     0
 49
0.4233333333333333
 74
     0
 49
-0.8466666666666667
 74
     0
 49
0.4233333333333333
 74
     0
 49
-0.8466666666666667
 74
     0
  0
ENDTAB
  0
TABLE
  2
LAYER
  5
2
330
0
100
AcDbSymbolTable
 70
    22
  0
LAYER
  5
10
330
2
100
AcDbSymbolTableRecord
100
AcDbLayerTableRecord
  2
0
 70
     0
 62
     7
  6
Continuous
370
    -3
390
F
  0
LAYER
  5
40
330
2
100
AcDbSymbolTableRecord
100
AcDbLayerTableRecord
  2
D-2
 70
     0
 62
     7
  6
Continuous
370
    -3
390
F
  0
LAYER
  5
41
330
2
100
AcDbSymbolTableRecord
100
AcDbLayerTableRecord
  2
D-4
 70
     0
 62
     7
  6
Continuous
370
    -3
390
F
  0
LAYER
  5
42
330
2
100
AcDbSymbolTableRecord
100
AcDbLayerTableRecord
  2
D-B
 70
     0
 62
     7
  6
Continuous
370
    -3
390
F
  0
LAYER
  5
43
330
2
100
AcDbSymbolTableRecord
100
AcDbLayerTableRecord
  2
その他
 70
     0
 62
     7
  6
Continuous
370
    -3
390
F
  0
LAYER
  5
44
330
2
100
AcDbSymbolTableRecord
100
AcDbLayerTableRecord
  2
1-4ﾚｲﾔ
 70
     0
 62
     7
  6
Continuous
370
    -3
390
F
  0
LAYER
  5
45
330
2
100
AcDbSymbolTableRecord
100
AcDbLayerTableRecord
  2
F-0ﾚｲﾔ
 70
     0
 62
     7
  6
Continuous
370
    -3
390
F
  0
LAYER
  5
46
330
2
100
AcDbSymbolTableRecord
100
AcDbLayerTableRecord
  2
通り芯
 70
     0
 62
     7
  6
Continuous
370
    -3
390
F
  0
LAYER
  5
47
330
2
100
AcDbSymbolTableRecord
100
AcDbLayerTableRecord
  2
躯体
 70
     0
 62
     7
  6
Continuous
370
    -3
390
F
  0
LAYER
  5
48
330
2
100
AcDbSymbolTableRecord
100
AcDbLayerTableRecord
  2
0-A
 70
     0
 62
     7
  6
Continuous
370
    -3
390
F
  0
LAYER
  5
49
330
2
100
AcDbSymbolTableRecord
100
AcDbLayerTableRecord
  2
仕上
 70
     0
 62
     7
  6
Continuous
370
    -3
390
F
  0
LAYER
  5
4A
330
2
100
AcDbSymbolTableRecord
100
AcDbLayerTableRecord
  2
建具
 70
     0
 62
     7
  6
Continuous
370
    -3
390
F
  0
LAYER
  5
4B
330
2
100
AcDbSymbolTableRecord
100
AcDbLayerTableRecord
  2
0-9
 70
     0
 62
     7
  6
Continuous
370
    -3
390
F
  0
LAYER
  5
4C
330
2
100
AcDbSymbolTableRecord
100
AcDbLayerTableRecord
  2
D-1
 70
     0
 62
     7
  6
Continuous
370
    -3
390
F
  0
LAYER
  5
4D
330
2
100
AcDbSymbolTableRecord
100
AcDbLayerTableRecord
  2
D-5
 70
     0
 62
     7
  6
Continuous
370
    -3
390
F
  0
LAYER
  5
4E
330
2
100
AcDbSymbolTableRecord
100
AcDbLayerTableRecord
  2
D-A
 70
     0
 62
     7
  6
Continuous
370
    -3
390
F
  0
LAYER
  5
4F
330
2
100
AcDbSymbolTableRecord
100
AcDbLayerTableRecord
  2
D-7
 70
     0
 62
     7
  6
Continuous
370
    -3
390
F
  0
LAYER
  5
50
330
2
100
AcDbSymbolTableRecord
100
AcDbLayerTableRecord
  2
D-6
 70
     0
 62
     7
  6
Continuous
370
    -3
390
F
  0
LAYER
  5
51
330
2
100
AcDbSymbolTableRecord
100
AcDbLayerTableRecord
  2
D-3
 70
     0
 62
     7
  6
Continuous
370
    -3
390
F
  0
LAYER
  5
52
330
2
100
AcDbSymbolTableRecord
100
AcDbLayerTableRecord
  2
D-0
 70
     0
 62
     7
  6
Continuous
370
    -3
390
F
  0
LAYER
  5
53
330
2
100
AcDbSymbolTableRecord
100
AcDbLayerTableRecord
  2
D-D
 70
     0
 62
     7
  6
Continuous
370
    -3
390
F
  0
LAYER
  5
54
330
2
100
AcDbSymbolTableRecord
100
AcDbLayerTableRecord
  2
D-F
 70
     0
 62
     7
  6
Continuous
370
    -3
390
F
  0
ENDTAB
  0
TABLE
  2
STYLE
  5
3
330
0
100
AcDbSymbolTable
 70
     2
  0
STYLE
  5
11
330
3
100
AcDbSymbolTableRecord
100
AcDbTextStyleTableRecord
  2
Standard
 70
     0
 40
0.0
 41
1.0
 50
0.0
 71
     0
 42
2.5
  3
txt
  4

1001
ACAD
1000

1071
        0
  0
STYLE
  5
3B
330
3
100
AcDbSymbolTableRecord
100
AcDbTextStyleTableRecord
  2
ＭＳ ゴシック
 70
     0
 40
1.0
 41
1.0
 50
0.0
 71
     0
 42
10.0
  3

  4

1001
ACAD
1000
MS Gothic
1071
    32817
  0
ENDTAB
  0
TABLE
  2
VIEW
  5
6
330
0
100
AcDbSymbolTable
 70
     0
  0
ENDTAB
  0
TABLE
  2
UCS
  5
7
330
0
100
AcDbSymbolTable
 70
     0
  0
ENDTAB
  0
TABLE
  2
APPID
  5
9
330
0
100
AcDbSymbolTable
 70
     1
  0
APPID
  5
12
330
9
100
AcDbSymbolTableRecord
100
AcDbRegAppTableRecord
  2
ACAD
 70
     0
  0
ENDTAB
  0
TABLE
  2
DIMSTYLE
  5
A
330
0
100
AcDbSymbolTable
 70
     1
100
AcDbDimStyleTable
  0
DIMSTYLE
105
27
330
A
100
AcDbSymbolTableRecord
100
AcDbDimStyleTableRecord
  2
ISO-25
 70
     0
 41
2.5
 42
0.625
 43
3.75
 44
1.25
 73
     0
 74
     0
 77
     1
 78
     8
140
2.5
141
2.5
143
0.03937007874016
147
0.625
171
     3
172
     1
271
     2
272
     2
274
     3
278
    44
283
     0
284
     8
340
11
  0
ENDTAB
  0
TABLE
  2
BLOCK_RECORD
  5
1
330
0
100
AcDbSymbolTable
 70
     1
  0
BLOCK_RECORD
  5
1F
330
1
100
AcDbSymbolTableRecord
100
AcDbBlockTableRecord
  2
*Model_Space
340
22
  0
BLOCK_RECORD
  5
1B
330
1
100
AcDbSymbolTableRecord
100
AcDbBlockTableRecord
  2
*Paper_Space
340
1E
  0
BLOCK_RECORD
  5
23
330
1
100
AcDbSymbolTableRecord
100
AcDbBlockTableRecord
  2
*Paper_Space0
340
26
  0
ENDTAB
  0
ENDSEC
  0
SECTION
  2
BLOCKS
  0
BLOCK
  5
20
330
1F
100
AcDbEntity
  8
0
100
AcDbBlockBegin
  2
*Model_Space
 70
     0
 10
0.0
 20
0.0
 30
0.0
  3
*Model_Space
  1

  0
ENDBLK
  5
21
330
1F
100
AcDbEntity
  8
0
100
AcDbBlockEnd
  0
BLOCK
  5
1C
330
1B
100
AcDbEntity
 67
     1
  8
0
100
AcDbBlockBegin
  2
*Paper_Space
 70
     0
 10
0.0
 20
0.0
 30
0.0
  3
*Paper_Space
  1

  0
ENDBLK
  5
1D
330
1B
100
AcDbEntity
 67
     1
  8
0
100
AcDbBlockEnd
  0
BLOCK
  5
24
330
23
100
AcDbEntity
  8
0
100
AcDbBlockBegin
  2
*Paper_Space0
 70
     0
 10
0.0
 20
0.0
 30
0.0
  3
*Paper_Space0
  1

  0
ENDBLK
  5
25
330
23
100
AcDbEntity
  8
0
100
AcDbBlockEnd
  0
ENDSEC
  0
SECTION
  2
ENTITIES
  0
LINE
  5
55
330
1F
100
AcDbEntity
  8
D-2
  6
JWW_CENTER1
 62
     3
370
     9
100
AcDbLine
 10
272.0500636745143
 20
325.6041053938231
 30
0.0
 11
272.0500636745143
 21
461.3100017198365
 31
0.0
  0
LINE
  5
56
330
1F
100
AcDbEntity
  8
D-4
  6
Continuous
 62
     7
370
     9
100
AcDbLine
 10
259.9965275944891
 20
457.0391903811542
 30
0.0
 11
365.4847016205659
 21
629.9978943243553
 31
0.0
  0
LINE
  5
57
330
1F
100
AcDbEntity
  8
D-4
  6
Continuous
 62
     7
370
     9
100
AcDbLine
 10
259.9965275944891
 20
457.0391903811542
 30
0.0
 11
265.0566719673776
 21
468.469178108139
 31
0.0
  0
LINE
  5
58
330
1F
100
AcDbEntity
  8
D-4
  6
Continuous
 62
     7
370
     9
100
AcDbLine
 10
259.9965275944891
 20
457.0391903811542
 30
0.0
 11
267.8424732105154
 21
466.7700088461036
 31
0.0
  0
LINE
  5
59
330
1F
100
AcDbEntity
  8
D-B
  6
Continuous
 62
     7
370
     9
100
AcDbLine
 10
279.5500884184967
 20
414.539173885166
 30
0.0
 11
377.6871964738177
 21
414.5391738851661
 31
0.0
  0
LINE
  5
5A
330
1F
100
AcDbEntity
  8
その他
  6
Continuous
 62
     7
370
     9
100
AcDbLine
 10
-630.6521647685282
 20
348.2157279349663
 30
0.0
 11
-180.6520410486169
 21
348.2157279349663
 31
0.0
  0
LINE
  5
5B
330
1F
100
AcDbEntity
  8
その他
  6
Continuous
 62
     7
370
     9
100
AcDbLine
 10
-643.6520344502217
 20
387.7076185071792
 30
0.0
 11
-167.6520476470122
 21
387.7076185071792
 31
0.0
  0
LINE
  5
5C
330
1F
100
AcDbEntity
  8
その他
  6
Continuous
 62
     7
370
     9
100
AcDbLine
 10
-643.6520344502217
 20
268.8164953283362
 30
0.0
 11
-643.6520344502217
 21
389.2075987119933
 31
0.0
  0
LINE
  5
5D
330
1F
100
AcDbEntity
  8
その他
  6
Continuous
 62
     7
370
     9
100
AcDbLine
 10
-167.6520476470122
 20
268.8164953283362
 30
0.0
 11
-167.6520476470122
 21
389.2075987119933
 31
0.0
  0
LINE
  5
5E
330
1F
100
AcDbEntity
  8
その他
  6
Continuous
 62
     7
370
     9
100
AcDbLine
 10
-730.5512299408783
 20
248.3161060230152
 30
0.0
 11
-730.548941122519
 21
-201.6839558369404
 31
0.0
  0
LINE
  5
5F
330
1F
100
AcDbEntity
  8
その他
  6
Continuous
 62
     7
370
     9
100
AcDbLine
 10
-770.0431823730469
 20
261.3158519847974
 30
0.0
 11
-770.0407698347761
 21
-214.6841966783678
 31
0.0
  0
LINE
  5
60
330
1F
100
AcDbEntity
  8
その他
  6
Continuous
 62
     7
370
     9
100
AcDbLine
 10
-651.152059194204
 20
261.3164705843539
 30
0.0
 11
-771.543162577861
 21
261.3158519847974
 31
0.0
  0
LINE
  5
61
330
1F
100
AcDbEntity
  8
その他
  6
Continuous
 62
     7
370
     9
100
AcDbLine
 10
-651.1495847959776
 20
-214.6835780788112
 30
0.0
 11
-771.5407500395904
 21
-214.6841966783678
 31
0.0
  0
LINE
  5
62
330
1F
100
AcDbEntity
  8
1-4ﾚｲﾔ
  6
Continuous
 62
     7
370
     9
100
AcDbLine
 10
-544.6459177378061
 20
-320.2414373449377
 30
0.0
 11
-279.3817674791491
 21
-320.2414373449377
 31
0.0
  0
TEXT
  5
63
330
1F
100
AcDbEntity
  8
F-0ﾚｲﾔ
  6
Continuous
 62
     7
370
     9
100
AcDbText
 10
-390.9732962943411
 20
-663.4403704339104
 30
0.0
 40
11.43
  1
アルミ＋スチール製　アルミ目地
 41
1.155555555555555
  7
ＭＳ ゴシック
100
AcDbText
  0
TEXT
  5
64
330
1F
100
AcDbEntity
  8
その他
  6
Continuous
 62
     2
370
     9
100
AcDbText
 10
-421.9021029085726
 20
354.0356883445947
 30
0.0
 40
15.24
  1
450
 41
1.083333333333333
  7
ＭＳ ゴシック
100
AcDbText
  0
TEXT
  5
65
330
1F
100
AcDbEntity
  8
その他
  6
Continuous
 62
     2
370
     9
100
AcDbText
 10
-421.9020410486169
 20
393.5275789168076
 30
0.0
 40
15.24
  1
476
 41
1.083333333333333
  7
ＭＳ ゴシック
100
AcDbText
  0
TEXT
  5
66
330
1F
100
AcDbEntity
  8
その他
  6
Continuous
 62
     2
370
     9
100
AcDbText
 10
-736.3699531513005
 20
7.06602806069402
 30
0.0
 40
15.24
  1
450
 50
90.0003271676473
 41
1.083333333333333
  7
ＭＳ ゴシック
100
AcDbText
  0
TEXT
  5
67
330
1F
100
AcDbEntity
  8
その他
  6
Continuous
 62
     2
370
     9
100
AcDbText
 10
-775.8618437235132
 20
7.065780620871362
 30
0.0
 40
15.24
  1
476
 50
90.0003271676473
 41
1.083333333333333
  7
ＭＳ ゴシック
100
AcDbText
  0
TEXT
  5
68
330
1F
100
AcDbEntity
  8
1-4ﾚｲﾔ
  6
Continuous
 62
     2
370
     9
100
AcDbText
 10
-532.9222168793549
 20
-314.0614519933752
 30
0.0
 40
15.24
  1
平面詳細図　Ｓ＝１：５
 41
1.113636363636364
  7
ＭＳ ゴシック
100
AcDbText
  0
TEXT
  5
69
330
1F
100
AcDbEntity
  8
F-0ﾚｲﾔ
  6
Continuous
 62
     7
370
     9
100
AcDbText
 10
-390.9732694883604
 20
-683.4403745579075
 30
0.0
 40
11.43
  1
　　　　　　一般型　フロアハッチ　　　ＭＯＦＥ－４５０－１５－Ｃ
 41
1.161458333333333
  7
ＭＳ ゴシック
100
AcDbText
  0
LWPOLYLINE
  5
6A
330
1F
100
AcDbEntity
  8
その他
  6
Continuous
 62
     7
370
     9
100
AcDbPolyline
 90
        4
 70
     1
 43
0.5
 10
-630.4021647685282
 20
348.2157279349663
 42
0.4142135623731
 10
-630.6521647685282
 20
348.4657279349663
 42
0.4142135623731
 10
-630.9021647685282
 20
348.2157279349663
 42
0.4142135623731
 10
-630.6521647685282
 20
347.9657279349663
 42
0.4142135623731
  0
LWPOLYLINE
  5
6B
330
1F
100
AcDbEntity
  8
その他
  6
Continuous
 62
     7
370
     9
100
AcDbPolyline
 90
        4
 70
     1
 43
0.5
 10
-180.4020410486169
 20
348.2157279349663
 42
0.4142135623731
 10
-180.6520410486169
 20
348.4657279349663
 42
0.4142135623731
 10
-180.9020410486169
 20
348.2157279349663
 42
0.4142135623731
 10
-180.6520410486169
 20
347.9657279349663
 42
0.4142135623731
  0
LWPOLYLINE
  5
6C
330
1F
100
AcDbEntity
  8
その他
  6
Continuous
 62
     7
370
     9
100
AcDbPolyline
 90
        4
 70
     1
 43
0.5
 10
-643.4020344502215
 20
387.7076185071792
 42
0.4142135623731
 10
-643.6520344502217
 20
387.9576185071792
 42
0.4142135623731
 10
-643.9020344502217
 20
387.7076185071792
 42
0.4142135623731
 10
-643.6520344502217
 20
387.4576185071792
 42
0.4142135623731
  0
LWPOLYLINE
  5
6D
330
1F
100
AcDbEntity
  8
その他
  6
Continuous
 62
     7
370
     9
100
AcDbPolyline
 90
        4
 70
     1
 43
0.5
 10
-167.4020476470122
 20
387.7076185071792
 42
0.4142135623731
 10
-167.6520476470122
 20
387.9576185071792
 42
0.4142135623731
 10
-167.9020476470122
 20
387.7076185071792
 42
0.4142135623731
 10
-167.6520476470122
 20
387.4576185071792
 42
0.4142135623731
  0
LWPOLYLINE
  5
6E
330
1F
100
AcDbEntity
  8
その他
  6
Continuous
 62
     7
370
     9
100
AcDbPolyline
 90
        4
 70
     1
 43
0.5
 10
-730.3012299408783
 20
248.3161060230152
 42
0.4142135623731
 10
-730.5512299408783
 20
248.5661060230152
 42
0.4142135623731
 10
-730.8012299408784
 20
248.3161060230152
 42
0.4142135623731
 10
-730.5512299408783
 20
248.0661060230153
 42
0.4142135623731
  0
LWPOLYLINE
  5
6F
330
1F
100
AcDbEntity
  8
その他
  6
Continuous
 62
     7
370
     9
100
AcDbPolyline
 90
        4
 70
     1
 43
0.5
 10
-730.298941122519
 20
-201.6839558369404
 42
0.4142135623731
 10
-730.548941122519
 20
-201.4339558369404
 42
0.4142135623731
 10
-730.7989411225191
 20
-201.6839558369404
 42
0.4142135623731
 10
-730.548941122519
 20
-201.9339558369404
 42
0.4142135623731
  0
LWPOLYLINE
  5
70
330
1F
100
AcDbEntity
  8
その他
  6
Continuous
 62
     7
370
     9
100
AcDbPolyline
 90
        4
 70
     1
 43
0.5
 10
-769.7931823730469
 20
261.3158519847974
 42
0.4142135623731
 10
-770.0431823730469
 20
261.5658519847974
 42
0.4142135623731
 10
-770.2931823730469
 20
261.3158519847974
 42
0.4142135623731
 10
-770.0431823730469
 20
261.0658519847974
 42
0.4142135623731
  0
LWPOLYLINE
  5
71
330
1F
100
AcDbEntity
  8
その他
  6
Continuous
 62
     7
370
     9
100
AcDbPolyline
 90
        4
 70
     1
 43
0.5
 10
-769.7907698347761
 20
-214.6841966783678
 42
0.4142135623731
 10
-770.0407698347761
 20
-214.4341966783678
 42
0.4142135623731
 10
-770.2907698347763
 20
-214.6841966783678
 42
0.4142135623731
 10
-770.0407698347761
 20
-214.9341966783678
 42
0.4142135623731
  0
LINE
  5
72
330
1F
100
AcDbEntity
  8
その他
  6
Continuous
 62
     7
370
     9
100
AcDbLine
 10
-630.6521647685282
 20
268.8164953283362
 30
0.0
 11
-630.6521647685282
 21
349.7157081397805
 31
0.0
  0
LINE
  5
73
330
1F
100
AcDbEntity
  8
その他
  6
Continuous
 62
     7
370
     9
100
AcDbLine
 10
-651.1519906801711
 20
248.3165323890241
 30
0.0
 11
-732.0512101456926
 21
248.3161060230152
 31
0.0
  0
LINE
  5
74
330
1F
100
AcDbEntity
  8
その他
  6
Continuous
 62
     7
370
     9
100
AcDbLine
 10
-651.1496533103114
 20
-201.6835913306766
 30
0.0
 11
-732.0488594673775
 21
-201.6840176968961
 31
0.0
  0
LINE
  5
75
330
1F
100
AcDbEntity
  8
その他
  6
Continuous
 62
     7
370
     9
100
AcDbLine
 10
-180.6520410486169
 20
268.8164953283362
 30
0.0
 11
-180.6520410486169
 21
349.7157081397805
 31
0.0
  0
LINE
  5
76
330
1F
100
AcDbEntity
  8
通り芯
  6
Continuous
 62
     4
370
     9
100
AcDbLine
 10
-192.6520148906928
 20
-189.6841985047092
 30
0.0
 11
-618.6521196991321
 21
-189.6841985047092
 31
0.0
  0
LINE
  5
77
330
1F
100
AcDbEntity
  8
通り芯
  6
Continuous
 62
     4
370
     9
100
AcDbLine
 10
-192.6520148906928
 20
236.3158538111389
 30
0.0
 11
-192.6520148906928
 21
-189.6841985047092
 31
0.0
  0
LINE
  5
78
330
1F
100
AcDbEntity
  8
通り芯
  6
Continuous
 62
     4
370
     9
100
AcDbLine
 10
-618.6521196991321
 20
236.3158538111389
 30
0.0
 11
-192.6520148906928
 21
236.3158538111389
 31
0.0
  0
LINE
  5
79
330
1F
100
AcDbEntity
  8
通り芯
  6
Continuous
 62
     4
370
     9
100
AcDbLine
 10
-618.6521196991321
 20
-189.6841985047092
 30
0.0
 11
-618.6521196991321
 21
236.3158538111389
 31
0.0
  0
LINE
  5
7A
330
1F
100
AcDbEntity
  8
通り芯
  6
Continuous
 62
     4
370
     9
100
AcDbLine
 10
-630.6521359594631
 20
-201.6841622724495
 30
0.0
 11
-630.6521359594631
 21
248.3158700714702
 31
0.0
  0
LINE
  5
7B
330
1F
100
AcDbEntity
  8
通り芯
  6
Continuous
 62
     4
370
     9
100
AcDbLine
 10
-180.6520511229526
 20
-201.6841622724495
 30
0.0
 11
-630.6521359594631
 21
-201.6841622724495
 31
0.0
  0
LINE
  5
7C
330
1F
100
AcDbEntity
  8
通り芯
  6
Continuous
 62
     4
370
     9
100
AcDbLine
 10
-180.6520511229526
 20
248.3158700714702
 30
0.0
 11
-180.6520511229526
 21
-201.6841622724495
 31
0.0
  0
LINE
  5
7D
330
1F
100
AcDbEntity
  8
通り芯
  6
Continuous
 62
     4
370
     9
100
AcDbLine
 10
-630.6521359594631
 20
248.3158700714702
 30
0.0
 11
-180.6520511229526
 21
248.3158700714702
 31
0.0
  0
LINE
  5
7E
330
1F
100
AcDbEntity
  8
通り芯
  6
Continuous
 62
     4
370
     9
100
AcDbLine
 10
-628.152018837947
 20
245.8158579351361
 30
0.0
 11
-183.1520632592867
 21
245.8158579351361
 31
0.0
  0
LINE
  5
7F
330
1F
100
AcDbEntity
  8
通り芯
  6
Continuous
 62
     4
370
     9
100
AcDbLine
 10
-628.152018837947
 20
-199.1841501361152
 30
0.0
 11
-628.152018837947
 21
245.8158579351361
 31
0.0
  0
LINE
  5
80
330
1F
100
AcDbEntity
  8
通り芯
  6
Continuous
 62
     4
370
     9
100
AcDbLine
 10
-183.1520632592867
 20
-199.1841501361152
 30
0.0
 11
-628.152018837947
 21
-199.1841501361152
 31
0.0
  0
LINE
  5
81
330
1F
100
AcDbEntity
  8
通り芯
  6
Continuous
 62
     4
370
     9
100
AcDbLine
 10
-183.1520632592867
 20
245.8158579351361
 30
0.0
 11
-183.1520632592867
 21
-199.1841501361152
 31
0.0
  0
LINE
  5
82
330
1F
100
AcDbEntity
  8
通り芯
  6
Continuous
 62
     4
370
     9
100
AcDbLine
 10
-621.1520268502843
 20
238.8158659474732
 30
0.0
 11
-190.1520027543586
 21
238.8158659474732
 31
0.0
  0
LINE
  5
83
330
1F
100
AcDbEntity
  8
通り芯
  6
Continuous
 62
     4
370
     9
100
AcDbLine
 10
-621.1520268502843
 20
-192.1842106410433
 30
0.0
 11
-621.1520268502843
 21
238.8158659474732
 31
0.0
  0
LINE
  5
84
330
1F
100
AcDbEntity
  8
通り芯
  6
Continuous
 62
     4
370
     9
100
AcDbLine
 10
-190.1520027543586
 20
-192.1842106410433
 30
0.0
 11
-621.1520268502843
 21
-192.1842106410433
 31
0.0
  0
LINE
  5
85
330
1F
100
AcDbEntity
  8
通り芯
  6
Continuous
 62
     4
370
     9
100
AcDbLine
 10
-190.1520027543586
 20
238.8158659474732
 30
0.0
 11
-190.1520027543586
 21
-192.1842106410433
 31
0.0
  0
LINE
  5
86
330
1F
100
AcDbEntity
  8
躯体
  6
Continuous
 62
     2
370
     9
100
AcDbLine
 10
-631.6520148317785
 20
249.3158539289675
 30
0.0
 11
-179.6520147728643
 21
249.3158539289675
 31
0.0
  0
LINE
  5
87
330
1F
100
AcDbEntity
  8
躯体
  6
Continuous
 62
     2
370
     9
100
AcDbLine
 10
-643.6520310921098
 20
261.3157652041168
 30
0.0
 11
-167.6520510051241
 21
261.3157652041168
 31
0.0
  0
LINE
  5
88
330
1F
100
AcDbEntity
  8
躯体
  6
Continuous
 62
     2
370
     9
100
AcDbLine
 10
-631.6520148317785
 20
-202.6841986225377
 30
0.0
 11
-631.6520148317785
 21
249.3158539289675
 31
0.0
  0
LINE
  5
89
330
1F
100
AcDbEntity
  8
躯体
  6
Continuous
 62
     2
370
     9
100
AcDbLine
 10
-643.6520310921098
 20
-214.684162390278
 30
0.0
 11
-643.6520310921098
 21
261.3157652041168
 31
0.0
  0
LINE
  5
8A
330
1F
100
AcDbEntity
  8
躯体
  6
Continuous
 62
     2
370
     9
100
AcDbLine
 10
-179.6520147728643
 20
-202.6841986225377
 30
0.0
 11
-631.6520148317785
 21
-202.6841986225377
 31
0.0
  0
LINE
  5
8B
330
1F
100
AcDbEntity
  8
躯体
  6
Continuous
 62
     2
370
     9
100
AcDbLine
 10
-179.6520147728643
 20
249.3158539289675
 30
0.0
 11
-179.6520147728643
 21
-202.6841986225377
 31
0.0
  0
LINE
  5
8C
330
1F
100
AcDbEntity
  8
躯体
  6
Continuous
 62
     2
370
     9
100
AcDbLine
 10
-167.6520510051241
 20
261.3157652041168
 30
0.0
 11
-167.6520510051241
 21
-214.684162390278
 31
0.0
  0
LINE
  5
8D
330
1F
100
AcDbEntity
  8
躯体
  6
Continuous
 62
     2
370
     9
100
AcDbLine
 10
-167.6520510051241
 20
-214.684162390278
 30
0.0
 11
-643.6520310921098
 21
-214.684162390278
 31
0.0
  0
LINE
  5
8E
330
1F
100
AcDbEntity
  8
躯体
  6
Continuous
 62
     2
370
     9
100
AcDbLine
 10
-641.1519139705936
 20
258.8157530677826
 30
0.0
 11
-170.1520631414582
 21
258.8157530677826
 31
0.0
  0
LINE
  5
8F
330
1F
100
AcDbEntity
  8
躯体
  6
Continuous
 62
     2
370
     9
100
AcDbLine
 10
-170.1520631414582
 20
258.8157530677826
 30
0.0
 11
-170.1520631414582
 21
-212.1841502539438
 31
0.0
  0
LINE
  5
90
330
1F
100
AcDbEntity
  8
躯体
  6
Continuous
 62
     2
370
     9
100
AcDbLine
 10
-170.1520631414582
 20
-212.1841502539438
 30
0.0
 11
-641.1519139705936
 21
-212.1841502539438
 31
0.0
  0
LINE
  5
91
330
1F
100
AcDbEntity
  8
躯体
  6
Continuous
 62
     2
370
     9
100
AcDbLine
 10
-641.1519139705936
 20
-212.1841502539438
 30
0.0
 11
-641.1519139705936
 21
258.8157530677826
 31
0.0
  0
LINE
  5
92
330
1F
100
AcDbEntity
  8
躯体
  6
Continuous
 62
     2
370
     9
100
AcDbLine
 10
-634.1519219829307
 20
-205.1842107588718
 30
0.0
 11
-634.1519219829307
 21
251.8158660653016
 31
0.0
  0
LINE
  5
93
330
1F
100
AcDbEntity
  8
躯体
  6
Continuous
 62
     2
370
     9
100
AcDbLine
 10
-634.1519219829307
 20
251.8158660653016
 30
0.0
 11
-177.1520026365302
 21
251.8158660653016
 31
0.0
  0
LINE
  5
94
330
1F
100
AcDbEntity
  8
躯体
  6
Continuous
 62
     2
370
     9
100
AcDbLine
 10
-177.1520026365302
 20
-205.1842107588718
 30
0.0
 11
-634.1519219829307
 21
-205.1842107588718
 31
0.0
  0
LINE
  5
95
330
1F
100
AcDbEntity
  8
躯体
  6
Continuous
 62
     2
370
     9
100
AcDbLine
 10
-177.1520026365302
 20
251.8158660653016
 30
0.0
 11
-177.1520026365302
 21
-205.1842107588718
 31
0.0
  0
LINE
  5
96
330
1F
100
AcDbEntity
  8
躯体
  6
Continuous
 62
     2
370
     9
100
AcDbLine
 10
-179.6520147728643
 20
-202.6841986225377
 30
0.0
 11
-167.6520510051241
 21
-214.684162390278
 31
0.0
  0
LINE
  5
97
330
1F
100
AcDbEntity
  8
躯体
  6
Continuous
 62
     2
370
     9
100
AcDbLine
 10
-631.6520148317785
 20
-202.6841986225377
 30
0.0
 11
-643.6520310921098
 21
-214.684162390278
 31
0.0
  0
LINE
  5
98
330
1F
100
AcDbEntity
  8
躯体
  6
Continuous
 62
     2
370
     9
100
AcDbLine
 10
-631.6520148317785
 20
249.3158539289675
 30
0.0
 11
-643.6520310921098
 21
261.3157652041168
 31
0.0
  0
LINE
  5
99
330
1F
100
AcDbEntity
  8
躯体
  6
Continuous
 62
     2
370
     9
100
AcDbLine
 10
-179.6520147728643
 20
249.3158539289675
 30
0.0
 11
-167.6520510051241
 21
261.3157652041168
 31
0.0
  0
LINE
  5
9A
330
1F
100
AcDbEntity
  8
躯体
  6
JWW_CENTER1
 62
     2
370
     9
100
AcDbLine
 10
-270.6520155976636
 20
219.4476746665927
 30
0.0
 11
-270.6520155976636
 21
248.7401676840766
 31
0.0
  0
LINE
  5
9B
330
1F
100
AcDbEntity
  8
0-A
  6
JWW_DASHED1
 62
     2
370
     9
100
AcDbLine
 10
-536.5520276986492
 20
248.3158700714702
 30
0.0
 11
-536.5520276986492
 21
248.0158224216301
 31
0.0
  0
LINE
  5
9C
330
1F
100
AcDbEntity
  8
0-A
  6
JWW_DASHED1
 62
     2
370
     9
100
AcDbLine
 10
-538.602178330587
 20
245.9658817600561
 30
0.0
 11
-536.5520276986492
 21
248.0158224216301
 31
0.0
  0
LINE
  5
9D
330
1F
100
AcDbEntity
  8
0-A
  6
JWW_DASHED1
 62
     2
370
     9
100
AcDbLine
 10
-542.702059653735
 20
245.9658817600561
 30
0.0
 11
-538.602178330587
 21
245.9658817600561
 31
0.0
  0
LINE
  5
9E
330
1F
100
AcDbEntity
  8
0-A
  6
JWW_DASHED1
 62
     2
370
     9
100
AcDbLine
 10
-542.702059653735
 20
245.9658817600561
 30
0.0
 11
-544.7520003153089
 21
248.0158224216301
 31
0.0
  0
LINE
  5
9F
330
1F
100
AcDbEntity
  8
0-A
  6
JWW_DASHED1
 62
     2
370
     9
100
AcDbLine
 10
-536.5520276986492
 20
248.0158224216301
 30
0.0
 11
-544.7520003153089
 21
248.0158224216301
 31
0.0
  0
LINE
  5
A0
330
1F
100
AcDbEntity
  8
0-A
  6
JWW_DASHED1
 62
     2
370
     9
100
AcDbLine
 10
-544.7520003153089
 20
248.3158700714702
 30
0.0
 11
-544.7520003153089
 21
248.0158224216301
 31
0.0
  0
LINE
  5
A1
330
1F
100
AcDbEntity
  8
0-A
  6
JWW_DASHED1
 62
     2
370
     9
100
AcDbLine
 10
-538.602178330587
 20
245.9658817600561
 30
0.0
 11
-538.602178330587
 21
239.982461288629
 31
0.0
  0
LINE
  5
A2
330
1F
100
AcDbEntity
  8
0-A
  6
JWW_DASHED1
 62
     2
370
     9
100
AcDbLine
 10
-542.702059653735
 20
245.9658817600561
 30
0.0
 11
-542.702059653735
 21
239.982461288629
 31
0.0
  0
LINE
  5
A3
330
1F
100
AcDbEntity
  8
0-A
  6
JWW_DASHED1
 62
     2
370
     9
100
AcDbLine
 10
-542.702059653735
 20
239.982461288629
 30
0.0
 11
-540.6521189921609
 21
223.3158536933105
 31
0.0
  0
LINE
  5
A4
330
1F
100
AcDbEntity
  8
0-A
  6
JWW_DASHED1
 62
     2
370
     9
100
AcDbLine
 10
-540.6521189921609
 20
223.3158536933105
 30
0.0
 11
-538.602178330587
 21
239.982461288629
 31
0.0
  0
LINE
  5
A5
330
1F
100
AcDbEntity
  8
0-A
  6
JWW_DASHED1
 62
     2
370
     9
100
AcDbLine
 10
-541.3299033264395
 20
224.7298991081799
 30
0.0
 11
-539.944308895862
 21
224.9740946412548
 31
0.0
  0
LINE
  5
A6
330
1F
100
AcDbEntity
  8
0-A
  6
JWW_DASHED1
 62
     2
370
     9
100
AcDbLine
 10
-541.5465927418594
 20
226.4916554454673
 30
0.0
 11
-539.7179608437085
 21
226.8140649390499
 31
0.0
  0
LINE
  5
A7
330
1F
100
AcDbEntity
  8
0-A
  6
JWW_DASHED1
 62
     2
370
     9
100
AcDbLine
 10
-543.0634186497987
 20
238.8241597768425
 30
0.0
 11
-538.13394441936
 21
239.6934370828873
 31
0.0
  0
LINE
  5
A8
330
1F
100
AcDbEntity
  8
0-A
  6
JWW_DASHED1
 62
     2
370
     9
100
AcDbLine
 10
-542.8467292343787
 20
237.0624034395551
 30
0.0
 11
-538.3600825011499
 21
237.8534667850923
 31
0.0
  0
LINE
  5
A9
330
1F
100
AcDbEntity
  8
0-A
  6
JWW_DASHED1
 62
     2
370
     9
100
AcDbLine
 10
-542.6300398189587
 20
235.3006471022677
 30
0.0
 11
-538.5864305533037
 21
236.0136014724792
 31
0.0
  0
LINE
  5
AA
330
1F
100
AcDbEntity
  8
0-A
  6
JWW_DASHED1
 62
     2
370
     9
100
AcDbLine
 10
-542.4133504035389
 20
233.5387857797984
 30
0.0
 11
-538.8127786054574
 21
234.1737361598661
 31
0.0
  0
LINE
  5
AB
330
1F
100
AcDbEntity
  8
0-A
  6
JWW_DASHED1
 62
     2
370
     9
100
AcDbLine
 10
-542.196660988119
 20
231.7770294425112
 30
0.0
 11
-539.0391266576112
 21
232.3337658620711
 31
0.0
  0
LINE
  5
AC
330
1F
100
AcDbEntity
  8
0-A
  6
JWW_DASHED1
 62
     2
370
     9
100
AcDbLine
 10
-541.9799715726991
 20
230.0152731052238
 30
0.0
 11
-539.2654747097649
 21
230.4937955642761
 31
0.0
  0
LINE
  5
AD
330
1F
100
AcDbEntity
  8
0-A
  6
JWW_DASHED1
 62
     2
370
     9
100
AcDbLine
 10
-541.7632821572793
 20
228.2534117827545
 30
0.0
 11
-539.4918227619185
 21
228.6540352368449
 31
0.0
  0
LINE
  5
AE
330
1F
100
AcDbEntity
  8
0-A
  6
JWW_DASHED1
 62
     2
370
     9
100
AcDbLine
 10
-274.7520019059936
 20
248.3158700714702
 30
0.0
 11
-274.7520019059936
 21
248.0158224216301
 31
0.0
  0
LINE
  5
AF
330
1F
100
AcDbEntity
  8
0-A
  6
JWW_DASHED1
 62
     2
370
     9
100
AcDbLine
 10
-272.7019562592377
 20
245.9658817600561
 30
0.0
 11
-274.7520019059936
 21
248.0158224216301
 31
0.0
  0
LINE
  5
B0
330
1F
100
AcDbEntity
  8
0-A
  6
JWW_DASHED1
 62
     2
370
     9
100
AcDbLine
 10
-268.6020749360898
 20
245.9658817600561
 30
0.0
 11
-272.7019562592377
 21
245.9658817600561
 31
0.0
  0
LINE
  5
B1
330
1F
100
AcDbEntity
  8
0-A
  6
JWW_DASHED1
 62
     2
370
     9
100
AcDbLine
 10
-268.6020749360898
 20
245.9658817600561
 30
0.0
 11
-266.5520292893339
 21
248.0158224216301
 31
0.0
  0
LINE
  5
B2
330
1F
100
AcDbEntity
  8
0-A
  6
JWW_DASHED1
 62
     2
370
     9
100
AcDbLine
 10
-274.7520019059936
 20
248.0158224216301
 30
0.0
 11
-266.5520292893339
 21
248.0158224216301
 31
0.0
  0
LINE
  5
B3
330
1F
100
AcDbEntity
  8
0-A
  6
JWW_DASHED1
 62
     2
370
     9
100
AcDbLine
 10
-266.5520292893339
 20
248.3158700714702
 30
0.0
 11
-266.5520292893339
 21
248.0158224216301
 31
0.0
  0
LINE
  5
B4
330
1F
100
AcDbEntity
  8
0-A
  6
JWW_DASHED1
 62
     2
370
     9
100
AcDbLine
 10
-272.7019562592377
 20
245.9658817600561
 30
0.0
 11
-272.7019562592377
 21
239.982461288629
 31
0.0
  0
LINE
  5
B5
330
1F
100
AcDbEntity
  8
0-A
  6
JWW_DASHED1
 62
     2
370
     9
100
AcDbLine
 10
-268.6020749360898
 20
245.9658817600561
 30
0.0
 11
-268.6020749360898
 21
239.982461288629
 31
0.0
  0
LINE
  5
B6
330
1F
100
AcDbEntity
  8
0-A
  6
JWW_DASHED1
 62
     2
370
     9
100
AcDbLine
 10
-268.6020749360898
 20
239.982461288629
 30
0.0
 11
-270.6520155976636
 21
223.3158536933105
 31
0.0
  0
LINE
  5
B7
330
1F
100
AcDbEntity
  8
0-A
  6
JWW_DASHED1
 62
     2
370
     9
100
AcDbLine
 10
-270.6520155976636
 20
223.3158536933105
 30
0.0
 11
-272.7019562592377
 21
239.982461288629
 31
0.0
  0
LINE
  5
B8
330
1F
100
AcDbEntity
  8
0-A
  6
JWW_DASHED1
 62
     2
370
     9
100
AcDbLine
 10
-269.9742312633851
 20
224.7298991081799
 30
0.0
 11
-271.3598256939625
 21
224.9740946412548
 31
0.0
  0
LINE
  5
B9
330
1F
100
AcDbEntity
  8
0-A
  6
JWW_DASHED1
 62
     2
370
     9
100
AcDbLine
 10
-269.7575418479653
 20
226.4916554454673
 30
0.0
 11
-271.5860687609344
 21
226.8140649390499
 31
0.0
  0
LINE
  5
BA
330
1F
100
AcDbEntity
  8
0-A
  6
JWW_DASHED1
 62
     2
370
     9
100
AcDbLine
 10
-268.2407159400261
 20
238.8241597768425
 30
0.0
 11
-273.1701901704648
 21
239.6934370828873
 31
0.0
  0
LINE
  5
BB
330
1F
100
AcDbEntity
  8
0-A
  6
JWW_DASHED1
 62
     2
370
     9
100
AcDbLine
 10
-268.4574053554461
 20
237.0624034395551
 30
0.0
 11
-272.943947103493
 21
237.8534667850923
 31
0.0
  0
LINE
  5
BC
330
1F
100
AcDbEntity
  8
0-A
  6
JWW_DASHED1
 62
     2
370
     9
100
AcDbLine
 10
-268.6740947708659
 20
235.3006471022677
 30
0.0
 11
-272.7177040365211
 21
236.0136014724792
 31
0.0
  0
LINE
  5
BD
330
1F
100
AcDbEntity
  8
0-A
  6
JWW_DASHED1
 62
     2
370
     9
100
AcDbLine
 10
-268.8907841862858
 20
233.5387857797984
 30
0.0
 11
-272.4913559843674
 21
234.1737361598661
 31
0.0
  0
LINE
  5
BE
330
1F
100
AcDbEntity
  8
0-A
  6
JWW_DASHED1
 62
     2
370
     9
100
AcDbLine
 10
-269.1074736017057
 20
231.7770294425112
 30
0.0
 11
-272.2650079322136
 21
232.3337658620711
 31
0.0
  0
LINE
  5
BF
330
1F
100
AcDbEntity
  8
0-A
  6
JWW_DASHED1
 62
     2
370
     9
100
AcDbLine
 10
-269.3241630171255
 20
230.0152731052238
 30
0.0
 11
-272.0386598800599
 21
230.4937955642761
 31
0.0
  0
LINE
  5
C0
330
1F
100
AcDbEntity
  8
0-A
  6
JWW_DASHED1
 62
     2
370
     9
100
AcDbLine
 10
-269.5408524325455
 20
228.2534117827545
 30
0.0
 11
-271.8123118279062
 21
228.6540352368449
 31
0.0
  0
LINE
  5
C1
330
1F
100
AcDbEntity
  8
仕上
  6
JWW_CENTER1
 62
     3
370
     9
100
AcDbLine
 10
-275.652039870332
 20
80.88460962008341
 30
0.0
 11
-275.652039870332
 21
-35.36201777513412
 31
0.0
  0
LINE
  5
C2
330
1F
100
AcDbEntity
  8
仕上
  6
JWW_CENTER1
 62
     3
370
     9
100
AcDbLine
 10
-535.6520947194927
 20
81.2813486224438
 30
0.0
 11
-535.6520947194927
 21
-36.08352843766951
 31
0.0
  0
LINE
  5
C3
330
1F
100
AcDbEntity
  8
躯体
  6
JWW_CENTER1
 62
     2
370
     9
100
AcDbLine
 10
-602.6519580384478
 20
-120.3329820669754
 30
0.0
 11
-602.6519580384478
 21
-132.6256970144145
 31
0.0
  0
LINE
  5
C4
330
1F
100
AcDbEntity
  8
躯体
  6
JWW_CENTER1
 62
     2
370
     9
100
AcDbLine
 10
-596.649325278735
 20
-126.6841656305613
 30
0.0
 11
-608.9420402261741
 21
-126.6841656305613
 31
0.0
  0
LINE
  5
C5
330
1F
100
AcDbEntity
  8
建具
  6
Continuous
 62
     3
370
     9
100
AcDbLine
 10
-609.152010589953
 20
-180.1840893955303
 30
0.0
 11
-609.152010589953
 21
226.8157447019601
 31
0.0
  0
LINE
  5
C6
330
1F
100
AcDbEntity
  8
建具
  6
Continuous
 62
     3
370
     9
100
AcDbLine
 10
-202.1520715072808
 20
-180.1840893955303
 30
0.0
 11
-609.152010589953
 21
-180.1840893955303
 31
0.0
  0
LINE
  5
C7
330
1F
100
AcDbEntity
  8
建具
  6
Continuous
 62
     3
370
     9
100
AcDbLine
 10
-202.1520715072808
 20
226.8157447019601
 30
0.0
 11
-202.1520715072808
 21
-180.1840893955303
 31
0.0
  0
LINE
  5
C8
330
1F
100
AcDbEntity
  8
建具
  6
Continuous
 62
     3
370
     9
100
AcDbLine
 10
-609.152010589953
 20
226.8157447019601
 30
0.0
 11
-202.1520715072808
 21
226.8157447019601
 31
0.0
  0
LINE
  5
C9
330
1F
100
AcDbEntity
  8
通り芯
  6
Continuous
 62
     4
370
     9
100
AcDbLine
 10
-609.6519500261107
 20
-180.6840813242789
 30
0.0
 11
-609.6519500261107
 21
227.3157366307088
 31
0.0
  0
LINE
  5
CA
330
1F
100
AcDbEntity
  8
通り芯
  6
Continuous
 62
     4
370
     9
100
AcDbLine
 10
-609.6519500261107
 20
227.3157366307088
 30
0.0
 11
-201.6520795785322
 21
227.3157366307088
 31
0.0
  0
LINE
  5
CB
330
1F
100
AcDbEntity
  8
通り芯
  6
Continuous
 62
     4
370
     9
100
AcDbLine
 10
-630.6521359594631
 20
248.3158700714702
 30
0.0
 11
-609.6519500261107
 21
227.3157366307088
 31
0.0
  0
LINE
  5
CC
330
1F
100
AcDbEntity
  8
通り芯
  6
Continuous
 62
     4
370
     9
100
AcDbLine
 10
-630.6521359594631
 20
-201.6841622724495
 30
0.0
 11
-609.6519500261107
 21
-180.6840813242789
 31
0.0
  0
LINE
  5
CD
330
1F
100
AcDbEntity
  8
通り芯
  6
Continuous
 62
     4
370
     9
100
AcDbLine
 10
-201.6520795785322
 20
-180.6840813242789
 30
0.0
 11
-609.6519500261107
 21
-180.6840813242789
 31
0.0
  0
LINE
  5
CE
330
1F
100
AcDbEntity
  8
通り芯
  6
Continuous
 62
     4
370
     9
100
AcDbLine
 10
-201.6520795785322
 20
-180.6841338168699
 30
0.0
 11
-180.6520511229526
 21
-201.6841622724495
 31
0.0
  0
LINE
  5
CF
330
1F
100
AcDbEntity
  8
通り芯
  6
Continuous
 62
     4
370
     9
100
AcDbLine
 10
-201.6520795785322
 20
227.3157366307088
 30
0.0
 11
-180.6520511229526
 21
248.3158700714702
 31
0.0
  0
LINE
  5
D0
330
1F
100
AcDbEntity
  8
通り芯
  6
Continuous
 62
     4
370
     9
100
AcDbLine
 10
-201.6520795785322
 20
227.3157366307088
 30
0.0
 11
-201.6520795785322
 21
-180.6841338168699
 31
0.0
  0
LINE
  5
D1
330
1F
100
AcDbEntity
  8
躯体
  6
JWW_CENTER1
 62
     2
370
     9
100
AcDbLine
 10
-602.6519580384478
 20
-20.33299529322306
 30
0.0
 11
-602.6519580384478
 21
-32.62571024066219
 31
0.0
  0
LINE
  5
D2
330
1F
100
AcDbEntity
  8
躯体
  6
JWW_CENTER1
 62
     2
370
     9
100
AcDbLine
 10
-596.649325278735
 20
-26.68417885680896
 30
0.0
 11
-608.9420402261741
 21
-26.68417885680896
 31
0.0
  0
LINE
  5
D3
330
1F
100
AcDbEntity
  8
躯体
  6
JWW_CENTER1
 62
     2
370
     9
100
AcDbLine
 10
-540.6521189921609
 20
219.4476746665927
 30
0.0
 11
-540.6521189921609
 21
248.7401676840766
 31
0.0
  0
LINE
  5
D4
330
1F
100
AcDbEntity
  8
躯体
  6
JWW_CENTER1
 62
     2
370
     9
100
AcDbLine
 10
-602.6519580384478
 20
166.9646373734052
 30
0.0
 11
-602.6519580384478
 21
179.2573523208443
 31
0.0
  0
LINE
  5
D5
330
1F
100
AcDbEntity
  8
躯体
  6
JWW_CENTER1
 62
     2
370
     9
100
AcDbLine
 10
-596.649325278735
 20
173.3158209369911
 30
0.0
 11
-608.9420402261741
 21
173.3158209369911
 31
0.0
  0
LINE
  5
D6
330
1F
100
AcDbEntity
  8
躯体
  6
JWW_CENTER1
 62
     2
370
     9
100
AcDbLine
 10
-602.6519580384478
 20
66.96462435335746
 30
0.0
 11
-602.6519580384478
 21
79.25733930079659
 31
0.0
  0
LINE
  5
D7
330
1F
100
AcDbEntity
  8
躯体
  6
JWW_CENTER1
 62
     2
370
     9
100
AcDbLine
 10
-596.649325278735
 20
73.31580791694336
 30
0.0
 11
-608.9420402261741
 21
73.31580791694336
 31
0.0
  0
LINE
  5
D8
330
1F
100
AcDbEntity
  8
躯体
  6
JWW_CENTER1
 62
     2
370
     9
100
AcDbLine
 10
-262.0032313284265
 20
-173.684089336616
 30
0.0
 11
-249.7105163809875
 21
-173.684089336616
 31
0.0
  0
LINE
  5
D9
330
1F
100
AcDbEntity
  8
躯体
  6
JWW_CENTER1
 62
     2
370
     9
100
AcDbLine
 10
-255.6520477648407
 20
-167.6814565769032
 30
0.0
 11
-255.6520477648407
 21
-179.9741715243422
 31
0.0
  0
LINE
  5
DA
330
1F
100
AcDbEntity
  8
躯体
  6
JWW_CENTER1
 62
     2
370
     9
100
AcDbLine
 10
-362.0032443484743
 20
-173.684089336616
 30
0.0
 11
-349.7105294010353
 21
-173.684089336616
 31
0.0
  0
LINE
  5
DB
330
1F
100
AcDbEntity
  8
躯体
  6
JWW_CENTER1
 62
     2
370
     9
100
AcDbLine
 10
-355.6520607848884
 20
-167.6814565769032
 30
0.0
 11
-355.6520607848885
 21
-179.9741715243422
 31
0.0
  0
LINE
  5
DC
330
1F
100
AcDbEntity
  8
躯体
  6
JWW_CENTER1
 62
     2
370
     9
100
AcDbLine
 10
-549.3008507688072
 20
-173.684089336616
 30
0.0
 11
-561.5935657162463
 21
-173.684089336616
 31
0.0
  0
LINE
  5
DD
330
1F
100
AcDbEntity
  8
躯体
  6
JWW_CENTER1
 62
     2
370
     9
100
AcDbLine
 10
-555.6520343323931
 20
-167.6814565769032
 30
0.0
 11
-555.6520343323931
 21
-179.9741715243422
 31
0.0
  0
LINE
  5
DE
330
1F
100
AcDbEntity
  8
躯体
  6
JWW_CENTER1
 62
     2
370
     9
100
AcDbLine
 10
-449.3008377487595
 20
-173.684089336616
 30
0.0
 11
-461.5935526961985
 21
-173.684089336616
 31
0.0
  0
LINE
  5
DF
330
1F
100
AcDbEntity
  8
躯体
  6
JWW_CENTER1
 62
     2
370
     9
100
AcDbLine
 10
-455.6520213123454
 20
-167.6814565769032
 30
0.0
 11
-455.6520213123454
 21
-179.9741715243422
 31
0.0
  0
LINE
  5
E0
330
1F
100
AcDbEntity
  8
躯体
  6
JWW_CENTER1
 62
     2
370
     9
100
AcDbLine
 10
-208.652124058786
 20
166.9646373734052
 30
0.0
 11
-208.652124058786
 21
179.2573523208442
 31
0.0
  0
LINE
  5
E1
330
1F
100
AcDbEntity
  8
躯体
  6
JWW_CENTER1
 62
     2
370
     9
100
AcDbLine
 10
-214.6547568184988
 20
173.3158209369911
 30
0.0
 11
-202.3620418710598
 21
173.3158209369911
 31
0.0
  0
LINE
  5
E2
330
1F
100
AcDbEntity
  8
躯体
  6
JWW_CENTER1
 62
     2
370
     9
100
AcDbLine
 10
-208.652124058786
 20
66.96462435335746
 30
0.0
 11
-208.652124058786
 21
79.25733930079645
 31
0.0
  0
LINE
  5
E3
330
1F
100
AcDbEntity
  8
躯体
  6
JWW_CENTER1
 62
     2
370
     9
100
AcDbLine
 10
-214.6547568184988
 20
73.31580791694336
 30
0.0
 11
-202.3620418710598
 21
73.31580791694336
 31
0.0
  0
LINE
  5
E4
330
1F
100
AcDbEntity
  8
躯体
  6
JWW_CENTER1
 62
     2
370
     9
100
AcDbLine
 10
-208.652124058786
 20
-120.3329820669754
 30
0.0
 11
-208.652124058786
 21
-132.6256970144145
 31
0.0
  0
LINE
  5
E5
330
1F
100
AcDbEntity
  8
躯体
  6
JWW_CENTER1
 62
     2
370
     9
100
AcDbLine
 10
-214.6547568184988
 20
-126.6841656305613
 30
0.0
 11
-202.3620418710598
 21
-126.6841656305613
 31
0.0
  0
LINE
  5
E6
330
1F
100
AcDbEntity
  8
躯体
  6
JWW_CENTER1
 62
     2
370
     9
100
AcDbLine
 10
-208.652124058786
 20
-20.33296904692762
 30
0.0
 11
-208.652124058786
 21
-32.6256839943666
 31
0.0
  0
LINE
  5
E7
330
1F
100
AcDbEntity
  8
躯体
  6
JWW_CENTER1
 62
     2
370
     9
100
AcDbLine
 10
-214.6547568184988
 20
-26.68415261051351
 30
0.0
 11
-202.3620418710598
 21
-26.68415261051351
 31
0.0
  0
LINE
  5
E8
330
1F
100
AcDbEntity
  8
躯体
  6
JWW_CENTER1
 62
     2
370
     9
100
AcDbLine
 10
-549.3008507688072
 20
220.3157446430458
 30
0.0
 11
-561.5935657162462
 21
220.3157446430458
 31
0.0
  0
LINE
  5
E9
330
1F
100
AcDbEntity
  8
躯体
  6
JWW_CENTER1
 62
     2
370
     9
100
AcDbLine
 10
-555.6520343323931
 20
214.3131118833331
 30
0.0
 11
-555.6520343323931
 21
226.6058268307721
 31
0.0
  0
LINE
  5
EA
330
1F
100
AcDbEntity
  8
躯体
  6
JWW_CENTER1
 62
     2
370
     9
100
AcDbLine
 10
-449.3008377487594
 20
220.3157446430458
 30
0.0
 11
-461.5935526961985
 21
220.3157446430458
 31
0.0
  0
LINE
  5
EB
330
1F
100
AcDbEntity
  8
躯体
  6
JWW_CENTER1
 62
     2
370
     9
100
AcDbLine
 10
-455.6520213123453
 20
214.3131118833331
 30
0.0
 11
-455.6520213123453
 21
226.6058268307721
 31
0.0
  0
LINE
  5
EC
330
1F
100
AcDbEntity
  8
躯体
  6
JWW_CENTER1
 62
     2
370
     9
100
AcDbLine
 10
-262.0032313284265
 20
220.3157446430458
 30
0.0
 11
-249.7105163809875
 21
220.3157446430458
 31
0.0
  0
LINE
  5
ED
330
1F
100
AcDbEntity
  8
躯体
  6
JWW_CENTER1
 62
     2
370
     9
100
AcDbLine
 10
-255.6520477648406
 20
214.3131118833331
 30
0.0
 11
-255.6520477648406
 21
226.6058268307721
 31
0.0
  0
LINE
  5
EE
330
1F
100
AcDbEntity
  8
躯体
  6
JWW_CENTER1
 62
     2
370
     9
100
AcDbLine
 10
-362.0032443484743
 20
220.3157446430458
 30
0.0
 11
-349.7105294010353
 21
220.3157446430458
 31
0.0
  0
LINE
  5
EF
330
1F
100
AcDbEntity
  8
躯体
  6
JWW_CENTER1
 62
     2
370
     9
100
AcDbLine
 10
-355.6520607848884
 20
214.3131118833331
 30
0.0
 11
-355.6520607848884
 21
226.6058268307721
 31
0.0
  0
CIRCLE
  5
F0
330
1F
100
AcDbEntity
  8
躯体
  6
JWW_DASHED1
 62
     2
370
     9
100
AcDbCircle
 10
-602.6519580384478
 20
-126.6841656305613
 30
0.0
 40
1.999999907716361
  0
CIRCLE
  5
F1
330
1F
100
AcDbEntity
  8
躯体
  6
JWW_DASHED1
 62
     2
370
     9
100
AcDbCircle
 10
-602.6519580384478
 20
-26.68417885680896
 30
0.0
 40
1.999999907716361
  0
CIRCLE
  5
F2
330
1F
100
AcDbEntity
  8
躯体
  6
JWW_DASHED1
 62
     2
370
     9
100
AcDbCircle
 10
-602.6519580384478
 20
173.3158209369911
 30
0.0
 40
1.999999907716361
  0
CIRCLE
  5
F3
330
1F
100
AcDbEntity
  8
躯体
  6
JWW_DASHED1
 62
     2
370
     9
100
AcDbCircle
 10
-602.6519580384478
 20
73.31580791694336
 30
0.0
 40
1.999999907716361
  0
CIRCLE
  5
F4
330
1F
100
AcDbEntity
  8
躯体
  6
JWW_DASHED1
 62
     2
370
     9
100
AcDbCircle
 10
-255.6520477648407
 20
-173.684089336616
 30
0.0
 40
1.999999907716361
  0
CIRCLE
  5
F5
330
1F
100
AcDbEntity
  8
躯体
  6
JWW_DASHED1
 62
     2
370
     9
100
AcDbCircle
 10
-355.6520607848884
 20
-173.684089336616
 30
0.0
 40
1.999999907716361
  0
CIRCLE
  5
F6
330
1F
100
AcDbEntity
  8
躯体
  6
JWW_DASHED1
 62
     2
370
     9
100
AcDbCircle
 10
-555.6520343323931
 20
-173.684089336616
 30
0.0
 40
1.999999907716361
  0
CIRCLE
  5
F7
330
1F
100
AcDbEntity
  8
躯体
  6
JWW_DASHED1
 62
     2
370
     9
100
AcDbCircle
 10
-455.6520213123454
 20
-173.684089336616
 30
0.0
 40
1.999999907716361
  0
CIRCLE
  5
F8
330
1F
100
AcDbEntity
  8
躯体
  6
JWW_DASHED1
 62
     2
370
     9
100
AcDbCircle
 10
-208.652124058786
 20
173.3158209369911
 30
0.0
 40
1.999999907716361
  0
CIRCLE
  5
F9
330
1F
100
AcDbEntity
  8
躯体
  6
JWW_DASHED1
 62
     2
370
     9
100
AcDbCircle
 10
-208.652124058786
 20
73.31580791694336
 30
0.0
 40
1.999999907716361
  0
CIRCLE
  5
FA
330
1F
100
AcDbEntity
  8
躯体
  6
JWW_DASHED1
 62
     2
370
     9
100
AcDbCircle
 10
-208.652124058786
 20
-126.6841656305613
 30
0.0
 40
1.999999907716361
  0
CIRCLE
  5
FB
330
1F
100
AcDbEntity
  8
躯体
  6
JWW_DASHED1
 62
     2
370
     9
100
AcDbCircle
 10
-208.652124058786
 20
-26.68415261051351
 30
0.0
 40
1.999999907716361
  0
CIRCLE
  5
FC
330
1F
100
AcDbEntity
  8
躯体
  6
JWW_DASHED1
 62
     2
370
     9
100
AcDbCircle
 10
-555.6520343323931
 20
220.3157446430458
 30
0.0
 40
1.999999907716361
  0
CIRCLE
  5
FD
330
1F
100
AcDbEntity
  8
躯体
  6
JWW_DASHED1
 62
     2
370
     9
100
AcDbCircle
 10
-455.6520213123453
 20
220.3157446430458
 30
0.0
 40
1.999999907716361
  0
CIRCLE
  5
FE
330
1F
100
AcDbEntity
  8
躯体
  6
JWW_DASHED1
 62
     2
370
     9
100
AcDbCircle
 10
-255.6520477648406
 20
220.3157446430458
 30
0.0
 40
1.999999907716361
  0
CIRCLE
  5
FF
330
1F
100
AcDbEntity
  8
躯体
  6
JWW_DASHED1
 62
     2
370
     9
100
AcDbCircle
 10
-355.6520607848884
 20
220.3157446430458
 30
0.0
 40
1.999999907716361
  0
LINE
  5
100
330
1F
100
AcDbEntity
  8
通り芯
  6
JWW_CENTER1
 62
     4
370
     9
100
AcDbLine
 10
-405.6520410486169
 20
-234.684162390278
 30
0.0
 11
-405.6520410486169
 21
281.3157652041168
 31
0.0
  0
LINE
  5
101
330
1F
100
AcDbEntity
  8
通り芯
  6
JWW_CENTER1
 62
     4
370
     9
100
AcDbLine
 10
-147.6520510051241
 20
23.31582765321485
 30
0.0
 11
-663.6520310921096
 21
23.31582765321485
 31
0.0
  0
LINE
  5
102
330
1F
100
AcDbEntity
  8
0-9
  6
JWW_DASHED3
 62
     2
370
     9
100
AcDbLine
 10
-605.6520410486169
 20
-176.6841723467851
 30
0.0
 11
-205.6520410486169
 21
-176.6841723467851
 31
0.0
  0
LINE
  5
103
330
1F
100
AcDbEntity
  8
0-9
  6
JWW_DASHED3
 62
     2
370
     9
100
AcDbLine
 10
-205.6520410486169
 20
-176.6841723467851
 30
0.0
 11
-205.6520410486169
 21
223.3158276532149
 31
0.0
  0
LINE
  5
104
330
1F
100
AcDbEntity
  8
0-9
  6
JWW_DASHED3
 62
     2
370
     9
100
AcDbLine
 10
-205.6520410486169
 20
223.3158276532149
 30
0.0
 11
-605.6520410486169
 21
223.3158276532149
 31
0.0
  0
LINE
  5
105
330
1F
100
AcDbEntity
  8
0-9
  6
JWW_DASHED3
 62
     2
370
     9
100
AcDbLine
 10
-605.6520410486169
 20
223.3158276532149
 30
0.0
 11
-605.6520410486169
 21
-176.6841723467851
 31
0.0
  0
LINE
  5
106
330
1F
100
AcDbEntity
  8
その他
  6
Continuous
 62
     7
370
     9
100
AcDbLine
 10
-605.6520410486169
 20
308.7238373627534
 30
0.0
 11
-205.6520410486169
 21
308.7238373627534
 31
0.0
  0
LWPOLYLINE
  5
107
330
1F
100
AcDbEntity
  8
その他
  6
Continuous
 62
     7
370
     9
100
AcDbPolyline
 90
        4
 70
     1
 43
0.5
 10
-605.402041048617
 20
308.7238373627534
 42
0.4142135623731
 10
-605.6520410486169
 20
308.9738373627534
 42
0.4142135623731
 10
-605.9020410486169
 20
308.7238373627534
 42
0.4142135623731
 10
-605.6520410486169
 20
308.4738373627534
 42
0.4142135623731
  0
LWPOLYLINE
  5
108
330
1F
100
AcDbEntity
  8
その他
  6
Continuous
 62
     7
370
     9
100
AcDbPolyline
 90
        4
 70
     1
 43
0.5
 10
-205.4020410486169
 20
308.7238373627534
 42
0.4142135623731
 10
-205.6520410486169
 20
308.9738373627534
 42
0.4142135623731
 10
-205.9020410486169
 20
308.7238373627534
 42
0.4142135623731
 10
-205.6520410486169
 20
308.4738373627534
 42
0.4142135623731
  0
TEXT
  5
109
330
1F
100
AcDbEntity
  8
その他
  6
Continuous
 62
     2
370
   211
100
AcDbText
 10
-421.9020410486169
 20
314.5438374819627
 30
0.0
 40
15.24
  1
400
 41
1.083333333333333
  7
ＭＳ ゴシック
100
AcDbText
  0
LINE
  5
10A
330
1F
100
AcDbEntity
  8
その他
  6
Continuous
 62
     7
370
     9
100
AcDbLine
 10
-605.6520410486169
 20
310.223837422358
 30
0.0
 11
-605.6520410486169
 21
268.8164953283362
 31
0.0
  0
LINE
  5
10B
330
1F
100
AcDbEntity
  8
その他
  6
Continuous
 62
     7
370
     9
100
AcDbLine
 10
-205.6520410486169
 20
310.223837422358
 30
0.0
 11
-205.6520410486169
 21
268.8164953283362
 31
0.0
  0
LINE
  5
10C
330
1F
100
AcDbEntity
  8
その他
  6
Continuous
 62
     7
370
     9
100
AcDbLine
 10
-691.0597707949393
 20
223.3153603987359
 30
0.0
 11
-691.0562712783083
 21
-176.6846395859559
 31
0.0
  0
LWPOLYLINE
  5
10D
330
1F
100
AcDbEntity
  8
その他
  6
Continuous
 62
     7
370
     9
100
AcDbPolyline
 90
        4
 70
     1
 43
0.5
 10
-690.8097707949391
 20
223.3153603987359
 42
0.4142135623731
 10
-691.0597707949393
 20
223.5653603987359
 42
0.4142135623731
 10
-691.3097707949394
 20
223.3153603987359
 42
0.4142135623731
 10
-691.0597707949393
 20
223.0653603987359
 42
0.4142135623731
  0
LINE
  5
10E
330
1F
100
AcDbEntity
  8
その他
  6
Continuous
 62
     7
370
     9
100
AcDbLine
 10
-692.5597708544865
 20
223.315347275548
 30
0.0
 11
-651.1524287620495
 21
223.3157095397537
 31
0.0
  0
LWPOLYLINE
  5
10F
330
1F
100
AcDbEntity
  8
その他
  6
Continuous
 62
     7
370
     9
100
AcDbPolyline
 90
        4
 70
     1
 43
0.5
 10
-690.8062712783083
 20
-176.6846395859558
 42
0.4142135623731
 10
-691.0562712783083
 20
-176.4346395859559
 42
0.4142135623731
 10
-691.3062712783084
 20
-176.6846395859558
 42
0.4142135623731
 10
-691.0562712783083
 20
-176.9346395859558
 42
0.4142135623731
  0
LINE
  5
110
330
1F
100
AcDbEntity
  8
その他
  6
Continuous
 62
     7
370
     9
100
AcDbLine
 10
-692.5562713378555
 20
-176.6846527091438
 30
0.0
 11
-651.1489292454183
 21
-176.684290444938
 31
0.0
  0
TEXT
  5
111
330
1F
100
AcDbEntity
  8
その他
  6
Continuous
 62
     2
370
   211
100
AcDbText
 10
-696.8778789877473
 20
7.065309489043888
 30
0.0
 40
15.24
  1
400
 50
90.00050126883323
 41
1.083333333333333
  7
ＭＳ ゴシック
100
AcDbText
  0
LINE
  5
112
330
1F
100
AcDbEntity
  8
通り芯
  6
JWW_DASHED1
 62
   211
370
     5
100
AcDbLine
 10
-597.6519337657795
 20
215.3156153851957
 30
0.0
 11
-213.6522008240452
 21
215.3156153851957
 31
0.0
  0
LINE
  5
113
330
1F
100
AcDbEntity
  8
通り芯
  6
JWW_DASHED1
 62
   211
370
     5
100
AcDbLine
 10
-597.6519337657795
 20
-168.6839600787658
 30
0.0
 11
-597.6519337657795
 21
215.3156153851957
 31
0.0
  0
LINE
  5
114
330
1F
100
AcDbEntity
  8
通り芯
  6
JWW_DASHED1
 62
   211
370
     5
100
AcDbLine
 10
-213.6522008240452
 20
215.3156153851957
 30
0.0
 11
-213.6523583018181
 21
-168.6839600787658
 31
0.0
  0
LINE
  5
115
330
1F
100
AcDbEntity
  8
通り芯
  6
JWW_DASHED1
 62
   211
370
     5
100
AcDbLine
 10
-213.6523583018181
 20
-168.6839600787658
 30
0.0
 11
-597.6519337657795
 21
-168.6839600787658
 31
0.0
  0
LINE
  5
116
330
1F
100
AcDbEntity
  8
D-4
  6
Continuous
 62
     7
370
     9
100
AcDbLine
 10
305.548838022593
 20
18.46472419133157
 30
0.0
 11
570.81298828125
 21
18.46472419133157
 31
0.0
  0
LINE
  5
117
330
1F
100
AcDbEntity
  8
D-1
  6
Continuous
 62
     2
370
     9
100
AcDbLine
 10
535.7997584987331
 20
457.0391903811542
 30
0.0
 11
542.049840978674
 21
453.2892398691187
 31
0.0
  0
LINE
  5
118
330
1F
100
AcDbEntity
  8
D-1
  6
Continuous
 62
     2
370
     9
100
AcDbLine
 10
542.049840978674
 20
453.2892398691187
 30
0.0
 11
542.049840978674
 21
452.0391738851661
 31
0.0
  0
LINE
  5
119
330
1F
100
AcDbEntity
  8
D-5
  6
Continuous
 62
     7
370
     9
100
AcDbLine
 10
493.2999894425677
 20
380.7893718370241
 30
0.0
 11
493.2999894425677
 21
378.4010826689498
 31
0.0
  0
LINE
  5
11A
330
1F
100
AcDbEntity
  8
D-5
  6
Continuous
 62
     7
370
     9
100
AcDbLine
 10
465.7997749947214
 20
380.7893718370241
 30
0.0
 11
465.7997749947214
 21
378.4010826689498
 31
0.0
  0
LINE
  5
11B
330
1F
100
AcDbEntity
  8
D-5
  6
Continuous
 62
     7
370
     9
100
AcDbLine
 10
490.1749482025971
 20
387.0392068771424
 30
0.0
 11
490.1749482025971
 21
380.7893718370241
 31
0.0
  0
LINE
  5
11C
330
1F
100
AcDbEntity
  8
D-5
  6
Continuous
 62
     7
370
     9
100
AcDbLine
 10
493.2999894425677
 20
380.7893718370241
 30
0.0
 11
490.1749482025971
 21
380.7893718370241
 31
0.0
  0
LINE
  5
11D
330
1F
100
AcDbEntity
  8
D-5
  6
Continuous
 62
     7
370
     9
100
AcDbLine
 10
468.9248162346919
 20
387.0392068771424
 30
0.0
 11
468.9248162346919
 21
380.7893718370241
 31
0.0
  0
LINE
  5
11E
330
1F
100
AcDbEntity
  8
D-5
  6
Continuous
 62
     7
370
     9
100
AcDbLine
 10
468.9248162346919
 20
380.7893718370241
 30
0.0
 11
465.7997749947214
 21
380.7893718370241
 31
0.0
  0
LINE
  5
11F
330
1F
100
AcDbEntity
  8
D-5
  6
Continuous
 62
     7
370
     9
100
AcDbLine
 10
487.0499069626268
 20
387.0392068771424
 30
0.0
 11
487.0499069626268
 21
378.5903741332657
 31
0.0
  0
LINE
  5
120
330
1F
100
AcDbEntity
  8
D-5
  6
Continuous
 62
     7
370
     9
100
AcDbLine
 10
487.0499069626268
 20
387.0392068771424
 30
0.0
 11
472.0499811945734
 21
387.0392068771424
 31
0.0
  0
LINE
  5
121
330
1F
100
AcDbEntity
  8
D-5
  6
Continuous
 62
     7
370
     9
100
AcDbLine
 10
472.0499811945734
 20
387.0392068771424
 30
0.0
 11
472.0499811945734
 21
378.5903741332657
 31
0.0
  0
LINE
  5
122
330
1F
100
AcDbEntity
  8
D-1
  6
Continuous
 62
     2
370
     9
100
AcDbLine
 10
512.0496182828335
 20
387.0392068771424
 30
0.0
 11
493.2999894425677
 21
387.0392068771424
 31
0.0
  0
LINE
  5
123
330
1F
100
AcDbEntity
  8
D-1
  6
Continuous
 62
     2
370
     9
100
AcDbLine
 10
465.7997749947214
 20
387.0392068771424
 30
0.0
 11
447.0497749947214
 21
387.0392068771424
 31
0.0
  0
LINE
  5
124
330
1F
100
AcDbEntity
  8
D-1
  6
Continuous
 62
     2
370
     9
100
AcDbLine
 10
495.1749646985854
 20
382.0391903811542
 30
0.0
 11
493.2999894425677
 21
382.0391903811542
 31
0.0
  0
LINE
  5
125
330
1F
100
AcDbEntity
  8
D-1
  6
Continuous
 62
     2
370
     9
100
AcDbLine
 10
463.9247997387037
 20
382.0391903811542
 30
0.0
 11
465.7997749947214
 21
382.0391903811542
 31
0.0
  0
LINE
  5
126
330
1F
100
AcDbEntity
  8
D-1
  6
Continuous
 62
     2
370
     9
100
AcDbLine
 10
485.1748079866977
 20
354.5389759333079
 30
0.0
 11
485.1748079866977
 21
352.0390914052252
 31
0.0
  0
LINE
  5
127
330
1F
100
AcDbEntity
  8
D-1
  6
Continuous
 62
     2
370
     9
100
AcDbLine
 10
488.9248822186445
 20
354.5389759333079
 30
0.0
 11
485.1748079866977
 21
354.5389759333079
 31
0.0
  0
LINE
  5
128
330
1F
100
AcDbEntity
  8
D-1
  6
Continuous
 62
     2
370
     9
100
AcDbLine
 10
488.9248822186445
 20
363.2894378209769
 30
0.0
 11
488.9248822186445
 21
354.5389759333079
 31
0.0
  0
LINE
  5
129
330
1F
100
AcDbEntity
  8
D-1
  6
Continuous
 62
     2
370
     9
100
AcDbLine
 10
473.9249564505914
 20
354.5389759333079
 30
0.0
 11
473.9249564505914
 21
352.0390914052252
 31
0.0
  0
LINE
  5
12A
330
1F
100
AcDbEntity
  8
D-1
  6
Continuous
 62
     2
370
     9
100
AcDbLine
 10
470.1748822186445
 20
354.5389759333079
 30
0.0
 11
473.9249564505914
 21
354.5389759333079
 31
0.0
  0
LINE
  5
12B
330
1F
100
AcDbEntity
  8
D-1
  6
Continuous
 62
     2
370
     9
100
AcDbLine
 10
488.9248822186445
 20
363.2894378209769
 30
0.0
 11
470.1748822186445
 21
363.2894378209769
 31
0.0
  0
LINE
  5
12C
330
1F
100
AcDbEntity
  8
D-1
  6
Continuous
 62
     2
370
     9
100
AcDbLine
 10
470.1748822186445
 20
363.2894378209769
 30
0.0
 11
470.1748822186445
 21
354.5389759333079
 31
0.0
  0
LINE
  5
12D
330
1F
100
AcDbEntity
  8
D-1
  6
Continuous
 62
     2
370
     9
100
AcDbLine
 10
453.2996100348396
 20
382.0391903811542
 30
0.0
 11
457.6745935388513
 21
382.0391903811542
 31
0.0
  0
LINE
  5
12E
330
1F
100
AcDbEntity
  8
D-1
  6
Continuous
 62
     2
370
     9
100
AcDbLine
 10
447.0497749947214
 20
387.0392068771424
 30
0.0
 11
447.0497749947214
 21
352.0390914052252
 31
0.0
  0
LINE
  5
12F
330
1F
100
AcDbEntity
  8
D-1
  6
Continuous
 62
     2
370
     9
100
AcDbLine
 10
450.7998492266682
 20
358.2891738851661
 30
0.0
 11
450.7998492266682
 21
379.5390584132488
 31
0.0
  0
LINE
  5
130
330
1F
100
AcDbEntity
  8
D-1
  6
Continuous
 62
     2
370
     9
100
AcDbLine
 10
463.9251708984375
 20
355.7890419172606
 30
0.0
 11
453.2996100348396
 21
355.7890419172606
 31
0.0
  0
LINE
  5
131
330
1F
100
AcDbEntity
  8
D-1
  6
Continuous
 62
     2
370
     9
100
AcDbLine
 10
466.4248079866977
 20
360.7890584132488
 30
0.0
 11
466.4248079866977
 21
358.2891738851661
 31
0.0
  0
LINE
  5
132
330
1F
100
AcDbEntity
  8
D-1
  6
Continuous
 62
     2
370
     9
100
AcDbLine
 10
462.6747337547511
 20
363.2894378209769
 30
0.0
 11
463.9251708984375
 21
363.2894378209769
 31
0.0
  0
LINE
  5
133
330
1F
100
AcDbEntity
  8
D-1
  6
Continuous
 62
     2
370
     9
100
AcDbLine
 10
460.1750966664909
 20
365.7890749092369
 30
0.0
 11
460.1750966664909
 21
379.5390584132488
 31
0.0
  0
LINE
  5
134
330
1F
100
AcDbEntity
  8
D-1
  6
Continuous
 62
     2
370
     9
100
AcDbLine
 10
524.5499069626269
 20
357.0391079012134
 30
0.0
 11
517.0501296584672
 21
357.0391079012134
 31
0.0
  0
LINE
  5
135
330
1F
100
AcDbEntity
  8
D-1
  6
Continuous
 62
     2
370
     9
100
AcDbLine
 10
509.5499811945734
 20
382.0391903811542
 30
0.0
 11
501.4247997387037
 21
382.0391903811542
 31
0.0
  0
LINE
  5
136
330
1F
100
AcDbEntity
  8
D-1
  6
Continuous
 62
     2
370
     9
100
AcDbLine
 10
498.9250389305323
 20
367.0393883330123
 30
0.0
 11
498.9250389305323
 21
379.5390584132488
 31
0.0
  0
LINE
  5
137
330
1F
100
AcDbEntity
  8
D-1
  6
Continuous
 62
     2
370
     9
100
AcDbLine
 10
495.1749646985854
 20
363.2894378209769
 30
0.0
 11
492.6745852908573
 21
363.2894378209769
 31
0.0
  0
LINE
  5
138
330
1F
100
AcDbEntity
  8
D-1
  6
Continuous
 62
     2
370
     9
100
AcDbLine
 10
529.5499234586148
 20
359.5392398691187
 30
0.0
 11
529.5499234586148
 21
352.0390914052252
 31
0.0
  0
LINE
  5
139
330
1F
100
AcDbEntity
  8
D-1
  6
Continuous
 62
     2
370
     9
100
AcDbLine
 10
524.5499069626269
 20
359.5392398691187
 30
0.0
 11
524.5499069626269
 21
357.0391079012134
 31
0.0
  0
LINE
  5
13A
330
1F
100
AcDbEntity
  8
D-1
  6
Continuous
 62
     2
370
     9
100
AcDbLine
 10
512.0496182828335
 20
358.2891738851661
 30
0.0
 11
512.0496182828335
 21
379.5390584132488
 31
0.0
  0
LINE
  5
13B
330
1F
100
AcDbEntity
  8
D-1
  6
Continuous
 62
     2
370
     9
100
AcDbLine
 10
495.1749646985854
 20
355.7890419172606
 30
0.0
 11
509.5499811945734
 21
355.7890419172606
 31
0.0
  0
LINE
  5
13C
330
1F
100
AcDbEntity
  8
D-1
  6
Continuous
 62
     2
370
     9
100
AcDbLine
 10
492.6745852908573
 20
358.2891738851661
 30
0.0
 11
492.6745852908573
 21
363.2894378209769
 31
0.0
  0
LINE
  5
13D
330
1F
100
AcDbEntity
  8
D-1
  6
Continuous
 62
     2
370
     9
100
AcDbLine
 10
529.5499234586148
 20
407.0391491411838
 30
0.0
 11
517.0501296584672
 21
407.0391491411838
 31
0.0
  0
LINE
  5
13E
330
1F
100
AcDbEntity
  8
D-1
  6
Continuous
 62
     2
370
     9
100
AcDbLine
 10
529.5499234586148
 20
399.5388769573788
 30
0.0
 11
529.5499234586148
 21
407.0391491411838
 31
0.0
  0
LINE
  5
13F
330
1F
100
AcDbEntity
  8
D-1
  6
Continuous
 62
     2
370
     9
100
AcDbLine
 10
524.5499069626269
 20
399.5388769573788
 30
0.0
 11
524.5499069626269
 21
402.039256365107
 31
0.0
  0
LINE
  5
140
330
1F
100
AcDbEntity
  8
D-1
  6
Continuous
 62
     2
370
     9
100
AcDbLine
 10
524.5499069626269
 20
402.039256365107
 30
0.0
 11
517.0501296584672
 21
402.039256365107
 31
0.0
  0
LINE
  5
141
330
1F
100
AcDbEntity
  8
D-1
  6
Continuous
 62
     2
370
     9
100
AcDbLine
 10
517.0501296584672
 20
402.039256365107
 30
0.0
 11
517.0501296584672
 21
357.0391079012134
 31
0.0
  0
LINE
  5
142
330
1F
100
AcDbEntity
  8
D-1
  6
Continuous
 62
     2
370
     9
100
AcDbLine
 10
522.0497749947214
 20
452.0391738851661
 30
0.0
 11
542.049840978674
 21
452.0391738851661
 31
0.0
  0
LINE
  5
143
330
1F
100
AcDbEntity
  8
D-1
  6
Continuous
 62
     2
370
     9
100
AcDbLine
 10
517.0501296584672
 20
447.0392811090891
 30
0.0
 11
517.0501296584672
 21
407.0391491411838
 31
0.0
  0
LINE
  5
144
330
1F
100
AcDbEntity
  8
D-1
  6
Continuous
 62
     2
370
     9
100
AcDbLine
 10
529.5499234586148
 20
352.0390914052252
 30
0.0
 11
485.1748079866977
 21
352.0390914052252
 31
0.0
  0
LINE
  5
145
330
1F
100
AcDbEntity
  8
D-1
  6
Continuous
 62
     2
370
     9
100
AcDbLine
 10
473.9249564505914
 20
352.0390914052252
 30
0.0
 11
447.0497749947214
 21
352.0390914052252
 31
0.0
  0
LINE
  5
146
330
1F
100
AcDbEntity
  8
D-1
  6
Continuous
 62
     2
370
     9
100
AcDbLine
 10
480.2996248812289
 20
367.5389693349127
 30
0.0
 11
478.799768396326
 21
367.5389693349127
 31
0.0
  0
LINE
  5
147
330
1F
100
AcDbEntity
  8
D-1
  6
Continuous
 62
     2
370
     9
100
AcDbLine
 10
480.2996248812289
 20
368.2889594373197
 30
0.0
 11
480.2996248812289
 21
367.5389693349127
 31
0.0
  0
LINE
  5
148
330
1F
100
AcDbEntity
  8
D-1
  6
Continuous
 62
     2
370
     9
100
AcDbLine
 10
478.799768396326
 20
368.2889594373197
 30
0.0
 11
478.799768396326
 21
367.5389693349127
 31
0.0
  0
LINE
  5
149
330
1F
100
AcDbEntity
  8
D-1
  6
Continuous
 62
     2
370
     9
100
AcDbLine
 10
495.1749646985854
 20
370.7890914052252
 30
0.0
 11
495.1749646985854
 21
382.0391903811542
 31
0.0
  0
LINE
  5
14A
330
1F
100
AcDbEntity
  8
D-1
  6
Continuous
 62
     2
370
     9
100
AcDbLine
 10
492.6749564505914
 20
368.2889594373197
 30
0.0
 11
480.2996248812289
 21
368.2889594373197
 31
0.0
  0
LINE
  5
14B
330
1F
100
AcDbEntity
  8
D-1
  6
Continuous
 62
     2
370
     9
100
AcDbLine
 10
466.4248079866977
 20
368.2889594373197
 30
0.0
 11
478.799768396326
 21
368.2889594373197
 31
0.0
  0
LINE
  5
14C
330
1F
100
AcDbEntity
  8
D-1
  6
Continuous
 62
     2
370
     9
100
AcDbLine
 10
463.9247997387037
 20
370.7890914052252
 30
0.0
 11
463.9247997387037
 21
382.0391903811542
 31
0.0
  0
LINE
  5
14D
330
1F
100
AcDbEntity
  8
D-1
  6
JWW_CENTER1
 62
     2
370
     9
100
AcDbLine
 10
479.5500059385557
 20
391.2489005796339
 30
0.0
 11
479.5500059385557
 21
349.4078163313231
 31
0.0
  0
LINE
  5
14E
330
1F
100
AcDbEntity
  8
D-1
  6
Continuous
 62
     2
370
     9
100
AcDbLine
 10
535.7997584987331
 20
457.0391903811542
 30
0.0
 11
518.2997007627745
 21
457.0391903811542
 31
0.0
  0
LINE
  5
14F
330
1F
100
AcDbEntity
  8
D-1
  6
Continuous
 62
     2
370
     9
100
AcDbLine
 10
518.2997007627745
 20
457.0391903811542
 30
0.0
 11
512.0496182828335
 21
452.0391738851661
 31
0.0
  0
LINE
  5
150
330
1F
100
AcDbEntity
  8
D-1
  6
Continuous
 62
     2
370
     9
100
AcDbLine
 10
512.0496182828335
 20
452.0391738851661
 30
0.0
 11
512.0496182828335
 21
387.0392068771424
 31
0.0
  0
LINE
  5
151
330
1F
100
AcDbEntity
  8
D-1
  6
Continuous
 62
     2
370
     9
100
AcDbLine
 10
537.049824482686
 20
348.414345443443
 30
0.0
 11
599.5499069626269
 21
348.414345443443
 31
0.0
  0
LINE
  5
152
330
1F
100
AcDbEntity
  8
D-1
  6
Continuous
 62
     2
370
     9
100
AcDbLine
 10
518.79977664432
 20
401.4142233731305
 30
0.0
 11
524.5499069626269
 21
401.4142233731305
 31
0.0
  0
LINE
  5
153
330
1F
100
AcDbEntity
  8
D-1
  6
Continuous
 62
     2
370
     9
100
AcDbLine
 10
524.5499069626269
 20
357.6641408931897
 30
0.0
 11
518.79977664432
 21
357.6641408931897
 31
0.0
  0
LINE
  5
154
330
1F
100
AcDbEntity
  8
D-1
  6
Continuous
 62
     2
370
     9
100
AcDbLine
 10
518.79977664432
 20
401.4142233731305
 30
0.0
 11
518.79977664432
 21
357.6641408931897
 31
0.0
  0
LINE
  5
155
330
1F
100
AcDbEntity
  8
D-1
  6
Continuous
 62
     2
370
     9
100
AcDbLine
 10
599.5499069626269
 20
362.6641573891778
 30
0.0
 11
599.5499069626269
 21
342.6640914052252
 31
0.0
  0
LINE
  5
156
330
1F
100
AcDbEntity
  8
D-1
  6
Continuous
 62
     2
370
     9
100
AcDbLine
 10
535.5853518924198
 20
356.6286052354616
 30
0.0
 11
524.5499069626269
 21
367.6641738851661
 31
0.0
  0
LINE
  5
157
330
1F
100
AcDbEntity
  8
D-1
  6
Continuous
 62
     2
370
     9
100
AcDbLine
 10
537.049824482686
 20
353.0931850496509
 30
0.0
 11
537.049824482686
 21
342.6640914052252
 31
0.0
  0
LINE
  5
158
330
1F
100
AcDbEntity
  8
D-A
  6
Continuous
 62
     2
370
     9
100
AcDbLine
 10
542.0499646985854
 20
388.9143058530714
 30
0.0
 11
546.3587580500422
 21
388.9143058530714
 31
0.0
  0
LINE
  5
159
330
1F
100
AcDbEntity
  8
D-1
  6
JWW_DASHED3
 62
     2
370
     9
100
AcDbLine
 10
546.3587580500422
 20
368.9142398691187
 30
0.0
 11
542.0499646985854
 21
368.9142398691187
 31
0.0
  0
LINE
  5
15A
330
1F
100
AcDbEntity
  8
D-A
  6
Continuous
 62
     2
370
     9
100
AcDbLine
 10
548.7486555769638
 20
380.1640914052252
 30
0.0
 11
548.7486555769638
 21
377.6642068771424
 31
0.0
  0
LINE
  5
15B
330
1F
100
AcDbEntity
  8
D-A
  6
Continuous
 62
     2
370
     9
100
AcDbLine
 10
549.7517766179266
 20
377.6642068771424
 30
0.0
 11
548.7486555769638
 21
377.6642068771424
 31
0.0
  0
LINE
  5
15C
330
1F
100
AcDbEntity
  8
D-A
  6
Continuous
 62
     2
370
     9
100
AcDbLine
 10
549.7517766179266
 20
380.1640914052252
 30
0.0
 11
548.7486555769638
 21
380.1640914052252
 31
0.0
  0
LINE
  5
15D
330
1F
100
AcDbEntity
  8
D-A
  6
Continuous
 62
     2
370
     9
100
AcDbLine
 10
517.0501296584672
 20
373.9140089252843
 30
0.0
 11
517.0501296584672
 21
383.9140419172606
 31
0.0
  0
LINE
  5
15E
330
1F
100
AcDbEntity
  8
D-A
  6
Continuous
 62
     2
370
     9
100
AcDbLine
 10
538.5500521273227
 20
383.9140419172606
 30
0.0
 11
539.82684161212
 21
383.1769186856305
 31
0.0
  0
LINE
  5
15F
330
1F
100
AcDbEntity
  8
D-1
  6
JWW_DASHED3
 62
     2
370
     9
100
AcDbLine
 10
538.5500521273227
 20
373.9140089252843
 30
0.0
 11
539.82684161212
 21
374.6511321569144
 31
0.0
  0
LINE
  5
160
330
1F
100
AcDbEntity
  8
D-A
  6
Continuous
 62
     2
370
     9
100
AcDbLine
 10
538.5499284074115
 20
382.4140617124464
 30
0.0
 11
541.8064839131125
 21
384.3599284776491
 31
0.0
  0
LINE
  5
161
330
1F
100
AcDbEntity
  8
D-1
  6
JWW_DASHED3
 62
     2
370
     9
100
AcDbLine
 10
538.5499284074115
 20
375.4142365699212
 30
0.0
 11
541.8064839131125
 21
373.4686172445411
 31
0.0
  0
LINE
  5
162
330
1F
100
AcDbEntity
  8
D-7
  6
JWW_CENTER1
 62
     3
370
     9
100
AcDbLine
 10
517.0501296584672
 20
378.9143965810064
 30
0.0
 11
552.0926810599665
 21
378.9143965810064
 31
0.0
  0
LINE
  5
163
330
1F
100
AcDbEntity
  8
D-A
  6
Continuous
 62
     2
370
     9
100
AcDbLine
 10
518.79977664432
 20
383.9140419172606
 30
0.0
 11
517.0501296584672
 21
383.9140419172606
 31
0.0
  0
LINE
  5
164
330
1F
100
AcDbEntity
  8
D-A
  6
Continuous
 62
     2
370
     9
100
AcDbLine
 10
518.79977664432
 20
382.4140617124464
 30
0.0
 11
517.0501296584672
 21
382.4140617124464
 31
0.0
  0
LINE
  5
165
330
1F
100
AcDbEntity
  8
D-1
  6
JWW_DASHED3
 62
     2
370
     9
100
AcDbLine
 10
538.5499284074115
 20
375.4142365699212
 30
0.0
 11
524.5499069626269
 21
375.4142365699212
 31
0.0
  0
LINE
  5
166
330
1F
100
AcDbEntity
  8
D-A
  6
Continuous
 62
     2
370
     9
100
AcDbLine
 10
518.79977664432
 20
375.4142365699212
 30
0.0
 11
517.0501296584672
 21
375.4142365699212
 31
0.0
  0
LINE
  5
167
330
1F
100
AcDbEntity
  8
D-1
  6
JWW_DASHED3
 62
     2
370
     9
100
AcDbLine
 10
538.5500521273227
 20
373.9140089252843
 30
0.0
 11
524.5499069626269
 21
373.9140089252843
 31
0.0
  0
LINE
  5
168
330
1F
100
AcDbEntity
  8
D-A
  6
Continuous
 62
     2
370
     9
100
AcDbLine
 10
518.79977664432
 20
373.9140089252843
 30
0.0
 11
517.0501296584672
 21
373.9140089252843
 31
0.0
  0
LINE
  5
169
330
1F
100
AcDbEntity
  8
D-1
  6
Continuous
 62
     2
370
     9
100
AcDbLine
 10
554.7275440112967
 20
367.6641738851661
 30
0.0
 11
594.5498904666385
 21
367.6641738851661
 31
0.0
  0
LINE
  5
16A
330
1F
100
AcDbEntity
  8
D-1
  6
Continuous
 62
     2
370
     9
100
AcDbLine
 10
537.049824482686
 20
342.6640914052252
 30
0.0
 11
599.5499069626269
 21
342.6640914052252
 31
0.0
  0
LINE
  5
16B
330
1F
100
AcDbEntity
  8
D-6
  6
Continuous
 62
     6
370
     9
100
AcDbLine
 10
656.6722560573269
 20
364.5390089252843
 30
0.0
 11
727.5954375395904
 21
293.6158274430207
 31
0.0
  0
LINE
  5
16C
330
1F
100
AcDbEntity
  8
D-6
  6
Continuous
 62
     6
370
     9
100
AcDbLine
 10
651.3690020586995
 20
364.5390089252843
 30
0.0
 11
727.5954375395904
 21
288.3125734443931
 31
0.0
  0
LINE
  5
16D
330
1F
100
AcDbEntity
  8
D-6
  6
Continuous
 62
     6
370
     9
100
AcDbLine
 10
646.0657480600719
 20
364.5390089252843
 30
0.0
 11
727.5954375395904
 21
283.0093194457657
 31
0.0
  0
LINE
  5
16E
330
1F
100
AcDbEntity
  8
D-6
  6
Continuous
 62
     6
370
     9
100
AcDbLine
 10
622.0498574746623
 20
364.5390089252843
 30
0.0
 11
727.5954375395904
 21
364.5390089252843
 31
0.0
  0
LINE
  5
16F
330
1F
100
AcDbEntity
  8
D-6
  6
Continuous
 62
     6
370
     9
100
AcDbLine
 10
622.0498574746623
 20
364.5390089252843
 30
0.0
 11
622.0498574746623
 21
314.5390914052252
 31
0.0
  0
LINE
  5
170
330
1F
100
AcDbEntity
  8
D-6
  6
Continuous
 62
     6
370
     9
100
AcDbLine
 10
509.5498574746622
 20
314.5390914052252
 30
0.0
 11
622.0498574746623
 21
314.5390914052252
 31
0.0
  0
LINE
  5
171
330
1F
100
AcDbEntity
  8
D-6
  6
Continuous
 62
     6
370
     9
100
AcDbLine
 10
523.4996486354519
 20
414.5391738851661
 30
0.0
 11
523.4996486354519
 21
452.0389264453434
 31
0.0
  0
LINE
  5
172
330
1F
100
AcDbEntity
  8
D-6
  6
JWW_DASHED3
 62
     6
370
     9
100
AcDbLine
 10
564.2506367451438
 20
270.2609723437809
 30
0.0
 11
564.2506367451438
 21
314.5390914052252
 31
0.0
  0
LINE
  5
173
330
1F
100
AcDbEntity
  8
D-6
  6
JWW_DASHED3
 62
     6
370
     9
100
AcDbLine
 10
586.7505872571792
 20
270.2609723437809
 30
0.0
 11
586.7505872571792
 21
314.5390914052252
 31
0.0
  0
LINE
  5
174
330
1F
100
AcDbEntity
  8
D-6
  6
Continuous
 62
     6
370
     9
100
AcDbLine
 10
542.0497172587627
 20
452.0389264453434
 30
0.0
 11
786.8143442514781
 21
452.0389264453434
 31
0.0
  0
LINE
  5
175
330
1F
100
AcDbEntity
  8
D-6
  6
Continuous
 62
     6
370
     9
100
AcDbLine
 10
447.0497749947214
 20
352.0390914052252
 30
0.0
 11
447.0497749947214
 21
63.64698836468456
 31
0.0
  0
LINE
  5
176
330
1F
100
AcDbEntity
  8
D-6
  6
JWW_CENTER1
 62
     6
370
     9
100
AcDbLine
 10
575.50048828125
 20
270.2609723437809
 30
0.0
 11
575.50048828125
 21
386.3609743232996
 31
0.0
  0
LINE
  5
177
330
1F
100
AcDbEntity
  8
D-6
  6
Continuous
 62
     6
370
     9
100
AcDbLine
 10
564.2506367451438
 20
314.5390914052252
 30
0.0
 11
564.2506367451438
 21
343.2891243972015
 31
0.0
  0
LINE
  5
178
330
1F
100
AcDbEntity
  8
D-6
  6
Continuous
 62
     6
370
     9
100
AcDbLine
 10
586.7505872571792
 20
314.5390914052252
 30
0.0
 11
586.7505872571792
 21
343.2891243972015
 31
0.0
  0
LINE
  5
179
330
1F
100
AcDbEntity
  8
D-6
  6
Continuous
 62
     6
370
     9
100
AcDbLine
 10
586.7505872571792
 20
368.2889594373197
 30
0.0
 11
586.7505872571792
 21
376.4547210241019
 31
0.0
  0
LINE
  5
17A
330
1F
100
AcDbEntity
  8
D-6
  6
JWW_DASHED3
 62
     6
370
     9
100
AcDbLine
 10
586.7505872571792
 20
343.2891243972015
 30
0.0
 11
586.7505872571792
 21
368.2889594373197
 31
0.0
  0
LINE
  5
17B
330
1F
100
AcDbEntity
  8
D-6
  6
Continuous
 62
     6
370
     9
100
AcDbLine
 10
564.2506367451438
 20
368.2889594373197
 30
0.0
 11
564.2506367451438
 21
376.4547210241019
 31
0.0
  0
LINE
  5
17C
330
1F
100
AcDbEntity
  8
D-6
  6
JWW_DASHED3
 62
     6
370
     9
100
AcDbLine
 10
564.2506367451438
 20
343.2891243972015
 30
0.0
 11
564.2506367451438
 21
368.2889594373197
 31
0.0
  0
LINE
  5
17D
330
1F
100
AcDbEntity
  8
D-6
  6
Continuous
 62
     6
370
     9
100
AcDbLine
 10
517.0497584987331
 20
414.5391738851661
 30
0.0
 11
622.484114363387
 21
414.5391738851661
 31
0.0
  0
LINE
  5
17E
330
1F
100
AcDbEntity
  8
D-4
  6
Continuous
 62
     7
370
     9
100
AcDbLine
 10
607.5893505199537
 20
343.2891243972015
 30
0.0
 11
653.5479571368245
 21
343.2891243972015
 31
0.0
  0
LINE
  5
17F
330
1F
100
AcDbEntity
  8
D-4
  6
Continuous
 62
     7
370
     9
100
AcDbLine
 10
607.5893505199537
 20
368.2889594373197
 30
0.0
 11
653.5479571368245
 21
368.2889594373197
 31
0.0
  0
LINE
  5
180
330
1F
100
AcDbEntity
  8
D-4
  6
Continuous
 62
     7
370
     9
100
AcDbLine
 10
759.7593977644638
 20
314.5390914052252
 30
0.0
 11
759.7593977644638
 21
452.0389264453434
 31
0.0
  0
LINE
  5
181
330
1F
100
AcDbEntity
  8
D-4
  6
Continuous
 62
     7
370
     9
100
AcDbLine
 10
635.3829048775339
 20
314.5390914052252
 30
0.0
 11
761.2593779692779
 21
314.5390914052252
 31
0.0
  0
LINE
  5
182
330
1F
100
AcDbEntity
  8
D-4
  6
Continuous
 62
     7
370
     9
100
AcDbLine
 10
135.8813311602619
 20
128.7954192662893
 30
0.0
 11
599.5497832427154
 21
128.7954192662893
 31
0.0
  0
LINE
  5
183
330
1F
100
AcDbEntity
  8
D-4
  6
Continuous
 62
     7
370
     9
100
AcDbLine
 10
529.5496760187922
 20
329.3659330173451
 30
0.0
 11
529.5496760187922
 21
127.2954390614751
 31
0.0
  0
LINE
  5
184
330
1F
100
AcDbEntity
  8
D-4
  6
Continuous
 62
     7
370
     9
100
AcDbLine
 10
599.5497832427154
 20
329.3659330173451
 30
0.0
 11
599.5497832427154
 21
127.2954390614751
 31
0.0
  0
LINE
  5
185
330
1F
100
AcDbEntity
  8
D-4
  6
Continuous
 62
     7
370
     9
100
AcDbLine
 10
447.0497749947214
 20
80.30315258554609
 30
0.0
 11
622.0498574746623
 21
80.30315258554609
 31
0.0
  0
LINE
  5
186
330
1F
100
AcDbEntity
  8
D-4
  6
Continuous
 62
     7
370
     9
100
AcDbLine
 10
622.0498574746623
 20
302.8087117335613
 30
0.0
 11
622.0498574746623
 21
78.8031723807319
 31
0.0
  0
LINE
  5
187
330
1F
100
AcDbEntity
  8
D-6
  6
Continuous
 62
     6
370
     9
100
AcDbLine
 10
564.2506367451438
 20
376.4547210241019
 30
0.0
 11
586.7505872571792
 21
376.4547210241019
 31
0.0
  0
LINE
  5
188
330
1F
100
AcDbEntity
  8
D-1
  6
Continuous
 62
     2
370
     9
100
AcDbLine
 10
524.5499069626269
 20
399.5388769573788
 30
0.0
 11
524.5499069626269
 21
392.664256365107
 31
0.0
  0
LINE
  5
189
330
1F
100
AcDbEntity
  8
D-1
  6
JWW_DASHED3
 62
     2
370
     9
100
AcDbLine
 10
524.5499069626269
 20
392.664256365107
 30
0.0
 11
524.5499069626269
 21
367.6641738851661
 31
0.0
  0
LINE
  5
18A
330
1F
100
AcDbEntity
  8
D-1
  6
Continuous
 62
     2
370
     9
100
AcDbLine
 10
524.5499069626269
 20
367.6641738851661
 30
0.0
 11
524.5499069626269
 21
359.5392398691187
 31
0.0
  0
LINE
  5
18B
330
1F
100
AcDbEntity
  8
D-1
  6
Continuous
 62
     2
370
     9
100
AcDbLine
 10
545.8887461069469
 20
371.3254172207868
 30
0.0
 11
524.5499069626269
 21
392.664256365107
 31
0.0
  0
LINE
  5
18C
330
1F
100
AcDbEntity
  8
D-A
  6
Continuous
 62
     2
370
     9
100
AcDbLine
 10
538.5500521273227
 20
383.9140419172606
 30
0.0
 11
533.2999976905617
 21
383.9140419172606
 31
0.0
  0
LINE
  5
18D
330
1F
100
AcDbEntity
  8
D-A
  6
Continuous
 62
     2
370
     9
100
AcDbLine
 10
538.5499284074115
 20
382.4140617124464
 30
0.0
 11
534.8001016152873
 21
382.4140617124464
 31
0.0
  0
LINE
  5
18E
330
1F
100
AcDbEntity
  8
D-1
  6
JWW_DASHED3
 62
     2
370
     9
100
AcDbLine
 10
534.8001016152873
 20
382.4140617124464
 30
0.0
 11
524.5499069626269
 21
382.4140617124464
 31
0.0
  0
LINE
  5
18F
330
1F
100
AcDbEntity
  8
D-1
  6
JWW_DASHED3
 62
     2
370
     9
100
AcDbLine
 10
533.2999976905617
 20
383.9140419172606
 30
0.0
 11
524.5499069626269
 21
383.9140419172606
 31
0.0
  0
LINE
  5
190
330
1F
100
AcDbEntity
  8
D-A
  6
Continuous
 62
     2
370
     9
100
AcDbLine
 10
538.5500521273227
 20
378.664111200411
 30
0.0
 11
538.5500521273227
 21
383.9140419172606
 31
0.0
  0
LINE
  5
191
330
1F
100
AcDbEntity
  8
D-1
  6
JWW_DASHED3
 62
     2
370
     9
100
AcDbLine
 10
538.5500521273227
 20
373.9140089252843
 30
0.0
 11
538.5500521273227
 21
378.664111200411
 31
0.0
  0
LINE
  5
192
330
1F
100
AcDbEntity
  8
D-A
  6
Continuous
 62
     2
370
     9
100
AcDbLine
 10
542.0499646985854
 20
375.1640749092369
 30
0.0
 11
542.0499646985854
 21
388.9143058530714
 31
0.0
  0
LINE
  5
193
330
1F
100
AcDbEntity
  8
D-1
  6
JWW_DASHED3
 62
     2
370
     9
100
AcDbLine
 10
542.0499646985854
 20
368.9142398691187
 30
0.0
 11
542.0499646985854
 21
375.1640749092369
 31
0.0
  0
LINE
  5
194
330
1F
100
AcDbEntity
  8
D-4
  6
Continuous
 62
     7
370
     9
100
AcDbLine
 10
554.7275440112967
 20
367.6641738851661
 30
0.0
 11
559.7876883841852
 21
379.0941616121509
 31
0.0
  0
LINE
  5
195
330
1F
100
AcDbEntity
  8
D-4
  6
Continuous
 62
     7
370
     9
100
AcDbLine
 10
554.7275440112967
 20
367.6641738851661
 30
0.0
 11
562.5734896273227
 21
377.3951160700266
 31
0.0
  0
LINE
  5
196
330
1F
100
AcDbEntity
  8
D-4
  6
Continuous
 62
     7
370
     9
100
AcDbLine
 10
523.516845703125
 20
407.0391491411838
 30
0.0
 11
528.5769900760135
 21
418.4690131482572
 31
0.0
  0
LINE
  5
197
330
1F
100
AcDbEntity
  8
D-4
  6
Continuous
 62
     7
370
     9
100
AcDbLine
 10
523.516845703125
 20
407.0391491411838
 30
0.0
 11
531.3627913191513
 21
416.7698438862218
 31
0.0
  0
LINE
  5
198
330
1F
100
AcDbEntity
  8
D-5
  6
Continuous
 62
     7
370
     9
100
AcDbLine
 10
509.5499811945734
 20
389.5390914052252
 30
0.0
 11
509.5499811945734
 21
387.0392068771424
 31
0.0
  0
LINE
  5
199
330
1F
100
AcDbEntity
  8
D-5
  6
Continuous
 62
     7
370
     9
100
AcDbLine
 10
449.5499069626268
 20
389.5390914052252
 30
0.0
 11
449.5499069626268
 21
387.0392068771424
 31
0.0
  0
LINE
  5
19A
330
1F
100
AcDbEntity
  8
D-5
  6
Continuous
 62
     7
370
     9
100
AcDbLine
 10
506.3264589051943
 20
387.0392068771424
 30
0.0
 11
508.8263434332771
 21
389.5390914052252
 31
0.0
  0
LINE
  5
19B
330
1F
100
AcDbEntity
  8
D-5
  6
Continuous
 62
     7
370
     9
100
AcDbLine
 10
492.3953494510135
 20
378.0578836349549
 30
0.0
 11
493.2999894425677
 21
378.9625236265089
 31
0.0
  0
LINE
  5
19C
330
1F
100
AcDbEntity
  8
D-5
  6
Continuous
 62
     7
370
     9
100
AcDbLine
 10
501.376672693201
 20
387.0392068771424
 30
0.0
 11
503.8765572212839
 21
389.5390914052252
 31
0.0
  0
LINE
  5
19D
330
1F
100
AcDbEntity
  8
D-5
  6
Continuous
 62
     7
370
     9
100
AcDbLine
 10
485.6815647434544
 20
376.293885139389
 30
0.0
 11
490.1769277211784
 21
380.7893718370241
 31
0.0
  0
LINE
  5
19E
330
1F
100
AcDbEntity
  8
D-5
  6
Continuous
 62
     7
370
     9
100
AcDbLine
 10
496.4268864812078
 20
387.0392068771424
 30
0.0
 11
498.9267710092906
 21
389.5390914052252
 31
0.0
  0
LINE
  5
19F
330
1F
100
AcDbEntity
  8
D-5
  6
Continuous
 62
     7
370
     9
100
AcDbLine
 10
480.2333110087628
 20
375.7952938967792
 30
0.0
 11
482.3366732210727
 21
377.8989035489118
 31
0.0
  0
LINE
  5
1A0
330
1F
100
AcDbEntity
  8
D-5
  6
Continuous
 62
     7
370
     9
100
AcDbLine
 10
487.0499069626268
 20
382.6120135705545
 30
0.0
 11
490.1749482025971
 21
385.7369310906136
 31
0.0
  0
LINE
  5
1A1
330
1F
100
AcDbEntity
  8
D-5
  6
Continuous
 62
     7
370
     9
100
AcDbLine
 10
491.4771002692146
 20
387.0392068771424
 30
0.0
 11
493.9769847972974
 21
389.5390914052252
 31
0.0
  0
LINE
  5
1A2
330
1F
100
AcDbEntity
  8
D-5
  6
Continuous
 62
     7
370
     9
100
AcDbLine
 10
475.4970653637037
 20
376.0088344637134
 30
0.0
 11
477.3459357184333
 21
377.857704818443
 31
0.0
  0
LINE
  5
1A3
330
1F
100
AcDbEntity
  8
D-5
  6
Continuous
 62
     7
370
     9
100
AcDbLine
 10
486.5274377771325
 20
387.0392068771424
 30
0.0
 11
489.0273223052154
 21
389.5390914052252
 31
0.0
  0
LINE
  5
1A4
330
1F
100
AcDbEntity
  8
D-5
  6
Continuous
 62
     7
370
     9
100
AcDbLine
 10
471.2564416833825
 20
376.7178732754743
 30
0.0
 11
472.9471979914484
 21
378.4085058636288
 31
0.0
  0
LINE
  5
1A5
330
1F
100
AcDbEntity
  8
D-5
  6
Continuous
 62
     7
370
     9
100
AcDbLine
 10
481.5777752850508
 20
387.0392068771424
 30
0.0
 11
484.0776598131336
 21
389.5390914052252
 31
0.0
  0
LINE
  5
1A6
330
1F
100
AcDbEntity
  8
D-5
  6
Continuous
 62
     7
370
     9
100
AcDbLine
 10
467.4007106471706
 20
377.8119284512555
 30
0.0
 11
472.0499811945734
 21
382.4613227185697
 31
0.0
  0
LINE
  5
1A7
330
1F
100
AcDbEntity
  8
D-5
  6
Continuous
 62
     7
370
     9
100
AcDbLine
 10
476.6279890730576
 20
387.0392068771424
 30
0.0
 11
479.1278736011404
 21
389.5390914052252
 31
0.0
  0
LINE
  5
1A8
330
1F
100
AcDbEntity
  8
D-5
  6
Continuous
 62
     7
370
     9
100
AcDbLine
 10
468.9248162346919
 20
384.2856965308587
 30
0.0
 11
474.1780873891472
 21
389.5390914052252
 31
0.0
  0
LINE
  5
1A9
330
1F
100
AcDbEntity
  8
D-5
  6
Continuous
 62
     7
370
     9
100
AcDbLine
 10
466.7284166490711
 20
387.0392068771424
 30
0.0
 11
469.2283011771539
 21
389.5390914052252
 31
0.0
  0
LINE
  5
1AA
330
1F
100
AcDbEntity
  8
D-5
  6
Continuous
 62
     7
370
     9
100
AcDbLine
 10
461.7786304370779
 20
387.0392068771424
 30
0.0
 11
464.2785149651607
 21
389.5390914052252
 31
0.0
  0
LINE
  5
1AB
330
1F
100
AcDbEntity
  8
D-5
  6
Continuous
 62
     7
370
     9
100
AcDbLine
 10
456.8288442250847
 20
387.0392068771424
 30
0.0
 11
459.3287287531672
 21
389.5390914052252
 31
0.0
  0
LINE
  5
1AC
330
1F
100
AcDbEntity
  8
D-5
  6
Continuous
 62
     7
370
     9
100
AcDbLine
 10
451.8790580130914
 20
387.0392068771424
 30
0.0
 11
454.378942541174
 21
389.5390914052252
 31
0.0
  0
LINE
  5
1AD
330
1F
100
AcDbEntity
  8
D-5
  6
Continuous
 62
     7
370
     9
100
AcDbLine
 10
457.0498079866977
 20
389.5390914052252
 30
0.0
 11
449.5499069626268
 21
389.5390914052252
 31
0.0
  0
LINE
  5
1AE
330
1F
100
AcDbEntity
  8
D-5
  6
Continuous
 62
     7
370
     9
100
AcDbLine
 10
497.0500636745143
 20
389.5390914052252
 30
0.0
 11
467.0499646985854
 21
389.5390914052252
 31
0.0
  0
LINE
  5
1AF
330
1F
100
AcDbEntity
  8
D-5
  6
Continuous
 62
     7
370
     9
100
AcDbLine
 10
493.2999894425677
 20
387.0392068771424
 30
0.0
 11
490.1749482025971
 21
387.0392068771424
 31
0.0
  0
LINE
  5
1B0
330
1F
100
AcDbEntity
  8
D-5
  6
Continuous
 62
     7
370
     9
100
AcDbLine
 10
465.7997749947214
 20
387.0392068771424
 30
0.0
 11
468.9248162346919
 21
387.0392068771424
 31
0.0
  0
LINE
  5
1B1
330
1F
100
AcDbEntity
  8
D-4
  6
Continuous
 62
     7
370
     9
100
AcDbLine
 10
479.5500059385557
 20
375.789355341036
 30
0.0
 11
474.4898615656672
 21
364.3591201742286
 31
0.0
  0
LINE
  5
1B2
330
1F
100
AcDbEntity
  8
D-4
  6
Continuous
 62
     7
370
     9
100
AcDbLine
 10
479.5500059385557
 20
375.789355341036
 30
0.0
 11
471.7040603225297
 21
366.058289436264
 31
0.0
  0
LINE
  5
1B3
330
1F
100
AcDbEntity
  8
D-4
  6
Continuous
 62
     7
370
     9
100
AcDbLine
 10
387.0158015070734
 20
479.3711292536204
 30
0.0
 11
315.0129163587417
 21
479.3711292536204
 31
0.0
  0
LINE
  5
1B4
330
1F
100
AcDbEntity
  8
D-4
  6
Continuous
 62
     7
370
     9
100
AcDbLine
 10
347.4744229703336
 20
414.5389264453434
 30
0.0
 11
352.5345673432221
 21
425.9689141723282
 31
0.0
  0
LINE
  5
1B5
330
1F
100
AcDbEntity
  8
D-4
  6
Continuous
 62
     7
370
     9
100
AcDbLine
 10
347.4744229703336
 20
414.5389264453434
 30
0.0
 11
355.3203685863599
 21
424.2699923501153
 31
0.0
  0
LINE
  5
1B6
330
1F
100
AcDbEntity
  8
D-4
  6
Continuous
 62
     7
370
     9
100
AcDbLine
 10
381.9582552523227
 20
409.5387862294439
 30
0.0
 11
387.0183996252112
 21
420.9686502365174
 31
0.0
  0
LINE
  5
1B7
330
1F
100
AcDbEntity
  8
D-4
  6
Continuous
 62
     7
370
     9
100
AcDbLine
 10
381.9582552523227
 20
409.5387862294439
 30
0.0
 11
389.804200868349
 21
419.2697284143045
 31
0.0
  0
LINE
  5
1B8
330
1F
100
AcDbEntity
  8
D-4
  6
Continuous
 62
     7
370
     9
100
AcDbLine
 10
506.4248162346919
 20
454.5390584132488
 30
0.0
 11
511.4849606075802
 21
465.9690461402337
 31
0.0
  0
LINE
  5
1B9
330
1F
100
AcDbEntity
  8
D-4
  6
Continuous
 62
     7
370
     9
100
AcDbLine
 10
506.4248162346919
 20
454.5390584132488
 30
0.0
 11
514.2707618507179
 21
464.2698768781981
 31
0.0
  0
LINE
  5
1BA
330
1F
100
AcDbEntity
  8
D-6
  6
Continuous
 62
     6
370
     9
100
AcDbLine
 10
509.5498574746622
 20
314.5390914052252
 30
0.0
 11
509.5498574746622
 21
174.9261202798028
 31
0.0
  0
LINE
  5
1BB
330
1F
100
AcDbEntity
  8
D-6
  6
Continuous
 62
     6
370
     9
100
AcDbLine
 10
509.5498574746622
 20
261.6614487479195
 30
0.0
 11
596.2849385029563
 21
174.9261202798028
 31
0.0
  0
LINE
  5
1BC
330
1F
100
AcDbEntity
  8
D-6
  6
Continuous
 62
     6
370
     9
100
AcDbLine
 10
509.5498574746622
 20
256.3583184692032
 30
0.0
 11
590.9816845043287
 21
174.9261202798028
 31
0.0
  0
LINE
  5
1BD
330
1F
100
AcDbEntity
  8
D-6
  6
Continuous
 62
     6
370
     9
100
AcDbLine
 10
509.5498574746622
 20
251.0549407506644
 30
0.0
 11
585.6783067857898
 21
174.9261202798028
 31
0.0
  0
LINE
  5
1BE
330
1F
100
AcDbEntity
  8
D-6
  6
Continuous
 62
     6
370
     9
100
AcDbLine
 10
571.0657480600719
 20
314.5390914052252
 30
0.0
 11
710.6784717456717
 21
174.9261202798028
 31
0.0
  0
LINE
  5
1BF
330
1F
100
AcDbEntity
  8
D-6
  6
Continuous
 62
     6
370
     9
100
AcDbLine
 10
576.3690020586995
 20
314.5390914052252
 30
0.0
 11
715.9820969040331
 21
174.9261202798028
 31
0.0
  0
LINE
  5
1C0
330
1F
100
AcDbEntity
  8
D-6
  6
Continuous
 62
     6
370
     9
100
AcDbLine
 10
581.6722560573269
 20
314.5390914052252
 30
0.0
 11
721.2853509026606
 21
174.9261202798028
 31
0.0
  0
LINE
  5
1C1
330
1F
100
AcDbEntity
  8
D-B
  6
Continuous
 62
     7
370
     9
100
AcDbLine
 10
455.7997420027451
 20
409.5390336692666
 30
0.0
 11
455.7997420027451
 21
414.5391738851661
 31
0.0
  0
LINE
  5
1C2
330
1F
100
AcDbEntity
  8
D-3
  6
Continuous
 62
     3
370
     9
100
AcDbLine
 10
455.7997420027451
 20
409.5390336692666
 30
0.0
 11
455.7997420027451
 21
401.5391804835613
 31
0.0
  0
LINE
  5
1C3
330
1F
100
AcDbEntity
  8
D-B
  6
Continuous
 62
     7
370
     9
100
AcDbLine
 10
498.2997584987331
 20
430.6640848068299
 30
0.0
 11
498.2997584987331
 21
414.5391738851661
 31
0.0
  0
LINE
  5
1C4
330
1F
100
AcDbEntity
  8
D-3
  6
Continuous
 62
     3
370
     9
100
AcDbLine
 10
455.7997420027451
 20
409.5390336692666
 30
0.0
 11
444.5497667467274
 21
409.5390336692666
 31
0.0
  0
LINE
  5
1C5
330
1F
100
AcDbEntity
  8
D-B
  6
Continuous
 62
     7
370
     9
100
AcDbLine
 10
498.2997584987331
 20
452.0391738851661
 30
0.0
 11
498.2997584987331
 21
440.9144031794016
 31
0.0
  0
LINE
  5
1C6
330
1F
100
AcDbEntity
  8
D-B
  6
Continuous
 62
     7
370
     9
100
AcDbLine
 10
444.5497667467274
 20
414.5391738851661
 30
0.0
 11
498.2997584987331
 21
414.5391738851661
 31
0.0
  0
LINE
  5
1C7
330
1F
100
AcDbEntity
  8
D-B
  6
Continuous
 62
     7
370
     9
100
AcDbLine
 10
445.4205074825802
 20
409.5390336692666
 30
0.0
 11
444.5497667467274
 21
410.4096506852082
 31
0.0
  0
LINE
  5
1C8
330
1F
100
AcDbEntity
  8
D-B
  6
Continuous
 62
     7
370
     9
100
AcDbLine
 10
450.7238852011193
 20
409.5390336692666
 30
0.0
 11
445.7237449852198
 21
414.5391738851661
 31
0.0
  0
LINE
  5
1C9
330
1F
100
AcDbEntity
  8
D-B
  6
Continuous
 62
     7
370
     9
100
AcDbLine
 10
455.7997420027451
 20
409.7665545861795
 30
0.0
 11
451.0271227037586
 21
414.5391738851661
 31
0.0
  0
LINE
  5
1CA
330
1F
100
AcDbEntity
  8
D-B
  6
Continuous
 62
     7
370
     9
100
AcDbLine
 10
328.7478060335727
 20
409.5390336692666
 30
0.0
 11
323.7476658176732
 21
414.5391738851661
 31
0.0
  0
LINE
  5
1CB
330
1F
100
AcDbEntity
  8
D-B
  6
Continuous
 62
     7
370
     9
100
AcDbLine
 10
334.0510600322003
 20
409.5390336692666
 30
0.0
 11
329.051043536212
 21
414.5391738851661
 31
0.0
  0
LINE
  5
1CC
330
1F
100
AcDbEntity
  8
D-B
  6
Continuous
 62
     7
370
     9
100
AcDbLine
 10
339.3543140308279
 20
409.5390336692666
 30
0.0
 11
334.3541738149284
 21
414.5391738851661
 31
0.0
  0
LINE
  5
1CD
330
1F
100
AcDbEntity
  8
D-B
  6
Continuous
 62
     7
370
     9
100
AcDbLine
 10
344.6575680294552
 20
409.5390336692666
 30
0.0
 11
339.6575515334672
 21
414.5391738851661
 31
0.0
  0
LINE
  5
1CE
330
1F
100
AcDbEntity
  8
D-B
  6
Continuous
 62
     7
370
     9
100
AcDbLine
 10
349.9609457479943
 20
409.5390336692666
 30
0.0
 11
344.9608055320948
 21
414.5391738851661
 31
0.0
  0
LINE
  5
1CF
330
1F
100
AcDbEntity
  8
D-B
  6
Continuous
 62
     7
370
     9
100
AcDbLine
 10
355.2641997466216
 20
409.5390336692666
 30
0.0
 11
350.2641832506336
 21
414.5391738851661
 31
0.0
  0
LINE
  5
1D0
330
1F
100
AcDbEntity
  8
D-B
  6
Continuous
 62
     7
370
     9
100
AcDbLine
 10
360.5675774651604
 20
409.5390336692666
 30
0.0
 11
355.5674372492609
 21
414.5391738851661
 31
0.0
  0
LINE
  5
1D1
330
1F
100
AcDbEntity
  8
D-B
  6
Continuous
 62
     7
370
     9
100
AcDbLine
 10
365.870831463788
 20
409.5390336692666
 30
0.0
 11
360.8708149678
 21
414.5391738851661
 31
0.0
  0
LINE
  5
1D2
330
1F
100
AcDbEntity
  8
D-B
  6
Continuous
 62
     7
370
     9
100
AcDbLine
 10
371.1742091823268
 20
409.5390336692666
 30
0.0
 11
366.1741926863388
 21
414.5391738851661
 31
0.0
  0
LINE
  5
1D3
330
1F
100
AcDbEntity
  8
D-B
  6
Continuous
 62
     7
370
     9
100
AcDbLine
 10
408.2973583324537
 20
409.5390336692666
 30
0.0
 11
403.2972181165542
 21
414.5391738851661
 31
0.0
  0
LINE
  5
1D4
330
1F
100
AcDbEntity
  8
D-B
  6
Continuous
 62
     7
370
     9
100
AcDbLine
 10
413.6006123310813
 20
409.5390336692666
 30
0.0
 11
408.600595835093
 21
414.5391738851661
 31
0.0
  0
LINE
  5
1D5
330
1F
100
AcDbEntity
  8
D-B
  6
Continuous
 62
     7
370
     9
100
AcDbLine
 10
418.9039900496201
 20
409.5390336692666
 30
0.0
 11
413.9038498337206
 21
414.5391738851661
 31
0.0
  0
LINE
  5
1D6
330
1F
100
AcDbEntity
  8
D-B
  6
Continuous
 62
     7
370
     9
100
AcDbLine
 10
424.2073677681589
 20
409.5390336692666
 30
0.0
 11
419.2072275522594
 21
414.5391738851661
 31
0.0
  0
LINE
  5
1D7
330
1F
100
AcDbEntity
  8
D-B
  6
Continuous
 62
     7
370
     9
100
AcDbLine
 10
429.5106217667865
 20
409.5390336692666
 30
0.0
 11
424.5106052707982
 21
414.5391738851661
 31
0.0
  0
LINE
  5
1D8
330
1F
100
AcDbEntity
  8
D-B
  6
Continuous
 62
     7
370
     9
100
AcDbLine
 10
434.5497337547511
 20
409.8031756799295
 30
0.0
 11
429.8137355495143
 21
414.5391738851661
 31
0.0
  0
LINE
  5
1D9
330
1F
100
AcDbEntity
  8
D-B
  6
Continuous
 62
     7
370
     9
100
AcDbLine
 10
320.7999152106208
 20
414.5391738851661
 30
0.0
 11
320.7999152106208
 21
452.0391738851661
 31
0.0
  0
LINE
  5
1DA
330
1F
100
AcDbEntity
  8
D-B
  6
Continuous
 62
     7
370
     9
100
AcDbLine
 10
498.2997584987331
 20
422.0390749092371
 30
0.0
 11
444.5497667467274
 21
422.0390749092371
 31
0.0
  0
LINE
  5
1DB
330
1F
100
AcDbEntity
  8
D-B
  6
Continuous
 62
     7
370
     9
100
AcDbLine
 10
498.2997584987331
 20
429.5392233731305
 30
0.0
 11
442.4492500923776
 21
429.5392233731305
 31
0.0
  0
LINE
  5
1DC
330
1F
100
AcDbEntity
  8
D-A
  6
Continuous
 62
     2
370
     9
100
AcDbLine
 10
507.0498492266682
 20
446.0390056260866
 30
0.0
 11
506.2997354043497
 21
446.0390056260866
 31
0.0
  0
LINE
  5
1DD
330
1F
100
AcDbEntity
  8
D-A
  6
Continuous
 62
     2
370
     9
100
AcDbLine
 10
501.1748855178422
 20
440.9144031794016
 30
0.0
 11
506.2997354043497
 21
446.0390056260866
 31
0.0
  0
LINE
  5
1DE
330
1F
100
AcDbEntity
  8
D-A
  6
Continuous
 62
     2
370
     9
100
AcDbLine
 10
501.1748855178422
 20
430.6640848068299
 30
0.0
 11
501.1748855178422
 21
440.9144031794016
 31
0.0
  0
LINE
  5
1DF
330
1F
100
AcDbEntity
  8
D-A
  6
Continuous
 62
     2
370
     9
100
AcDbLine
 10
501.1748855178422
 20
430.6640848068299
 30
0.0
 11
506.2997354043497
 21
425.539111200411
 31
0.0
  0
LINE
  5
1E0
330
1F
100
AcDbEntity
  8
D-A
  6
Continuous
 62
     2
370
     9
100
AcDbLine
 10
506.2997354043497
 20
446.0390056260866
 30
0.0
 11
506.2997354043497
 21
425.539111200411
 31
0.0
  0
LINE
  5
1E1
330
1F
100
AcDbEntity
  8
D-A
  6
Continuous
 62
     2
370
     9
100
AcDbLine
 10
507.0498492266682
 20
425.539111200411
 30
0.0
 11
506.2997354043497
 21
425.539111200411
 31
0.0
  0
LINE
  5
1E2
330
1F
100
AcDbEntity
  8
D-A
  6
Continuous
 62
     2
370
     9
100
AcDbLine
 10
501.1748855178422
 20
440.9144031794016
 30
0.0
 11
486.2165296399917
 21
440.9144031794016
 31
0.0
  0
LINE
  5
1E3
330
1F
100
AcDbEntity
  8
D-A
  6
Continuous
 62
     2
370
     9
100
AcDbLine
 10
501.1748855178422
 20
430.6640848068299
 30
0.0
 11
486.2165296399917
 21
430.6640848068299
 31
0.0
  0
LINE
  5
1E4
330
1F
100
AcDbEntity
  8
D-A
  6
Continuous
 62
     2
370
     9
100
AcDbLine
 10
486.2165296399917
 20
430.6640848068299
 30
0.0
 11
444.5498904666385
 21
435.7890584132488
 31
0.0
  0
LINE
  5
1E5
330
1F
100
AcDbEntity
  8
D-A
  6
Continuous
 62
     2
370
     9
100
AcDbLine
 10
444.5498904666385
 20
435.7890584132488
 30
0.0
 11
486.2165296399917
 21
440.9144031794016
 31
0.0
  0
LINE
  5
1E6
330
1F
100
AcDbEntity
  8
D-A
  6
Continuous
 62
     2
370
     9
100
AcDbLine
 10
448.0849394927154
 20
434.0948379476661
 30
0.0
 11
448.6957446948904
 21
437.5585005849127
 31
0.0
  0
LINE
  5
1E7
330
1F
100
AcDbEntity
  8
D-A
  6
Continuous
 62
     2
370
     9
100
AcDbLine
 10
452.4894920555323
 20
433.5533158958291
 30
0.0
 11
453.2955272777662
 21
438.1243954592792
 31
0.0
  0
LINE
  5
1E8
330
1F
100
AcDbEntity
  8
D-A
  6
Continuous
 62
     2
370
     9
100
AcDbLine
 10
483.3207413956927
 20
429.7609294542116
 30
0.0
 11
485.4937579180745
 21
442.0846698205545
 31
0.0
  0
LINE
  5
1E9
330
1F
100
AcDbEntity
  8
D-A
  6
Continuous
 62
     2
370
     9
100
AcDbLine
 10
478.9163125527872
 20
430.3026989458713
 30
0.0
 11
480.8940990551099
 21
441.5190223860106
 31
0.0
  0
LINE
  5
1EA
330
1F
100
AcDbEntity
  8
D-A
  6
Continuous
 62
     2
370
     9
100
AcDbLine
 10
474.5118837098818
 20
430.8444684375309
 30
0.0
 11
476.2943164722341
 21
440.9531275116441
 31
0.0
  0
LINE
  5
1EB
330
1F
100
AcDbEntity
  8
D-A
  6
Continuous
 62
     2
370
     9
100
AcDbLine
 10
470.1073311470651
 20
431.3861142092792
 30
0.0
 11
471.6945338893581
 21
440.3874800771002
 31
0.0
  0
LINE
  5
1EC
330
1F
100
AcDbEntity
  8
D-A
  6
Continuous
 62
     2
370
     9
100
AcDbLine
 10
465.7029023041596
 20
431.9277599810275
 30
0.0
 11
467.0947513064823
 21
439.8215852027337
 31
0.0
  0
LINE
  5
1ED
330
1F
100
AcDbEntity
  8
D-A
  6
Continuous
 62
     2
370
     9
100
AcDbLine
 10
461.298349741343
 20
432.4696531925985
 30
0.0
 11
462.4949687236065
 21
439.2559377681897
 31
0.0
  0
LINE
  5
1EE
330
1F
100
AcDbEntity
  8
D-A
  6
Continuous
 62
     2
370
     9
100
AcDbLine
 10
456.8939208984375
 20
433.0112989643468
 30
0.0
 11
457.8953098606419
 21
438.6900428938231
 31
0.0
  0
LINE
  5
1EF
330
1F
100
AcDbEntity
  8
D-A
  6
Continuous
 62
     2
370
     9
100
AcDbLine
 10
430.7997832427154
 20
394.468092672117
 30
0.0
 11
430.7997832427154
 21
396.5390402676618
 31
0.0
  0
LINE
  5
1F0
330
1F
100
AcDbEntity
  8
D-A
  6
Continuous
 62
     2
370
     9
100
AcDbLine
 10
448.2997172587628
 20
394.468092672117
 30
0.0
 11
448.2997172587628
 21
396.5390402676618
 31
0.0
  0
LINE
  5
1F1
330
1F
100
AcDbEntity
  8
D-A
  6
Continuous
 62
     2
370
     9
100
AcDbLine
 10
438.2247100005279
 20
393.5392035779447
 30
0.0
 11
440.8747905009503
 21
393.5392035779447
 31
0.0
  0
LINE
  5
1F2
330
1F
100
AcDbEntity
  8
D-A
  6
Continuous
 62
     2
370
     9
100
AcDbLine
 10
438.2247100005279
 20
390.078262778747
 30
0.0
 11
438.2247100005279
 21
393.5392035779447
 31
0.0
  0
LINE
  5
1F3
330
1F
100
AcDbEntity
  8
D-A
  6
Continuous
 62
     2
370
     9
100
AcDbLine
 10
446.3172293998102
 20
398.1735040160782
 30
0.0
 11
433.2820995433912
 21
403.5059559137766
 31
0.0
  0
LINE
  5
1F4
330
1F
100
AcDbEntity
  8
D-A
  6
Continuous
 62
     2
370
     9
100
AcDbLine
 10
446.3172293998102
 20
402.8110211719059
 30
0.0
 11
433.2820995433912
 21
408.1435967895157
 31
0.0
  0
LINE
  5
1F5
330
1F
100
AcDbEntity
  8
D-A
  6
Continuous
 62
     2
370
     9
100
AcDbLine
 10
446.3172293998102
 20
407.4487857675562
 30
0.0
 11
433.2820995433912
 21
412.7816088249886
 31
0.0
  0
LINE
  5
1F6
330
1F
100
AcDbEntity
  8
D-A
  6
Continuous
 62
     2
370
     9
100
AcDbLine
 10
446.3172293998102
 20
412.0865503632066
 30
0.0
 11
432.7997156091638
 21
417.6165829592792
 31
0.0
  0
LINE
  5
1F7
330
1F
100
AcDbEntity
  8
D-A
  6
Continuous
 62
     2
370
     9
100
AcDbLine
 10
439.5497502507391
 20
436.5390485156559
 30
0.0
 11
444.5497667467274
 21
424.4679442082235
 31
0.0
  0
LINE
  5
1F8
330
1F
100
AcDbEntity
  8
D-A
  6
Continuous
 62
     2
370
     9
100
AcDbLine
 10
444.5497667467274
 20
396.5390402676618
 30
0.0
 11
444.5497667467274
 21
424.4679442082235
 31
0.0
  0
LINE
  5
1F9
330
1F
100
AcDbEntity
  8
D-A
  6
Continuous
 62
     2
370
     9
100
AcDbLine
 10
434.5497337547511
 20
396.5390402676618
 30
0.0
 11
434.5497337547511
 21
424.4679442082235
 31
0.0
  0
LINE
  5
1FA
330
1F
100
AcDbEntity
  8
D-A
  6
Continuous
 62
     2
370
     9
100
AcDbLine
 10
439.5497502507391
 20
436.5390485156559
 30
0.0
 11
434.5497337547511
 21
424.4679442082235
 31
0.0
  0
LINE
  5
1FB
330
1F
100
AcDbEntity
  8
D-A
  6
Continuous
 62
     2
370
     9
100
AcDbLine
 10
444.916720003695
 20
428.1547975654871
 30
0.0
 11
435.7380635029563
 21
431.9094494341525
 31
0.0
  0
LINE
  5
1FC
330
1F
100
AcDbEntity
  8
D-A
  6
Continuous
 62
     2
370
     9
100
AcDbLine
 10
446.2997848923143
 20
424.1633457865595
 30
0.0
 11
434.5247423326649
 21
428.9802568137978
 31
0.0
  0
LINE
  5
1FD
330
1F
100
AcDbEntity
  8
D-A
  6
Continuous
 62
     2
370
     9
100
AcDbLine
 10
446.2997848923143
 20
420.7377888819988
 30
0.0
 11
433.3114211623734
 21
426.051064193443
 31
0.0
  0
LINE
  5
1FE
330
1F
100
AcDbEntity
  8
D-A
  6
Continuous
 62
     2
370
     9
100
AcDbLine
 10
446.2997848923143
 20
416.731738153536
 30
0.0
 11
432.7997156091638
 21
422.2543475549295
 31
0.0
  0
LINE
  5
1FF
330
1F
100
AcDbEntity
  8
D-A
  6
Continuous
 62
     2
370
     9
100
AcDbLine
 10
443.2085191881336
 20
432.2788770893468
 30
0.0
 11
436.9512609533362
 21
434.8386420545072
 31
0.0
  0
LINE
  5
200
330
1F
100
AcDbEntity
  8
D-A
  6
Continuous
 62
     2
370
     9
100
AcDbLine
 10
440.8747905009503
 20
390.0780153389246
 30
0.0
 11
440.8747905009503
 21
393.5392035779447
 31
0.0
  0
LINE
  5
201
330
1F
100
AcDbEntity
  8
D-0
  6
Continuous
 62
     4
370
     9
100
AcDbLine
 10
507.0498492266682
 20
400.7889429413316
 30
0.0
 11
509.5498574746622
 21
399.5391243972015
 31
0.0
  0
LINE
  5
202
330
1F
100
AcDbEntity
  8
D-0
  6
Continuous
 62
     4
370
     9
100
AcDbLine
 10
509.5498574746622
 20
399.5391243972015
 30
0.0
 11
509.5498574746622
 21
389.5390914052252
 31
0.0
  0
LINE
  5
203
330
1F
100
AcDbEntity
  8
D-0
  6
Continuous
 62
     4
370
     9
100
AcDbLine
 10
497.0499399546031
 20
395.7891738851661
 30
0.0
 11
497.0499399546031
 21
389.5390914052252
 31
0.0
  0
LINE
  5
204
330
1F
100
AcDbEntity
  8
D-0
  6
Continuous
 62
     4
370
     9
100
AcDbLine
 10
502.0497090107688
 20
395.7891738851661
 30
0.0
 11
497.0499399546031
 21
395.7891738851661
 31
0.0
  0
LINE
  5
205
330
1F
100
AcDbEntity
  8
D-0
  6
Continuous
 62
     4
370
     9
100
AcDbLine
 10
502.0497090107688
 20
402.7889990276913
 30
0.0
 11
502.0497090107688
 21
395.7891738851661
 31
0.0
  0
LINE
  5
206
330
1F
100
AcDbEntity
  8
D-0
  6
Continuous
 62
     4
370
     9
100
AcDbLine
 10
502.0497090107688
 20
402.7889990276913
 30
0.0
 11
462.0498244826859
 21
402.7889990276913
 31
0.0
  0
LINE
  5
207
330
1F
100
AcDbEntity
  8
D-0
  6
Continuous
 62
     4
370
     9
100
AcDbLine
 10
467.0499646985854
 20
395.7891738851661
 30
0.0
 11
467.0499646985854
 21
389.5390914052252
 31
0.0
  0
LINE
  5
208
330
1F
100
AcDbEntity
  8
D-0
  6
Continuous
 62
     4
370
     9
100
AcDbLine
 10
467.0499646985854
 20
395.7891738851661
 30
0.0
 11
462.0498244826859
 21
395.7891738851661
 31
0.0
  0
LINE
  5
209
330
1F
100
AcDbEntity
  8
D-0
  6
Continuous
 62
     4
370
     9
100
AcDbLine
 10
462.0498244826859
 20
402.7889990276913
 30
0.0
 11
462.0498244826859
 21
395.7891738851661
 31
0.0
  0
LINE
  5
20A
330
1F
100
AcDbEntity
  8
D-0
  6
Continuous
 62
     4
370
     9
100
AcDbLine
 10
502.0497090107688
 20
407.7892629635022
 30
0.0
 11
457.0496842667865
 21
407.7892629635022
 31
0.0
  0
LINE
  5
20B
330
1F
100
AcDbEntity
  8
D-0
  6
Continuous
 62
     4
370
     9
100
AcDbLine
 10
457.0496842667865
 20
407.7892629635022
 30
0.0
 11
457.0496842667865
 21
401.5391804835613
 31
0.0
  0
LINE
  5
20C
330
1F
100
AcDbEntity
  8
D-0
  6
Continuous
 62
     4
370
     9
100
AcDbLine
 10
457.0496842667865
 20
396.5390402676618
 30
0.0
 11
457.0496842667865
 21
389.5390914052252
 31
0.0
  0
LINE
  5
20D
330
1F
100
AcDbEntity
  8
D-0
  6
Continuous
 62
     4
370
     9
100
AcDbLine
 10
509.5498574746622
 20
389.5390914052252
 30
0.0
 11
497.0499399546031
 21
389.5390914052252
 31
0.0
  0
LINE
  5
20E
330
1F
100
AcDbEntity
  8
D-0
  6
Continuous
 62
     4
370
     9
100
AcDbLine
 10
467.0499646985854
 20
389.5390914052252
 30
0.0
 11
457.0496842667865
 21
389.5390914052252
 31
0.0
  0
LINE
  5
20F
330
1F
100
AcDbEntity
  8
D-0
  6
JWW_CENTER1
 62
     4
370
     9
100
AcDbLine
 10
439.5497502507391
 20
439.417763412193
 30
0.0
 11
439.5497502507391
 21
389.5390914052252
 31
0.0
  0
LINE
  5
210
330
1F
100
AcDbEntity
  8
D-0
  6
Continuous
 62
     4
370
     9
100
AcDbLine
 10
444.7996809675888
 20
401.5391804835613
 30
0.0
 11
444.7996809675888
 21
396.5390402676618
 31
0.0
  0
LINE
  5
211
330
1F
100
AcDbEntity
  8
D-0
  6
Continuous
 62
     4
370
     9
100
AcDbLine
 10
434.2998195338893
 20
401.5391804835613
 30
0.0
 11
434.2998195338893
 21
396.5390402676618
 31
0.0
  0
LINE
  5
212
330
1F
100
AcDbEntity
  8
D-0
  6
Continuous
 62
     4
370
     9
100
AcDbLine
 10
457.0496842667865
 20
396.5390402676618
 30
0.0
 11
427.0495852908573
 21
396.5390402676618
 31
0.0
  0
LINE
  5
213
330
1F
100
AcDbEntity
  8
D-0
  6
Continuous
 62
     4
370
     9
100
AcDbLine
 10
427.0495852908573
 20
401.5391804835613
 30
0.0
 11
427.0495852908573
 21
396.5390402676618
 31
0.0
  0
LINE
  5
214
330
1F
100
AcDbEntity
  8
D-0
  6
Continuous
 62
     4
370
     9
100
AcDbLine
 10
457.0496842667865
 20
401.5391804835613
 30
0.0
 11
444.5497667467274
 21
401.5391804835613
 31
0.0
  0
LINE
  5
215
330
1F
100
AcDbEntity
  8
D-0
  6
Continuous
 62
     4
370
     9
100
AcDbLine
 10
434.5497337547511
 20
401.5391804835613
 30
0.0
 11
427.0495852908573
 21
401.5391804835613
 31
0.0
  0
LINE
  5
216
330
1F
100
AcDbEntity
  8
D-0
  6
Continuous
 62
     4
370
     9
100
AcDbLine
 10
485.7997172587628
 20
457.0389429413316
 30
0.0
 11
479.5500059385557
 21
453.2892398691187
 31
0.0
  0
LINE
  5
217
330
1F
100
AcDbEntity
  8
D-0
  6
Continuous
 62
     4
370
     9
100
AcDbLine
 10
479.5500059385557
 20
453.2892398691187
 30
0.0
 11
479.5500059385557
 21
452.0391738851661
 31
0.0
  0
LINE
  5
218
330
1F
100
AcDbEntity
  8
D-0
  6
Continuous
 62
     4
370
     9
100
AcDbLine
 10
485.7997172587628
 20
457.0389429413316
 30
0.0
 11
503.2997749947214
 21
457.0389429413316
 31
0.0
  0
LINE
  5
219
330
1F
100
AcDbEntity
  8
D-0
  6
Continuous
 62
     4
370
     9
100
AcDbLine
 10
503.2997749947214
 20
457.0389429413316
 30
0.0
 11
509.5498574746622
 21
452.0391738851661
 31
0.0
  0
LINE
  5
21A
330
1F
100
AcDbEntity
  8
D-0
  6
Continuous
 62
     4
370
     9
100
AcDbLine
 10
507.0498492266682
 20
446.4141243972015
 30
0.0
 11
502.04983273068
 21
441.4138604613907
 31
0.0
  0
LINE
  5
21B
330
1F
100
AcDbEntity
  8
D-0
  6
Continuous
 62
     4
370
     9
100
AcDbLine
 10
507.0498492266682
 20
425.1639924292962
 30
0.0
 11
502.04983273068
 21
430.1640089252843
 31
0.0
  0
LINE
  5
21C
330
1F
100
AcDbEntity
  8
D-0
  6
JWW_CENTER1
 62
     4
370
     9
100
AcDbLine
 10
442.353243441195
 20
435.7890584132488
 30
0.0
 11
508.3753843565245
 21
435.7890584132488
 31
0.0
  0
LINE
  5
21D
330
1F
100
AcDbEntity
  8
D-0
  6
Continuous
 62
     4
370
     9
100
AcDbLine
 10
507.0498492266682
 20
447.0392811090891
 30
0.0
 11
507.0498492266682
 21
400.7889429413316
 31
0.0
  0
LINE
  5
21E
330
1F
100
AcDbEntity
  8
D-0
  6
Continuous
 62
     4
370
     9
100
AcDbLine
 10
509.5498574746622
 20
452.0391738851661
 30
0.0
 11
509.5498574746622
 21
448.2890996532192
 31
0.0
  0
LINE
  5
21F
330
1F
100
AcDbEntity
  8
D-0
  6
Continuous
 62
     4
370
     9
100
AcDbLine
 10
509.5498574746622
 20
448.2890996532192
 30
0.0
 11
507.0498492266682
 21
447.0392811090891
 31
0.0
  0
LINE
  5
220
330
1F
100
AcDbEntity
  8
D-0
  6
Continuous
 62
     4
370
     9
100
AcDbLine
 10
502.04983273068
 20
429.789137593992
 30
0.0
 11
502.0497090107688
 21
407.7892629635022
 31
0.0
  0
LINE
  5
221
330
1F
100
AcDbEntity
  8
D-0
  6
Continuous
 62
     4
370
     9
100
AcDbLine
 10
479.5500059385557
 20
452.0391738851661
 30
0.0
 11
502.04983273068
 21
452.0391738851661
 31
0.0
  0
LINE
  5
222
330
1F
100
AcDbEntity
  8
D-0
  6
Continuous
 62
     4
370
     9
100
AcDbLine
 10
502.04983273068
 20
452.0391738851661
 30
0.0
 11
502.04983273068
 21
441.7888555125942
 31
0.0
  0
LINE
  5
223
330
1F
100
AcDbEntity
  8
D-3
  6
Continuous
 62
     3
370
     9
100
AcDbLine
 10
429.5497172587628
 20
409.5390336692666
 30
0.0
 11
429.5497172587628
 21
401.5391804835613
 31
0.0
  0
LINE
  5
224
330
1F
100
AcDbEntity
  8
D-3
  6
Continuous
 62
     3
370
     9
100
AcDbLine
 10
449.5497832427154
 20
409.5390336692666
 30
0.0
 11
449.5497832427154
 21
401.5391804835613
 31
0.0
  0
LINE
  5
225
330
1F
100
AcDbEntity
  8
D-3
  6
Continuous
 62
     3
370
     9
100
AcDbLine
 10
427.0495852908573
 20
401.5391804835613
 30
0.0
 11
279.5500884184966
 21
401.5391804835613
 31
0.0
  0
LINE
  5
226
330
1F
100
AcDbEntity
  8
D-3
  6
Continuous
 62
     3
370
     9
100
AcDbLine
 10
434.5497337547511
 20
409.5390336692666
 30
0.0
 11
279.5500884184966
 21
409.5390336692666
 31
0.0
  0
LINE
  5
227
330
1F
100
AcDbEntity
  8
D-B
  6
Continuous
 62
     7
370
     9
100
AcDbLine
 10
397.6907266152872
 20
409.5390336692666
 30
0.0
 11
392.6905863993878
 21
414.5391738851661
 31
0.0
  0
LINE
  5
228
330
1F
100
AcDbEntity
  8
D-B
  6
Continuous
 62
     7
370
     9
100
AcDbLine
 10
402.9939806139149
 20
409.5390336692666
 30
0.0
 11
397.9938403980154
 21
414.5391738851661
 31
0.0
  0
LINE
  5
229
330
1F
100
AcDbEntity
  8
D-4
  6
Continuous
 62
     7
370
     9
100
AcDbLine
 10
347.4745466902451
 20
414.5391738851661
 30
0.0
 11
387.0158015070734
 21
479.3711292536204
 31
0.0
  0
LINE
  5
22A
330
1F
100
AcDbEntity
  8
D-4
  6
Continuous
 62
     7
370
     9
100
AcDbLine
 10
381.9583789722341
 20
409.5390336692666
 30
0.0
 11
517.6853076831717
 21
632.0771311539581
 31
0.0
  0
LINE
  5
22B
330
1F
100
AcDbEntity
  8
D-B
  6
Continuous
 62
     7
370
     9
100
AcDbLine
 10
344.7279646589951
 20
422.0390749092371
 30
0.0
 11
320.7999152106208
 21
422.0390749092371
 31
0.0
  0
LINE
  5
22C
330
1F
100
AcDbEntity
  8
D-B
  6
Continuous
 62
     7
370
     9
100
AcDbLine
 10
349.3023846600508
 20
429.5392233731305
 30
0.0
 11
320.7999152106208
 21
429.5392233731305
 31
0.0
  0
LINE
  5
22D
330
1F
100
AcDbEntity
  8
D-B
  6
Continuous
 62
     7
370
     9
100
AcDbLine
 10
353.8765572212839
 20
437.0391243972015
 30
0.0
 11
320.7999152106208
 21
437.0391243972015
 31
0.0
  0
LINE
  5
22E
330
1F
100
AcDbEntity
  8
D-B
  6
Continuous
 62
     7
370
     9
100
AcDbLine
 10
358.4508535024284
 20
444.5391491411838
 30
0.0
 11
320.7999152106208
 21
444.5391491411838
 31
0.0
  0
LINE
  5
22F
330
1F
100
AcDbEntity
  8
D-B
  6
Continuous
 62
     7
370
     9
100
AcDbLine
 10
363.0251497835727
 20
452.0391738851661
 30
0.0
 11
339.5496677707982
 21
452.0391738851661
 31
0.0
  0
LINE
  5
230
330
1F
100
AcDbEntity
  8
D-B
  6
Continuous
 62
     7
370
     9
100
AcDbLine
 10
392.3287056587839
 20
414.5391738851661
 30
0.0
 11
434.5497337547511
 21
414.5391738851661
 31
0.0
  0
LINE
  5
231
330
1F
100
AcDbEntity
  8
D-B
  6
Continuous
 62
     7
370
     9
100
AcDbLine
 10
434.5497337547511
 20
422.0390749092371
 30
0.0
 11
396.9030019399284
 21
422.0390749092371
 31
0.0
  0
LINE
  5
232
330
1F
100
AcDbEntity
  8
D-B
  6
Continuous
 62
     7
370
     9
100
AcDbLine
 10
382.2613690350508
 20
422.0390749092371
 30
0.0
 11
359.3695975638727
 21
422.0390749092371
 31
0.0
  0
LINE
  5
233
330
1F
100
AcDbEntity
  8
D-B
  6
Continuous
 62
     7
370
     9
100
AcDbLine
 10
436.650374129012
 20
429.5392233731305
 30
0.0
 11
401.4772982210727
 21
429.5392233731305
 31
0.0
  0
LINE
  5
234
330
1F
100
AcDbEntity
  8
D-B
  6
Continuous
 62
     7
370
     9
100
AcDbLine
 10
386.8357890361065
 20
429.5392233731305
 30
0.0
 11
363.9438938450169
 21
429.5392233731305
 31
0.0
  0
LINE
  5
235
330
1F
100
AcDbEntity
  8
D-B
  6
Continuous
 62
     7
370
     9
100
AcDbLine
 10
454.7119965424409
 20
437.0391243972015
 30
0.0
 11
406.0515945022172
 21
437.0391243972015
 31
0.0
  0
LINE
  5
236
330
1F
100
AcDbEntity
  8
D-B
  6
Continuous
 62
     7
370
     9
100
AcDbLine
 10
391.4099615973396
 20
437.0391243972015
 30
0.0
 11
368.5181901261615
 21
437.0391243972015
 31
0.0
  0
LINE
  5
237
330
1F
100
AcDbEntity
  8
D-B
  6
Continuous
 62
     7
370
     9
100
AcDbLine
 10
498.2997584987331
 20
444.5391491411838
 30
0.0
 11
410.6258907833615
 21
444.5391491411838
 31
0.0
  0
LINE
  5
238
330
1F
100
AcDbEntity
  8
D-B
  6
Continuous
 62
     7
370
     9
100
AcDbLine
 10
395.9843815983953
 20
444.5391491411838
 30
0.0
 11
373.0923626873945
 21
444.5391491411838
 31
0.0
  0
LINE
  5
239
330
1F
100
AcDbEntity
  8
D-B
  6
Continuous
 62
     7
370
     9
100
AcDbLine
 10
479.5500059385557
 20
452.0391738851661
 30
0.0
 11
415.200187064506
 21
452.0391738851661
 31
0.0
  0
LINE
  5
23A
330
1F
100
AcDbEntity
  8
D-B
  6
Continuous
 62
     7
370
     9
100
AcDbLine
 10
400.5585541596284
 20
452.0391738851661
 30
0.0
 11
377.6666589685388
 21
452.0391738851661
 31
0.0
  0
LINE
  5
23B
330
1F
100
AcDbEntity
  8
D-B
  6
Continuous
 62
     7
370
     9
100
AcDbLine
 10
375.3346623601141
 20
410.681834490107
 30
0.0
 11
371.4774466849664
 21
414.5391738851661
 31
0.0
  0
LINE
  5
23C
330
1F
100
AcDbEntity
  8
D-B
  6
Continuous
 62
     7
370
     9
100
AcDbLine
 10
377.3438737199115
 20
413.9762482886712
 30
0.0
 11
376.7808244035052
 21
414.5391738851661
 31
0.0
  0
LINE
  5
23D
330
1F
100
AcDbEntity
  8
D-B
  6
Continuous
 62
     7
370
     9
100
AcDbLine
 10
392.3874726166596
 20
409.5390336692666
 30
0.0
 11
390.4566996806378
 21
411.4696828853772
 31
0.0
  0
LINE
  5
23E
330
1F
100
AcDbEntity
  8
D-6
  6
Continuous
 62
     6
370
     9
100
AcDbLine
 10
523.4996486354519
 20
429.5392233731305
 30
0.0
 11
622.484114363387
 21
429.5392233731305
 31
0.0
  0
LINE
  5
23F
330
1F
100
AcDbEntity
  8
D-6
  6
Continuous
 62
     6
370
     9
100
AcDbLine
 10
656.4239501953125
 20
429.5392233731305
 30
0.0
 11
727.5954375395904
 21
429.5392233731305
 31
0.0
  0
LINE
  5
240
330
1F
100
AcDbEntity
  8
D-6
  6
Continuous
 62
     6
370
     9
100
AcDbLine
 10
523.4996486354519
 20
422.0390749092371
 30
0.0
 11
622.484114363387
 21
422.0390749092371
 31
0.0
  0
LINE
  5
241
330
1F
100
AcDbEntity
  8
D-6
  6
Continuous
 62
     6
370
     9
100
AcDbLine
 10
656.4239501953125
 20
422.0390749092371
 30
0.0
 11
727.5954375395904
 21
422.0390749092371
 31
0.0
  0
LINE
  5
242
330
1F
100
AcDbEntity
  8
D-6
  6
Continuous
 62
     6
370
     9
100
AcDbLine
 10
656.4239501953125
 20
414.5391738851661
 30
0.0
 11
727.5954375395904
 21
414.5391738851661
 31
0.0
  0
LINE
  5
243
330
1F
100
AcDbEntity
  8
D-6
  6
Continuous
 62
     6
370
     9
100
AcDbLine
 10
523.4996486354519
 20
444.5391491411838
 30
0.0
 11
727.5954375395904
 21
444.5391491411838
 31
0.0
  0
LINE
  5
244
330
1F
100
AcDbEntity
  8
D-6
  6
Continuous
 62
     6
370
     9
100
AcDbLine
 10
523.4996486354519
 20
437.0391243972015
 30
0.0
 11
727.5954375395904
 21
437.0391243972015
 31
0.0
  0
LINE
  5
245
330
1F
100
AcDbEntity
  8
D-4
  6
Continuous
 62
     7
370
     9
100
AcDbLine
 10
652.0479769320102
 20
343.2891243972015
 30
0.0
 11
652.0479769320102
 21
452.0389264453434
 31
0.0
  0
LINE
  5
246
330
1F
100
AcDbEntity
  8
D-4
  6
Continuous
 62
     7
370
     9
100
AcDbLine
 10
543.2997832427154
 20
457.0391903811542
 30
0.0
 11
653.5479571368245
 21
457.0391903811542
 31
0.0
  0
LINE
  5
247
330
1F
100
AcDbEntity
  8
D-4
  6
Continuous
 62
     7
370
     9
100
AcDbLine
 10
652.0479769320102
 20
452.0389264453434
 30
0.0
 11
652.0479769320102
 21
471.7735513595642
 31
0.0
  0
ARC
  5
248
330
1F
100
AcDbEntity
  8
D-5
  6
Continuous
 62
     7
370
     9
100
AcDbCircle
 10
479.5500059385557
 20
413.2891079012134
 30
0.0
 40
37.50000386624723
100
AcDbArc
 50
248.4898071289062
 51
291.5101928710938
  0
ARC
  5
249
330
1F
100
AcDbEntity
  8
D-5
  6
Continuous
 62
     7
370
     9
100
AcDbCircle
 10
479.5500059385557
 20
413.2891079012134
 30
0.0
 40
35.50000190734863
100
AcDbArc
 50
257.8034057617188
 51
282.1965942382812
  0
ARC
  5
24A
330
1F
100
AcDbEntity
  8
D-1
  6
Continuous
 62
     2
370
     9
100
AcDbCircle
 10
493.2999894425677
 20
384.5393223490595
 30
0.0
 40
2.500003415185052
100
AcDbArc
 50
90.0
 51
270.0
  0
ARC
  5
24B
330
1F
100
AcDbEntity
  8
D-1
  6
Continuous
 62
     2
370
     9
100
AcDbCircle
 10
465.7997749947214
 20
384.5393223490595
 30
0.0
 40
2.500003415185052
100
AcDbArc
 50
270.0
 51
90.0
  0
ARC
  5
24C
330
1F
100
AcDbEntity
  8
D-1
  6
Continuous
 62
     2
370
     9
100
AcDbCircle
 10
501.4247997387037
 20
379.5390584132488
 30
0.0
 40
2.500000032218727
100
AcDbArc
 50
90.0
 51
180.0
  0
ARC
  5
24D
330
1F
100
AcDbEntity
  8
D-1
  6
Continuous
 62
     2
370
     9
100
AcDbCircle
 10
457.6745935388513
 20
379.5390584132488
 30
0.0
 40
2.500000032218727
100
AcDbArc
 50
0.0
 51
90.0
  0
ARC
  5
24E
330
1F
100
AcDbEntity
  8
D-1
  6
Continuous
 62
     2
370
     9
100
AcDbCircle
 10
453.2996100348396
 20
379.5390584132488
 30
0.0
 40
2.500000032218727
100
AcDbArc
 50
90.0
 51
180.0
  0
ARC
  5
24F
330
1F
100
AcDbEntity
  8
D-1
  6
Continuous
 62
     2
370
     9
100
AcDbCircle
 10
453.2996100348396
 20
358.2891738851661
 30
0.0
 40
2.500000032218727
100
AcDbArc
 50
180.0
 51
270.0
  0
ARC
  5
250
330
1F
100
AcDbEntity
  8
D-1
  6
Continuous
 62
     2
370
     9
100
AcDbCircle
 10
463.9251708984375
 20
358.2891738851661
 30
0.0
 40
2.500000032218727
100
AcDbArc
 50
270.0
 51
0.0
  0
ARC
  5
251
330
1F
100
AcDbEntity
  8
D-1
  6
Continuous
 62
     2
370
     9
100
AcDbCircle
 10
463.9251708984375
 20
360.7890584132488
 30
0.0
 40
2.500000032218727
100
AcDbArc
 50
0.0
 51
90.0
  0
ARC
  5
252
330
1F
100
AcDbEntity
  8
D-1
  6
Continuous
 62
     2
370
     9
100
AcDbCircle
 10
462.6747337547511
 20
365.7890749092369
 30
0.0
 40
2.500000032218727
100
AcDbArc
 50
180.0
 51
270.0
  0
ARC
  5
253
330
1F
100
AcDbEntity
  8
D-1
  6
Continuous
 62
     2
370
     9
100
AcDbCircle
 10
509.5499811945734
 20
379.5390584132488
 30
0.0
 40
2.500000032218727
100
AcDbArc
 50
0.0
 51
90.0
  0
ARC
  5
254
330
1F
100
AcDbEntity
  8
D-1
  6
Continuous
 62
     2
370
     9
100
AcDbCircle
 10
495.1749646985854
 20
367.0393883330123
 30
0.0
 40
3.75000004832809
100
AcDbArc
 50
270.0
 51
0.0
  0
ARC
  5
255
330
1F
100
AcDbEntity
  8
D-1
  6
Continuous
 62
     2
370
     9
100
AcDbCircle
 10
527.049544050887
 20
359.5392398691187
 30
0.0
 40
2.500003415185052
100
AcDbArc
 50
0.0
 51
180.0
  0
ARC
  5
256
330
1F
100
AcDbEntity
  8
D-1
  6
Continuous
 62
     2
370
     9
100
AcDbCircle
 10
509.5499811945734
 20
358.2891738851661
 30
0.0
 40
2.500000032218727
100
AcDbArc
 50
270.0
 51
0.0
  0
ARC
  5
257
330
1F
100
AcDbEntity
  8
D-1
  6
Continuous
 62
     2
370
     9
100
AcDbCircle
 10
495.1749646985854
 20
358.2891738851661
 30
0.0
 40
2.500000032218727
100
AcDbArc
 50
180.0
 51
270.0
  0
ARC
  5
258
330
1F
100
AcDbEntity
  8
D-1
  6
Continuous
 62
     2
370
     9
100
AcDbCircle
 10
527.049544050887
 20
399.5388769573788
 30
0.0
 40
2.500003415185052
100
AcDbArc
 50
180.0
 51
0.0
  0
ARC
  5
259
330
1F
100
AcDbEntity
  8
D-1
  6
Continuous
 62
     2
370
     9
100
AcDbCircle
 10
522.0497749947214
 20
447.0392811090891
 30
0.0
 40
5.000000064437454
100
AcDbArc
 50
90.0
 51
180.0
  0
ARC
  5
25A
330
1F
100
AcDbEntity
  8
D-1
  6
Continuous
 62
     2
370
     9
100
AcDbCircle
 10
492.6749564505914
 20
370.7890914052252
 30
0.0
 40
2.500000032218727
100
AcDbArc
 50
270.0
 51
0.0
  0
ARC
  5
25B
330
1F
100
AcDbEntity
  8
D-1
  6
Continuous
 62
     2
370
     9
100
AcDbCircle
 10
466.4248079866977
 20
370.7890914052252
 30
0.0
 40
2.500000032218727
100
AcDbArc
 50
180.0
 51
270.0
  0
ARC
  5
25C
330
1F
100
AcDbEntity
  8
D-1
  6
Continuous
 62
     2
370
     9
100
AcDbCircle
 10
594.5498904666385
 20
362.6641573891778
 30
0.0
 40
5.000000064437454
100
AcDbArc
 50
0.0
 51
90.0
  0
ARC
  5
25D
330
1F
100
AcDbEntity
  8
D-1
  6
Continuous
 62
     2
370
     9
100
AcDbCircle
 10
532.0498079866977
 20
353.0931850496509
 30
0.0
 40
5.000000064437454
100
AcDbArc
 50
0.0
 51
44.99964904785156
  0
ARC
  5
25E
330
1F
100
AcDbEntity
  8
D-A
  6
Continuous
 62
     2
370
     9
100
AcDbCircle
 10
533.5500356313346
 20
378.9143965810064
 30
0.0
 40
16.24999755137675
100
AcDbArc
 50
4.411743164062504
 51
37.97987365722657
  0
ARC
  5
25F
330
1F
100
AcDbEntity
  8
D-A
  6
Continuous
 62
     2
370
     9
100
AcDbCircle
 10
541.550012536951
 20
384.7892365699212
 30
0.0
 40
0.5000000064437454
100
AcDbArc
 50
300.8598175048829
 51
0.0000000000000509
  0
ARC
  5
260
330
1F
100
AcDbEntity
  8
D-A
  6
Continuous
 62
     2
370
     9
100
AcDbCircle
 10
541.550012536951
 20
373.0393091522691
 30
0.0
 40
0.5000000064437454
100
AcDbArc
 50
0.0
 51
59.14018249511719
  0
ARC
  5
261
330
1F
100
AcDbEntity
  8
D-1
  6
Continuous
 62
     2
370
     9
100
AcDbCircle
 10
554.7275440112967
 20
380.1640914052252
 30
0.0
 40
12.50000064437454
100
AcDbArc
 50
225.0
 51
270.0
  0
ARC
  5
262
330
1F
100
AcDbEntity
  8
D-A
  6
Continuous
 62
     2
370
     9
100
AcDbCircle
 10
533.5500356313346
 20
378.9143965810064
 30
0.0
 40
16.24999755137675
100
AcDbArc
 50
327.3879852294923
 51
355.5882568359376
  0
ARC
  5
263
330
1F
100
AcDbEntity
  8
D-1
  6
JWW_DASHED3
 62
     2
370
     9
100
AcDbCircle
 10
533.5500356313346
 20
378.9143965810064
 30
0.0
 40
16.24999755137675
100
AcDbArc
 50
322.0201263427734
 51
327.3879852294922
  0
ARC
  5
264
330
1F
100
AcDbEntity
  8
D-A
  6
Continuous
 62
     2
370
     9
100
AcDbCircle
 10
434.5497337547511
 20
394.468092672117
 30
0.0
 40
3.75000004832809
100
AcDbArc
 50
180.0
 51
254.5338897705078
  0
ARC
  5
265
330
1F
100
AcDbEntity
  8
D-A
  6
Continuous
 62
     2
370
     9
100
AcDbCircle
 10
444.5497667467274
 20
394.468092672117
 30
0.0
 40
3.75000004832809
100
AcDbArc
 50
285.4661102294922
 51
0.0
  0
ARC
  5
266
330
1F
100
AcDbEntity
  8
D-A
  6
Continuous
 62
     2
370
     9
100
AcDbCircle
 10
439.5497502507391
 20
412.5391177988062
 30
0.0
 40
22.50000077324945
100
AcDbArc
 50
254.5339660644532
 51
266.6239776611328
  0
ARC
  5
267
330
1F
100
AcDbEntity
  8
D-A
  6
Continuous
 62
     2
370
     9
100
AcDbCircle
 10
439.5497502507391
 20
412.5391177988062
 30
0.0
 40
22.50000077324945
100
AcDbArc
 50
273.3760223388672
 51
285.4660186767578
  0
TEXT
  5
268
330
1F
100
AcDbEntity
  8
D-4
  6
Continuous
 62
     2
370
     9
100
AcDbText
 10
317.272569811022
 20
24.64470954289407
 30
0.0
 40
15.24
  1
断面詳細図　Ｓ＝１：２
 41
1.113636363636364
  7
ＭＳ ゴシック
100
AcDbText
  0
TEXT
  5
269
330
1F
100
AcDbEntity
  8
D-4
  6
Continuous
 62
     7
370
     9
100
AcDbText
 10
238.1809737035773
 20
-9.680928917845458
 30
0.0
 40
11.43
  1
処理：陽極酸化塗装複合皮膜処理（アルミ材のみ）
 50
0.0000354431474553
 41
1.159420289855073
  7
ＭＳ ゴシック
100
AcDbText
  0
TEXT
  5
26A
330
1F
100
AcDbEntity
  8
D-4
  6
Continuous
 62
     2
370
     9
100
AcDbText
 10
646.7279686840161
 20
342.9568168393996
 30
0.0
 40
15.24
  1
10
 50
90.0
 41
1.0625
  7
ＭＳ ゴシック
100
AcDbText
  0
TEXT
  5
26B
330
1F
100
AcDbEntity
  8
D-4
  6
Continuous
 62
     2
370
     9
100
AcDbText
 10
646.7279686840161
 20
388.2891594511764
 30
0.0
 40
15.24
  1
33.5
 50
90.0
 41
1.09375
  7
ＭＳ ゴシック
100
AcDbText
  0
TEXT
  5
26C
330
1F
100
AcDbEntity
  8
D-4
  6
Continuous
 62
     2
370
     9
100
AcDbText
 10
754.4393895164698
 20
350.1640089252843
 30
0.0
 40
15.24
  1
55～65
 50
90.0
 41
1.104166666666667
  7
ＭＳ ゴシック
100
AcDbText
  0
TEXT
  5
26D
330
1F
100
AcDbEntity
  8
D-4
  6
Continuous
 62
     2
370
     9
100
AcDbText
 10
477.6747873667125
 20
134.1155512341947
 30
0.0
 40
15.24
  1
33
 41
1.0625
  7
ＭＳ ゴシック
100
AcDbText
  0
TEXT
  5
26E
330
1F
100
AcDbEntity
  8
D-4
  6
Continuous
 62
     2
370
     9
100
AcDbText
 10
553.924729630754
 20
134.1155512341947
 30
0.0
 40
15.24
  1
28
 41
1.0625
  7
ＭＳ ゴシック
100
AcDbText
  0
TEXT
  5
26F
330
1F
100
AcDbEntity
  8
D-4
  6
Continuous
 62
     2
370
     9
100
AcDbText
 10
501.4249399546031
 20
85.6232845534515
 30
0.0
 40
15.24
  1
70～80
 41
1.104166666666667
  7
ＭＳ ゴシック
100
AcDbText
  0
TEXT
  5
270
330
1F
100
AcDbEntity
  8
D-4
  6
Continuous
 62
     7
370
     9
100
AcDbText
 10
316.056597405735
 20
484.9970528969308
 30
0.0
 40
11.43
  1
接着シロ
 50
0.0002100335217402
 41
1.125
  7
ＭＳ ゴシック
100
AcDbText
  0
TEXT
  5
271
330
1F
100
AcDbEntity
  8
D-4
  6
Continuous
 62
     2
370
     9
100
AcDbText
 10
646.2280165223817
 20
460.9662933722068
 30
0.0
 40
15.24
  1
2
 50
90.0
 41
0.9999999999999998
  7
ＭＳ ゴシック
100
AcDbText
  0
LWPOLYLINE
  5
272
330
1F
100
AcDbEntity
  8
D-4
  6
Continuous
 62
     7
370
     9
100
AcDbPolyline
 90
        4
 70
     1
 43
0.5
 10
652.2979769320102
 20
343.2891243972015
 42
0.4142135623731
 10
652.0479769320102
 20
343.5391243972015
 42
0.4142135623731
 10
651.7979769320101
 20
343.2891243972015
 42
0.4142135623731
 10
652.0479769320102
 20
343.0391243972015
 42
0.4142135623731
  0
LWPOLYLINE
  5
273
330
1F
100
AcDbEntity
  8
D-4
  6
Continuous
 62
     7
370
     9
100
AcDbPolyline
 90
        4
 70
     1
 43
0.5
 10
652.2979769320102
 20
368.2889594373197
 42
0.4142135623731
 10
652.0479769320102
 20
368.5389594373197
 42
0.4142135623731
 10
651.7979769320101
 20
368.2889594373197
 42
0.4142135623731
 10
652.0479769320102
 20
368.0389594373197
 42
0.4142135623731
  0
LWPOLYLINE
  5
274
330
1F
100
AcDbEntity
  8
D-4
  6
Continuous
 62
     7
370
     9
100
AcDbPolyline
 90
        4
 70
     1
 43
0.5
 10
652.2979769320102
 20
452.0389264453434
 42
0.4142135623731
 10
652.0479769320102
 20
452.2889264453434
 42
0.4142135623731
 10
651.7979769320101
 20
452.0389264453434
 42
0.4142135623731
 10
652.0479769320102
 20
451.7889264453435
 42
0.4142135623731
  0
LWPOLYLINE
  5
275
330
1F
100
AcDbEntity
  8
D-4
  6
Continuous
 62
     7
370
     9
100
AcDbPolyline
 90
        4
 70
     1
 43
0.5
 10
760.0093977644639
 20
314.5390914052252
 42
0.4142135623731
 10
759.7593977644638
 20
314.7890914052252
 42
0.4142135623731
 10
759.5093977644638
 20
314.5390914052252
 42
0.4142135623731
 10
759.7593977644638
 20
314.2890914052252
 42
0.4142135623731
  0
LWPOLYLINE
  5
276
330
1F
100
AcDbEntity
  8
D-4
  6
Continuous
 62
     7
370
     9
100
AcDbPolyline
 90
        4
 70
     1
 43
0.5
 10
760.0093977644639
 20
452.0389264453434
 42
0.4142135623731
 10
759.7593977644638
 20
452.2889264453434
 42
0.4142135623731
 10
759.5093977644638
 20
452.0389264453434
 42
0.4142135623731
 10
759.7593977644638
 20
451.7889264453435
 42
0.4142135623731
  0
LWPOLYLINE
  5
277
330
1F
100
AcDbEntity
  8
D-4
  6
Continuous
 62
     7
370
     9
100
AcDbPolyline
 90
        4
 70
     1
 43
0.5
 10
447.2997749947214
 20
128.7954192662893
 42
0.4142135623731
 10
447.0497749947214
 20
129.0454192662893
 42
0.4142135623731
 10
446.7997749947214
 20
128.7954192662893
 42
0.4142135623731
 10
447.0497749947214
 20
128.5454192662893
 42
0.4142135623731
  0
LWPOLYLINE
  5
278
330
1F
100
AcDbEntity
  8
D-4
  6
Continuous
 62
     7
370
     9
100
AcDbPolyline
 90
        4
 70
     1
 43
0.5
 10
529.7996760187922
 20
128.7954192662893
 42
0.4142135623731
 10
529.5496760187922
 20
129.0454192662893
 42
0.4142135623731
 10
529.2996760187922
 20
128.7954192662893
 42
0.4142135623731
 10
529.5496760187922
 20
128.5454192662893
 42
0.4142135623731
  0
LWPOLYLINE
  5
279
330
1F
100
AcDbEntity
  8
D-4
  6
Continuous
 62
     7
370
     9
100
AcDbPolyline
 90
        4
 70
     1
 43
0.5
 10
599.7997832427153
 20
128.7954192662893
 42
0.4142135623731
 10
599.5497832427154
 20
129.0454192662893
 42
0.4142135623731
 10
599.2997832427154
 20
128.7954192662893
 42
0.4142135623731
 10
599.5497832427154
 20
128.5454192662893
 42
0.4142135623731
  0
LWPOLYLINE
  5
27A
330
1F
100
AcDbEntity
  8
D-4
  6
Continuous
 62
     7
370
     9
100
AcDbPolyline
 90
        4
 70
     1
 43
0.5
 10
447.2997749947214
 20
80.30315258554609
 42
0.4142135623731
 10
447.0497749947214
 20
80.55315258554609
 42
0.4142135623731
 10
446.7997749947214
 20
80.30315258554609
 42
0.4142135623731
 10
447.0497749947214
 20
80.05315258554609
 42
0.4142135623731
  0
LWPOLYLINE
  5
27B
330
1F
100
AcDbEntity
  8
D-4
  6
Continuous
 62
     7
370
     9
100
AcDbPolyline
 90
        4
 70
     1
 43
0.5
 10
622.2998574746622
 20
80.30315258554609
 42
0.4142135623731
 10
622.0498574746623
 20
80.55315258554609
 42
0.4142135623731
 10
621.7998574746623
 20
80.30315258554609
 42
0.4142135623731
 10
622.0498574746623
 20
80.05315258554609
 42
0.4142135623731
  0
LWPOLYLINE
  5
27C
330
1F
100
AcDbEntity
  8
D-4
  6
Continuous
 62
     7
370
     9
100
AcDbPolyline
 90
        4
 70
     1
 43
0.5
 10
652.2979769320102
 20
457.0391903811542
 42
0.4142135623731
 10
652.0479769320102
 20
457.2891903811542
 42
0.4142135623731
 10
651.7979769320101
 20
457.0391903811542
 42
0.4142135623731
 10
652.0479769320102
 20
456.7891903811542
 42
0.4142135623731
  0
LINE
  5
27D
330
1F
100
AcDbEntity
  8
D-0
  6
Continuous
 62
     7
370
     9
100
AcDbLine
 10
597.00274936673
 20
397.359636703019
 30
0.0
 11
597.00274936673
 21
398.1097778468178
 31
0.0
  0
LINE
  5
27E
330
1F
100
AcDbEntity
  8
D-0
  6
Continuous
 62
     7
370
     9
100
AcDbLine
 10
597.00274936673
 20
398.1097778468178
 30
0.0
 11
597.7528905105288
 21
398.1097778468178
 31
0.0
  0
LINE
  5
27F
330
1F
100
AcDbEntity
  8
D-0
  6
Continuous
 62
     7
370
     9
100
AcDbLine
 10
597.7528905105288
 20
398.1097778468178
 30
0.0
 11
597.7528905105288
 21
397.359636703019
 31
0.0
  0
LINE
  5
280
330
1F
100
AcDbEntity
  8
D-0
  6
Continuous
 62
     7
370
     9
100
AcDbLine
 10
597.7528905105288
 20
397.359636703019
 30
0.0
 11
597.00274936673
 21
397.359636703019
 31
0.0
  0
LINE
  5
281
330
1F
100
AcDbEntity
  8
D-0
  6
Continuous
 62
     7
370
     9
100
AcDbLine
 10
581.6997098159487
 20
391.9295486598061
 30
0.0
 11
581.6997098159487
 21
392.6796707301186
 31
0.0
  0
LINE
  5
282
330
1F
100
AcDbEntity
  8
D-0
  6
Continuous
 62
     7
370
     9
100
AcDbLine
 10
581.6997098159487
 20
392.6796707301186
 30
0.0
 11
582.4498509597476
 21
392.6796707301186
 31
0.0
  0
LINE
  5
283
330
1F
100
AcDbEntity
  8
D-0
  6
Continuous
 62
     7
370
     9
100
AcDbLine
 10
582.4498509597476
 20
392.6796707301186
 30
0.0
 11
582.4498509597476
 21
391.9295486598061
 31
0.0
  0
LINE
  5
284
330
1F
100
AcDbEntity
  8
D-0
  6
Continuous
 62
     7
370
     9
100
AcDbLine
 10
582.4498509597476
 20
391.9295486598061
 30
0.0
 11
581.6997098159487
 21
391.9295486598061
 31
0.0
  0
LINE
  5
285
330
1F
100
AcDbEntity
  8
D-0
  6
Continuous
 62
     7
370
     9
100
AcDbLine
 10
614.7742222976382
 20
409.6175178675697
 30
0.0
 11
614.7742222976382
 21
410.3676590113686
 31
0.0
  0
LINE
  5
286
330
1F
100
AcDbEntity
  8
D-0
  6
Continuous
 62
     7
370
     9
100
AcDbLine
 10
614.7742222976382
 20
410.3676590113686
 30
0.0
 11
615.524363441437
 21
410.3676590113686
 31
0.0
  0
LINE
  5
287
330
1F
100
AcDbEntity
  8
D-0
  6
Continuous
 62
     7
370
     9
100
AcDbLine
 10
615.524363441437
 20
410.3676590113686
 30
0.0
 11
615.524363441437
 21
409.6175178675697
 31
0.0
  0
LINE
  5
288
330
1F
100
AcDbEntity
  8
D-0
  6
Continuous
 62
     7
370
     9
100
AcDbLine
 10
615.524363441437
 20
409.6175178675697
 30
0.0
 11
614.7742222976382
 21
409.6175178675697
 31
0.0
  0
LINE
  5
289
330
1F
100
AcDbEntity
  8
D-0
  6
Continuous
 62
     7
370
     9
100
AcDbLine
 10
621.6852711867983
 20
392.8335174708412
 30
0.0
 11
621.6852711867983
 21
393.5836586146401
 31
0.0
  0
LINE
  5
28A
330
1F
100
AcDbEntity
  8
D-0
  6
Continuous
 62
     7
370
     9
100
AcDbLine
 10
621.6852711867983
 20
393.5836586146401
 30
0.0
 11
622.4351643752749
 21
393.5836586146401
 31
0.0
  0
LINE
  5
28B
330
1F
100
AcDbEntity
  8
D-0
  6
Continuous
 62
     7
370
     9
100
AcDbLine
 10
622.4351643752749
 20
393.5836586146401
 30
0.0
 11
622.4351643752749
 21
392.8335174708412
 31
0.0
  0
LINE
  5
28C
330
1F
100
AcDbEntity
  8
D-0
  6
Continuous
 62
     7
370
     9
100
AcDbLine
 10
622.4351643752749
 20
392.8335174708412
 30
0.0
 11
621.6852711867983
 21
392.8335174708412
 31
0.0
  0
LINE
  5
28D
330
1F
100
AcDbEntity
  8
D-0
  6
Continuous
 62
     7
370
     9
100
AcDbLine
 10
600.9521435928042
 20
378.6009391932533
 30
0.0
 11
600.9521435928042
 21
379.3510803370522
 31
0.0
  0
LINE
  5
28E
330
1F
100
AcDbEntity
  8
D-0
  6
Continuous
 62
     7
370
     9
100
AcDbLine
 10
600.9521435928042
 20
379.3510803370522
 30
0.0
 11
601.7020367812808
 21
379.3510803370522
 31
0.0
  0
LINE
  5
28F
330
1F
100
AcDbEntity
  8
D-0
  6
Continuous
 62
     7
370
     9
100
AcDbLine
 10
601.7020367812808
 20
379.3510803370522
 30
0.0
 11
601.7020367812808
 21
378.6009391932533
 31
0.0
  0
LINE
  5
290
330
1F
100
AcDbEntity
  8
D-0
  6
Continuous
 62
     7
370
     9
100
AcDbLine
 10
601.7020367812808
 20
378.6009391932533
 30
0.0
 11
600.9521435928042
 21
378.6009391932533
 31
0.0
  0
LINE
  5
291
330
1F
100
AcDbEntity
  8
D-0
  6
Continuous
 62
     7
370
     9
100
AcDbLine
 10
568.1055211257632
 20
401.6843208460854
 30
0.0
 11
568.1055211257632
 21
402.4344619898842
 31
0.0
  0
LINE
  5
292
330
1F
100
AcDbEntity
  8
D-0
  6
Continuous
 62
     7
370
     9
100
AcDbLine
 10
568.1055211257632
 20
402.4344619898842
 30
0.0
 11
568.8554143142397
 21
402.4344619898842
 31
0.0
  0
LINE
  5
293
330
1F
100
AcDbEntity
  8
D-0
  6
Continuous
 62
     7
370
     9
100
AcDbLine
 10
568.8554143142397
 20
402.4344619898842
 30
0.0
 11
568.8554143142397
 21
401.6843208460854
 31
0.0
  0
LINE
  5
294
330
1F
100
AcDbEntity
  8
D-0
  6
Continuous
 62
     7
370
     9
100
AcDbLine
 10
568.8554143142397
 20
401.6843208460854
 30
0.0
 11
568.1055211257632
 21
401.6843208460854
 31
0.0
  0
LINE
  5
295
330
1F
100
AcDbEntity
  8
D-0
  6
Continuous
 62
     7
370
     9
100
AcDbLine
 10
626.5663861465151
 20
379.8173126368569
 30
0.0
 11
626.5663861465151
 21
380.5674537806557
 31
0.0
  0
LINE
  5
296
330
1F
100
AcDbEntity
  8
D-0
  6
Continuous
 62
     7
370
     9
100
AcDbLine
 10
626.5663861465151
 20
380.5674537806557
 30
0.0
 11
627.3162793349917
 21
380.5674537806557
 31
0.0
  0
LINE
  5
297
330
1F
100
AcDbEntity
  8
D-0
  6
Continuous
 62
     7
370
     9
100
AcDbLine
 10
627.3162793349917
 20
380.5674537806557
 30
0.0
 11
627.3162793349917
 21
379.8173126368569
 31
0.0
  0
LINE
  5
298
330
1F
100
AcDbEntity
  8
D-0
  6
Continuous
 62
     7
370
     9
100
AcDbLine
 10
627.3162793349917
 20
379.8173126368569
 30
0.0
 11
626.5663861465151
 21
379.8173126368569
 31
0.0
  0
LINE
  5
299
330
1F
100
AcDbEntity
  8
D-0
  6
Continuous
 62
     7
370
     9
100
AcDbLine
 10
696.6093205642397
 20
389.8468383936928
 30
0.0
 11
696.6093205642397
 21
390.5969795374916
 31
0.0
  0
LINE
  5
29A
330
1F
100
AcDbEntity
  8
D-0
  6
Continuous
 62
     7
370
     9
100
AcDbLine
 10
696.6093205642397
 20
390.5969795374916
 30
0.0
 11
697.3594617080386
 21
390.5969795374916
 31
0.0
  0
LINE
  5
29B
330
1F
100
AcDbEntity
  8
D-0
  6
Continuous
 62
     7
370
     9
100
AcDbLine
 10
697.3594617080386
 20
390.5969795374916
 30
0.0
 11
697.3594617080386
 21
389.8468383936928
 31
0.0
  0
LINE
  5
29C
330
1F
100
AcDbEntity
  8
D-0
  6
Continuous
 62
     7
370
     9
100
AcDbLine
 10
697.3594617080386
 20
389.8468383936928
 30
0.0
 11
696.6093205642397
 21
389.8468383936928
 31
0.0
  0
LINE
  5
29D
330
1F
100
AcDbEntity
  8
D-0
  6
Continuous
 62
     7
370
     9
100
AcDbLine
 10
675.1072072219546
 20
385.8151992945717
 30
0.0
 11
675.1072072219546
 21
386.5653404383705
 31
0.0
  0
LINE
  5
29E
330
1F
100
AcDbEntity
  8
D-0
  6
Continuous
 62
     7
370
     9
100
AcDbLine
 10
675.1072072219546
 20
386.5653404383705
 30
0.0
 11
675.8573483657534
 21
386.5653404383705
 31
0.0
  0
LINE
  5
29F
330
1F
100
AcDbEntity
  8
D-0
  6
Continuous
 62
     7
370
     9
100
AcDbLine
 10
675.8573483657534
 20
386.5653404383705
 30
0.0
 11
675.8573483657534
 21
385.8151992945717
 31
0.0
  0
LINE
  5
2A0
330
1F
100
AcDbEntity
  8
D-0
  6
Continuous
 62
     7
370
     9
100
AcDbLine
 10
675.8573483657534
 20
385.8151992945717
 30
0.0
 11
675.1072072219546
 21
385.8151992945717
 31
0.0
  0
LINE
  5
2A1
330
1F
100
AcDbEntity
  8
D-0
  6
Continuous
 62
     7
370
     9
100
AcDbLine
 10
638.8223027419741
 20
405.9733566432045
 30
0.0
 11
638.8223027419741
 21
406.7234977870033
 31
0.0
  0
LINE
  5
2A2
330
1F
100
AcDbEntity
  8
D-0
  6
Continuous
 62
     7
370
     9
100
AcDbLine
 10
638.8223027419741
 20
406.7234977870033
 30
0.0
 11
639.5724438857729
 21
406.7234977870033
 31
0.0
  0
LINE
  5
2A3
330
1F
100
AcDbEntity
  8
D-0
  6
Continuous
 62
     7
370
     9
100
AcDbLine
 10
639.5724438857729
 20
406.7234977870033
 30
0.0
 11
639.5724438857729
 21
405.9733566432045
 31
0.0
  0
LINE
  5
2A4
330
1F
100
AcDbEntity
  8
D-0
  6
Continuous
 62
     7
370
     9
100
AcDbLine
 10
639.5724438857729
 20
405.9733566432045
 30
0.0
 11
638.8223027419741
 21
405.9733566432045
 31
0.0
  0
LINE
  5
2A5
330
1F
100
AcDbEntity
  8
D-0
  6
Continuous
 62
     7
370
     9
100
AcDbLine
 10
698.6251401138003
 20
406.6452011256264
 30
0.0
 11
698.6251401138003
 21
407.3953422694252
 31
0.0
  0
LINE
  5
2A6
330
1F
100
AcDbEntity
  8
D-0
  6
Continuous
 62
     7
370
     9
100
AcDbLine
 10
698.6251401138003
 20
407.3953422694252
 30
0.0
 11
699.3752812575991
 21
407.3953422694252
 31
0.0
  0
LINE
  5
2A7
330
1F
100
AcDbEntity
  8
D-0
  6
Continuous
 62
     7
370
     9
100
AcDbLine
 10
699.3752812575991
 20
407.3953422694252
 30
0.0
 11
699.3752812575991
 21
406.6452011256264
 31
0.0
  0
LINE
  5
2A8
330
1F
100
AcDbEntity
  8
D-0
  6
Continuous
 62
     7
370
     9
100
AcDbLine
 10
699.3752812575991
 20
406.6452011256264
 30
0.0
 11
698.6251401138003
 21
406.6452011256264
 31
0.0
  0
LINE
  5
2A9
330
1F
100
AcDbEntity
  8
D-0
  6
Continuous
 62
     7
370
     9
100
AcDbLine
 10
584.1691697178137
 20
405.9746528326028
 30
0.0
 11
584.1691697178137
 21
406.7247939764016
 31
0.0
  0
LINE
  5
2AA
330
1F
100
AcDbEntity
  8
D-0
  6
Continuous
 62
     7
370
     9
100
AcDbLine
 10
584.1691697178137
 20
406.7247939764016
 30
0.0
 11
584.9190629062903
 21
406.7247939764016
 31
0.0
  0
LINE
  5
2AB
330
1F
100
AcDbEntity
  8
D-0
  6
Continuous
 62
     7
370
     9
100
AcDbLine
 10
584.9190629062903
 20
406.7247939764016
 30
0.0
 11
584.9190629062903
 21
405.9746528326028
 31
0.0
  0
LINE
  5
2AC
330
1F
100
AcDbEntity
  8
D-0
  6
Continuous
 62
     7
370
     9
100
AcDbLine
 10
584.9190629062903
 20
405.9746528326028
 30
0.0
 11
584.1691697178137
 21
405.9746528326028
 31
0.0
  0
LINE
  5
2AD
330
1F
100
AcDbEntity
  8
D-0
  6
Continuous
 62
     7
370
     9
100
AcDbLine
 10
665.9831960830277
 20
370.8217698208304
 30
0.0
 11
665.9831960830277
 21
371.5719109646292
 31
0.0
  0
LINE
  5
2AE
330
1F
100
AcDbEntity
  8
D-0
  6
Continuous
 62
     7
370
     9
100
AcDbLine
 10
665.9831960830277
 20
371.5719109646292
 30
0.0
 11
666.7333372268265
 21
371.5719109646292
 31
0.0
  0
LINE
  5
2AF
330
1F
100
AcDbEntity
  8
D-0
  6
Continuous
 62
     7
370
     9
100
AcDbLine
 10
666.7333372268265
 20
371.5719109646292
 30
0.0
 11
666.7333372268265
 21
370.8217698208304
 31
0.0
  0
LINE
  5
2B0
330
1F
100
AcDbEntity
  8
D-0
  6
Continuous
 62
     7
370
     9
100
AcDbLine
 10
666.7333372268265
 20
370.8217698208304
 30
0.0
 11
665.9831960830277
 21
370.8217698208304
 31
0.0
  0
LINE
  5
2B1
330
1F
100
AcDbEntity
  8
D-0
  6
Continuous
 62
     7
370
     9
100
AcDbLine
 10
719.9679807082498
 20
409.9502765065532
 30
0.0
 11
719.9679807082498
 21
410.700417650352
 31
0.0
  0
LINE
  5
2B2
330
1F
100
AcDbEntity
  8
D-0
  6
Continuous
 62
     7
370
     9
100
AcDbLine
 10
719.9679807082498
 20
410.700417650352
 30
0.0
 11
720.7181218520486
 21
410.700417650352
 31
0.0
  0
LINE
  5
2B3
330
1F
100
AcDbEntity
  8
D-0
  6
Continuous
 62
     7
370
     9
100
AcDbLine
 10
720.7181218520486
 20
410.700417650352
 30
0.0
 11
720.7181218520486
 21
409.9502765065532
 31
0.0
  0
LINE
  5
2B4
330
1F
100
AcDbEntity
  8
D-0
  6
Continuous
 62
     7
370
     9
100
AcDbLine
 10
720.7181218520486
 20
409.9502765065532
 30
0.0
 11
719.9679807082498
 21
409.9502765065532
 31
0.0
  0
LINE
  5
2B5
330
1F
100
AcDbEntity
  8
D-0
  6
Continuous
 62
     7
370
     9
100
AcDbLine
 10
718.2940338981655
 20
388.8166980292377
 30
0.0
 11
718.2940338981655
 21
389.5668391730365
 31
0.0
  0
LINE
  5
2B6
330
1F
100
AcDbEntity
  8
D-0
  6
Continuous
 62
     7
370
     9
100
AcDbLine
 10
718.2940338981655
 20
389.5668391730365
 30
0.0
 11
719.0441750419643
 21
389.5668391730365
 31
0.0
  0
LINE
  5
2B7
330
1F
100
AcDbEntity
  8
D-0
  6
Continuous
 62
     7
370
     9
100
AcDbLine
 10
719.0441750419643
 20
389.5668391730365
 30
0.0
 11
719.0441750419643
 21
388.8166980292377
 31
0.0
  0
LINE
  5
2B8
330
1F
100
AcDbEntity
  8
D-0
  6
Continuous
 62
     7
370
     9
100
AcDbLine
 10
719.0441750419643
 20
388.8166980292377
 30
0.0
 11
718.2940338981655
 21
388.8166980292377
 31
0.0
  0
LINE
  5
2B9
330
1F
100
AcDbEntity
  8
D-0
  6
Continuous
 62
     7
370
     9
100
AcDbLine
 10
721.8511708695949
 20
369.3570663620065
 30
0.0
 11
721.8511708695949
 21
370.1072075058053
 31
0.0
  0
LINE
  5
2BA
330
1F
100
AcDbEntity
  8
D-0
  6
Continuous
 62
     7
370
     9
100
AcDbLine
 10
721.8511708695949
 20
370.1072075058053
 30
0.0
 11
722.6013120133937
 21
370.1072075058053
 31
0.0
  0
LINE
  5
2BB
330
1F
100
AcDbEntity
  8
D-0
  6
Continuous
 62
     7
370
     9
100
AcDbLine
 10
722.6013120133937
 20
370.1072075058053
 30
0.0
 11
722.6013120133937
 21
369.3570663620065
 31
0.0
  0
LINE
  5
2BC
330
1F
100
AcDbEntity
  8
D-0
  6
Continuous
 62
     7
370
     9
100
AcDbLine
 10
722.6013120133937
 20
369.3570663620065
 30
0.0
 11
721.8511708695949
 21
369.3570663620065
 31
0.0
  0
LINE
  5
2BD
330
1F
100
AcDbEntity
  8
D-0
  6
Continuous
 62
     7
370
     9
100
AcDbLine
 10
681.0487173737874
 20
401.7897858073918
 30
0.0
 11
681.0487173737874
 21
402.5399269511906
 31
0.0
  0
LINE
  5
2BE
330
1F
100
AcDbEntity
  8
D-0
  6
Continuous
 62
     7
370
     9
100
AcDbLine
 10
681.0487173737874
 20
402.5399269511906
 30
0.0
 11
681.7988585175863
 21
402.5399269511906
 31
0.0
  0
LINE
  5
2BF
330
1F
100
AcDbEntity
  8
D-0
  6
Continuous
 62
     7
370
     9
100
AcDbLine
 10
681.7988585175863
 20
402.5399269511906
 30
0.0
 11
681.7988585175863
 21
401.7897858073918
 31
0.0
  0
LINE
  5
2C0
330
1F
100
AcDbEntity
  8
D-0
  6
Continuous
 62
     7
370
     9
100
AcDbLine
 10
681.7988585175863
 20
401.7897858073918
 30
0.0
 11
681.0487173737874
 21
401.7897858073918
 31
0.0
  0
LINE
  5
2C1
330
1F
100
AcDbEntity
  8
D-0
  6
Continuous
 62
     7
370
     9
100
AcDbLine
 10
538.7632385166135
 20
396.9771887283991
 30
0.0
 11
538.7632385166135
 21
397.7273298721979
 31
0.0
  0
LINE
  5
2C2
330
1F
100
AcDbEntity
  8
D-0
  6
Continuous
 62
     7
370
     9
100
AcDbLine
 10
538.7632385166135
 20
397.7273298721979
 30
0.0
 11
539.5133796604123
 21
397.7273298721979
 31
0.0
  0
LINE
  5
2C3
330
1F
100
AcDbEntity
  8
D-0
  6
Continuous
 62
     7
370
     9
100
AcDbLine
 10
539.5133796604123
 20
397.7273298721979
 30
0.0
 11
539.5133796604123
 21
396.9771887283991
 31
0.0
  0
LINE
  5
2C4
330
1F
100
AcDbEntity
  8
D-0
  6
Continuous
 62
     7
370
     9
100
AcDbLine
 10
539.5133796604123
 20
396.9771887283991
 30
0.0
 11
538.7632385166135
 21
396.9771887283991
 31
0.0
  0
LINE
  5
2C5
330
1F
100
AcDbEntity
  8
D-0
  6
Continuous
 62
     7
370
     9
100
AcDbLine
 10
557.3858967788024
 20
390.0721581368009
 30
0.0
 11
557.3858967788024
 21
390.8222992805997
 31
0.0
  0
LINE
  5
2C6
330
1F
100
AcDbEntity
  8
D-0
  6
Continuous
 62
     7
370
     9
100
AcDbLine
 10
557.3858967788024
 20
390.8222992805997
 30
0.0
 11
558.1360379226012
 21
390.8222992805997
 31
0.0
  0
LINE
  5
2C7
330
1F
100
AcDbEntity
  8
D-0
  6
Continuous
 62
     7
370
     9
100
AcDbLine
 10
558.1360379226012
 20
390.8222992805997
 30
0.0
 11
558.1360379226012
 21
390.0721581368009
 31
0.0
  0
LINE
  5
2C8
330
1F
100
AcDbEntity
  8
D-0
  6
Continuous
 62
     7
370
     9
100
AcDbLine
 10
558.1360379226012
 20
390.0721581368009
 30
0.0
 11
557.3858967788024
 21
390.0721581368009
 31
0.0
  0
LINE
  5
2C9
330
1F
100
AcDbEntity
  8
D-0
  6
Continuous
 62
     7
370
     9
100
AcDbLine
 10
604.8841375149473
 20
362.0335490678872
 30
0.0
 11
604.8841375149473
 21
362.7836902116861
 31
0.0
  0
LINE
  5
2CA
330
1F
100
AcDbEntity
  8
D-0
  6
Continuous
 62
     7
370
     9
100
AcDbLine
 10
604.8841375149473
 20
362.7836902116861
 30
0.0
 11
605.6342786587461
 21
362.7836902116861
 31
0.0
  0
LINE
  5
2CB
330
1F
100
AcDbEntity
  8
D-0
  6
Continuous
 62
     7
370
     9
100
AcDbLine
 10
605.6342786587461
 20
362.7836902116861
 30
0.0
 11
605.6342786587461
 21
362.0335490678872
 31
0.0
  0
LINE
  5
2CC
330
1F
100
AcDbEntity
  8
D-0
  6
Continuous
 62
     7
370
     9
100
AcDbLine
 10
605.6342786587461
 20
362.0335490678872
 30
0.0
 11
604.8841375149473
 21
362.0335490678872
 31
0.0
  0
LINE
  5
2CD
330
1F
100
AcDbEntity
  8
D-0
  6
Continuous
 62
     7
370
     9
100
AcDbLine
 10
617.2294952393196
 20
349.0604612897332
 30
0.0
 11
617.2294952393196
 21
349.810602433532
 31
0.0
  0
LINE
  5
2CE
330
1F
100
AcDbEntity
  8
D-0
  6
Continuous
 62
     7
370
     9
100
AcDbLine
 10
617.2294952393196
 20
349.810602433532
 30
0.0
 11
617.9796363831184
 21
349.810602433532
 31
0.0
  0
LINE
  5
2CF
330
1F
100
AcDbEntity
  8
D-0
  6
Continuous
 62
     7
370
     9
100
AcDbLine
 10
617.9796363831184
 20
349.810602433532
 30
0.0
 11
617.9796363831184
 21
349.0604612897332
 31
0.0
  0
LINE
  5
2D0
330
1F
100
AcDbEntity
  8
D-0
  6
Continuous
 62
     7
370
     9
100
AcDbLine
 10
617.9796363831184
 20
349.0604612897332
 30
0.0
 11
617.2294952393196
 21
349.0604612897332
 31
0.0
  0
LINE
  5
2D1
330
1F
100
AcDbEntity
  8
D-0
  6
Continuous
 62
     7
370
     9
100
AcDbLine
 10
607.1858143788133
 20
335.6688868090579
 30
0.0
 11
607.1858143788133
 21
336.4190279528567
 31
0.0
  0
LINE
  5
2D2
330
1F
100
AcDbEntity
  8
D-0
  6
Continuous
 62
     7
370
     9
100
AcDbLine
 10
607.1858143788133
 20
336.4190279528567
 30
0.0
 11
607.9359555226122
 21
336.4190279528567
 31
0.0
  0
LINE
  5
2D3
330
1F
100
AcDbEntity
  8
D-0
  6
Continuous
 62
     7
370
     9
100
AcDbLine
 10
607.9359555226122
 20
336.4190279528567
 30
0.0
 11
607.9359555226122
 21
335.6688868090579
 31
0.0
  0
LINE
  5
2D4
330
1F
100
AcDbEntity
  8
D-0
  6
Continuous
 62
     7
370
     9
100
AcDbLine
 10
607.9359555226122
 20
335.6688868090579
 30
0.0
 11
607.1858143788133
 21
335.6688868090579
 31
0.0
  0
LINE
  5
2D5
330
1F
100
AcDbEntity
  8
D-0
  6
Continuous
 62
     7
370
     9
100
AcDbLine
 10
615.9740351317564
 20
318.9294187082139
 30
0.0
 11
615.9740351317564
 21
319.6795598520127
 31
0.0
  0
LINE
  5
2D6
330
1F
100
AcDbEntity
  8
D-0
  6
Continuous
 62
     7
370
     9
100
AcDbLine
 10
615.9740351317564
 20
319.6795598520127
 30
0.0
 11
616.7241762755552
 21
319.6795598520127
 31
0.0
  0
LINE
  5
2D7
330
1F
100
AcDbEntity
  8
D-0
  6
Continuous
 62
     7
370
     9
100
AcDbLine
 10
616.7241762755552
 20
319.6795598520127
 30
0.0
 11
616.7241762755552
 21
318.9294187082139
 31
0.0
  0
LINE
  5
2D8
330
1F
100
AcDbEntity
  8
D-0
  6
Continuous
 62
     7
370
     9
100
AcDbLine
 10
616.7241762755552
 20
318.9294187082139
 30
0.0
 11
615.9740351317564
 21
318.9294187082139
 31
0.0
  0
LINE
  5
2D9
330
1F
100
AcDbEntity
  8
D-0
  6
Continuous
 62
     7
370
     9
100
AcDbLine
 10
592.9572664930959
 20
322.9050423821644
 30
0.0
 11
592.9572664930959
 21
323.6551835259632
 31
0.0
  0
LINE
  5
2DA
330
1F
100
AcDbEntity
  8
D-0
  6
Continuous
 62
     7
370
     9
100
AcDbLine
 10
592.9572664930959
 20
323.6551835259632
 30
0.0
 11
593.7074076368947
 21
323.6551835259632
 31
0.0
  0
LINE
  5
2DB
330
1F
100
AcDbEntity
  8
D-0
  6
Continuous
 62
     7
370
     9
100
AcDbLine
 10
593.7074076368947
 20
323.6551835259632
 30
0.0
 11
593.7074076368947
 21
322.9050423821644
 31
0.0
  0
LINE
  5
2DC
330
1F
100
AcDbEntity
  8
D-0
  6
Continuous
 62
     7
370
     9
100
AcDbLine
 10
593.7074076368947
 20
322.9050423821644
 30
0.0
 11
592.9572664930959
 21
322.9050423821644
 31
0.0
  0
LINE
  5
2DD
330
1F
100
AcDbEntity
  8
D-0
  6
Continuous
 62
     7
370
     9
100
AcDbLine
 10
641.0832372830223
 20
375.4251235485624
 30
0.0
 11
641.0832372830223
 21
376.1752646923612
 31
0.0
  0
LINE
  5
2DE
330
1F
100
AcDbEntity
  8
D-0
  6
Continuous
 62
     7
370
     9
100
AcDbLine
 10
641.0832372830223
 20
376.1752646923612
 30
0.0
 11
641.8333784268211
 21
376.1752646923612
 31
0.0
  0
LINE
  5
2DF
330
1F
100
AcDbEntity
  8
D-0
  6
Continuous
 62
     7
370
     9
100
AcDbLine
 10
641.8333784268211
 20
376.1752646923612
 30
0.0
 11
641.8333784268211
 21
375.4251235485624
 31
0.0
  0
LINE
  5
2E0
330
1F
100
AcDbEntity
  8
D-0
  6
Continuous
 62
     7
370
     9
100
AcDbLine
 10
641.8333784268211
 20
375.4251235485624
 30
0.0
 11
641.0832372830223
 21
375.4251235485624
 31
0.0
  0
LINE
  5
2E1
330
1F
100
AcDbEntity
  8
D-0
  6
Continuous
 62
     7
370
     9
100
AcDbLine
 10
685.4428277502589
 20
369.7755530645276
 30
0.0
 11
685.4428277502589
 21
370.5256942083264
 31
0.0
  0
LINE
  5
2E2
330
1F
100
AcDbEntity
  8
D-0
  6
Continuous
 62
     7
370
     9
100
AcDbLine
 10
685.4428277502589
 20
370.5256942083264
 30
0.0
 11
686.1929688940577
 21
370.5256942083264
 31
0.0
  0
LINE
  5
2E3
330
1F
100
AcDbEntity
  8
D-0
  6
Continuous
 62
     7
370
     9
100
AcDbLine
 10
686.1929688940577
 20
370.5256942083264
 30
0.0
 11
686.1929688940577
 21
369.7755530645276
 31
0.0
  0
LINE
  5
2E4
330
1F
100
AcDbEntity
  8
D-0
  6
Continuous
 62
     7
370
     9
100
AcDbLine
 10
686.1929688940577
 20
369.7755530645276
 30
0.0
 11
685.4428277502589
 21
369.7755530645276
 31
0.0
  0
LINE
  5
2E5
330
1F
100
AcDbEntity
  8
D-0
  6
Continuous
 62
     7
370
     9
100
AcDbLine
 10
660.9613556527745
 20
389.8629147855404
 30
0.0
 11
660.9613556527745
 21
390.6130559293392
 31
0.0
  0
LINE
  5
2E6
330
1F
100
AcDbEntity
  8
D-0
  6
Continuous
 62
     7
370
     9
100
AcDbLine
 10
660.9613556527745
 20
390.6130559293392
 30
0.0
 11
661.7114967965733
 21
390.6130559293392
 31
0.0
  0
LINE
  5
2E7
330
1F
100
AcDbEntity
  8
D-0
  6
Continuous
 62
     7
370
     9
100
AcDbLine
 10
661.7114967965733
 20
390.6130559293392
 30
0.0
 11
661.7114967965733
 21
389.8629147855404
 31
0.0
  0
LINE
  5
2E8
330
1F
100
AcDbEntity
  8
D-0
  6
Continuous
 62
     7
370
     9
100
AcDbLine
 10
661.7114967965733
 20
389.8629147855404
 30
0.0
 11
660.9613556527745
 21
389.8629147855404
 31
0.0
  0
LINE
  5
2E9
330
1F
100
AcDbEntity
  8
D-0
  6
Continuous
 62
     7
370
     9
100
AcDbLine
 10
465.0572680350845
 20
336.3489277006547
 30
0.0
 11
465.0572680350845
 21
337.0990688444535
 31
0.0
  0
LINE
  5
2EA
330
1F
100
AcDbEntity
  8
D-0
  6
Continuous
 62
     7
370
     9
100
AcDbLine
 10
465.0572680350845
 20
337.0990688444535
 30
0.0
 11
465.8074091788833
 21
337.0990688444535
 31
0.0
  0
LINE
  5
2EB
330
1F
100
AcDbEntity
  8
D-0
  6
Continuous
 62
     7
370
     9
100
AcDbLine
 10
465.8074091788833
 20
337.0990688444535
 30
0.0
 11
465.8074091788833
 21
336.3489277006547
 31
0.0
  0
LINE
  5
2EC
330
1F
100
AcDbEntity
  8
D-0
  6
Continuous
 62
     7
370
     9
100
AcDbLine
 10
465.8074091788833
 20
336.3489277006547
 30
0.0
 11
465.0572680350845
 21
336.3489277006547
 31
0.0
  0
LINE
  5
2ED
330
1F
100
AcDbEntity
  8
D-0
  6
Continuous
 62
     7
370
     9
100
AcDbLine
 10
508.8414392863547
 20
339.6445104830084
 30
0.0
 11
508.8414392863547
 21
340.3946516268072
 31
0.0
  0
LINE
  5
2EE
330
1F
100
AcDbEntity
  8
D-0
  6
Continuous
 62
     7
370
     9
100
AcDbLine
 10
508.8414392863547
 20
340.3946516268072
 30
0.0
 11
509.5915804301535
 21
340.3946516268072
 31
0.0
  0
LINE
  5
2EF
330
1F
100
AcDbEntity
  8
D-0
  6
Continuous
 62
     7
370
     9
100
AcDbLine
 10
509.5915804301535
 20
340.3946516268072
 30
0.0
 11
509.5915804301535
 21
339.6445104830084
 31
0.0
  0
LINE
  5
2F0
330
1F
100
AcDbEntity
  8
D-0
  6
Continuous
 62
     7
370
     9
100
AcDbLine
 10
509.5915804301535
 20
339.6445104830084
 30
0.0
 11
508.8414392863547
 21
339.6445104830084
 31
0.0
  0
LINE
  5
2F1
330
1F
100
AcDbEntity
  8
D-0
  6
Continuous
 62
     7
370
     9
100
AcDbLine
 10
502.7210712619836
 20
322.2250014905676
 30
0.0
 11
502.7210712619836
 21
322.9751426343664
 31
0.0
  0
LINE
  5
2F2
330
1F
100
AcDbEntity
  8
D-0
  6
Continuous
 62
     7
370
     9
100
AcDbLine
 10
502.7210712619836
 20
322.9751426343664
 30
0.0
 11
503.4712124057825
 21
322.9751426343664
 31
0.0
  0
LINE
  5
2F3
330
1F
100
AcDbEntity
  8
D-0
  6
Continuous
 62
     7
370
     9
100
AcDbLine
 10
503.4712124057825
 20
322.9751426343664
 30
0.0
 11
503.4712124057825
 21
322.2250014905676
 31
0.0
  0
LINE
  5
2F4
330
1F
100
AcDbEntity
  8
D-0
  6
Continuous
 62
     7
370
     9
100
AcDbLine
 10
503.4712124057825
 20
322.2250014905676
 30
0.0
 11
502.7210712619836
 21
322.2250014905676
 31
0.0
  0
LINE
  5
2F5
330
1F
100
AcDbEntity
  8
D-0
  6
Continuous
 62
     7
370
     9
100
AcDbLine
 10
481.0643844065166
 20
299.1559220140919
 30
0.0
 11
481.0643844065166
 21
299.9060631578907
 31
0.0
  0
LINE
  5
2F6
330
1F
100
AcDbEntity
  8
D-0
  6
Continuous
 62
     7
370
     9
100
AcDbLine
 10
481.0643844065166
 20
299.9060631578907
 30
0.0
 11
481.8145255503154
 21
299.9060631578907
 31
0.0
  0
LINE
  5
2F7
330
1F
100
AcDbEntity
  8
D-0
  6
Continuous
 62
     7
370
     9
100
AcDbLine
 10
481.8145255503154
 20
299.9060631578907
 30
0.0
 11
481.8145255503154
 21
299.1559220140919
 31
0.0
  0
LINE
  5
2F8
330
1F
100
AcDbEntity
  8
D-0
  6
Continuous
 62
     7
370
     9
100
AcDbLine
 10
481.8145255503154
 20
299.1559220140919
 30
0.0
 11
481.0643844065166
 21
299.1559220140919
 31
0.0
  0
LINE
  5
2F9
330
1F
100
AcDbEntity
  8
D-0
  6
Continuous
 62
     7
370
     9
100
AcDbLine
 10
457.5245073897048
 20
281.2656154813149
 30
0.0
 11
457.5245073897048
 21
282.0157566251137
 31
0.0
  0
LINE
  5
2FA
330
1F
100
AcDbEntity
  8
D-0
  6
Continuous
 62
     7
370
     9
100
AcDbLine
 10
457.5245073897048
 20
282.0157566251137
 30
0.0
 11
458.2746485335036
 21
282.0157566251137
 31
0.0
  0
LINE
  5
2FB
330
1F
100
AcDbEntity
  8
D-0
  6
Continuous
 62
     7
370
     9
100
AcDbLine
 10
458.2746485335036
 20
282.0157566251137
 30
0.0
 11
458.2746485335036
 21
281.2656154813149
 31
0.0
  0
LINE
  5
2FC
330
1F
100
AcDbEntity
  8
D-0
  6
Continuous
 62
     7
370
     9
100
AcDbLine
 10
458.2746485335036
 20
281.2656154813149
 30
0.0
 11
457.5245073897048
 21
281.2656154813149
 31
0.0
  0
LINE
  5
2FD
330
1F
100
AcDbEntity
  8
D-0
  6
Continuous
 62
     7
370
     9
100
AcDbLine
 10
488.1263475115603
 20
261.9629163275292
 30
0.0
 11
488.1263475115603
 21
262.713057471328
 31
0.0
  0
LINE
  5
2FE
330
1F
100
AcDbEntity
  8
D-0
  6
Continuous
 62
     7
370
     9
100
AcDbLine
 10
488.1263475115603
 20
262.713057471328
 30
0.0
 11
488.8764886553591
 21
262.713057471328
 31
0.0
  0
LINE
  5
2FF
330
1F
100
AcDbEntity
  8
D-0
  6
Continuous
 62
     7
370
     9
100
AcDbLine
 10
488.8764886553591
 20
262.713057471328
 30
0.0
 11
488.8764886553591
 21
261.9629163275292
 31
0.0
  0
LINE
  5
300
330
1F
100
AcDbEntity
  8
D-0
  6
Continuous
 62
     7
370
     9
100
AcDbLine
 10
488.8764886553591
 20
261.9629163275292
 30
0.0
 11
488.1263475115603
 21
261.9629163275292
 31
0.0
  0
LINE
  5
301
330
1F
100
AcDbEntity
  8
D-0
  6
Continuous
 62
     7
370
     9
100
AcDbLine
 10
466.9404581964295
 20
233.7150639073549
 30
0.0
 11
466.9404581964295
 21
234.4652050511537
 31
0.0
  0
LINE
  5
302
330
1F
100
AcDbEntity
  8
D-0
  6
Continuous
 62
     7
370
     9
100
AcDbLine
 10
466.9404581964295
 20
234.4652050511537
 30
0.0
 11
467.6905993402283
 21
234.4652050511537
 31
0.0
  0
LINE
  5
303
330
1F
100
AcDbEntity
  8
D-0
  6
Continuous
 62
     7
370
     9
100
AcDbLine
 10
467.6905993402283
 20
234.4652050511537
 30
0.0
 11
467.6905993402283
 21
233.7150639073549
 31
0.0
  0
LINE
  5
304
330
1F
100
AcDbEntity
  8
D-0
  6
Continuous
 62
     7
370
     9
100
AcDbLine
 10
467.6905993402283
 20
233.7150639073549
 30
0.0
 11
466.9404581964295
 21
233.7150639073549
 31
0.0
  0
LINE
  5
305
330
1F
100
AcDbEntity
  8
D-0
  6
Continuous
 62
     7
370
     9
100
AcDbLine
 10
491.4219302939139
 20
214.4123647535691
 30
0.0
 11
491.4219302939139
 21
215.162505897368
 31
0.0
  0
LINE
  5
306
330
1F
100
AcDbEntity
  8
D-0
  6
Continuous
 62
     7
370
     9
100
AcDbLine
 10
491.4219302939139
 20
215.162505897368
 30
0.0
 11
492.1720714377128
 21
215.162505897368
 31
0.0
  0
LINE
  5
307
330
1F
100
AcDbEntity
  8
D-0
  6
Continuous
 62
     7
370
     9
100
AcDbLine
 10
492.1720714377128
 20
215.162505897368
 30
0.0
 11
492.1720714377128
 21
214.4123647535691
 31
0.0
  0
LINE
  5
308
330
1F
100
AcDbEntity
  8
D-0
  6
Continuous
 62
     7
370
     9
100
AcDbLine
 10
492.1720714377128
 20
214.4123647535691
 30
0.0
 11
491.4219302939139
 21
214.4123647535691
 31
0.0
  0
LINE
  5
309
330
1F
100
AcDbEntity
  8
D-0
  6
Continuous
 62
     7
370
     9
100
AcDbLine
 10
459.1151842144097
 20
193.4957091669723
 30
0.0
 11
459.1151842144097
 21
194.2458503107711
 31
0.0
  0
LINE
  5
30A
330
1F
100
AcDbEntity
  8
D-0
  6
Continuous
 62
     7
370
     9
100
AcDbLine
 10
459.1151842144097
 20
194.2458503107711
 30
0.0
 11
459.8653253582086
 21
194.2458503107711
 31
0.0
  0
LINE
  5
30B
330
1F
100
AcDbEntity
  8
D-0
  6
Continuous
 62
     7
370
     9
100
AcDbLine
 10
459.8653253582086
 20
194.2458503107711
 30
0.0
 11
459.8653253582086
 21
193.4957091669723
 31
0.0
  0
LINE
  5
30C
330
1F
100
AcDbEntity
  8
D-0
  6
Continuous
 62
     7
370
     9
100
AcDbLine
 10
459.8653253582086
 20
193.4957091669723
 30
0.0
 11
459.1151842144097
 21
193.4957091669723
 31
0.0
  0
LINE
  5
30D
330
1F
100
AcDbEntity
  8
D-0
  6
Continuous
 62
     7
370
     9
100
AcDbLine
 10
497.4137543952631
 20
177.3252017572785
 30
0.0
 11
497.4137543952631
 21
178.0753429010774
 31
0.0
  0
LINE
  5
30E
330
1F
100
AcDbEntity
  8
D-0
  6
Continuous
 62
     7
370
     9
100
AcDbLine
 10
497.4137543952631
 20
178.0753429010774
 30
0.0
 11
498.1638955390619
 21
178.0753429010774
 31
0.0
  0
LINE
  5
30F
330
1F
100
AcDbEntity
  8
D-0
  6
Continuous
 62
     7
370
     9
100
AcDbLine
 10
498.1638955390619
 20
178.0753429010774
 30
0.0
 11
498.1638955390619
 21
177.3252017572785
 31
0.0
  0
LINE
  5
310
330
1F
100
AcDbEntity
  8
D-0
  6
Continuous
 62
     7
370
     9
100
AcDbLine
 10
498.1638955390619
 20
177.3252017572785
 30
0.0
 11
497.4137543952631
 21
177.3252017572785
 31
0.0
  0
LINE
  5
311
330
1F
100
AcDbEntity
  8
D-0
  6
Continuous
 62
     7
370
     9
100
AcDbLine
 10
475.7112312927796
 20
178.601820763307
 30
0.0
 11
475.7112312927796
 21
179.3519619071058
 31
0.0
  0
LINE
  5
312
330
1F
100
AcDbEntity
  8
D-0
  6
Continuous
 62
     7
370
     9
100
AcDbLine
 10
475.7112312927796
 20
179.3519619071058
 30
0.0
 11
476.4613724365785
 21
179.3519619071058
 31
0.0
  0
LINE
  5
313
330
1F
100
AcDbEntity
  8
D-0
  6
Continuous
 62
     7
370
     9
100
AcDbLine
 10
476.4613724365785
 20
179.3519619071058
 30
0.0
 11
476.4613724365785
 21
178.601820763307
 31
0.0
  0
LINE
  5
314
330
1F
100
AcDbEntity
  8
D-0
  6
Continuous
 62
     7
370
     9
100
AcDbLine
 10
476.4613724365785
 20
178.601820763307
 30
0.0
 11
475.7112312927796
 21
178.601820763307
 31
0.0
  0
LINE
  5
315
330
1F
100
AcDbEntity
  8
D-0
  6
Continuous
 62
     7
370
     9
100
AcDbLine
 10
486.7752626783593
 20
237.3262950406158
 30
0.0
 11
486.7752626783593
 21
238.0764361844146
 31
0.0
  0
LINE
  5
316
330
1F
100
AcDbEntity
  8
D-0
  6
Continuous
 62
     7
370
     9
100
AcDbLine
 10
486.7752626783593
 20
238.0764361844146
 30
0.0
 11
487.5254038221581
 21
238.0764361844146
 31
0.0
  0
LINE
  5
317
330
1F
100
AcDbEntity
  8
D-0
  6
Continuous
 62
     7
370
     9
100
AcDbLine
 10
487.5254038221581
 20
238.0764361844146
 30
0.0
 11
487.5254038221581
 21
237.3262950406158
 31
0.0
  0
LINE
  5
318
330
1F
100
AcDbEntity
  8
D-0
  6
Continuous
 62
     7
370
     9
100
AcDbLine
 10
487.5254038221581
 20
237.3262950406158
 30
0.0
 11
486.7752626783593
 21
237.3262950406158
 31
0.0
  0
LINE
  5
319
330
1F
100
AcDbEntity
  8
D-0
  6
Continuous
 62
     7
370
     9
100
AcDbLine
 10
458.2641048770574
 20
260.305437149128
 30
0.0
 11
458.2641048770574
 21
261.0555782929268
 31
0.0
  0
LINE
  5
31A
330
1F
100
AcDbEntity
  8
D-0
  6
Continuous
 62
     7
370
     9
100
AcDbLine
 10
458.2641048770574
 20
261.0555782929268
 30
0.0
 11
459.0142460208563
 21
261.0555782929268
 31
0.0
  0
LINE
  5
31B
330
1F
100
AcDbEntity
  8
D-0
  6
Continuous
 62
     7
370
     9
100
AcDbLine
 10
459.0142460208563
 20
261.0555782929268
 30
0.0
 11
459.0142460208563
 21
260.305437149128
 31
0.0
  0
LINE
  5
31C
330
1F
100
AcDbEntity
  8
D-0
  6
Continuous
 62
     7
370
     9
100
AcDbLine
 10
459.0142460208563
 20
260.305437149128
 30
0.0
 11
458.2641048770574
 21
260.305437149128
 31
0.0
  0
LINE
  5
31D
330
1F
100
AcDbEntity
  8
D-0
  6
Continuous
 62
     7
370
     9
100
AcDbLine
 10
459.966263551762
 20
315.6255940770276
 30
0.0
 11
459.966263551762
 21
316.3757352208264
 31
0.0
  0
LINE
  5
31E
330
1F
100
AcDbEntity
  8
D-0
  6
Continuous
 62
     7
370
     9
100
AcDbLine
 10
459.966263551762
 20
316.3757352208264
 30
0.0
 11
460.7164046955609
 21
316.3757352208264
 31
0.0
  0
LINE
  5
31F
330
1F
100
AcDbEntity
  8
D-0
  6
Continuous
 62
     7
370
     9
100
AcDbLine
 10
460.7164046955609
 20
316.3757352208264
 30
0.0
 11
460.7164046955609
 21
315.6255940770276
 31
0.0
  0
LINE
  5
320
330
1F
100
AcDbEntity
  8
D-0
  6
Continuous
 62
     7
370
     9
100
AcDbLine
 10
460.7164046955609
 20
315.6255940770276
 30
0.0
 11
459.966263551762
 21
315.6255940770276
 31
0.0
  0
LINE
  5
321
330
1F
100
AcDbEntity
  8
D-0
  6
Continuous
 62
     7
370
     9
100
AcDbLine
 10
486.7752626783593
 20
339.8813551915682
 30
0.0
 11
486.7752626783593
 21
340.631496335367
 31
0.0
  0
LINE
  5
322
330
1F
100
AcDbEntity
  8
D-0
  6
Continuous
 62
     7
370
     9
100
AcDbLine
 10
486.7752626783593
 20
340.631496335367
 30
0.0
 11
487.5254038221581
 21
340.631496335367
 31
0.0
  0
LINE
  5
323
330
1F
100
AcDbEntity
  8
D-0
  6
Continuous
 62
     7
370
     9
100
AcDbLine
 10
487.5254038221581
 20
340.631496335367
 30
0.0
 11
487.5254038221581
 21
339.8813551915682
 31
0.0
  0
LINE
  5
324
330
1F
100
AcDbEntity
  8
D-0
  6
Continuous
 62
     7
370
     9
100
AcDbLine
 10
487.5254038221581
 20
339.8813551915682
 30
0.0
 11
486.7752626783593
 21
339.8813551915682
 31
0.0
  0
LINE
  5
325
330
1F
100
AcDbEntity
  8
D-0
  6
Continuous
 62
     7
370
     9
100
AcDbLine
 10
498.6903734012915
 20
282.4334999202878
 30
0.0
 11
498.6903734012915
 21
283.1836410640867
 31
0.0
  0
LINE
  5
326
330
1F
100
AcDbEntity
  8
D-0
  6
Continuous
 62
     7
370
     9
100
AcDbLine
 10
498.6903734012915
 20
283.1836410640867
 30
0.0
 11
499.4405145450904
 21
283.1836410640867
 31
0.0
  0
LINE
  5
327
330
1F
100
AcDbEntity
  8
D-0
  6
Continuous
 62
     7
370
     9
100
AcDbLine
 10
499.4405145450904
 20
283.1836410640867
 30
0.0
 11
499.4405145450904
 21
282.4334999202878
 31
0.0
  0
LINE
  5
328
330
1F
100
AcDbEntity
  8
D-0
  6
Continuous
 62
     7
370
     9
100
AcDbLine
 10
499.4405145450904
 20
282.4334999202878
 30
0.0
 11
498.6903734012915
 21
282.4334999202878
 31
0.0
  0
LINE
  5
329
330
1F
100
AcDbEntity
  8
D-0
  6
Continuous
 62
     7
370
     9
100
AcDbLine
 10
542.5209592749352
 20
329.6684031433406
 30
0.0
 11
542.5209592749352
 21
330.4185442871394
 31
0.0
  0
LINE
  5
32A
330
1F
100
AcDbEntity
  8
D-0
  6
Continuous
 62
     7
370
     9
100
AcDbLine
 10
542.5209592749352
 20
330.4185442871394
 30
0.0
 11
543.271100418734
 21
330.4185442871394
 31
0.0
  0
LINE
  5
32B
330
1F
100
AcDbEntity
  8
D-0
  6
Continuous
 62
     7
370
     9
100
AcDbLine
 10
543.271100418734
 20
330.4185442871394
 30
0.0
 11
543.271100418734
 21
329.6684031433406
 31
0.0
  0
LINE
  5
32C
330
1F
100
AcDbEntity
  8
D-0
  6
Continuous
 62
     7
370
     9
100
AcDbLine
 10
543.271100418734
 20
329.6684031433406
 30
0.0
 11
542.5209592749352
 21
329.6684031433406
 31
0.0
  0
LINE
  5
32D
330
1F
100
AcDbEntity
  8
D-0
  6
Continuous
 62
     7
370
     9
100
AcDbLine
 10
555.7126890038958
 20
321.5831494384937
 30
0.0
 11
555.7126890038958
 21
322.3332905822925
 31
0.0
  0
LINE
  5
32E
330
1F
100
AcDbEntity
  8
D-0
  6
Continuous
 62
     7
370
     9
100
AcDbLine
 10
555.7126890038958
 20
322.3332905822925
 30
0.0
 11
556.4628301476946
 21
322.3332905822925
 31
0.0
  0
LINE
  5
32F
330
1F
100
AcDbEntity
  8
D-0
  6
Continuous
 62
     7
370
     9
100
AcDbLine
 10
556.4628301476946
 20
322.3332905822925
 30
0.0
 11
556.4628301476946
 21
321.5831494384937
 31
0.0
  0
LINE
  5
330
330
1F
100
AcDbEntity
  8
D-0
  6
Continuous
 62
     7
370
     9
100
AcDbLine
 10
556.4628301476946
 20
321.5831494384937
 30
0.0
 11
555.7126890038958
 21
321.5831494384937
 31
0.0
  0
LINE
  5
331
330
1F
100
AcDbEntity
  8
D-0
  6
Continuous
 62
     7
370
     9
100
AcDbLine
 10
558.2659270159527
 20
335.6259585048067
 30
0.0
 11
558.2659270159527
 21
336.3760996486055
 31
0.0
  0
LINE
  5
332
330
1F
100
AcDbEntity
  8
D-0
  6
Continuous
 62
     7
370
     9
100
AcDbLine
 10
558.2659270159527
 20
336.3760996486055
 30
0.0
 11
559.0160681597515
 21
336.3760996486055
 31
0.0
  0
LINE
  5
333
330
1F
100
AcDbEntity
  8
D-0
  6
Continuous
 62
     7
370
     9
100
AcDbLine
 10
559.0160681597515
 20
336.3760996486055
 30
0.0
 11
559.0160681597515
 21
335.6259585048067
 31
0.0
  0
LINE
  5
334
330
1F
100
AcDbEntity
  8
D-0
  6
Continuous
 62
     7
370
     9
100
AcDbLine
 10
559.0160681597515
 20
335.6259585048067
 30
0.0
 11
558.2659270159527
 21
335.6259585048067
 31
0.0
  0
LINE
  5
335
330
1F
100
AcDbEntity
  8
D-0
  6
Continuous
 62
     7
370
     9
100
AcDbLine
 10
477.8389296361604
 20
322.0086891071699
 30
0.0
 11
477.8389296361604
 21
322.7588302509687
 31
0.0
  0
LINE
  5
336
330
1F
100
AcDbEntity
  8
D-0
  6
Continuous
 62
     7
370
     9
100
AcDbLine
 10
477.8389296361604
 20
322.7588302509687
 30
0.0
 11
478.5890707799592
 21
322.7588302509687
 31
0.0
  0
LINE
  5
337
330
1F
100
AcDbEntity
  8
D-0
  6
Continuous
 62
     7
370
     9
100
AcDbLine
 10
478.5890707799592
 20
322.7588302509687
 30
0.0
 11
478.5890707799592
 21
322.0086891071699
 31
0.0
  0
LINE
  5
338
330
1F
100
AcDbEntity
  8
D-0
  6
Continuous
 62
     7
370
     9
100
AcDbLine
 10
478.5890707799592
 20
322.0086891071699
 30
0.0
 11
477.8389296361604
 21
322.0086891071699
 31
0.0
  0
LINE
  5
339
330
1F
100
AcDbEntity
  8
D-0
  6
Continuous
 62
     7
370
     9
100
AcDbLine
 10
476.5623106301317
 20
278.6036429022025
 30
0.0
 11
476.5623106301317
 21
279.3537840460013
 31
0.0
  0
LINE
  5
33A
330
1F
100
AcDbEntity
  8
D-0
  6
Continuous
 62
     7
370
     9
100
AcDbLine
 10
476.5623106301317
 20
279.3537840460013
 30
0.0
 11
477.3124517739305
 21
279.3537840460013
 31
0.0
  0
LINE
  5
33B
330
1F
100
AcDbEntity
  8
D-0
  6
Continuous
 62
     7
370
     9
100
AcDbLine
 10
477.3124517739305
 20
279.3537840460013
 30
0.0
 11
477.3124517739305
 21
278.6036429022025
 31
0.0
  0
LINE
  5
33C
330
1F
100
AcDbEntity
  8
D-0
  6
Continuous
 62
     7
370
     9
100
AcDbLine
 10
477.3124517739305
 20
278.6036429022025
 30
0.0
 11
476.5623106301317
 21
278.6036429022025
 31
0.0
  0
LINE
  5
33D
330
1F
100
AcDbEntity
  8
D-0
  6
Continuous
 62
     7
370
     9
100
AcDbLine
 10
454.4342478589721
 20
213.4960735947514
 30
0.0
 11
454.4342478589721
 21
214.2462147385502
 31
0.0
  0
LINE
  5
33E
330
1F
100
AcDbEntity
  8
D-0
  6
Continuous
 62
     7
370
     9
100
AcDbLine
 10
454.4342478589721
 20
214.2462147385502
 30
0.0
 11
455.1843890027709
 21
214.2462147385502
 31
0.0
  0
LINE
  5
33F
330
1F
100
AcDbEntity
  8
D-0
  6
Continuous
 62
     7
370
     9
100
AcDbLine
 10
455.1843890027709
 20
214.2462147385502
 30
0.0
 11
455.1843890027709
 21
213.4960735947514
 31
0.0
  0
LINE
  5
340
330
1F
100
AcDbEntity
  8
D-0
  6
Continuous
 62
     7
370
     9
100
AcDbLine
 10
455.1843890027709
 20
213.4960735947514
 30
0.0
 11
454.4342478589721
 21
213.4960735947514
 31
0.0
  0
LINE
  5
341
330
1F
100
AcDbEntity
  8
D-0
  6
Continuous
 62
     7
370
     9
100
AcDbLine
 10
480.392167648217
 20
203.7086612151999
 30
0.0
 11
480.392167648217
 21
204.4588023589987
 31
0.0
  0
LINE
  5
342
330
1F
100
AcDbEntity
  8
D-0
  6
Continuous
 62
     7
370
     9
100
AcDbLine
 10
480.392167648217
 20
204.4588023589987
 30
0.0
 11
481.1423087920159
 21
204.4588023589987
 31
0.0
  0
LINE
  5
343
330
1F
100
AcDbEntity
  8
D-0
  6
Continuous
 62
     7
370
     9
100
AcDbLine
 10
481.1423087920159
 20
204.4588023589987
 30
0.0
 11
481.1423087920159
 21
203.7086612151999
 31
0.0
  0
LINE
  5
344
330
1F
100
AcDbEntity
  8
D-0
  6
Continuous
 62
     7
370
     9
100
AcDbLine
 10
481.1423087920159
 20
203.7086612151999
 30
0.0
 11
480.392167648217
 21
203.7086612151999
 31
0.0
  0
LINE
  5
345
330
1F
100
AcDbEntity
  8
D-0
  6
Continuous
 62
     7
370
     9
100
AcDbLine
 10
499.96699240732
 20
249.6669454322242
 30
0.0
 11
499.96699240732
 21
250.417086576023
 31
0.0
  0
LINE
  5
346
330
1F
100
AcDbEntity
  8
D-0
  6
Continuous
 62
     7
370
     9
100
AcDbLine
 10
499.96699240732
 20
250.417086576023
 30
0.0
 11
500.7171335511188
 21
250.417086576023
 31
0.0
  0
LINE
  5
347
330
1F
100
AcDbEntity
  8
D-0
  6
Continuous
 62
     7
370
     9
100
AcDbLine
 10
500.7171335511188
 20
250.417086576023
 30
0.0
 11
500.7171335511188
 21
249.6669454322242
 31
0.0
  0
LINE
  5
348
330
1F
100
AcDbEntity
  8
D-0
  6
Continuous
 62
     7
370
     9
100
AcDbLine
 10
500.7171335511188
 20
249.6669454322242
 30
0.0
 11
499.96699240732
 21
249.6669454322242
 31
0.0
  0
LINE
  5
349
330
1F
100
AcDbEntity
  8
D-0
  6
Continuous
 62
     7
370
     9
100
AcDbLine
 10
527.6270708712698
 20
343.2856725409774
 30
0.0
 11
527.6270708712698
 21
344.0358136847763
 31
0.0
  0
LINE
  5
34A
330
1F
100
AcDbEntity
  8
D-0
  6
Continuous
 62
     7
370
     9
100
AcDbLine
 10
527.6270708712698
 20
344.0358136847763
 30
0.0
 11
528.3772120150686
 21
344.0358136847763
 31
0.0
  0
LINE
  5
34B
330
1F
100
AcDbEntity
  8
D-0
  6
Continuous
 62
     7
370
     9
100
AcDbLine
 10
528.3772120150686
 20
344.0358136847763
 30
0.0
 11
528.3772120150686
 21
343.2856725409774
 31
0.0
  0
LINE
  5
34C
330
1F
100
AcDbEntity
  8
D-0
  6
Continuous
 62
     7
370
     9
100
AcDbLine
 10
528.3772120150686
 20
343.2856725409774
 30
0.0
 11
527.6270708712698
 21
343.2856725409774
 31
0.0
  0
LINE
  5
34D
330
1F
100
AcDbEntity
  8
D-0
  6
Continuous
 62
     7
370
     9
100
AcDbLine
 10
521.6695155098037
 20
320.3065304324653
 30
0.0
 11
521.6695155098037
 21
321.0566715762641
 31
0.0
  0
LINE
  5
34E
330
1F
100
AcDbEntity
  8
D-0
  6
Continuous
 62
     7
370
     9
100
AcDbLine
 10
521.6695155098037
 20
321.0566715762641
 30
0.0
 11
522.4196566536025
 21
321.0566715762641
 31
0.0
  0
LINE
  5
34F
330
1F
100
AcDbEntity
  8
D-0
  6
Continuous
 62
     7
370
     9
100
AcDbLine
 10
522.4196566536025
 20
321.0566715762641
 30
0.0
 11
522.4196566536025
 21
320.3065304324653
 31
0.0
  0
LINE
  5
350
330
1F
100
AcDbEntity
  8
D-0
  6
Continuous
 62
     7
370
     9
100
AcDbLine
 10
522.4196566536025
 20
320.3065304324653
 30
0.0
 11
521.6695155098037
 21
320.3065304324653
 31
0.0
  0
LINE
  5
351
330
1F
100
AcDbEntity
  8
D-0
  6
Continuous
 62
     7
370
     9
100
AcDbLine
 10
458.2641048770574
 20
299.88062633601
 30
0.0
 11
458.2641048770574
 21
300.6307674798088
 31
0.0
  0
LINE
  5
352
330
1F
100
AcDbEntity
  8
D-0
  6
Continuous
 62
     7
370
     9
100
AcDbLine
 10
458.2641048770574
 20
300.6307674798088
 30
0.0
 11
459.0142460208563
 21
300.6307674798088
 31
0.0
  0
LINE
  5
353
330
1F
100
AcDbEntity
  8
D-0
  6
Continuous
 62
     7
370
     9
100
AcDbLine
 10
459.0142460208563
 20
300.6307674798088
 30
0.0
 11
459.0142460208563
 21
299.88062633601
 31
0.0
  0
LINE
  5
354
330
1F
100
AcDbEntity
  8
D-0
  6
Continuous
 62
     7
370
     9
100
AcDbLine
 10
459.0142460208563
 20
299.88062633601
 30
0.0
 11
458.2641048770574
 21
299.88062633601
 31
0.0
  0
LINE
  5
355
330
1F
100
AcDbEntity
  8
D-0
  6
Continuous
 62
     7
370
     9
100
AcDbLine
 10
450.6043908408867
 20
344.987831215682
 30
0.0
 11
450.6043908408867
 21
345.7379723594809
 31
0.0
  0
LINE
  5
356
330
1F
100
AcDbEntity
  8
D-0
  6
Continuous
 62
     7
370
     9
100
AcDbLine
 10
450.6043908408867
 20
345.7379723594809
 30
0.0
 11
451.3545319846855
 21
345.7379723594809
 31
0.0
  0
LINE
  5
357
330
1F
100
AcDbEntity
  8
D-0
  6
Continuous
 62
     7
370
     9
100
AcDbLine
 10
451.3545319846855
 20
345.7379723594809
 30
0.0
 11
451.3545319846855
 21
344.987831215682
 31
0.0
  0
LINE
  5
358
330
1F
100
AcDbEntity
  8
D-0
  6
Continuous
 62
     7
370
     9
100
AcDbLine
 10
451.3545319846855
 20
344.987831215682
 30
0.0
 11
450.6043908408867
 21
344.987831215682
 31
0.0
  0
LINE
  5
359
330
1F
100
AcDbEntity
  8
D-0
  6
Continuous
 62
     7
370
     9
100
AcDbLine
 10
455.5191387648935
 20
168.8069588256736
 30
0.0
 11
455.5191387648935
 21
169.5570999694725
 31
0.0
  0
LINE
  5
35A
330
1F
100
AcDbEntity
  8
D-0
  6
Continuous
 62
     7
370
     9
100
AcDbLine
 10
455.5191387648935
 20
169.5570999694725
 30
0.0
 11
456.2692799086923
 21
169.5570999694725
 31
0.0
  0
LINE
  5
35B
330
1F
100
AcDbEntity
  8
D-0
  6
Continuous
 62
     7
370
     9
100
AcDbLine
 10
456.2692799086923
 20
169.5570999694725
 30
0.0
 11
456.2692799086923
 21
168.8069588256736
 31
0.0
  0
LINE
  5
35C
330
1F
100
AcDbEntity
  8
D-0
  6
Continuous
 62
     7
370
     9
100
AcDbLine
 10
456.2692799086923
 20
168.8069588256736
 30
0.0
 11
455.5191387648935
 21
168.8069588256736
 31
0.0
  0
LINE
  5
35D
330
1F
100
AcDbEntity
  8
D-0
  6
Continuous
 62
     7
370
     9
100
AcDbLine
 10
500.8869474834293
 20
193.6398646505563
 30
0.0
 11
500.8869474834293
 21
194.3900057943552
 31
0.0
  0
LINE
  5
35E
330
1F
100
AcDbEntity
  8
D-0
  6
Continuous
 62
     7
370
     9
100
AcDbLine
 10
500.8869474834293
 20
194.3900057943552
 30
0.0
 11
501.6370886272281
 21
194.3900057943552
 31
0.0
  0
LINE
  5
35F
330
1F
100
AcDbEntity
  8
D-0
  6
Continuous
 62
     7
370
     9
100
AcDbLine
 10
501.6370886272281
 20
194.3900057943552
 30
0.0
 11
501.6370886272281
 21
193.6398646505563
 31
0.0
  0
LINE
  5
360
330
1F
100
AcDbEntity
  8
D-0
  6
Continuous
 62
     7
370
     9
100
AcDbLine
 10
501.6370886272281
 20
193.6398646505563
 30
0.0
 11
500.8869474834293
 21
193.6398646505563
 31
0.0
  0
LINE
  5
361
330
1F
100
AcDbEntity
  8
D-0
  6
Continuous
 62
     7
370
     9
100
AcDbLine
 10
579.4550150253499
 20
381.1585368466712
 30
0.0
 11
579.4550150253499
 21
381.90867799047
 31
0.0
  0
LINE
  5
362
330
1F
100
AcDbEntity
  8
D-0
  6
Continuous
 62
     7
370
     9
100
AcDbLine
 10
579.4550150253499
 20
381.90867799047
 30
0.0
 11
580.2051561691487
 21
381.90867799047
 31
0.0
  0
LINE
  5
363
330
1F
100
AcDbEntity
  8
D-0
  6
Continuous
 62
     7
370
     9
100
AcDbLine
 10
580.2051561691487
 20
381.90867799047
 30
0.0
 11
580.2051561691487
 21
381.1585368466712
 31
0.0
  0
LINE
  5
364
330
1F
100
AcDbEntity
  8
D-0
  6
Continuous
 62
     7
370
     9
100
AcDbLine
 10
580.2051561691487
 20
381.1585368466712
 30
0.0
 11
579.4550150253499
 21
381.1585368466712
 31
0.0
  0
LINE
  5
365
330
1F
100
AcDbEntity
  8
D-0
  6
Continuous
 62
     7
370
     9
100
AcDbLine
 10
648.0807749602218
 20
381.6706431913258
 30
0.0
 11
648.0807749602218
 21
382.4207843351246
 31
0.0
  0
LINE
  5
366
330
1F
100
AcDbEntity
  8
D-0
  6
Continuous
 62
     7
370
     9
100
AcDbLine
 10
648.0807749602218
 20
382.4207843351246
 30
0.0
 11
648.8309161040206
 21
382.4207843351246
 31
0.0
  0
LINE
  5
367
330
1F
100
AcDbEntity
  8
D-0
  6
Continuous
 62
     7
370
     9
100
AcDbLine
 10
648.8309161040206
 20
382.4207843351246
 30
0.0
 11
648.8309161040206
 21
381.6706431913258
 31
0.0
  0
LINE
  5
368
330
1F
100
AcDbEntity
  8
D-0
  6
Continuous
 62
     7
370
     9
100
AcDbLine
 10
648.8309161040206
 20
381.6706431913258
 30
0.0
 11
648.0807749602218
 21
381.6706431913258
 31
0.0
  0
LINE
  5
369
330
1F
100
AcDbEntity
  8
D-0
  6
Continuous
 62
     7
370
     9
100
AcDbLine
 10
704.450215046956
 20
374.6973473298179
 30
0.0
 11
704.450215046956
 21
375.4474884736168
 31
0.0
  0
LINE
  5
36A
330
1F
100
AcDbEntity
  8
D-0
  6
Continuous
 62
     7
370
     9
100
AcDbLine
 10
704.450215046956
 20
375.4474884736168
 30
0.0
 11
705.2003561907549
 21
375.4474884736168
 31
0.0
  0
LINE
  5
36B
330
1F
100
AcDbEntity
  8
D-0
  6
Continuous
 62
     7
370
     9
100
AcDbLine
 10
705.2003561907549
 20
375.4474884736168
 30
0.0
 11
705.2003561907549
 21
374.6973473298179
 31
0.0
  0
LINE
  5
36C
330
1F
100
AcDbEntity
  8
D-0
  6
Continuous
 62
     7
370
     9
100
AcDbLine
 10
705.2003561907549
 20
374.6973473298179
 30
0.0
 11
704.450215046956
 21
374.6973473298179
 31
0.0
  0
LINE
  5
36D
330
1F
100
AcDbEntity
  8
D-0
  6
Continuous
 62
     7
370
     9
100
AcDbLine
 10
661.3279309543586
 20
411.6439213261498
 30
0.0
 11
661.3279309543586
 21
412.3940433964623
 31
0.0
  0
LINE
  5
36E
330
1F
100
AcDbEntity
  8
D-0
  6
Continuous
 62
     7
370
     9
100
AcDbLine
 10
661.3279309543586
 20
412.3940433964623
 30
0.0
 11
662.0780720981575
 21
412.3940433964623
 31
0.0
  0
LINE
  5
36F
330
1F
100
AcDbEntity
  8
D-0
  6
Continuous
 62
     7
370
     9
100
AcDbLine
 10
662.0780720981575
 20
412.3940433964623
 30
0.0
 11
662.0780720981575
 21
411.6439213261498
 31
0.0
  0
LINE
  5
370
330
1F
100
AcDbEntity
  8
D-0
  6
Continuous
 62
     7
370
     9
100
AcDbLine
 10
662.0780720981575
 20
411.6439213261498
 30
0.0
 11
661.3279309543586
 21
411.6439213261498
 31
0.0
  0
LINE
  5
371
330
1F
100
AcDbEntity
  8
D-0
  6
Continuous
 62
     7
370
     9
100
AcDbLine
 10
534.7422542309193
 20
407.7786526901293
 30
0.0
 11
534.7422542309193
 21
408.5287938339281
 31
0.0
  0
LINE
  5
372
330
1F
100
AcDbEntity
  8
D-0
  6
Continuous
 62
     7
370
     9
100
AcDbLine
 10
534.7422542309193
 20
408.5287938339281
 30
0.0
 11
535.4923953747182
 21
408.5287938339281
 31
0.0
  0
LINE
  5
373
330
1F
100
AcDbEntity
  8
D-0
  6
Continuous
 62
     7
370
     9
100
AcDbLine
 10
535.4923953747182
 20
408.5287938339281
 30
0.0
 11
535.4923953747182
 21
407.7786526901293
 31
0.0
  0
LINE
  5
374
330
1F
100
AcDbEntity
  8
D-0
  6
Continuous
 62
     7
370
     9
100
AcDbLine
 10
535.4923953747182
 20
407.7786526901293
 30
0.0
 11
534.7422542309193
 21
407.7786526901293
 31
0.0
  0
LINE
  5
375
330
1F
100
AcDbEntity
  8
D-0
  6
Continuous
 62
     7
370
     9
100
AcDbLine
 10
557.2771192197833
 20
407.3234028923745
 30
0.0
 11
557.2771192197833
 21
408.0735440361733
 31
0.0
  0
LINE
  5
376
330
1F
100
AcDbEntity
  8
D-0
  6
Continuous
 62
     7
370
     9
100
AcDbLine
 10
557.2771192197833
 20
408.0735440361733
 30
0.0
 11
558.0272603635822
 21
408.0735440361733
 31
0.0
  0
LINE
  5
377
330
1F
100
AcDbEntity
  8
D-0
  6
Continuous
 62
     7
370
     9
100
AcDbLine
 10
558.0272603635822
 20
408.0735440361733
 30
0.0
 11
558.0272603635822
 21
407.3234028923745
 31
0.0
  0
LINE
  5
378
330
1F
100
AcDbEntity
  8
D-0
  6
Continuous
 62
     7
370
     9
100
AcDbLine
 10
558.0272603635822
 20
407.3234028923745
 30
0.0
 11
557.2771192197833
 21
407.3234028923745
 31
0.0
  0
TEXT
  5
379
330
1F
100
AcDbEntity
  8
D-4
  6
Continuous
 62
     2
370
     9
100
AcDbText
 10
136.8594310614415
 20
134.1153037942276
 30
0.0
 40
15.24
  1
□400
 50
0.0004362235297
 41
1.1
  7
ＭＳ ゴシック
100
AcDbText
  0
TEXT
  5
37A
330
1F
100
AcDbEntity
  8
D-4
  6
Continuous
 62
     7
370
     9
100
AcDbText
 10
584.9815291422169
 20
579.9516489095867
 30
0.0
 40
11.43
  1
蓋フレーム（Ａ６０６３Ｓ－Ｔ５）
 50
0.0000255446035848
 41
1.15625
  7
ＭＳ ゴシック
100
AcDbText
  0
TEXT
  5
37B
330
1F
100
AcDbEntity
  8
D-4
  6
Continuous
 62
     7
370
     9
100
AcDbText
 10
610.9674128184685
 20
541.0446442181167
 30
0.0
 40
11.43
  1
アルミ受枠（Ａ６０６３Ｓ－Ｔ５）
 41
1.15625
  7
ＭＳ ゴシック
100
AcDbText
  0
LINE
  5
37C
330
1F
100
AcDbEntity
  8
D-4
  6
Continuous
 62
     7
370
     9
100
AcDbLine
 10
506.4248162346919
 20
454.5390584132488
 30
0.0
 11
580.5252823325746
 21
576.0345446813242
 31
0.0
  0
LINE
  5
37D
330
1F
100
AcDbEntity
  8
D-4
  6
Continuous
 62
     7
370
     9
100
AcDbLine
 10
863.4215787153223
 20
576.0345446813242
 30
0.0
 11
580.5252823325746
 21
576.0345446813242
 31
0.0
  0
LINE
  5
37E
330
1F
100
AcDbEntity
  8
D-4
  6
Continuous
 62
     7
370
     9
100
AcDbLine
 10
523.516845703125
 20
407.0391491411838
 30
0.0
 11
602.3804037113981
 21
536.3439599315352
 31
0.0
  0
LINE
  5
37F
330
1F
100
AcDbEntity
  8
D-4
  6
Continuous
 62
     7
370
     9
100
AcDbLine
 10
875.7908480090302
 20
536.3439599315352
 30
0.0
 11
602.3804037113981
 21
536.3439599315352
 31
0.0
  0
TEXT
  5
380
330
1F
100
AcDbEntity
  8
D-4
  6
Continuous
 62
     7
370
     9
100
AcDbText
 10
641.5225742972361
 20
504.413941205016
 30
0.0
 40
11.43
  1
アンカー（ＳＰＨＣ）
 50
359.9999589064881
 41
1.15
  7
ＭＳ ゴシック
100
AcDbText
  0
LINE
  5
381
330
1F
100
AcDbEntity
  8
D-4
  6
Continuous
 62
     7
370
     9
100
AcDbLine
 10
554.7275440112967
 20
367.6641738851661
 30
0.0
 11
635.6081041012932
 21
500.2761206549566
 31
0.0
  0
LINE
  5
382
330
1F
100
AcDbEntity
  8
D-4
  6
Continuous
 62
     7
370
     9
100
AcDbLine
 10
816.8024107237118
 20
500.2761206549567
 30
0.0
 11
635.6081041012932
 21
500.2761206549567
 31
0.0
  0
LINE
  5
383
330
1F
100
AcDbEntity
  8
D-4
  6
Continuous
 62
     7
370
     9
100
AcDbLine
 10
135.8813311602619
 20
548.1528214761472
 30
0.0
 11
542.049840978674
 21
548.1528214761472
 31
0.0
  0
LINE
  5
384
330
1F
100
AcDbEntity
  8
D-4
  6
Continuous
 62
     7
370
     9
100
AcDbLine
 10
509.5499811945734
 20
466.6247616702167
 30
0.0
 11
509.5499811945734
 21
549.6528016809614
 31
0.0
  0
LINE
  5
385
330
1F
100
AcDbEntity
  8
D-4
  6
Continuous
 62
     7
370
     9
100
AcDbLine
 10
512.0499894425677
 20
466.6247616702167
 30
0.0
 11
512.0499894425677
 21
549.6528016809614
 31
0.0
  0
LINE
  5
386
330
1F
100
AcDbEntity
  8
D-4
  6
Continuous
 62
     7
370
     9
100
AcDbLine
 10
542.049840978674
 20
466.6247616702167
 30
0.0
 11
542.049840978674
 21
590.6511058933769
 31
0.0
  0
LINE
  5
387
330
1F
100
AcDbEntity
  8
D-4
  6
Continuous
 62
     7
370
     9
100
AcDbLine
 10
135.8813311602619
 20
589.1511256885627
 30
0.0
 11
542.049840978674
 21
589.1511256885627
 31
0.0
  0
TEXT
  5
388
330
1F
100
AcDbEntity
  8
D-4
  6
Continuous
 62
     2
370
     9
100
AcDbText
 10
494.7992438239021
 20
553.4727060042301
 30
0.0
 40
15.24
  1
1
 41
0.9999999999999998
  7
ＭＳ ゴシック
100
AcDbText
  0
TEXT
  5
389
330
1F
100
AcDbEntity
  8
D-4
  6
Continuous
 62
     2
370
     9
100
AcDbText
 10
516.4249770705765
 20
553.4727060042301
 30
0.0
 40
15.24
  1
12
 41
1.0625
  7
ＭＳ ゴシック
100
AcDbText
  0
LWPOLYLINE
  5
38A
330
1F
100
AcDbEntity
  8
D-4
  6
Continuous
 62
     7
370
     9
100
AcDbPolyline
 90
        4
 70
     1
 43
0.5
 10
509.7999811945734
 20
548.1528214761472
 42
0.4142135623731
 10
509.5499811945734
 20
548.4028214761472
 42
0.4142135623731
 10
509.2999811945734
 20
548.1528214761472
 42
0.4142135623731
 10
509.5499811945734
 20
547.9028214761472
 42
0.4142135623731
  0
LWPOLYLINE
  5
38B
330
1F
100
AcDbEntity
  8
D-4
  6
Continuous
 62
     7
370
     9
100
AcDbPolyline
 90
        4
 70
     1
 43
0.5
 10
512.2999894425677
 20
548.1528214761472
 42
0.4142135623731
 10
512.0499894425677
 20
548.4028214761472
 42
0.4142135623731
 10
511.7999894425677
 20
548.1528214761472
 42
0.4142135623731
 10
512.0499894425677
 20
547.9028214761472
 42
0.4142135623731
  0
LWPOLYLINE
  5
38C
330
1F
100
AcDbEntity
  8
D-4
  6
Continuous
 62
     7
370
     9
100
AcDbPolyline
 90
        4
 70
     1
 43
0.5
 10
542.299840978674
 20
548.1528214761472
 42
0.4142135623731
 10
542.049840978674
 20
548.4028214761472
 42
0.4142135623731
 10
541.799840978674
 20
548.1528214761472
 42
0.4142135623731
 10
542.049840978674
 20
547.9028214761472
 42
0.4142135623731
  0
LWPOLYLINE
  5
38D
330
1F
100
AcDbEntity
  8
D-4
  6
Continuous
 62
     7
370
     9
100
AcDbPolyline
 90
        4
 70
     1
 43
0.5
 10
542.299840978674
 20
589.1511256885627
 42
0.4142135623731
 10
542.049840978674
 20
589.4011256885627
 42
0.4142135623731
 10
541.799840978674
 20
589.1511256885627
 42
0.4142135623731
 10
542.049840978674
 20
588.9011256885627
 42
0.4142135623731
  0
TEXT
  5
38E
330
1F
100
AcDbEntity
  8
D-4
  6
Continuous
 62
     2
370
     9
100
AcDbText
 10
136.8594417961752
 20
553.4727060041782
 30
0.0
 40
15.24
  1
□450
 50
0.0002181117649
 41
1.1
  7
ＭＳ ゴシック
100
AcDbText
  0
TEXT
  5
38F
330
1F
100
AcDbEntity
  8
D-4
  6
Continuous
 62
     2
370
     9
100
AcDbText
 10
136.0187757337416
 20
595.080454499796
 30
0.0
 40
15.24
  1
□476
 41
1.1
  7
ＭＳ ゴシック
100
AcDbText
  0
LINE
  5
390
330
1F
100
AcDbEntity
  8
D-4
  6
Continuous
 62
     7
370
     9
100
AcDbLine
 10
509.5499811945734
 20
512.4313574713249
 30
0.0
 11
272.0499399546031
 21
512.4313574713249
 31
0.0
  0
LWPOLYLINE
  5
391
330
1F
100
AcDbEntity
  8
D-4
  6
Continuous
 62
     7
370
     9
100
AcDbPolyline
 90
        4
 70
     1
 43
0.5
 10
509.7999811945734
 20
512.4313574713249
 42
0.4142135623731
 10
509.5499811945734
 20
512.6813574713249
 42
0.4142135623731
 10
509.2999811945734
 20
512.4313574713249
 42
0.4142135623731
 10
509.5499811945734
 20
512.1813574713249
 42
0.4142135623731
  0
LWPOLYLINE
  5
392
330
1F
100
AcDbEntity
  8
D-4
  6
Continuous
 62
     7
370
     9
100
AcDbPolyline
 90
        4
 70
     1
 43
0.5
 10
272.2999399546031
 20
512.4313574713249
 42
0.4142135623731
 10
272.0499399546031
 20
512.6813574713249
 42
0.4142135623731
 10
271.7999399546031
 20
512.4313574713249
 42
0.4142135623731
 10
272.0499399546031
 20
512.1813574713249
 42
0.4142135623731
  0
LINE
  5
393
330
1F
100
AcDbEntity
  8
D-4
  6
Continuous
 62
     7
370
     9
100
AcDbLine
 10
272.0499399546031
 20
513.9313574713249
 30
0.0
 11
272.0499399546031
 21
471.3100017198366
 31
0.0
  0
TEXT
  5
394
330
1F
100
AcDbEntity
  8
D-4
  6
Continuous
 62
     2
370
   211
100
AcDbText
 10
380.1749605745883
 20
518.2513574713249
 30
0.0
 40
15.24
  1
95
 41
1.0625
  7
ＭＳ ゴシック
100
AcDbText
  0
LINE
  5
395
330
1F
100
AcDbEntity
  8
D-B
  6
Continuous
 62
     7
370
     9
100
AcDbLine
 10
320.7999770705765
 20
409.5391573891777
 30
0.0
 11
320.7999770705765
 21
452.0391738851657
 31
0.0
  0
LINE
  5
396
330
1F
100
AcDbEntity
  8
D-4
  6
Continuous
 62
     7
370
     9
100
AcDbLine
 10
128.3813064162796
 20
452.039173885166
 30
0.0
 11
88.41655834301108
 21
452.039173885166
 31
0.0
  0
LINE
  5
397
330
1F
100
AcDbEntity
  8
D-4
  6
Continuous
 62
     7
370
     9
100
AcDbLine
 10
128.3813064162796
 20
401.6021539184219
 30
0.0
 11
88.41655834301108
 21
401.6021539184219
 31
0.0
  0
LINE
  5
398
330
1F
100
AcDbEntity
  8
D-4
  6
Continuous
 62
     7
370
     9
100
AcDbLine
 10
128.3813064162796
 20
409.6021308240385
 30
0.0
 11
88.41655834301108
 21
409.6021308240385
 31
0.0
  0
LINE
  5
399
330
1F
100
AcDbEntity
  8
D-4
  6
Continuous
 62
     7
370
     9
100
AcDbLine
 10
89.91653854782527
 20
409.6021308240385
 30
0.0
 11
89.91653854782527
 21
414.539173885166
 31
0.0
  0
LINE
  5
39A
330
1F
100
AcDbEntity
  8
D-4
  6
Continuous
 62
     7
370
     9
100
AcDbLine
 10
128.3813064162796
 20
414.539173885166
 30
0.0
 11
88.41655834301108
 21
414.539173885166
 31
0.0
  0
LINE
  5
39B
330
1F
100
AcDbEntity
  8
D-4
  6
Continuous
 62
     7
370
     9
100
AcDbLine
 10
89.91653854782527
 20
414.539173885166
 30
0.0
 11
89.91653854782527
 21
452.039173885166
 31
0.0
  0
LINE
  5
39C
330
1F
100
AcDbEntity
  8
D-4
  6
Continuous
 62
     7
370
     9
100
AcDbLine
 10
89.91653854782527
 20
360.695649880204
 30
0.0
 11
89.91653854782527
 21
409.6021308240385
 31
0.0
  0
LINE
  5
39D
330
1F
100
AcDbEntity
  8
D-4
  6
Continuous
 62
     7
370
     9
100
AcDbLine
 10
50.15295905035899
 20
397.2937317266989
 30
0.0
 11
50.15295905035899
 21
380.5974822545705
 31
0.0
  0
LINE
  5
39E
330
1F
100
AcDbEntity
  8
D-4
  6
Continuous
 62
     7
370
     9
100
AcDbLine
 10
88.13150766733543
 20
412.172040821927
 30
0.0
 11
50.15295905035899
 21
397.2937317266989
 31
0.0
  0
TEXT
  5
39F
330
1F
100
AcDbEntity
  8
D-4
  6
Continuous
 62
     2
370
     9
100
AcDbText
 10
84.5964065799198
 20
364.1563349915849
 30
0.0
 40
15.24
  1
3.2
 50
90.0
 41
1.083333333333333
  7
ＭＳ ゴシック
100
AcDbText
  0
TEXT
  5
3A0
330
1F
100
AcDbEntity
  8
D-4
  6
Continuous
 62
     2
370
     9
100
AcDbText
 10
46.34418951910899
 20
384.0581611799558
 30
0.0
 40
15.24
  1
2
 50
90.0
 41
0.9999999999999998
  7
ＭＳ ゴシック
100
AcDbText
  0
TEXT
  5
3A1
330
1F
100
AcDbEntity
  8
D-4
  6
Continuous
 62
     2
370
     9
100
AcDbText
 10
84.5964065799198
 20
424.278749657838
 30
0.0
 40
15.24
  1
15
 50
90.0
 41
1.0625
  7
ＭＳ ゴシック
100
AcDbText
  0
LWPOLYLINE
  5
3A2
330
1F
100
AcDbEntity
  8
D-4
  6
Continuous
 62
     7
370
     9
100
AcDbPolyline
 90
        4
 70
     1
 43
0.5
 10
90.16653854782527
 20
452.039173885166
 42
0.4142135623731
 10
89.91653854782527
 20
452.289173885166
 42
0.4142135623731
 10
89.66653854782527
 20
452.039173885166
 42
0.4142135623731
 10
89.91653854782527
 20
451.789173885166
 42
0.4142135623731
  0
LWPOLYLINE
  5
3A3
330
1F
100
AcDbEntity
  8
D-4
  6
Continuous
 62
     7
370
     9
100
AcDbPolyline
 90
        4
 70
     1
 43
0.5
 10
90.16653854782527
 20
401.6021539184219
 42
0.4142135623731
 10
89.91653854782527
 20
401.8521539184219
 42
0.4142135623731
 10
89.66653854782527
 20
401.6021539184219
 42
0.4142135623731
 10
89.91653854782527
 20
401.3521539184219
 42
0.4142135623731
  0
LWPOLYLINE
  5
3A4
330
1F
100
AcDbEntity
  8
D-4
  6
Continuous
 62
     7
370
     9
100
AcDbPolyline
 90
        4
 70
     1
 43
0.5
 10
90.16653854782527
 20
409.6021308240385
 42
0.4142135623731
 10
89.91653854782527
 20
409.8521308240385
 42
0.4142135623731
 10
89.66653854782527
 20
409.6021308240385
 42
0.4142135623731
 10
89.91653854782527
 20
409.3521308240385
 42
0.4142135623731
  0
LWPOLYLINE
  5
3A5
330
1F
100
AcDbEntity
  8
D-4
  6
Continuous
 62
     7
370
     9
100
AcDbPolyline
 90
        4
 70
     1
 43
0.5
 10
90.16653854782527
 20
414.539173885166
 42
0.4142135623731
 10
89.91653854782527
 20
414.789173885166
 42
0.4142135623731
 10
89.66653854782527
 20
414.539173885166
 42
0.4142135623731
 10
89.91653854782527
 20
414.289173885166
 42
0.4142135623731
  0
LINE
  5
3A6
330
1F
100
AcDbEntity
  8
D-2
  6
Continuous
 62
     3
370
     9
100
AcDbLine
 10
295.8001420304583
 20
358.2896687648113
 30
0.0
 11
248.3002327583932
 21
358.2896687648113
 31
0.0
  0
LINE
  5
3A7
330
1F
100
AcDbEntity
  8
D-2
  6
Continuous
 62
     3
370
     9
100
AcDbLine
 10
295.8001420304583
 20
358.2896687648113
 30
0.0
 11
295.8001420304583
 21
347.0393223490594
 31
0.0
  0
LINE
  5
3A8
330
1F
100
AcDbEntity
  8
D-2
  6
Continuous
 62
     3
370
     9
100
AcDbLine
 10
295.8001420304583
 20
347.0393223490594
 30
0.0
 11
272.0499399546031
 21
347.0393223490594
 31
0.0
  0
LINE
  5
3A9
330
1F
100
AcDbEntity
  8
D-2
  6
Continuous
 62
     3
370
     9
100
AcDbLine
 10
248.3002327583932
 20
358.2896687648113
 30
0.0
 11
248.3002327583932
 21
352.0395862848701
 31
0.0
  0
LINE
  5
3AA
330
1F
100
AcDbEntity
  8
D-2
  6
Continuous
 62
     3
370
     9
100
AcDbLine
 10
295.8001420304583
 20
352.0395862848701
 30
0.0
 11
248.3002327583932
 21
352.0395862848701
 31
0.0
  0
LINE
  5
3AB
330
1F
100
AcDbEntity
  8
D-2
  6
Continuous
 62
     3
370
     9
100
AcDbLine
 10
272.0499399546031
 20
347.0393223490594
 30
0.0
 11
272.0499399546031
 21
352.0395862848701
 31
0.0
  0
LINE
  5
3AC
330
1F
100
AcDbEntity
  8
D-2
  6
Continuous
 62
     3
370
     9
100
AcDbLine
 10
277.0503894702809
 20
332.0392728610948
 30
0.0
 11
267.0502327583932
 21
332.0392728610948
 31
0.0
  0
LINE
  5
3AD
330
1F
100
AcDbEntity
  8
D-2
  6
Continuous
 62
     3
370
     9
100
AcDbLine
 10
264.5497914907096
 20
334.5396522688227
 30
0.0
 11
264.5497914907096
 21
352.0395862848701
 31
0.0
  0
LINE
  5
3AE
330
1F
100
AcDbEntity
  8
D-2
  6
Continuous
 62
     3
370
     9
100
AcDbLine
 10
279.5500884184967
 20
334.5396522688227
 30
0.0
 11
279.5500884184967
 21
347.0393223490594
 31
0.0
  0
LINE
  5
3AF
330
1F
100
AcDbEntity
  8
D-0
  6
Continuous
 62
     4
370
     9
100
AcDbLine
 10
228.3001667744406
 20
458.2891326451954
 30
0.0
 11
204.4195639120566
 21
455.7824435219902
 31
0.0
  0
LINE
  5
3B0
330
1F
100
AcDbEntity
  8
D-0
  6
Continuous
 62
     4
370
     9
100
AcDbLine
 10
315.7997131347657
 20
458.2891326451954
 30
0.0
 11
339.6801304172826
 21
455.7824435219902
 31
0.0
  0
LINE
  5
3B1
330
1F
100
AcDbEntity
  8
D-0
  6
Continuous
 62
     4
370
     9
100
AcDbLine
 10
315.7997131347657
 20
458.2891326451954
 30
0.0
 11
228.3001667744406
 21
458.2891326451954
 31
0.0
  0
LINE
  5
3B2
330
1F
100
AcDbEntity
  8
D-0
  6
Continuous
 62
     4
370
     9
100
AcDbLine
 10
340.7996718947953
 20
454.5391821331597
 30
0.0
 11
340.7996718947953
 21
452.0391738851657
 31
0.0
  0
LINE
  5
3B3
330
1F
100
AcDbEntity
  8
D-0
  6
Continuous
 62
     4
370
     9
100
AcDbLine
 10
203.300208014411
 20
454.5391821331597
 30
0.0
 11
203.300208014411
 21
452.0391738851657
 31
0.0
  0
LINE
  5
3B4
330
1F
100
AcDbEntity
  8
D-0
  6
Continuous
 62
     4
370
     9
100
AcDbLine
 10
249.549927582612
 20
432.0392316211243
 30
0.0
 11
294.5499523265943
 21
432.0392316211243
 31
0.0
  0
LINE
  5
3B5
330
1F
100
AcDbEntity
  8
D-0
  6
Continuous
 62
     4
370
     9
100
AcDbLine
 10
310.8000677985115
 20
432.0392316211243
 30
0.0
 11
295.7995234309017
 21
432.0392316211243
 31
0.0
  0
LINE
  5
3B6
330
1F
100
AcDbEntity
  8
D-0
  6
Continuous
 62
     4
370
     9
100
AcDbLine
 10
233.2998121106948
 20
432.0392316211243
 30
0.0
 11
248.3003564783046
 21
432.0392316211243
 31
0.0
  0
LINE
  5
3B7
330
1F
100
AcDbEntity
  8
D-A
  6
Continuous
 62
     2
370
     9
100
AcDbLine
 10
312.0497626227303
 20
432.0392316211243
 30
0.0
 11
312.0497626227303
 21
425.7892728610948
 31
0.0
  0
LINE
  5
3B8
330
1F
100
AcDbEntity
  8
D-A
  6
Continuous
 62
     2
370
     9
100
AcDbLine
 10
294.5498286066829
 20
432.0392316211243
 30
0.0
 11
294.5498286066829
 21
425.7892728610948
 31
0.0
  0
LINE
  5
3B9
330
1F
100
AcDbEntity
  8
D-A
  6
Continuous
 62
     2
370
     9
100
AcDbLine
 10
307.6747791187184
 20
424.539206877142
 30
0.0
 11
298.9248121106948
 21
424.539206877142
 31
0.0
  0
LINE
  5
3BA
330
1F
100
AcDbEntity
  8
D-A
  6
JWW_CENTER1
 62
     2
370
     9
100
AcDbLine
 10
303.2997956147066
 20
453.761602490529
 30
0.0
 11
303.2997956147066
 21
433.0315890298027
 31
0.0
  0
LINE
  5
3BB
330
1F
100
AcDbEntity
  8
D-A
  6
Continuous
 62
     2
370
     9
100
AcDbLine
 10
312.0497626227303
 20
432.0392316211243
 30
0.0
 11
310.8000677985115
 21
432.0392316211243
 31
0.0
  0
LINE
  5
3BC
330
1F
100
AcDbEntity
  8
D-A
  6
Continuous
 62
     2
370
     9
100
AcDbLine
 10
303.2997956147066
 20
425.7892728610948
 30
0.0
 11
303.2997956147066
 21
432.0392316211243
 31
0.0
  0
LINE
  5
3BD
330
1F
100
AcDbEntity
  8
D-A
  6
Continuous
 62
     2
370
     9
100
AcDbLine
 10
232.0500554265204
 20
432.0392316211243
 30
0.0
 11
232.0500554265204
 21
425.7892728610948
 31
0.0
  0
LINE
  5
3BE
330
1F
100
AcDbEntity
  8
D-A
  6
Continuous
 62
     2
370
     9
100
AcDbLine
 10
249.5500513025233
 20
432.0392316211243
 30
0.0
 11
249.5500513025233
 21
425.7892728610948
 31
0.0
  0
LINE
  5
3BF
330
1F
100
AcDbEntity
  8
D-A
  6
Continuous
 62
     2
370
     9
100
AcDbLine
 10
236.4250389305322
 20
424.539206877142
 30
0.0
 11
245.1751296584671
 21
424.539206877142
 31
0.0
  0
LINE
  5
3C0
330
1F
100
AcDbEntity
  8
D-A
  6
Continuous
 62
     2
370
     9
100
AcDbLine
 10
232.0500554265204
 20
432.0392316211243
 30
0.0
 11
233.2998121106948
 21
432.0392316211243
 31
0.0
  0
LINE
  5
3C1
330
1F
100
AcDbEntity
  8
D-A
  6
Continuous
 62
     2
370
     9
100
AcDbLine
 10
240.8000842944997
 20
425.7892728610948
 30
0.0
 11
240.8000842944997
 21
432.0392316211243
 31
0.0
  0
LINE
  5
3C2
330
1F
100
AcDbEntity
  8
D-2
  6
Continuous
 62
     3
370
     9
100
AcDbLine
 10
279.5500884184967
 20
358.2896687648113
 30
0.0
 11
279.5500884184967
 21
432.0392316211243
 31
0.0
  0
LINE
  5
3C3
330
1F
100
AcDbEntity
  8
D-2
  6
Continuous
 62
     3
370
     9
100
AcDbLine
 10
264.5497914907096
 20
358.2896687648113
 30
0.0
 11
264.5497914907096
 21
432.0392316211243
 31
0.0
  0
LINE
  5
3C4
330
1F
100
AcDbEntity
  8
D-A
  6
Continuous
 62
     2
370
     9
100
AcDbLine
 10
305.7991234031884
 20
401.5391804835613
 30
0.0
 11
305.7991234031884
 21
399.0394815353451
 31
0.0
  0
LINE
  5
3C5
330
1F
100
AcDbEntity
  8
D-A
  6
Continuous
 62
     2
370
     9
100
AcDbLine
 10
307.0491893871412
 20
401.5391804835613
 30
0.0
 11
307.0491893871412
 21
399.0394815353451
 31
0.0
  0
LINE
  5
3C6
330
1F
100
AcDbEntity
  8
D-A
  6
Continuous
 62
     2
370
     9
100
AcDbLine
 10
312.7989485457138
 20
401.5388093238271
 30
0.0
 11
312.7989485457138
 21
399.039172235567
 31
0.0
  0
LINE
  5
3C7
330
1F
100
AcDbEntity
  8
D-A
  6
Continuous
 62
     2
370
     9
100
AcDbLine
 10
312.7989485457138
 20
399.039172235567
 30
0.0
 11
293.7994054845863
 21
399.039172235567
 31
0.0
  0
LINE
  5
3C8
330
1F
100
AcDbEntity
  8
D-A
  6
Continuous
 62
     2
370
     9
100
AcDbLine
 10
293.7994054845863
 20
401.5388093238271
 30
0.0
 11
293.7994054845863
 21
399.039172235567
 31
0.0
  0
LINE
  5
3C9
330
1F
100
AcDbEntity
  8
D-A
  6
Continuous
 62
     2
370
     9
100
AcDbLine
 10
312.0497626227303
 20
399.039172235567
 30
0.0
 11
312.0497626227303
 21
392.7892134755373
 31
0.0
  0
LINE
  5
3CA
330
1F
100
AcDbEntity
  8
D-A
  6
Continuous
 62
     2
370
     9
100
AcDbLine
 10
294.5498286066829
 20
399.039172235567
 30
0.0
 11
294.5498286066829
 21
392.7892134755373
 31
0.0
  0
LINE
  5
3CB
330
1F
100
AcDbEntity
  8
D-A
  6
Continuous
 62
     2
370
     9
100
AcDbLine
 10
311.648971970017
 20
391.5391474915847
 30
0.0
 11
294.9506192593963
 21
391.5391474915847
 31
0.0
  0
LINE
  5
3CC
330
1F
100
AcDbEntity
  8
D-A
  6
Continuous
 62
     2
370
     9
100
AcDbLine
 10
303.2997956147066
 20
392.7892134755373
 30
0.0
 11
303.2997956147066
 21
399.039172235567
 31
0.0
  0
LINE
  5
3CD
330
1F
100
AcDbEntity
  8
D-A
  6
Continuous
 62
     2
370
     9
100
AcDbLine
 10
243.2994120829815
 20
401.5391804835613
 30
0.0
 11
243.2994120829815
 21
399.0394815353451
 31
0.0
  0
LINE
  5
3CE
330
1F
100
AcDbEntity
  8
D-A
  6
Continuous
 62
     2
370
     9
100
AcDbLine
 10
244.5494780669342
 20
401.5391804835613
 30
0.0
 11
244.5494780669342
 21
399.0394815353451
 31
0.0
  0
LINE
  5
3CF
330
1F
100
AcDbEntity
  8
D-A
  6
Continuous
 62
     2
370
     9
100
AcDbLine
 10
250.2992372255068
 20
401.5388093238271
 30
0.0
 11
250.2992372255068
 21
399.039172235567
 31
0.0
  0
LINE
  5
3D0
330
1F
100
AcDbEntity
  8
D-A
  6
Continuous
 62
     2
370
     9
100
AcDbLine
 10
250.2992372255068
 20
399.039172235567
 30
0.0
 11
231.2996941643793
 21
399.039172235567
 31
0.0
  0
LINE
  5
3D1
330
1F
100
AcDbEntity
  8
D-A
  6
Continuous
 62
     2
370
     9
100
AcDbLine
 10
231.2996941643793
 20
401.5388093238271
 30
0.0
 11
231.2996941643793
 21
399.039172235567
 31
0.0
  0
LINE
  5
3D2
330
1F
100
AcDbEntity
  8
D-A
  6
Continuous
 62
     2
370
     9
100
AcDbLine
 10
249.5500513025233
 20
399.039172235567
 30
0.0
 11
249.5500513025233
 21
392.7892134755373
 31
0.0
  0
LINE
  5
3D3
330
1F
100
AcDbEntity
  8
D-A
  6
Continuous
 62
     2
370
     9
100
AcDbLine
 10
232.0501172864761
 20
399.039172235567
 30
0.0
 11
232.0501172864761
 21
392.7892134755373
 31
0.0
  0
LINE
  5
3D4
330
1F
100
AcDbEntity
  8
D-A
  6
Continuous
 62
     2
370
     9
100
AcDbLine
 10
240.8000842944997
 20
392.7892134755373
 30
0.0
 11
240.8000842944997
 21
399.039172235567
 31
0.0
  0
LINE
  5
3D5
330
1F
100
AcDbEntity
  8
D-A
  6
Continuous
 62
     2
370
     9
100
AcDbLine
 10
308.2995646708721
 20
424.539206877142
 30
0.0
 11
308.2995646708721
 21
414.5391738851657
 31
0.0
  0
LINE
  5
3D6
330
1F
100
AcDbEntity
  8
D-A
  6
Continuous
 62
     2
370
     9
100
AcDbLine
 10
306.7993370262353
 20
424.539206877142
 30
0.0
 11
306.7993370262353
 21
414.5391738851657
 31
0.0
  0
LINE
  5
3D7
330
1F
100
AcDbEntity
  8
D-A
  6
Continuous
 62
     2
370
     9
100
AcDbLine
 10
299.7996356036213
 20
424.539206877142
 30
0.0
 11
299.7996356036213
 21
414.5391738851657
 31
0.0
  0
LINE
  5
3D8
330
1F
100
AcDbEntity
  8
D-A
  6
Continuous
 62
     2
370
     9
100
AcDbLine
 10
298.2994079589844
 20
424.539206877142
 30
0.0
 11
298.2994079589844
 21
414.5391738851657
 31
0.0
  0
LINE
  5
3D9
330
1F
100
AcDbEntity
  8
D-A
  6
Continuous
 62
     2
370
     9
100
AcDbLine
 10
245.8004719502218
 20
424.539206877142
 30
0.0
 11
245.8004719502218
 21
414.5391738851657
 31
0.0
  0
LINE
  5
3DA
330
1F
100
AcDbEntity
  8
D-A
  6
Continuous
 62
     2
370
     9
100
AcDbLine
 10
244.300244305585
 20
424.539206877142
 30
0.0
 11
244.300244305585
 21
414.5391738851657
 31
0.0
  0
LINE
  5
3DB
330
1F
100
AcDbEntity
  8
D-A
  6
Continuous
 62
     2
370
     9
100
AcDbLine
 10
237.300542882971
 20
424.539206877142
 30
0.0
 11
237.300542882971
 21
414.5391738851657
 31
0.0
  0
LINE
  5
3DC
330
1F
100
AcDbEntity
  8
D-A
  6
Continuous
 62
     2
370
     9
100
AcDbLine
 10
235.8003152383341
 20
424.539206877142
 30
0.0
 11
235.8003152383341
 21
414.5391738851657
 31
0.0
  0
LINE
  5
3DD
330
1F
100
AcDbEntity
  8
D-3
  6
Continuous
 62
     3
370
     9
100
AcDbLine
 10
308.299935830606
 20
401.5391804835613
 30
0.0
 11
308.299935830606
 21
409.5391573891777
 31
0.0
  0
LINE
  5
3DE
330
1F
100
AcDbEntity
  8
D-3
  6
Continuous
 62
     3
370
     9
100
AcDbLine
 10
235.7999440786002
 20
401.5391804835613
 30
0.0
 11
235.7999440786002
 21
409.5391573891777
 31
0.0
  0
LINE
  5
3DF
330
1F
100
AcDbEntity
  8
D-0
  6
Continuous
 62
     4
370
     9
100
AcDbLine
 10
313.4460036819046
 20
434.3832909209027
 30
0.0
 11
314.4034720755913
 21
449.6952383052987
 31
0.0
  0
LINE
  5
3E0
330
1F
100
AcDbEntity
  8
D-0
  6
Continuous
 62
     4
370
     9
100
AcDbLine
 10
230.6538762273016
 20
434.3832909209027
 30
0.0
 11
229.696407833615
 21
449.6952383052987
 31
0.0
  0
LINE
  5
3E1
330
1F
100
AcDbEntity
  8
D-A
  6
Continuous
 62
     2
370
     9
100
AcDbLine
 10
293.1961471970018
 20
384.5520036399696
 30
0.0
 11
293.1961471970018
 21
390.5261907176722
 31
0.0
  0
LINE
  5
3E2
330
1F
100
AcDbEntity
  8
D-A
  6
Continuous
 62
     2
370
     9
100
AcDbLine
 10
294.9506192593963
 20
391.5391474915847
 30
0.0
 11
293.1961471970018
 21
390.5261907176722
 31
0.0
  0
LINE
  5
3E3
330
1F
100
AcDbEntity
  8
D-A
  6
Continuous
 62
     2
370
     9
100
AcDbLine
 10
296.2997848923143
 20
382.0385099216417
 30
0.0
 11
296.2997848923143
 21
380.8465922960081
 31
0.0
  0
LINE
  5
3E4
330
1F
100
AcDbEntity
  8
D-A
  6
Continuous
 62
     2
370
     9
100
AcDbLine
 10
295.674751900338
 20
383.1210591456706
 30
0.0
 11
293.1961471970018
 21
384.5520036399696
 31
0.0
  0
LINE
  5
3E5
330
1F
100
AcDbEntity
  8
D-A
  6
Continuous
 62
     2
370
     9
100
AcDbLine
 10
310.9247774691196
 20
383.1210591456706
 30
0.0
 11
313.4033821724557
 21
384.5520036399696
 31
0.0
  0
LINE
  5
3E6
330
1F
100
AcDbEntity
  8
D-A
  6
Continuous
 62
     2
370
     9
100
AcDbLine
 10
310.2998063370989
 20
380.8465922960081
 30
0.0
 11
310.2998063370989
 21
382.0385099216417
 31
0.0
  0
LINE
  5
3E7
330
1F
100
AcDbEntity
  8
D-A
  6
Continuous
 62
     2
370
     9
100
AcDbLine
 10
313.4033821724557
 20
384.5520036399696
 30
0.0
 11
313.4033821724557
 21
390.5261907176722
 31
0.0
  0
LINE
  5
3E8
330
1F
100
AcDbEntity
  8
D-A
  6
Continuous
 62
     2
370
     9
100
AcDbLine
 10
298.248002335832
 20
384.5520036399696
 30
0.0
 11
298.248002335832
 21
390.5261907176722
 31
0.0
  0
LINE
  5
3E9
330
1F
100
AcDbEntity
  8
D-A
  6
Continuous
 62
     2
370
     9
100
AcDbLine
 10
308.3515888935812
 20
384.5520036399696
 30
0.0
 11
308.3515888935812
 21
390.5261907176722
 31
0.0
  0
LINE
  5
3EA
330
1F
100
AcDbEntity
  8
D-A
  6
Continuous
 62
     2
370
     9
100
AcDbLine
 10
311.648971970017
 20
391.5391474915847
 30
0.0
 11
313.4033821724557
 21
390.5261907176722
 31
0.0
  0
LINE
  5
3EB
330
1F
100
AcDbEntity
  8
D-A
  6
Continuous
 62
     2
370
     9
100
AcDbLine
 10
294.9506192593963
 20
383.5391087260126
 30
0.0
 11
311.648971970017
 21
383.5391087260126
 31
0.0
  0
LINE
  5
3EC
330
1F
100
AcDbEntity
  8
D-A
  6
JWW_CENTER1
 62
     2
370
     9
100
AcDbLine
 10
303.2997956147066
 20
396.7471990184534
 30
0.0
 11
303.2997956147066
 21
372.8655445368232
 31
0.0
  0
LINE
  5
3ED
330
1F
100
AcDbEntity
  8
D-A
  6
Continuous
 62
     2
370
     9
100
AcDbLine
 10
250.9037327122045
 20
384.5520036399696
 30
0.0
 11
250.9037327122045
 21
390.5261907176722
 31
0.0
  0
LINE
  5
3EE
330
1F
100
AcDbEntity
  8
D-A
  6
Continuous
 62
     2
370
     9
100
AcDbLine
 10
249.14926064981
 20
391.5391474915847
 30
0.0
 11
250.9037327122045
 21
390.5261907176722
 31
0.0
  0
LINE
  5
3EF
330
1F
100
AcDbEntity
  8
D-A
  6
Continuous
 62
     2
370
     9
100
AcDbLine
 10
247.800095016892
 20
382.0385099216417
 30
0.0
 11
247.800095016892
 21
380.8465922960081
 31
0.0
  0
LINE
  5
3F0
330
1F
100
AcDbEntity
  8
D-A
  6
Continuous
 62
     2
370
     9
100
AcDbLine
 10
248.4251280088684
 20
383.1210591456706
 30
0.0
 11
250.9037327122045
 21
384.5520036399696
 31
0.0
  0
LINE
  5
3F1
330
1F
100
AcDbEntity
  8
D-A
  6
Continuous
 62
     2
370
     9
100
AcDbLine
 10
233.1751024400867
 20
383.1210591456706
 30
0.0
 11
230.6964977367505
 21
384.5520036399696
 31
0.0
  0
LINE
  5
3F2
330
1F
100
AcDbEntity
  8
D-A
  6
Continuous
 62
     2
370
     9
100
AcDbLine
 10
233.8000735721074
 20
380.8465922960081
 30
0.0
 11
233.8000735721074
 21
382.0385099216417
 31
0.0
  0
LINE
  5
3F3
330
1F
100
AcDbEntity
  8
D-A
  6
Continuous
 62
     2
370
     9
100
AcDbLine
 10
230.6964977367505
 20
384.5520036399696
 30
0.0
 11
230.6964977367505
 21
390.5261907176722
 31
0.0
  0
LINE
  5
3F4
330
1F
100
AcDbEntity
  8
D-A
  6
Continuous
 62
     2
370
     9
100
AcDbLine
 10
245.8518775733742
 20
384.5520036399696
 30
0.0
 11
245.8518775733742
 21
390.5261907176722
 31
0.0
  0
LINE
  5
3F5
330
1F
100
AcDbEntity
  8
D-A
  6
Continuous
 62
     2
370
     9
100
AcDbLine
 10
235.7482910156251
 20
384.5520036399696
 30
0.0
 11
235.7482910156251
 21
390.5261907176722
 31
0.0
  0
LINE
  5
3F6
330
1F
100
AcDbEntity
  8
D-A
  6
Continuous
 62
     2
370
     9
100
AcDbLine
 10
249.14926064981
 20
383.5391087260126
 30
0.0
 11
232.4509079391893
 21
383.5391087260126
 31
0.0
  0
LINE
  5
3F7
330
1F
100
AcDbEntity
  8
D-A
  6
JWW_CENTER1
 62
     2
370
     9
100
AcDbLine
 10
240.8000842944997
 20
396.9409443995769
 30
0.0
 11
240.8000842944997
 21
372.8655445368232
 31
0.0
  0
LINE
  5
3F8
330
1F
100
AcDbEntity
  8
D-A
  6
JWW_CENTER1
 62
     2
370
     9
100
AcDbLine
 10
303.2997956147066
 20
423.5357146764454
 30
0.0
 11
303.2997956147066
 21
401.5391804835613
 31
0.0
  0
LINE
  5
3F9
330
1F
100
AcDbEntity
  8
D-A
  6
Continuous
 62
     2
370
     9
100
AcDbLine
 10
249.14926064981
 20
391.5391474915847
 30
0.0
 11
232.4509079391893
 21
391.5391474915847
 31
0.0
  0
LINE
  5
3FA
330
1F
100
AcDbEntity
  8
D-A
  6
Continuous
 62
     2
370
     9
100
AcDbLine
 10
232.4509079391893
 20
391.5391474915847
 30
0.0
 11
230.6964977367505
 21
390.5261907176722
 31
0.0
  0
LINE
  5
3FB
330
1F
100
AcDbEntity
  8
D-0
  6
Continuous
 62
     4
370
     9
100
AcDbLine
 10
203.300208014411
 20
452.0391738851657
 30
0.0
 11
340.7996718947953
 21
452.0391738851657
 31
0.0
  0
LINE
  5
3FC
330
1F
100
AcDbEntity
  8
D-0
  6
Continuous
 62
     4
370
     9
100
AcDbLine
 10
249.5108320906356
 20
432.3518718370237
 30
0.0
 11
249.549927582612
 21
432.0392316211243
 31
0.0
  0
LINE
  5
3FD
330
1F
100
AcDbEntity
  8
D-A
  6
JWW_CENTER1
 62
     2
370
     9
100
AcDbLine
 10
240.8000842944997
 20
453.761602490529
 30
0.0
 11
240.8000842944997
 21
433.0315890298027
 31
0.0
  0
LINE
  5
3FE
330
1F
100
AcDbEntity
  8
D-A
  6
JWW_CENTER1
 62
     2
370
     9
100
AcDbLine
 10
240.8000842944997
 20
423.5357146764454
 30
0.0
 11
240.8000842944997
 21
401.5391804835613
 31
0.0
  0
LINE
  5
3FF
330
1F
100
AcDbEntity
  8
D-0
  6
Continuous
 62
     4
370
     9
100
AcDbLine
 10
292.8707638302366
 20
437.9694362703537
 30
0.0
 11
293.2995151829076
 21
434.5392398691185
 31
0.0
  0
LINE
  5
400
330
1F
100
AcDbEntity
  8
D-0
  6
Continuous
 62
     4
370
     9
100
AcDbLine
 10
258.6712399044553
 20
444.5391491411834
 30
0.0
 11
285.4286400047509
 21
444.5391491411834
 31
0.0
  0
LINE
  5
401
330
1F
100
AcDbEntity
  8
D-0
  6
Continuous
 62
     4
370
     9
100
AcDbLine
 10
251.2291160789697
 20
437.9694362703537
 30
0.0
 11
250.8003647262987
 21
434.5392398691185
 31
0.0
  0
ARC
  5
402
330
1F
100
AcDbEntity
  8
D-2
  6
Continuous
 62
     3
370
     9
100
AcDbCircle
 10
267.0502327583932
 20
334.5396522688227
 30
0.0
 40
2.500000273859179
100
AcDbArc
 50
180.0
 51
270.0
  0
ARC
  5
403
330
1F
100
AcDbEntity
  8
D-2
  6
Continuous
 62
     3
370
     9
100
AcDbCircle
 10
277.0503894702809
 20
334.5396522688227
 30
0.0
 40
2.500000273859179
100
AcDbArc
 50
270.0
 51
0.0
  0
ARC
  5
404
330
1F
100
AcDbEntity
  8
D-0
  6
Continuous
 62
     4
370
     9
100
AcDbCircle
 10
339.5497296307539
 20
454.5391821331597
 30
0.0
 40
1.250000016109364
100
AcDbArc
 50
0.0
 51
84.00610351562501
  0
ARC
  5
405
330
1F
100
AcDbEntity
  8
D-0
  6
Continuous
 62
     4
370
     9
100
AcDbCircle
 10
204.550212138408
 20
454.5391821331597
 30
0.0
 40
1.250000016109364
100
AcDbArc
 50
95.993896484375
 51
180.0
  0
ARC
  5
406
330
1F
100
AcDbEntity
  8
D-A
  6
Continuous
 62
     2
370
     9
100
AcDbCircle
 10
307.6747791187184
 20
432.8205228610948
 30
0.0
 40
8.281277321480417
100
AcDbArc
 50
238.1089477539062
 51
301.8907012939453
  0
ARC
  5
407
330
1F
100
AcDbEntity
  8
D-A
  6
Continuous
 62
     2
370
     9
100
AcDbCircle
 10
298.9248121106948
 20
432.8205228610948
 30
0.0
 40
8.281277321480417
100
AcDbArc
 50
238.1092987060547
 51
301.8910522460938
  0
ARC
  5
408
330
1F
100
AcDbEntity
  8
D-A
  6
Continuous
 62
     2
370
     9
100
AcDbCircle
 10
236.4250389305322
 20
432.8205228610948
 30
0.0
 40
8.281277321480417
100
AcDbArc
 50
238.1092987060547
 51
301.8910522460938
  0
ARC
  5
409
330
1F
100
AcDbEntity
  8
D-A
  6
Continuous
 62
     2
370
     9
100
AcDbCircle
 10
245.1751296584671
 20
432.8205228610948
 30
0.0
 40
8.281277321480417
100
AcDbArc
 50
238.1089477539062
 51
301.8907012939453
  0
ARC
  5
40A
330
1F
100
AcDbEntity
  8
D-A
  6
Continuous
 62
     2
370
     9
100
AcDbCircle
 10
307.6747791187184
 20
399.8204634755373
 30
0.0
 40
8.281277321480417
100
AcDbArc
 50
238.1089477539062
 51
301.8907012939453
  0
ARC
  5
40B
330
1F
100
AcDbEntity
  8
D-A
  6
Continuous
 62
     2
370
     9
100
AcDbCircle
 10
298.9248121106948
 20
399.8204634755373
 30
0.0
 40
8.281277321480417
100
AcDbArc
 50
238.1092987060547
 51
301.8910522460938
  0
ARC
  5
40C
330
1F
100
AcDbEntity
  8
D-A
  6
Continuous
 62
     2
370
     9
100
AcDbCircle
 10
245.1750677985115
 20
399.8204634755373
 30
0.0
 40
8.281277321480417
100
AcDbArc
 50
238.1089477539062
 51
301.8907012939453
  0
ARC
  5
40D
330
1F
100
AcDbEntity
  8
D-A
  6
Continuous
 62
     2
370
     9
100
AcDbCircle
 10
236.4251007904878
 20
399.8204634755373
 30
0.0
 40
8.281277321480417
100
AcDbArc
 50
238.1092987060547
 51
301.8910522460938
  0
ARC
  5
40E
330
1F
100
AcDbEntity
  8
D-0
  6
Continuous
 62
     4
370
     9
100
AcDbCircle
 10
316.8985933870883
 20
449.5392274971274
 30
0.0
 40
2.500000032218727
100
AcDbArc
 50
90.0
 51
176.4221649169922
  0
ARC
  5
40F
330
1F
100
AcDbEntity
  8
D-0
  6
Continuous
 62
     4
370
     9
100
AcDbCircle
 10
310.9508823704076
 20
434.539301729074
 30
0.0
 40
2.500000032218727
100
AcDbArc
 50
270.0
 51
356.4221649169922
  0
ARC
  5
410
330
1F
100
AcDbEntity
  8
D-0
  6
Continuous
 62
     4
370
     9
100
AcDbCircle
 10
227.2012865221179
 20
449.5392274971274
 30
0.0
 40
2.500000032218727
100
AcDbArc
 50
3.577835083007803
 51
89.99999999999999
  0
ARC
  5
411
330
1F
100
AcDbEntity
  8
D-0
  6
Continuous
 62
     4
370
     9
100
AcDbCircle
 10
233.1489975387987
 20
434.539301729074
 30
0.0
 40
2.500000032218727
100
AcDbArc
 50
183.5778350830078
 51
270.0
  0
ARC
  5
412
330
1F
100
AcDbEntity
  8
D-A
  6
Continuous
 62
     2
370
     9
100
AcDbCircle
 10
303.2997956147066
 20
396.6432124329909
 30
0.0
 40
13.10409210823678
100
AcDbArc
 50
247.3243103027343
 51
292.6756896972656
  0
ARC
  5
413
330
1F
100
AcDbEntity
  8
D-A
  6
Continuous
 62
     2
370
     9
100
AcDbCircle
 10
294.9506192593963
 20
389.41234035608
 30
0.0
 40
5.873256277393651
100
AcDbArc
 50
270.0
 51
304.1535186767578
  0
ARC
  5
414
330
1F
100
AcDbEntity
  8
D-A
  6
Continuous
 62
     2
370
     9
100
AcDbCircle
 10
303.2997956147066
 20
378.4350437846063
 30
0.0
 40
13.10409210823678
100
AcDbArc
 50
67.32431030273439
 51
112.6756896972656
  0
ARC
  5
415
330
1F
100
AcDbEntity
  8
D-A
  6
Continuous
 62
     2
370
     9
100
AcDbCircle
 10
294.9506192593963
 20
385.665915861517
 30
0.0
 40
5.873256277393651
100
AcDbArc
 50
55.84648132324221
 51
90.00000000000003
  0
ARC
  5
416
330
1F
100
AcDbEntity
  8
D-A
  6
Continuous
 62
     2
370
     9
100
AcDbCircle
 10
303.2997956147066
 20
383.5391087260126
 30
0.0
 40
7.500000096656181
100
AcDbArc
 50
201.0391845703125
 51
338.9608154296874
  0
ARC
  5
417
330
1F
100
AcDbEntity
  8
D-A
  6
Continuous
 62
     2
370
     9
100
AcDbCircle
 10
295.0497807683172
 20
382.0385099216417
 30
0.0
 40
1.250000016109364
100
AcDbArc
 50
0.0
 51
59.99960327148438
  0
ARC
  5
418
330
1F
100
AcDbEntity
  8
D-A
  6
Continuous
 62
     2
370
     9
100
AcDbCircle
 10
311.648971970017
 20
389.41234035608
 30
0.0
 40
5.873256277393651
100
AcDbArc
 50
235.8464813232422
 51
270.0
  0
ARC
  5
419
330
1F
100
AcDbEntity
  8
D-A
  6
Continuous
 62
     2
370
     9
100
AcDbCircle
 10
311.648971970017
 20
385.665915861517
 30
0.0
 40
5.873256277393651
100
AcDbArc
 50
90.0
 51
124.1535186767578
  0
ARC
  5
41A
330
1F
100
AcDbEntity
  8
D-A
  6
Continuous
 62
     2
370
     9
100
AcDbCircle
 10
311.5497486011403
 20
382.0385099216417
 30
0.0
 40
1.250000016109364
100
AcDbArc
 50
120.0003967285157
 51
180.0000000000001
  0
ARC
  5
41B
330
1F
100
AcDbEntity
  8
D-A
  6
Continuous
 62
     2
370
     9
100
AcDbCircle
 10
240.8000842944997
 20
396.6432124329909
 30
0.0
 40
13.10409210823678
100
AcDbArc
 50
247.3243103027343
 51
292.6756896972656
  0
ARC
  5
41C
330
1F
100
AcDbEntity
  8
D-A
  6
Continuous
 62
     2
370
     9
100
AcDbCircle
 10
249.14926064981
 20
389.41234035608
 30
0.0
 40
5.873256277393651
100
AcDbArc
 50
235.8464813232422
 51
270.0
  0
ARC
  5
41D
330
1F
100
AcDbEntity
  8
D-A
  6
Continuous
 62
     2
370
     9
100
AcDbCircle
 10
240.8000842944997
 20
378.4350437846063
 30
0.0
 40
13.10409210823678
100
AcDbArc
 50
67.32431030273439
 51
112.6756896972656
  0
ARC
  5
41E
330
1F
100
AcDbEntity
  8
D-A
  6
Continuous
 62
     2
370
     9
100
AcDbCircle
 10
240.8000842944997
 20
383.5391087260126
 30
0.0
 40
7.500000096656181
100
AcDbArc
 50
201.0391845703125
 51
338.9608154296874
  0
ARC
  5
41F
330
1F
100
AcDbEntity
  8
D-A
  6
Continuous
 62
     2
370
     9
100
AcDbCircle
 10
249.050099140889
 20
382.0385099216417
 30
0.0
 40
1.250000016109364
100
AcDbArc
 50
120.0003967285157
 51
180.0000000000001
  0
ARC
  5
420
330
1F
100
AcDbEntity
  8
D-A
  6
Continuous
 62
     2
370
     9
100
AcDbCircle
 10
232.4509079391893
 20
389.41234035608
 30
0.0
 40
5.873256277393651
100
AcDbArc
 50
270.0
 51
304.1535186767578
  0
ARC
  5
421
330
1F
100
AcDbEntity
  8
D-A
  6
Continuous
 62
     2
370
     9
100
AcDbCircle
 10
232.4509079391893
 20
385.665915861517
 30
0.0
 40
5.873256277393651
100
AcDbArc
 50
55.84648132324221
 51
90.00000000000003
  0
ARC
  5
422
330
1F
100
AcDbEntity
  8
D-A
  6
Continuous
 62
     2
370
     9
100
AcDbCircle
 10
232.5501313080659
 20
382.0385099216417
 30
0.0
 40
1.250000016109364
100
AcDbArc
 50
0.0
 51
59.99960327148438
  0
ARC
  5
423
330
1F
100
AcDbEntity
  8
D-A
  6
Continuous
 62
     2
370
     9
100
AcDbCircle
 10
249.14926064981
 20
385.665915861517
 30
0.0
 40
5.873256277393651
100
AcDbArc
 50
90.0
 51
124.1535186767578
  0
ARC
  5
424
330
1F
100
AcDbEntity
  8
D-0
  6
Continuous
 62
     4
370
     9
100
AcDbCircle
 10
295.7995234309017
 20
434.5392398691185
 30
0.0
 40
2.500000032218727
100
AcDbArc
 50
180.0
 51
270.0
  0
ARC
  5
425
330
1F
100
AcDbEntity
  8
D-0
  6
Continuous
 62
     4
370
     9
100
AcDbCircle
 10
248.3003564783046
 20
434.5392398691185
 30
0.0
 40
2.500000032218727
100
AcDbArc
 50
270.0
 51
0.0
  0
ARC
  5
426
330
1F
100
AcDbEntity
  8
D-0
  6
Continuous
 62
     4
370
     9
100
AcDbCircle
 10
285.4286400047509
 20
437.0391243972011
 30
0.0
 40
7.500000096656181
100
AcDbArc
 50
7.125366210937503
 51
90.00000000000001
  0
ARC
  5
427
330
1F
100
AcDbEntity
  8
D-0
  6
Continuous
 62
     4
370
     9
100
AcDbCircle
 10
258.6712399044553
 20
437.0391243972011
 30
0.0
 40
7.500000096656181
100
AcDbArc
 50
90.0
 51
172.8746337890625
  0
LINE
  5
428
330
1F
100
AcDbEntity
  8
D-3
  6
Continuous
 62
     3
370
     9
100
AcDbLine
 10
264.5497914907096
 20
401.5391804835613
 30
0.0
 11
141.2176256808683
 21
401.5391804835613
 31
0.0
  0
LINE
  5
429
330
1F
100
AcDbEntity
  8
D-3
  6
Continuous
 62
     3
370
     9
100
AcDbLine
 10
264.5497914907096
 20
409.5391573891777
 30
0.0
 11
141.2176256808683
 21
409.5391573891777
 31
0.0
  0
LINE
  5
42A
330
1F
100
AcDbEntity
  8
D-B
  6
Continuous
 62
     7
370
     9
100
AcDbLine
 10
223.2999028386297
 20
409.5391573891777
 30
0.0
 11
223.2999028386297
 21
452.0391738851657
 31
0.0
  0
LINE
  5
42B
330
1F
100
AcDbEntity
  8
D-B
  6
Continuous
 62
     7
370
     9
100
AcDbLine
 10
203.300208014411
 20
452.0391738851657
 30
0.0
 11
141.2176256808683
 21
452.0391738851657
 31
0.0
  0
LINE
  5
42C
330
1F
100
AcDbEntity
  8
D-B
  6
Continuous
 62
     7
370
     9
100
AcDbLine
 10
223.2999028386297
 20
422.039198629148
 30
0.0
 11
141.2176256808683
 21
422.039198629148
 31
0.0
  0
LINE
  5
42D
330
1F
100
AcDbEntity
  8
D-B
  6
Continuous
 62
     7
370
     9
100
AcDbLine
 10
223.2999028386297
 20
429.5392233731303
 30
0.0
 11
141.2176256808683
 21
429.5392233731303
 31
0.0
  0
LINE
  5
42E
330
1F
100
AcDbEntity
  8
D-B
  6
Continuous
 62
     7
370
     9
100
AcDbLine
 10
223.2999028386297
 20
437.0391862571568
 30
0.0
 11
141.2176256808683
 21
437.0391862571568
 31
0.0
  0
LINE
  5
42F
330
1F
100
AcDbEntity
  8
D-B
  6
Continuous
 62
     7
370
     9
100
AcDbLine
 10
223.2999028386297
 20
444.5392110011391
 30
0.0
 11
141.2176256808683
 21
444.5392110011391
 31
0.0
  0
LINE
  5
430
330
1F
100
AcDbEntity
  8
D-B
  6
Continuous
 62
     7
370
     9
100
AcDbLine
 10
141.2176256808683
 20
414.5391738851657
 30
0.0
 11
264.5497914907096
 21
414.5391738851657
 31
0.0
  0
LINE
  5
431
330
1F
100
AcDbEntity
  8
D-B
  6
Continuous
 62
     7
370
     9
100
AcDbLine
 10
212.4608662029183
 20
409.5390336692665
 30
0.0
 11
207.4610971467526
 21
414.539173885166
 31
0.0
  0
LINE
  5
432
330
1F
100
AcDbEntity
  8
D-B
  6
Continuous
 62
     7
370
     9
100
AcDbLine
 10
217.7644913612797
 20
409.5390336692665
 30
0.0
 11
212.7642274254688
 21
414.539173885166
 31
0.0
  0
LINE
  5
433
330
1F
100
AcDbEntity
  8
D-B
  6
Continuous
 62
     7
370
     9
100
AcDbLine
 10
223.0676216399959
 20
409.5390336692665
 30
0.0
 11
218.0676051440079
 21
414.539173885166
 31
0.0
  0
LINE
  5
434
330
1F
100
AcDbEntity
  8
D-B
  6
Continuous
 62
     7
370
     9
100
AcDbLine
 10
201.8543582056631
 20
409.5390336692665
 30
0.0
 11
196.8545891494974
 21
414.539173885166
 31
0.0
  0
LINE
  5
435
330
1F
100
AcDbEntity
  8
D-B
  6
Continuous
 62
     7
370
     9
100
AcDbLine
 10
207.1579833640245
 20
409.5390336692665
 30
0.0
 11
202.1577194282136
 21
414.539173885166
 31
0.0
  0
LINE
  5
436
330
1F
100
AcDbEntity
  8
D-B
  6
Continuous
 62
     7
370
     9
100
AcDbLine
 10
191.2478502084081
 20
409.5390336692665
 30
0.0
 11
186.2480811522425
 21
414.539173885166
 31
0.0
  0
LINE
  5
437
330
1F
100
AcDbEntity
  8
D-B
  6
Continuous
 62
     7
370
     9
100
AcDbLine
 10
196.5514753667696
 20
409.5390336692665
 30
0.0
 11
191.5512114309586
 21
414.539173885166
 31
0.0
  0
LINE
  5
438
330
1F
100
AcDbEntity
  8
D-B
  6
Continuous
 62
     7
370
     9
100
AcDbLine
 10
180.6413422111529
 20
409.5390336692665
 30
0.0
 11
175.6415731549873
 21
414.539173885166
 31
0.0
  0
LINE
  5
439
330
1F
100
AcDbEntity
  8
D-B
  6
Continuous
 62
     7
370
     9
100
AcDbLine
 10
185.9449673695144
 20
409.5390336692665
 30
0.0
 11
180.9447034337034
 21
414.539173885166
 31
0.0
  0
LINE
  5
43A
330
1F
100
AcDbEntity
  8
D-B
  6
Continuous
 62
     7
370
     9
100
AcDbLine
 10
170.034834213898
 20
409.5390336692665
 30
0.0
 11
165.0350651577323
 21
414.539173885166
 31
0.0
  0
LINE
  5
43B
330
1F
100
AcDbEntity
  8
D-B
  6
Continuous
 62
     7
370
     9
100
AcDbLine
 10
175.3384593722594
 20
409.5390336692665
 30
0.0
 11
170.3381954364485
 21
414.539173885166
 31
0.0
  0
LINE
  5
43C
330
1F
100
AcDbEntity
  8
D-B
  6
Continuous
 62
     7
370
     9
100
AcDbLine
 10
159.4283262166427
 20
409.5390336692665
 30
0.0
 11
154.4285571604771
 21
414.539173885166
 31
0.0
  0
LINE
  5
43D
330
1F
100
AcDbEntity
  8
D-B
  6
Continuous
 62
     7
370
     9
100
AcDbLine
 10
164.7319513750042
 20
409.5390336692665
 30
0.0
 11
159.7316874391933
 21
414.539173885166
 31
0.0
  0
LINE
  5
43E
330
1F
100
AcDbEntity
  8
D-B
  6
Continuous
 62
     7
370
     9
100
AcDbLine
 10
148.8218182193878
 20
409.5390336692665
 30
0.0
 11
143.8220491632222
 21
414.539173885166
 31
0.0
  0
LINE
  5
43F
330
1F
100
AcDbEntity
  8
D-B
  6
Continuous
 62
     7
370
     9
100
AcDbLine
 10
154.1254433777493
 20
409.5390336692665
 30
0.0
 11
149.1251794419383
 21
414.539173885166
 31
0.0
  0
LINE
  5
440
330
1F
100
AcDbEntity
  8
D-B
  6
Continuous
 62
     7
370
     9
100
AcDbLine
 10
143.518935380494
 20
409.5390336692665
 30
0.0
 11
141.2176256808683
 21
411.8402864283314
 31
0.0
  0
TEXT
  5
441
330
1F
100
AcDbEntity
  8
D-0
  6
Continuous
 62
     7
370
     9
100
AcDbText
 10
233.5305932149187
 20
615.1508944827167
 30
0.0
 40
11.43
  1
（ＳＣＳ１３）
 41
1.142857142857143
  7
ＭＳ ゴシック
100
AcDbText
  0
TEXT
  5
442
330
1F
100
AcDbEntity
  8
D-0
  6
Continuous
 62
     7
370
     9
100
AcDbText
 10
252.4981972060908
 20
636.9963666638821
 30
0.0
 40
11.43
  1
把手カバー
 41
1.133333333333333
  7
ＭＳ ゴシック
100
AcDbText
  0
LINE
  5
443
330
1F
100
AcDbEntity
  8
D-0
  6
Continuous
 62
     7
370
     9
100
AcDbLine
 10
237.6689795402653
 20
629.9978943243553
 30
0.0
 11
365.4847016205659
 21
629.9978943243553
 31
0.0
  0
LINE
  5
444
330
1F
100
AcDbEntity
  8
D-0
  6
Continuous
 62
     4
370
     9
100
AcDbLine
 10
293.9380303920666
 20
-371.4335474085913
 30
0.0
 11
523.9381396779879
 21
-371.4335474085913
 31
0.0
  0
LINE
  5
445
330
1F
100
AcDbEntity
  8
D-0
  6
Continuous
 62
     4
370
     9
100
AcDbLine
 10
273.9381809179587
 20
-110.4487564920121
 30
0.0
 11
543.9380819420296
 21
-110.4487564920121
 31
0.0
  0
LINE
  5
446
330
1F
100
AcDbEntity
  8
D-0
  6
Continuous
 62
     4
370
     9
100
AcDbLine
 10
268.9381644219703
 20
-242.9490080558319
 30
0.0
 11
268.9381644219703
 21
-115.4488967079116
 31
0.0
  0
LINE
  5
447
330
1F
100
AcDbEntity
  8
D-0
  6
Continuous
 62
     4
370
     9
100
AcDbLine
 10
543.9380819420296
 20
-247.9491482717313
 30
0.0
 11
273.9381809179587
 21
-247.9491482717313
 31
0.0
  0
LINE
  5
448
330
1F
100
AcDbEntity
  8
D-0
  6
Continuous
 62
     4
370
     9
100
AcDbLine
 10
548.9382221579291
 20
-242.9490080558319
 30
0.0
 11
548.9382221579291
 21
-115.4488967079116
 31
0.0
  0
LINE
  5
449
330
1F
100
AcDbEntity
  8
D-0
  6
Continuous
 62
     4
370
     9
100
AcDbLine
 10
270.4041216511722
 20
-111.9132290822782
 30
0.0
 11
295.4042041311129
 21
-136.9134352821304
 31
0.0
  0
LINE
  5
44A
330
1F
100
AcDbEntity
  8
D-0
  6
Continuous
 62
     4
370
     9
100
AcDbLine
 10
547.4736258477515
 20
-246.4854180009332
 30
0.0
 11
522.4735433678109
 21
-221.4852736610367
 31
0.0
  0
LINE
  5
44B
330
1F
100
AcDbEntity
  8
D-0
  6
Continuous
 62
     4
370
     9
100
AcDbLine
 10
270.4041216511722
 20
-246.4854180009332
 30
0.0
 11
295.4042041311129
 21
-221.4852736610367
 31
0.0
  0
LINE
  5
44C
330
1F
100
AcDbEntity
  8
D-0
  6
Continuous
 62
     4
370
     9
100
AcDbLine
 10
523.9381396779879
 20
-217.9498534752258
 30
0.0
 11
523.9381396779879
 21
-140.4497215073204
 31
0.0
  0
LINE
  5
44D
330
1F
100
AcDbEntity
  8
D-0
  6
Continuous
 62
     4
370
     9
100
AcDbLine
 10
298.9382324679218
 20
-222.9498081112584
 30
0.0
 11
518.9377520222661
 21
-222.9498081112584
 31
0.0
  0
LINE
  5
44E
330
1F
100
AcDbEntity
  8
D-0
  6
Continuous
 62
     4
370
     9
100
AcDbLine
 10
298.9382324679218
 20
-135.4493338515983
 30
0.0
 11
518.9377520222661
 21
-135.4493338515983
 31
0.0
  0
LINE
  5
44F
330
1F
100
AcDbEntity
  8
D-0
  6
Continuous
 62
     4
370
     9
100
AcDbLine
 10
293.9380303920666
 20
-140.4497215073204
 30
0.0
 11
293.9380303920666
 21
-217.9498534752258
 31
0.0
  0
LINE
  5
450
330
1F
100
AcDbEntity
  8
D-2
  6
Continuous
 62
     3
370
     9
100
AcDbLine
 10
327.3131157588051
 20
-189.949006406233
 30
0.0
 11
327.3131157588051
 21
-168.4493932371558
 31
0.0
  0
LINE
  5
451
330
1F
100
AcDbEntity
  8
D-2
  6
Continuous
 62
     3
370
     9
100
AcDbLine
 10
331.5631112224088
 20
-194.1989709398584
 30
0.0
 11
486.3131516375796
 21
-194.1989709398584
 31
0.0
  0
LINE
  5
452
330
1F
100
AcDbEntity
  8
D-0
  6
Continuous
 62
     4
370
     9
100
AcDbLine
 10
326.0631116348083
 20
-190.4489585678673
 30
0.0
 11
326.0631116348083
 21
-167.9490080558319
 31
0.0
  0
LINE
  5
453
330
1F
100
AcDbEntity
  8
D-0
  6
Continuous
 62
     4
370
     9
100
AcDbLine
 10
486.8131656591697
 20
-162.9489915598436
 30
0.0
 11
331.0630972008187
 21
-162.9489915598436
 31
0.0
  0
LINE
  5
454
330
1F
100
AcDbEntity
  8
D-0
  6
Continuous
 62
     4
370
     9
100
AcDbLine
 10
491.8131512251796
 20
-190.4489585678673
 30
0.0
 11
491.8131512251796
 21
-167.9490080558319
 31
0.0
  0
LINE
  5
455
330
1F
100
AcDbEntity
  8
D-0
  6
Continuous
 62
     4
370
     9
100
AcDbLine
 10
486.8131656591697
 20
-195.4489750638555
 30
0.0
 11
331.0630972008187
 21
-195.4489750638555
 31
0.0
  0
LINE
  5
456
330
1F
100
AcDbEntity
  8
D-0
  6
JWW_CENTER1
 62
     4
370
     9
100
AcDbLine
 10
264.0764667868352
 20
-179.1989833118496
 30
0.0
 11
557.3646615978572
 21
-179.1989833118496
 31
0.0
  0
LINE
  5
457
330
1F
100
AcDbEntity
  8
D-2
  6
Continuous
 62
     3
370
     9
100
AcDbLine
 10
486.3128114078233
 20
-164.1989956838407
 30
0.0
 11
331.5640081917655
 21
-164.1989956838407
 31
0.0
  0
LINE
  5
458
330
1F
100
AcDbEntity
  8
D-2
  6
Continuous
 62
     3
370
     9
100
AcDbLine
 10
490.5628068714265
 20
-168.4490220774218
 30
0.0
 11
490.5628068714265
 21
-190.0075259242862
 31
0.0
  0
LINE
  5
459
330
1F
100
AcDbEntity
  8
D-0
  6
Continuous
 62
     4
370
     9
100
AcDbLine
 10
547.4736258477515
 20
-111.9132290822782
 30
0.0
 11
522.4735433678109
 21
-136.9134352821304
 31
0.0
  0
LINE
  5
45A
330
1F
100
AcDbEntity
  8
D-0
  6
JWW_CENTER1
 62
     4
370
     9
100
AcDbLine
 10
408.9381314299942
 20
-103.295889819187
 30
0.0
 11
408.9381314299942
 21
-257.4584771654444
 31
0.0
  0
ARC
  5
45B
330
1F
100
AcDbEntity
  8
D-0
  6
Continuous
 62
     4
370
     9
100
AcDbCircle
 10
518.9377520222661
 20
-140.4497215073204
 30
0.0
 40
4.99999958115655
100
AcDbArc
 50
0.0
 51
90.0
  0
ARC
  5
45C
330
1F
100
AcDbEntity
  8
D-0
  6
Continuous
 62
     4
370
     9
100
AcDbCircle
 10
518.9377520222661
 20
-217.9498534752258
 30
0.0
 40
4.99999958115655
100
AcDbArc
 50
270.0
 51
0.0
  0
ARC
  5
45D
330
1F
100
AcDbEntity
  8
D-0
  6
Continuous
 62
     4
370
     9
100
AcDbCircle
 10
298.9382324679218
 20
-217.9498534752258
 30
0.0
 40
4.99999958115655
100
AcDbArc
 50
180.0
 51
270.0
  0
ARC
  5
45E
330
1F
100
AcDbEntity
  8
D-0
  6
Continuous
 62
     4
370
     9
100
AcDbCircle
 10
298.9382324679218
 20
-140.4497215073204
 30
0.0
 40
4.99999958115655
100
AcDbArc
 50
90.0
 51
180.0
  0
ARC
  5
45F
330
1F
100
AcDbEntity
  8
D-0
  6
Continuous
 62
     4
370
     9
100
AcDbCircle
 10
543.9380819420296
 20
-115.4488967079116
 30
0.0
 40
5.000000064437454
100
AcDbArc
 50
0.0
 51
90.0
  0
ARC
  5
460
330
1F
100
AcDbEntity
  8
D-0
  6
Continuous
 62
     4
370
     9
100
AcDbCircle
 10
273.9380571980472
 20
-115.4488967079116
 30
0.0
 40
5.000000064437454
100
AcDbArc
 50
90.0
 51
180.0
  0
ARC
  5
461
330
1F
100
AcDbEntity
  8
D-0
  6
Continuous
 62
     4
370
     9
100
AcDbCircle
 10
273.9380571980472
 20
-242.9489461958762
 30
0.0
 40
5.000000064437454
100
AcDbArc
 50
180.0
 51
270.0
  0
ARC
  5
462
330
1F
100
AcDbEntity
  8
D-0
  6
Continuous
 62
     4
370
     9
100
AcDbCircle
 10
543.9380819420296
 20
-242.9489461958762
 30
0.0
 40
5.000000064437454
100
AcDbArc
 50
270.0
 51
0.0
  0
ARC
  5
463
330
1F
100
AcDbEntity
  8
D-2
  6
Continuous
 62
     3
370
     9
100
AcDbCircle
 10
331.5640081917655
 20
-168.4493932371558
 30
0.0
 40
4.250002229535902
100
AcDbArc
 50
90.0
 51
180.0
  0
ARC
  5
464
330
1F
100
AcDbEntity
  8
D-2
  6
Continuous
 62
     3
370
     9
100
AcDbCircle
 10
486.3131516375796
 20
-189.9485733865434
 30
0.0
 40
4.250002229535902
100
AcDbArc
 50
270.0
 51
359.2052154541016
  0
ARC
  5
465
330
1F
100
AcDbEntity
  8
D-2
  6
Continuous
 62
     3
370
     9
100
AcDbCircle
 10
331.5631112224088
 20
-189.949006406233
 30
0.0
 40
4.250000296412288
100
AcDbArc
 50
180.0
 51
270.0
  0
ARC
  5
466
330
1F
100
AcDbEntity
  8
D-0
  6
Continuous
 62
     4
370
     9
100
AcDbCircle
 10
408.9381314299942
 20
-179.1989833118496
 30
0.0
 40
31.25000064437454
100
AcDbArc
 50
211.3322448730469
 51
328.6677551269532
  0
ARC
  5
467
330
1F
100
AcDbEntity
  8
D-0
  6
Continuous
 62
     4
370
     9
100
AcDbCircle
 10
408.9381314299942
 20
-179.1989833118496
 30
0.0
 40
31.25000064437454
100
AcDbArc
 50
31.33224487304688
 51
148.6677551269531
  0
ARC
  5
468
330
1F
100
AcDbEntity
  8
D-0
  6
Continuous
 62
     4
370
     9
100
AcDbCircle
 10
331.0630972008187
 20
-167.9490080558319
 30
0.0
 40
5.000000064437454
100
AcDbArc
 50
90.0
 51
180.0
  0
ARC
  5
469
330
1F
100
AcDbEntity
  8
D-0
  6
Continuous
 62
     4
370
     9
100
AcDbCircle
 10
331.0630972008187
 20
-190.4489585678673
 30
0.0
 40
5.000000064437454
100
AcDbArc
 50
180.0
 51
270.0
  0
ARC
  5
46A
330
1F
100
AcDbEntity
  8
D-0
  6
Continuous
 62
     4
370
     9
100
AcDbCircle
 10
486.8131656591697
 20
-167.9490080558319
 30
0.0
 40
5.000000064437454
100
AcDbArc
 50
0.0
 51
90.0
  0
ARC
  5
46B
330
1F
100
AcDbEntity
  8
D-0
  6
Continuous
 62
     4
370
     9
100
AcDbCircle
 10
486.8131656591697
 20
-190.4489585678673
 30
0.0
 40
5.000000064437454
100
AcDbArc
 50
270.0
 51
0.0
  0
ARC
  5
46C
330
1F
100
AcDbEntity
  8
D-2
  6
Continuous
 62
     3
370
     9
100
AcDbCircle
 10
486.3128114078233
 20
-168.4490220774218
 30
0.0
 40
4.250000296412288
100
AcDbArc
 50
0.0
 51
90.0
  0
LINE
  5
46D
330
1F
100
AcDbEntity
  8
D-0
  6
Continuous
 62
     4
370
     9
100
AcDbLine
 10
271.0672603758344
 20
-374.8640531096049
 30
0.0
 11
293.9380303920666
 21
-371.4335474085913
 31
0.0
  0
LINE
  5
46E
330
1F
100
AcDbEntity
  8
D-0
  6
Continuous
 62
     4
370
     9
100
AcDbLine
 10
268.9381644219703
 20
-377.3364099574194
 30
0.0
 11
268.9381644219703
 21
-377.6834443086651
 31
0.0
  0
LINE
  5
46F
330
1F
100
AcDbEntity
  8
D-2
  6
Continuous
 62
     3
370
     9
100
AcDbLine
 10
328.9378674941833
 20
-471.4334443086651
 30
0.0
 11
488.9379004861598
 21
-471.4334443086651
 31
0.0
  0
LINE
  5
470
330
1F
100
AcDbEntity
  8
D-2
  6
Continuous
 62
     3
370
     9
100
AcDbLine
 10
328.9378674941833
 20
-477.683526788606
 30
0.0
 11
488.9379004861598
 21
-477.683526788606
 31
0.0
  0
LINE
  5
471
330
1F
100
AcDbEntity
  8
D-2
  6
Continuous
 62
     3
370
     9
100
AcDbLine
 10
371.4381314299942
 20
-467.9334080174912
 30
0.0
 11
378.938032454065
 21
-470.6834542062581
 31
0.0
  0
LINE
  5
472
330
1F
100
AcDbEntity
  8
D-2
  6
Continuous
 62
     3
370
     9
100
AcDbLine
 10
446.4381314299942
 20
-467.9334080174912
 30
0.0
 11
438.9382304059228
 21
-470.6834542062581
 31
0.0
  0
LINE
  5
473
330
1F
100
AcDbEntity
  8
D-2
  6
Continuous
 62
     3
370
     9
100
AcDbLine
 10
378.938032454065
 20
-470.6834542062581
 30
0.0
 11
378.938032454065
 21
-471.4334443086651
 31
0.0
  0
LINE
  5
474
330
1F
100
AcDbEntity
  8
D-2
  6
Continuous
 62
     3
370
     9
100
AcDbLine
 10
438.9382304059228
 20
-470.6834542062581
 30
0.0
 11
438.9382304059228
 21
-471.4334443086651
 31
0.0
  0
LINE
  5
475
330
1F
100
AcDbEntity
  8
D-2
  6
Continuous
 62
     3
370
     9
100
AcDbLine
 10
368.9379685321109
 20
-495.1834608046533
 30
0.0
 11
368.9379685321109
 21
-477.683526788606
 31
0.0
  0
LINE
  5
476
330
1F
100
AcDbEntity
  8
D-2
  6
Continuous
 62
     3
370
     9
100
AcDbLine
 10
446.4381314299942
 20
-497.6833453327361
 30
0.0
 11
371.4381314299942
 21
-497.6833453327361
 31
0.0
  0
LINE
  5
477
330
1F
100
AcDbEntity
  8
D-2
  6
Continuous
 62
     3
370
     9
100
AcDbLine
 10
448.938015958077
 20
-495.1834608046533
 30
0.0
 11
448.938015958077
 21
-477.683526788606
 31
0.0
  0
LINE
  5
478
330
1F
100
AcDbEntity
  8
D-2
  6
Continuous
 62
     3
370
     9
100
AcDbLine
 10
328.9378674941833
 20
-471.4334443086651
 30
0.0
 11
328.9378674941833
 21
-482.6835432845942
 31
0.0
  0
LINE
  5
479
330
1F
100
AcDbEntity
  8
D-2
  6
Continuous
 62
     3
370
     9
100
AcDbLine
 10
488.9379004861598
 20
-471.4334443086651
 30
0.0
 11
488.9379004861598
 21
-482.6835432845942
 31
0.0
  0
LINE
  5
47A
330
1F
100
AcDbEntity
  8
D-2
  6
Continuous
 62
     3
370
     9
100
AcDbLine
 10
328.9378674941833
 20
-482.6835432845942
 30
0.0
 11
368.3129664701124
 21
-482.6835432845942
 31
0.0
  0
LINE
  5
47B
330
1F
100
AcDbEntity
  8
D-2
  6
Continuous
 62
     3
370
     9
100
AcDbLine
 10
449.563048950053
 20
-482.6835432845942
 30
0.0
 11
488.9379004861598
 21
-482.6835432845942
 31
0.0
  0
LINE
  5
47C
330
1F
100
AcDbEntity
  8
D-2
  6
Continuous
 62
     3
370
     9
100
AcDbLine
 10
449.563048950053
 20
-477.683526788606
 30
0.0
 11
449.563048950053
 21
-482.6835432845942
 31
0.0
  0
LINE
  5
47D
330
1F
100
AcDbEntity
  8
D-2
  6
Continuous
 62
     3
370
     9
100
AcDbLine
 10
368.3129664701124
 20
-477.683526788606
 30
0.0
 11
368.3129664701124
 21
-482.6835432845942
 31
0.0
  0
LINE
  5
47E
330
1F
100
AcDbEntity
  8
D-2
  6
Continuous
 62
     3
370
     9
100
AcDbLine
 10
371.4381314299942
 20
-434.9333486319338
 30
0.0
 11
371.4381314299942
 21
-467.9334080174912
 31
0.0
  0
LINE
  5
47F
330
1F
100
AcDbEntity
  8
D-2
  6
Continuous
 62
     3
370
     9
100
AcDbLine
 10
446.4381314299942
 20
-434.9739287628458
 30
0.0
 11
446.4381314299942
 21
-467.9334080174912
 31
0.0
  0
LINE
  5
480
330
1F
100
AcDbEntity
  8
D-0
  6
Continuous
 62
     4
370
     9
100
AcDbLine
 10
546.8090024841536
 20
-374.8640531096049
 30
0.0
 11
523.9382633978994
 21
-371.4335474085913
 31
0.0
  0
LINE
  5
481
330
1F
100
AcDbEntity
  8
D-0
  6
Continuous
 62
     4
370
     9
100
AcDbLine
 10
548.9380984380176
 20
-377.3364099574194
 30
0.0
 11
548.9380984380176
 21
-377.6834443086651
 31
0.0
  0
LINE
  5
482
330
1F
100
AcDbEntity
  8
D-D
  6
Continuous
 62
     7
370
     9
100
AcDbLine
 10
268.9381644219703
 20
-377.6834443086651
 30
0.0
 11
217.6677671325912
 21
-377.6834443086651
 31
0.0
  0
LINE
  5
483
330
1F
100
AcDbEntity
  8
D-3
  6
Continuous
 62
     3
370
     9
100
AcDbLine
 10
313.938312885864
 20
-428.1834067802921
 30
0.0
 11
313.938312885864
 21
-420.1834298746755
 31
0.0
  0
LINE
  5
484
330
1F
100
AcDbEntity
  8
D-3
  6
Continuous
 62
     3
370
     9
100
AcDbLine
 10
503.9384448537692
 20
-420.1834298746755
 30
0.0
 11
503.9384448537692
 21
-428.1834067802921
 31
0.0
  0
LINE
  5
485
330
1F
100
AcDbEntity
  8
D-2
  6
Continuous
 62
     3
370
     9
100
AcDbLine
 10
383.9378015102307
 20
-398.9333288367479
 30
0.0
 11
383.9378015102307
 21
-416.5055771409603
 31
0.0
  0
LINE
  5
486
330
1F
100
AcDbEntity
  8
D-2
  6
Continuous
 62
     3
370
     9
100
AcDbLine
 10
433.9379664701124
 20
-398.9333288367479
 30
0.0
 11
433.9379664701124
 21
-416.4334484326621
 31
0.0
  0
LINE
  5
487
330
1F
100
AcDbEntity
  8
D-D
  6
Continuous
 62
     7
370
     9
100
AcDbLine
 10
548.9380984380176
 20
-377.6834443086651
 30
0.0
 11
600.2084957273968
 21
-377.6834443086651
 31
0.0
  0
LINE
  5
488
330
1F
100
AcDbEntity
  8
D-0
  6
Continuous
 62
     4
370
     9
100
AcDbLine
 10
519.0894944934968
 20
-397.6833865727065
 30
0.0
 11
503.7862075028931
 21
-397.6833865727065
 31
0.0
  0
LINE
  5
489
330
1F
100
AcDbEntity
  8
D-A
  6
Continuous
 62
     2
370
     9
100
AcDbLine
 10
296.3347943740661
 20
-403.9333453327361
 30
0.0
 11
296.3347943740661
 21
-397.6833865727065
 31
0.0
  0
LINE
  5
48A
330
1F
100
AcDbEntity
  8
D-A
  6
Continuous
 62
     2
370
     9
100
AcDbLine
 10
316.5420293495202
 20
-403.9333453327361
 30
0.0
 11
316.5420293495202
 21
-397.6833865727065
 31
0.0
  0
LINE
  5
48B
330
1F
100
AcDbEntity
  8
D-A
  6
Continuous
 62
     2
370
     9
100
AcDbLine
 10
311.4902360706452
 20
-403.9333453327361
 30
0.0
 11
311.4902360706452
 21
-397.6833865727065
 31
0.0
  0
LINE
  5
48C
330
1F
100
AcDbEntity
  8
D-A
  6
Continuous
 62
     2
370
     9
100
AcDbLine
 10
301.3865876529405
 20
-403.9333453327361
 30
0.0
 11
301.3865876529405
 21
-397.6833865727065
 31
0.0
  0
LINE
  5
48D
330
1F
100
AcDbEntity
  8
D-A
  6
Continuous
 62
     2
370
     9
100
AcDbLine
 10
298.8606910135036
 20
-405.1833494567331
 30
0.0
 11
314.0161327100827
 21
-405.1833494567331
 31
0.0
  0
LINE
  5
48E
330
1F
100
AcDbEntity
  8
D-A
  6
Continuous
 62
     2
370
     9
100
AcDbLine
 10
316.5420293495202
 20
-397.6833865727065
 30
0.0
 11
313.9386531156202
 21
-397.6833865727065
 31
0.0
  0
LINE
  5
48F
330
1F
100
AcDbEntity
  8
D-A
  6
Continuous
 62
     2
370
     9
100
AcDbLine
 10
298.9381396779879
 20
-397.6833865727065
 30
0.0
 11
296.3347943740661
 21
-397.6833865727065
 31
0.0
  0
LINE
  5
490
330
1F
100
AcDbEntity
  8
D-0
  6
Continuous
 62
     4
370
     9
100
AcDbLine
 10
314.0900553570947
 20
-397.6833865727065
 30
0.0
 11
298.7867683664911
 21
-397.6833865727065
 31
0.0
  0
LINE
  5
491
330
1F
100
AcDbEntity
  8
D-0
  6
Continuous
 62
     4
370
     9
100
AcDbLine
 10
295.3346116809968
 20
-380.0275036084435
 30
0.0
 11
296.2916470549942
 21
-395.3392654129726
 31
0.0
  0
LINE
  5
492
330
1F
100
AcDbEntity
  8
D-0
  6
Continuous
 62
     4
370
     9
100
AcDbLine
 10
522.5416511789911
 20
-380.0275036084435
 30
0.0
 11
521.5846158049942
 21
-395.3392654129726
 31
0.0
  0
LINE
  5
493
330
1F
100
AcDbEntity
  8
D-A
  6
Continuous
 62
     2
370
     9
100
AcDbLine
 10
296.3350727438666
 20
-436.9333737883156
 30
0.0
 11
296.3350727438666
 21
-430.6834150282861
 31
0.0
  0
LINE
  5
494
330
1F
100
AcDbEntity
  8
D-A
  6
Continuous
 62
     2
370
     9
100
AcDbLine
 10
316.542245859365
 20
-436.9333737883156
 30
0.0
 11
316.542245859365
 21
-430.6834150282861
 31
0.0
  0
LINE
  5
495
330
1F
100
AcDbEntity
  8
D-A
  6
Continuous
 62
     2
370
     9
100
AcDbLine
 10
311.4905144404457
 20
-436.9333737883156
 30
0.0
 11
311.4905144404457
 21
-430.6834150282861
 31
0.0
  0
LINE
  5
496
330
1F
100
AcDbEntity
  8
D-A
  6
Continuous
 62
     2
370
     9
100
AcDbLine
 10
301.3868041627853
 20
-436.9333737883156
 30
0.0
 11
301.3868041627853
 21
-430.6834150282861
 31
0.0
  0
LINE
  5
497
330
1F
100
AcDbEntity
  8
D-A
  6
Continuous
 62
     2
370
     9
100
AcDbLine
 10
298.0892045765046
 20
-438.1833779123128
 30
0.0
 11
314.7876191470812
 21
-438.1833779123128
 31
0.0
  0
LINE
  5
498
330
1F
100
AcDbEntity
  8
D-A
  6
Continuous
 62
     2
370
     9
100
AcDbLine
 10
296.9389496310077
 20
-428.1837779400261
 30
0.0
 11
296.9389496310077
 21
-430.6834768882418
 31
0.0
  0
LINE
  5
499
330
1F
100
AcDbEntity
  8
D-A
  6
Continuous
 62
     2
370
     9
100
AcDbLine
 10
315.9384926921354
 20
-428.1837779400261
 30
0.0
 11
315.9384926921354
 21
-430.6834768882418
 31
0.0
  0
LINE
  5
49A
330
1F
100
AcDbEntity
  8
D-A
  6
Continuous
 62
     2
370
     9
100
AcDbLine
 10
303.9387747735327
 20
-428.1834067802921
 30
0.0
 11
303.9387747735327
 21
-430.6831057285078
 31
0.0
  0
LINE
  5
49B
330
1F
100
AcDbEntity
  8
D-A
  6
Continuous
 62
     2
370
     9
100
AcDbLine
 10
302.6887087895801
 20
-428.1834067802921
 30
0.0
 11
302.6887087895801
 21
-430.6831057285078
 31
0.0
  0
LINE
  5
49C
330
1F
100
AcDbEntity
  8
D-A
  6
Continuous
 62
     2
370
     9
100
AcDbLine
 10
296.3350727438666
 20
-430.6834150282861
 30
0.0
 11
316.542245859365
 21
-430.6834150282861
 31
0.0
  0
LINE
  5
49D
330
1F
100
AcDbEntity
  8
D-A
  6
Continuous
 62
     2
370
     9
100
AcDbLine
 10
521.5414375559442
 20
-403.9333453327361
 30
0.0
 11
521.5414375559442
 21
-397.6833865727065
 31
0.0
  0
LINE
  5
49E
330
1F
100
AcDbEntity
  8
D-A
  6
Continuous
 62
     2
370
     9
100
AcDbLine
 10
501.3342644404457
 20
-403.9333453327361
 30
0.0
 11
501.3342644404457
 21
-397.6833865727065
 31
0.0
  0
LINE
  5
49F
330
1F
100
AcDbEntity
  8
D-A
  6
Continuous
 62
     2
370
     9
100
AcDbLine
 10
506.385995859365
 20
-403.9333453327361
 30
0.0
 11
506.385995859365
 21
-397.6833865727065
 31
0.0
  0
LINE
  5
4A0
330
1F
100
AcDbEntity
  8
D-A
  6
Continuous
 62
     2
370
     9
100
AcDbLine
 10
516.4897061370255
 20
-403.9333453327361
 30
0.0
 11
516.4897061370255
 21
-397.6833865727065
 31
0.0
  0
LINE
  5
4A1
330
1F
100
AcDbEntity
  8
D-A
  6
Continuous
 62
     2
370
     9
100
AcDbLine
 10
519.0155718464848
 20
-405.1833494567331
 30
0.0
 11
503.8601301499051
 21
-405.1833494567331
 31
0.0
  0
LINE
  5
4A2
330
1F
100
AcDbEntity
  8
D-A
  6
Continuous
 62
     2
370
     9
100
AcDbLine
 10
501.3342644404457
 20
-397.6833865727065
 30
0.0
 11
503.93757881439
 21
-397.6833865727065
 31
0.0
  0
LINE
  5
4A3
330
1F
100
AcDbEntity
  8
D-A
  6
Continuous
 62
     2
370
     9
100
AcDbLine
 10
518.9381231819999
 20
-397.6833865727065
 30
0.0
 11
521.5414375559442
 21
-397.6833865727065
 31
0.0
  0
LINE
  5
4A4
330
1F
100
AcDbEntity
  8
D-A
  6
Continuous
 62
     2
370
     9
100
AcDbLine
 10
520.9373132289807
 20
-428.1837779400261
 30
0.0
 11
520.9373132289807
 21
-430.6834768882418
 31
0.0
  0
LINE
  5
4A5
330
1F
100
AcDbEntity
  8
D-A
  6
Continuous
 62
     2
370
     9
100
AcDbLine
 10
501.937770167853
 20
-428.1837779400261
 30
0.0
 11
501.937770167853
 21
-430.6834768882418
 31
0.0
  0
LINE
  5
4A6
330
1F
100
AcDbEntity
  8
D-A
  6
Continuous
 62
     2
370
     9
100
AcDbLine
 10
508.9382139099348
 20
-428.1834067802921
 30
0.0
 11
508.9382139099348
 21
-430.6831057285078
 31
0.0
  0
LINE
  5
4A7
330
1F
100
AcDbEntity
  8
D-A
  6
Continuous
 62
     2
370
     9
100
AcDbLine
 10
507.6881479259822
 20
-428.1834067802921
 30
0.0
 11
507.6881479259822
 21
-430.6831057285078
 31
0.0
  0
LINE
  5
4A8
330
1F
100
AcDbEntity
  8
D-D
  6
Continuous
 62
     7
370
     9
100
AcDbLine
 10
217.6677671325912
 20
-407.6834504946607
 30
0.0
 11
288.9381066860119
 21
-407.6834504946607
 31
0.0
  0
LINE
  5
4A9
330
1F
100
AcDbEntity
  8
D-D
  6
Continuous
 62
     7
370
     9
100
AcDbLine
 10
217.6677671325912
 20
-400.1834566806563
 30
0.0
 11
288.9381066860119
 21
-400.1834566806563
 31
0.0
  0
LINE
  5
4AA
330
1F
100
AcDbEntity
  8
D-D
  6
Continuous
 62
     7
370
     9
100
AcDbLine
 10
217.6677671325912
 20
-392.6834628666518
 30
0.0
 11
288.9381066860119
 21
-392.6834628666518
 31
0.0
  0
LINE
  5
4AB
330
1F
100
AcDbEntity
  8
D-D
  6
Continuous
 62
     7
370
     9
100
AcDbLine
 10
600.2084957273968
 20
-407.6834504946607
 30
0.0
 11
528.9381561739765
 21
-407.6834504946607
 31
0.0
  0
LINE
  5
4AC
330
1F
100
AcDbEntity
  8
D-D
  6
Continuous
 62
     7
370
     9
100
AcDbLine
 10
600.2084957273968
 20
-400.1834566806563
 30
0.0
 11
528.9381561739765
 21
-400.1834566806563
 31
0.0
  0
LINE
  5
4AD
330
1F
100
AcDbEntity
  8
D-D
  6
Continuous
 62
     7
370
     9
100
AcDbLine
 10
600.2084957273968
 20
-392.6834628666518
 30
0.0
 11
528.9381561739765
 21
-392.6834628666518
 31
0.0
  0
LINE
  5
4AE
330
1F
100
AcDbEntity
  8
D-D
  6
Continuous
 62
     7
370
     9
100
AcDbLine
 10
600.2084957273968
 20
-385.1834381226695
 30
0.0
 11
528.9381561739765
 21
-385.1834381226695
 31
0.0
  0
LINE
  5
4AF
330
1F
100
AcDbEntity
  8
D-2
  6
JWW_CENTER1
 62
     3
370
     9
100
AcDbLine
 10
408.9381314299942
 20
-366.5954802765177
 30
0.0
 11
408.9381314299942
 21
-501.0083798093513
 31
0.0
  0
LINE
  5
4B0
330
1F
100
AcDbEntity
  8
D-5
  6
JWW_PHANTOM2
 62
     7
370
     9
100
AcDbLine
 10
488.063138853189
 20
-298.933246356807
 30
0.0
 11
329.8130930768212
 21
-298.933246356807
 31
0.0
  0
LINE
  5
4B1
330
1F
100
AcDbEntity
  8
D-5
  6
JWW_PHANTOM2
 62
     7
370
     9
100
AcDbLine
 10
383.9378015102307
 20
-325.1832711007893
 30
0.0
 11
383.9378015102307
 21
-342.7555194050017
 31
0.0
  0
LINE
  5
4B2
330
1F
100
AcDbEntity
  8
D-5
  6
JWW_PHANTOM2
 62
     7
370
     9
100
AcDbLine
 10
433.9379664701124
 20
-325.1832711007893
 30
0.0
 11
433.9379664701124
 21
-342.6833906967036
 31
0.0
  0
LINE
  5
4B3
330
1F
100
AcDbEntity
  8
D-5
  6
JWW_PHANTOM2
 62
     7
370
     9
100
AcDbLine
 10
327.3131157588051
 20
-310.1832834727805
 30
0.0
 11
327.3131157588051
 21
-301.4333164647568
 31
0.0
  0
LINE
  5
4B4
330
1F
100
AcDbEntity
  8
D-5
  6
JWW_PHANTOM2
 62
     7
370
     9
100
AcDbLine
 10
376.4377767662484
 20
-317.683246356807
 30
0.0
 11
332.0631252439983
 21
-317.683246356807
 31
0.0
  0
LINE
  5
4B5
330
1F
100
AcDbEntity
  8
D-5
  6
JWW_PHANTOM2
 62
     7
370
     9
100
AcDbLine
 10
332.0631252439983
 20
-312.6832917207745
 30
0.0
 11
332.0631252439983
 21
-317.683246356807
 31
0.0
  0
LINE
  5
4B6
330
1F
100
AcDbEntity
  8
D-5
  6
JWW_PHANTOM2
 62
     7
370
     9
100
AcDbLine
 10
490.5631471011827
 20
-310.1832834727805
 30
0.0
 11
490.5631471011827
 21
-301.4333164647568
 31
0.0
  0
LINE
  5
4B7
330
1F
100
AcDbEntity
  8
D-5
  6
JWW_PHANTOM2
 62
     7
370
     9
100
AcDbLine
 10
441.4379602841166
 20
-317.683246356807
 30
0.0
 11
485.8131376159895
 21
-317.683246356807
 31
0.0
  0
LINE
  5
4B8
330
1F
100
AcDbEntity
  8
D-5
  6
JWW_PHANTOM2
 62
     7
370
     9
100
AcDbLine
 10
485.8131376159895
 20
-312.6832917207745
 30
0.0
 11
485.8131376159895
 21
-317.683246356807
 31
0.0
  0
LINE
  5
4B9
330
1F
100
AcDbEntity
  8
D-A
  6
Continuous
 62
     2
370
     9
100
AcDbLine
 10
296.3347943740661
 20
-445.1704908339502
 30
0.0
 11
296.3347943740661
 21
-439.1963037562476
 31
0.0
  0
LINE
  5
4BA
330
1F
100
AcDbEntity
  8
D-A
  6
Continuous
 62
     2
370
     9
100
AcDbLine
 10
298.0892045765046
 20
-438.1833779123128
 30
0.0
 11
296.3347943740661
 21
-439.1963037562476
 31
0.0
  0
LINE
  5
4BB
330
1F
100
AcDbEntity
  8
D-A
  6
Continuous
 62
     2
370
     9
100
AcDbLine
 10
299.4383702094228
 20
-447.6839845522779
 30
0.0
 11
299.4383702094228
 21
-448.8759640378669
 31
0.0
  0
LINE
  5
4BC
330
1F
100
AcDbEntity
  8
D-A
  6
Continuous
 62
     2
370
     9
100
AcDbLine
 10
298.813399077402
 20
-446.6014971882049
 30
0.0
 11
296.3347943740661
 21
-445.1704908339502
 31
0.0
  0
LINE
  5
4BD
330
1F
100
AcDbEntity
  8
D-A
  6
Continuous
 62
     2
370
     9
100
AcDbLine
 10
314.0633937162062
 20
-446.6014971882049
 30
0.0
 11
316.5419984195421
 21
-445.1704908339502
 31
0.0
  0
LINE
  5
4BE
330
1F
100
AcDbEntity
  8
D-A
  6
Continuous
 62
     2
370
     9
100
AcDbLine
 10
313.4383916542077
 20
-448.8759640378669
 30
0.0
 11
313.4383916542077
 21
-447.6839845522779
 31
0.0
  0
LINE
  5
4BF
330
1F
100
AcDbEntity
  8
D-A
  6
Continuous
 62
     2
370
     9
100
AcDbLine
 10
316.5419984195421
 20
-445.1704908339502
 30
0.0
 11
316.5419984195421
 21
-439.1963037562476
 31
0.0
  0
LINE
  5
4C0
330
1F
100
AcDbEntity
  8
D-A
  6
Continuous
 62
     2
370
     9
100
AcDbLine
 10
301.3865876529405
 20
-445.1704908339502
 30
0.0
 11
301.3865876529405
 21
-439.1963037562476
 31
0.0
  0
LINE
  5
4C1
330
1F
100
AcDbEntity
  8
D-A
  6
Continuous
 62
     2
370
     9
100
AcDbLine
 10
311.4902051406676
 20
-445.1704908339502
 30
0.0
 11
311.4902051406676
 21
-439.1963037562476
 31
0.0
  0
LINE
  5
4C2
330
1F
100
AcDbEntity
  8
D-A
  6
Continuous
 62
     2
370
     9
100
AcDbLine
 10
314.7876191470812
 20
-438.1833779123128
 30
0.0
 11
316.5419984195421
 21
-439.1963037562476
 31
0.0
  0
LINE
  5
4C3
330
1F
100
AcDbEntity
  8
D-A
  6
Continuous
 62
     2
370
     9
100
AcDbLine
 10
298.0892664364603
 20
-446.1833857479072
 30
0.0
 11
314.7875572871254
 21
-446.1833857479072
 31
0.0
  0
LINE
  5
4C4
330
1F
100
AcDbEntity
  8
D-A
  6
JWW_CENTER1
 62
     2
370
     9
100
AcDbLine
 10
306.4384118617932
 20
-379.1356686277109
 30
0.0
 11
306.4384118617932
 21
-457.3032076572188
 31
0.0
  0
LINE
  5
4C5
330
1F
100
AcDbEntity
  8
D-A
  6
JWW_CENTER1
 62
     2
370
     9
100
AcDbLine
 10
511.4378509981952
 20
-379.1356686277109
 30
0.0
 11
511.4378509981952
 21
-457.3032076572188
 31
0.0
  0
LINE
  5
4C6
330
1F
100
AcDbEntity
  8
D-A
  6
Continuous
 62
     2
370
     9
100
AcDbLine
 10
301.4386118756494
 20
-405.1833494567331
 30
0.0
 11
301.4386118756494
 21
-420.1833989446977
 31
0.0
  0
LINE
  5
4C7
330
1F
100
AcDbEntity
  8
D-A
  6
Continuous
 62
     2
370
     9
100
AcDbLine
 10
309.9385718728786
 20
-405.1833494567331
 30
0.0
 11
309.9385718728786
 21
-420.1833989446977
 31
0.0
  0
LINE
  5
4C8
330
1F
100
AcDbEntity
  8
D-A
  6
Continuous
 62
     2
370
     9
100
AcDbLine
 10
311.4387685875374
 20
-405.1833494567331
 30
0.0
 11
311.4387685875374
 21
-420.1833989446977
 31
0.0
  0
LINE
  5
4C9
330
1F
100
AcDbEntity
  8
D-A
  6
Continuous
 62
     2
370
     9
100
AcDbLine
 10
302.9388704502645
 20
-405.1833494567331
 30
0.0
 11
302.9388704502645
 21
-420.1833989446977
 31
0.0
  0
LINE
  5
4CA
330
1F
100
AcDbEntity
  8
D-D
  6
Continuous
 62
     7
370
     9
100
AcDbLine
 10
217.6677671325912
 20
-415.1834443086651
 30
0.0
 11
301.4386118756494
 21
-415.1834443086651
 31
0.0
  0
LINE
  5
4CB
330
1F
100
AcDbEntity
  8
D-D
  6
Continuous
 62
     7
370
     9
100
AcDbLine
 10
311.4387685875374
 20
-415.1834443086651
 30
0.0
 11
383.9378015102307
 21
-415.1834443086651
 31
0.0
  0
LINE
  5
4CC
330
1F
100
AcDbEntity
  8
D-A
  6
Continuous
 62
     2
370
     9
100
AcDbLine
 10
507.9376909871098
 20
-405.1833494567331
 30
0.0
 11
507.9376909871098
 21
-420.1833989446977
 31
0.0
  0
LINE
  5
4CD
330
1F
100
AcDbEntity
  8
D-A
  6
Continuous
 62
     2
370
     9
100
AcDbLine
 10
506.4374633424728
 20
-405.1833494567331
 30
0.0
 11
506.4374633424728
 21
-420.1833989446977
 31
0.0
  0
LINE
  5
4CE
330
1F
100
AcDbEntity
  8
D-A
  6
Continuous
 62
     2
370
     9
100
AcDbLine
 10
514.9373924097239
 20
-405.1833494567331
 30
0.0
 11
514.9373924097239
 21
-420.1833989446977
 31
0.0
  0
LINE
  5
4CF
330
1F
100
AcDbEntity
  8
D-A
  6
Continuous
 62
     2
370
     9
100
AcDbLine
 10
516.4376200543609
 20
-405.1833494567331
 30
0.0
 11
516.4376200543609
 21
-420.1833989446977
 31
0.0
  0
LINE
  5
4D0
330
1F
100
AcDbEntity
  8
D-D
  6
Continuous
 62
     7
370
     9
100
AcDbLine
 10
433.9379664701124
 20
-415.1834443086651
 30
0.0
 11
506.4374633424728
 21
-415.1834443086651
 31
0.0
  0
LINE
  5
4D1
330
1F
100
AcDbEntity
  8
D-D
  6
Continuous
 62
     7
370
     9
100
AcDbLine
 10
516.4376200543609
 20
-415.1834443086651
 30
0.0
 11
600.2084957273968
 21
-415.1834443086651
 31
0.0
  0
LINE
  5
4D2
330
1F
100
AcDbEntity
  8
D-D
  6
Continuous
 62
     7
370
     9
100
AcDbLine
 10
288.9381066860119
 20
-377.6834443086651
 30
0.0
 11
288.9381066860119
 21
-420.1833989446977
 31
0.0
  0
LINE
  5
4D3
330
1F
100
AcDbEntity
  8
D-D
  6
Continuous
 62
     7
370
     9
100
AcDbLine
 10
528.9381561739765
 20
-377.6834443086651
 30
0.0
 11
528.9381561739765
 21
-420.1833989446977
 31
0.0
  0
LINE
  5
4D4
330
1F
100
AcDbEntity
  8
D-A
  6
Continuous
 62
     2
370
     9
100
AcDbLine
 10
521.5411901161218
 20
-436.9333737883156
 30
0.0
 11
521.5411901161218
 21
-430.6834150282861
 31
0.0
  0
LINE
  5
4D5
330
1F
100
AcDbEntity
  8
D-A
  6
Continuous
 62
     2
370
     9
100
AcDbLine
 10
501.3340170006234
 20
-436.9333737883156
 30
0.0
 11
501.3340170006234
 21
-430.6834150282861
 31
0.0
  0
LINE
  5
4D6
330
1F
100
AcDbEntity
  8
D-A
  6
Continuous
 62
     2
370
     9
100
AcDbLine
 10
506.3857484195421
 20
-436.9333737883156
 30
0.0
 11
506.3857484195421
 21
-430.6834150282861
 31
0.0
  0
LINE
  5
4D7
330
1F
100
AcDbEntity
  8
D-A
  6
Continuous
 62
     2
370
     9
100
AcDbLine
 10
516.4894586972025
 20
-436.9333737883156
 30
0.0
 11
516.4894586972025
 21
-430.6834150282861
 31
0.0
  0
LINE
  5
4D8
330
1F
100
AcDbEntity
  8
D-A
  6
Continuous
 62
     2
370
     9
100
AcDbLine
 10
519.7870892134608
 20
-438.1833779123128
 30
0.0
 11
503.0886127829291
 21
-438.1833779123128
 31
0.0
  0
LINE
  5
4D9
330
1F
100
AcDbEntity
  8
D-A
  6
Continuous
 62
     2
370
     9
100
AcDbLine
 10
521.5411901161218
 20
-430.6834150282861
 30
0.0
 11
501.3340170006234
 21
-430.6834150282861
 31
0.0
  0
LINE
  5
4DA
330
1F
100
AcDbEntity
  8
D-A
  6
Continuous
 62
     2
370
     9
100
AcDbLine
 10
521.5414375559442
 20
-445.1704908339502
 30
0.0
 11
521.5414375559442
 21
-439.1963037562476
 31
0.0
  0
LINE
  5
4DB
330
1F
100
AcDbEntity
  8
D-A
  6
Continuous
 62
     2
370
     9
100
AcDbLine
 10
519.7870892134608
 20
-438.1833779123128
 30
0.0
 11
521.5414375559442
 21
-439.1963037562476
 31
0.0
  0
LINE
  5
4DC
330
1F
100
AcDbEntity
  8
D-A
  6
Continuous
 62
     2
370
     9
100
AcDbLine
 10
518.4379235805432
 20
-447.6839845522779
 30
0.0
 11
518.4379235805432
 21
-448.8759640378669
 31
0.0
  0
LINE
  5
4DD
330
1F
100
AcDbEntity
  8
D-A
  6
Continuous
 62
     2
370
     9
100
AcDbLine
 10
519.0628328526083
 20
-446.6014971882049
 30
0.0
 11
521.5414375559442
 21
-445.1704908339502
 31
0.0
  0
LINE
  5
4DE
330
1F
100
AcDbEntity
  8
D-A
  6
Continuous
 62
     2
370
     9
100
AcDbLine
 10
503.8128691437822
 20
-446.6014971882049
 30
0.0
 11
501.3342644404457
 21
-445.1704908339502
 31
0.0
  0
LINE
  5
4DF
330
1F
100
AcDbEntity
  8
D-A
  6
Continuous
 62
     2
370
     9
100
AcDbLine
 10
504.4379021357582
 20
-448.8759640378669
 30
0.0
 11
504.4379021357582
 21
-447.6839845522779
 31
0.0
  0
LINE
  5
4E0
330
1F
100
AcDbEntity
  8
D-A
  6
Continuous
 62
     2
370
     9
100
AcDbLine
 10
501.3342644404457
 20
-445.1704908339502
 30
0.0
 11
501.3342644404457
 21
-439.1963037562476
 31
0.0
  0
LINE
  5
4E1
330
1F
100
AcDbEntity
  8
D-A
  6
Continuous
 62
     2
370
     9
100
AcDbLine
 10
516.4897061370255
 20
-445.1704908339502
 30
0.0
 11
516.4897061370255
 21
-439.1963037562476
 31
0.0
  0
LINE
  5
4E2
330
1F
100
AcDbEntity
  8
D-A
  6
Continuous
 62
     2
370
     9
100
AcDbLine
 10
506.3860577193202
 20
-445.1704908339502
 30
0.0
 11
506.3860577193202
 21
-439.1963037562476
 31
0.0
  0
LINE
  5
4E3
330
1F
100
AcDbEntity
  8
D-A
  6
Continuous
 62
     2
370
     9
100
AcDbLine
 10
503.0886127829291
 20
-438.1833779123128
 30
0.0
 11
501.3342644404457
 21
-439.1963037562476
 31
0.0
  0
LINE
  5
4E4
330
1F
100
AcDbEntity
  8
D-A
  6
Continuous
 62
     2
370
     9
100
AcDbLine
 10
519.7869654935499
 20
-446.1833857479072
 30
0.0
 11
503.0887365028406
 21
-446.1833857479072
 31
0.0
  0
LINE
  5
4E5
330
1F
100
AcDbEntity
  8
D-5
  6
JWW_PHANTOM2
 62
     7
370
     9
100
AcDbLine
 10
488.063138853189
 20
-312.6832917207745
 30
0.0
 11
329.8130930768212
 21
-312.6832917207745
 31
0.0
  0
LINE
  5
4E6
330
1F
100
AcDbEntity
  8
D-0
  6
Continuous
 62
     4
370
     9
100
AcDbLine
 10
325.8520454661004
 20
-397.6833865727065
 30
0.0
 11
492.0242173938874
 21
-397.6833865727065
 31
0.0
  0
LINE
  5
4E7
330
1F
100
AcDbEntity
  8
D-0
  6
Continuous
 62
     4
370
     9
100
AcDbLine
 10
548.9380984380176
 20
-377.6834443086651
 30
0.0
 11
268.9381644219703
 21
-377.6834443086651
 31
0.0
  0
LINE
  5
4E8
330
1F
100
AcDbEntity
  8
D-D
  6
Continuous
 62
     7
370
     9
100
AcDbLine
 10
217.6677671325912
 20
-385.1834381226695
 30
0.0
 11
288.9381066860119
 21
-385.1834381226695
 31
0.0
  0
LINE
  5
4E9
330
1F
100
AcDbEntity
  8
D-5
  6
JWW_PHANTOM2
 62
     7
370
     9
100
AcDbLine
 10
371.4381314299942
 20
-369.7318418883737
 30
0.0
 11
371.4381314299942
 21
-361.2238710268873
 31
0.0
  0
LINE
  5
4EA
330
1F
100
AcDbEntity
  8
D-5
  6
JWW_PHANTOM2
 62
     7
370
     9
100
AcDbLine
 10
446.4381314299942
 20
-369.7318418883737
 30
0.0
 11
446.4381314299942
 21
-361.2238710268873
 31
0.0
  0
LINE
  5
4EB
330
1F
100
AcDbEntity
  8
D-0
  6
Continuous
 62
     4
370
     9
100
AcDbLine
 10
316.7804066886509
 20
-392.2155850920267
 30
0.0
 11
316.5851766685921
 21
-395.3392654129726
 31
0.0
  0
LINE
  5
4EC
330
1F
100
AcDbEntity
  8
D-0
  6
Continuous
 62
     4
370
     9
100
AcDbLine
 10
493.61043037689
 20
-385.1834381226695
 30
0.0
 11
324.2658015531202
 21
-385.1834381226695
 31
0.0
  0
LINE
  5
4ED
330
1F
100
AcDbEntity
  8
D-0
  6
Continuous
 62
     4
370
     9
100
AcDbLine
 10
501.0958561713369
 20
-392.2155850920267
 30
0.0
 11
501.2910861913963
 21
-395.3392654129726
 31
0.0
  0
LINE
  5
4EE
330
1F
100
AcDbEntity
  8
D-0
  6
Continuous
 62
     4
370
     9
100
AcDbLine
 10
497.8375685868775
 20
-386.488126447469
 30
0.0
 11
496.9856332775447
 21
-393.3035161321977
 31
0.0
  0
LINE
  5
4EF
330
1F
100
AcDbEntity
  8
D-0
  6
Continuous
 62
     4
370
     9
100
AcDbLine
 10
320.0387252030885
 20
-386.488126447469
 30
0.0
 11
320.8906605124213
 21
-393.3035161321977
 31
0.0
  0
ARC
  5
4F0
330
1F
100
AcDbEntity
  8
D-0
  6
Continuous
 62
     4
370
     9
100
AcDbCircle
 10
271.4380489500531
 20
-377.3364099574194
 30
0.0
 40
2.500000032218727
100
AcDbArc
 50
98.53070068359375
 51
180.0
  0
ARC
  5
4F1
330
1F
100
AcDbEntity
  8
D-2
  6
Continuous
 62
     3
370
     9
100
AcDbCircle
 10
371.4381314299942
 20
-495.1834608046533
 30
0.0
 40
2.500000032218727
100
AcDbArc
 50
180.0
 51
270.0
  0
ARC
  5
4F2
330
1F
100
AcDbEntity
  8
D-2
  6
Continuous
 62
     3
370
     9
100
AcDbCircle
 10
446.4381314299942
 20
-495.1834608046533
 30
0.0
 40
2.500000032218727
100
AcDbArc
 50
270.0
 51
0.0
  0
ARC
  5
4F3
330
1F
100
AcDbEntity
  8
D-2
  6
Continuous
 62
     3
370
     9
100
AcDbCircle
 10
383.938048950053
 20
-434.9739287628458
 30
0.0
 40
12.50000064437454
100
AcDbArc
 50
112.0243377685547
 51
180.0
  0
ARC
  5
4F4
330
1F
100
AcDbEntity
  8
D-2
  6
Continuous
 62
     3
370
     9
100
AcDbCircle
 10
433.9379664701124
 20
-434.9739287628458
 30
0.0
 40
12.50000064437454
100
AcDbArc
 50
0.0
 51
67.9756622314453
  0
ARC
  5
4F5
330
1F
100
AcDbEntity
  8
D-2
  6
Continuous
 62
     3
370
     9
100
AcDbCircle
 10
376.4381169960046
 20
-416.4334484326621
 30
0.0
 40
7.500000096656181
100
AcDbArc
 50
292.0240478515625
 51
359.4492034912109
  0
ARC
  5
4F6
330
1F
100
AcDbEntity
  8
D-2
  6
Continuous
 62
     3
370
     9
100
AcDbCircle
 10
441.4378674941833
 20
-416.4334484326621
 30
0.0
 40
7.500000096656181
100
AcDbArc
 50
180.0
 51
247.9759521484375
  0
ARC
  5
4F7
330
1F
100
AcDbEntity
  8
D-0
  6
Continuous
 62
     4
370
     9
100
AcDbCircle
 10
546.4382139099348
 20
-377.3364099574194
 30
0.0
 40
2.500000032218727
100
AcDbArc
 50
0.0
 51
81.46929931640625
  0
ARC
  5
4F8
330
1F
100
AcDbEntity
  8
D-A
  6
Continuous
 62
     2
370
     9
100
AcDbCircle
 10
306.4384118617932
 20
-394.3500010020774
 30
0.0
 40
10.83333975559956
100
AcDbArc
 50
242.2042083740235
 51
297.7957916259766
  0
ARC
  5
4F9
330
1F
100
AcDbEntity
  8
D-A
  6
Continuous
 62
     2
370
     9
100
AcDbCircle
 10
314.0161327100827
 20
-402.0062839940537
 30
0.0
 40
3.177055072140049
100
AcDbArc
 50
217.3407897949219
 51
322.6592102050781
  0
ARC
  5
4FA
330
1F
100
AcDbEntity
  8
D-A
  6
Continuous
 62
     2
370
     9
100
AcDbCircle
 10
298.8606910135036
 20
-402.0062839940537
 30
0.0
 40
3.177055072140049
100
AcDbArc
 50
217.3407897949219
 51
322.6592102050781
  0
ARC
  5
4FB
330
1F
100
AcDbEntity
  8
D-0
  6
Continuous
 62
     4
370
     9
100
AcDbCircle
 10
298.7867683664911
 20
-395.1833783247125
 30
0.0
 40
2.500000032218727
100
AcDbArc
 50
183.576416015625
 51
270.0
  0
ARC
  5
4FC
330
1F
100
AcDbEntity
  8
D-0
  6
Continuous
 62
     4
370
     9
100
AcDbCircle
 10
314.0900553570947
 20
-395.1833783247125
 30
0.0
 40
2.500000032218727
100
AcDbArc
 50
270.0
 51
356.423583984375
  0
ARC
  5
4FD
330
1F
100
AcDbEntity
  8
D-0
  6
Continuous
 62
     4
370
     9
100
AcDbCircle
 10
292.8394903694999
 20
-380.1834525566593
 30
0.0
 40
2.500000032218727
100
AcDbArc
 50
3.576416015625
 51
90.00000000000001
  0
ARC
  5
4FE
330
1F
100
AcDbEntity
  8
D-0
  6
Continuous
 62
     4
370
     9
100
AcDbCircle
 10
519.0894944934968
 20
-395.1833783247125
 30
0.0
 40
2.500000032218727
100
AcDbArc
 50
270.0
 51
356.423583984375
  0
ARC
  5
4FF
330
1F
100
AcDbEntity
  8
D-0
  6
Continuous
 62
     4
370
     9
100
AcDbCircle
 10
503.7862075028931
 20
-395.1833783247125
 30
0.0
 40
2.500000032218727
100
AcDbArc
 50
183.576416015625
 51
270.0
  0
ARC
  5
500
330
1F
100
AcDbEntity
  8
D-0
  6
Continuous
 62
     4
370
     9
100
AcDbCircle
 10
525.0367724904879
 20
-380.1834525566593
 30
0.0
 40
2.500000032218727
100
AcDbArc
 50
90.0
 51
176.423583984375
  0
ARC
  5
501
330
1F
100
AcDbEntity
  8
D-0
  6
Continuous
 62
     4
370
     9
100
AcDbCircle
 10
492.0242173938874
 20
-392.6833700767184
 30
0.0
 40
5.000000064437454
100
AcDbArc
 50
270.0
 51
352.8752899169922
  0
ARC
  5
502
330
1F
100
AcDbEntity
  8
D-0
  6
Continuous
 62
     4
370
     9
100
AcDbCircle
 10
325.8520454661004
 20
-392.6833700767184
 30
0.0
 40
5.000000064437454
100
AcDbArc
 50
187.1247100830078
 51
270.0
  0
ARC
  5
503
330
1F
100
AcDbEntity
  8
D-A
  6
Continuous
 62
     2
370
     9
100
AcDbCircle
 10
306.4386593016155
 20
-427.3500294576569
 30
0.0
 40
10.83333975559956
100
AcDbArc
 50
242.2042083740235
 51
297.7957916259766
  0
ARC
  5
504
330
1F
100
AcDbEntity
  8
D-A
  6
Continuous
 62
     2
370
     9
100
AcDbCircle
 10
314.0163801499051
 20
-435.0063124496332
 30
0.0
 40
3.177055072140049
100
AcDbArc
 50
217.3407897949219
 51
322.6592102050781
  0
ARC
  5
505
330
1F
100
AcDbEntity
  8
D-A
  6
Continuous
 62
     2
370
     9
100
AcDbCircle
 10
298.860938453326
 20
-435.0063124496332
 30
0.0
 40
3.177055072140049
100
AcDbArc
 50
217.3407897949219
 51
322.6592102050781
  0
ARC
  5
506
330
1F
100
AcDbEntity
  8
D-A
  6
Continuous
 62
     2
370
     9
100
AcDbCircle
 10
511.4378509981952
 20
-394.3500010020774
 30
0.0
 40
10.83333975559956
100
AcDbArc
 50
242.2042083740235
 51
297.7957916259766
  0
ARC
  5
507
330
1F
100
AcDbEntity
  8
D-A
  6
Continuous
 62
     2
370
     9
100
AcDbCircle
 10
503.8601301499051
 20
-402.0062839940537
 30
0.0
 40
3.177055072140049
100
AcDbArc
 50
217.3407897949219
 51
322.6592102050781
  0
ARC
  5
508
330
1F
100
AcDbEntity
  8
D-A
  6
Continuous
 62
     2
370
     9
100
AcDbCircle
 10
519.0155718464848
 20
-402.0062839940537
 30
0.0
 40
3.177055072140049
100
AcDbArc
 50
217.3407897949219
 51
322.6592102050781
  0
ARC
  5
509
330
1F
100
AcDbEntity
  8
D-5
  6
JWW_PHANTOM2
 62
     7
370
     9
100
AcDbCircle
 10
329.8130930768212
 20
-301.4333164647568
 30
0.0
 40
2.500000032218727
100
AcDbArc
 50
90.0
 51
180.0
  0
ARC
  5
50A
330
1F
100
AcDbEntity
  8
D-5
  6
JWW_PHANTOM2
 62
     7
370
     9
100
AcDbCircle
 10
488.063138853189
 20
-301.4333164647568
 30
0.0
 40
2.500000032218727
100
AcDbArc
 50
0.0
 51
90.0
  0
ARC
  5
50B
330
1F
100
AcDbEntity
  8
D-5
  6
JWW_PHANTOM2
 62
     7
370
     9
100
AcDbCircle
 10
376.4377767662484
 20
-325.1832711007893
 30
0.0
 40
7.500000096656181
100
AcDbArc
 50
0.0
 51
90.0
  0
ARC
  5
50C
330
1F
100
AcDbEntity
  8
D-5
  6
JWW_PHANTOM2
 62
     7
370
     9
100
AcDbCircle
 10
441.4379602841166
 20
-325.1832711007893
 30
0.0
 40
7.500000096656181
100
AcDbArc
 50
90.0
 51
180.0
  0
ARC
  5
50D
330
1F
100
AcDbEntity
  8
D-5
  6
JWW_PHANTOM2
 62
     7
370
     9
100
AcDbCircle
 10
329.8130930768212
 20
-310.1832834727805
 30
0.0
 40
2.500000032218727
100
AcDbArc
 50
180.0
 51
270.0
  0
ARC
  5
50E
330
1F
100
AcDbEntity
  8
D-5
  6
JWW_PHANTOM2
 62
     7
370
     9
100
AcDbCircle
 10
488.063138853189
 20
-310.1832834727805
 30
0.0
 40
2.500000032218727
100
AcDbArc
 50
270.0
 51
0.0
  0
ARC
  5
50F
330
1F
100
AcDbEntity
  8
D-5
  6
JWW_PHANTOM2
 62
     7
370
     9
100
AcDbCircle
 10
383.938048950053
 20
-361.2238710268873
 30
0.0
 40
12.50000064437454
100
AcDbArc
 50
112.0243377685547
 51
180.0
  0
ARC
  5
510
330
1F
100
AcDbEntity
  8
D-5
  6
JWW_PHANTOM2
 62
     7
370
     9
100
AcDbCircle
 10
376.4381169960046
 20
-342.6833906967036
 30
0.0
 40
7.500000096656181
100
AcDbArc
 50
292.0240478515625
 51
359.4492034912109
  0
ARC
  5
511
330
1F
100
AcDbEntity
  8
D-5
  6
JWW_PHANTOM2
 62
     7
370
     9
100
AcDbCircle
 10
433.9382139099348
 20
-361.2238710268873
 30
0.0
 40
12.50000064437454
100
AcDbArc
 50
0.0
 51
67.9756622314453
  0
ARC
  5
512
330
1F
100
AcDbEntity
  8
D-5
  6
JWW_PHANTOM2
 62
     7
370
     9
100
AcDbCircle
 10
441.4381458639838
 20
-342.6833906967036
 30
0.0
 40
7.500000096656181
100
AcDbArc
 50
180.5507965087891
 51
247.9759521484375
  0
ARC
  5
513
330
1F
100
AcDbEntity
  8
D-A
  6
Continuous
 62
     2
370
     9
100
AcDbCircle
 10
306.4384118617932
 20
-433.0793129709065
 30
0.0
 40
13.10409210823678
100
AcDbArc
 50
247.3243103027344
 51
292.6756896972656
  0
ARC
  5
514
330
1F
100
AcDbEntity
  8
D-A
  6
Continuous
 62
     2
370
     9
100
AcDbCircle
 10
298.0892664364603
 20
-440.3101541178396
 30
0.0
 40
5.873256277393651
100
AcDbArc
 50
270.0
 51
304.1535186767578
  0
ARC
  5
515
330
1F
100
AcDbEntity
  8
D-A
  6
Continuous
 62
     2
370
     9
100
AcDbCircle
 10
306.4384118617932
 20
-451.2874816192912
 30
0.0
 40
13.10409210823678
100
AcDbArc
 50
67.32431030273438
 51
112.6756896972656
  0
ARC
  5
516
330
1F
100
AcDbEntity
  8
D-A
  6
Continuous
 62
     2
370
     9
100
AcDbCircle
 10
298.0892664364603
 20
-444.0566095423804
 30
0.0
 40
5.873256277393651
100
AcDbArc
 50
55.84648132324219
 51
90.0
  0
ARC
  5
517
330
1F
100
AcDbEntity
  8
D-A
  6
Continuous
 62
     2
370
     9
100
AcDbCircle
 10
306.4384118617932
 20
-446.1833857479072
 30
0.0
 40
7.500000096656181
100
AcDbArc
 50
201.0391845703125
 51
338.9608154296875
  0
ARC
  5
518
330
1F
100
AcDbEntity
  8
D-A
  6
Continuous
 62
     2
370
     9
100
AcDbCircle
 10
298.1883970154036
 20
-447.6839845522779
 30
0.0
 40
1.250000016109364
100
AcDbArc
 50
0.0
 51
59.99960327148438
  0
ARC
  5
519
330
1F
100
AcDbEntity
  8
D-A
  6
Continuous
 62
     2
370
     9
100
AcDbCircle
 10
314.7875572871254
 20
-440.3101541178396
 30
0.0
 40
5.873256277393651
100
AcDbArc
 50
235.8464813232422
 51
270.0
  0
ARC
  5
51A
330
1F
100
AcDbEntity
  8
D-A
  6
Continuous
 62
     2
370
     9
100
AcDbCircle
 10
314.7875572871254
 20
-444.0566095423804
 30
0.0
 40
5.873256277393651
100
AcDbArc
 50
90.0
 51
124.1535186767578
  0
ARC
  5
51B
330
1F
100
AcDbEntity
  8
D-A
  6
Continuous
 62
     2
370
     9
100
AcDbCircle
 10
314.6883957782046
 20
-447.6839845522779
 30
0.0
 40
1.250000016109364
100
AcDbArc
 50
120.0003967285156
 51
180.0
  0
ARC
  5
51C
330
1F
100
AcDbEntity
  8
D-A
  6
Continuous
 62
     2
370
     9
100
AcDbCircle
 10
511.4376035583723
 20
-427.3500294576569
 30
0.0
 40
10.83333975559956
100
AcDbArc
 50
242.2042083740235
 51
297.7957916259766
  0
ARC
  5
51D
330
1F
100
AcDbEntity
  8
D-A
  6
Continuous
 62
     2
370
     9
100
AcDbCircle
 10
503.8598827100827
 20
-435.0063124496332
 30
0.0
 40
3.177055072140049
100
AcDbArc
 50
217.3407897949219
 51
322.6592102050781
  0
ARC
  5
51E
330
1F
100
AcDbEntity
  8
D-A
  6
Continuous
 62
     2
370
     9
100
AcDbCircle
 10
519.0153244066619
 20
-435.0063124496332
 30
0.0
 40
3.177055072140049
100
AcDbArc
 50
217.3407897949219
 51
322.6592102050781
  0
ARC
  5
51F
330
1F
100
AcDbEntity
  8
D-A
  6
Continuous
 62
     2
370
     9
100
AcDbCircle
 10
511.4378509981952
 20
-433.0793129709065
 30
0.0
 40
13.10409210823678
100
AcDbArc
 50
247.3243103027344
 51
292.6756896972656
  0
ARC
  5
520
330
1F
100
AcDbEntity
  8
D-A
  6
Continuous
 62
     2
370
     9
100
AcDbCircle
 10
519.7869654935499
 20
-440.3101541178396
 30
0.0
 40
5.873256277393651
100
AcDbArc
 50
235.8464813232422
 51
270.0
  0
ARC
  5
521
330
1F
100
AcDbEntity
  8
D-A
  6
Continuous
 62
     2
370
     9
100
AcDbCircle
 10
511.4378509981952
 20
-451.2874816192912
 30
0.0
 40
13.10409210823678
100
AcDbArc
 50
67.32431030273438
 51
112.6756896972656
  0
ARC
  5
522
330
1F
100
AcDbEntity
  8
D-A
  6
Continuous
 62
     2
370
     9
100
AcDbCircle
 10
519.7869654935499
 20
-444.0566095423804
 30
0.0
 40
5.873256277393651
100
AcDbArc
 50
90.0
 51
124.1535186767578
  0
ARC
  5
523
330
1F
100
AcDbEntity
  8
D-A
  6
Continuous
 62
     2
370
     9
100
AcDbCircle
 10
511.4378509981952
 20
-446.1833857479072
 30
0.0
 40
7.500000096656181
100
AcDbArc
 50
201.0391845703125
 51
338.9608154296875
  0
ARC
  5
524
330
1F
100
AcDbEntity
  8
D-A
  6
Continuous
 62
     2
370
     9
100
AcDbCircle
 10
519.6878658445843
 20
-447.6839845522779
 30
0.0
 40
1.250000016109364
100
AcDbArc
 50
120.0003967285156
 51
180.0
  0
ARC
  5
525
330
1F
100
AcDbEntity
  8
D-A
  6
Continuous
 62
     2
370
     9
100
AcDbCircle
 10
503.0887365028406
 20
-440.3101541178396
 30
0.0
 40
5.873256277393651
100
AcDbArc
 50
270.0
 51
304.1535186767578
  0
ARC
  5
526
330
1F
100
AcDbEntity
  8
D-A
  6
Continuous
 62
     2
370
     9
100
AcDbCircle
 10
503.0887365028406
 20
-444.0566095423804
 30
0.0
 40
5.873256277393651
100
AcDbArc
 50
55.84648132324219
 51
90.0
  0
ARC
  5
527
330
1F
100
AcDbEntity
  8
D-A
  6
Continuous
 62
     2
370
     9
100
AcDbCircle
 10
503.1878361518056
 20
-447.6839845522779
 30
0.0
 40
1.250000016109364
100
AcDbArc
 50
0.0
 51
59.99960327148438
  0
ARC
  5
528
330
1F
100
AcDbEntity
  8
D-2
  6
Continuous
 62
     3
370
     9
100
AcDbCircle
 10
376.4377767662484
 20
-398.9333288367479
 30
0.0
 40
7.500000096656181
100
AcDbArc
 50
0.0
 51
9.593612670898438
  0
ARC
  5
529
330
1F
100
AcDbEntity
  8
D-2
  6
Continuous
 62
     3
370
     9
100
AcDbCircle
 10
441.4379602841166
 20
-398.9333288367479
 30
0.0
 40
7.500000096656181
100
AcDbArc
 50
170.4063873291016
 51
180.0
  0
ARC
  5
52A
330
1F
100
AcDbEntity
  8
D-0
  6
Continuous
 62
     4
370
     9
100
AcDbCircle
 10
324.2658015531202
 20
-392.683431936674
 30
0.0
 40
7.500000096656181
100
AcDbArc
 50
90.0
 51
176.423583984375
  0
ARC
  5
52B
330
1F
100
AcDbEntity
  8
D-0
  6
Continuous
 62
     4
370
     9
100
AcDbCircle
 10
493.61043037689
 20
-392.683431936674
 30
0.0
 40
7.500000096656181
100
AcDbArc
 50
3.576400756835938
 51
89.99999999999999
  0
TEXT
  5
52C
330
1F
100
AcDbEntity
  8
D-F
  6
Continuous
 62
     7
370
     9
100
AcDbText
 10
170.9954662199063
 20
-342.5810281002319
 30
0.0
 40
11.43
  1
ＳＣＳ１３
 41
1.133333333333333
  7
ＭＳ ゴシック
100
AcDbText
  0
TEXT
  5
52D
330
1F
100
AcDbEntity
  8
D-F
  6
Continuous
 62
     7
370
     9
100
AcDbText
 10
171.4953093529886
 20
-319.515368293697
 30
0.0
 40
11.43
  1
把手カバ－
 41
1.133333333333333
  7
ＭＳ ゴシック
100
AcDbText
  0
LINE
  5
52E
330
1F
100
AcDbEntity
  8
D-F
  6
Continuous
 62
     7
370
     9
100
AcDbLine
 10
167.4965642883302
 20
-326.6154146804157
 30
0.0
 11
259.3871564436606
 21
-326.6154146804157
 31
0.0
  0
LINE
  5
52F
330
1F
100
AcDbEntity
  8
D-F
  6
Continuous
 62
     7
370
     9
100
AcDbLine
 10
259.3871564436606
 20
-326.6154146804157
 30
0.0
 11
304.2438575702835
 21
-371.4335474085913
 31
0.0
  0
LINE
  5
530
330
1F
100
AcDbEntity
  8
D-F
  6
Continuous
 62
     7
370
     9
100
AcDbLine
 10
304.2438575702835
 20
-371.4335474085913
 30
0.0
 11
294.3236689439613
 21
-363.8282954326087
 31
0.0
  0
LINE
  5
531
330
1F
100
AcDbEntity
  8
D-F
  6
Continuous
 62
     7
370
     9
100
AcDbLine
 10
304.2438575702835
 20
-371.4335474085913
 30
0.0
 11
296.6300752286475
 21
-361.5199043620522
 31
0.0
  0
LINE
  5
532
330
1F
100
AcDbEntity
  8
D-F
  6
Continuous
 62
     7
370
     9
100
AcDbLine
 10
299.5946064489215
 20
-477.2806323795959
 30
0.0
 11
371.4381314299942
 21
-449.7882381229578
 31
0.0
  0
LINE
  5
533
330
1F
100
AcDbEntity
  8
D-F
  6
Continuous
 62
     7
370
     9
100
AcDbLine
 10
371.4381314299942
 20
-449.7882381229578
 30
0.0
 11
360.4467161832048
 21
-455.7412869949767
 31
0.0
  0
LINE
  5
534
330
1F
100
AcDbEntity
  8
D-F
  6
Continuous
 62
     7
370
     9
100
AcDbLine
 10
371.4381314299942
 20
-449.7882381229578
 30
0.0
 11
359.2804771511481
 21
-452.6936541751024
 31
0.0
  0
LINE
  5
535
330
1F
100
AcDbEntity
  8
D-4
  6
Continuous
 62
     7
370
     9
100
AcDbLine
 10
268.9380571336097
 20
-77.8815312161992
 30
0.0
 11
548.9382221579291
 21
-77.8815312161992
 31
0.0
  0
LINE
  5
536
330
1F
100
AcDbEntity
  8
D-4
  6
Continuous
 62
     7
370
     9
100
AcDbLine
 10
268.9380571336097
 20
-77.8815312161992
 30
0.0
 11
281.3311179007825
 21
-76.24995381344857
 31
0.0
  0
LINE
  5
537
330
1F
100
AcDbEntity
  8
D-4
  6
Continuous
 62
     7
370
     9
100
AcDbLine
 10
268.9380571336097
 20
-77.8815312161992
 30
0.0
 11
281.3311179007825
 21
-79.51310861894984
 31
0.0
  0
LINE
  5
538
330
1F
100
AcDbEntity
  8
D-4
  6
Continuous
 62
     7
370
     9
100
AcDbLine
 10
548.9382221579291
 20
-77.8815312161992
 30
0.0
 11
536.5451613907561
 21
-76.24995381344857
 31
0.0
  0
LINE
  5
539
330
1F
100
AcDbEntity
  8
D-4
  6
Continuous
 62
     7
370
     9
100
AcDbLine
 10
548.9382221579291
 20
-77.8815312161992
 30
0.0
 11
536.5451613907561
 21
-79.51310861894984
 31
0.0
  0
LINE
  5
53A
330
1F
100
AcDbEntity
  8
D-4
  6
Continuous
 62
     7
370
     9
100
AcDbLine
 10
268.9380571336097
 20
-76.38153121619919
 30
0.0
 11
268.9380571336097
 21
-105.4488967079116
 31
0.0
  0
LINE
  5
53B
330
1F
100
AcDbEntity
  8
D-4
  6
Continuous
 62
     7
370
     9
100
AcDbLine
 10
548.9382221579291
 20
-76.38153121619919
 30
0.0
 11
548.9382221579291
 21
-105.4488967079116
 31
0.0
  0
TEXT
  5
53C
330
1F
100
AcDbEntity
  8
D-4
  6
Continuous
 62
     2
370
   211
100
AcDbText
 10
392.6881396457696
 20
-72.0615312161992
 30
0.0
 40
15.24
  1
112
 41
1.083333333333333
  7
ＭＳ ゴシック
100
AcDbText
  0
LINE
  5
53D
330
1F
100
AcDbEntity
  8
D-4
  6
Continuous
 62
     7
370
     9
100
AcDbLine
 10
591.760247413556
 20
-247.9489462603136
 30
0.0
 11
591.760247413556
 21
-110.4487564920121
 31
0.0
  0
LINE
  5
53E
330
1F
100
AcDbEntity
  8
D-4
  6
Continuous
 62
     7
370
     9
100
AcDbLine
 10
591.760247413556
 20
-247.9489462603136
 30
0.0
 11
590.1286700108051
 21
-235.555885493141
 31
0.0
  0
LINE
  5
53F
330
1F
100
AcDbEntity
  8
D-4
  6
Continuous
 62
     7
370
     9
100
AcDbLine
 10
591.760247413556
 20
-247.9489462603136
 30
0.0
 11
593.3918248163064
 21
-235.555885493141
 31
0.0
  0
LINE
  5
540
330
1F
100
AcDbEntity
  8
D-4
  6
Continuous
 62
     7
370
     9
100
AcDbLine
 10
591.760247413556
 20
-110.4487564920121
 30
0.0
 11
590.1286700108051
 21
-122.8418172591848
 31
0.0
  0
LINE
  5
541
330
1F
100
AcDbEntity
  8
D-4
  6
Continuous
 62
     7
370
     9
100
AcDbLine
 10
591.760247413556
 20
-110.4487564920121
 30
0.0
 11
593.3918248163064
 21
-122.8418172591848
 31
0.0
  0
LINE
  5
542
330
1F
100
AcDbEntity
  8
D-4
  6
Continuous
 62
     7
370
     9
100
AcDbLine
 10
593.2602474135558
 20
-247.9489462603136
 30
0.0
 11
553.9380819420296
 21
-247.9489462603136
 31
0.0
  0
LINE
  5
543
330
1F
100
AcDbEntity
  8
D-4
  6
Continuous
 62
     7
370
     9
100
AcDbLine
 10
593.2602474135558
 20
-110.4487564920121
 30
0.0
 11
553.9380819420296
 21
-110.4487564920121
 31
0.0
  0
TEXT
  5
544
330
1F
100
AcDbEntity
  8
D-4
  6
Continuous
 62
     2
370
   211
100
AcDbText
 10
585.9402474135559
 20
-189.8238513761629
 30
0.0
 40
15.24
  1
55
 50
90.0
 41
1.0625
  7
ＭＳ ゴシック
100
AcDbText
  0
TEXT
  5
545
330
1F
100
AcDbEntity
  8
D-F
  6
Continuous
 62
     2
370
     9
100
AcDbText
 10
302.604535566829
 20
-557.4175846077255
 30
0.0
 40
15.24
  1
把手詳細図　Ｓ＝１：２
 41
1.113636363636364
  7
ＭＳ ゴシック
100
AcDbText
  0
LINE
  5
546
330
1F
100
AcDbEntity
  8
D-F
  6
Continuous
 62
     7
370
     9
100
AcDbLine
 10
297.943623616147
 20
-567.4359492779379
 30
0.0
 11
551.9971354128697
 21
-567.4359492779379
 31
0.0
  0
LINE
  5
547
330
1F
100
AcDbEntity
  8
通り芯
  6
Continuous
 62
     4
370
     9
100
AcDbLine
 10
-563.1521854474277
 20
-30.68415255159934
 30
0.0
 11
-563.1521854474277
 21
77.31580785802907
 31
0.0
  0
LINE
  5
548
330
1F
100
AcDbEntity
  8
通り芯
  6
Continuous
 62
     4
370
     9
100
AcDbLine
 10
-510.1520848218997
 20
-32.68415914999451
 30
0.0
 11
-561.1521293610679
 21
-32.68415914999451
 31
0.0
  0
LINE
  5
549
330
1F
100
AcDbEntity
  8
通り芯
  6
Continuous
 62
     4
370
     9
100
AcDbLine
 10
-508.1520287355399
 20
77.31580785802907
 30
0.0
 11
-508.15202873554
 21
-30.68415255159934
 31
0.0
  0
LINE
  5
54A
330
1F
100
AcDbEntity
  8
通り芯
  6
Continuous
 62
     4
370
     9
100
AcDbLine
 10
-510.1520848218997
 20
79.31586394438892
 30
0.0
 11
-561.1521293610679
 21
79.31586394438892
 31
0.0
  0
LINE
  5
54B
330
1F
100
AcDbEntity
  8
通り芯
  6
Continuous
 62
     4
370
     9
100
AcDbLine
 10
-562.5663964113212
 20
-32.09777625831379
 30
0.0
 11
-552.5663139313804
 21
-22.09774326633749
 31
0.0
  0
LINE
  5
54C
330
1F
100
AcDbEntity
  8
通り芯
  6
Continuous
 62
     4
370
     9
100
AcDbLine
 10
-508.7375208438592
 20
78.73002542031796
 30
0.0
 11
-518.7375785798178
 21
68.72999242834157
 31
0.0
  0
LINE
  5
54D
330
1F
100
AcDbEntity
  8
通り芯
  6
Continuous
 62
     4
370
     9
100
AcDbLine
 10
-508.7375208438593
 20
-32.09777625831379
 30
0.0
 11
-518.7375785798179
 21
-22.09774326633749
 31
0.0
  0
LINE
  5
54E
330
1F
100
AcDbEntity
  8
通り芯
  6
Continuous
 62
     4
370
     9
100
AcDbLine
 10
-520.1517466541421
 20
69.31583095241254
 30
0.0
 11
-551.1517994413043
 21
69.31583095241254
 31
0.0
  0
LINE
  5
54F
330
1F
100
AcDbEntity
  8
通り芯
  6
Continuous
 62
     4
370
     9
100
AcDbLine
 10
-518.1517647997292
 20
-20.68413193161405
 30
0.0
 11
-518.1517647997291
 21
67.31567589012369
 31
0.0
  0
LINE
  5
550
330
1F
100
AcDbEntity
  8
通り芯
  6
Continuous
 62
     4
370
     9
100
AcDbLine
 10
-553.1519545035932
 20
-20.68413193161405
 30
0.0
 11
-553.1519545035932
 21
67.31567589012369
 31
0.0
  0
LINE
  5
551
330
1F
100
AcDbEntity
  8
通り芯
  6
Continuous
 62
     4
370
     9
100
AcDbLine
 10
-551.1517994413043
 20
-22.6842127619561
 30
0.0
 11
-520.1517466541422
 21
-22.6842127619561
 31
0.0
  0
LINE
  5
552
330
1F
100
AcDbEntity
  8
仕上
  6
Continuous
 62
     3
370
     9
100
AcDbLine
 10
-531.3520854817393
 20
-9.334178615260669
 30
0.0
 11
-539.9519307493701
 21
-9.334178615260669
 31
0.0
  0
LINE
  5
553
330
1F
100
AcDbEntity
  8
仕上
  6
Continuous
 62
     3
370
     9
100
AcDbLine
 10
-529.6520996682891
 20
-7.634180429819253
 30
0.0
 11
-529.6520996682891
 21
54.26583573624914
 31
0.0
  0
LINE
  5
554
330
1F
100
AcDbEntity
  8
通り芯
  6
Continuous
 62
     4
370
     9
100
AcDbLine
 10
-531.1521046170856
 20
-9.834180264859498
 30
0.0
 11
-540.1520848218997
 21
-9.834180264859498
 31
0.0
  0
LINE
  5
555
330
1F
100
AcDbEntity
  8
通り芯
  6
Continuous
 62
     4
370
     9
100
AcDbLine
 10
-542.152091420295
 20
54.46584134488507
 30
0.0
 11
-542.152091420295
 21
-7.834186038455329
 31
0.0
  0
LINE
  5
556
330
1F
100
AcDbEntity
  8
通り芯
  6
Continuous
 62
     4
370
     9
100
AcDbLine
 10
-531.1521046170856
 20
56.46583557128924
 30
0.0
 11
-540.1520848218997
 21
56.46583557128924
 31
0.0
  0
LINE
  5
557
330
1F
100
AcDbEntity
  8
通り芯
  6
Continuous
 62
     4
370
     9
100
AcDbLine
 10
-529.1520980186903
 20
54.46584134488507
 30
0.0
 11
-529.1520980186904
 21
-7.834186038455329
 31
0.0
  0
LINE
  5
558
330
1F
100
AcDbEntity
  8
仕上
  6
Continuous
 62
     3
370
     9
100
AcDbLine
 10
-541.6520897706962
 20
54.26569964434666
 30
0.0
 11
-541.6520897706962
 21
-7.633821642076555
 31
0.0
  0
LINE
  5
559
330
1F
100
AcDbEntity
  8
仕上
  6
Continuous
 62
     3
370
     9
100
AcDbLine
 10
-539.9520792132638
 20
55.96569782978801
 30
0.0
 11
-531.328677674518
 21
55.96569782978801
 31
0.0
  0
LINE
  5
55A
330
1F
100
AcDbEntity
  8
通り芯
  6
Continuous
 62
     4
370
     9
100
AcDbLine
 10
-562.5663964113212
 20
78.73002542031796
 30
0.0
 11
-552.5663139313804
 21
68.72999242834157
 31
0.0
  0
ARC
  5
55B
330
1F
100
AcDbEntity
  8
通り芯
  6
Continuous
 62
     4
370
     9
100
AcDbCircle
 10
-551.1517994413043
 20
67.31567589012369
 30
0.0
 40
1.99999983246262
100
AcDbArc
 50
90.0
 51
180.0
  0
ARC
  5
55C
330
1F
100
AcDbEntity
  8
通り芯
  6
Continuous
 62
     4
370
     9
100
AcDbCircle
 10
-520.1517466541421
 20
67.31567589012369
 30
0.0
 40
1.99999983246262
100
AcDbArc
 50
0.0
 51
90.0
  0
ARC
  5
55D
330
1F
100
AcDbEntity
  8
通り芯
  6
Continuous
 62
     4
370
     9
100
AcDbCircle
 10
-520.1517466541422
 20
-20.68413193161405
 30
0.0
 40
1.99999983246262
100
AcDbArc
 50
270.0
 51
0.0
  0
ARC
  5
55E
330
1F
100
AcDbEntity
  8
通り芯
  6
Continuous
 62
     4
370
     9
100
AcDbCircle
 10
-551.1517994413043
 20
-20.68413193161405
 30
0.0
 40
1.99999983246262
100
AcDbArc
 50
180.0
 51
270.0
  0
ARC
  5
55F
330
1F
100
AcDbEntity
  8
通り芯
  6
Continuous
 62
     4
370
     9
100
AcDbCircle
 10
-561.1521293610679
 20
77.31580785802907
 30
0.0
 40
2.000000025774982
100
AcDbArc
 50
90.0
 51
180.0
  0
ARC
  5
560
330
1F
100
AcDbEntity
  8
通り芯
  6
Continuous
 62
     4
370
     9
100
AcDbCircle
 10
-561.1521293610679
 20
-30.68420203956379
 30
0.0
 40
2.000000025774982
100
AcDbArc
 50
180.0
 51
270.0
  0
ARC
  5
561
330
1F
100
AcDbEntity
  8
通り芯
  6
Continuous
 62
     4
370
     9
100
AcDbCircle
 10
-510.152109565882
 20
-30.68420203956379
 30
0.0
 40
2.000000025774982
100
AcDbArc
 50
270.0
 51
0.0
  0
ARC
  5
562
330
1F
100
AcDbEntity
  8
通り芯
  6
Continuous
 62
     4
370
     9
100
AcDbCircle
 10
-510.152109565882
 20
77.31580785802907
 30
0.0
 40
2.000000025774982
100
AcDbArc
 50
0.0
 51
90.0
  0
ARC
  5
563
330
1F
100
AcDbEntity
  8
仕上
  6
Continuous
 62
     3
370
     9
100
AcDbCircle
 10
-539.9519307493701
 20
-7.633821642076555
 30
0.0
 40
1.700000891814361
100
AcDbArc
 50
180.0
 51
270.0
  0
ARC
  5
564
330
1F
100
AcDbEntity
  8
仕上
  6
Continuous
 62
     3
370
     9
100
AcDbCircle
 10
-531.3522586896152
 20
54.26583573624914
 30
0.0
 40
1.700000891814361
100
AcDbArc
 50
0.0
 51
89.20521545410156
  0
ARC
  5
565
330
1F
100
AcDbEntity
  8
仕上
  6
Continuous
 62
     3
370
     9
100
AcDbCircle
 10
-531.3520854817393
 20
-7.634180429819253
 30
0.0
 40
1.700000118564915
100
AcDbArc
 50
270.0
 51
0.0
  0
ARC
  5
566
330
1F
100
AcDbEntity
  8
通り芯
  6
Continuous
 62
     4
370
     9
100
AcDbCircle
 10
-535.6520947194927
 20
23.31582765321485
 30
0.0
 40
12.50000025774982
100
AcDbArc
 50
301.3322448730469
 51
58.66775512695313
  0
ARC
  5
567
330
1F
100
AcDbEntity
  8
通り芯
  6
Continuous
 62
     4
370
     9
100
AcDbCircle
 10
-535.6520947194927
 20
23.31582765321485
 30
0.0
 40
12.50000025774982
100
AcDbArc
 50
121.3322448730469
 51
238.6677551269532
  0
ARC
  5
568
330
1F
100
AcDbEntity
  8
通り芯
  6
Continuous
 62
     4
370
     9
100
AcDbCircle
 10
-540.1520848218997
 20
-7.834186038455329
 30
0.0
 40
2.000000025774982
100
AcDbArc
 50
180.0
 51
270.0
  0
ARC
  5
569
330
1F
100
AcDbEntity
  8
通り芯
  6
Continuous
 62
     4
370
     9
100
AcDbCircle
 10
-531.1521046170856
 20
-7.834186038455329
 30
0.0
 40
2.000000025774982
100
AcDbArc
 50
270.0
 51
0.0
  0
ARC
  5
56A
330
1F
100
AcDbEntity
  8
通り芯
  6
Continuous
 62
     4
370
     9
100
AcDbCircle
 10
-540.1520848218997
 20
54.46584134488507
 30
0.0
 40
2.000000025774982
100
AcDbArc
 50
90.0
 51
180.0
  0
ARC
  5
56B
330
1F
100
AcDbEntity
  8
通り芯
  6
Continuous
 62
     4
370
     9
100
AcDbCircle
 10
-531.1521046170856
 20
54.46584134488507
 30
0.0
 40
2.000000025774982
100
AcDbArc
 50
0.0
 51
90.0
  0
ARC
  5
56C
330
1F
100
AcDbEntity
  8
仕上
  6
Continuous
 62
     3
370
     9
100
AcDbCircle
 10
-539.9520792132638
 20
54.26569964434666
 30
0.0
 40
1.700000118564915
100
AcDbArc
 50
90.0
 51
180.0
  0
LINE
  5
56D
330
1F
100
AcDbEntity
  8
通り芯
  6
Continuous
 62
     4
370
     9
100
AcDbLine
 10
-303.152130598267
 20
-30.68415255159934
 30
0.0
 11
-303.152130598267
 21
77.31580785802907
 31
0.0
  0
LINE
  5
56E
330
1F
100
AcDbEntity
  8
通り芯
  6
Continuous
 62
     4
370
     9
100
AcDbLine
 10
-250.1520299727391
 20
-32.68415914999451
 30
0.0
 11
-301.1520745119072
 21
-32.68415914999451
 31
0.0
  0
LINE
  5
56F
330
1F
100
AcDbEntity
  8
通り芯
  6
Continuous
 62
     4
370
     9
100
AcDbLine
 10
-248.1519738863793
 20
77.31580785802907
 30
0.0
 11
-248.1519738863793
 21
-30.68415255159934
 31
0.0
  0
LINE
  5
570
330
1F
100
AcDbEntity
  8
通り芯
  6
Continuous
 62
     4
370
     9
100
AcDbLine
 10
-250.1520299727391
 20
79.31586394438892
 30
0.0
 11
-301.1520745119072
 21
79.31586394438892
 31
0.0
  0
LINE
  5
571
330
1F
100
AcDbEntity
  8
通り芯
  6
Continuous
 62
     4
370
     9
100
AcDbLine
 10
-302.5663415621606
 20
-32.09777625831379
 30
0.0
 11
-292.5662590822197
 21
-22.09774326633749
 31
0.0
  0
LINE
  5
572
330
1F
100
AcDbEntity
  8
通り芯
  6
Continuous
 62
     4
370
     9
100
AcDbLine
 10
-248.7374659946986
 20
78.73002542031796
 30
0.0
 11
-258.7375237306572
 21
68.72999242834157
 31
0.0
  0
LINE
  5
573
330
1F
100
AcDbEntity
  8
通り芯
  6
Continuous
 62
     4
370
     9
100
AcDbLine
 10
-248.7374659946986
 20
-32.09777625831379
 30
0.0
 11
-258.7375237306572
 21
-22.09774326633749
 31
0.0
  0
LINE
  5
574
330
1F
100
AcDbEntity
  8
通り芯
  6
Continuous
 62
     4
370
     9
100
AcDbLine
 10
-260.1516918049815
 20
69.31583095241254
 30
0.0
 11
-291.1517445921436
 21
69.31583095241254
 31
0.0
  0
LINE
  5
575
330
1F
100
AcDbEntity
  8
通り芯
  6
Continuous
 62
     4
370
     9
100
AcDbLine
 10
-258.1517099505685
 20
-20.68413193161405
 30
0.0
 11
-258.1517099505685
 21
67.31567589012369
 31
0.0
  0
LINE
  5
576
330
1F
100
AcDbEntity
  8
通り芯
  6
Continuous
 62
     4
370
     9
100
AcDbLine
 10
-293.1518996544326
 20
-20.68413193161405
 30
0.0
 11
-293.1518996544326
 21
67.31567589012369
 31
0.0
  0
LINE
  5
577
330
1F
100
AcDbEntity
  8
通り芯
  6
Continuous
 62
     4
370
     9
100
AcDbLine
 10
-291.1517445921436
 20
-22.6842127619561
 30
0.0
 11
-260.1516918049815
 21
-22.6842127619561
 31
0.0
  0
LINE
  5
578
330
1F
100
AcDbEntity
  8
仕上
  6
Continuous
 62
     3
370
     9
100
AcDbLine
 10
-271.3520306325786
 20
-9.334178615260669
 30
0.0
 11
-279.9518759002095
 21
-9.334178615260669
 31
0.0
  0
LINE
  5
579
330
1F
100
AcDbEntity
  8
仕上
  6
Continuous
 62
     3
370
     9
100
AcDbLine
 10
-269.6520448191284
 20
-7.634180429819253
 30
0.0
 11
-269.6520448191284
 21
54.26583573624914
 31
0.0
  0
LINE
  5
57A
330
1F
100
AcDbEntity
  8
通り芯
  6
Continuous
 62
     4
370
     9
100
AcDbLine
 10
-271.1520497679249
 20
-9.834180264859498
 30
0.0
 11
-280.1520299727391
 21
-9.834180264859498
 31
0.0
  0
LINE
  5
57B
330
1F
100
AcDbEntity
  8
通り芯
  6
Continuous
 62
     4
370
     9
100
AcDbLine
 10
-282.1520365711344
 20
54.46584134488507
 30
0.0
 11
-282.1520365711344
 21
-7.834186038455329
 31
0.0
  0
LINE
  5
57C
330
1F
100
AcDbEntity
  8
通り芯
  6
Continuous
 62
     4
370
     9
100
AcDbLine
 10
-271.1520497679249
 20
56.46583557128924
 30
0.0
 11
-280.1520299727391
 21
56.46583557128924
 31
0.0
  0
LINE
  5
57D
330
1F
100
AcDbEntity
  8
通り芯
  6
Continuous
 62
     4
370
     9
100
AcDbLine
 10
-269.1520431695296
 20
54.46584134488507
 30
0.0
 11
-269.1520431695296
 21
-7.834186038455329
 31
0.0
  0
LINE
  5
57E
330
1F
100
AcDbEntity
  8
仕上
  6
Continuous
 62
     3
370
     9
100
AcDbLine
 10
-281.6520349215356
 20
54.26569964434666
 30
0.0
 11
-281.6520349215356
 21
-7.633821642076555
 31
0.0
  0
LINE
  5
57F
330
1F
100
AcDbEntity
  8
仕上
  6
Continuous
 62
     3
370
     9
100
AcDbLine
 10
-279.9520243641031
 20
55.96569782978801
 30
0.0
 11
-271.3286228253573
 21
55.96569782978801
 31
0.0
  0
LINE
  5
580
330
1F
100
AcDbEntity
  8
通り芯
  6
Continuous
 62
     4
370
     9
100
AcDbLine
 10
-302.5663415621606
 20
78.73002542031796
 30
0.0
 11
-292.5662590822197
 21
68.72999242834157
 31
0.0
  0
ARC
  5
581
330
1F
100
AcDbEntity
  8
通り芯
  6
Continuous
 62
     4
370
     9
100
AcDbCircle
 10
-291.1517445921436
 20
67.31567589012369
 30
0.0
 40
1.99999983246262
100
AcDbArc
 50
90.0
 51
180.0
  0
ARC
  5
582
330
1F
100
AcDbEntity
  8
通り芯
  6
Continuous
 62
     4
370
     9
100
AcDbCircle
 10
-260.1516918049815
 20
67.31567589012369
 30
0.0
 40
1.99999983246262
100
AcDbArc
 50
0.0
 51
90.0
  0
ARC
  5
583
330
1F
100
AcDbEntity
  8
通り芯
  6
Continuous
 62
     4
370
     9
100
AcDbCircle
 10
-260.1516918049815
 20
-20.68413193161405
 30
0.0
 40
1.99999983246262
100
AcDbArc
 50
270.0
 51
0.0
  0
ARC
  5
584
330
1F
100
AcDbEntity
  8
通り芯
  6
Continuous
 62
     4
370
     9
100
AcDbCircle
 10
-291.1517445921436
 20
-20.68413193161405
 30
0.0
 40
1.99999983246262
100
AcDbArc
 50
180.0
 51
270.0
  0
ARC
  5
585
330
1F
100
AcDbEntity
  8
通り芯
  6
Continuous
 62
     4
370
     9
100
AcDbCircle
 10
-301.1520745119072
 20
77.31580785802907
 30
0.0
 40
2.000000025774982
100
AcDbArc
 50
90.0
 51
180.0
  0
ARC
  5
586
330
1F
100
AcDbEntity
  8
通り芯
  6
Continuous
 62
     4
370
     9
100
AcDbCircle
 10
-301.1520745119072
 20
-30.68420203956379
 30
0.0
 40
2.000000025774982
100
AcDbArc
 50
180.0
 51
270.0
  0
ARC
  5
587
330
1F
100
AcDbEntity
  8
通り芯
  6
Continuous
 62
     4
370
     9
100
AcDbCircle
 10
-250.1520547167214
 20
-30.68420203956379
 30
0.0
 40
2.000000025774982
100
AcDbArc
 50
270.0
 51
0.0
  0
ARC
  5
588
330
1F
100
AcDbEntity
  8
通り芯
  6
Continuous
 62
     4
370
     9
100
AcDbCircle
 10
-250.1520547167214
 20
77.31580785802907
 30
0.0
 40
2.000000025774982
100
AcDbArc
 50
0.0
 51
90.0
  0
ARC
  5
589
330
1F
100
AcDbEntity
  8
仕上
  6
Continuous
 62
     3
370
     9
100
AcDbCircle
 10
-279.9518759002095
 20
-7.633821642076555
 30
0.0
 40
1.700000891814361
100
AcDbArc
 50
180.0
 51
270.0
  0
ARC
  5
58A
330
1F
100
AcDbEntity
  8
仕上
  6
Continuous
 62
     3
370
     9
100
AcDbCircle
 10
-271.3522038404545
 20
54.26583573624914
 30
0.0
 40
1.700000891814361
100
AcDbArc
 50
0.0
 51
89.20521545410156
  0
ARC
  5
58B
330
1F
100
AcDbEntity
  8
仕上
  6
Continuous
 62
     3
370
     9
100
AcDbCircle
 10
-271.3520306325786
 20
-7.634180429819253
 30
0.0
 40
1.700000118564915
100
AcDbArc
 50
270.0
 51
0.0
  0
ARC
  5
58C
330
1F
100
AcDbEntity
  8
通り芯
  6
Continuous
 62
     4
370
     9
100
AcDbCircle
 10
-275.652039870332
 20
23.31582765321485
 30
0.0
 40
12.50000025774982
100
AcDbArc
 50
301.3322448730469
 51
58.66775512695313
  0
ARC
  5
58D
330
1F
100
AcDbEntity
  8
通り芯
  6
Continuous
 62
     4
370
     9
100
AcDbCircle
 10
-275.652039870332
 20
23.31582765321485
 30
0.0
 40
12.50000025774982
100
AcDbArc
 50
121.3322448730469
 51
238.6677551269532
  0
ARC
  5
58E
330
1F
100
AcDbEntity
  8
通り芯
  6
Continuous
 62
     4
370
     9
100
AcDbCircle
 10
-280.1520299727391
 20
-7.834186038455329
 30
0.0
 40
2.000000025774982
100
AcDbArc
 50
180.0
 51
270.0
  0
ARC
  5
58F
330
1F
100
AcDbEntity
  8
通り芯
  6
Continuous
 62
     4
370
     9
100
AcDbCircle
 10
-271.1520497679249
 20
-7.834186038455329
 30
0.0
 40
2.000000025774982
100
AcDbArc
 50
270.0
 51
0.0
  0
ARC
  5
590
330
1F
100
AcDbEntity
  8
通り芯
  6
Continuous
 62
     4
370
     9
100
AcDbCircle
 10
-280.1520299727391
 20
54.46584134488507
 30
0.0
 40
2.000000025774982
100
AcDbArc
 50
90.0
 51
180.0
  0
ARC
  5
591
330
1F
100
AcDbEntity
  8
通り芯
  6
Continuous
 62
     4
370
     9
100
AcDbCircle
 10
-271.1520497679249
 20
54.46584134488507
 30
0.0
 40
2.000000025774982
100
AcDbArc
 50
0.0
 51
90.0
  0
ARC
  5
592
330
1F
100
AcDbEntity
  8
仕上
  6
Continuous
 62
     3
370
     9
100
AcDbCircle
 10
-279.9520243641031
 20
54.26569964434666
 30
0.0
 40
1.700000118564915
100
AcDbArc
 50
90.0
 51
180.0
  0
TEXT
  5
593
330
1F
100
AcDbEntity
  8
D-F
  6
Continuous
 62
     7
370
     9
100
AcDbText
 10
211.0629754828449
 20
-471.3143552601914
 30
0.0
 40
11.43
  1
把手本体
 41
1.125
  7
ＭＳ ゴシック
100
AcDbText
  0
TEXT
  5
594
330
1F
100
AcDbEntity
  8
D-F
  6
Continuous
 62
     7
370
     9
100
AcDbText
 10
193.5629754828449
 20
-495.7393027272988
 30
0.0
 40
11.43
  1
強化ナイロン
 41
1.138888888888889
  7
ＭＳ ゴシック
100
AcDbText
  0
LINE
  5
595
330
1F
100
AcDbEntity
  8
D-F
  6
Continuous
 62
     7
370
     9
100
AcDbLine
 10
190.0313445167684
 20
-477.2806323795959
 30
0.0
 11
299.5946064489215
 21
-477.2806323795959
 31
0.0
  0
LINE
  5
596
330
1F
100
AcDbEntity
  8
D-3
  6
Continuous
 62
     3
370
     9
100
AcDbLine
 10
217.6677671325912
 20
-428.1834067802921
 30
0.0
 11
373.4433442227242
 21
-428.1834067802921
 31
0.0
  0
LINE
  5
597
330
1F
100
AcDbEntity
  8
D-3
  6
Continuous
 62
     3
370
     9
100
AcDbLine
 10
217.6677671325912
 20
-420.1833989446977
 30
0.0
 11
382.9333362076346
 21
-420.1833989446977
 31
0.0
  0
LINE
  5
598
330
1F
100
AcDbEntity
  8
D-3
  6
Continuous
 62
     3
370
     9
100
AcDbLine
 10
434.9426482825533
 20
-420.1833989446977
 30
0.0
 11
600.2084957273968
 21
-420.1833989446977
 31
0.0
  0
LINE
  5
599
330
1F
100
AcDbEntity
  8
D-3
  6
Continuous
 62
     3
370
     9
100
AcDbLine
 10
444.4326711974413
 20
-428.1834067802921
 30
0.0
 11
600.2084957273968
 21
-428.1834067802921
 31
0.0
  0
LINE
  5
59A
330
1F
100
AcDbEntity
  8
D-B
  6
Continuous
 62
     7
370
     9
100
AcDbLine
 10
323.4444283150339
 20
409.5390336692666
 30
0.0
 11
320.7999770705765
 21
412.1835503477627
 31
0.0
  0
LINE
  5
59B
330
1F
100
AcDbEntity
  8
D-D
  6
Continuous
 62
     7
370
     9
100
AcDbLine
 10
217.6677671325944
 20
-419.1931997707582
 30
0.0
 11
218.6579663065307
 21
-420.1833989446943
 31
0.0
  0
LINE
  5
59C
330
1F
100
AcDbEntity
  8
D-D
  6
Continuous
 62
     7
370
     9
100
AcDbLine
 10
218.9613125293954
 20
-415.1834443086636
 30
0.0
 11
223.961267165428
 21
-420.1833989446962
 31
0.0
  0
LINE
  5
59D
330
1F
100
AcDbEntity
  8
D-D
  6
Continuous
 62
     7
370
     9
100
AcDbLine
 10
224.2646133882973
 20
-415.1834443086609
 30
0.0
 11
229.2645680243297
 21
-420.1833989446934
 31
0.0
  0
LINE
  5
59E
330
1F
100
AcDbEntity
  8
D-D
  6
Continuous
 62
     7
370
     9
100
AcDbLine
 10
229.567914247195
 20
-415.1834443086632
 30
0.0
 11
234.5678688832277
 21
-420.1833989446959
 31
0.0
  0
LINE
  5
59F
330
1F
100
AcDbEntity
  8
D-D
  6
Continuous
 62
     7
370
     9
100
AcDbLine
 10
234.8712151060919
 20
-415.1834443086647
 30
0.0
 11
239.8711697421244
 21
-420.1833989446972
 31
0.0
  0
LINE
  5
5A0
330
1F
100
AcDbEntity
  8
D-D
  6
Continuous
 62
     7
370
     9
100
AcDbLine
 10
240.1745159649937
 20
-415.1834443086619
 30
0.0
 11
245.1744706010263
 21
-420.1833989446945
 31
0.0
  0
LINE
  5
5A1
330
1F
100
AcDbEntity
  8
D-D
  6
Continuous
 62
     7
370
     9
100
AcDbLine
 10
245.4778168238921
 20
-415.1834443086648
 30
0.0
 11
250.4777714599248
 21
-420.1833989446976
 31
0.0
  0
LINE
  5
5A2
330
1F
100
AcDbEntity
  8
D-D
  6
Continuous
 62
     7
370
     9
100
AcDbLine
 10
250.781117682794
 20
-415.1834443086623
 30
0.0
 11
255.7810723188268
 21
-420.183398944695
 31
0.0
  0
LINE
  5
5A3
330
1F
100
AcDbEntity
  8
D-D
  6
Continuous
 62
     7
370
     9
100
AcDbLine
 10
256.0844185416902
 20
-415.183444308663
 30
0.0
 11
261.0843731777226
 21
-420.1833989446954
 31
0.0
  0
LINE
  5
5A4
330
1F
100
AcDbEntity
  8
D-D
  6
Continuous
 62
     7
370
     9
100
AcDbLine
 10
261.387719400589
 20
-415.1834443086664
 30
0.0
 11
266.3876740366218
 21
-420.1833989446991
 31
0.0
  0
LINE
  5
5A5
330
1F
100
AcDbEntity
  8
D-D
  6
Continuous
 62
     7
370
     9
100
AcDbLine
 10
266.6910202594912
 20
-415.1834443086639
 30
0.0
 11
271.6909748955238
 21
-420.1833989446965
 31
0.0
  0
LINE
  5
5A6
330
1F
100
AcDbEntity
  8
D-D
  6
Continuous
 62
     7
370
     9
100
AcDbLine
 10
271.9943211183866
 20
-415.1834443086639
 30
0.0
 11
276.9942757544191
 21
-420.1833989446964
 31
0.0
  0
LINE
  5
5A7
330
1F
100
AcDbEntity
  8
D-D
  6
Continuous
 62
     7
370
     9
100
AcDbLine
 10
277.2976219772884
 20
-415.1834443086611
 30
0.0
 11
282.2975766133209
 21
-420.1833989446937
 31
0.0
  0
LINE
  5
5A8
330
1F
100
AcDbEntity
  8
D-D
  6
Continuous
 62
     7
370
     9
100
AcDbLine
 10
282.6009228361881
 20
-415.1834443086655
 30
0.0
 11
287.6008774722209
 21
-420.1833989446982
 31
0.0
  0
LINE
  5
5A9
330
1F
100
AcDbEntity
  8
D-D
  6
Continuous
 62
     7
370
     9
100
AcDbLine
 10
287.904223695083
 20
-415.1834443086649
 30
0.0
 11
288.938106686012
 21
-416.2173272995938
 31
0.0
  0
LINE
  5
5AA
330
1F
100
AcDbEntity
  8
D-D
  6
Continuous
 62
     7
370
     9
100
AcDbLine
 10
528.9381561739774
 20
-417.5688381371001
 30
0.0
 11
531.5527169815739
 21
-420.1833989446965
 31
0.0
  0
LINE
  5
5AB
330
1F
100
AcDbEntity
  8
D-D
  6
Continuous
 62
     7
370
     9
100
AcDbLine
 10
531.8560632044458
 20
-415.183444308664
 30
0.0
 11
536.8560178404783
 21
-420.1833989446965
 31
0.0
  0
LINE
  5
5AC
330
1F
100
AcDbEntity
  8
D-D
  6
Continuous
 62
     7
370
     9
100
AcDbLine
 10
537.159364063343
 20
-415.1834443086657
 30
0.0
 11
542.1593186993756
 21
-420.1833989446982
 31
0.0
  0
LINE
  5
5AD
330
1F
100
AcDbEntity
  8
D-D
  6
Continuous
 62
     7
370
     9
100
AcDbLine
 10
542.462664922245
 20
-415.1834443086632
 30
0.0
 11
547.4626195582774
 21
-420.1833989446956
 31
0.0
  0
LINE
  5
5AE
330
1F
100
AcDbEntity
  8
D-D
  6
Continuous
 62
     7
370
     9
100
AcDbLine
 10
547.7659657811422
 20
-415.1834443086649
 30
0.0
 11
552.7659204171747
 21
-420.1833989446974
 31
0.0
  0
LINE
  5
5AF
330
1F
100
AcDbEntity
  8
D-D
  6
Continuous
 62
     7
370
     9
100
AcDbLine
 10
553.0692666400369
 20
-415.1834443086641
 30
0.0
 11
558.0692212760694
 21
-420.1833989446966
 31
0.0
  0
LINE
  5
5B0
330
1F
100
AcDbEntity
  8
D-D
  6
Continuous
 62
     7
370
     9
100
AcDbLine
 10
558.3725674989413
 20
-415.183444308664
 30
0.0
 11
563.3725221349738
 21
-420.1833989446965
 31
0.0
  0
LINE
  5
5B1
330
1F
100
AcDbEntity
  8
D-D
  6
Continuous
 62
     7
370
     9
100
AcDbLine
 10
563.6758683578386
 20
-415.1834443086659
 30
0.0
 11
568.6758229938711
 21
-420.1833989446983
 31
0.0
  0
LINE
  5
5B2
330
1F
100
AcDbEntity
  8
D-D
  6
Continuous
 62
     7
370
     9
100
AcDbLine
 10
568.9791692167405
 20
-415.1834443086631
 30
0.0
 11
573.979123852773
 21
-420.1833989446956
 31
0.0
  0
LINE
  5
5B3
330
1F
100
AcDbEntity
  8
D-D
  6
Continuous
 62
     7
370
     9
100
AcDbLine
 10
574.2824700756378
 20
-415.1834443086651
 30
0.0
 11
579.2824247116702
 21
-420.1833989446974
 31
0.0
  0
LINE
  5
5B4
330
1F
100
AcDbEntity
  8
D-D
  6
Continuous
 62
     7
370
     9
100
AcDbLine
 10
579.5857709345323
 20
-415.1834443086641
 30
0.0
 11
584.5857255705648
 21
-420.1833989446966
 31
0.0
  0
LINE
  5
5B5
330
1F
100
AcDbEntity
  8
D-D
  6
Continuous
 62
     7
370
     9
100
AcDbLine
 10
584.8890717934369
 20
-415.1834443086641
 30
0.0
 11
589.8890264294694
 21
-420.1833989446965
 31
0.0
  0
LINE
  5
5B6
330
1F
100
AcDbEntity
  8
D-D
  6
Continuous
 62
     7
370
     9
100
AcDbLine
 10
590.1923726523343
 20
-415.183444308666
 30
0.0
 11
595.1923272883665
 21
-420.1833989446983
 31
0.0
  0
LINE
  5
5B7
330
1F
100
AcDbEntity
  8
D-D
  6
Continuous
 62
     7
370
     9
100
AcDbLine
 10
595.4956735112361
 20
-415.1834443086633
 30
0.0
 11
600.2084957273986
 21
-419.8962665248258
 31
0.0
  0
LINE
  5
5B8
330
1F
100
AcDbEntity
  8
D-4
  6
Continuous
 62
     7
370
     9
100
AcDbLine
 10
272.0500636745143
 20
332.0392728610948
 30
0.0
 11
266.9899193016258
 21
320.6092851341101
 31
0.0
  0
LINE
  5
5B9
330
1F
100
AcDbEntity
  8
D-4
  6
Continuous
 62
     7
370
     9
100
AcDbLine
 10
272.0500636745143
 20
332.0392728610948
 30
0.0
 11
264.2039943385768
 21
322.3084543961455
 31
0.0
  0
LINE
  5
5BA
330
1F
100
AcDbEntity
  8
D-4
  6
Continuous
 62
     7
370
     9
100
AcDbLine
 10
249.1647014506454
 20
294.516348667578
 30
0.0
 11
272.0500636745143
 21
332.0392728610948
 31
0.0
  0
LINE
  5
5BB
330
1F
100
AcDbEntity
  8
D-0
  6
Continuous
 62
     7
370
     9
100
AcDbLine
 10
121.241362473842
 20
294.516348667578
 30
0.0
 11
249.1647014506454
 21
294.516348667578
 31
0.0
  0
TEXT
  5
5BC
330
1F
100
AcDbEntity
  8
D-0
  6
Continuous
 62
     7
370
     9
100
AcDbText
 10
151.4530319622437
 20
299.9044826413955
 30
0.0
 40
11.43
  1
把手本体
 41
1.125
  7
ＭＳ ゴシック
100
AcDbText
  0
TEXT
  5
5BD
330
1F
100
AcDbEntity
  8
D-0
  6
Continuous
 62
     7
370
     9
100
AcDbText
 10
116.4530319622437
 20
277.2941739684648
 30
0.0
 40
11.43
  1
（強化ナイロン）
 41
1.145833333333333
  7
ＭＳ ゴシック
100
AcDbText
  0
TEXT
  5
5BE
330
1F
100
AcDbEntity
  8
D-4
  6
Continuous
 62
     7
370
     9
100
AcDbText
 10
254.3576910756536
 20
245.4876329992748
 30
0.0
 40
11.43
  1
クッション
 41
1.133333333333333
  7
ＭＳ ゴシック
100
AcDbText
  0
LINE
  5
5BF
330
1F
100
AcDbEntity
  8
D-4
  6
Continuous
 62
     7
370
     9
100
AcDbLine
 10
396.390315450459
 20
239.4401302692793
 30
0.0
 11
479.5500059385557
 21
375.789355341036
 31
0.0
  0
TEXT
  5
5C0
330
1F
100
AcDbEntity
  8
D-4
  6
Continuous
 62
     7
370
     9
100
AcDbText
 10
206.4826797033203
 20
221.8342865787172
 30
0.0
 40
11.43
  1
（軟質ポリ塩化ビニル）
 41
1.151515151515152
  7
ＭＳ ゴシック
100
AcDbText
  0
LINE
  5
5C1
330
1F
100
AcDbEntity
  8
D-4
  6
Continuous
 62
     7
370
     9
100
AcDbLine
 10
210.1910265166493
 20
239.4401302692793
 30
0.0
 11
396.3905446934305
 21
239.4401302692793
 31
0.0
  0
LINE
  5
5C2
330
1F
100
AcDbEntity
  8
その他
  6
Continuous
 62
     7
370
     9
100
AcDbLine
 10
-535.6520947194927
 20
-80.36605657237936
 30
0.0
 11
-275.652039870332
 21
-80.36605657237936
 31
0.0
  0
LWPOLYLINE
  5
5C3
330
1F
100
AcDbEntity
  8
その他
  6
Continuous
 62
     7
370
     9
100
AcDbPolyline
 90
        4
 70
     1
 43
0.5
 10
-535.4020947194927
 20
-80.36605657237936
 42
0.4142135623731
 10
-535.6520947194927
 20
-80.11605657237936
 42
0.4142135623731
 10
-535.9020947194927
 20
-80.36605657237936
 42
0.4142135623731
 10
-535.6520947194927
 20
-80.61605657237936
 42
0.4142135623731
  0
LWPOLYLINE
  5
5C4
330
1F
100
AcDbEntity
  8
その他
  6
Continuous
 62
     7
370
     9
100
AcDbPolyline
 90
        4
 70
     1
 43
0.5
 10
-275.402039870332
 20
-80.36605657237936
 42
0.4142135623731
 10
-275.652039870332
 20
-80.11605657237936
 42
0.4142135623731
 10
-275.902039870332
 20
-80.36605657237936
 42
0.4142135623731
 10
-275.652039870332
 20
-80.61605657237936
 42
0.4142135623731
  0
LINE
  5
5C5
330
1F
100
AcDbEntity
  8
その他
  6
Continuous
 62
     7
370
     9
100
AcDbLine
 10
-535.6520947194927
 20
-81.86605657237936
 30
0.0
 11
-535.6520947194927
 21
-46.08352843766951
 31
0.0
  0
LINE
  5
5C6
330
1F
100
AcDbEntity
  8
その他
  6
Continuous
 62
     7
370
     9
100
AcDbLine
 10
-275.652039870332
 20
-81.86605657237936
 30
0.0
 11
-275.652039870332
 21
-45.36201777513412
 31
0.0
  0
TEXT
  5
5C7
330
1F
100
AcDbEntity
  8
その他
  6
Continuous
 62
     2
370
   211
100
AcDbText
 10
-421.9020672949124
 20
-74.54605657237937
 30
0.0
 40
15.24
  1
260
 41
1.083333333333333
  7
ＭＳ ゴシック
100
AcDbText
  0
TEXT
  5
5C8
330
1F
100
AcDbEntity
  8
D-4
  6
Continuous
 62
     7
370
     9
100
AcDbText
 10
526.4466857910157
 20
637.1742758963569
 30
0.0
 40
11.43
  1
底板　ｔ＝３．２
 41
1.145833333333333
  7
ＭＳ ゴシック
100
AcDbText
  0
TEXT
  5
5C9
330
1F
100
AcDbEntity
  8
D-4
  6
Continuous
 62
     7
370
     9
100
AcDbText
 10
526.4466857910157
 20
615.8511234803703
 30
0.0
 40
11.43
  1
溶融亜鉛めっき鋼板
 41
1.148148148148148
  7
ＭＳ ゴシック
100
AcDbText
  0
LINE
  5
5CA
330
1F
100
AcDbEntity
  8
D-4
  6
Continuous
 62
     7
370
     9
100
AcDbLine
 10
685.6622051755144
 20
632.0771311539581
 30
0.0
 11
517.6853076831717
 21
632.0771311539581
 31
0.0
  0
ENDSEC
  0
SECTION
  2
OBJECTS
  0
DICTIONARY
  5
C
330
0
100
AcDbDictionary
281
     1
  3
ACAD_GROUP
350
D
  3
ACAD_LAYOUT
350
1A
  3
ACAD_MLEADERSTYLE
350
5CC
  3
ACAD_MLINESTYLE
350
17
  3
ACAD_PLOTSETTINGS
350
19
  3
ACAD_PLOTSTYLENAME
350
E
  3
ACAD_TABLESTYLE
350
5CB
  3
ACAD_VISUALSTYLE
350
2A
  0
DICTIONARY
  5
D
102
{ACAD_REACTORS
330
C
102
}
330
C
100
AcDbDictionary
281
     1
  0
DICTIONARY
  5
1A
102
{ACAD_REACTORS
330
C
102
}
330
C
100
AcDbDictionary
281
     1
  3
Layout1
350
1E
  3
Layout2
350
26
  3
Model
350
22
  0
DICTIONARY
  5
5CC
102
{ACAD_REACTORS
330
C
102
}
330
C
100
AcDbDictionary
281
     1
  0
DICTIONARY
  5
17
102
{ACAD_REACTORS
330
C
102
}
330
C
100
AcDbDictionary
281
     1
  3
Standard
350
18
  0
DICTIONARY
  5
19
102
{ACAD_REACTORS
330
C
102
}
330
C
100
AcDbDictionary
281
     1
  0
ACDBDICTIONARYWDFLT
  5
E
102
{ACAD_REACTORS
330
C
102
}
330
C
100
AcDbDictionary
281
     1
  3
Normal
350
F
100
AcDbDictionaryWithDefault
340
F
  0
DICTIONARY
  5
5CB
102
{ACAD_REACTORS
330
C
102
}
330
C
100
AcDbDictionary
281
     1
  0
DICTIONARY
  5
2A
102
{ACAD_REACTORS
330
C
102
}
330
C
100
AcDbDictionary
281
     1
  3
2dWireframe
350
2F
  3
3D Hidden
350
31
  3
3dWireframe
350
30
  3
Basic
350
32
  3
Brighten
350
36
  3
ColorChange
350
3A
  3
Conceptual
350
34
  3
Dim
350
35
  3
Facepattern
350
39
  3
Flat
350
2B
  3
FlatWithEdges
350
2C
  3
Gouraud
350
2D
  3
GouraudWithEdges
350
2E
  3
Linepattern
350
38
  3
Realistic
350
33
  3
Thicken
350
37
  0
LAYOUT
  5
1E
102
{ACAD_REACTORS
330
1A
102
}
330
1A
100
AcDbPlotSettings
  1

  2
none_device
  4

  6

 40
0.0
 41
0.0
 42
0.0
 43
0.0
 44
0.0
 45
0.0
 46
0.0
 47
0.0
 48
0.0
 49
0.0
140
0.0
141
0.0
142
1.0
143
1.0
 70
   688
 72
     0
 73
     0
 74
     5
  7

 75
    16
 76
     0
 77
     5
 78
   300
147
1.0
148
0.0
149
0.0
100
AcDbLayout
  1
Layout1
 70
     1
 71
     1
 10
0.0
 20
0.0
 11
420.0
 21
297.0
 12
0.0
 22
0.0
 32
0.0
 14
1.000000000000000E+20
 24
1.000000000000000E+20
 34
1.000000000000000E+20
 15
-1.000000000000000E+20
 25
-1.000000000000000E+20
 35
-1.000000000000000E+20
146
0.0
 13
0.0
 23
0.0
 33
0.0
 16
1.0
 26
0.0
 36
0.0
 17
0.0
 27
1.0
 37
0.0
 76
     0
330
1B
  0
LAYOUT
  5
26
102
{ACAD_REACTORS
330
1A
102
}
330
1A
100
AcDbPlotSettings
  1

  2
none_device
  4

  6

 40
0.0
 41
0.0
 42
0.0
 43
0.0
 44
0.0
 45
0.0
 46
0.0
 47
0.0
 48
0.0
 49
0.0
140
0.0
141
0.0
142
1.0
143
1.0
 70
   688
 72
     0
 73
     0
 74
     5
  7

 75
    16
 76
     0
 77
     5
 78
   300
147
1.0
148
0.0
149
0.0
100
AcDbLayout
  1
Layout2
 70
     1
 71
     2
 10
0.0
 20
0.0
 11
0.0
 21
0.0
 12
0.0
 22
0.0
 32
0.0
 14
0.0
 24
0.0
 34
0.0
 15
0.0
 25
0.0
 35
0.0
146
0.0
 13
0.0
 23
0.0
 33
0.0
 16
1.0
 26
0.0
 36
0.0
 17
0.0
 27
1.0
 37
0.0
 76
     0
330
23
  0
LAYOUT
  5
22
102
{ACAD_REACTORS
330
1A
102
}
330
1A
100
AcDbPlotSettings
  1

  2
none_device
  4

  6

 40
0.0
 41
0.0
 42
0.0
 43
0.0
 44
0.0
 45
0.0
 46
0.0
 47
0.0
 48
0.0
 49
0.0
140
0.0
141
0.0
142
1.0
143
1.0
 70
  1712
 72
     0
 73
     0
 74
     0
  7

 75
     0
 76
     0
 77
     5
 78
   300
147
1.0
148
0.0
149
0.0
100
AcDbLayout
  1
Model
 70
     1
 71
     0
 10
-1050.0
 20
-742.5
 11
1050.0
 21
742.5
 12
0.0
 22
0.0
 32
0.0
 14
-1050.0
 24
-742.5
 34
0.0
 15
1050.0
 25
742.5
 35
0.0
146
0.0
 13
0.0
 23
0.0
 33
0.0
 16
1.0
 26
0.0
 36
0.0
 17
0.0
 27
1.0
 37
0.0
 76
     0
330
1F
331
29
  0
MLINESTYLE
  5
18
102
{ACAD_REACTORS
330
17
102
}
330
17
100
AcDbMlineStyle
  2
Standard
 70
     0
  3

 62
   256
 51
90.0
 52
90.0
 71
     2
 49
0.5
 62
   256
  6
BYLAYER
 49
-0.5
 62
   256
  6
BYLAYER
  0
ACDBPLACEHOLDER
  5
F
102
{ACAD_REACTORS
330
E
102
}
330
E
  0
VISUALSTYLE
  5
2F
102
{ACAD_REACTORS
330
2A
102
}
330
2A
100
AcDbVisualStyle
  2
2dWireframe
 70
     4
 71
     0
 72
     2
 73
     0
 90
        0
 40
-0.6
 41
-30.0
 62
     5
 63
     7
421
 16777215
 74
     1
 91
        4
 64
     7
 65
   257
 75
     1
175
     1
 42
1.0
 92
        0
 66
   257
 43
1.0
 76
     1
 77
     6
 78
     2
 67
     7
 79
     5
170
     0
171
     0
290
     0
174
     0
 93
        1
 44
0.0
173
     0
291
     0
 45
0.0
1001
ACAD
1000
AcDbSavedByObjectVersion
1070
     0
  0
VISUALSTYLE
  5
31
102
{ACAD_REACTORS
330
2A
102
}
330
2A
100
AcDbVisualStyle
  2
3D Hidden
 70
     6
 71
     1
 72
     2
 73
     2
 90
        0
 40
-0.6
 41
-30.0
 62
     5
 63
     7
421
 16777215
 74
     2
 91
        2
 64
     7
 65
   257
 75
     2
175
     1
 42
40.0
 92
        0
 66
   257
 43
1.0
 76
     1
 77
     6
 78
     2
 67
     7
 79
     3
170
     0
171
     0
290
     0
174
     0
 93
        1
 44
0.0
173
     0
291
     0
 45
0.0
1001
ACAD
1000
AcDbSavedByObjectVersion
1070
     0
  0
VISUALSTYLE
  5
30
102
{ACAD_REACTORS
330
2A
102
}
330
2A
100
AcDbVisualStyle
  2
3dWireframe
 70
     5
 71
     0
 72
     2
 73
     0
 90
        0
 40
-0.6
 41
-30.0
 62
     5
 63
     7
421
 16777215
 74
     1
 91
        4
 64
     7
 65
   257
 75
     1
175
     1
 42
1.0
 92
        0
 66
   257
 43
1.0
 76
     1
 77
     6
 78
     2
 67
     7
 79
     5
170
     0
171
     0
290
     0
174
     0
 93
        1
 44
0.0
173
     0
291
     0
 45
0.0
1001
ACAD
1000
AcDbSavedByObjectVersion
1070
     0
  0
VISUALSTYLE
  5
32
102
{ACAD_REACTORS
330
2A
102
}
330
2A
100
AcDbVisualStyle
  2
Basic
 70
     7
 71
     1
 72
     0
 73
     1
 90
        0
 40
-0.6
 41
-30.0
 62
     5
 63
     7
421
 16777215
 74
     0
 91
        4
 64
     7
 65
   257
 75
     1
175
     1
 42
1.0
 92
        8
 66
     7
 43
1.0
 76
     1
 77
     6
 78
     2
 67
     7
 79
     5
170
     0
171
     0
290
     0
174
     0
 93
        1
 44
0.0
173
     0
291
     1
 45
0.0
1001
ACAD
1000
AcDbSavedByObjectVersion
1070
     0
  0
VISUALSTYLE
  5
36
102
{ACAD_REACTORS
330
2A
102
}
330
2A
100
AcDbVisualStyle
  2
Brighten
 70
    12
 71
     2
 72
     2
 73
     0
 90
        0
 40
-0.6
 41
-30.0
 62
     5
 63
     7
421
 16777215
 74
     1
 91
        4
 64
     7
 65
   257
 75
     1
175
     1
 42
1.0
 92
        8
 66
     7
 43
1.0
 76
     1
 77
     6
 78
     2
 67
     7
 79
     5
170
     0
171
     0
290
     0
174
     0
 93
        1
 44
50.0
173
     0
291
     1
 45
0.0
1001
ACAD
1000
AcDbSavedByObjectVersion
1070
     0
  0
VISUALSTYLE
  5
3A
102
{ACAD_REACTORS
330
2A
102
}
330
2A
100
AcDbVisualStyle
  2
ColorChange
 70
    16
 71
     2
 72
     2
 73
     3
 90
        0
 40
-0.6
 41
-30.0
 62
     5
 63
     8
421
  8421504
 74
     1
 91
        4
 64
     7
 65
   257
 75
     1
175
     1
 42
1.0
 92
        8
 66
     8
424
  8421504
 43
1.0
 76
     1
 77
     6
 78
     2
 67
     7
 79
     5
170
     0
171
     0
290
     0
174
     0
 93
        1
 44
0.0
173
     0
291
     1
 45
0.0
1001
ACAD
1000
AcDbSavedByObjectVersion
1070
     0
  0
VISUALSTYLE
  5
34
102
{ACAD_REACTORS
330
2A
102
}
330
2A
100
AcDbVisualStyle
  2
Conceptual
 70
     9
 71
     3
 72
     2
 73
     0
 90
        0
 40
-0.6
 41
-30.0
 62
     5
 63
     7
421
 16777215
 74
     2
 91
        2
 64
     7
 65
   257
 75
     1
175
     1
 42
40.0
 92
        8
 66
     7
 43
1.0
 76
     1
 77
     6
 78
     2
 67
     7
 79
     3
170
     0
171
     0
290
     0
174
     0
 93
        1
 44
0.0
173
     0
291
     0
 45
0.0
1001
ACAD
1000
AcDbSavedByObjectVersion
1070
     0
  0
VISUALSTYLE
  5
35
102
{ACAD_REACTORS
330
2A
102
}
330
2A
100
AcDbVisualStyle
  2
Dim
 70
    11
 71
     2
 72
     2
 73
     0
 90
        0
 40
-0.6
 41
-30.0
 62
     5
 63
     7
421
 16777215
 74
     1
 91
        4
 64
     7
 65
   257
 75
     1
175
     1
 42
1.0
 92
        8
 66
     7
 43
1.0
 76
     1
 77
     6
 78
     2
 67
     7
 79
     5
170
     0
171
     0
290
     0
174
     0
 93
        1
 44
-50.0
173
     0
291
     1
 45
0.0
1001
ACAD
1000
AcDbSavedByObjectVersion
1070
     0
  0
VISUALSTYLE
  5
39
102
{ACAD_REACTORS
330
2A
102
}
330
2A
100
AcDbVisualStyle
  2
Facepattern
 70
    15
 71
     2
 72
     2
 73
     0
 90
        0
 40
-0.6
 41
-30.0
 62
     5
 63
     7
421
 16777215
 74
     1
 91
        4
 64
     7
 65
   257
 75
     1
175
     1
 42
1.0
 92
        8
 66
     7
 43
1.0
 76
     1
 77
     6
 78
     2
 67
     7
 79
     5
170
     0
171
     0
290
     0
174
     0
 93
        1
 44
0.0
173
     0
291
     1
 45
0.0
1001
ACAD
1000
AcDbSavedByObjectVersion
1070
     0
  0
VISUALSTYLE
  5
2B
102
{ACAD_REACTORS
330
2A
102
}
330
2A
100
AcDbVisualStyle
  2
Flat
 70
     0
 71
     2
 72
     1
 73
     1
 90
        2
 40
-0.6
 41
30.0
 62
     5
 63
     7
421
 16777215
 74
     0
 91
        4
 64
     7
 65
   257
 75
     1
175
     1
 42
1.0
 92
        8
 66
     7
 43
1.0
 76
     1
 77
     6
 78
     2
 67
     7
 79
     5
170
     0
171
     0
290
     0
174
     0
 93
       13
 44
0.0
173
     0
291
     1
 45
0.0
1001
ACAD
1000
AcDbSavedByObjectVersion
1070
     0
  0
VISUALSTYLE
  5
2C
102
{ACAD_REACTORS
330
2A
102
}
330
2A
100
AcDbVisualStyle
  2
FlatWithEdges
 70
     1
 71
     2
 72
     1
 73
     1
 90
        2
 40
-0.6
 41
30.0
 62
     5
 63
     7
421
 16777215
 74
     1
 91
        4
 64
     7
 65
   257
 75
     1
175
     1
 42
1.0
 92
        0
 66
   257
 43
1.0
 76
     1
 77
     6
 78
     2
 67
     7
 79
     5
170
     0
171
     0
290
     0
174
     0
 93
       13
 44
0.0
173
     0
291
     1
 45
0.0
1001
ACAD
1000
AcDbSavedByObjectVersion
1070
     0
  0
VISUALSTYLE
  5
2D
102
{ACAD_REACTORS
330
2A
102
}
330
2A
100
AcDbVisualStyle
  2
Gouraud
 70
     2
 71
     2
 72
     2
 73
     1
 90
        2
 40
-0.6
 41
30.0
 62
     5
 63
     7
421
 16777215
 74
     0
 91
        4
 64
     7
 65
   257
 75
     1
175
     1
 42
1.0
 92
        0
 66
     7
 43
1.0
 76
     1
 77
     6
 78
     2
 67
     7
 79
     5
170
     0
171
     0
290
     0
174
     0
 93
       13
 44
0.0
173
     0
291
     1
 45
0.0
1001
ACAD
1000
AcDbSavedByObjectVersion
1070
     0
  0
VISUALSTYLE
  5
2E
102
{ACAD_REACTORS
330
2A
102
}
330
2A
100
AcDbVisualStyle
  2
GouraudWithEdges
 70
     3
 71
     2
 72
     2
 73
     1
 90
        2
 40
-0.6
 41
30.0
 62
     5
 63
     7
421
 16777215
 74
     1
 91
        4
 64
     7
 65
   257
 75
     1
175
     1
 42
1.0
 92
        0
 66
   257
 43
1.0
 76
     1
 77
     6
 78
     2
 67
     7
 79
     5
170
     0
171
     0
290
     0
174
     0
 93
       13
 44
0.0
173
     0
291
     1
 45
0.0
1001
ACAD
1000
AcDbSavedByObjectVersion
1070
     0
  0
VISUALSTYLE
  5
38
102
{ACAD_REACTORS
330
2A
102
}
330
2A
100
AcDbVisualStyle
  2
Linepattern
 70
    14
 71
     2
 72
     2
 73
     0
 90
        0
 40
-0.6
 41
-30.0
 62
     5
 63
     7
421
 16777215
 74
     1
 91
        4
 64
     7
 65
   257
 75
     7
175
     7
 42
1.0
 92
        8
 66
     7
 43
1.0
 76
     1
 77
     6
 78
     2
 67
     7
 79
     5
170
     0
171
     0
290
     0
174
     0
 93
        1
 44
0.0
173
     0
291
     1
 45
0.0
1001
ACAD
1000
AcDbSavedByObjectVersion
1070
     0
  0
VISUALSTYLE
  5
33
102
{ACAD_REACTORS
330
2A
102
}
330
2A
100
AcDbVisualStyle
  2
Realistic
 70
     8
 71
     2
 72
     2
 73
     0
 90
        0
 40
-0.6
 41
-30.0
 62
     5
 63
     7
421
 16777215
 74
     1
 91
        0
 64
     7
 65
   257
 75
     1
175
     1
 42
1.0
 92
        8
 66
     8
424
  7895160
 43
1.0
 76
     1
 77
     6
 78
     2
 67
     7
 79
     5
170
     0
171
     0
290
     0
174
     0
 93
       13
 44
0.0
173
     0
291
     0
 45
0.0
1001
ACAD
1000
AcDbSavedByObjectVersion
1070
     0
  0
VISUALSTYLE
  5
37
102
{ACAD_REACTORS
330
2A
102
}
330
2A
100
AcDbVisualStyle
  2
Thicken
 70
    13
 71
     2
 72
     2
 73
     0
 90
        0
 40
-0.6
 41
-30.0
 62
     5
 63
     7
421
 16777215
 74
     1
 91
        4
 64
     7
 65
   257
 75
     1
175
     1
 42
1.0
 92
       12
 66
     7
 43
1.0
 76
     1
 77
     6
 78
     2
 67
     7
 79
     5
170
     0
171
     0
290
     0
174
     0
 93
        1
 44
0.0
173
     0
291
     1
 45
0.0
1001
ACAD
1000
AcDbSavedByObjectVersion
1070
     0
  0
ENDSEC
  0
EOF
