  0
SECTION
  2
HEADER
  9
$ACADVER
  1
AC1018
  9
$ACADMAINTVER
 70
     0
  9
$DWGCODEPAGE
  3
ANSI_932
  9
$INSBASE
 10
0.0
 20
0.0
 30
0.0
  9
$EXTMIN
 10
-1050.0
 20
-742.5
 30
0.0
  9
$EXTMAX
 10
1050.0
 20
742.5
 30
0.0
  9
$LIMMIN
 10
-1050.0
 20
-742.5
  9
$LIMMAX
 10
1050.0
 20
742.5
  9
$ORTHOMODE
 70
     0
  9
$REGENMODE
 70
     1
  9
$FILLMODE
 70
     1
  9
$QTEXTMODE
 70
     0
  9
$MIRRTEXT
 70
     1
  9
$LTSCALE
 40
5.0
  9
$ATTMODE
 70
     1
  9
$TEXTSIZE
 40
2.5
  9
$TRACEWID
 40
1.0
  9
$TEXTSTYLE
  7
Standard
  9
$CLAYER
  8
0
  9
$CELTYPE
  6
ByLayer
  9
$CECOLOR
 62
   256
  9
$CELTSCALE
 40
1.0
  9
$DISPSILH
 70
     0
  9
$DIMSCALE
 40
1.0
  9
$DIMASZ
 40
2.5
  9
$DIMEXO
 40
0.625
  9
$DIMDLI
 40
3.75
  9
$DIMRND
 40
0.0
  9
$DIMDLE
 40
0.0
  9
$DIMEXE
 40
1.25
  9
$DIMTP
 40
0.0
  9
$DIMTM
 40
0.0
  9
$DIMTXT
 40
2.5
  9
$DIMCEN
 40
2.5
  9
$DIMTSZ
 40
0.0
  9
$DIMTOL
 70
     0
  9
$DIMLIM
 70
     0
  9
$DIMTIH
 70
     0
  9
$DIMTOH
 70
     0
  9
$DIMSE1
 70
     0
  9
$DIMSE2
 70
     0
  9
$DIMTAD
 70
     1
  9
$DIMZIN
 70
     8
  9
$DIMBLK
  1

  9
$DIMASO
 70
     1
  9
$DIMSHO
 70
     1
  9
$DIMPOST
  1

  9
$DIMAPOST
  1

  9
$DIMALT
 70
     0
  9
$DIMALTD
 70
     3
  9
$DIMALTF
 40
0.03937007874016
  9
$DIMLFAC
 40
1.0
  9
$DIMTOFL
 70
     1
  9
$DIMTVP
 40
0.0
  9
$DIMTIX
 70
     0
  9
$DIMSOXD
 70
     0
  9
$DIMSAH
 70
     0
  9
$DIMBLK1
  1

  9
$DIMBLK2
  1

  9
$DIMSTYLE
  2
ISO-25
  9
$DIMCLRD
 70
     0
  9
$DIMCLRE
 70
     0
  9
$DIMCLRT
 70
     0
  9
$DIMTFAC
 40
1.0
  9
$DIMGAP
 40
0.625
  9
$DIMJUST
 70
     0
  9
$DIMSD1
 70
     0
  9
$DIMSD2
 70
     0
  9
$DIMTOLJ
 70
     0
  9
$DIMTZIN
 70
     8
  9
$DIMALTZ
 70
     0
  9
$DIMALTTZ
 70
     0
  9
$DIMUPT
 70
     0
  9
$DIMDEC
 70
     2
  9
$DIMTDEC
 70
     2
  9
$DIMALTU
 70
     2
  9
$DIMALTTD
 70
     3
  9
$DIMTXSTY
  7
Standard
  9
$DIMAUNIT
 70
     0
  9
$DIMADEC
 70
     0
  9
$DIMALTRND
 40
0.0
  9
$DIMAZIN
 70
     0
  9
$DIMDSEP
 70
    44
  9
$DIMATFIT
 70
     3
  9
$DIMFRAC
 70
     0
  9
$DIMLDRBLK
  1

  9
$DIMLUNIT
 70
     2
  9
$DIMLWD
 70
    -2
  9
$DIMLWE
 70
    -2
  9
$DIMTMOVE
 70
     0
  9
$LUNITS
 70
     2
  9
$LUPREC
 70
     4
  9
$SKETCHINC
 40
1.0
  9
$FILLETRAD
 40
10.0
  9
$AUNITS
 70
     0
  9
$AUPREC
 70
     0
  9
$MENU
  1
.
  9
$ELEVATION
 40
0.0
  9
$PELEVATION
 40
0.0
  9
$THICKNESS
 40
0.0
  9
$LIMCHECK
 70
     0
  9
$CHAMFERA
 40
10.0
  9
$CHAMFERB
 40
10.0
  9
$CHAMFERC
 40
20.0
  9
$CHAMFERD
 40
0.0
  9
$SKPOLY
 70
     0
  9
$TDCREATE
 40
2457352.398817616
  9
$TDUCREATE
 40
2457352.023817616
  9
$TDUPDATE
 40
2457352.398817627
  9
$TDUUPDATE
 40
2457352.023817627
  9
$TDINDWG
 40
0.0000000116
  9
$TDUSRTIMER
 40
0.0000000116
  9
$USRTIMER
 70
     1
  9
$ANGBASE
 50
0.0
  9
$ANGDIR
 70
     0
  9
$PDMODE
 70
     0
  9
$PDSIZE
 40
0.0
  9
$PLINEWID
 40
0.0
  9
$SPLFRAME
 70
     0
  9
$SPLINETYPE
 70
     6
  9
$SPLINESEGS
 70
     8
  9
$HANDSEED
  5
629
  9
$SURFTAB1
 70
     6
  9
$SURFTAB2
 70
     6
  9
$SURFTYPE
 70
     6
  9
$SURFU
 70
     6
  9
$SURFV
 70
     6
  9
$UCSBASE
  2

  9
$UCSNAME
  2

  9
$UCSORG
 10
0.0
 20
0.0
 30
0.0
  9
$UCSXDIR
 10
1.0
 20
0.0
 30
0.0
  9
$UCSYDIR
 10
0.0
 20
1.0
 30
0.0
  9
$UCSORTHOREF
  2

  9
$UCSORTHOVIEW
 70
     0
  9
$UCSORGTOP
 10
0.0
 20
0.0
 30
0.0
  9
$UCSORGBOTTOM
 10
0.0
 20
0.0
 30
0.0
  9
$UCSORGLEFT
 10
0.0
 20
0.0
 30
0.0
  9
$UCSORGRIGHT
 10
0.0
 20
0.0
 30
0.0
  9
$UCSORGFRONT
 10
0.0
 20
0.0
 30
0.0
  9
$UCSORGBACK
 10
0.0
 20
0.0
 30
0.0
  9
$PUCSBASE
  2

  9
$PUCSNAME
  2

  9
$PUCSORG
 10
0.0
 20
0.0
 30
0.0
  9
$PUCSXDIR
 10
1.0
 20
0.0
 30
0.0
  9
$PUCSYDIR
 10
0.0
 20
1.0
 30
0.0
  9
$PUCSORTHOREF
  2

  9
$PUCSORTHOVIEW
 70
     0
  9
$PUCSORGTOP
 10
0.0
 20
0.0
 30
0.0
  9
$PUCSORGBOTTOM
 10
0.0
 20
0.0
 30
0.0
  9
$PUCSORGLEFT
 10
0.0
 20
0.0
 30
0.0
  9
$PUCSORGRIGHT
 10
0.0
 20
0.0
 30
0.0
  9
$PUCSORGFRONT
 10
0.0
 20
0.0
 30
0.0
  9
$PUCSORGBACK
 10
0.0
 20
0.0
 30
0.0
  9
$USERI1
 70
     0
  9
$USERI2
 70
     0
  9
$USERI3
 70
     0
  9
$USERI4
 70
     0
  9
$USERI5
 70
     0
  9
$USERR1
 40
0.0
  9
$USERR2
 40
0.0
  9
$USERR3
 40
0.0
  9
$USERR4
 40
0.0
  9
$USERR5
 40
0.0
  9
$WORLDVIEW
 70
     1
  9
$SHADEDGE
 70
     3
  9
$SHADEDIF
 70
    70
  9
$TILEMODE
 70
     1
  9
$MAXACTVP
 70
    64
  9
$PINSBASE
 10
0.0
 20
0.0
 30
0.0
  9
$PLIMCHECK
 70
     0
  9
$PEXTMIN
 10
1.000000000000000E+20
 20
1.000000000000000E+20
 30
1.000000000000000E+20
  9
$PEXTMAX
 10
-1.000000000000000E+20
 20
-1.000000000000000E+20
 30
-1.000000000000000E+20
  9
$PLIMMIN
 10
0.0
 20
0.0
  9
$PLIMMAX
 10
420.0
 20
297.0
  9
$UNITMODE
 70
     0
  9
$VISRETAIN
 70
     1
  9
$PLINEGEN
 70
     0
  9
$PSLTSCALE
 70
     1
  9
$TREEDEPTH
 70
  3020
  9
$CMLSTYLE
  2
Standard
  9
$CMLJUST
 70
     0
  9
$CMLSCALE
 40
20.0
  9
$PROXYGRAPHICS
 70
     1
  9
$MEASUREMENT
 70
     1
  9
$CELWEIGHT
370
    -1
  9
$ENDCAPS
280
     0
  9
$JOINSTYLE
280
     0
  9
$LWDISPLAY
290
     0
  9
$INSUNITS
 70
     4
  9
$HYPERLINKBASE
  1

  9
$STYLESHEET
  1

  9
$XEDIT
290
     1
  9
$CEPSNTYPE
380
     0
  9
$PSTYLEMODE
290
     1
  9
$FINGERPRINTGUID
  2
{A72F336C-EE26-4ACF-9315-3D88AC8DA37E}
  9
$VERSIONGUID
  2
{FAEB1C32-E019-11D5-929B-00C0DF256EC4}
  9
$EXTNAMES
290
     1
  9
$PSVPSCALE
 40
0.0
  9
$OLESTARTUP
290
     0
  9
$SORTENTS
280
   127
  9
$INDEXCTL
280
     0
  9
$HIDETEXT
280
     1
  9
$XCLIPFRAME
290
     0
  9
$HALOGAP
280
     0
  9
$OBSCOLOR
 70
   257
  9
$OBSLTYPE
280
     0
  9
$INTERSECTIONDISPLAY
280
     0
  9
$INTERSECTIONCOLOR
 70
   257
  9
$DIMASSOC
280
     2
  9
$PROJECTNAME
  1

  0
ENDSEC
  0
SECTION
  2
CLASSES
  0
CLASS
  1
ACDBDICTIONARYWDFLT
  2
AcDbDictionaryWithDefault
  3
ObjectDBX Classes
 90
        0
 91
        4
280
     0
281
     0
  0
CLASS
  1
VISUALSTYLE
  2
AcDbVisualStyle
  3
ObjectDBX Classes
 90
     4095
 91
        4
280
     0
281
     0
  0
ENDSEC
  0
SECTION
  2
TABLES
  0
TABLE
  2
VPORT
  5
8
330
0
100
AcDbSymbolTable
 70
     1
  0
VPORT
  5
29
330
8
100
AcDbSymbolTableRecord
100
AcDbViewportTableRecord
  2
*Active
 70
     0
 10
0.0
 20
0.0
 11
1.0
 21
1.0
 12
0.0
 22
0.0
 13
0.0
 23
0.0
 14
10.0
 24
10.0
 15
10.0
 25
10.0
 16
0.0
 26
0.0
 36
1.0
 17
0.0
 27
0.0
 37
0.0
 40
1633.5
 41
1.414141414141414
 42
50.0
 43
0.0
 44
0.0
 50
0.0
 51
0.0
 71
     0
 72
 10000
 73
     1
 74
     3
 75
     0
 76
     0
 77
     0
 78
     0
281
     0
 65
     1
110
0.0
120
0.0
130
0.0
111
1.0
121
0.0
131
0.0
112
0.0
122
1.0
132
0.0
 79
     0
146
0.0
  0
ENDTAB
  0
TABLE
  2
LTYPE
  5
5
330
0
100
AcDbSymbolTable
 70
     5
  0
LTYPE
  5
14
330
5
100
AcDbSymbolTableRecord
100
AcDbLinetypeTableRecord
  2
ByBlock
 70
     0
  3

 72
    65
 73
     0
 40
0.0
  0
LTYPE
  5
15
330
5
100
AcDbSymbolTableRecord
100
AcDbLinetypeTableRecord
  2
ByLayer
 70
     0
  3

 72
    65
 73
     0
 40
0.0
  0
LTYPE
  5
16
330
5
100
AcDbSymbolTableRecord
100
AcDbLinetypeTableRecord
  2
Continuous
 70
     0
  3
Solid line
 72
    65
 73
     0
 40
0.0
  0
LTYPE
  5
3C
330
5
100
AcDbSymbolTableRecord
100
AcDbLinetypeTableRecord
  2
JWW_DASHED1
 70
     0
  3
-  --  --  --  --  --  --  --  -
 72
    65
 73
     2
 40
1.693333333333333
 49
0.8466666666666667
 74
     0
 49
-0.8466666666666667
 74
     0
  0
LTYPE
  5
3D
330
5
100
AcDbSymbolTableRecord
100
AcDbLinetypeTableRecord
  2
JWW_CENTER1
 70
     0
  3
-----  --  ----------  --  -----
 72
    65
 73
     4
 40
6.773333333333333
 49
4.233333333333333
 74
     0
 49
-0.8466666666666667
 74
     0
 49
0.8466666666666667
 74
     0
 49
-0.8466666666666667
 74
     0
  0
LTYPE
  5
3E
330
5
100
AcDbSymbolTableRecord
100
AcDbLinetypeTableRecord
  2
JWW_DASHED3
 70
     0
  3
---  ------  ------  ------  ---
 72
    65
 73
     2
 40
3.386666666666667
 49
2.54
 74
     0
 49
-0.8466666666666667
 74
     0
  0
LTYPE
  5
3F
330
5
100
AcDbSymbolTableRecord
100
AcDbLinetypeTableRecord
  2
JWW_PHANTOM2
 70
     0
  3
------------  -  -  ------------
 72
    65
 73
     6
 40
13.54666666666667
 49
10.16
 74
     0
 49
-0.8466666666666667
 74
     0
 49
0.4233333333333333
 74
     0
 49
-0.8466666666666667
 74
     0
 49
0.4233333333333333
 74
     0
 49
-0.8466666666666667
 74
     0
  0
ENDTAB
  0
TABLE
  2
LAYER
  5
2
330
0
100
AcDbSymbolTable
 70
    23
  0
LAYER
  5
10
330
2
100
AcDbSymbolTableRecord
100
AcDbLayerTableRecord
  2
0
 70
     0
 62
     7
  6
Continuous
370
    -3
390
F
  0
LAYER
  5
40
330
2
100
AcDbSymbolTableRecord
100
AcDbLayerTableRecord
  2
D-B
 70
     0
 62
     7
  6
Continuous
370
    -3
390
F
  0
LAYER
  5
41
330
2
100
AcDbSymbolTableRecord
100
AcDbLayerTableRecord
  2
その他
 70
     0
 62
     7
  6
Continuous
370
    -3
390
F
  0
LAYER
  5
42
330
2
100
AcDbSymbolTableRecord
100
AcDbLayerTableRecord
  2
1-4ﾚｲﾔ
 70
     0
 62
     7
  6
Continuous
370
    -3
390
F
  0
LAYER
  5
43
330
2
100
AcDbSymbolTableRecord
100
AcDbLayerTableRecord
  2
F-0ﾚｲﾔ
 70
     0
 62
     7
  6
Continuous
370
    -3
390
F
  0
LAYER
  5
44
330
2
100
AcDbSymbolTableRecord
100
AcDbLayerTableRecord
  2
通り芯
 70
     0
 62
     7
  6
Continuous
370
    -3
390
F
  0
LAYER
  5
45
330
2
100
AcDbSymbolTableRecord
100
AcDbLayerTableRecord
  2
躯体
 70
     0
 62
     7
  6
Continuous
370
    -3
390
F
  0
LAYER
  5
46
330
2
100
AcDbSymbolTableRecord
100
AcDbLayerTableRecord
  2
0-A
 70
     0
 62
     7
  6
Continuous
370
    -3
390
F
  0
LAYER
  5
47
330
2
100
AcDbSymbolTableRecord
100
AcDbLayerTableRecord
  2
0-7
 70
     0
 62
     7
  6
Continuous
370
    -3
390
F
  0
LAYER
  5
48
330
2
100
AcDbSymbolTableRecord
100
AcDbLayerTableRecord
  2
仕上
 70
     0
 62
     7
  6
Continuous
370
    -3
390
F
  0
LAYER
  5
49
330
2
100
AcDbSymbolTableRecord
100
AcDbLayerTableRecord
  2
建具
 70
     0
 62
     7
  6
Continuous
370
    -3
390
F
  0
LAYER
  5
4A
330
2
100
AcDbSymbolTableRecord
100
AcDbLayerTableRecord
  2
0-9
 70
     0
 62
     7
  6
Continuous
370
    -3
390
F
  0
LAYER
  5
4B
330
2
100
AcDbSymbolTableRecord
100
AcDbLayerTableRecord
  2
D-4
 70
     0
 62
     7
  6
Continuous
370
    -3
390
F
  0
LAYER
  5
4C
330
2
100
AcDbSymbolTableRecord
100
AcDbLayerTableRecord
  2
D-1
 70
     0
 62
     7
  6
Continuous
370
    -3
390
F
  0
LAYER
  5
4D
330
2
100
AcDbSymbolTableRecord
100
AcDbLayerTableRecord
  2
D-5
 70
     0
 62
     7
  6
Continuous
370
    -3
390
F
  0
LAYER
  5
4E
330
2
100
AcDbSymbolTableRecord
100
AcDbLayerTableRecord
  2
D-A
 70
     0
 62
     7
  6
Continuous
370
    -3
390
F
  0
LAYER
  5
4F
330
2
100
AcDbSymbolTableRecord
100
AcDbLayerTableRecord
  2
D-7
 70
     0
 62
     7
  6
Continuous
370
    -3
390
F
  0
LAYER
  5
50
330
2
100
AcDbSymbolTableRecord
100
AcDbLayerTableRecord
  2
D-6
 70
     0
 62
     7
  6
Continuous
370
    -3
390
F
  0
LAYER
  5
51
330
2
100
AcDbSymbolTableRecord
100
AcDbLayerTableRecord
  2
D-2
 70
     0
 62
     7
  6
Continuous
370
    -3
390
F
  0
LAYER
  5
52
330
2
100
AcDbSymbolTableRecord
100
AcDbLayerTableRecord
  2
D-3
 70
     0
 62
     7
  6
Continuous
370
    -3
390
F
  0
LAYER
  5
53
330
2
100
AcDbSymbolTableRecord
100
AcDbLayerTableRecord
  2
D-0
 70
     0
 62
     7
  6
Continuous
370
    -3
390
F
  0
LAYER
  5
54
330
2
100
AcDbSymbolTableRecord
100
AcDbLayerTableRecord
  2
D-D
 70
     0
 62
     7
  6
Continuous
370
    -3
390
F
  0
LAYER
  5
55
330
2
100
AcDbSymbolTableRecord
100
AcDbLayerTableRecord
  2
D-F
 70
     0
 62
     7
  6
Continuous
370
    -3
390
F
  0
ENDTAB
  0
TABLE
  2
STYLE
  5
3
330
0
100
AcDbSymbolTable
 70
     2
  0
STYLE
  5
11
330
3
100
AcDbSymbolTableRecord
100
AcDbTextStyleTableRecord
  2
Standard
 70
     0
 40
0.0
 41
1.0
 50
0.0
 71
     0
 42
2.5
  3
txt
  4

1001
ACAD
1000

1071
        0
  0
STYLE
  5
3B
330
3
100
AcDbSymbolTableRecord
100
AcDbTextStyleTableRecord
  2
ＭＳ ゴシック
 70
     0
 40
1.0
 41
1.0
 50
0.0
 71
     0
 42
10.0
  3

  4

1001
ACAD
1000
MS Gothic
1071
    32817
  0
ENDTAB
  0
TABLE
  2
VIEW
  5
6
330
0
100
AcDbSymbolTable
 70
     0
  0
ENDTAB
  0
TABLE
  2
UCS
  5
7
330
0
100
AcDbSymbolTable
 70
     0
  0
ENDTAB
  0
TABLE
  2
APPID
  5
9
330
0
100
AcDbSymbolTable
 70
     1
  0
APPID
  5
12
330
9
100
AcDbSymbolTableRecord
100
AcDbRegAppTableRecord
  2
ACAD
 70
     0
  0
ENDTAB
  0
TABLE
  2
DIMSTYLE
  5
A
330
0
100
AcDbSymbolTable
 70
     1
100
AcDbDimStyleTable
  0
DIMSTYLE
105
27
330
A
100
AcDbSymbolTableRecord
100
AcDbDimStyleTableRecord
  2
ISO-25
 70
     0
 41
2.5
 42
0.625
 43
3.75
 44
1.25
 73
     0
 74
     0
 77
     1
 78
     8
140
2.5
141
2.5
143
0.03937007874016
147
0.625
171
     3
172
     1
271
     2
272
     2
274
     3
278
    44
283
     0
284
     8
340
11
  0
ENDTAB
  0
TABLE
  2
BLOCK_RECORD
  5
1
330
0
100
AcDbSymbolTable
 70
     1
  0
BLOCK_RECORD
  5
1F
330
1
100
AcDbSymbolTableRecord
100
AcDbBlockTableRecord
  2
*Model_Space
340
22
  0
BLOCK_RECORD
  5
1B
330
1
100
AcDbSymbolTableRecord
100
AcDbBlockTableRecord
  2
*Paper_Space
340
1E
  0
BLOCK_RECORD
  5
23
330
1
100
AcDbSymbolTableRecord
100
AcDbBlockTableRecord
  2
*Paper_Space0
340
26
  0
ENDTAB
  0
ENDSEC
  0
SECTION
  2
BLOCKS
  0
BLOCK
  5
20
330
1F
100
AcDbEntity
  8
0
100
AcDbBlockBegin
  2
*Model_Space
 70
     0
 10
0.0
 20
0.0
 30
0.0
  3
*Model_Space
  1

  0
ENDBLK
  5
21
330
1F
100
AcDbEntity
  8
0
100
AcDbBlockEnd
  0
BLOCK
  5
1C
330
1B
100
AcDbEntity
 67
     1
  8
0
100
AcDbBlockBegin
  2
*Paper_Space
 70
     0
 10
0.0
 20
0.0
 30
0.0
  3
*Paper_Space
  1

  0
ENDBLK
  5
1D
330
1B
100
AcDbEntity
 67
     1
  8
0
100
AcDbBlockEnd
  0
BLOCK
  5
24
330
23
100
AcDbEntity
  8
0
100
AcDbBlockBegin
  2
*Paper_Space0
 70
     0
 10
0.0
 20
0.0
 30
0.0
  3
*Paper_Space0
  1

  0
ENDBLK
  5
25
330
23
100
AcDbEntity
  8
0
100
AcDbBlockEnd
  0
ENDSEC
  0
SECTION
  2
ENTITIES
  0
LINE
  5
56
330
1F
100
AcDbEntity
  8
D-B
  6
Continuous
 62
     7
370
     9
100
AcDbLine
 10
323.7816269333299
 20
409.5420074961461
 30
0.0
 11
323.7816269333299
 21
452.0420239921341
 31
0.0
  0
LINE
  5
57
330
1F
100
AcDbEntity
  8
その他
  6
Continuous
 62
     7
370
     9
100
AcDbLine
 10
-729.7297297297297
 20
416.4977367504224
 30
0.0
 11
-129.7297297297297
 21
416.4977367504224
 31
0.0
  0
LINE
  5
58
330
1F
100
AcDbEntity
  8
その他
  6
Continuous
 62
     7
370
     9
100
AcDbLine
 10
-742.7297231313344
 20
455.9896273226352
 30
0.0
 11
-116.729736328125
 21
455.9896273226352
 31
0.0
  0
LINE
  5
59
330
1F
100
AcDbEntity
  8
その他
  6
Continuous
 62
     7
370
     9
100
AcDbLine
 10
-742.7297231313344
 20
337.0985041437923
 30
0.0
 11
-742.7297231313344
 21
457.4896075274494
 31
0.0
  0
LINE
  5
5A
330
1F
100
AcDbEntity
  8
その他
  6
Continuous
 62
     7
370
     9
100
AcDbLine
 10
-116.729736328125
 20
337.0985041437923
 30
0.0
 11
-116.729736328125
 21
457.4896075274494
 31
0.0
  0
LINE
  5
5B
330
1F
100
AcDbEntity
  8
その他
  6
Continuous
 62
     7
370
     9
100
AcDbLine
 10
-829.6287949020798
 20
316.5971250791808
 30
0.0
 11
-829.6194540487752
 21
-283.4028439908414
 31
0.0
  0
LINE
  5
5C
330
1F
100
AcDbEntity
  8
その他
  6
Continuous
 62
     7
370
     9
100
AcDbLine
 10
-869.1208710541596
 20
329.5964998812289
 30
0.0
 11
-869.1111590411213
 21
-296.4034559920027
 31
0.0
  0
LINE
  5
5D
330
1F
100
AcDbEntity
  8
その他
  6
Continuous
 62
     7
370
     9
100
AcDbLine
 10
-750.2297478753167
 20
329.5983556798987
 30
0.0
 11
-870.6208512589739
 21
329.5964998812289
 31
0.0
  0
LINE
  5
5E
330
1F
100
AcDbEntity
  8
その他
  6
Continuous
 62
     7
370
     9
100
AcDbLine
 10
-750.2200358622782
 20
-296.4016001933329
 30
0.0
 11
-870.6111392459354
 21
-296.4034869219805
 31
0.0
  0
LINE
  5
5F
330
1F
100
AcDbEntity
  8
1-4ﾚｲﾔ
  6
Continuous
 62
     7
370
     9
100
AcDbLine
 10
-568.7236064189188
 20
-401.9594903894372
 30
0.0
 11
-303.4594561602619
 21
-401.9594903894372
 31
0.0
  0
TEXT
  5
60
330
1F
100
AcDbEntity
  8
その他
  6
Continuous
 62
     2
370
     9
100
AcDbText
 10
-445.9797297297297
 20
421.8177449984164
 30
0.0
 40
15.24
  1
600
 41
1.083333333333333
  7
ＭＳ ゴシック
100
AcDbText
  0
TEXT
  5
61
330
1F
100
AcDbEntity
  8
その他
  6
Continuous
 62
     2
370
     9
100
AcDbText
 10
-445.9797297297297
 20
461.3096355706293
 30
0.0
 40
15.24
  1
626
 41
1.083333333333333
  7
ＭＳ ゴシック
100
AcDbText
  0
TEXT
  5
62
330
1F
100
AcDbEntity
  8
その他
  6
Continuous
 62
     2
370
     9
100
AcDbText
 10
-834.9438543531687
 20
0.3470202807610946
 30
0.0
 40
15.24
  1
600
 50
90.0008724470594
 41
1.083333333333333
  7
ＭＳ ゴシック
100
AcDbText
  0
TEXT
  5
63
330
1F
100
AcDbEntity
  8
その他
  6
Continuous
 62
     2
370
     9
100
AcDbText
 10
-874.4357449253815
 20
0.3464016812045202
 30
0.0
 40
15.24
  1
626
 50
90.0008724470594
 41
1.083333333333333
  7
ＭＳ ゴシック
100
AcDbText
  0
TEXT
  5
64
330
1F
100
AcDbEntity
  8
1-4ﾚｲﾔ
  6
Continuous
 62
     2
370
     9
100
AcDbText
 10
-556.9999055604677
 20
-395.7795050378747
 30
0.0
 40
15.24
  1
平面詳細図　Ｓ＝１：５
 41
1.113636363636364
  7
ＭＳ ゴシック
100
AcDbText
  0
TEXT
  5
65
330
1F
100
AcDbEntity
  8
F-0ﾚｲﾔ
  6
Continuous
 62
     7
370
     9
100
AcDbText
 10
-390.9732962943411
 20
-663.4403704339104
 30
0.0
 40
11.43
  1
アルミ＋スチール製　アルミ目地
 41
1.155555555555555
  7
ＭＳ ゴシック
100
AcDbText
  0
TEXT
  5
66
330
1F
100
AcDbEntity
  8
F-0ﾚｲﾔ
  6
Continuous
 62
     7
370
     9
100
AcDbText
 10
-390.9732694883604
 20
-683.4403745579075
 30
0.0
 40
11.43
  1
　　　　　　一般型　フロアハッチ　　　ＭＯＦＥ－６００－１５－Ｃ
 41
1.161458333333333
  7
ＭＳ ゴシック
100
AcDbText
  0
LWPOLYLINE
  5
67
330
1F
100
AcDbEntity
  8
その他
  6
Continuous
 62
     7
370
     9
100
AcDbPolyline
 90
        4
 70
     1
 43
0.5
 10
-729.4797297297296
 20
416.4977367504224
 42
0.4142135623731
 10
-729.7297297297297
 20
416.7477367504224
 42
0.4142135623731
 10
-729.9797297297298
 20
416.4977367504224
 42
0.4142135623731
 10
-729.7297297297297
 20
416.2477367504224
 42
0.4142135623731
  0
LWPOLYLINE
  5
68
330
1F
100
AcDbEntity
  8
その他
  6
Continuous
 62
     7
370
     9
100
AcDbPolyline
 90
        4
 70
     1
 43
0.5
 10
-129.4797297297297
 20
416.4977367504224
 42
0.4142135623731
 10
-129.7297297297297
 20
416.7477367504224
 42
0.4142135623731
 10
-129.9797297297297
 20
416.4977367504224
 42
0.4142135623731
 10
-129.7297297297297
 20
416.2477367504224
 42
0.4142135623731
  0
LWPOLYLINE
  5
69
330
1F
100
AcDbEntity
  8
その他
  6
Continuous
 62
     7
370
     9
100
AcDbPolyline
 90
        4
 70
     1
 43
0.5
 10
-742.4797231313344
 20
455.9896273226352
 42
0.4142135623731
 10
-742.7297231313344
 20
456.2396273226352
 42
0.4142135623731
 10
-742.9797231313344
 20
455.9896273226352
 42
0.4142135623731
 10
-742.7297231313344
 20
455.7396273226352
 42
0.4142135623731
  0
LWPOLYLINE
  5
6A
330
1F
100
AcDbEntity
  8
その他
  6
Continuous
 62
     7
370
     9
100
AcDbPolyline
 90
        4
 70
     1
 43
0.5
 10
-116.479736328125
 20
455.9896273226352
 42
0.4142135623731
 10
-116.729736328125
 20
456.2396273226352
 42
0.4142135623731
 10
-116.979736328125
 20
455.9896273226352
 42
0.4142135623731
 10
-116.729736328125
 20
455.7396273226352
 42
0.4142135623731
  0
LWPOLYLINE
  5
6B
330
1F
100
AcDbEntity
  8
その他
  6
Continuous
 62
     7
370
     9
100
AcDbPolyline
 90
        4
 70
     1
 43
0.5
 10
-829.3787949020798
 20
316.5971250791808
 42
0.4142135623731
 10
-829.6287949020798
 20
316.8471250791808
 42
0.4142135623731
 10
-829.8787949020799
 20
316.5971250791808
 42
0.4142135623731
 10
-829.6287949020798
 20
316.3471250791809
 42
0.4142135623731
  0
LWPOLYLINE
  5
6C
330
1F
100
AcDbEntity
  8
その他
  6
Continuous
 62
     7
370
     9
100
AcDbPolyline
 90
        4
 70
     1
 43
0.5
 10
-829.3694540487752
 20
-283.4028439908414
 42
0.4142135623731
 10
-829.6194540487752
 20
-283.1528439908414
 42
0.4142135623731
 10
-829.8694540487753
 20
-283.4028439908414
 42
0.4142135623731
 10
-829.6194540487752
 20
-283.6528439908414
 42
0.4142135623731
  0
LWPOLYLINE
  5
6D
330
1F
100
AcDbEntity
  8
その他
  6
Continuous
 62
     7
370
     9
100
AcDbPolyline
 90
        4
 70
     1
 43
0.5
 10
-868.8708710541596
 20
329.5964998812289
 42
0.4142135623731
 10
-869.1208710541596
 20
329.8464998812289
 42
0.4142135623731
 10
-869.3708710541597
 20
329.5964998812289
 42
0.4142135623731
 10
-869.1208710541596
 20
329.3464998812289
 42
0.4142135623731
  0
LWPOLYLINE
  5
6E
330
1F
100
AcDbEntity
  8
その他
  6
Continuous
 62
     7
370
     9
100
AcDbPolyline
 90
        4
 70
     1
 43
0.5
 10
-868.8611590411211
 20
-296.4034559920027
 42
0.4142135623731
 10
-869.1111590411213
 20
-296.1534559920028
 42
0.4142135623731
 10
-869.3611590411213
 20
-296.4034559920027
 42
0.4142135623731
 10
-869.1111590411213
 20
-296.6534559920027
 42
0.4142135623731
  0
LINE
  5
6F
330
1F
100
AcDbEntity
  8
通り芯
  6
Continuous
 62
     4
370
     9
100
AcDbLine
 10
-141.7297069299175
 20
-271.40355334779
 30
0.0
 11
-717.7297525295421
 21
-271.40355334779
 31
0.0
  0
LINE
  5
70
330
1F
100
AcDbEntity
  8
通り芯
  6
Continuous
 62
     4
370
     9
100
AcDbLine
 10
-141.7297069299175
 20
304.5964922518343
 30
0.0
 11
-141.7297069299175
 21
-271.40355334779
 31
0.0
  0
LINE
  5
71
330
1F
100
AcDbEntity
  8
通り芯
  6
Continuous
 62
     4
370
     9
100
AcDbLine
 10
-717.7297525295421
 20
304.5964922518343
 30
0.0
 11
-141.7297069299175
 21
304.5964922518343
 31
0.0
  0
LINE
  5
72
330
1F
100
AcDbEntity
  8
通り芯
  6
Continuous
 62
     4
370
     9
100
AcDbLine
 10
-717.7297525295421
 20
-271.40355334779
 30
0.0
 11
-717.7297525295421
 21
304.5964922518343
 31
0.0
  0
LINE
  5
73
330
1F
100
AcDbEntity
  8
通り芯
  6
Continuous
 62
     4
370
     9
100
AcDbLine
 10
-729.7297687898731
 20
-283.4034646229394
 30
0.0
 11
-729.7297687898731
 21
316.5965085121655
 31
0.0
  0
LINE
  5
74
330
1F
100
AcDbEntity
  8
通り芯
  6
Continuous
 62
     4
370
     9
100
AcDbLine
 10
-129.7297431621773
 20
-283.4034646229395
 30
0.0
 11
-729.7297687898731
 21
-283.4034646229394
 31
0.0
  0
LINE
  5
75
330
1F
100
AcDbEntity
  8
通り芯
  6
Continuous
 62
     4
370
     9
100
AcDbLine
 10
-129.7297431621773
 20
316.5965085121655
 30
0.0
 11
-129.7297431621773
 21
-283.4034646229395
 31
0.0
  0
LINE
  5
76
330
1F
100
AcDbEntity
  8
通り芯
  6
Continuous
 62
     4
370
     9
100
AcDbLine
 10
-729.7297687898731
 20
316.5965085121655
 30
0.0
 11
-129.7297431621773
 21
316.5965085121655
 31
0.0
  0
LINE
  5
77
330
1F
100
AcDbEntity
  8
通り芯
  6
Continuous
 62
     4
370
     9
100
AcDbLine
 10
-727.2297566535392
 20
314.0964963758313
 30
0.0
 11
-132.2297552985114
 21
314.0964963758313
 31
0.0
  0
LINE
  5
78
330
1F
100
AcDbEntity
  8
通り芯
  6
Continuous
 62
     4
370
     9
100
AcDbLine
 10
-727.2297566535392
 20
-280.9035574717871
 30
0.0
 11
-727.2297566535392
 21
314.0964963758313
 31
0.0
  0
LINE
  5
79
330
1F
100
AcDbEntity
  8
通り芯
  6
Continuous
 62
     4
370
     9
100
AcDbLine
 10
-132.2297552985114
 20
-280.9035574717872
 30
0.0
 11
-727.2297566535392
 21
-280.9035574717871
 31
0.0
  0
LINE
  5
7A
330
1F
100
AcDbEntity
  8
通り芯
  6
Continuous
 62
     4
370
     9
100
AcDbLine
 10
-132.2297552985114
 20
314.0964963758313
 30
0.0
 11
-132.2297552985114
 21
-280.9035574717872
 31
0.0
  0
LINE
  5
7B
330
1F
100
AcDbEntity
  8
通り芯
  6
Continuous
 62
     4
370
     9
100
AcDbLine
 10
-720.229764665876
 20
307.0965043881685
 30
0.0
 11
-139.2296947935834
 21
307.0965043881685
 31
0.0
  0
LINE
  5
7C
330
1F
100
AcDbEntity
  8
通り芯
  6
Continuous
 62
     4
370
     9
100
AcDbLine
 10
-720.229764665876
 20
-273.9035654841243
 30
0.0
 11
-720.229764665876
 21
307.0965043881685
 31
0.0
  0
LINE
  5
7D
330
1F
100
AcDbEntity
  8
通り芯
  6
Continuous
 62
     4
370
     9
100
AcDbLine
 10
-139.2296947935834
 20
-273.9035654841243
 30
0.0
 11
-720.229764665876
 21
-273.9035654841243
 31
0.0
  0
LINE
  5
7E
330
1F
100
AcDbEntity
  8
通り芯
  6
Continuous
 62
     4
370
     9
100
AcDbLine
 10
-139.2296947935834
 20
307.0965043881685
 30
0.0
 11
-139.2296947935834
 21
-273.9035654841243
 31
0.0
  0
LINE
  5
7F
330
1F
100
AcDbEntity
  8
躯体
  6
Continuous
 62
     2
370
     9
100
AcDbLine
 10
-730.7296476621887
 20
317.5964923696628
 30
0.0
 11
-128.729706812089
 21
317.5964923696628
 31
0.0
  0
LINE
  5
80
330
1F
100
AcDbEntity
  8
躯体
  6
Continuous
 62
     2
370
     9
100
AcDbLine
 10
-742.7296639225199
 20
329.596403644812
 30
0.0
 11
-116.7297430443488
 21
329.596403644812
 31
0.0
  0
LINE
  5
81
330
1F
100
AcDbEntity
  8
躯体
  6
Continuous
 62
     2
370
     9
100
AcDbLine
 10
-730.7296476621887
 20
-284.4035534656186
 30
0.0
 11
-730.7296476621887
 21
317.5964923696628
 31
0.0
  0
LINE
  5
82
330
1F
100
AcDbEntity
  8
躯体
  6
Continuous
 62
     2
370
     9
100
AcDbLine
 10
-742.7296639225199
 20
-296.4035697259498
 30
0.0
 11
-742.7296639225199
 21
329.596403644812
 31
0.0
  0
LINE
  5
83
330
1F
100
AcDbEntity
  8
躯体
  6
Continuous
 62
     2
370
     9
100
AcDbLine
 10
-128.729706812089
 20
-284.4035534656186
 30
0.0
 11
-730.7296476621887
 21
-284.4035534656186
 31
0.0
  0
LINE
  5
84
330
1F
100
AcDbEntity
  8
躯体
  6
Continuous
 62
     2
370
     9
100
AcDbLine
 10
-128.729706812089
 20
317.5964923696628
 30
0.0
 11
-128.729706812089
 21
-284.4035534656186
 31
0.0
  0
LINE
  5
85
330
1F
100
AcDbEntity
  8
躯体
  6
Continuous
 62
     2
370
     9
100
AcDbLine
 10
-116.7297430443488
 20
329.596403644812
 30
0.0
 11
-116.7297430443488
 21
-296.4035697259498
 31
0.0
  0
LINE
  5
86
330
1F
100
AcDbEntity
  8
躯体
  6
Continuous
 62
     2
370
     9
100
AcDbLine
 10
-116.7297430443488
 20
-296.4035697259498
 30
0.0
 11
-742.7296639225199
 21
-296.4035697259498
 31
0.0
  0
LINE
  5
87
330
1F
100
AcDbEntity
  8
躯体
  6
Continuous
 62
     2
370
     9
100
AcDbLine
 10
-740.2296517861856
 20
327.0963915084781
 30
0.0
 11
-119.229755180683
 21
327.0963915084781
 31
0.0
  0
LINE
  5
88
330
1F
100
AcDbEntity
  8
躯体
  6
Continuous
 62
     2
370
     9
100
AcDbLine
 10
-119.229755180683
 20
327.0963915084781
 30
0.0
 11
-119.229755180683
 21
-293.9034526044338
 31
0.0
  0
LINE
  5
89
330
1F
100
AcDbEntity
  8
躯体
  6
Continuous
 62
     2
370
     9
100
AcDbLine
 10
-119.229755180683
 20
-293.9034526044338
 30
0.0
 11
-740.2296517861856
 21
-293.9034526044338
 31
0.0
  0
LINE
  5
8A
330
1F
100
AcDbEntity
  8
躯体
  6
Continuous
 62
     2
370
     9
100
AcDbLine
 10
-740.2296517861856
 20
-293.9034526044338
 30
0.0
 11
-740.2296517861856
 21
327.0963915084781
 31
0.0
  0
LINE
  5
8B
330
1F
100
AcDbEntity
  8
躯体
  6
Continuous
 62
     2
370
     9
100
AcDbLine
 10
-733.2296597985228
 20
-286.9035656019527
 30
0.0
 11
-733.2296597985228
 21
320.0965045059971
 31
0.0
  0
LINE
  5
8C
330
1F
100
AcDbEntity
  8
躯体
  6
Continuous
 62
     2
370
     9
100
AcDbLine
 10
-733.2296597985228
 20
320.0965045059971
 30
0.0
 11
-126.2296946757549
 21
320.0965045059971
 31
0.0
  0
LINE
  5
8D
330
1F
100
AcDbEntity
  8
躯体
  6
Continuous
 62
     2
370
     9
100
AcDbLine
 10
-126.2296946757549
 20
-286.9035656019528
 30
0.0
 11
-733.2296597985228
 21
-286.9035656019527
 31
0.0
  0
LINE
  5
8E
330
1F
100
AcDbEntity
  8
躯体
  6
Continuous
 62
     2
370
     9
100
AcDbLine
 10
-126.2296946757549
 20
320.0965045059971
 30
0.0
 11
-126.2296946757549
 21
-286.9035656019528
 31
0.0
  0
LINE
  5
8F
330
1F
100
AcDbEntity
  8
躯体
  6
Continuous
 62
     2
370
     9
100
AcDbLine
 10
-128.729706812089
 20
-284.4035534656186
 30
0.0
 11
-116.7297430443488
 21
-296.4035697259498
 31
0.0
  0
LINE
  5
90
330
1F
100
AcDbEntity
  8
躯体
  6
Continuous
 62
     2
370
     9
100
AcDbLine
 10
-730.7296476621887
 20
-284.4035534656186
 30
0.0
 11
-742.7296639225199
 21
-296.4035697259498
 31
0.0
  0
LINE
  5
91
330
1F
100
AcDbEntity
  8
躯体
  6
Continuous
 62
     2
370
     9
100
AcDbLine
 10
-730.7296476621887
 20
317.5964923696628
 30
0.0
 11
-742.7296639225199
 21
329.596403644812
 31
0.0
  0
LINE
  5
92
330
1F
100
AcDbEntity
  8
躯体
  6
Continuous
 62
     2
370
     9
100
AcDbLine
 10
-128.729706812089
 20
317.5964923696628
 30
0.0
 11
-116.7297430443488
 21
329.596403644812
 31
0.0
  0
LINE
  5
93
330
1F
100
AcDbEntity
  8
0-A
  6
JWW_DASHED1
 62
     2
370
     9
100
AcDbLine
 10
-675.6296447400422
 20
316.5965085121655
 30
0.0
 11
-675.6296447400422
 21
316.2964608623254
 31
0.0
  0
LINE
  5
94
330
1F
100
AcDbEntity
  8
0-A
  6
JWW_DASHED1
 62
     2
370
     9
100
AcDbLine
 10
-677.679690386798
 20
314.2465202007514
 30
0.0
 11
-675.6296447400422
 21
316.2964608623254
 31
0.0
  0
LINE
  5
95
330
1F
100
AcDbEntity
  8
0-A
  6
JWW_DASHED1
 62
     2
370
     9
100
AcDbLine
 10
-681.7795717099457
 20
314.2465202007514
 30
0.0
 11
-677.679690386798
 21
314.2465202007514
 31
0.0
  0
LINE
  5
96
330
1F
100
AcDbEntity
  8
0-A
  6
JWW_DASHED1
 62
     2
370
     9
100
AcDbLine
 10
-681.7795717099457
 20
314.2465202007514
 30
0.0
 11
-683.8296173567016
 21
316.2964608623254
 31
0.0
  0
LINE
  5
97
330
1F
100
AcDbEntity
  8
0-A
  6
JWW_DASHED1
 62
     2
370
     9
100
AcDbLine
 10
-675.6296447400422
 20
316.2964608623254
 30
0.0
 11
-683.8296173567016
 21
316.2964608623254
 31
0.0
  0
LINE
  5
98
330
1F
100
AcDbEntity
  8
0-A
  6
JWW_DASHED1
 62
     2
370
     9
100
AcDbLine
 10
-683.8296173567016
 20
316.5965085121655
 30
0.0
 11
-683.8296173567016
 21
316.2964608623254
 31
0.0
  0
LINE
  5
99
330
1F
100
AcDbEntity
  8
0-A
  6
JWW_DASHED1
 62
     2
370
     9
100
AcDbLine
 10
-677.679690386798
 20
314.2465202007514
 30
0.0
 11
-677.679690386798
 21
308.2630997293245
 31
0.0
  0
LINE
  5
9A
330
1F
100
AcDbEntity
  8
0-A
  6
JWW_DASHED1
 62
     2
370
     9
100
AcDbLine
 10
-681.7795717099457
 20
314.2465202007514
 30
0.0
 11
-681.7795717099457
 21
308.2630997293245
 31
0.0
  0
LINE
  5
9B
330
1F
100
AcDbEntity
  8
0-A
  6
JWW_DASHED1
 62
     2
370
     9
100
AcDbLine
 10
-681.7795717099457
 20
308.2630997293245
 30
0.0
 11
-679.7296310483719
 21
291.5964921340059
 31
0.0
  0
LINE
  5
9C
330
1F
100
AcDbEntity
  8
0-A
  6
JWW_DASHED1
 62
     2
370
     9
100
AcDbLine
 10
-679.7296310483719
 20
291.5964921340059
 30
0.0
 11
-677.679690386798
 21
308.2630997293245
 31
0.0
  0
LINE
  5
9D
330
1F
100
AcDbEntity
  8
0-A
  6
JWW_DASHED1
 62
     2
370
     9
100
AcDbLine
 10
-680.4074153826505
 20
293.0105375488753
 30
0.0
 11
-679.0218209520731
 21
293.25473308195
 31
0.0
  0
LINE
  5
9E
330
1F
100
AcDbEntity
  8
0-A
  6
JWW_DASHED1
 62
     2
370
     9
100
AcDbLine
 10
-680.6241047980702
 20
294.7722938861625
 30
0.0
 11
-678.7955778851011
 21
295.0947033797451
 31
0.0
  0
LINE
  5
9F
330
1F
100
AcDbEntity
  8
0-A
  6
JWW_DASHED1
 62
     2
370
     9
100
AcDbLine
 10
-682.1409307060094
 20
307.1047982175378
 30
0.0
 11
-677.2114564755708
 21
307.9740755235827
 31
0.0
  0
LINE
  5
A0
330
1F
100
AcDbEntity
  8
0-A
  6
JWW_DASHED1
 62
     2
370
     9
100
AcDbLine
 10
-681.9242412905896
 20
305.3430418802503
 30
0.0
 11
-677.4376995425428
 21
306.1341052257876
 31
0.0
  0
LINE
  5
A1
330
1F
100
AcDbEntity
  8
0-A
  6
JWW_DASHED1
 62
     2
370
     9
100
AcDbLine
 10
-681.7075518751699
 20
303.5812855429631
 30
0.0
 11
-677.6639426095144
 21
304.2942399131745
 31
0.0
  0
LINE
  5
A2
330
1F
100
AcDbEntity
  8
0-A
  6
JWW_DASHED1
 62
     2
370
     9
100
AcDbLine
 10
-681.4908624597499
 20
301.8194242204937
 30
0.0
 11
-677.8902906616681
 21
302.4543746005616
 31
0.0
  0
LINE
  5
A3
330
1F
100
AcDbEntity
  8
0-A
  6
JWW_DASHED1
 62
     2
370
     9
100
AcDbLine
 10
-681.2741730443298
 20
300.0576678832066
 30
0.0
 11
-678.1166387138219
 21
300.6144043027665
 31
0.0
  0
LINE
  5
A4
330
1F
100
AcDbEntity
  8
0-A
  6
JWW_DASHED1
 62
     2
370
     9
100
AcDbLine
 10
-681.0574836289101
 20
298.2959115459192
 30
0.0
 11
-678.3429867659756
 21
298.7744340049715
 31
0.0
  0
LINE
  5
A5
330
1F
100
AcDbEntity
  8
0-A
  6
JWW_DASHED1
 62
     2
370
     9
100
AcDbLine
 10
-680.84079421349
 20
296.53405022345
 30
0.0
 11
-678.5693348181294
 21
296.9346736775401
 31
0.0
  0
LINE
  5
A6
330
1F
100
AcDbEntity
  8
0-A
  6
JWW_DASHED1
 62
     2
370
     9
100
AcDbLine
 10
-183.8296572416446
 20
316.5965085121655
 30
0.0
 11
-183.8296572416446
 21
316.2964608623254
 31
0.0
  0
LINE
  5
A7
330
1F
100
AcDbEntity
  8
0-A
  6
JWW_DASHED1
 62
     2
370
     9
100
AcDbLine
 10
-181.7796115948888
 20
314.2465202007514
 30
0.0
 11
-183.8296572416446
 21
316.2964608623254
 31
0.0
  0
LINE
  5
A8
330
1F
100
AcDbEntity
  8
0-A
  6
JWW_DASHED1
 62
     2
370
     9
100
AcDbLine
 10
-177.6797302717409
 20
314.2465202007514
 30
0.0
 11
-181.7796115948888
 21
314.2465202007514
 31
0.0
  0
LINE
  5
A9
330
1F
100
AcDbEntity
  8
0-A
  6
JWW_DASHED1
 62
     2
370
     9
100
AcDbLine
 10
-177.6797302717409
 20
314.2465202007514
 30
0.0
 11
-175.629684624985
 21
316.2964608623254
 31
0.0
  0
LINE
  5
AA
330
1F
100
AcDbEntity
  8
0-A
  6
JWW_DASHED1
 62
     2
370
     9
100
AcDbLine
 10
-183.8296572416446
 20
316.2964608623254
 30
0.0
 11
-175.629684624985
 21
316.2964608623254
 31
0.0
  0
LINE
  5
AB
330
1F
100
AcDbEntity
  8
0-A
  6
JWW_DASHED1
 62
     2
370
     9
100
AcDbLine
 10
-175.629684624985
 20
316.5965085121655
 30
0.0
 11
-175.629684624985
 21
316.2964608623254
 31
0.0
  0
LINE
  5
AC
330
1F
100
AcDbEntity
  8
0-A
  6
JWW_DASHED1
 62
     2
370
     9
100
AcDbLine
 10
-181.7796115948888
 20
314.2465202007514
 30
0.0
 11
-181.7796115948888
 21
308.2630997293245
 31
0.0
  0
LINE
  5
AD
330
1F
100
AcDbEntity
  8
0-A
  6
JWW_DASHED1
 62
     2
370
     9
100
AcDbLine
 10
-177.6797302717409
 20
314.2465202007514
 30
0.0
 11
-177.6797302717409
 21
308.2630997293245
 31
0.0
  0
LINE
  5
AE
330
1F
100
AcDbEntity
  8
0-A
  6
JWW_DASHED1
 62
     2
370
     9
100
AcDbLine
 10
-177.6797302717409
 20
308.2630997293245
 30
0.0
 11
-179.7296709333148
 21
291.5964921340059
 31
0.0
  0
LINE
  5
AF
330
1F
100
AcDbEntity
  8
0-A
  6
JWW_DASHED1
 62
     2
370
     9
100
AcDbLine
 10
-179.7296709333148
 20
291.5964921340059
 30
0.0
 11
-181.7796115948888
 21
308.2630997293245
 31
0.0
  0
LINE
  5
B0
330
1F
100
AcDbEntity
  8
0-A
  6
JWW_DASHED1
 62
     2
370
     9
100
AcDbLine
 10
-179.0518865990363
 20
293.0105375488753
 30
0.0
 11
-180.4374810296136
 21
293.25473308195
 31
0.0
  0
LINE
  5
B1
330
1F
100
AcDbEntity
  8
0-A
  6
JWW_DASHED1
 62
     2
370
     9
100
AcDbLine
 10
-178.8351971836164
 20
294.7722938861625
 30
0.0
 11
-180.6637240965855
 21
295.0947033797451
 31
0.0
  0
LINE
  5
B2
330
1F
100
AcDbEntity
  8
0-A
  6
JWW_DASHED1
 62
     2
370
     9
100
AcDbLine
 10
-177.3183712756772
 20
307.1047982175378
 30
0.0
 11
-182.2478455061158
 21
307.9740755235827
 31
0.0
  0
LINE
  5
B3
330
1F
100
AcDbEntity
  8
0-A
  6
JWW_DASHED1
 62
     2
370
     9
100
AcDbLine
 10
-177.5350606910972
 20
305.3430418802503
 30
0.0
 11
-182.021602439144
 21
306.1341052257876
 31
0.0
  0
LINE
  5
B4
330
1F
100
AcDbEntity
  8
0-A
  6
JWW_DASHED1
 62
     2
370
     9
100
AcDbLine
 10
-177.7517501065171
 20
303.5812855429631
 30
0.0
 11
-181.7953593721721
 21
304.2942399131745
 31
0.0
  0
LINE
  5
B5
330
1F
100
AcDbEntity
  8
0-A
  6
JWW_DASHED1
 62
     2
370
     9
100
AcDbLine
 10
-177.9684395219369
 20
301.8194242204937
 30
0.0
 11
-181.5690113200185
 21
302.4543746005616
 31
0.0
  0
LINE
  5
B6
330
1F
100
AcDbEntity
  8
0-A
  6
JWW_DASHED1
 62
     2
370
     9
100
AcDbLine
 10
-178.1851289373568
 20
300.0576678832066
 30
0.0
 11
-181.3426632678647
 21
300.6144043027665
 31
0.0
  0
LINE
  5
B7
330
1F
100
AcDbEntity
  8
0-A
  6
JWW_DASHED1
 62
     2
370
     9
100
AcDbLine
 10
-178.4018183527766
 20
298.2959115459192
 30
0.0
 11
-181.116315215711
 21
298.7744340049715
 31
0.0
  0
LINE
  5
B8
330
1F
100
AcDbEntity
  8
0-A
  6
JWW_DASHED1
 62
     2
370
     9
100
AcDbLine
 10
-178.6185077681966
 20
296.53405022345
 30
0.0
 11
-180.8899671635573
 21
296.9346736775401
 31
0.0
  0
LINE
  5
B9
330
1F
100
AcDbEntity
  8
0-7
  6
Continuous
 62
     3
370
     9
100
AcDbLine
 10
-113.729738979266
 20
-202.4035123434766
 30
0.0
 11
-113.729738979266
 21
-204.7035277083114
 31
0.0
  0
LINE
  5
BA
330
1F
100
AcDbEntity
  8
0-7
  6
Continuous
 62
     3
370
     9
100
AcDbLine
 10
-93.72974687377464
 20
-215.4035124613051
 30
0.0
 11
-93.72974687377464
 21
-202.4035123434766
 31
0.0
  0
LINE
  5
BB
330
1F
100
AcDbEntity
  8
0-7
  6
Continuous
 62
     3
370
     9
100
AcDbLine
 10
-116.7297955369397
 20
-217.4034801762997
 30
0.0
 11
-95.72976708136011
 21
-217.4034801762997
 31
0.0
  0
LINE
  5
BC
330
1F
100
AcDbEntity
  8
0-7
  6
Continuous
 62
     3
370
     9
100
AcDbLine
 10
-113.729738979266
 20
223.5963824945986
 30
0.0
 11
-113.729738979266
 21
221.2963671297641
 31
0.0
  0
LINE
  5
BD
330
1F
100
AcDbEntity
  8
0-7
  6
Continuous
 62
     3
370
     9
100
AcDbLine
 10
-93.72974687377464
 20
210.5963823767702
 30
0.0
 11
-93.72974687377464
 21
223.5963824945986
 31
0.0
  0
LINE
  5
BE
330
1F
100
AcDbEntity
  8
0-7
  6
Continuous
 62
     3
370
     9
100
AcDbLine
 10
-116.7297955369397
 20
208.5963621691847
 30
0.0
 11
-95.72976708136011
 21
208.5963621691847
 31
0.0
  0
LINE
  5
BF
330
1F
100
AcDbEntity
  8
0-7
  6
Continuous
 62
     3
370
     9
100
AcDbLine
 10
-93.72974687377464
 20
-204.7035277083114
 30
0.0
 11
-116.7297430443488
 21
-204.7035277083114
 31
0.0
  0
LINE
  5
C0
330
1F
100
AcDbEntity
  8
0-7
  6
Continuous
 62
     3
370
     9
100
AcDbLine
 10
-93.72974687377464
 20
-202.4035123434766
 30
0.0
 11
-116.7297430443488
 21
-202.4035123434766
 31
0.0
  0
LINE
  5
C1
330
1F
100
AcDbEntity
  8
0-7
  6
Continuous
 62
     3
370
     9
100
AcDbLine
 10
-93.72974687377464
 20
221.2963671297641
 30
0.0
 11
-116.7297430443488
 21
221.2963671297641
 31
0.0
  0
LINE
  5
C2
330
1F
100
AcDbEntity
  8
0-7
  6
Continuous
 62
     3
370
     9
100
AcDbLine
 10
-93.72974687377464
 20
223.5963824945986
 30
0.0
 11
-116.7297430443488
 21
223.5963824945986
 31
0.0
  0
LINE
  5
C3
330
1F
100
AcDbEntity
  8
0-7
  6
Continuous
 62
     3
370
     9
100
AcDbLine
 10
-210.729747934231
 20
332.596460202486
 30
0.0
 11
-208.4297325693963
 21
332.596460202486
 31
0.0
  0
LINE
  5
C4
330
1F
100
AcDbEntity
  8
0-7
  6
Continuous
 62
     3
370
     9
100
AcDbLine
 10
-197.7297478164025
 20
352.5964523079773
 30
0.0
 11
-210.729747934231
 21
352.5964523079773
 31
0.0
  0
LINE
  5
C5
330
1F
100
AcDbEntity
  8
0-7
  6
Continuous
 62
     3
370
     9
100
AcDbLine
 10
-195.729727608817
 20
329.596403644812
 30
0.0
 11
-195.729727608817
 21
350.5964321003918
 31
0.0
  0
LINE
  5
C6
330
1F
100
AcDbEntity
  8
0-7
  6
Continuous
 62
     3
370
     9
100
AcDbLine
 10
-636.7296952648973
 20
332.596460202486
 30
0.0
 11
-634.4296799000628
 21
332.596460202486
 31
0.0
  0
LINE
  5
C7
330
1F
100
AcDbEntity
  8
0-7
  6
Continuous
 62
     3
370
     9
100
AcDbLine
 10
-623.7295901618869
 20
352.5964523079773
 30
0.0
 11
-636.7296952648973
 21
352.5964523079773
 31
0.0
  0
LINE
  5
C8
330
1F
100
AcDbEntity
  8
0-7
  6
Continuous
 62
     3
370
     9
100
AcDbLine
 10
-621.7296224468924
 20
329.596403644812
 30
0.0
 11
-621.7296224468924
 21
350.5964321003918
 31
0.0
  0
LINE
  5
C9
330
1F
100
AcDbEntity
  8
0-7
  6
Continuous
 62
     3
370
     9
100
AcDbLine
 10
-208.4297325693963
 20
352.5964523079773
 30
0.0
 11
-208.4297325693963
 21
329.596456137403
 31
0.0
  0
LINE
  5
CA
330
1F
100
AcDbEntity
  8
0-7
  6
Continuous
 62
     3
370
     9
100
AcDbLine
 10
-210.729747934231
 20
352.5964523079773
 30
0.0
 11
-210.729747934231
 21
329.596456137403
 31
0.0
  0
LINE
  5
CB
330
1F
100
AcDbEntity
  8
0-7
  6
Continuous
 62
     3
370
     9
100
AcDbLine
 10
-634.4296799000628
 20
352.5964523079773
 30
0.0
 11
-634.4296799000628
 21
329.596456137403
 31
0.0
  0
LINE
  5
CC
330
1F
100
AcDbEntity
  8
0-7
  6
Continuous
 62
     3
370
     9
100
AcDbLine
 10
-636.7296952648973
 20
352.5964523079773
 30
0.0
 11
-636.7296952648973
 21
329.596456137403
 31
0.0
  0
LINE
  5
CD
330
1F
100
AcDbEntity
  8
0-7
  6
Continuous
 62
     3
370
     9
100
AcDbLine
 10
-745.7297204801935
 20
235.5964512475208
 30
0.0
 11
-745.7297204801935
 21
237.8964666123557
 31
0.0
  0
LINE
  5
CE
330
1F
100
AcDbEntity
  8
0-7
  6
Continuous
 62
     3
370
     9
100
AcDbLine
 10
-765.7297125856849
 20
248.5964513653494
 30
0.0
 11
-765.7297125856849
 21
235.5964512475208
 31
0.0
  0
LINE
  5
CF
330
1F
100
AcDbEntity
  8
0-7
  6
Continuous
 62
     3
370
     9
100
AcDbLine
 10
-742.7296639225199
 20
250.5964715729348
 30
0.0
 11
-763.7296398855085
 21
250.5964715729348
 31
0.0
  0
LINE
  5
D0
330
1F
100
AcDbEntity
  8
0-7
  6
Continuous
 62
     3
370
     9
100
AcDbLine
 10
-745.7297204801935
 20
-190.4033910979635
 30
0.0
 11
-745.7297204801935
 21
-188.1033757331289
 31
0.0
  0
LINE
  5
D1
330
1F
100
AcDbEntity
  8
0-7
  6
Continuous
 62
     3
370
     9
100
AcDbLine
 10
-765.7297125856849
 20
-177.403495965317
 30
0.0
 11
-765.7297125856849
 21
-190.4033910979635
 31
0.0
  0
LINE
  5
D2
330
1F
100
AcDbEntity
  8
0-7
  6
Continuous
 62
     3
370
     9
100
AcDbLine
 10
-742.7296639225199
 20
-175.4034232651405
 30
0.0
 11
-763.7296398855085
 21
-175.4034232651405
 31
0.0
  0
LINE
  5
D3
330
1F
100
AcDbEntity
  8
0-7
  6
Continuous
 62
     3
370
     9
100
AcDbLine
 10
-765.7297125856849
 20
237.8964666123557
 30
0.0
 11
-742.7296639225199
 21
237.8964666123557
 31
0.0
  0
LINE
  5
D4
330
1F
100
AcDbEntity
  8
0-7
  6
Continuous
 62
     3
370
     9
100
AcDbLine
 10
-765.7297125856849
 20
235.5964512475208
 30
0.0
 11
-742.7296639225199
 21
235.5964512475208
 31
0.0
  0
LINE
  5
D5
330
1F
100
AcDbEntity
  8
0-7
  6
Continuous
 62
     3
370
     9
100
AcDbLine
 10
-765.7297125856849
 20
-188.1033757331289
 30
0.0
 11
-742.7296639225199
 21
-188.1033757331289
 31
0.0
  0
LINE
  5
D6
330
1F
100
AcDbEntity
  8
0-7
  6
Continuous
 62
     3
370
     9
100
AcDbLine
 10
-765.7297125856849
 20
-190.4033910979635
 30
0.0
 11
-742.7296639225199
 21
-190.4033910979635
 31
0.0
  0
LINE
  5
D7
330
1F
100
AcDbEntity
  8
0-7
  6
Continuous
 62
     3
370
     9
100
AcDbLine
 10
-648.7297115252286
 20
-299.4035212984415
 30
0.0
 11
-651.0297268900632
 21
-299.4035212984415
 31
0.0
  0
LINE
  5
D8
330
1F
100
AcDbEntity
  8
0-7
  6
Continuous
 62
     3
370
     9
100
AcDbLine
 10
-661.7297116430573
 20
-319.403513403933
 30
0.0
 11
-648.7297115252286
 21
-319.403513403933
 31
0.0
  0
LINE
  5
D9
330
1F
100
AcDbEntity
  8
0-7
  6
Continuous
 62
     3
370
     9
100
AcDbLine
 10
-663.7297843432336
 20
-296.403464740768
 30
0.0
 11
-663.7297843432336
 21
-317.4035456889384
 31
0.0
  0
LINE
  5
DA
330
1F
100
AcDbEntity
  8
0-7
  6
Continuous
 62
     3
370
     9
100
AcDbLine
 10
-222.7298166871532
 20
-299.4035212984415
 30
0.0
 11
-225.0298320519879
 21
-299.4035212984415
 31
0.0
  0
LINE
  5
DB
330
1F
100
AcDbEntity
  8
0-7
  6
Continuous
 62
     3
370
     9
100
AcDbLine
 10
-235.7298168049817
 20
-319.403513403933
 30
0.0
 11
-222.7298166871532
 21
-319.403513403933
 31
0.0
  0
LINE
  5
DC
330
1F
100
AcDbEntity
  8
0-7
  6
Continuous
 62
     3
370
     9
100
AcDbLine
 10
-237.7298370125673
 20
-296.403464740768
 30
0.0
 11
-237.7298370125673
 21
-317.4035456889384
 31
0.0
  0
LINE
  5
DD
330
1F
100
AcDbEntity
  8
0-7
  6
Continuous
 62
     3
370
     9
100
AcDbLine
 10
-651.0297268900632
 20
-319.403513403933
 30
0.0
 11
-651.0297268900632
 21
-296.4035697259498
 31
0.0
  0
LINE
  5
DE
330
1F
100
AcDbEntity
  8
0-7
  6
Continuous
 62
     3
370
     9
100
AcDbLine
 10
-648.7297115252286
 20
-319.403513403933
 30
0.0
 11
-648.7297115252286
 21
-296.4035697259498
 31
0.0
  0
LINE
  5
DF
330
1F
100
AcDbEntity
  8
0-7
  6
Continuous
 62
     3
370
     9
100
AcDbLine
 10
-225.0298320519879
 20
-319.403513403933
 30
0.0
 11
-225.0298320519879
 21
-296.4035697259498
 31
0.0
  0
LINE
  5
E0
330
1F
100
AcDbEntity
  8
0-7
  6
Continuous
 62
     3
370
     9
100
AcDbLine
 10
-222.7298166871532
 20
-319.403513403933
 30
0.0
 11
-222.7298166871532
 21
-296.4035697259498
 31
0.0
  0
LINE
  5
E1
330
1F
100
AcDbEntity
  8
仕上
  6
JWW_CENTER1
 62
     3
370
     9
100
AcDbLine
 10
-224.7334588835139
 20
74.16525141889068
 30
0.0
 11
-224.7334588835139
 21
-42.08137597632685
 31
0.0
  0
LINE
  5
E2
330
1F
100
AcDbEntity
  8
仕上
  6
JWW_CENTER1
 62
     3
370
     9
100
AcDbLine
 10
-634.7260530685365
 20
74.56199042125093
 30
0.0
 11
-634.7260530685365
 21
-42.80283414627135
 31
0.0
  0
LINE
  5
E3
330
1F
100
AcDbEntity
  8
建具
  6
Continuous
 62
     3
370
     9
100
AcDbLine
 10
-151.2297635465055
 20
-261.9034442386112
 30
0.0
 11
-708.2296434203633
 21
-261.9034442386112
 31
0.0
  0
LINE
  5
E4
330
1F
100
AcDbEntity
  8
建具
  6
Continuous
 62
     3
370
     9
100
AcDbLine
 10
-151.2297635465055
 20
295.0963831426554
 30
0.0
 11
-151.2297635465055
 21
-261.9034442386112
 31
0.0
  0
LINE
  5
E5
330
1F
100
AcDbEntity
  8
建具
  6
Continuous
 62
     3
370
     9
100
AcDbLine
 10
-708.2296434203633
 20
295.0963831426554
 30
0.0
 11
-151.2297635465055
 21
295.0963831426554
 31
0.0
  0
LINE
  5
E6
330
1F
100
AcDbEntity
  8
通り芯
  6
Continuous
 62
     4
370
     9
100
AcDbLine
 10
-708.7296878417027
 20
-262.4034886599509
 30
0.0
 11
-708.7296878417027
 21
295.5963750714039
 31
0.0
  0
LINE
  5
E7
330
1F
100
AcDbEntity
  8
通り芯
  6
Continuous
 62
     4
370
     9
100
AcDbLine
 10
-708.7295828565209
 20
295.5963750714039
 30
0.0
 11
-150.7297716177569
 21
295.5963750714039
 31
0.0
  0
LINE
  5
E8
330
1F
100
AcDbEntity
  8
通り芯
  6
Continuous
 62
     4
370
     9
100
AcDbLine
 10
-729.7297687898731
 20
316.5965085121655
 30
0.0
 11
-708.7295828565209
 21
295.5963750714039
 31
0.0
  0
LINE
  5
E9
330
1F
100
AcDbEntity
  8
通り芯
  6
Continuous
 62
     4
370
     9
100
AcDbLine
 10
-729.7297687898731
 20
-283.4034646229394
 30
0.0
 11
-708.7295828565209
 21
-262.4034886599509
 31
0.0
  0
LINE
  5
EA
330
1F
100
AcDbEntity
  8
通り芯
  6
Continuous
 62
     4
370
     9
100
AcDbLine
 10
-150.7297716177569
 20
-262.4034886599509
 30
0.0
 11
-708.7295828565209
 21
-262.4034886599509
 31
0.0
  0
LINE
  5
EB
330
1F
100
AcDbEntity
  8
通り芯
  6
Continuous
 62
     4
370
     9
100
AcDbLine
 10
-150.7297716177569
 20
-262.4034886599509
 30
0.0
 11
-129.7297431621773
 21
-283.4034646229395
 31
0.0
  0
LINE
  5
EC
330
1F
100
AcDbEntity
  8
通り芯
  6
Continuous
 62
     4
370
     9
100
AcDbLine
 10
-150.7297716177569
 20
295.5963750714039
 30
0.0
 11
-129.7297431621773
 21
316.5965085121655
 31
0.0
  0
LINE
  5
ED
330
1F
100
AcDbEntity
  8
通り芯
  6
Continuous
 62
     4
370
     9
100
AcDbLine
 10
-150.7297716177569
 20
295.5963750714039
 30
0.0
 11
-150.7297716177569
 21
-262.4034886599509
 31
0.0
  0
LINE
  5
EE
330
1F
100
AcDbEntity
  8
躯体
  6
JWW_CENTER1
 62
     2
370
     9
100
AcDbLine
 10
-701.7295908688578
 20
-27.05232724812035
 30
0.0
 11
-701.7295908688578
 21
-39.34504219555947
 31
0.0
  0
LINE
  5
EF
330
1F
100
AcDbEntity
  8
躯体
  6
JWW_CENTER1
 62
     2
370
     9
100
AcDbLine
 10
-695.726958109145
 20
-33.40351081170624
 30
0.0
 11
-708.0196730565842
 21
-33.40351081170624
 31
0.0
  0
LINE
  5
F0
330
1F
100
AcDbEntity
  8
躯体
  6
JWW_CENTER1
 62
     2
370
     9
100
AcDbLine
 10
-701.7295908688578
 20
-127.052392760759
 30
0.0
 11
-701.7295908688578
 21
-139.3451077081983
 31
0.0
  0
LINE
  5
F1
330
1F
100
AcDbEntity
  8
躯体
  6
JWW_CENTER1
 62
     2
370
     9
100
AcDbLine
 10
-695.726958109145
 20
-133.403576324345
 30
0.0
 11
-708.0196730565842
 21
-133.403576324345
 31
0.0
  0
LINE
  5
F2
330
1F
100
AcDbEntity
  8
躯体
  6
JWW_CENTER1
 62
     2
370
     9
100
AcDbLine
 10
-701.7295908688578
 20
-227.052353288216
 30
0.0
 11
-701.7295908688578
 21
-239.3450682356551
 31
0.0
  0
LINE
  5
F3
330
1F
100
AcDbEntity
  8
躯体
  6
JWW_CENTER1
 62
     2
370
     9
100
AcDbLine
 10
-695.726958109145
 20
-233.4035368518019
 30
0.0
 11
-708.0196730565842
 21
-233.4035368518019
 31
0.0
  0
LINE
  5
F4
330
1F
100
AcDbEntity
  8
躯体
  6
JWW_CENTER1
 62
     2
370
     9
100
AcDbLine
 10
-701.7295908688578
 20
60.24526615216459
 30
0.0
 11
-701.7295908688578
 21
72.53798109960371
 31
0.0
  0
LINE
  5
F5
330
1F
100
AcDbEntity
  8
躯体
  6
JWW_CENTER1
 62
     2
370
     9
100
AcDbLine
 10
-695.726958109145
 20
66.59644971575062
 30
0.0
 11
-708.0196730565842
 21
66.59644971575062
 31
0.0
  0
LINE
  5
F6
330
1F
100
AcDbEntity
  8
躯体
  6
JWW_CENTER1
 62
     2
370
     9
100
AcDbLine
 10
-701.7295908688578
 20
160.2452266796215
 30
0.0
 11
-701.7295908688578
 21
172.5379416270606
 31
0.0
  0
LINE
  5
F7
330
1F
100
AcDbEntity
  8
躯体
  6
JWW_CENTER1
 62
     2
370
     9
100
AcDbLine
 10
-695.726958109145
 20
166.5964102432073
 30
0.0
 11
-708.0196730565842
 21
166.5964102432073
 31
0.0
  0
LINE
  5
F8
330
1F
100
AcDbEntity
  8
躯体
  6
JWW_CENTER1
 62
     2
370
     9
100
AcDbLine
 10
-701.7295908688578
 20
260.2452921922603
 30
0.0
 11
-701.7295908688578
 21
272.5380071396994
 31
0.0
  0
LINE
  5
F9
330
1F
100
AcDbEntity
  8
躯体
  6
JWW_CENTER1
 62
     2
370
     9
100
AcDbLine
 10
-695.726958109145
 20
266.5964757558461
 30
0.0
 11
-708.0196730565842
 21
266.5964757558461
 31
0.0
  0
LINE
  5
FA
330
1F
100
AcDbEntity
  8
躯体
  6
JWW_CENTER1
 62
     2
370
     9
100
AcDbLine
 10
-386.0808805369963
 20
-255.4034966722879
 30
0.0
 11
-373.7881655895572
 21
-255.4034966722879
 31
0.0
  0
LINE
  5
FB
330
1F
100
AcDbEntity
  8
躯体
  6
JWW_CENTER1
 62
     2
370
     9
100
AcDbLine
 10
-379.7296969734105
 20
-249.4008639125751
 30
0.0
 11
-379.7296969734105
 21
-261.6935788600141
 31
0.0
  0
LINE
  5
FC
330
1F
100
AcDbEntity
  8
躯体
  6
JWW_CENTER1
 62
     2
370
     9
100
AcDbLine
 10
-286.0808675169485
 20
-255.4034966722879
 30
0.0
 11
-273.7881525695094
 21
-255.4034966722879
 31
0.0
  0
LINE
  5
FD
330
1F
100
AcDbEntity
  8
躯体
  6
JWW_CENTER1
 62
     2
370
     9
100
AcDbLine
 10
-279.7296839533626
 20
-249.4008639125751
 30
0.0
 11
-279.7296839533626
 21
-261.6935788600141
 31
0.0
  0
LINE
  5
FE
330
1F
100
AcDbEntity
  8
躯体
  6
JWW_CENTER1
 62
     2
370
     9
100
AcDbLine
 10
-186.0809069894917
 20
-255.403496672288
 30
0.0
 11
-173.7881920420526
 21
-255.403496672288
 31
0.0
  0
LINE
  5
FF
330
1F
100
AcDbEntity
  8
躯体
  6
JWW_CENTER1
 62
     2
370
     9
100
AcDbLine
 10
-179.7297234259057
 20
-249.4008639125751
 30
0.0
 11
-179.7297234259057
 21
-261.6935788600141
 31
0.0
  0
LINE
  5
100
330
1F
100
AcDbEntity
  8
躯体
  6
JWW_CENTER1
 62
     2
370
     9
100
AcDbLine
 10
-473.3784739372813
 20
-255.4034966722879
 30
0.0
 11
-485.6711888847204
 21
-255.4034966722879
 31
0.0
  0
LINE
  5
101
330
1F
100
AcDbEntity
  8
躯体
  6
JWW_CENTER1
 62
     2
370
     9
100
AcDbLine
 10
-479.7296575008673
 20
-249.4008639125751
 30
0.0
 11
-479.7296575008673
 21
-261.6935788600141
 31
0.0
  0
LINE
  5
102
330
1F
100
AcDbEntity
  8
躯体
  6
JWW_CENTER1
 62
     2
370
     9
100
AcDbLine
 10
-573.3784869573292
 20
-255.4034966722879
 30
0.0
 11
-585.6712019047682
 21
-255.4034966722879
 31
0.0
  0
LINE
  5
103
330
1F
100
AcDbEntity
  8
躯体
  6
JWW_CENTER1
 62
     2
370
     9
100
AcDbLine
 10
-579.7296705209151
 20
-249.4008639125751
 30
0.0
 11
-579.7296705209151
 21
-261.6935788600141
 31
0.0
  0
LINE
  5
104
330
1F
100
AcDbEntity
  8
躯体
  6
JWW_CENTER1
 62
     2
370
     9
100
AcDbLine
 10
-673.3785524699679
 20
-255.4034966722879
 30
0.0
 11
-685.6712674174071
 21
-255.4034966722879
 31
0.0
  0
LINE
  5
105
330
1F
100
AcDbEntity
  8
躯体
  6
JWW_CENTER1
 62
     2
370
     9
100
AcDbLine
 10
-679.729736033554
 20
-249.4008639125751
 30
0.0
 11
-679.729736033554
 21
-261.6935788600141
 31
0.0
  0
LINE
  5
106
330
1F
100
AcDbEntity
  8
躯体
  6
JWW_CENTER1
 62
     2
370
     9
100
AcDbLine
 10
-157.7297636054197
 20
60.24526615216459
 30
0.0
 11
-157.7297636054197
 21
72.53798109960371
 31
0.0
  0
LINE
  5
107
330
1F
100
AcDbEntity
  8
躯体
  6
JWW_CENTER1
 62
     2
370
     9
100
AcDbLine
 10
-163.7323963651326
 20
66.59644971575062
 30
0.0
 11
-151.4396814176936
 21
66.59644971575062
 31
0.0
  0
LINE
  5
108
330
1F
100
AcDbEntity
  8
躯体
  6
JWW_CENTER1
 62
     2
370
     9
100
AcDbLine
 10
-157.7297636054197
 20
160.2452266796215
 30
0.0
 11
-157.7297636054197
 21
172.5379416270606
 31
0.0
  0
LINE
  5
109
330
1F
100
AcDbEntity
  8
躯体
  6
JWW_CENTER1
 62
     2
370
     9
100
AcDbLine
 10
-163.7323963651326
 20
166.5964102432073
 30
0.0
 11
-151.4396814176936
 21
166.5964102432073
 31
0.0
  0
LINE
  5
10A
330
1F
100
AcDbEntity
  8
躯体
  6
JWW_CENTER1
 62
     2
370
     9
100
AcDbLine
 10
-157.7297636054197
 20
260.2452921922603
 30
0.0
 11
-157.7297636054197
 21
272.5380071396994
 31
0.0
  0
LINE
  5
10B
330
1F
100
AcDbEntity
  8
躯体
  6
JWW_CENTER1
 62
     2
370
     9
100
AcDbLine
 10
-163.7323963651326
 20
266.5964757558461
 30
0.0
 11
-151.4396814176936
 21
266.5964757558461
 31
0.0
  0
LINE
  5
10C
330
1F
100
AcDbEntity
  8
躯体
  6
JWW_CENTER1
 62
     2
370
     9
100
AcDbLine
 10
-157.7297636054197
 20
-27.05232724812035
 30
0.0
 11
-157.7297636054197
 21
-39.34504219555947
 31
0.0
  0
LINE
  5
10D
330
1F
100
AcDbEntity
  8
躯体
  6
JWW_CENTER1
 62
     2
370
     9
100
AcDbLine
 10
-163.7323963651326
 20
-33.40351081170624
 30
0.0
 11
-151.4396814176936
 21
-33.40351081170624
 31
0.0
  0
LINE
  5
10E
330
1F
100
AcDbEntity
  8
躯体
  6
JWW_CENTER1
 62
     2
370
     9
100
AcDbLine
 10
-157.7297636054197
 20
-127.0523927607591
 30
0.0
 11
-157.7297636054197
 21
-139.3451077081983
 31
0.0
  0
LINE
  5
10F
330
1F
100
AcDbEntity
  8
躯体
  6
JWW_CENTER1
 62
     2
370
     9
100
AcDbLine
 10
-163.7323963651326
 20
-133.403576324345
 30
0.0
 11
-151.4396814176936
 21
-133.403576324345
 31
0.0
  0
LINE
  5
110
330
1F
100
AcDbEntity
  8
躯体
  6
JWW_CENTER1
 62
     2
370
     9
100
AcDbLine
 10
-157.7297636054197
 20
-227.052353288216
 30
0.0
 11
-157.7297636054197
 21
-239.3450682356551
 31
0.0
  0
LINE
  5
111
330
1F
100
AcDbEntity
  8
躯体
  6
JWW_CENTER1
 62
     2
370
     9
100
AcDbLine
 10
-163.7323963651326
 20
-233.4035368518019
 30
0.0
 11
-151.4396814176936
 21
-233.4035368518019
 31
0.0
  0
LINE
  5
112
330
1F
100
AcDbEntity
  8
躯体
  6
JWW_CENTER1
 62
     2
370
     9
100
AcDbLine
 10
-473.3784739372812
 20
288.5963830837412
 30
0.0
 11
-485.6711888847204
 21
288.5963830837412
 31
0.0
  0
LINE
  5
113
330
1F
100
AcDbEntity
  8
躯体
  6
JWW_CENTER1
 62
     2
370
     9
100
AcDbLine
 10
-479.7296575008673
 20
282.5937503240283
 30
0.0
 11
-479.7296575008673
 21
294.8864652714674
 31
0.0
  0
LINE
  5
114
330
1F
100
AcDbEntity
  8
躯体
  6
JWW_CENTER1
 62
     2
370
     9
100
AcDbLine
 10
-573.3784869573292
 20
288.5963830837412
 30
0.0
 11
-585.6712019047682
 21
288.5963830837412
 31
0.0
  0
LINE
  5
115
330
1F
100
AcDbEntity
  8
躯体
  6
JWW_CENTER1
 62
     2
370
     9
100
AcDbLine
 10
-579.7296705209151
 20
282.5937503240283
 30
0.0
 11
-579.7296705209151
 21
294.8864652714674
 31
0.0
  0
LINE
  5
116
330
1F
100
AcDbEntity
  8
躯体
  6
JWW_CENTER1
 62
     2
370
     9
100
AcDbLine
 10
-673.378447484786
 20
288.5963830837412
 30
0.0
 11
-685.671162432225
 21
288.5963830837412
 31
0.0
  0
LINE
  5
117
330
1F
100
AcDbEntity
  8
躯体
  6
JWW_CENTER1
 62
     2
370
     9
100
AcDbLine
 10
-386.0808805369962
 20
288.5963830837412
 30
0.0
 11
-373.7881655895571
 21
288.5963830837412
 31
0.0
  0
LINE
  5
118
330
1F
100
AcDbEntity
  8
躯体
  6
JWW_CENTER1
 62
     2
370
     9
100
AcDbLine
 10
-379.7296969734103
 20
282.5937503240283
 30
0.0
 11
-379.7296969734103
 21
294.8864652714674
 31
0.0
  0
LINE
  5
119
330
1F
100
AcDbEntity
  8
躯体
  6
JWW_CENTER1
 62
     2
370
     9
100
AcDbLine
 10
-286.0808675169485
 20
288.5963830837412
 30
0.0
 11
-273.7881525695094
 21
288.5963830837412
 31
0.0
  0
LINE
  5
11A
330
1F
100
AcDbEntity
  8
躯体
  6
JWW_CENTER1
 62
     2
370
     9
100
AcDbLine
 10
-279.7296839533626
 20
282.5937503240283
 30
0.0
 11
-279.7296839533626
 21
294.8864652714674
 31
0.0
  0
LINE
  5
11B
330
1F
100
AcDbEntity
  8
躯体
  6
JWW_CENTER1
 62
     2
370
     9
100
AcDbLine
 10
-186.0808544969006
 20
288.5963830837412
 30
0.0
 11
-173.7881395494617
 21
288.5963830837412
 31
0.0
  0
LINE
  5
11C
330
1F
100
AcDbEntity
  8
躯体
  6
JWW_CENTER1
 62
     2
370
     9
100
AcDbLine
 10
-679.7296310483719
 20
282.5937503240283
 30
0.0
 11
-679.7296310483719
 21
317.0208061247718
 31
0.0
  0
LINE
  5
11D
330
1F
100
AcDbEntity
  8
躯体
  6
JWW_CENTER1
 62
     2
370
     9
100
AcDbLine
 10
-179.7296709333148
 20
282.5937503240283
 30
0.0
 11
-179.7296709333148
 21
317.0208061247718
 31
0.0
  0
ARC
  5
11E
330
1F
100
AcDbEntity
  8
0-7
  6
Continuous
 62
     3
370
     9
100
AcDbCircle
 10
-95.72976708136011
 20
-215.4035124613051
 30
0.0
 40
2.000000112765544
100
AcDbArc
 50
270.0
 51
0.0
  0
ARC
  5
11F
330
1F
100
AcDbEntity
  8
0-7
  6
Continuous
 62
     3
370
     9
100
AcDbCircle
 10
-95.72976708136011
 20
210.5963823767702
 30
0.0
 40
2.000000112765544
100
AcDbArc
 50
270.0
 51
0.0
  0
ARC
  5
120
330
1F
100
AcDbEntity
  8
0-7
  6
Continuous
 62
     3
370
     9
100
AcDbCircle
 10
-197.7297478164025
 20
350.5964321003918
 30
0.0
 40
2.000000112765544
100
AcDbArc
 50
0.0
 51
90.0
  0
ARC
  5
121
330
1F
100
AcDbEntity
  8
0-7
  6
Continuous
 62
     3
370
     9
100
AcDbCircle
 10
-623.7295901618869
 20
350.5964321003918
 30
0.0
 40
2.000000112765544
100
AcDbArc
 50
0.0
 51
90.0
  0
ARC
  5
122
330
1F
100
AcDbEntity
  8
0-7
  6
Continuous
 62
     3
370
     9
100
AcDbCircle
 10
-763.7296398855085
 20
248.5964513653494
 30
0.0
 40
2.000000112765544
100
AcDbArc
 50
90.0
 51
180.0
  0
ARC
  5
123
330
1F
100
AcDbEntity
  8
0-7
  6
Continuous
 62
     3
370
     9
100
AcDbCircle
 10
-763.7296398855085
 20
-177.403495965317
 30
0.0
 40
2.000000112765544
100
AcDbArc
 50
90.0
 51
180.0
  0
ARC
  5
124
330
1F
100
AcDbEntity
  8
0-7
  6
Continuous
 62
     3
370
     9
100
AcDbCircle
 10
-661.7297116430573
 20
-317.4035456889384
 30
0.0
 40
2.000000112765544
100
AcDbArc
 50
180.0
 51
270.0
  0
ARC
  5
125
330
1F
100
AcDbEntity
  8
0-7
  6
Continuous
 62
     3
370
     9
100
AcDbCircle
 10
-235.7298168049817
 20
-317.4035456889384
 30
0.0
 40
2.000000112765544
100
AcDbArc
 50
180.0
 51
270.0
  0
CIRCLE
  5
126
330
1F
100
AcDbEntity
  8
躯体
  6
JWW_DASHED1
 62
     2
370
     9
100
AcDbCircle
 10
-701.7295908688578
 20
-33.40351081170624
 30
0.0
 40
1.999999907716361
  0
CIRCLE
  5
127
330
1F
100
AcDbEntity
  8
躯体
  6
JWW_DASHED1
 62
     2
370
     9
100
AcDbCircle
 10
-701.7295908688578
 20
-133.403576324345
 30
0.0
 40
1.999999907716361
  0
CIRCLE
  5
128
330
1F
100
AcDbEntity
  8
躯体
  6
JWW_DASHED1
 62
     2
370
     9
100
AcDbCircle
 10
-701.7295908688578
 20
-233.4035368518019
 30
0.0
 40
1.999999907716361
  0
CIRCLE
  5
129
330
1F
100
AcDbEntity
  8
躯体
  6
JWW_DASHED1
 62
     2
370
     9
100
AcDbCircle
 10
-701.7295908688578
 20
66.59644971575062
 30
0.0
 40
1.999999907716361
  0
CIRCLE
  5
12A
330
1F
100
AcDbEntity
  8
躯体
  6
JWW_DASHED1
 62
     2
370
     9
100
AcDbCircle
 10
-701.7295908688578
 20
166.5964102432073
 30
0.0
 40
1.999999907716361
  0
CIRCLE
  5
12B
330
1F
100
AcDbEntity
  8
躯体
  6
JWW_DASHED1
 62
     2
370
     9
100
AcDbCircle
 10
-701.7295908688578
 20
266.5964757558461
 30
0.0
 40
1.999999907716361
  0
CIRCLE
  5
12C
330
1F
100
AcDbEntity
  8
躯体
  6
JWW_DASHED1
 62
     2
370
     9
100
AcDbCircle
 10
-379.7296969734105
 20
-255.4034966722879
 30
0.0
 40
1.999999907716361
  0
CIRCLE
  5
12D
330
1F
100
AcDbEntity
  8
躯体
  6
JWW_DASHED1
 62
     2
370
     9
100
AcDbCircle
 10
-279.7296839533626
 20
-255.4034966722879
 30
0.0
 40
1.999999907716361
  0
CIRCLE
  5
12E
330
1F
100
AcDbEntity
  8
躯体
  6
JWW_DASHED1
 62
     2
370
     9
100
AcDbCircle
 10
-179.7297234259057
 20
-255.403496672288
 30
0.0
 40
1.999999907716361
  0
CIRCLE
  5
12F
330
1F
100
AcDbEntity
  8
躯体
  6
JWW_DASHED1
 62
     2
370
     9
100
AcDbCircle
 10
-479.7296575008673
 20
-255.4034966722879
 30
0.0
 40
1.999999907716361
  0
CIRCLE
  5
130
330
1F
100
AcDbEntity
  8
躯体
  6
JWW_DASHED1
 62
     2
370
     9
100
AcDbCircle
 10
-579.7296705209151
 20
-255.4034966722879
 30
0.0
 40
1.999999907716361
  0
CIRCLE
  5
131
330
1F
100
AcDbEntity
  8
躯体
  6
JWW_DASHED1
 62
     2
370
     9
100
AcDbCircle
 10
-679.729736033554
 20
-255.4034966722879
 30
0.0
 40
1.999999907716361
  0
CIRCLE
  5
132
330
1F
100
AcDbEntity
  8
躯体
  6
JWW_DASHED1
 62
     2
370
     9
100
AcDbCircle
 10
-157.7297636054197
 20
66.59644971575062
 30
0.0
 40
1.999999907716361
  0
CIRCLE
  5
133
330
1F
100
AcDbEntity
  8
躯体
  6
JWW_DASHED1
 62
     2
370
     9
100
AcDbCircle
 10
-157.7297636054197
 20
166.5964102432073
 30
0.0
 40
1.999999907716361
  0
CIRCLE
  5
134
330
1F
100
AcDbEntity
  8
躯体
  6
JWW_DASHED1
 62
     2
370
     9
100
AcDbCircle
 10
-157.7297636054197
 20
266.5964757558461
 30
0.0
 40
1.999999907716361
  0
CIRCLE
  5
135
330
1F
100
AcDbEntity
  8
躯体
  6
JWW_DASHED1
 62
     2
370
     9
100
AcDbCircle
 10
-157.7297636054197
 20
-33.40351081170624
 30
0.0
 40
1.999999907716361
  0
CIRCLE
  5
136
330
1F
100
AcDbEntity
  8
躯体
  6
JWW_DASHED1
 62
     2
370
     9
100
AcDbCircle
 10
-157.7297636054197
 20
-133.403576324345
 30
0.0
 40
1.999999907716361
  0
CIRCLE
  5
137
330
1F
100
AcDbEntity
  8
躯体
  6
JWW_DASHED1
 62
     2
370
     9
100
AcDbCircle
 10
-157.7297636054197
 20
-233.4035368518019
 30
0.0
 40
1.999999907716361
  0
CIRCLE
  5
138
330
1F
100
AcDbEntity
  8
躯体
  6
JWW_DASHED1
 62
     2
370
     9
100
AcDbCircle
 10
-479.7296575008673
 20
288.5963830837412
 30
0.0
 40
1.999999907716361
  0
CIRCLE
  5
139
330
1F
100
AcDbEntity
  8
躯体
  6
JWW_DASHED1
 62
     2
370
     9
100
AcDbCircle
 10
-579.7296705209151
 20
288.5963830837412
 30
0.0
 40
1.999999907716361
  0
CIRCLE
  5
13A
330
1F
100
AcDbEntity
  8
躯体
  6
JWW_DASHED1
 62
     2
370
     9
100
AcDbCircle
 10
-679.7296310483719
 20
288.5963830837412
 30
0.0
 40
1.999999907716361
  0
CIRCLE
  5
13B
330
1F
100
AcDbEntity
  8
躯体
  6
JWW_DASHED1
 62
     2
370
     9
100
AcDbCircle
 10
-379.7296969734103
 20
288.5963830837412
 30
0.0
 40
1.999999907716361
  0
CIRCLE
  5
13C
330
1F
100
AcDbEntity
  8
躯体
  6
JWW_DASHED1
 62
     2
370
     9
100
AcDbCircle
 10
-279.7296839533626
 20
288.5963830837412
 30
0.0
 40
1.999999907716361
  0
CIRCLE
  5
13D
330
1F
100
AcDbEntity
  8
躯体
  6
JWW_DASHED1
 62
     2
370
     9
100
AcDbCircle
 10
-179.7296709333148
 20
288.5963830837412
 30
0.0
 40
1.999999907716361
  0
LINE
  5
13E
330
1F
100
AcDbEntity
  8
建具
  6
Continuous
 62
     3
370
     9
100
AcDbLine
 10
-708.2296434203633
 20
-261.9034442386112
 30
0.0
 11
-708.2296434203633
 21
295.0963831426554
 31
0.0
  0
LINE
  5
13F
330
1F
100
AcDbEntity
  8
通り芯
  6
JWW_CENTER1
 62
     4
370
     9
100
AcDbLine
 10
-429.7297297297297
 20
-316.4035697259498
 30
0.0
 11
-429.7297297297297
 21
349.596403644812
 31
0.0
  0
LINE
  5
140
330
1F
100
AcDbEntity
  8
通り芯
  6
JWW_CENTER1
 62
     4
370
     9
100
AcDbLine
 10
-96.72974304434881
 20
16.59652194461302
 30
0.0
 11
-762.7296639225199
 21
16.59652194461302
 31
0.0
  0
LINE
  5
141
330
1F
100
AcDbEntity
  8
0-9
  6
JWW_DASHED3
 62
     2
370
     9
100
AcDbLine
 10
-704.7297297297297
 20
-258.403478055387
 30
0.0
 11
-154.7297297297297
 21
-258.403478055387
 31
0.0
  0
LINE
  5
142
330
1F
100
AcDbEntity
  8
0-9
  6
JWW_DASHED3
 62
     2
370
     9
100
AcDbLine
 10
-154.7297297297297
 20
-258.403478055387
 30
0.0
 11
-154.7297297297297
 21
291.596521944613
 31
0.0
  0
LINE
  5
143
330
1F
100
AcDbEntity
  8
0-9
  6
JWW_DASHED3
 62
     2
370
     9
100
AcDbLine
 10
-154.7297297297297
 20
291.596521944613
 30
0.0
 11
-704.7297297297297
 21
291.596521944613
 31
0.0
  0
LINE
  5
144
330
1F
100
AcDbEntity
  8
0-9
  6
JWW_DASHED3
 62
     2
370
     9
100
AcDbLine
 10
-704.7297297297297
 20
291.596521944613
 30
0.0
 11
-704.7297297297297
 21
-258.403478055387
 31
0.0
  0
LINE
  5
145
330
1F
100
AcDbEntity
  8
その他
  6
Continuous
 62
     7
370
     9
100
AcDbLine
 10
-704.7297297297297
 20
377.0058461782095
 30
0.0
 11
-154.7297297297297
 21
377.0058461782095
 31
0.0
  0
LWPOLYLINE
  5
146
330
1F
100
AcDbEntity
  8
その他
  6
Continuous
 62
     7
370
     9
100
AcDbPolyline
 90
        4
 70
     1
 43
0.5
 10
-704.4797297297296
 20
377.0058461782095
 42
0.4142135623731
 10
-704.7297297297297
 20
377.2558461782095
 42
0.4142135623731
 10
-704.9797297297298
 20
377.0058461782095
 42
0.4142135623731
 10
-704.7297297297297
 20
376.7558461782095
 42
0.4142135623731
  0
LWPOLYLINE
  5
147
330
1F
100
AcDbEntity
  8
その他
  6
Continuous
 62
     7
370
     9
100
AcDbPolyline
 90
        4
 70
     1
 43
0.5
 10
-154.4797297297297
 20
377.0058461782095
 42
0.4142135623731
 10
-154.7297297297297
 20
377.2558461782095
 42
0.4142135623731
 10
-154.9797297297297
 20
377.0058461782095
 42
0.4142135623731
 10
-154.7297297297297
 20
376.7558461782095
 42
0.4142135623731
  0
TEXT
  5
148
330
1F
100
AcDbEntity
  8
その他
  6
Continuous
 62
     2
370
   211
100
AcDbText
 10
-445.9797297297297
 20
382.8258462974188
 30
0.0
 40
15.24
  1
550
 41
1.083333333333333
  7
ＭＳ ゴシック
100
AcDbText
  0
LINE
  5
149
330
1F
100
AcDbEntity
  8
その他
  6
Continuous
 62
     7
370
     9
100
AcDbLine
 10
-729.7297297297297
 20
337.0985041437923
 30
0.0
 11
-729.7297297297297
 21
417.9977169552366
 31
0.0
  0
LINE
  5
14A
330
1F
100
AcDbEntity
  8
その他
  6
Continuous
 62
     7
370
     9
100
AcDbLine
 10
-704.7297297297297
 20
378.5058462378141
 30
0.0
 11
-704.7297297297297
 21
337.0985041437923
 31
0.0
  0
LINE
  5
14B
330
1F
100
AcDbEntity
  8
その他
  6
Continuous
 62
     7
370
     9
100
AcDbLine
 10
-129.7297297297297
 20
337.0985041437923
 30
0.0
 11
-129.7297297297297
 21
417.9977169552366
 31
0.0
  0
LINE
  5
14C
330
1F
100
AcDbEntity
  8
その他
  6
Continuous
 62
     7
370
     9
100
AcDbLine
 10
-154.7297297297297
 20
378.5058462378141
 30
0.0
 11
-154.7297297297297
 21
337.0985041437923
 31
0.0
  0
LINE
  5
14D
330
1F
100
AcDbEntity
  8
その他
  6
Continuous
 62
     7
370
     9
100
AcDbLine
 10
-790.1387740005985
 20
291.5960546781441
 30
0.0
 11
-790.1339621652245
 21
-258.4039453008071
 31
0.0
  0
LWPOLYLINE
  5
14E
330
1F
100
AcDbEntity
  8
その他
  6
Continuous
 62
     7
370
     9
100
AcDbPolyline
 90
        4
 70
     1
 43
0.5
 10
-789.8887740005983
 20
291.5960546781441
 42
0.4142135623731
 10
-790.1387740005985
 20
291.846054678144
 42
0.4142135623731
 10
-790.3887740005985
 20
291.5960546781441
 42
0.4142135623731
 10
-790.1387740005985
 20
291.3460546781441
 42
0.4142135623731
  0
LINE
  5
14F
330
1F
100
AcDbEntity
  8
その他
  6
Continuous
 62
     7
370
     9
100
AcDbLine
 10
-791.6387740601456
 20
291.5960415549562
 30
0.0
 11
-750.2314319677084
 21
291.5964038191624
 31
0.0
  0
LWPOLYLINE
  5
150
330
1F
100
AcDbEntity
  8
その他
  6
Continuous
 62
     7
370
     9
100
AcDbPolyline
 90
        4
 70
     1
 43
0.5
 10
-789.8839621652244
 20
-258.4039453008071
 42
0.4142135623731
 10
-790.1339621652244
 20
-258.1539453008072
 42
0.4142135623731
 10
-790.3839621652244
 20
-258.4039453008071
 42
0.4142135623731
 10
-790.1339621652244
 20
-258.6539453008071
 42
0.4142135623731
  0
LINE
  5
151
330
1F
100
AcDbEntity
  8
その他
  6
Continuous
 62
     7
370
     9
100
AcDbLine
 10
-791.6339622247717
 20
-258.403958423995
 30
0.0
 11
-750.2266201323346
 21
-258.4035961597888
 31
0.0
  0
LINE
  5
152
330
1F
100
AcDbEntity
  8
その他
  6
Continuous
 62
     7
370
     9
100
AcDbLine
 10
-750.2295423330083
 20
316.5984041774176
 30
0.0
 11
-831.128775106894
 21
316.5971250791808
 31
0.0
  0
LINE
  5
153
330
1F
100
AcDbEntity
  8
その他
  6
Continuous
 62
     7
370
     9
100
AcDbLine
 10
-750.2262331226434
 20
-283.401622563842
 30
0.0
 11
-831.1194342535896
 21
-283.4028749208192
 31
0.0
  0
TEXT
  5
154
330
1F
100
AcDbEntity
  8
その他
  6
Continuous
 62
     2
370
   211
100
AcDbText
 10
-795.9562260340347
 20
0.3460037713222727
 30
0.0
 40
15.24
  1
550
 50
90.00050126883391
 41
1.083333333333333
  7
ＭＳ ゴシック
100
AcDbText
  0
LINE
  5
155
330
1F
100
AcDbEntity
  8
通り芯
  6
JWW_DASHED1
 62
   211
370
     5
100
AcDbLine
 10
-696.7295665961897
 20
283.596253825891
 30
0.0
 11
-162.72989286327
 21
283.596253825891
 31
0.0
  0
LINE
  5
156
330
1F
100
AcDbEntity
  8
通り芯
  6
JWW_DASHED1
 62
   211
370
     5
100
AcDbLine
 10
-696.7295665961897
 20
-250.4032624292558
 30
0.0
 11
-696.7295665961897
 21
283.596253825891
 31
0.0
  0
LINE
  5
157
330
1F
100
AcDbEntity
  8
通り芯
  6
JWW_DASHED1
 62
   211
370
     5
100
AcDbLine
 10
-162.72989286327
 20
283.596253825891
 30
0.0
 11
-162.7300503410428
 21
-250.4032624292559
 31
0.0
  0
LINE
  5
158
330
1F
100
AcDbEntity
  8
通り芯
  6
JWW_DASHED1
 62
   211
370
     5
100
AcDbLine
 10
-162.7300503410428
 20
-250.4032624292559
 30
0.0
 11
-696.7295665961897
 21
-250.4032624292558
 31
0.0
  0
LINE
  5
159
330
1F
100
AcDbEntity
  8
D-4
  6
Continuous
 62
     7
370
     9
100
AcDbLine
 10
308.5306116052575
 20
18.46757429829992
 30
0.0
 11
573.7947618639148
 21
18.46757429829992
 31
0.0
  0
LINE
  5
15A
330
1F
100
AcDbEntity
  8
D-1
  6
Continuous
 62
     2
370
     9
100
AcDbLine
 10
538.7812846415752
 20
457.0420404881225
 30
0.0
 11
545.0316145613388
 21
453.2920899760871
 31
0.0
  0
LINE
  5
15B
330
1F
100
AcDbEntity
  8
D-1
  6
Continuous
 62
     2
370
     9
100
AcDbLine
 10
545.0316145613388
 20
453.2920899760871
 30
0.0
 11
545.0316145613388
 21
452.0420239921344
 31
0.0
  0
LINE
  5
15C
330
1F
100
AcDbEntity
  8
D-5
  6
Continuous
 62
     7
370
     9
100
AcDbLine
 10
496.2817630252323
 20
380.7922219439924
 30
0.0
 11
496.2817630252323
 21
378.4039327759182
 31
0.0
  0
LINE
  5
15D
330
1F
100
AcDbEntity
  8
D-5
  6
Continuous
 62
     7
370
     9
100
AcDbLine
 10
468.7815485773859
 20
380.7922219439924
 30
0.0
 11
468.7815485773859
 21
378.4039327759182
 31
0.0
  0
LINE
  5
15E
330
1F
100
AcDbEntity
  8
D-5
  6
Continuous
 62
     7
370
     9
100
AcDbLine
 10
493.1565980653505
 20
387.0420569841108
 30
0.0
 11
493.1565980653505
 21
380.7922219439924
 31
0.0
  0
LINE
  5
15F
330
1F
100
AcDbEntity
  8
D-5
  6
Continuous
 62
     7
370
     9
100
AcDbLine
 10
496.2817630252323
 20
380.7922219439924
 30
0.0
 11
493.1565980653505
 21
380.7922219439924
 31
0.0
  0
LINE
  5
160
330
1F
100
AcDbEntity
  8
D-5
  6
Continuous
 62
     7
370
     9
100
AcDbLine
 10
471.906466097445
 20
387.0420569841108
 30
0.0
 11
471.906466097445
 21
380.7922219439924
 31
0.0
  0
LINE
  5
161
330
1F
100
AcDbEntity
  8
D-5
  6
Continuous
 62
     7
370
     9
100
AcDbLine
 10
471.906466097445
 20
380.7922219439924
 30
0.0
 11
468.7815485773859
 21
380.7922219439924
 31
0.0
  0
LINE
  5
162
330
1F
100
AcDbEntity
  8
D-5
  6
Continuous
 62
     7
370
     9
100
AcDbLine
 10
490.0316805452914
 20
387.0420569841108
 30
0.0
 11
490.0316805452914
 21
378.5932242402341
 31
0.0
  0
LINE
  5
163
330
1F
100
AcDbEntity
  8
D-5
  6
Continuous
 62
     7
370
     9
100
AcDbLine
 10
490.0316805452914
 20
387.0420569841108
 30
0.0
 11
475.0316310573268
 21
387.0420569841108
 31
0.0
  0
LINE
  5
164
330
1F
100
AcDbEntity
  8
D-5
  6
Continuous
 62
     7
370
     9
100
AcDbLine
 10
475.0316310573268
 20
387.0420569841108
 30
0.0
 11
475.0316310573268
 21
378.5932242402341
 31
0.0
  0
LINE
  5
165
330
1F
100
AcDbEntity
  8
D-1
  6
Continuous
 62
     2
370
     9
100
AcDbLine
 10
515.031268145587
 20
387.0420569841108
 30
0.0
 11
496.2817630252323
 21
387.0420569841108
 31
0.0
  0
LINE
  5
166
330
1F
100
AcDbEntity
  8
D-1
  6
Continuous
 62
     2
370
     9
100
AcDbLine
 10
468.7815485773859
 20
387.0420569841108
 30
0.0
 11
450.0315485773859
 21
387.0420569841108
 31
0.0
  0
LINE
  5
167
330
1F
100
AcDbEntity
  8
D-1
  6
Continuous
 62
     2
370
     9
100
AcDbLine
 10
498.1566145613388
 20
382.0420404881225
 30
0.0
 11
496.2817630252323
 21
382.0420404881225
 31
0.0
  0
LINE
  5
168
330
1F
100
AcDbEntity
  8
D-1
  6
Continuous
 62
     2
370
     9
100
AcDbLine
 10
466.906449601457
 20
382.0420404881225
 30
0.0
 11
468.7815485773859
 21
382.0420404881225
 31
0.0
  0
LINE
  5
169
330
1F
100
AcDbEntity
  8
D-1
  6
Continuous
 62
     2
370
     9
100
AcDbLine
 10
488.1565815693625
 20
354.5418260402763
 30
0.0
 11
488.1565815693625
 21
352.0419415121935
 31
0.0
  0
LINE
  5
16A
330
1F
100
AcDbEntity
  8
D-1
  6
Continuous
 62
     2
370
     9
100
AcDbLine
 10
491.9065320813979
 20
354.5418260402763
 30
0.0
 11
488.1565815693625
 21
354.5418260402763
 31
0.0
  0
LINE
  5
16B
330
1F
100
AcDbEntity
  8
D-1
  6
Continuous
 62
     2
370
     9
100
AcDbLine
 10
491.9065320813979
 20
363.2922879279452
 30
0.0
 11
491.9065320813979
 21
354.5418260402763
 31
0.0
  0
LINE
  5
16C
330
1F
100
AcDbEntity
  8
D-1
  6
Continuous
 62
     2
370
     9
100
AcDbLine
 10
476.9064825934333
 20
354.5418260402763
 30
0.0
 11
476.9064825934333
 21
352.0419415121935
 31
0.0
  0
LINE
  5
16D
330
1F
100
AcDbEntity
  8
D-1
  6
Continuous
 62
     2
370
     9
100
AcDbLine
 10
473.1565320813979
 20
354.5418260402763
 30
0.0
 11
476.9064825934333
 21
354.5418260402763
 31
0.0
  0
LINE
  5
16E
330
1F
100
AcDbEntity
  8
D-1
  6
Continuous
 62
     2
370
     9
100
AcDbLine
 10
491.9065320813979
 20
363.2922879279452
 30
0.0
 11
473.1565320813979
 21
363.2922879279452
 31
0.0
  0
LINE
  5
16F
330
1F
100
AcDbEntity
  8
D-1
  6
Continuous
 62
     2
370
     9
100
AcDbLine
 10
473.1565320813979
 20
363.2922879279452
 30
0.0
 11
473.1565320813979
 21
354.5418260402763
 31
0.0
  0
LINE
  5
170
330
1F
100
AcDbEntity
  8
D-1
  6
Continuous
 62
     2
370
     9
100
AcDbLine
 10
456.2813836175044
 20
382.0420404881225
 30
0.0
 11
460.6561196816935
 21
382.0420404881225
 31
0.0
  0
LINE
  5
171
330
1F
100
AcDbEntity
  8
D-1
  6
Continuous
 62
     2
370
     9
100
AcDbLine
 10
450.0315485773859
 20
387.0420569841108
 30
0.0
 11
450.0315485773859
 21
352.0419415121935
 31
0.0
  0
LINE
  5
172
330
1F
100
AcDbEntity
  8
D-1
  6
Continuous
 62
     2
370
     9
100
AcDbLine
 10
453.7814990894216
 20
358.2920239921344
 30
0.0
 11
453.7814990894216
 21
379.5419085202172
 31
0.0
  0
LINE
  5
173
330
1F
100
AcDbEntity
  8
D-1
  6
Continuous
 62
     2
370
     9
100
AcDbLine
 10
466.9069444811024
 20
355.791892024229
 30
0.0
 11
456.2813836175044
 21
355.791892024229
 31
0.0
  0
LINE
  5
174
330
1F
100
AcDbEntity
  8
D-1
  6
Continuous
 62
     2
370
     9
100
AcDbLine
 10
469.4065815693625
 20
360.7919085202172
 30
0.0
 11
469.4065815693625
 21
358.2920239921344
 31
0.0
  0
LINE
  5
175
330
1F
100
AcDbEntity
  8
D-1
  6
Continuous
 62
     2
370
     9
100
AcDbLine
 10
465.6563836175044
 20
363.2922879279452
 30
0.0
 11
466.9069444811024
 21
363.2922879279452
 31
0.0
  0
LINE
  5
176
330
1F
100
AcDbEntity
  8
D-1
  6
Continuous
 62
     2
370
     9
100
AcDbLine
 10
463.1567465292443
 20
365.7919250162053
 30
0.0
 11
463.1567465292443
 21
379.5419085202172
 31
0.0
  0
LINE
  5
177
330
1F
100
AcDbEntity
  8
D-1
  6
Continuous
 62
     2
370
     9
100
AcDbLine
 10
527.5316805452915
 20
357.0419580081816
 30
0.0
 11
520.0317795212206
 21
357.0419580081816
 31
0.0
  0
LINE
  5
178
330
1F
100
AcDbEntity
  8
D-1
  6
Continuous
 62
     2
370
     9
100
AcDbLine
 10
512.5316310573269
 20
382.0420404881225
 30
0.0
 11
504.406449601457
 21
382.0420404881225
 31
0.0
  0
LINE
  5
179
330
1F
100
AcDbEntity
  8
D-1
  6
Continuous
 62
     2
370
     9
100
AcDbLine
 10
501.9068125131969
 20
367.0422384399807
 30
0.0
 11
501.9068125131969
 21
379.5419085202172
 31
0.0
  0
LINE
  5
17A
330
1F
100
AcDbEntity
  8
D-1
  6
Continuous
 62
     2
370
     9
100
AcDbLine
 10
498.1566145613388
 20
363.2922879279452
 30
0.0
 11
495.6562351536107
 21
363.2922879279452
 31
0.0
  0
LINE
  5
17B
330
1F
100
AcDbEntity
  8
D-1
  6
Continuous
 62
     2
370
     9
100
AcDbLine
 10
532.5314496014571
 20
359.5420899760871
 30
0.0
 11
532.5314496014571
 21
352.0419415121935
 31
0.0
  0
LINE
  5
17C
330
1F
100
AcDbEntity
  8
D-1
  6
Continuous
 62
     2
370
     9
100
AcDbLine
 10
527.5316805452915
 20
359.5420899760871
 30
0.0
 11
527.5316805452915
 21
357.0419580081816
 31
0.0
  0
LINE
  5
17D
330
1F
100
AcDbEntity
  8
D-1
  6
Continuous
 62
     2
370
     9
100
AcDbLine
 10
515.031268145587
 20
358.2920239921344
 30
0.0
 11
515.031268145587
 21
379.5419085202172
 31
0.0
  0
LINE
  5
17E
330
1F
100
AcDbEntity
  8
D-1
  6
Continuous
 62
     2
370
     9
100
AcDbLine
 10
498.1566145613388
 20
355.791892024229
 30
0.0
 11
512.5316310573269
 21
355.791892024229
 31
0.0
  0
LINE
  5
17F
330
1F
100
AcDbEntity
  8
D-1
  6
Continuous
 62
     2
370
     9
100
AcDbLine
 10
495.6562351536107
 20
358.2920239921344
 30
0.0
 11
495.6562351536107
 21
363.2922879279452
 31
0.0
  0
LINE
  5
180
330
1F
100
AcDbEntity
  8
D-1
  6
Continuous
 62
     2
370
     9
100
AcDbLine
 10
532.5314496014571
 20
407.0419992481521
 30
0.0
 11
520.0317795212206
 21
407.0419992481521
 31
0.0
  0
LINE
  5
181
330
1F
100
AcDbEntity
  8
D-1
  6
Continuous
 62
     2
370
     9
100
AcDbLine
 10
532.5314496014571
 20
399.5417270643472
 30
0.0
 11
532.5314496014571
 21
407.0419992481521
 31
0.0
  0
LINE
  5
182
330
1F
100
AcDbEntity
  8
D-1
  6
Continuous
 62
     2
370
     9
100
AcDbLine
 10
527.5316805452915
 20
399.5417270643472
 30
0.0
 11
527.5316805452915
 21
402.0421064720753
 31
0.0
  0
LINE
  5
183
330
1F
100
AcDbEntity
  8
D-1
  6
Continuous
 62
     2
370
     9
100
AcDbLine
 10
527.5316805452915
 20
402.0421064720753
 30
0.0
 11
520.0317795212206
 21
402.0421064720753
 31
0.0
  0
LINE
  5
184
330
1F
100
AcDbEntity
  8
D-1
  6
Continuous
 62
     2
370
     9
100
AcDbLine
 10
520.0317795212206
 20
402.0421064720753
 30
0.0
 11
520.0317795212206
 21
357.0419580081816
 31
0.0
  0
LINE
  5
185
330
1F
100
AcDbEntity
  8
D-1
  6
Continuous
 62
     2
370
     9
100
AcDbLine
 10
525.0315485773859
 20
452.0420239921344
 30
0.0
 11
545.0316145613388
 21
452.0420239921344
 31
0.0
  0
LINE
  5
186
330
1F
100
AcDbEntity
  8
D-1
  6
Continuous
 62
     2
370
     9
100
AcDbLine
 10
520.0317795212206
 20
447.0421312160576
 30
0.0
 11
520.0317795212206
 21
407.0419992481521
 31
0.0
  0
LINE
  5
187
330
1F
100
AcDbEntity
  8
D-1
  6
Continuous
 62
     2
370
     9
100
AcDbLine
 10
532.5314496014571
 20
352.0419415121935
 30
0.0
 11
488.1565815693625
 21
352.0419415121935
 31
0.0
  0
LINE
  5
188
330
1F
100
AcDbEntity
  8
D-1
  6
Continuous
 62
     2
370
     9
100
AcDbLine
 10
476.9064825934333
 20
352.0419415121935
 30
0.0
 11
450.0315485773859
 21
352.0419415121935
 31
0.0
  0
LINE
  5
189
330
1F
100
AcDbEntity
  8
D-1
  6
Continuous
 62
     2
370
     9
100
AcDbLine
 10
483.2812747439823
 20
367.541819441881
 30
0.0
 11
481.7815419789909
 21
367.541819441881
 31
0.0
  0
LINE
  5
18A
330
1F
100
AcDbEntity
  8
D-1
  6
Continuous
 62
     2
370
     9
100
AcDbLine
 10
483.2812747439823
 20
368.2918095442881
 30
0.0
 11
483.2812747439823
 21
367.541819441881
 31
0.0
  0
LINE
  5
18B
330
1F
100
AcDbEntity
  8
D-1
  6
Continuous
 62
     2
370
     9
100
AcDbLine
 10
481.7815419789909
 20
368.2918095442881
 30
0.0
 11
481.7815419789909
 21
367.541819441881
 31
0.0
  0
LINE
  5
18C
330
1F
100
AcDbEntity
  8
D-1
  6
Continuous
 62
     2
370
     9
100
AcDbLine
 10
498.1566145613388
 20
370.7919415121935
 30
0.0
 11
498.1566145613388
 21
382.0420404881225
 31
0.0
  0
LINE
  5
18D
330
1F
100
AcDbEntity
  8
D-1
  6
Continuous
 62
     2
370
     9
100
AcDbLine
 10
495.6564825934333
 20
368.2918095442881
 30
0.0
 11
483.2812747439823
 21
368.2918095442881
 31
0.0
  0
LINE
  5
18E
330
1F
100
AcDbEntity
  8
D-1
  6
Continuous
 62
     2
370
     9
100
AcDbLine
 10
469.4065815693625
 20
368.2918095442881
 30
0.0
 11
481.7815419789909
 21
368.2918095442881
 31
0.0
  0
LINE
  5
18F
330
1F
100
AcDbEntity
  8
D-1
  6
Continuous
 62
     2
370
     9
100
AcDbLine
 10
466.906449601457
 20
370.7919415121935
 30
0.0
 11
466.906449601457
 21
382.0420404881225
 31
0.0
  0
LINE
  5
190
330
1F
100
AcDbEntity
  8
D-1
  6
JWW_CENTER1
 62
     2
370
     9
100
AcDbLine
 10
482.5317795212206
 20
391.2517506866023
 30
0.0
 11
482.5317795212206
 21
349.4106664382915
 31
0.0
  0
LINE
  5
191
330
1F
100
AcDbEntity
  8
D-1
  6
Continuous
 62
     2
370
     9
100
AcDbLine
 10
538.7812846415752
 20
457.0420404881225
 30
0.0
 11
521.2813506255279
 21
457.0420404881225
 31
0.0
  0
LINE
  5
192
330
1F
100
AcDbEntity
  8
D-1
  6
Continuous
 62
     2
370
     9
100
AcDbLine
 10
521.2813506255279
 20
457.0420404881225
 30
0.0
 11
515.031268145587
 21
452.0420239921344
 31
0.0
  0
LINE
  5
193
330
1F
100
AcDbEntity
  8
D-1
  6
Continuous
 62
     2
370
     9
100
AcDbLine
 10
515.031268145587
 20
452.0420239921344
 30
0.0
 11
515.031268145587
 21
387.0420569841108
 31
0.0
  0
LINE
  5
194
330
1F
100
AcDbEntity
  8
D-1
  6
Continuous
 62
     2
370
     9
100
AcDbLine
 10
540.0313506255279
 20
348.4171955504115
 30
0.0
 11
602.5316805452915
 21
348.4171955504115
 31
0.0
  0
LINE
  5
195
330
1F
100
AcDbEntity
  8
D-1
  6
Continuous
 62
     2
370
     9
100
AcDbLine
 10
521.7814265070734
 20
401.417073480099
 30
0.0
 11
527.5316805452915
 21
401.417073480099
 31
0.0
  0
LINE
  5
196
330
1F
100
AcDbEntity
  8
D-1
  6
Continuous
 62
     2
370
     9
100
AcDbLine
 10
527.5316805452915
 20
357.6669910001581
 30
0.0
 11
521.7814265070734
 21
357.6669910001581
 31
0.0
  0
LINE
  5
197
330
1F
100
AcDbEntity
  8
D-1
  6
Continuous
 62
     2
370
     9
100
AcDbLine
 10
521.7814265070734
 20
401.417073480099
 30
0.0
 11
521.7814265070734
 21
357.6669910001581
 31
0.0
  0
LINE
  5
198
330
1F
100
AcDbEntity
  8
D-1
  6
Continuous
 62
     2
370
     9
100
AcDbLine
 10
602.5316805452915
 20
362.6670074961462
 30
0.0
 11
602.5316805452915
 21
342.6669415121935
 31
0.0
  0
LINE
  5
199
330
1F
100
AcDbEntity
  8
D-1
  6
Continuous
 62
     2
370
     9
100
AcDbLine
 10
538.5670017551731
 20
356.6314553424299
 30
0.0
 11
527.5316805452915
 21
367.6670239921344
 31
0.0
  0
LINE
  5
19A
330
1F
100
AcDbEntity
  8
D-1
  6
Continuous
 62
     2
370
     9
100
AcDbLine
 10
540.0313506255279
 20
353.0960351566191
 30
0.0
 11
540.0313506255279
 21
342.6669415121935
 31
0.0
  0
LINE
  5
19B
330
1F
100
AcDbEntity
  8
D-A
  6
Continuous
 62
     2
370
     9
100
AcDbLine
 10
545.0316145613388
 20
388.9171559600398
 30
0.0
 11
549.3405316327071
 21
388.9171559600398
 31
0.0
  0
LINE
  5
19C
330
1F
100
AcDbEntity
  8
D-1
  6
JWW_DASHED3
 62
     2
370
     9
100
AcDbLine
 10
549.3405316327071
 20
368.9170899760871
 30
0.0
 11
545.0316145613388
 21
368.9170899760871
 31
0.0
  0
LINE
  5
19D
330
1F
100
AcDbEntity
  8
D-A
  6
Continuous
 62
     2
370
     9
100
AcDbLine
 10
551.7303054397172
 20
380.1669415121935
 30
0.0
 11
551.7303054397172
 21
377.6670569841108
 31
0.0
  0
LINE
  5
19E
330
1F
100
AcDbEntity
  8
D-A
  6
Continuous
 62
     2
370
     9
100
AcDbLine
 10
552.73342648068
 20
377.6670569841108
 30
0.0
 11
551.7303054397172
 21
377.6670569841108
 31
0.0
  0
LINE
  5
19F
330
1F
100
AcDbEntity
  8
D-A
  6
Continuous
 62
     2
370
     9
100
AcDbLine
 10
552.73342648068
 20
380.1669415121935
 30
0.0
 11
551.7303054397172
 21
380.1669415121935
 31
0.0
  0
LINE
  5
1A0
330
1F
100
AcDbEntity
  8
D-A
  6
Continuous
 62
     2
370
     9
100
AcDbLine
 10
520.0317795212206
 20
373.9168590322526
 30
0.0
 11
520.0317795212206
 21
383.916892024229
 31
0.0
  0
LINE
  5
1A1
330
1F
100
AcDbEntity
  8
D-A
  6
Continuous
 62
     2
370
     9
100
AcDbLine
 10
541.5318257099875
 20
383.916892024229
 30
0.0
 11
542.8086151947846
 21
383.179768792599
 31
0.0
  0
LINE
  5
1A2
330
1F
100
AcDbEntity
  8
D-1
  6
JWW_DASHED3
 62
     2
370
     9
100
AcDbLine
 10
541.5318257099875
 20
373.9168590322526
 30
0.0
 11
542.8086151947846
 21
374.6539822638827
 31
0.0
  0
LINE
  5
1A3
330
1F
100
AcDbEntity
  8
D-A
  6
Continuous
 62
     2
370
     9
100
AcDbLine
 10
541.5315782701648
 20
382.4169118194148
 30
0.0
 11
544.7881337758658
 21
384.3627785846174
 31
0.0
  0
LINE
  5
1A4
330
1F
100
AcDbEntity
  8
D-1
  6
JWW_DASHED3
 62
     2
370
     9
100
AcDbLine
 10
541.5315782701648
 20
375.4170866768894
 30
0.0
 11
544.7881337758658
 21
373.4714673515094
 31
0.0
  0
LINE
  5
1A5
330
1F
100
AcDbEntity
  8
D-7
  6
JWW_CENTER1
 62
     3
370
     9
100
AcDbLine
 10
520.0317795212206
 20
378.9172466879747
 30
0.0
 11
555.0742072028083
 21
378.9172466879747
 31
0.0
  0
LINE
  5
1A6
330
1F
100
AcDbEntity
  8
D-A
  6
Continuous
 62
     2
370
     9
100
AcDbLine
 10
521.7814265070734
 20
383.916892024229
 30
0.0
 11
520.0317795212206
 21
383.916892024229
 31
0.0
  0
LINE
  5
1A7
330
1F
100
AcDbEntity
  8
D-A
  6
Continuous
 62
     2
370
     9
100
AcDbLine
 10
521.7814265070734
 20
382.4169118194148
 30
0.0
 11
520.0317795212206
 21
382.4169118194148
 31
0.0
  0
LINE
  5
1A8
330
1F
100
AcDbEntity
  8
D-1
  6
JWW_DASHED3
 62
     2
370
     9
100
AcDbLine
 10
541.5315782701648
 20
375.4170866768894
 30
0.0
 11
527.5316805452915
 21
375.4170866768894
 31
0.0
  0
LINE
  5
1A9
330
1F
100
AcDbEntity
  8
D-A
  6
Continuous
 62
     2
370
     9
100
AcDbLine
 10
521.7814265070734
 20
375.4170866768894
 30
0.0
 11
520.0317795212206
 21
375.4170866768894
 31
0.0
  0
LINE
  5
1AA
330
1F
100
AcDbEntity
  8
D-1
  6
JWW_DASHED3
 62
     2
370
     9
100
AcDbLine
 10
541.5318257099875
 20
373.9168590322526
 30
0.0
 11
527.5316805452915
 21
373.9168590322526
 31
0.0
  0
LINE
  5
1AB
330
1F
100
AcDbEntity
  8
D-A
  6
Continuous
 62
     2
370
     9
100
AcDbLine
 10
521.7814265070734
 20
373.9168590322526
 30
0.0
 11
520.0317795212206
 21
373.9168590322526
 31
0.0
  0
LINE
  5
1AC
330
1F
100
AcDbEntity
  8
D-1
  6
Continuous
 62
     2
370
     9
100
AcDbLine
 10
557.70919387405
 20
367.6670239921344
 30
0.0
 11
597.5314166094807
 21
367.6670239921344
 31
0.0
  0
LINE
  5
1AD
330
1F
100
AcDbEntity
  8
D-1
  6
Continuous
 62
     2
370
     9
100
AcDbLine
 10
540.0313506255279
 20
342.6669415121935
 30
0.0
 11
602.5316805452915
 21
342.6669415121935
 31
0.0
  0
LINE
  5
1AE
330
1F
100
AcDbEntity
  8
D-6
  6
Continuous
 62
     6
370
     9
100
AcDbLine
 10
659.6539059200802
 20
364.5418590322526
 30
0.0
 11
730.5770874023438
 21
293.6186775499891
 31
0.0
  0
LINE
  5
1AF
330
1F
100
AcDbEntity
  8
D-6
  6
Continuous
 62
     6
370
     9
100
AcDbLine
 10
654.3507756413641
 20
364.5418590322526
 30
0.0
 11
730.5770874023438
 21
288.3154235513616
 31
0.0
  0
LINE
  5
1B0
330
1F
100
AcDbEntity
  8
D-6
  6
Continuous
 62
     6
370
     9
100
AcDbLine
 10
649.0473979228252
 20
364.5418590322526
 30
0.0
 11
730.5770874023438
 21
283.0121695527341
 31
0.0
  0
LINE
  5
1B1
330
1F
100
AcDbEntity
  8
D-6
  6
Continuous
 62
     6
370
     9
100
AcDbLine
 10
625.0313836175044
 20
364.5418590322526
 30
0.0
 11
730.5770874023438
 21
364.5418590322526
 31
0.0
  0
LINE
  5
1B2
330
1F
100
AcDbEntity
  8
D-6
  6
Continuous
 62
     6
370
     9
100
AcDbLine
 10
625.0313836175044
 20
364.5418590322526
 30
0.0
 11
625.0313836175044
 21
314.5419415121935
 31
0.0
  0
LINE
  5
1B3
330
1F
100
AcDbEntity
  8
D-6
  6
Continuous
 62
     6
370
     9
100
AcDbLine
 10
512.5313836175044
 20
314.5419415121935
 30
0.0
 11
625.0313836175044
 21
314.5419415121935
 31
0.0
  0
LINE
  5
1B4
330
1F
100
AcDbEntity
  8
D-6
  6
Continuous
 62
     6
370
     9
100
AcDbLine
 10
526.4812984982052
 20
414.5420239921344
 30
0.0
 11
526.4812984982052
 21
452.0417765523117
 31
0.0
  0
LINE
  5
1B5
330
1F
100
AcDbEntity
  8
D-6
  6
JWW_DASHED3
 62
     6
370
     9
100
AcDbLine
 10
567.2324103278083
 20
270.2638224507492
 30
0.0
 11
567.2324103278083
 21
314.5419415121935
 31
0.0
  0
LINE
  5
1B6
330
1F
100
AcDbEntity
  8
D-6
  6
JWW_DASHED3
 62
     6
370
     9
100
AcDbLine
 10
589.7323608398438
 20
270.2638224507492
 30
0.0
 11
589.7323608398438
 21
314.5419415121935
 31
0.0
  0
LINE
  5
1B7
330
1F
100
AcDbEntity
  8
D-6
  6
Continuous
 62
     6
370
     9
100
AcDbLine
 10
545.0313671215162
 20
452.0417765523117
 30
0.0
 11
789.7961178341427
 21
452.0417765523117
 31
0.0
  0
LINE
  5
1B8
330
1F
100
AcDbEntity
  8
D-6
  6
Continuous
 62
     6
370
     9
100
AcDbLine
 10
450.0315485773859
 20
352.0419415121935
 30
0.0
 11
450.0315485773859
 21
63.64983847165298
 31
0.0
  0
LINE
  5
1B9
330
1F
100
AcDbEntity
  8
D-6
  6
JWW_CENTER1
 62
     6
370
     9
100
AcDbLine
 10
578.4820144240922
 20
270.2638224507492
 30
0.0
 11
578.4820144240922
 21
386.3638244302678
 31
0.0
  0
LINE
  5
1BA
330
1F
100
AcDbEntity
  8
D-6
  6
Continuous
 62
     6
370
     9
100
AcDbLine
 10
567.2324103278083
 20
314.5419415121935
 30
0.0
 11
567.2324103278083
 21
343.2919745041699
 31
0.0
  0
LINE
  5
1BB
330
1F
100
AcDbEntity
  8
D-6
  6
Continuous
 62
     6
370
     9
100
AcDbLine
 10
589.7323608398438
 20
314.5419415121935
 30
0.0
 11
589.7323608398438
 21
343.2919745041699
 31
0.0
  0
LINE
  5
1BC
330
1F
100
AcDbEntity
  8
D-6
  6
Continuous
 62
     6
370
     9
100
AcDbLine
 10
589.7323608398438
 20
368.2918095442881
 30
0.0
 11
589.7323608398438
 21
376.4575711310702
 31
0.0
  0
LINE
  5
1BD
330
1F
100
AcDbEntity
  8
D-6
  6
JWW_DASHED3
 62
     6
370
     9
100
AcDbLine
 10
589.7323608398438
 20
343.2919745041699
 30
0.0
 11
589.7323608398438
 21
368.2918095442881
 31
0.0
  0
LINE
  5
1BE
330
1F
100
AcDbEntity
  8
D-6
  6
Continuous
 62
     6
370
     9
100
AcDbLine
 10
567.2324103278083
 20
368.2918095442881
 30
0.0
 11
567.2324103278083
 21
376.4575711310702
 31
0.0
  0
LINE
  5
1BF
330
1F
100
AcDbEntity
  8
D-6
  6
JWW_DASHED3
 62
     6
370
     9
100
AcDbLine
 10
567.2324103278083
 20
343.2919745041699
 30
0.0
 11
567.2324103278083
 21
368.2918095442881
 31
0.0
  0
LINE
  5
1C0
330
1F
100
AcDbEntity
  8
D-6
  6
Continuous
 62
     6
370
     9
100
AcDbLine
 10
520.0312846415752
 20
414.5420239921344
 30
0.0
 11
625.4658879460516
 21
414.5420239921344
 31
0.0
  0
LINE
  5
1C1
330
1F
100
AcDbEntity
  8
D-4
  6
Continuous
 62
     7
370
     9
100
AcDbLine
 10
610.5710003827071
 20
343.2919745041699
 30
0.0
 11
656.5297307194891
 21
343.2919745041699
 31
0.0
  0
LINE
  5
1C2
330
1F
100
AcDbEntity
  8
D-4
  6
Continuous
 62
     7
370
     9
100
AcDbLine
 10
610.5710003827071
 20
368.2918095442881
 30
0.0
 11
656.5297307194891
 21
368.2918095442881
 31
0.0
  0
LINE
  5
1C3
330
1F
100
AcDbEntity
  8
D-4
  6
Continuous
 62
     7
370
     9
100
AcDbLine
 10
762.7410476272172
 20
314.5419415121935
 30
0.0
 11
762.7410476272172
 21
452.0417765523117
 31
0.0
  0
LINE
  5
1C4
330
1F
100
AcDbEntity
  8
D-4
  6
Continuous
 62
     7
370
     9
100
AcDbLine
 10
638.3644310203761
 20
314.5419415121935
 30
0.0
 11
764.2410278320312
 21
314.5419415121935
 31
0.0
  0
LINE
  5
1C5
330
1F
100
AcDbEntity
  8
D-4
  6
Continuous
 62
     7
370
     9
100
AcDbLine
 10
138.8631047429266
 20
128.7982693732577
 30
0.0
 11
602.5314331054688
 21
128.7982693732577
 31
0.0
  0
LINE
  5
1C6
330
1F
100
AcDbEntity
  8
D-4
  6
Continuous
 62
     7
370
     9
100
AcDbLine
 10
532.5314496014571
 20
329.3687831243134
 30
0.0
 11
532.5314496014571
 21
127.2982891684435
 31
0.0
  0
LINE
  5
1C7
330
1F
100
AcDbEntity
  8
D-4
  6
Continuous
 62
     7
370
     9
100
AcDbLine
 10
602.5314331054688
 20
329.3687831243134
 30
0.0
 11
602.5314331054688
 21
127.2982891684435
 31
0.0
  0
LINE
  5
1C8
330
1F
100
AcDbEntity
  8
D-4
  6
Continuous
 62
     7
370
     9
100
AcDbLine
 10
450.0315485773859
 20
80.30600269251444
 30
0.0
 11
625.0313836175044
 21
80.30600269251444
 31
0.0
  0
LINE
  5
1C9
330
1F
100
AcDbEntity
  8
D-4
  6
Continuous
 62
     7
370
     9
100
AcDbLine
 10
625.0313836175044
 20
302.8115618405297
 30
0.0
 11
625.0313836175044
 21
78.80602248770025
 31
0.0
  0
LINE
  5
1CA
330
1F
100
AcDbEntity
  8
D-6
  6
Continuous
 62
     6
370
     9
100
AcDbLine
 10
567.2324103278083
 20
376.4575711310702
 30
0.0
 11
589.7323608398438
 21
376.4575711310702
 31
0.0
  0
LINE
  5
1CB
330
1F
100
AcDbEntity
  8
D-1
  6
Continuous
 62
     2
370
     9
100
AcDbLine
 10
527.5316805452915
 20
399.5417270643472
 30
0.0
 11
527.5316805452915
 21
392.6671064720753
 31
0.0
  0
LINE
  5
1CC
330
1F
100
AcDbEntity
  8
D-1
  6
JWW_DASHED3
 62
     2
370
     9
100
AcDbLine
 10
527.5316805452915
 20
392.6671064720753
 30
0.0
 11
527.5316805452915
 21
367.6670239921344
 31
0.0
  0
LINE
  5
1CD
330
1F
100
AcDbEntity
  8
D-1
  6
Continuous
 62
     2
370
     9
100
AcDbLine
 10
527.5316805452915
 20
367.6670239921344
 30
0.0
 11
527.5316805452915
 21
359.5420899760871
 31
0.0
  0
LINE
  5
1CE
330
1F
100
AcDbEntity
  8
D-1
  6
Continuous
 62
     2
370
     9
100
AcDbLine
 10
548.8703959697002
 20
371.3282673277552
 30
0.0
 11
527.5316805452915
 21
392.6671064720753
 31
0.0
  0
LINE
  5
1CF
330
1F
100
AcDbEntity
  8
D-A
  6
Continuous
 62
     2
370
     9
100
AcDbLine
 10
541.5318257099875
 20
383.916892024229
 30
0.0
 11
536.2816475533151
 21
383.916892024229
 31
0.0
  0
LINE
  5
1D0
330
1F
100
AcDbEntity
  8
D-A
  6
Continuous
 62
     2
370
     9
100
AcDbLine
 10
541.5315782701648
 20
382.4169118194148
 30
0.0
 11
537.7816277581294
 21
382.4169118194148
 31
0.0
  0
LINE
  5
1D1
330
1F
100
AcDbEntity
  8
D-1
  6
JWW_DASHED3
 62
     2
370
     9
100
AcDbLine
 10
537.7816277581294
 20
382.4169118194148
 30
0.0
 11
527.5316805452915
 21
382.4169118194148
 31
0.0
  0
LINE
  5
1D2
330
1F
100
AcDbEntity
  8
D-1
  6
JWW_DASHED3
 62
     2
370
     9
100
AcDbLine
 10
536.2816475533151
 20
383.916892024229
 30
0.0
 11
527.5316805452915
 21
383.916892024229
 31
0.0
  0
LINE
  5
1D3
330
1F
100
AcDbEntity
  8
D-A
  6
Continuous
 62
     2
370
     9
100
AcDbLine
 10
541.5318257099875
 20
378.6669613073793
 30
0.0
 11
541.5318257099875
 21
383.916892024229
 31
0.0
  0
LINE
  5
1D4
330
1F
100
AcDbEntity
  8
D-1
  6
JWW_DASHED3
 62
     2
370
     9
100
AcDbLine
 10
541.5318257099875
 20
373.9168590322526
 30
0.0
 11
541.5318257099875
 21
378.6669613073793
 31
0.0
  0
LINE
  5
1D5
330
1F
100
AcDbEntity
  8
D-A
  6
Continuous
 62
     2
370
     9
100
AcDbLine
 10
545.0316145613388
 20
375.1669250162053
 30
0.0
 11
545.0316145613388
 21
388.9171559600398
 31
0.0
  0
LINE
  5
1D6
330
1F
100
AcDbEntity
  8
D-1
  6
JWW_DASHED3
 62
     2
370
     9
100
AcDbLine
 10
545.0316145613388
 20
368.9170899760871
 30
0.0
 11
545.0316145613388
 21
375.1669250162053
 31
0.0
  0
LINE
  5
1D7
330
1F
100
AcDbEntity
  8
D-4
  6
Continuous
 62
     7
370
     9
100
AcDbLine
 10
557.70919387405
 20
367.6670239921344
 30
0.0
 11
562.7693382469386
 21
379.0970117191191
 31
0.0
  0
LINE
  5
1D8
330
1F
100
AcDbEntity
  8
D-4
  6
Continuous
 62
     7
370
     9
100
AcDbLine
 10
557.70919387405
 20
367.6670239921344
 30
0.0
 11
565.5552632099875
 21
377.3979661769951
 31
0.0
  0
LINE
  5
1D9
330
1F
100
AcDbEntity
  8
D-4
  6
Continuous
 62
     7
370
     9
100
AcDbLine
 10
526.4983718459672
 20
407.0419992481521
 30
0.0
 11
531.5585162188557
 21
418.4718632552256
 31
0.0
  0
LINE
  5
1DA
330
1F
100
AcDbEntity
  8
D-4
  6
Continuous
 62
     7
370
     9
100
AcDbLine
 10
526.4983718459672
 20
407.0419992481521
 30
0.0
 11
534.3444411819047
 21
416.7726939931901
 31
0.0
  0
LINE
  5
1DB
330
1F
100
AcDbEntity
  8
D-4
  6
Continuous
 62
     7
370
     9
100
AcDbLine
 10
131.3629562790329
 20
452.0420239921344
 30
0.0
 11
91.39820820576446
 21
452.0420239921344
 31
0.0
  0
LINE
  5
1DC
330
1F
100
AcDbEntity
  8
D-5
  6
Continuous
 62
     7
370
     9
100
AcDbLine
 10
512.5316310573269
 20
389.5419415121935
 30
0.0
 11
512.5316310573269
 21
387.0420569841108
 31
0.0
  0
LINE
  5
1DD
330
1F
100
AcDbEntity
  8
D-5
  6
Continuous
 62
     7
370
     9
100
AcDbLine
 10
452.5316805452914
 20
389.5419415121935
 30
0.0
 11
452.5316805452914
 21
387.0420569841108
 31
0.0
  0
LINE
  5
1DE
330
1F
100
AcDbEntity
  8
D-5
  6
Continuous
 62
     7
370
     9
100
AcDbLine
 10
509.3082324878591
 20
387.0420569841108
 30
0.0
 11
511.8078695761193
 21
389.5419415121935
 31
0.0
  0
LINE
  5
1DF
330
1F
100
AcDbEntity
  8
D-5
  6
Continuous
 62
     7
370
     9
100
AcDbLine
 10
495.3768755938557
 20
378.0607337419233
 30
0.0
 11
496.2817630252323
 21
378.9653737334773
 31
0.0
  0
LINE
  5
1E0
330
1F
100
AcDbEntity
  8
D-5
  6
Continuous
 62
     7
370
     9
100
AcDbLine
 10
504.3584462758659
 20
387.0420569841108
 30
0.0
 11
506.8580833641261
 21
389.5419415121935
 31
0.0
  0
LINE
  5
1E1
330
1F
100
AcDbEntity
  8
D-5
  6
Continuous
 62
     7
370
     9
100
AcDbLine
 10
488.6633383261193
 20
376.2967352463574
 30
0.0
 11
493.1585775839318
 21
380.7922219439924
 31
0.0
  0
LINE
  5
1E2
330
1F
100
AcDbEntity
  8
D-5
  6
Continuous
 62
     7
370
     9
100
AcDbLine
 10
499.4086600638727
 20
387.0420569841108
 30
0.0
 11
501.9082971521325
 21
389.5419415121935
 31
0.0
  0
LINE
  5
1E3
330
1F
100
AcDbEntity
  8
D-5
  6
Continuous
 62
     7
370
     9
100
AcDbLine
 10
483.2149608715162
 20
375.7981440037475
 30
0.0
 11
485.3184468037375
 21
377.9017536558802
 31
0.0
  0
LINE
  5
1E4
330
1F
100
AcDbEntity
  8
D-5
  6
Continuous
 62
     7
370
     9
100
AcDbLine
 10
490.0316805452914
 20
382.6148636775229
 30
0.0
 11
493.1565980653505
 21
385.739781197582
 31
0.0
  0
LINE
  5
1E5
330
1F
100
AcDbEntity
  8
D-5
  6
Continuous
 62
     7
370
     9
100
AcDbLine
 10
494.4588738518794
 20
387.0420569841108
 30
0.0
 11
496.958758379962
 21
389.5419415121935
 31
0.0
  0
LINE
  5
1E6
330
1F
100
AcDbEntity
  8
D-5
  6
Continuous
 62
     7
370
     9
100
AcDbLine
 10
478.478715226457
 20
376.0116845706816
 30
0.0
 11
480.3275855811867
 21
377.8605549254115
 31
0.0
  0
LINE
  5
1E7
330
1F
100
AcDbEntity
  8
D-5
  6
Continuous
 62
     7
370
     9
100
AcDbLine
 10
489.5090876398859
 20
387.0420569841108
 30
0.0
 11
492.0089721679688
 21
389.5419415121935
 31
0.0
  0
LINE
  5
1E8
330
1F
100
AcDbEntity
  8
D-5
  6
Continuous
 62
     7
370
     9
100
AcDbLine
 10
474.2380915461359
 20
376.7207233824427
 30
0.0
 11
475.9288478542018
 21
378.4113559705972
 31
0.0
  0
LINE
  5
1E9
330
1F
100
AcDbEntity
  8
D-5
  6
Continuous
 62
     7
370
     9
100
AcDbLine
 10
484.5593014278927
 20
387.0420569841108
 30
0.0
 11
487.0594333957982
 21
389.5419415121935
 31
0.0
  0
LINE
  5
1EA
330
1F
100
AcDbEntity
  8
D-5
  6
Continuous
 62
     7
370
     9
100
AcDbLine
 10
470.3822367900128
 20
377.814778558224
 30
0.0
 11
475.0316310573268
 21
382.4641728255381
 31
0.0
  0
LINE
  5
1EB
330
1F
100
AcDbEntity
  8
D-5
  6
Continuous
 62
     7
370
     9
100
AcDbLine
 10
479.6097626557221
 20
387.0420569841108
 30
0.0
 11
482.109647183805
 21
389.5419415121935
 31
0.0
  0
LINE
  5
1EC
330
1F
100
AcDbEntity
  8
D-5
  6
Continuous
 62
     7
370
     9
100
AcDbLine
 10
471.906466097445
 20
384.2885466378269
 30
0.0
 11
477.1598609718117
 21
389.5419415121935
 31
0.0
  0
LINE
  5
1ED
330
1F
100
AcDbEntity
  8
D-5
  6
Continuous
 62
     7
370
     9
100
AcDbLine
 10
469.709942791913
 20
387.0420569841108
 30
0.0
 11
472.2100747598185
 21
389.5419415121935
 31
0.0
  0
LINE
  5
1EE
330
1F
100
AcDbEntity
  8
D-5
  6
Continuous
 62
     7
370
     9
100
AcDbLine
 10
464.7604040197425
 20
387.0420569841108
 30
0.0
 11
467.2602885478253
 21
389.5419415121935
 31
0.0
  0
LINE
  5
1EF
330
1F
100
AcDbEntity
  8
D-5
  6
Continuous
 62
     7
370
     9
100
AcDbLine
 10
459.8103703679266
 20
387.0420569841108
 30
0.0
 11
462.310502335832
 21
389.5419415121935
 31
0.0
  0
LINE
  5
1F0
330
1F
100
AcDbEntity
  8
D-5
  6
Continuous
 62
     7
370
     9
100
AcDbLine
 10
454.8605841559333
 20
387.0420569841108
 30
0.0
 11
457.3607161238388
 21
389.5419415121935
 31
0.0
  0
LINE
  5
1F1
330
1F
100
AcDbEntity
  8
D-5
  6
Continuous
 62
     7
370
     9
100
AcDbLine
 10
460.0315815693625
 20
389.5419415121935
 30
0.0
 11
452.5316805452914
 21
389.5419415121935
 31
0.0
  0
LINE
  5
1F2
330
1F
100
AcDbEntity
  8
D-5
  6
Continuous
 62
     7
370
     9
100
AcDbLine
 10
500.0317135372677
 20
389.5419415121935
 30
0.0
 11
470.0316145613388
 21
389.5419415121935
 31
0.0
  0
LINE
  5
1F3
330
1F
100
AcDbEntity
  8
D-5
  6
Continuous
 62
     7
370
     9
100
AcDbLine
 10
496.2817630252323
 20
387.0420569841108
 30
0.0
 11
493.1565980653505
 21
387.0420569841108
 31
0.0
  0
LINE
  5
1F4
330
1F
100
AcDbEntity
  8
D-5
  6
Continuous
 62
     7
370
     9
100
AcDbLine
 10
468.7815485773859
 20
387.0420569841108
 30
0.0
 11
471.906466097445
 21
387.0420569841108
 31
0.0
  0
LINE
  5
1F5
330
1F
100
AcDbEntity
  8
D-4
  6
Continuous
 62
     7
370
     9
100
AcDbLine
 10
482.5317795212206
 20
375.7922054480043
 30
0.0
 11
477.471635148332
 21
364.3619702811969
 31
0.0
  0
LINE
  5
1F6
330
1F
100
AcDbEntity
  8
D-4
  6
Continuous
 62
     7
370
     9
100
AcDbLine
 10
482.5317795212206
 20
375.7922054480043
 30
0.0
 11
474.6857101852831
 21
366.0611395432324
 31
0.0
  0
LINE
  5
1F7
330
1F
100
AcDbEntity
  8
D-4
  6
Continuous
 62
     7
370
     9
100
AcDbLine
 10
389.9974513698268
 20
479.3739793605888
 30
0.0
 11
317.9946899414062
 21
479.3739793605888
 31
0.0
  0
LINE
  5
1F8
330
1F
100
AcDbEntity
  8
D-4
  6
Continuous
 62
     7
370
     9
100
AcDbLine
 10
350.456072833087
 20
414.5417765523117
 30
0.0
 11
355.5162172059755
 21
425.9717642792966
 31
0.0
  0
LINE
  5
1F9
330
1F
100
AcDbEntity
  8
D-4
  6
Continuous
 62
     7
370
     9
100
AcDbLine
 10
350.456072833087
 20
414.5417765523117
 30
0.0
 11
358.3021421690245
 21
424.2728424570837
 31
0.0
  0
LINE
  5
1FA
330
1F
100
AcDbEntity
  8
D-4
  6
Continuous
 62
     7
370
     9
100
AcDbLine
 10
384.9400288349875
 20
409.5416363364122
 30
0.0
 11
390.0001732078761
 21
420.9715003434858
 31
0.0
  0
LINE
  5
1FB
330
1F
100
AcDbEntity
  8
D-4
  6
Continuous
 62
     7
370
     9
100
AcDbLine
 10
384.9400288349875
 20
409.5416363364122
 30
0.0
 11
392.7858507311024
 21
419.2725785212729
 31
0.0
  0
LINE
  5
1FC
330
1F
100
AcDbEntity
  8
D-4
  6
Continuous
 62
     7
370
     9
100
AcDbLine
 10
509.406466097445
 20
454.5419085202172
 30
0.0
 11
514.4666104703335
 21
465.9718962472019
 31
0.0
  0
LINE
  5
1FD
330
1F
100
AcDbEntity
  8
D-4
  6
Continuous
 62
     7
370
     9
100
AcDbLine
 10
509.406466097445
 20
454.5419085202172
 30
0.0
 11
517.2525354333825
 21
464.2727269851665
 31
0.0
  0
LINE
  5
1FE
330
1F
100
AcDbEntity
  8
D-6
  6
Continuous
 62
     6
370
     9
100
AcDbLine
 10
512.5313836175044
 20
314.5419415121935
 30
0.0
 11
512.5313836175044
 21
174.9289703867712
 31
0.0
  0
LINE
  5
1FF
330
1F
100
AcDbEntity
  8
D-6
  6
Continuous
 62
     6
370
     9
100
AcDbLine
 10
512.5313836175044
 20
261.6642988548878
 30
0.0
 11
599.2664646457981
 21
174.9289703867712
 31
0.0
  0
LINE
  5
200
330
1F
100
AcDbEntity
  8
D-6
  6
Continuous
 62
     6
370
     9
100
AcDbLine
 10
512.5313836175044
 20
256.3611685761716
 30
0.0
 11
593.9633343670821
 21
174.9289703867712
 31
0.0
  0
LINE
  5
201
330
1F
100
AcDbEntity
  8
D-6
  6
Continuous
 62
     6
370
     9
100
AcDbLine
 10
512.5313836175044
 20
251.0577908576327
 30
0.0
 11
588.6599566485432
 21
174.9289703867712
 31
0.0
  0
LINE
  5
202
330
1F
100
AcDbEntity
  8
D-6
  6
Continuous
 62
     6
370
     9
100
AcDbLine
 10
574.0473979228252
 20
314.5419415121935
 30
0.0
 11
713.660121608425
 21
174.9289703867712
 31
0.0
  0
LINE
  5
203
330
1F
100
AcDbEntity
  8
D-6
  6
Continuous
 62
     6
370
     9
100
AcDbLine
 10
579.3507756413641
 20
314.5419415121935
 30
0.0
 11
718.9637467667865
 21
174.9289703867712
 31
0.0
  0
LINE
  5
204
330
1F
100
AcDbEntity
  8
D-6
  6
Continuous
 62
     6
370
     9
100
AcDbLine
 10
584.6539059200802
 20
314.5419415121935
 30
0.0
 11
724.2671244853252
 21
174.9289703867712
 31
0.0
  0
LINE
  5
205
330
1F
100
AcDbEntity
  8
D-2
  6
JWW_CENTER1
 62
     3
370
     9
100
AcDbLine
 10
275.0317135372677
 20
325.6069555007915
 30
0.0
 11
275.0317135372677
 21
461.3128518268049
 31
0.0
  0
LINE
  5
206
330
1F
100
AcDbEntity
  8
D-B
  6
Continuous
 62
     7
370
     9
100
AcDbLine
 10
458.7815155854096
 20
409.5418837762349
 30
0.0
 11
458.7815155854096
 21
414.5420239921344
 31
0.0
  0
LINE
  5
207
330
1F
100
AcDbEntity
  8
D-3
  6
Continuous
 62
     3
370
     9
100
AcDbLine
 10
458.7815155854096
 20
409.5418837762349
 30
0.0
 11
458.7815155854096
 21
401.5420305905297
 31
0.0
  0
LINE
  5
208
330
1F
100
AcDbEntity
  8
D-B
  6
Continuous
 62
     7
370
     9
100
AcDbLine
 10
501.2812846415753
 20
430.6669349137983
 30
0.0
 11
501.2812846415753
 21
414.5420239921344
 31
0.0
  0
LINE
  5
209
330
1F
100
AcDbEntity
  8
D-3
  6
Continuous
 62
     3
370
     9
100
AcDbLine
 10
458.7815155854096
 20
409.5418837762349
 30
0.0
 11
447.5314166094807
 21
409.5418837762349
 31
0.0
  0
LINE
  5
20A
330
1F
100
AcDbEntity
  8
D-B
  6
Continuous
 62
     7
370
     9
100
AcDbLine
 10
501.2812846415753
 20
452.0420239921344
 30
0.0
 11
501.2812846415753
 21
440.9172532863701
 31
0.0
  0
LINE
  5
20B
330
1F
100
AcDbEntity
  8
D-B
  6
Continuous
 62
     7
370
     9
100
AcDbLine
 10
447.5314166094807
 20
414.5420239921344
 30
0.0
 11
501.2812846415753
 21
414.5420239921344
 31
0.0
  0
LINE
  5
20C
330
1F
100
AcDbEntity
  8
D-B
  6
Continuous
 62
     7
370
     9
100
AcDbLine
 10
448.4021573453336
 20
409.5418837762349
 30
0.0
 11
447.5314166094807
 21
410.4125007921767
 31
0.0
  0
LINE
  5
20D
330
1F
100
AcDbEntity
  8
D-B
  6
Continuous
 62
     7
370
     9
100
AcDbLine
 10
453.7055350638727
 20
409.5418837762349
 30
0.0
 11
448.7052711280617
 21
414.5420239921344
 31
0.0
  0
LINE
  5
20E
330
1F
100
AcDbEntity
  8
D-B
  6
Continuous
 62
     7
370
     9
100
AcDbLine
 10
458.7815155854096
 20
409.7694046931479
 30
0.0
 11
454.0088962864232
 21
414.5420239921344
 31
0.0
  0
LINE
  5
20F
330
1F
100
AcDbEntity
  8
D-B
  6
Continuous
 62
     7
370
     9
100
AcDbLine
 10
358.2457258894638
 20
409.5418837762349
 30
0.0
 11
353.2459568332982
 21
414.5420239921344
 31
0.0
  0
LINE
  5
210
330
1F
100
AcDbEntity
  8
D-B
  6
Continuous
 62
     7
370
     9
100
AcDbLine
 10
363.5493510478253
 20
409.5418837762349
 30
0.0
 11
358.5490871120143
 21
414.5420239921344
 31
0.0
  0
LINE
  5
211
330
1F
100
AcDbEntity
  8
D-B
  6
Continuous
 62
     7
370
     9
100
AcDbLine
 10
368.8524813265414
 20
409.5418837762349
 30
0.0
 11
363.8524648305534
 21
414.5420239921344
 31
0.0
  0
LINE
  5
212
330
1F
100
AcDbEntity
  8
D-B
  6
Continuous
 62
     7
370
     9
100
AcDbLine
 10
374.1558590450802
 20
409.5418837762349
 30
0.0
 11
369.1558425490922
 21
414.5420239921344
 31
0.0
  0
LINE
  5
213
330
1F
100
AcDbEntity
  8
D-B
  6
Continuous
 62
     7
370
     9
100
AcDbLine
 10
411.279008195207
 20
409.5418837762349
 30
0.0
 11
406.2787442593961
 21
414.5420239921344
 31
0.0
  0
LINE
  5
214
330
1F
100
AcDbEntity
  8
D-B
  6
Continuous
 62
     7
370
     9
100
AcDbLine
 10
416.5821384739232
 20
409.5418837762349
 30
0.0
 11
411.5823694177575
 21
414.5420239921344
 31
0.0
  0
LINE
  5
215
330
1F
100
AcDbEntity
  8
D-B
  6
Continuous
 62
     7
370
     9
100
AcDbLine
 10
421.8857636322846
 20
409.5418837762349
 30
0.0
 11
416.885499696474
 21
414.5420239921344
 31
0.0
  0
LINE
  5
216
330
1F
100
AcDbEntity
  8
D-B
  6
Continuous
 62
     7
370
     9
100
AcDbLine
 10
427.1888939110011
 20
409.5418837762349
 30
0.0
 11
422.1888774150128
 21
414.5420239921344
 31
0.0
  0
LINE
  5
217
330
1F
100
AcDbEntity
  8
D-B
  6
Continuous
 62
     7
370
     9
100
AcDbLine
 10
432.4922716295399
 20
409.5418837762349
 30
0.0
 11
427.4922551335516
 21
414.5420239921344
 31
0.0
  0
LINE
  5
218
330
1F
100
AcDbEntity
  8
D-B
  6
Continuous
 62
     7
370
     9
100
AcDbLine
 10
437.5313836175044
 20
409.8060257868979
 30
0.0
 11
432.7953854122677
 21
414.5420239921344
 31
0.0
  0
LINE
  5
219
330
1F
100
AcDbEntity
  8
D-B
  6
Continuous
 62
     7
370
     9
100
AcDbLine
 10
501.2812846415753
 20
422.0419250162053
 30
0.0
 11
447.5314166094807
 21
422.0419250162053
 31
0.0
  0
LINE
  5
21A
330
1F
100
AcDbEntity
  8
D-B
  6
Continuous
 62
     7
370
     9
100
AcDbLine
 10
501.2812846415753
 20
429.542073480099
 30
0.0
 11
445.430899955131
 21
429.542073480099
 31
0.0
  0
LINE
  5
21B
330
1F
100
AcDbEntity
  8
D-A
  6
Continuous
 62
     2
370
     9
100
AcDbLine
 10
510.0314990894216
 20
446.0418557330549
 30
0.0
 11
509.2815089870143
 21
446.0418557330549
 31
0.0
  0
LINE
  5
21C
330
1F
100
AcDbEntity
  8
D-A
  6
Continuous
 62
     2
370
     9
100
AcDbLine
 10
504.1565353805956
 20
440.9172532863701
 30
0.0
 11
509.2815089870143
 21
446.0418557330549
 31
0.0
  0
LINE
  5
21D
330
1F
100
AcDbEntity
  8
D-A
  6
Continuous
 62
     2
370
     9
100
AcDbLine
 10
504.1565353805956
 20
430.6669349137983
 30
0.0
 11
504.1565353805956
 21
440.9172532863701
 31
0.0
  0
LINE
  5
21E
330
1F
100
AcDbEntity
  8
D-A
  6
Continuous
 62
     2
370
     9
100
AcDbLine
 10
504.1565353805956
 20
430.6669349137983
 30
0.0
 11
509.2815089870143
 21
425.5419613073793
 31
0.0
  0
LINE
  5
21F
330
1F
100
AcDbEntity
  8
D-A
  6
Continuous
 62
     2
370
     9
100
AcDbLine
 10
509.2815089870143
 20
446.0418557330549
 30
0.0
 11
509.2815089870143
 21
425.5419613073793
 31
0.0
  0
LINE
  5
220
330
1F
100
AcDbEntity
  8
D-A
  6
Continuous
 62
     2
370
     9
100
AcDbLine
 10
510.0314990894216
 20
425.5419613073793
 30
0.0
 11
509.2815089870143
 21
425.5419613073793
 31
0.0
  0
LINE
  5
221
330
1F
100
AcDbEntity
  8
D-A
  6
Continuous
 62
     2
370
     9
100
AcDbLine
 10
504.1565353805956
 20
440.9172532863701
 30
0.0
 11
489.1983032226562
 21
440.9172532863701
 31
0.0
  0
LINE
  5
222
330
1F
100
AcDbEntity
  8
D-A
  6
Continuous
 62
     2
370
     9
100
AcDbLine
 10
504.1565353805956
 20
430.6669349137983
 30
0.0
 11
489.1983032226562
 21
430.6669349137983
 31
0.0
  0
LINE
  5
223
330
1F
100
AcDbEntity
  8
D-A
  6
Continuous
 62
     2
370
     9
100
AcDbLine
 10
489.1983032226562
 20
430.6669349137983
 30
0.0
 11
447.5314166094807
 21
435.7919085202172
 31
0.0
  0
LINE
  5
224
330
1F
100
AcDbEntity
  8
D-A
  6
Continuous
 62
     2
370
     9
100
AcDbLine
 10
447.5314166094807
 20
435.7919085202172
 30
0.0
 11
489.1983032226562
 21
440.9172532863701
 31
0.0
  0
LINE
  5
225
330
1F
100
AcDbEntity
  8
D-A
  6
Continuous
 62
     2
370
     9
100
AcDbLine
 10
451.0665893554688
 20
434.0976880546344
 30
0.0
 11
451.677518277555
 21
437.561350691881
 31
0.0
  0
LINE
  5
226
330
1F
100
AcDbEntity
  8
D-A
  6
Continuous
 62
     2
370
     9
100
AcDbLine
 10
455.4712656381969
 20
433.5561660027974
 30
0.0
 11
456.2771771405195
 21
438.1272455662475
 31
0.0
  0
LINE
  5
227
330
1F
100
AcDbEntity
  8
D-A
  6
Continuous
 62
     2
370
     9
100
AcDbLine
 10
486.3025149783573
 20
429.7637795611799
 30
0.0
 11
488.4752840609164
 21
442.0875199275229
 31
0.0
  0
LINE
  5
228
330
1F
100
AcDbEntity
  8
D-A
  6
Continuous
 62
     2
370
     9
100
AcDbLine
 10
481.8978386956294
 20
430.3055490528396
 30
0.0
 11
483.8758726377745
 21
441.521872492979
 31
0.0
  0
LINE
  5
229
330
1F
100
AcDbEntity
  8
D-A
  6
Continuous
 62
     2
370
     9
100
AcDbLine
 10
477.493409852724
 20
430.8473185444992
 30
0.0
 11
479.2759663349875
 21
440.9559776186125
 31
0.0
  0
LINE
  5
22A
330
1F
100
AcDbEntity
  8
D-A
  6
Continuous
 62
     2
370
     9
100
AcDbLine
 10
473.0889810098185
 20
431.3889643162475
 30
0.0
 11
474.6760600322003
 21
440.3903301840685
 31
0.0
  0
LINE
  5
22B
330
1F
100
AcDbEntity
  8
D-A
  6
Continuous
 62
     2
370
     9
100
AcDbLine
 10
468.684552166913
 20
431.9306100879958
 30
0.0
 11
470.0764011692357
 21
439.8244353097019
 31
0.0
  0
LINE
  5
22C
330
1F
100
AcDbEntity
  8
D-A
  6
Continuous
 62
     2
370
     9
100
AcDbLine
 10
464.2801233240075
 20
432.4725032995668
 30
0.0
 11
465.4767423062711
 21
439.2587878751581
 31
0.0
  0
LINE
  5
22D
330
1F
100
AcDbEntity
  8
D-A
  6
Continuous
 62
     2
370
     9
100
AcDbLine
 10
459.8756944811024
 20
433.0141490713151
 30
0.0
 11
460.8768360034841
 21
438.6928930007915
 31
0.0
  0
LINE
  5
22E
330
1F
100
AcDbEntity
  8
D-A
  6
Continuous
 62
     2
370
     9
100
AcDbLine
 10
433.7814331054688
 20
394.4709427790854
 30
0.0
 11
433.7814331054688
 21
396.5418903746302
 31
0.0
  0
LINE
  5
22F
330
1F
100
AcDbEntity
  8
D-A
  6
Continuous
 62
     2
370
     9
100
AcDbLine
 10
451.2813671215162
 20
394.4709427790854
 30
0.0
 11
451.2813671215162
 21
396.5418903746302
 31
0.0
  0
LINE
  5
230
330
1F
100
AcDbEntity
  8
D-A
  6
Continuous
 62
     2
370
     9
100
AcDbLine
 10
441.2063598632812
 20
393.5420536849131
 30
0.0
 11
443.8564403637037
 21
393.5420536849131
 31
0.0
  0
LINE
  5
231
330
1F
100
AcDbEntity
  8
D-A
  6
Continuous
 62
     2
370
     9
100
AcDbLine
 10
441.2063598632812
 20
390.0811128857155
 30
0.0
 11
441.2063598632812
 21
393.5420536849131
 31
0.0
  0
LINE
  5
232
330
1F
100
AcDbEntity
  8
D-A
  6
Continuous
 62
     2
370
     9
100
AcDbLine
 10
449.2988792625636
 20
398.1763541230466
 30
0.0
 11
436.2637494061445
 21
403.5088060207451
 31
0.0
  0
LINE
  5
233
330
1F
100
AcDbEntity
  8
D-A
  6
Continuous
 62
     2
370
     9
100
AcDbLine
 10
449.2988792625636
 20
402.8138712788742
 30
0.0
 11
436.2637494061445
 21
408.1464468964841
 31
0.0
  0
LINE
  5
234
330
1F
100
AcDbEntity
  8
D-A
  6
Continuous
 62
     2
370
     9
100
AcDbLine
 10
449.2988792625636
 20
407.4516358745246
 30
0.0
 11
436.2637494061445
 21
412.784458931957
 31
0.0
  0
LINE
  5
235
330
1F
100
AcDbEntity
  8
D-A
  6
Continuous
 62
     2
370
     9
100
AcDbLine
 10
449.2988792625636
 20
412.089400470175
 30
0.0
 11
435.7814891918287
 21
417.6194330662475
 31
0.0
  0
LINE
  5
236
330
1F
100
AcDbEntity
  8
D-A
  6
Continuous
 62
     2
370
     9
100
AcDbLine
 10
442.5314001134925
 20
436.5418986226242
 30
0.0
 11
447.5314166094807
 21
424.4707943151918
 31
0.0
  0
LINE
  5
237
330
1F
100
AcDbEntity
  8
D-A
  6
Continuous
 62
     2
370
     9
100
AcDbLine
 10
447.5314166094807
 20
396.5418903746302
 30
0.0
 11
447.5314166094807
 21
424.4707943151918
 31
0.0
  0
LINE
  5
238
330
1F
100
AcDbEntity
  8
D-A
  6
Continuous
 62
     2
370
     9
100
AcDbLine
 10
437.5313836175044
 20
396.5418903746302
 30
0.0
 11
437.5313836175044
 21
424.4707943151918
 31
0.0
  0
LINE
  5
239
330
1F
100
AcDbEntity
  8
D-A
  6
Continuous
 62
     2
370
     9
100
AcDbLine
 10
442.5314001134925
 20
436.5418986226242
 30
0.0
 11
437.5313836175044
 21
424.4707943151918
 31
0.0
  0
LINE
  5
23A
330
1F
100
AcDbEntity
  8
D-A
  6
Continuous
 62
     2
370
     9
100
AcDbLine
 10
447.8983698664484
 20
428.1576476724553
 30
0.0
 11
438.7195896457982
 21
431.9122995411208
 31
0.0
  0
LINE
  5
23B
330
1F
100
AcDbEntity
  8
D-A
  6
Continuous
 62
     2
370
     9
100
AcDbLine
 10
449.2813110351562
 20
424.166195893528
 30
0.0
 11
437.5063921954182
 21
428.9831069207661
 31
0.0
  0
LINE
  5
23C
330
1F
100
AcDbEntity
  8
D-A
  6
Continuous
 62
     2
370
     9
100
AcDbLine
 10
449.2813110351562
 20
420.7406389889672
 30
0.0
 11
436.293194745038
 21
426.0539143004115
 31
0.0
  0
LINE
  5
23D
330
1F
100
AcDbEntity
  8
D-A
  6
Continuous
 62
     2
370
     9
100
AcDbLine
 10
449.2813110351562
 20
416.7345882605043
 30
0.0
 11
435.7814891918287
 21
422.2571976618979
 31
0.0
  0
LINE
  5
23E
330
1F
100
AcDbEntity
  8
D-A
  6
Continuous
 62
     2
370
     9
100
AcDbLine
 10
446.1902927707982
 20
432.2817271963151
 30
0.0
 11
439.9330345360011
 21
434.8414921614756
 31
0.0
  0
LINE
  5
23F
330
1F
100
AcDbEntity
  8
D-A
  6
Continuous
 62
     2
370
     9
100
AcDbLine
 10
443.8564403637037
 20
390.0808654458928
 30
0.0
 11
443.8564403637037
 21
393.5420536849131
 31
0.0
  0
LINE
  5
240
330
1F
100
AcDbEntity
  8
D-0
  6
Continuous
 62
     4
370
     9
100
AcDbLine
 10
510.0314990894216
 20
400.7917930483
 30
0.0
 11
512.5313836175044
 21
399.5419745041699
 31
0.0
  0
LINE
  5
241
330
1F
100
AcDbEntity
  8
D-0
  6
Continuous
 62
     4
370
     9
100
AcDbLine
 10
512.5313836175044
 20
399.5419745041699
 30
0.0
 11
512.5313836175044
 21
389.5419415121935
 31
0.0
  0
LINE
  5
242
330
1F
100
AcDbEntity
  8
D-0
  6
Continuous
 62
     4
370
     9
100
AcDbLine
 10
500.0317135372677
 20
395.7920239921344
 30
0.0
 11
500.0317135372677
 21
389.5419415121935
 31
0.0
  0
LINE
  5
243
330
1F
100
AcDbEntity
  8
D-0
  6
Continuous
 62
     4
370
     9
100
AcDbLine
 10
505.0314825934333
 20
395.7920239921344
 30
0.0
 11
500.0317135372677
 21
395.7920239921344
 31
0.0
  0
LINE
  5
244
330
1F
100
AcDbEntity
  8
D-0
  6
Continuous
 62
     4
370
     9
100
AcDbLine
 10
505.0314825934333
 20
402.7918491346597
 30
0.0
 11
505.0314825934333
 21
395.7920239921344
 31
0.0
  0
LINE
  5
245
330
1F
100
AcDbEntity
  8
D-0
  6
Continuous
 62
     4
370
     9
100
AcDbLine
 10
505.0314825934333
 20
402.7918491346597
 30
0.0
 11
465.0313506255279
 21
402.7918491346597
 31
0.0
  0
LINE
  5
246
330
1F
100
AcDbEntity
  8
D-0
  6
Continuous
 62
     4
370
     9
100
AcDbLine
 10
470.0316145613388
 20
395.7920239921344
 30
0.0
 11
470.0316145613388
 21
389.5419415121935
 31
0.0
  0
LINE
  5
247
330
1F
100
AcDbEntity
  8
D-0
  6
Continuous
 62
     4
370
     9
100
AcDbLine
 10
470.0316145613388
 20
395.7920239921344
 30
0.0
 11
465.0313506255279
 21
395.7920239921344
 31
0.0
  0
LINE
  5
248
330
1F
100
AcDbEntity
  8
D-0
  6
Continuous
 62
     4
370
     9
100
AcDbLine
 10
465.0313506255279
 20
402.7918491346597
 30
0.0
 11
465.0313506255279
 21
395.7920239921344
 31
0.0
  0
LINE
  5
249
330
1F
100
AcDbEntity
  8
D-0
  6
Continuous
 62
     4
370
     9
100
AcDbLine
 10
505.0314825934333
 20
407.7921130704706
 30
0.0
 11
460.0313341295399
 21
407.7921130704706
 31
0.0
  0
LINE
  5
24A
330
1F
100
AcDbEntity
  8
D-0
  6
Continuous
 62
     4
370
     9
100
AcDbLine
 10
460.0313341295399
 20
407.7921130704706
 30
0.0
 11
460.0313341295399
 21
401.5420305905297
 31
0.0
  0
LINE
  5
24B
330
1F
100
AcDbEntity
  8
D-0
  6
Continuous
 62
     4
370
     9
100
AcDbLine
 10
460.0313341295399
 20
396.5418903746302
 30
0.0
 11
460.0313341295399
 21
389.5419415121935
 31
0.0
  0
LINE
  5
24C
330
1F
100
AcDbEntity
  8
D-0
  6
Continuous
 62
     4
370
     9
100
AcDbLine
 10
512.5313836175044
 20
389.5419415121935
 30
0.0
 11
500.0317135372677
 21
389.5419415121935
 31
0.0
  0
LINE
  5
24D
330
1F
100
AcDbEntity
  8
D-0
  6
Continuous
 62
     4
370
     9
100
AcDbLine
 10
470.0316145613388
 20
389.5419415121935
 30
0.0
 11
460.0313341295399
 21
389.5419415121935
 31
0.0
  0
LINE
  5
24E
330
1F
100
AcDbEntity
  8
D-0
  6
JWW_CENTER1
 62
     4
370
     9
100
AcDbLine
 10
442.5314001134925
 20
439.4206135191615
 30
0.0
 11
442.5314001134925
 21
389.5419415121935
 31
0.0
  0
LINE
  5
24F
330
1F
100
AcDbEntity
  8
D-0
  6
Continuous
 62
     4
370
     9
100
AcDbLine
 10
447.7813308303422
 20
401.5420305905297
 30
0.0
 11
447.7813308303422
 21
396.5418903746302
 31
0.0
  0
LINE
  5
250
330
1F
100
AcDbEntity
  8
D-0
  6
Continuous
 62
     4
370
     9
100
AcDbLine
 10
437.2814693966427
 20
401.5420305905297
 30
0.0
 11
437.2814693966427
 21
396.5418903746302
 31
0.0
  0
LINE
  5
251
330
1F
100
AcDbEntity
  8
D-0
  6
Continuous
 62
     4
370
     9
100
AcDbLine
 10
460.0313341295399
 20
396.5418903746302
 30
0.0
 11
430.0312351536107
 21
396.5418903746302
 31
0.0
  0
LINE
  5
252
330
1F
100
AcDbEntity
  8
D-0
  6
Continuous
 62
     4
370
     9
100
AcDbLine
 10
430.0312351536107
 20
401.5420305905297
 30
0.0
 11
430.0312351536107
 21
396.5418903746302
 31
0.0
  0
LINE
  5
253
330
1F
100
AcDbEntity
  8
D-0
  6
Continuous
 62
     4
370
     9
100
AcDbLine
 10
460.0313341295399
 20
401.5420305905297
 30
0.0
 11
447.5314166094807
 21
401.5420305905297
 31
0.0
  0
LINE
  5
254
330
1F
100
AcDbEntity
  8
D-0
  6
Continuous
 62
     4
370
     9
100
AcDbLine
 10
437.5313836175044
 20
401.5420305905297
 30
0.0
 11
430.0312351536107
 21
401.5420305905297
 31
0.0
  0
LINE
  5
255
330
1F
100
AcDbEntity
  8
D-0
  6
Continuous
 62
     4
370
     9
100
AcDbLine
 10
488.7813671215162
 20
457.0417930483
 30
0.0
 11
482.5317795212206
 21
453.2920899760871
 31
0.0
  0
LINE
  5
256
330
1F
100
AcDbEntity
  8
D-0
  6
Continuous
 62
     4
370
     9
100
AcDbLine
 10
482.5317795212206
 20
453.2920899760871
 30
0.0
 11
482.5317795212206
 21
452.0420239921344
 31
0.0
  0
LINE
  5
257
330
1F
100
AcDbEntity
  8
D-0
  6
Continuous
 62
     4
370
     9
100
AcDbLine
 10
488.7813671215162
 20
457.0417930483
 30
0.0
 11
506.2815485773859
 21
457.0417930483
 31
0.0
  0
LINE
  5
258
330
1F
100
AcDbEntity
  8
D-0
  6
Continuous
 62
     4
370
     9
100
AcDbLine
 10
506.2815485773859
 20
457.0417930483
 30
0.0
 11
512.5313836175044
 21
452.0420239921344
 31
0.0
  0
LINE
  5
259
330
1F
100
AcDbEntity
  8
D-0
  6
Continuous
 62
     4
370
     9
100
AcDbLine
 10
510.0314990894216
 20
446.4169745041699
 30
0.0
 11
505.0314825934333
 21
441.4167105683591
 31
0.0
  0
LINE
  5
25A
330
1F
100
AcDbEntity
  8
D-0
  6
Continuous
 62
     4
370
     9
100
AcDbLine
 10
510.0314990894216
 20
425.1668425362644
 30
0.0
 11
505.0314825934333
 21
430.1668590322526
 31
0.0
  0
LINE
  5
25B
330
1F
100
AcDbEntity
  8
D-0
  6
JWW_CENTER1
 62
     4
370
     9
100
AcDbLine
 10
445.3348933039484
 20
435.7919085202172
 30
0.0
 11
511.3570342192779
 21
435.7919085202172
 31
0.0
  0
LINE
  5
25C
330
1F
100
AcDbEntity
  8
D-0
  6
Continuous
 62
     4
370
     9
100
AcDbLine
 10
510.0314990894216
 20
447.0421312160576
 30
0.0
 11
510.0314990894216
 21
400.7917930483
 31
0.0
  0
LINE
  5
25D
330
1F
100
AcDbEntity
  8
D-0
  6
Continuous
 62
     4
370
     9
100
AcDbLine
 10
512.5313836175044
 20
452.0420239921344
 30
0.0
 11
512.5313836175044
 21
448.2919497601876
 31
0.0
  0
LINE
  5
25E
330
1F
100
AcDbEntity
  8
D-0
  6
Continuous
 62
     4
370
     9
100
AcDbLine
 10
512.5313836175044
 20
448.2919497601876
 30
0.0
 11
510.0314990894216
 21
447.0421312160576
 31
0.0
  0
LINE
  5
25F
330
1F
100
AcDbEntity
  8
D-0
  6
Continuous
 62
     4
370
     9
100
AcDbLine
 10
505.0314825934333
 20
429.7919877009604
 30
0.0
 11
505.0314825934333
 21
407.7921130704706
 31
0.0
  0
LINE
  5
260
330
1F
100
AcDbEntity
  8
D-0
  6
Continuous
 62
     4
370
     9
100
AcDbLine
 10
482.5317795212206
 20
452.0420239921344
 30
0.0
 11
505.0314825934333
 21
452.0420239921344
 31
0.0
  0
LINE
  5
261
330
1F
100
AcDbEntity
  8
D-0
  6
Continuous
 62
     4
370
     9
100
AcDbLine
 10
505.0314825934333
 20
452.0420239921344
 30
0.0
 11
505.0314825934333
 21
441.7917056195626
 31
0.0
  0
LINE
  5
262
330
1F
100
AcDbEntity
  8
D-3
  6
Continuous
 62
     3
370
     9
100
AcDbLine
 10
432.5313671215162
 20
409.5418837762349
 30
0.0
 11
432.5313671215162
 21
401.5420305905297
 31
0.0
  0
LINE
  5
263
330
1F
100
AcDbEntity
  8
D-3
  6
Continuous
 62
     3
370
     9
100
AcDbLine
 10
452.5314331054688
 20
409.5418837762349
 30
0.0
 11
452.5314331054688
 21
401.5420305905297
 31
0.0
  0
LINE
  5
264
330
1F
100
AcDbEntity
  8
D-3
  6
Continuous
 62
     3
370
     9
100
AcDbLine
 10
430.0312351536107
 20
401.5420305905297
 30
0.0
 11
282.5316145613388
 21
401.5420305905297
 31
0.0
  0
LINE
  5
265
330
1F
100
AcDbEntity
  8
D-3
  6
Continuous
 62
     3
370
     9
100
AcDbLine
 10
437.5313836175044
 20
409.5418837762349
 30
0.0
 11
282.5316145613388
 21
409.5418837762349
 31
0.0
  0
LINE
  5
266
330
1F
100
AcDbEntity
  8
D-B
  6
Continuous
 62
     7
370
     9
100
AcDbLine
 10
400.6722527581292
 20
409.5418837762349
 30
0.0
 11
395.6722362621412
 21
414.5420239921344
 31
0.0
  0
LINE
  5
267
330
1F
100
AcDbEntity
  8
D-B
  6
Continuous
 62
     7
370
     9
100
AcDbLine
 10
405.9756304766682
 20
409.5418837762349
 30
0.0
 11
400.97561398068
 21
414.5420239921344
 31
0.0
  0
LINE
  5
268
330
1F
100
AcDbEntity
  8
D-4
  6
Continuous
 62
     7
370
     9
100
AcDbLine
 10
350.4563202729096
 20
414.5420239921344
 30
0.0
 11
389.9974513698268
 21
479.3739793605888
 31
0.0
  0
LINE
  5
269
330
1F
100
AcDbEntity
  8
D-4
  6
Continuous
 62
     7
370
     9
100
AcDbLine
 10
384.9400288349875
 20
409.5418837762349
 30
0.0
 11
520.666957545925
 21
632.0799812609267
 31
0.0
  0
LINE
  5
26A
330
1F
100
AcDbEntity
  8
D-B
  6
Continuous
 62
     7
370
     9
100
AcDbLine
 10
347.7097382416596
 20
422.0419250162053
 30
0.0
 11
323.7815650733742
 21
422.0419250162053
 31
0.0
  0
LINE
  5
26B
330
1F
100
AcDbEntity
  8
D-B
  6
Continuous
 62
     7
370
     9
100
AcDbLine
 10
352.2839108028927
 20
429.542073480099
 30
0.0
 11
323.7815650733742
 21
429.542073480099
 31
0.0
  0
LINE
  5
26C
330
1F
100
AcDbEntity
  8
D-B
  6
Continuous
 62
     7
370
     9
100
AcDbLine
 10
356.8580833641261
 20
437.0419745041699
 30
0.0
 11
323.7815650733742
 21
437.0419745041699
 31
0.0
  0
LINE
  5
26D
330
1F
100
AcDbEntity
  8
D-B
  6
Continuous
 62
     7
370
     9
100
AcDbLine
 10
361.4325033651818
 20
444.5419992481521
 30
0.0
 11
323.7815650733742
 21
444.5419992481521
 31
0.0
  0
LINE
  5
26E
330
1F
100
AcDbEntity
  8
D-B
  6
Continuous
 62
     7
370
     9
100
AcDbLine
 10
366.0069233662375
 20
452.0420239921344
 30
0.0
 11
342.5313176335516
 21
452.0420239921344
 31
0.0
  0
LINE
  5
26F
330
1F
100
AcDbEntity
  8
D-B
  6
Continuous
 62
     7
370
     9
100
AcDbLine
 10
395.3102318016261
 20
414.5420239921344
 30
0.0
 11
437.5313836175044
 21
414.5420239921344
 31
0.0
  0
LINE
  5
270
330
1F
100
AcDbEntity
  8
D-B
  6
Continuous
 62
     7
370
     9
100
AcDbLine
 10
437.5313836175044
 20
422.0419250162053
 30
0.0
 11
399.8846518026818
 21
422.0419250162053
 31
0.0
  0
LINE
  5
271
330
1F
100
AcDbEntity
  8
D-B
  6
Continuous
 62
     7
370
     9
100
AcDbLine
 10
385.2428951778927
 20
422.0419250162053
 30
0.0
 11
362.3512474266261
 21
422.0419250162053
 31
0.0
  0
LINE
  5
272
330
1F
100
AcDbEntity
  8
D-B
  6
Continuous
 62
     7
370
     9
100
AcDbLine
 10
439.6321477116766
 20
429.542073480099
 30
0.0
 11
404.4590718037375
 21
429.542073480099
 31
0.0
  0
LINE
  5
273
330
1F
100
AcDbEntity
  8
D-B
  6
Continuous
 62
     7
370
     9
100
AcDbLine
 10
389.8175626187711
 20
429.542073480099
 30
0.0
 11
366.9256674276818
 21
429.542073480099
 31
0.0
  0
LINE
  5
274
330
1F
100
AcDbEntity
  8
D-B
  6
Continuous
 62
     7
370
     9
100
AcDbLine
 10
457.6937701251057
 20
437.0419745041699
 30
0.0
 11
409.0332443649706
 21
437.0419745041699
 31
0.0
  0
LINE
  5
275
330
1F
100
AcDbEntity
  8
D-B
  6
Continuous
 62
     7
370
     9
100
AcDbLine
 10
394.3917351800042
 20
437.0419745041699
 30
0.0
 11
371.4998399889149
 21
437.0419745041699
 31
0.0
  0
LINE
  5
276
330
1F
100
AcDbEntity
  8
D-B
  6
Continuous
 62
     7
370
     9
100
AcDbLine
 10
501.2812846415753
 20
444.5419992481521
 30
0.0
 11
413.6074169262037
 21
444.5419992481521
 31
0.0
  0
LINE
  5
277
330
1F
100
AcDbEntity
  8
D-B
  6
Continuous
 62
     7
370
     9
100
AcDbLine
 10
398.9659077412375
 20
444.5419992481521
 30
0.0
 11
376.0740125501479
 21
444.5419992481521
 31
0.0
  0
LINE
  5
278
330
1F
100
AcDbEntity
  8
D-B
  6
Continuous
 62
     7
370
     9
100
AcDbLine
 10
482.5317795212206
 20
452.0420239921344
 30
0.0
 11
418.1818369272594
 21
452.0420239921344
 31
0.0
  0
LINE
  5
279
330
1F
100
AcDbEntity
  8
D-B
  6
Continuous
 62
     7
370
     9
100
AcDbLine
 10
403.5400803024706
 20
452.0420239921344
 30
0.0
 11
380.6484325512037
 21
452.0420239921344
 31
0.0
  0
LINE
  5
27A
330
1F
100
AcDbEntity
  8
D-B
  6
Continuous
 62
     7
370
     9
100
AcDbLine
 10
378.3163122228675
 20
410.6846845970753
 30
0.0
 11
374.4589728278083
 21
414.5420239921344
 31
0.0
  0
LINE
  5
27B
330
1F
100
AcDbEntity
  8
D-B
  6
Continuous
 62
     7
370
     9
100
AcDbLine
 10
380.3255235826649
 20
413.9790983956394
 30
0.0
 11
379.7625979861698
 21
414.5420239921344
 31
0.0
  0
LINE
  5
27C
330
1F
100
AcDbEntity
  8
D-B
  6
Continuous
 62
     7
370
     9
100
AcDbLine
 10
395.369122479413
 20
409.5418837762349
 30
0.0
 11
393.4383495433912
 21
411.4725329923456
 31
0.0
  0
LINE
  5
27D
330
1F
100
AcDbEntity
  8
D-6
  6
Continuous
 62
     6
370
     9
100
AcDbLine
 10
526.4812984982052
 20
429.542073480099
 30
0.0
 11
625.4658879460516
 21
429.542073480099
 31
0.0
  0
LINE
  5
27E
330
1F
100
AcDbEntity
  8
D-6
  6
Continuous
 62
     6
370
     9
100
AcDbLine
 10
659.4057237779773
 20
429.542073480099
 30
0.0
 11
730.5770874023438
 21
429.542073480099
 31
0.0
  0
LINE
  5
27F
330
1F
100
AcDbEntity
  8
D-6
  6
Continuous
 62
     6
370
     9
100
AcDbLine
 10
526.4812984982052
 20
422.0419250162053
 30
0.0
 11
625.4658879460516
 21
422.0419250162053
 31
0.0
  0
LINE
  5
280
330
1F
100
AcDbEntity
  8
D-6
  6
Continuous
 62
     6
370
     9
100
AcDbLine
 10
659.4057237779773
 20
422.0419250162053
 30
0.0
 11
730.5770874023438
 21
422.0419250162053
 31
0.0
  0
LINE
  5
281
330
1F
100
AcDbEntity
  8
D-6
  6
Continuous
 62
     6
370
     9
100
AcDbLine
 10
659.4057237779773
 20
414.5420239921344
 30
0.0
 11
730.5770874023438
 21
414.5420239921344
 31
0.0
  0
LINE
  5
282
330
1F
100
AcDbEntity
  8
D-6
  6
Continuous
 62
     6
370
     9
100
AcDbLine
 10
526.4812984982052
 20
444.5419992481521
 30
0.0
 11
730.5770874023438
 21
444.5419992481521
 31
0.0
  0
LINE
  5
283
330
1F
100
AcDbEntity
  8
D-6
  6
Continuous
 62
     6
370
     9
100
AcDbLine
 10
526.4812984982052
 20
437.0419745041699
 30
0.0
 11
730.5770874023438
 21
437.0419745041699
 31
0.0
  0
LINE
  5
284
330
1F
100
AcDbEntity
  8
D-4
  6
Continuous
 62
     7
370
     9
100
AcDbLine
 10
655.029750514675
 20
343.2919745041699
 30
0.0
 11
655.029750514675
 21
452.0417765523117
 31
0.0
  0
LINE
  5
285
330
1F
100
AcDbEntity
  8
D-4
  6
Continuous
 62
     7
370
     9
100
AcDbLine
 10
546.2813093855575
 20
457.0420404881225
 30
0.0
 11
656.5297307194891
 21
457.0420404881225
 31
0.0
  0
LINE
  5
286
330
1F
100
AcDbEntity
  8
D-4
  6
Continuous
 62
     7
370
     9
100
AcDbLine
 10
655.029750514675
 20
452.0417765523117
 30
0.0
 11
655.029750514675
 21
471.3589086257915
 31
0.0
  0
LINE
  5
287
330
1F
100
AcDbEntity
  8
D-4
  6
Continuous
 62
     7
370
     9
100
AcDbLine
 10
131.3629562790329
 20
401.6050040253904
 30
0.0
 11
91.39820820576446
 21
401.6050040253904
 31
0.0
  0
LINE
  5
288
330
1F
100
AcDbEntity
  8
D-4
  6
Continuous
 62
     7
370
     9
100
AcDbLine
 10
131.3629562790329
 20
409.6049809310069
 30
0.0
 11
91.39820820576446
 21
409.6049809310069
 31
0.0
  0
LINE
  5
289
330
1F
100
AcDbEntity
  8
D-4
  6
Continuous
 62
     7
370
     9
100
AcDbLine
 10
92.89818841057865
 20
409.6049809310069
 30
0.0
 11
92.89818841057865
 21
414.5420239921344
 31
0.0
  0
LINE
  5
28A
330
1F
100
AcDbEntity
  8
D-4
  6
Continuous
 62
     7
370
     9
100
AcDbLine
 10
131.3629562790329
 20
414.5420239921344
 30
0.0
 11
91.39820820576446
 21
414.5420239921344
 31
0.0
  0
LINE
  5
28B
330
1F
100
AcDbEntity
  8
D-4
  6
Continuous
 62
     7
370
     9
100
AcDbLine
 10
92.89818841057865
 20
414.5420239921344
 30
0.0
 11
92.89818841057865
 21
452.0420239921344
 31
0.0
  0
LINE
  5
28C
330
1F
100
AcDbEntity
  8
D-4
  6
Continuous
 62
     7
370
     9
100
AcDbLine
 10
92.89818841057865
 20
360.6984999871724
 30
0.0
 11
92.89818841057865
 21
409.6049809310069
 31
0.0
  0
LINE
  5
28D
330
1F
100
AcDbEntity
  8
D-4
  6
Continuous
 62
     7
370
     9
100
AcDbLine
 10
53.13460891311237
 20
397.2965818336673
 30
0.0
 11
53.13460891311237
 21
380.6003323615389
 31
0.0
  0
LINE
  5
28E
330
1F
100
AcDbEntity
  8
D-4
  6
Continuous
 62
     7
370
     9
100
AcDbLine
 10
91.11315753008881
 20
412.1748909288954
 30
0.0
 11
53.13460891311237
 21
397.2965818336673
 31
0.0
  0
ARC
  5
28F
330
1F
100
AcDbEntity
  8
D-5
  6
Continuous
 62
     7
370
     9
100
AcDbCircle
 10
482.5317795212206
 20
413.2919580081816
 30
0.0
 40
37.50000386624723
100
AcDbArc
 50
248.4898071289062
 51
291.5101928710938
  0
ARC
  5
290
330
1F
100
AcDbEntity
  8
D-5
  6
Continuous
 62
     7
370
     9
100
AcDbCircle
 10
482.5317795212206
 20
413.2919580081816
 30
0.0
 40
35.50000190734863
100
AcDbArc
 50
257.8034057617188
 51
282.1965942382812
  0
ARC
  5
291
330
1F
100
AcDbEntity
  8
D-1
  6
Continuous
 62
     2
370
     9
100
AcDbCircle
 10
496.2817630252323
 20
384.542172456028
 30
0.0
 40
2.500003415185052
100
AcDbArc
 50
90.0
 51
270.0
  0
ARC
  5
292
330
1F
100
AcDbEntity
  8
D-1
  6
Continuous
 62
     2
370
     9
100
AcDbCircle
 10
468.7815485773859
 20
384.542172456028
 30
0.0
 40
2.500003415185052
100
AcDbArc
 50
270.0
 51
90.0
  0
ARC
  5
293
330
1F
100
AcDbEntity
  8
D-1
  6
Continuous
 62
     2
370
     9
100
AcDbCircle
 10
504.406449601457
 20
379.5419085202172
 30
0.0
 40
2.500000032218727
100
AcDbArc
 50
90.0
 51
180.0
  0
ARC
  5
294
330
1F
100
AcDbEntity
  8
D-1
  6
Continuous
 62
     2
370
     9
100
AcDbCircle
 10
460.6561196816935
 20
379.5419085202172
 30
0.0
 40
2.500000032218727
100
AcDbArc
 50
0.0
 51
90.0
  0
ARC
  5
295
330
1F
100
AcDbEntity
  8
D-1
  6
Continuous
 62
     2
370
     9
100
AcDbCircle
 10
456.2813836175044
 20
379.5419085202172
 30
0.0
 40
2.500000032218727
100
AcDbArc
 50
90.0
 51
180.0
  0
ARC
  5
296
330
1F
100
AcDbEntity
  8
D-1
  6
Continuous
 62
     2
370
     9
100
AcDbCircle
 10
456.2813836175044
 20
358.2920239921344
 30
0.0
 40
2.500000032218727
100
AcDbArc
 50
180.0
 51
270.0
  0
ARC
  5
297
330
1F
100
AcDbEntity
  8
D-1
  6
Continuous
 62
     2
370
     9
100
AcDbCircle
 10
466.9069444811024
 20
358.2920239921344
 30
0.0
 40
2.500000032218727
100
AcDbArc
 50
270.0
 51
0.0
  0
ARC
  5
298
330
1F
100
AcDbEntity
  8
D-1
  6
Continuous
 62
     2
370
     9
100
AcDbCircle
 10
466.9069444811024
 20
360.7919085202172
 30
0.0
 40
2.500000032218727
100
AcDbArc
 50
0.0
 51
90.0
  0
ARC
  5
299
330
1F
100
AcDbEntity
  8
D-1
  6
Continuous
 62
     2
370
     9
100
AcDbCircle
 10
465.6563836175044
 20
365.7919250162053
 30
0.0
 40
2.500000032218727
100
AcDbArc
 50
180.0
 51
270.0
  0
ARC
  5
29A
330
1F
100
AcDbEntity
  8
D-1
  6
Continuous
 62
     2
370
     9
100
AcDbCircle
 10
512.5316310573269
 20
379.5419085202172
 30
0.0
 40
2.500000032218727
100
AcDbArc
 50
0.0
 51
90.0
  0
ARC
  5
29B
330
1F
100
AcDbEntity
  8
D-1
  6
Continuous
 62
     2
370
     9
100
AcDbCircle
 10
498.1566145613388
 20
367.0422384399807
 30
0.0
 40
3.75000004832809
100
AcDbArc
 50
270.0
 51
0.0
  0
ARC
  5
29C
330
1F
100
AcDbEntity
  8
D-1
  6
Continuous
 62
     2
370
     9
100
AcDbCircle
 10
530.0313176335516
 20
359.5420899760871
 30
0.0
 40
2.500003415185052
100
AcDbArc
 50
0.0
 51
180.0
  0
ARC
  5
29D
330
1F
100
AcDbEntity
  8
D-1
  6
Continuous
 62
     2
370
     9
100
AcDbCircle
 10
512.5316310573269
 20
358.2920239921344
 30
0.0
 40
2.500000032218727
100
AcDbArc
 50
270.0
 51
0.0
  0
ARC
  5
29E
330
1F
100
AcDbEntity
  8
D-1
  6
Continuous
 62
     2
370
     9
100
AcDbCircle
 10
498.1566145613388
 20
358.2920239921344
 30
0.0
 40
2.500000032218727
100
AcDbArc
 50
180.0
 51
270.0
  0
ARC
  5
29F
330
1F
100
AcDbEntity
  8
D-1
  6
Continuous
 62
     2
370
     9
100
AcDbCircle
 10
530.0313176335516
 20
399.5417270643472
 30
0.0
 40
2.500003415185052
100
AcDbArc
 50
180.0
 51
0.0
  0
ARC
  5
2A0
330
1F
100
AcDbEntity
  8
D-1
  6
Continuous
 62
     2
370
     9
100
AcDbCircle
 10
525.0315485773859
 20
447.0421312160576
 30
0.0
 40
5.000000064437454
100
AcDbArc
 50
90.0
 51
180.0
  0
ARC
  5
2A1
330
1F
100
AcDbEntity
  8
D-1
  6
Continuous
 62
     2
370
     9
100
AcDbCircle
 10
495.6564825934333
 20
370.7919415121935
 30
0.0
 40
2.500000032218727
100
AcDbArc
 50
270.0
 51
0.0
  0
ARC
  5
2A2
330
1F
100
AcDbEntity
  8
D-1
  6
Continuous
 62
     2
370
     9
100
AcDbCircle
 10
469.4065815693625
 20
370.7919415121935
 30
0.0
 40
2.500000032218727
100
AcDbArc
 50
180.0
 51
270.0
  0
ARC
  5
2A3
330
1F
100
AcDbEntity
  8
D-1
  6
Continuous
 62
     2
370
     9
100
AcDbCircle
 10
597.5314166094807
 20
362.6670074961462
 30
0.0
 40
5.000000064437454
100
AcDbArc
 50
0.0
 51
90.0
  0
ARC
  5
2A4
330
1F
100
AcDbEntity
  8
D-1
  6
Continuous
 62
     2
370
     9
100
AcDbCircle
 10
535.0315815693625
 20
353.0960351566191
 30
0.0
 40
5.000000064437454
100
AcDbArc
 50
0.0
 51
44.99964904785156
  0
ARC
  5
2A5
330
1F
100
AcDbEntity
  8
D-A
  6
Continuous
 62
     2
370
     9
100
AcDbCircle
 10
536.5315617741766
 20
378.9172466879747
 30
0.0
 40
16.24999755137675
100
AcDbArc
 50
4.411743164062504
 51
37.97987365722657
  0
ARC
  5
2A6
330
1F
100
AcDbEntity
  8
D-A
  6
Continuous
 62
     2
370
     9
100
AcDbCircle
 10
544.5317861196158
 20
384.7920866768894
 30
0.0
 40
0.5000000064437454
100
AcDbArc
 50
300.8598175048829
 51
0.0000000000000509
  0
ARC
  5
2A7
330
1F
100
AcDbEntity
  8
D-A
  6
Continuous
 62
     2
370
     9
100
AcDbCircle
 10
544.5317861196158
 20
373.0421592592375
 30
0.0
 40
0.5000000064437454
100
AcDbArc
 50
0.0
 51
59.14018249511719
  0
ARC
  5
2A8
330
1F
100
AcDbEntity
  8
D-1
  6
Continuous
 62
     2
370
     9
100
AcDbCircle
 10
557.70919387405
 20
380.1669415121935
 30
0.0
 40
12.50000064437454
100
AcDbArc
 50
225.0
 51
270.0
  0
ARC
  5
2A9
330
1F
100
AcDbEntity
  8
D-A
  6
Continuous
 62
     2
370
     9
100
AcDbCircle
 10
536.5315617741766
 20
378.9172466879747
 30
0.0
 40
16.24999755137675
100
AcDbArc
 50
327.3879852294923
 51
355.5882568359376
  0
ARC
  5
2AA
330
1F
100
AcDbEntity
  8
D-1
  6
JWW_DASHED3
 62
     2
370
     9
100
AcDbCircle
 10
536.5315617741766
 20
378.9172466879747
 30
0.0
 40
16.24999755137675
100
AcDbArc
 50
322.0201263427734
 51
327.3879852294922
  0
ARC
  5
2AB
330
1F
100
AcDbEntity
  8
D-A
  6
Continuous
 62
     2
370
     9
100
AcDbCircle
 10
437.5313836175044
 20
394.4709427790854
 30
0.0
 40
3.75000004832809
100
AcDbArc
 50
180.0
 51
254.5338897705078
  0
ARC
  5
2AC
330
1F
100
AcDbEntity
  8
D-A
  6
Continuous
 62
     2
370
     9
100
AcDbCircle
 10
447.5314166094807
 20
394.4709427790854
 30
0.0
 40
3.75000004832809
100
AcDbArc
 50
285.4661102294922
 51
0.0
  0
ARC
  5
2AD
330
1F
100
AcDbEntity
  8
D-A
  6
Continuous
 62
     2
370
     9
100
AcDbCircle
 10
442.5314001134925
 20
412.5419679057746
 30
0.0
 40
22.50000077324945
100
AcDbArc
 50
254.5339660644532
 51
266.6239776611328
  0
ARC
  5
2AE
330
1F
100
AcDbEntity
  8
D-A
  6
Continuous
 62
     2
370
     9
100
AcDbCircle
 10
442.5314001134925
 20
412.5419679057746
 30
0.0
 40
22.50000077324945
100
AcDbArc
 50
273.3760223388672
 51
285.4660186767578
  0
TEXT
  5
2AF
330
1F
100
AcDbEntity
  8
D-4
  6
Continuous
 62
     2
370
     9
100
AcDbText
 10
320.2543433936867
 20
24.64755964986242
 30
0.0
 40
15.24
  1
断面詳細図　Ｓ＝１：２
 41
1.113636363636364
  7
ＭＳ ゴシック
100
AcDbText
  0
TEXT
  5
2B0
330
1F
100
AcDbEntity
  8
D-4
  6
Continuous
 62
     7
370
     9
100
AcDbText
 10
241.1626248746306
 20
-9.678109740841743
 30
0.0
 40
11.43
  1
処理：陽極酸化塗装複合皮膜処理（アルミ材のみ）
 41
1.159420289855073
  7
ＭＳ ゴシック
100
AcDbText
  0
TEXT
  5
2B1
330
1F
100
AcDbEntity
  8
D-4
  6
Continuous
 62
     2
370
     9
100
AcDbText
 10
649.7096185467695
 20
342.9596669463679
 30
0.0
 40
15.24
  1
10
 50
90.0
 41
1.0625
  7
ＭＳ ゴシック
100
AcDbText
  0
TEXT
  5
2B2
330
1F
100
AcDbEntity
  8
D-4
  6
Continuous
 62
     2
370
     9
100
AcDbText
 10
649.7096185467695
 20
388.2920095581447
 30
0.0
 40
15.24
  1
33.5
 50
90.0
 41
1.09375
  7
ＭＳ ゴシック
100
AcDbText
  0
TEXT
  5
2B3
330
1F
100
AcDbEntity
  8
D-4
  6
Continuous
 62
     2
370
     9
100
AcDbText
 10
757.4209156593116
 20
350.1668590322526
 30
0.0
 40
15.24
  1
55～65
 50
90.0
 41
1.104166666666667
  7
ＭＳ ゴシック
100
AcDbText
  0
TEXT
  5
2B4
330
1F
100
AcDbEntity
  8
D-4
  6
Continuous
 62
     2
370
     9
100
AcDbText
 10
480.6564372294659
 20
134.1184013411631
 30
0.0
 40
15.24
  1
33
 41
1.0625
  7
ＭＳ ゴシック
100
AcDbText
  0
TEXT
  5
2B5
330
1F
100
AcDbEntity
  8
D-4
  6
Continuous
 62
     2
370
     9
100
AcDbText
 10
556.906255773596
 20
134.1184013411631
 30
0.0
 40
15.24
  1
28
 41
1.0625
  7
ＭＳ ゴシック
100
AcDbText
  0
TEXT
  5
2B6
330
1F
100
AcDbEntity
  8
D-4
  6
Continuous
 62
     2
370
     9
100
AcDbText
 10
504.4064660974452
 20
85.62613466041984
 30
0.0
 40
15.24
  1
70～80
 41
1.104166666666667
  7
ＭＳ ゴシック
100
AcDbText
  0
TEXT
  5
2B7
330
1F
100
AcDbEntity
  8
D-4
  6
Continuous
 62
     7
370
     9
100
AcDbText
 10
319.0383709883995
 20
484.9999030038992
 30
0.0
 40
11.43
  1
接着シロ
 50
0.0002100335217402
 41
1.125
  7
ＭＳ ゴシック
100
AcDbText
  0
TEXT
  5
2B8
330
1F
100
AcDbEntity
  8
D-4
  6
Continuous
 62
     2
370
     9
100
AcDbText
 10
649.2097901050466
 20
460.9980939384235
 30
0.0
 40
15.24
  1
2
 50
90.0
 41
0.9999999999999998
  7
ＭＳ ゴシック
100
AcDbText
  0
TEXT
  5
2B9
330
1F
100
AcDbEntity
  8
D-4
  6
Continuous
 62
     2
370
     9
100
AcDbText
 10
87.57805644267319
 20
364.1591850985533
 30
0.0
 40
15.24
  1
3.2
 50
90.0
 41
1.083333333333333
  7
ＭＳ ゴシック
100
AcDbText
  0
TEXT
  5
2BA
330
1F
100
AcDbEntity
  8
D-4
  6
Continuous
 62
     2
370
     9
100
AcDbText
 10
49.32583938186237
 20
384.0610112869243
 30
0.0
 40
15.24
  1
2
 50
90.0
 41
0.9999999999999998
  7
ＭＳ ゴシック
100
AcDbText
  0
TEXT
  5
2BB
330
1F
100
AcDbEntity
  8
D-4
  6
Continuous
 62
     2
370
     9
100
AcDbText
 10
87.57805644267319
 20
424.2815997648064
 30
0.0
 40
15.24
  1
15
 50
90.0
 41
1.0625
  7
ＭＳ ゴシック
100
AcDbText
  0
LWPOLYLINE
  5
2BC
330
1F
100
AcDbEntity
  8
D-4
  6
Continuous
 62
     7
370
     9
100
AcDbPolyline
 90
        4
 70
     1
 43
0.5
 10
655.279750514675
 20
343.2919745041699
 42
0.4142135623731
 10
655.029750514675
 20
343.5419745041699
 42
0.4142135623731
 10
654.779750514675
 20
343.2919745041699
 42
0.4142135623731
 10
655.029750514675
 20
343.04197450417
 42
0.4142135623731
  0
LWPOLYLINE
  5
2BD
330
1F
100
AcDbEntity
  8
D-4
  6
Continuous
 62
     7
370
     9
100
AcDbPolyline
 90
        4
 70
     1
 43
0.5
 10
655.279750514675
 20
368.2918095442881
 42
0.4142135623731
 10
655.029750514675
 20
368.5418095442881
 42
0.4142135623731
 10
654.779750514675
 20
368.2918095442881
 42
0.4142135623731
 10
655.029750514675
 20
368.0418095442882
 42
0.4142135623731
  0
LWPOLYLINE
  5
2BE
330
1F
100
AcDbEntity
  8
D-4
  6
Continuous
 62
     7
370
     9
100
AcDbPolyline
 90
        4
 70
     1
 43
0.5
 10
655.279750514675
 20
452.0417765523117
 42
0.4142135623731
 10
655.029750514675
 20
452.2917765523117
 42
0.4142135623731
 10
654.779750514675
 20
452.0417765523117
 42
0.4142135623731
 10
655.029750514675
 20
451.7917765523117
 42
0.4142135623731
  0
LWPOLYLINE
  5
2BF
330
1F
100
AcDbEntity
  8
D-4
  6
Continuous
 62
     7
370
     9
100
AcDbPolyline
 90
        4
 70
     1
 43
0.5
 10
762.9910476272173
 20
314.5419415121935
 42
0.4142135623731
 10
762.7410476272172
 20
314.7919415121935
 42
0.4142135623731
 10
762.4910476272171
 20
314.5419415121935
 42
0.4142135623731
 10
762.7410476272172
 20
314.2919415121935
 42
0.4142135623731
  0
LWPOLYLINE
  5
2C0
330
1F
100
AcDbEntity
  8
D-4
  6
Continuous
 62
     7
370
     9
100
AcDbPolyline
 90
        4
 70
     1
 43
0.5
 10
762.9910476272173
 20
452.0417765523117
 42
0.4142135623731
 10
762.7410476272172
 20
452.2917765523117
 42
0.4142135623731
 10
762.4910476272171
 20
452.0417765523117
 42
0.4142135623731
 10
762.7410476272172
 20
451.7917765523117
 42
0.4142135623731
  0
LWPOLYLINE
  5
2C1
330
1F
100
AcDbEntity
  8
D-4
  6
Continuous
 62
     7
370
     9
100
AcDbPolyline
 90
        4
 70
     1
 43
0.5
 10
450.2815485773859
 20
128.7982693732577
 42
0.4142135623731
 10
450.0315485773859
 20
129.0482693732577
 42
0.4142135623731
 10
449.7815485773859
 20
128.7982693732577
 42
0.4142135623731
 10
450.0315485773859
 20
128.5482693732577
 42
0.4142135623731
  0
LWPOLYLINE
  5
2C2
330
1F
100
AcDbEntity
  8
D-4
  6
Continuous
 62
     7
370
     9
100
AcDbPolyline
 90
        4
 70
     1
 43
0.5
 10
532.781449601457
 20
128.7982693732577
 42
0.4142135623731
 10
532.5314496014571
 20
129.0482693732577
 42
0.4142135623731
 10
532.2814496014571
 20
128.7982693732577
 42
0.4142135623731
 10
532.5314496014571
 20
128.5482693732577
 42
0.4142135623731
  0
LWPOLYLINE
  5
2C3
330
1F
100
AcDbEntity
  8
D-4
  6
Continuous
 62
     7
370
     9
100
AcDbPolyline
 90
        4
 70
     1
 43
0.5
 10
602.7814331054688
 20
128.7982693732577
 42
0.4142135623731
 10
602.5314331054688
 20
129.0482693732577
 42
0.4142135623731
 10
602.2814331054688
 20
128.7982693732577
 42
0.4142135623731
 10
602.5314331054688
 20
128.5482693732577
 42
0.4142135623731
  0
LWPOLYLINE
  5
2C4
330
1F
100
AcDbEntity
  8
D-4
  6
Continuous
 62
     7
370
     9
100
AcDbPolyline
 90
        4
 70
     1
 43
0.5
 10
450.2815485773859
 20
80.30600269251444
 42
0.4142135623731
 10
450.0315485773859
 20
80.55600269251444
 42
0.4142135623731
 10
449.7815485773859
 20
80.30600269251444
 42
0.4142135623731
 10
450.0315485773859
 20
80.05600269251444
 42
0.4142135623731
  0
LWPOLYLINE
  5
2C5
330
1F
100
AcDbEntity
  8
D-4
  6
Continuous
 62
     7
370
     9
100
AcDbPolyline
 90
        4
 70
     1
 43
0.5
 10
625.2813836175044
 20
80.30600269251444
 42
0.4142135623731
 10
625.0313836175044
 20
80.55600269251444
 42
0.4142135623731
 10
624.7813836175045
 20
80.30600269251444
 42
0.4142135623731
 10
625.0313836175044
 20
80.05600269251444
 42
0.4142135623731
  0
LWPOLYLINE
  5
2C6
330
1F
100
AcDbEntity
  8
D-4
  6
Continuous
 62
     7
370
     9
100
AcDbPolyline
 90
        4
 70
     1
 43
0.5
 10
93.14818841057865
 20
452.0420239921344
 42
0.4142135623731
 10
92.89818841057865
 20
452.2920239921343
 42
0.4142135623731
 10
92.64818841057865
 20
452.0420239921344
 42
0.4142135623731
 10
92.89818841057865
 20
451.7920239921344
 42
0.4142135623731
  0
LWPOLYLINE
  5
2C7
330
1F
100
AcDbEntity
  8
D-4
  6
Continuous
 62
     7
370
     9
100
AcDbPolyline
 90
        4
 70
     1
 43
0.5
 10
655.279750514675
 20
457.0420404881225
 42
0.4142135623731
 10
655.029750514675
 20
457.2920404881225
 42
0.4142135623731
 10
654.779750514675
 20
457.0420404881225
 42
0.4142135623731
 10
655.029750514675
 20
456.7920404881226
 42
0.4142135623731
  0
LWPOLYLINE
  5
2C8
330
1F
100
AcDbEntity
  8
D-4
  6
Continuous
 62
     7
370
     9
100
AcDbPolyline
 90
        4
 70
     1
 43
0.5
 10
93.14818841057865
 20
401.6050040253904
 42
0.4142135623731
 10
92.89818841057865
 20
401.8550040253904
 42
0.4142135623731
 10
92.64818841057865
 20
401.6050040253904
 42
0.4142135623731
 10
92.89818841057865
 20
401.3550040253904
 42
0.4142135623731
  0
LWPOLYLINE
  5
2C9
330
1F
100
AcDbEntity
  8
D-4
  6
Continuous
 62
     7
370
     9
100
AcDbPolyline
 90
        4
 70
     1
 43
0.5
 10
93.14818841057865
 20
409.6049809310069
 42
0.4142135623731
 10
92.89818841057865
 20
409.8549809310069
 42
0.4142135623731
 10
92.64818841057865
 20
409.6049809310069
 42
0.4142135623731
 10
92.89818841057865
 20
409.3549809310069
 42
0.4142135623731
  0
LWPOLYLINE
  5
2CA
330
1F
100
AcDbEntity
  8
D-4
  6
Continuous
 62
     7
370
     9
100
AcDbPolyline
 90
        4
 70
     1
 43
0.5
 10
93.14818841057865
 20
414.5420239921344
 42
0.4142135623731
 10
92.89818841057865
 20
414.7920239921343
 42
0.4142135623731
 10
92.64818841057865
 20
414.5420239921344
 42
0.4142135623731
 10
92.89818841057865
 20
414.2920239921344
 42
0.4142135623731
  0
TEXT
  5
2CB
330
1F
100
AcDbEntity
  8
D-4
  6
Continuous
 62
     2
370
     9
100
AcDbText
 10
139.8409572042835
 20
134.1181539011959
 30
0.0
 40
15.24
  1
□550
 50
0.0004362235297
 41
1.1
  7
ＭＳ ゴシック
100
AcDbText
  0
LINE
  5
2CC
330
1F
100
AcDbEntity
  8
D-0
  6
Continuous
 62
     7
370
     9
100
AcDbLine
 10
599.9842755095722
 20
397.3624868099873
 30
0.0
 11
599.9842755095722
 21
398.1126279537861
 31
0.0
  0
LINE
  5
2CD
330
1F
100
AcDbEntity
  8
D-0
  6
Continuous
 62
     7
370
     9
100
AcDbLine
 10
599.9842755095722
 20
398.1126279537861
 30
0.0
 11
600.734416653371
 21
398.1126279537861
 31
0.0
  0
LINE
  5
2CE
330
1F
100
AcDbEntity
  8
D-0
  6
Continuous
 62
     7
370
     9
100
AcDbLine
 10
600.734416653371
 20
398.1126279537861
 30
0.0
 11
600.734416653371
 21
397.3624868099873
 31
0.0
  0
LINE
  5
2CF
330
1F
100
AcDbEntity
  8
D-0
  6
Continuous
 62
     7
370
     9
100
AcDbLine
 10
600.734416653371
 20
397.3624868099873
 30
0.0
 11
599.9842755095722
 21
397.3624868099873
 31
0.0
  0
LINE
  5
2D0
330
1F
100
AcDbEntity
  8
D-0
  6
Continuous
 62
     7
370
     9
100
AcDbLine
 10
584.6812359587909
 20
391.9323987667744
 30
0.0
 11
584.6812359587909
 21
392.6825208370869
 31
0.0
  0
LINE
  5
2D1
330
1F
100
AcDbEntity
  8
D-0
  6
Continuous
 62
     7
370
     9
100
AcDbLine
 10
584.6812359587909
 20
392.6825208370869
 30
0.0
 11
585.4313771025897
 21
392.6825208370869
 31
0.0
  0
LINE
  5
2D2
330
1F
100
AcDbEntity
  8
D-0
  6
Continuous
 62
     7
370
     9
100
AcDbLine
 10
585.4313771025897
 20
392.6825208370869
 30
0.0
 11
585.4313771025897
 21
391.9323987667744
 31
0.0
  0
LINE
  5
2D3
330
1F
100
AcDbEntity
  8
D-0
  6
Continuous
 62
     7
370
     9
100
AcDbLine
 10
585.4313771025897
 20
391.9323987667744
 30
0.0
 11
584.6812359587909
 21
391.9323987667744
 31
0.0
  0
LINE
  5
2D4
330
1F
100
AcDbEntity
  8
D-0
  6
Continuous
 62
     7
370
     9
100
AcDbLine
 10
617.7557484404804
 20
409.6203679745381
 30
0.0
 11
617.7557484404804
 21
410.3705091183369
 31
0.0
  0
LINE
  5
2D5
330
1F
100
AcDbEntity
  8
D-0
  6
Continuous
 62
     7
370
     9
100
AcDbLine
 10
617.7557484404804
 20
410.3705091183369
 30
0.0
 11
618.5058895842792
 21
410.3705091183369
 31
0.0
  0
LINE
  5
2D6
330
1F
100
AcDbEntity
  8
D-0
  6
Continuous
 62
     7
370
     9
100
AcDbLine
 10
618.5058895842792
 20
410.3705091183369
 30
0.0
 11
618.5058895842792
 21
409.6203679745381
 31
0.0
  0
LINE
  5
2D7
330
1F
100
AcDbEntity
  8
D-0
  6
Continuous
 62
     7
370
     9
100
AcDbLine
 10
618.5058895842792
 20
409.6203679745381
 30
0.0
 11
617.7557484404804
 21
409.6203679745381
 31
0.0
  0
LINE
  5
2D8
330
1F
100
AcDbEntity
  8
D-0
  6
Continuous
 62
     7
370
     9
100
AcDbLine
 10
624.6667973296405
 20
392.8363675778095
 30
0.0
 11
624.6667973296405
 21
393.5865087216084
 31
0.0
  0
LINE
  5
2D9
330
1F
100
AcDbEntity
  8
D-0
  6
Continuous
 62
     7
370
     9
100
AcDbLine
 10
624.6667973296405
 20
393.5865087216084
 30
0.0
 11
625.4166905181171
 21
393.5865087216084
 31
0.0
  0
LINE
  5
2DA
330
1F
100
AcDbEntity
  8
D-0
  6
Continuous
 62
     7
370
     9
100
AcDbLine
 10
625.4166905181171
 20
393.5865087216084
 30
0.0
 11
625.4166905181171
 21
392.8363675778095
 31
0.0
  0
LINE
  5
2DB
330
1F
100
AcDbEntity
  8
D-0
  6
Continuous
 62
     7
370
     9
100
AcDbLine
 10
625.4166905181171
 20
392.8363675778095
 30
0.0
 11
624.6667973296405
 21
392.8363675778095
 31
0.0
  0
LINE
  5
2DC
330
1F
100
AcDbEntity
  8
D-0
  6
Continuous
 62
     7
370
     9
100
AcDbLine
 10
603.9336697356464
 20
378.6037893002216
 30
0.0
 11
603.9336697356464
 21
379.3539304440205
 31
0.0
  0
LINE
  5
2DD
330
1F
100
AcDbEntity
  8
D-0
  6
Continuous
 62
     7
370
     9
100
AcDbLine
 10
603.9336697356464
 20
379.3539304440205
 30
0.0
 11
604.683562924123
 21
379.3539304440205
 31
0.0
  0
LINE
  5
2DE
330
1F
100
AcDbEntity
  8
D-0
  6
Continuous
 62
     7
370
     9
100
AcDbLine
 10
604.683562924123
 20
379.3539304440205
 30
0.0
 11
604.683562924123
 21
378.6037893002216
 31
0.0
  0
LINE
  5
2DF
330
1F
100
AcDbEntity
  8
D-0
  6
Continuous
 62
     7
370
     9
100
AcDbLine
 10
604.683562924123
 20
378.6037893002216
 30
0.0
 11
603.9336697356464
 21
378.6037893002216
 31
0.0
  0
LINE
  5
2E0
330
1F
100
AcDbEntity
  8
D-0
  6
Continuous
 62
     7
370
     9
100
AcDbLine
 10
571.0870472686054
 20
401.6871709530537
 30
0.0
 11
571.0870472686054
 21
402.4373120968525
 31
0.0
  0
LINE
  5
2E1
330
1F
100
AcDbEntity
  8
D-0
  6
Continuous
 62
     7
370
     9
100
AcDbLine
 10
571.0870472686054
 20
402.4373120968525
 30
0.0
 11
571.8369404570819
 21
402.4373120968525
 31
0.0
  0
LINE
  5
2E2
330
1F
100
AcDbEntity
  8
D-0
  6
Continuous
 62
     7
370
     9
100
AcDbLine
 10
571.8369404570819
 20
402.4373120968525
 30
0.0
 11
571.8369404570819
 21
401.6871709530537
 31
0.0
  0
LINE
  5
2E3
330
1F
100
AcDbEntity
  8
D-0
  6
Continuous
 62
     7
370
     9
100
AcDbLine
 10
571.8369404570819
 20
401.6871709530537
 30
0.0
 11
571.0870472686054
 21
401.6871709530537
 31
0.0
  0
LINE
  5
2E4
330
1F
100
AcDbEntity
  8
D-0
  6
Continuous
 62
     7
370
     9
100
AcDbLine
 10
629.5479122893573
 20
379.8201627438252
 30
0.0
 11
629.5479122893573
 21
380.570303887624
 31
0.0
  0
LINE
  5
2E5
330
1F
100
AcDbEntity
  8
D-0
  6
Continuous
 62
     7
370
     9
100
AcDbLine
 10
629.5479122893573
 20
380.570303887624
 30
0.0
 11
630.2978054778339
 21
380.570303887624
 31
0.0
  0
LINE
  5
2E6
330
1F
100
AcDbEntity
  8
D-0
  6
Continuous
 62
     7
370
     9
100
AcDbLine
 10
630.2978054778339
 20
380.570303887624
 30
0.0
 11
630.2978054778339
 21
379.8201627438252
 31
0.0
  0
LINE
  5
2E7
330
1F
100
AcDbEntity
  8
D-0
  6
Continuous
 62
     7
370
     9
100
AcDbLine
 10
630.2978054778339
 20
379.8201627438252
 30
0.0
 11
629.5479122893573
 21
379.8201627438252
 31
0.0
  0
LINE
  5
2E8
330
1F
100
AcDbEntity
  8
D-0
  6
Continuous
 62
     7
370
     9
100
AcDbLine
 10
699.5908467070819
 20
389.8496885006611
 30
0.0
 11
699.5908467070819
 21
390.5998296444599
 31
0.0
  0
LINE
  5
2E9
330
1F
100
AcDbEntity
  8
D-0
  6
Continuous
 62
     7
370
     9
100
AcDbLine
 10
699.5908467070819
 20
390.5998296444599
 30
0.0
 11
700.3409878508808
 21
390.5998296444599
 31
0.0
  0
LINE
  5
2EA
330
1F
100
AcDbEntity
  8
D-0
  6
Continuous
 62
     7
370
     9
100
AcDbLine
 10
700.3409878508808
 20
390.5998296444599
 30
0.0
 11
700.3409878508808
 21
389.8496885006611
 31
0.0
  0
LINE
  5
2EB
330
1F
100
AcDbEntity
  8
D-0
  6
Continuous
 62
     7
370
     9
100
AcDbLine
 10
700.3409878508808
 20
389.8496885006611
 30
0.0
 11
699.5908467070819
 21
389.8496885006611
 31
0.0
  0
LINE
  5
2EC
330
1F
100
AcDbEntity
  8
D-0
  6
Continuous
 62
     7
370
     9
100
AcDbLine
 10
678.0887333647968
 20
385.81804940154
 30
0.0
 11
678.0887333647968
 21
386.5681905453388
 31
0.0
  0
LINE
  5
2ED
330
1F
100
AcDbEntity
  8
D-0
  6
Continuous
 62
     7
370
     9
100
AcDbLine
 10
678.0887333647968
 20
386.5681905453388
 30
0.0
 11
678.8388745085956
 21
386.5681905453388
 31
0.0
  0
LINE
  5
2EE
330
1F
100
AcDbEntity
  8
D-0
  6
Continuous
 62
     7
370
     9
100
AcDbLine
 10
678.8388745085956
 20
386.5681905453388
 30
0.0
 11
678.8388745085956
 21
385.81804940154
 31
0.0
  0
LINE
  5
2EF
330
1F
100
AcDbEntity
  8
D-0
  6
Continuous
 62
     7
370
     9
100
AcDbLine
 10
678.8388745085956
 20
385.81804940154
 30
0.0
 11
678.0887333647968
 21
385.81804940154
 31
0.0
  0
LINE
  5
2F0
330
1F
100
AcDbEntity
  8
D-0
  6
Continuous
 62
     7
370
     9
100
AcDbLine
 10
641.8038288848163
 20
405.9762067501728
 30
0.0
 11
641.8038288848163
 21
406.7263478939716
 31
0.0
  0
LINE
  5
2F1
330
1F
100
AcDbEntity
  8
D-0
  6
Continuous
 62
     7
370
     9
100
AcDbLine
 10
641.8038288848163
 20
406.7263478939716
 30
0.0
 11
642.5539700286151
 21
406.7263478939716
 31
0.0
  0
LINE
  5
2F2
330
1F
100
AcDbEntity
  8
D-0
  6
Continuous
 62
     7
370
     9
100
AcDbLine
 10
642.5539700286151
 20
406.7263478939716
 30
0.0
 11
642.5539700286151
 21
405.9762067501728
 31
0.0
  0
LINE
  5
2F3
330
1F
100
AcDbEntity
  8
D-0
  6
Continuous
 62
     7
370
     9
100
AcDbLine
 10
642.5539700286151
 20
405.9762067501728
 30
0.0
 11
641.8038288848163
 21
405.9762067501728
 31
0.0
  0
LINE
  5
2F4
330
1F
100
AcDbEntity
  8
D-0
  6
Continuous
 62
     7
370
     9
100
AcDbLine
 10
701.6066662566425
 20
406.6480512325947
 30
0.0
 11
701.6066662566425
 21
407.3981923763935
 31
0.0
  0
LINE
  5
2F5
330
1F
100
AcDbEntity
  8
D-0
  6
Continuous
 62
     7
370
     9
100
AcDbLine
 10
701.6066662566425
 20
407.3981923763935
 30
0.0
 11
702.3568074004413
 21
407.3981923763935
 31
0.0
  0
LINE
  5
2F6
330
1F
100
AcDbEntity
  8
D-0
  6
Continuous
 62
     7
370
     9
100
AcDbLine
 10
702.3568074004413
 20
407.3981923763935
 30
0.0
 11
702.3568074004413
 21
406.6480512325947
 31
0.0
  0
LINE
  5
2F7
330
1F
100
AcDbEntity
  8
D-0
  6
Continuous
 62
     7
370
     9
100
AcDbLine
 10
702.3568074004413
 20
406.6480512325947
 30
0.0
 11
701.6066662566425
 21
406.6480512325947
 31
0.0
  0
LINE
  5
2F8
330
1F
100
AcDbEntity
  8
D-0
  6
Continuous
 62
     7
370
     9
100
AcDbLine
 10
587.1506958606562
 20
405.977502939571
 30
0.0
 11
587.1506958606562
 21
406.7276440833698
 31
0.0
  0
LINE
  5
2F9
330
1F
100
AcDbEntity
  8
D-0
  6
Continuous
 62
     7
370
     9
100
AcDbLine
 10
587.1506958606562
 20
406.7276440833698
 30
0.0
 11
587.9005890491328
 21
406.7276440833698
 31
0.0
  0
LINE
  5
2FA
330
1F
100
AcDbEntity
  8
D-0
  6
Continuous
 62
     7
370
     9
100
AcDbLine
 10
587.9005890491328
 20
406.7276440833698
 30
0.0
 11
587.9005890491328
 21
405.977502939571
 31
0.0
  0
LINE
  5
2FB
330
1F
100
AcDbEntity
  8
D-0
  6
Continuous
 62
     7
370
     9
100
AcDbLine
 10
587.9005890491328
 20
405.977502939571
 30
0.0
 11
587.1506958606562
 21
405.977502939571
 31
0.0
  0
LINE
  5
2FC
330
1F
100
AcDbEntity
  8
D-0
  6
Continuous
 62
     7
370
     9
100
AcDbLine
 10
668.96472222587
 20
370.8246199277986
 30
0.0
 11
668.96472222587
 21
371.5747610715974
 31
0.0
  0
LINE
  5
2FD
330
1F
100
AcDbEntity
  8
D-0
  6
Continuous
 62
     7
370
     9
100
AcDbLine
 10
668.96472222587
 20
371.5747610715974
 30
0.0
 11
669.7148633696688
 21
371.5747610715974
 31
0.0
  0
LINE
  5
2FE
330
1F
100
AcDbEntity
  8
D-0
  6
Continuous
 62
     7
370
     9
100
AcDbLine
 10
669.7148633696688
 20
371.5747610715974
 30
0.0
 11
669.7148633696688
 21
370.8246199277986
 31
0.0
  0
LINE
  5
2FF
330
1F
100
AcDbEntity
  8
D-0
  6
Continuous
 62
     7
370
     9
100
AcDbLine
 10
669.7148633696688
 20
370.8246199277986
 30
0.0
 11
668.96472222587
 21
370.8246199277986
 31
0.0
  0
LINE
  5
300
330
1F
100
AcDbEntity
  8
D-0
  6
Continuous
 62
     7
370
     9
100
AcDbLine
 10
722.949506851092
 20
409.9531266135215
 30
0.0
 11
722.949506851092
 21
410.7032677573203
 31
0.0
  0
LINE
  5
301
330
1F
100
AcDbEntity
  8
D-0
  6
Continuous
 62
     7
370
     9
100
AcDbLine
 10
722.949506851092
 20
410.7032677573203
 30
0.0
 11
723.6996479948908
 21
410.7032677573203
 31
0.0
  0
LINE
  5
302
330
1F
100
AcDbEntity
  8
D-0
  6
Continuous
 62
     7
370
     9
100
AcDbLine
 10
723.6996479948908
 20
410.7032677573203
 30
0.0
 11
723.6996479948908
 21
409.9531266135215
 31
0.0
  0
LINE
  5
303
330
1F
100
AcDbEntity
  8
D-0
  6
Continuous
 62
     7
370
     9
100
AcDbLine
 10
723.6996479948908
 20
409.9531266135215
 30
0.0
 11
722.949506851092
 21
409.9531266135215
 31
0.0
  0
LINE
  5
304
330
1F
100
AcDbEntity
  8
D-0
  6
Continuous
 62
     7
370
     9
100
AcDbLine
 10
721.2755600410077
 20
388.8195481362059
 30
0.0
 11
721.2755600410077
 21
389.5696892800047
 31
0.0
  0
LINE
  5
305
330
1F
100
AcDbEntity
  8
D-0
  6
Continuous
 62
     7
370
     9
100
AcDbLine
 10
721.2755600410077
 20
389.5696892800047
 30
0.0
 11
722.0257011848065
 21
389.5696892800047
 31
0.0
  0
LINE
  5
306
330
1F
100
AcDbEntity
  8
D-0
  6
Continuous
 62
     7
370
     9
100
AcDbLine
 10
722.0257011848065
 20
389.5696892800047
 30
0.0
 11
722.0257011848065
 21
388.8195481362059
 31
0.0
  0
LINE
  5
307
330
1F
100
AcDbEntity
  8
D-0
  6
Continuous
 62
     7
370
     9
100
AcDbLine
 10
722.0257011848065
 20
388.8195481362059
 30
0.0
 11
721.2755600410077
 21
388.8195481362059
 31
0.0
  0
LINE
  5
308
330
1F
100
AcDbEntity
  8
D-0
  6
Continuous
 62
     7
370
     9
100
AcDbLine
 10
724.8326970124369
 20
369.3599164689748
 30
0.0
 11
724.8326970124369
 21
370.1100576127736
 31
0.0
  0
LINE
  5
309
330
1F
100
AcDbEntity
  8
D-0
  6
Continuous
 62
     7
370
     9
100
AcDbLine
 10
724.8326970124369
 20
370.1100576127736
 30
0.0
 11
725.5828381562358
 21
370.1100576127736
 31
0.0
  0
LINE
  5
30A
330
1F
100
AcDbEntity
  8
D-0
  6
Continuous
 62
     7
370
     9
100
AcDbLine
 10
725.5828381562358
 20
370.1100576127736
 30
0.0
 11
725.5828381562358
 21
369.3599164689748
 31
0.0
  0
LINE
  5
30B
330
1F
100
AcDbEntity
  8
D-0
  6
Continuous
 62
     7
370
     9
100
AcDbLine
 10
725.5828381562358
 20
369.3599164689748
 30
0.0
 11
724.8326970124369
 21
369.3599164689748
 31
0.0
  0
LINE
  5
30C
330
1F
100
AcDbEntity
  8
D-0
  6
Continuous
 62
     7
370
     9
100
AcDbLine
 10
684.0302435166296
 20
401.7926359143599
 30
0.0
 11
684.0302435166296
 21
402.5427770581588
 31
0.0
  0
LINE
  5
30D
330
1F
100
AcDbEntity
  8
D-0
  6
Continuous
 62
     7
370
     9
100
AcDbLine
 10
684.0302435166296
 20
402.5427770581588
 30
0.0
 11
684.7803846604285
 21
402.5427770581588
 31
0.0
  0
LINE
  5
30E
330
1F
100
AcDbEntity
  8
D-0
  6
Continuous
 62
     7
370
     9
100
AcDbLine
 10
684.7803846604285
 20
402.5427770581588
 30
0.0
 11
684.7803846604285
 21
401.7926359143599
 31
0.0
  0
LINE
  5
30F
330
1F
100
AcDbEntity
  8
D-0
  6
Continuous
 62
     7
370
     9
100
AcDbLine
 10
684.7803846604285
 20
401.7926359143599
 30
0.0
 11
684.0302435166296
 21
401.7926359143599
 31
0.0
  0
LINE
  5
310
330
1F
100
AcDbEntity
  8
D-0
  6
Continuous
 62
     7
370
     9
100
AcDbLine
 10
541.7447646594555
 20
396.9800388353673
 30
0.0
 11
541.7447646594555
 21
397.7301799791662
 31
0.0
  0
LINE
  5
311
330
1F
100
AcDbEntity
  8
D-0
  6
Continuous
 62
     7
370
     9
100
AcDbLine
 10
541.7447646594555
 20
397.7301799791662
 30
0.0
 11
542.4949058032544
 21
397.7301799791662
 31
0.0
  0
LINE
  5
312
330
1F
100
AcDbEntity
  8
D-0
  6
Continuous
 62
     7
370
     9
100
AcDbLine
 10
542.4949058032544
 20
397.7301799791662
 30
0.0
 11
542.4949058032544
 21
396.9800388353673
 31
0.0
  0
LINE
  5
313
330
1F
100
AcDbEntity
  8
D-0
  6
Continuous
 62
     7
370
     9
100
AcDbLine
 10
542.4949058032544
 20
396.9800388353673
 30
0.0
 11
541.7447646594555
 21
396.9800388353673
 31
0.0
  0
LINE
  5
314
330
1F
100
AcDbEntity
  8
D-0
  6
Continuous
 62
     7
370
     9
100
AcDbLine
 10
560.3674229216447
 20
390.0750082437692
 30
0.0
 11
560.3674229216447
 21
390.825149387568
 31
0.0
  0
LINE
  5
315
330
1F
100
AcDbEntity
  8
D-0
  6
Continuous
 62
     7
370
     9
100
AcDbLine
 10
560.3674229216447
 20
390.825149387568
 30
0.0
 11
561.1175640654435
 21
390.825149387568
 31
0.0
  0
LINE
  5
316
330
1F
100
AcDbEntity
  8
D-0
  6
Continuous
 62
     7
370
     9
100
AcDbLine
 10
561.1175640654435
 20
390.825149387568
 30
0.0
 11
561.1175640654435
 21
390.0750082437692
 31
0.0
  0
LINE
  5
317
330
1F
100
AcDbEntity
  8
D-0
  6
Continuous
 62
     7
370
     9
100
AcDbLine
 10
561.1175640654435
 20
390.0750082437692
 30
0.0
 11
560.3674229216447
 21
390.0750082437692
 31
0.0
  0
LINE
  5
318
330
1F
100
AcDbEntity
  8
D-0
  6
Continuous
 62
     7
370
     9
100
AcDbLine
 10
607.8656636577896
 20
362.0363991748554
 30
0.0
 11
607.8656636577896
 21
362.7865403186543
 31
0.0
  0
LINE
  5
319
330
1F
100
AcDbEntity
  8
D-0
  6
Continuous
 62
     7
370
     9
100
AcDbLine
 10
607.8656636577896
 20
362.7865403186543
 30
0.0
 11
608.6158048015884
 21
362.7865403186543
 31
0.0
  0
LINE
  5
31A
330
1F
100
AcDbEntity
  8
D-0
  6
Continuous
 62
     7
370
     9
100
AcDbLine
 10
608.6158048015884
 20
362.7865403186543
 30
0.0
 11
608.6158048015884
 21
362.0363991748554
 31
0.0
  0
LINE
  5
31B
330
1F
100
AcDbEntity
  8
D-0
  6
Continuous
 62
     7
370
     9
100
AcDbLine
 10
608.6158048015884
 20
362.0363991748554
 30
0.0
 11
607.8656636577896
 21
362.0363991748554
 31
0.0
  0
LINE
  5
31C
330
1F
100
AcDbEntity
  8
D-0
  6
Continuous
 62
     7
370
     9
100
AcDbLine
 10
620.2110213821618
 20
349.0633113967015
 30
0.0
 11
620.2110213821618
 21
349.8134525405003
 31
0.0
  0
LINE
  5
31D
330
1F
100
AcDbEntity
  8
D-0
  6
Continuous
 62
     7
370
     9
100
AcDbLine
 10
620.2110213821618
 20
349.8134525405003
 30
0.0
 11
620.9611625259606
 21
349.8134525405003
 31
0.0
  0
LINE
  5
31E
330
1F
100
AcDbEntity
  8
D-0
  6
Continuous
 62
     7
370
     9
100
AcDbLine
 10
620.9611625259606
 20
349.8134525405003
 30
0.0
 11
620.9611625259606
 21
349.0633113967015
 31
0.0
  0
LINE
  5
31F
330
1F
100
AcDbEntity
  8
D-0
  6
Continuous
 62
     7
370
     9
100
AcDbLine
 10
620.9611625259606
 20
349.0633113967015
 30
0.0
 11
620.2110213821618
 21
349.0633113967015
 31
0.0
  0
LINE
  5
320
330
1F
100
AcDbEntity
  8
D-0
  6
Continuous
 62
     7
370
     9
100
AcDbLine
 10
610.1673405216553
 20
335.6717369160262
 30
0.0
 11
610.1673405216553
 21
336.421878059825
 31
0.0
  0
LINE
  5
321
330
1F
100
AcDbEntity
  8
D-0
  6
Continuous
 62
     7
370
     9
100
AcDbLine
 10
610.1673405216553
 20
336.421878059825
 30
0.0
 11
610.9174816654541
 21
336.421878059825
 31
0.0
  0
LINE
  5
322
330
1F
100
AcDbEntity
  8
D-0
  6
Continuous
 62
     7
370
     9
100
AcDbLine
 10
610.9174816654541
 20
336.421878059825
 30
0.0
 11
610.9174816654541
 21
335.6717369160262
 31
0.0
  0
LINE
  5
323
330
1F
100
AcDbEntity
  8
D-0
  6
Continuous
 62
     7
370
     9
100
AcDbLine
 10
610.9174816654541
 20
335.6717369160262
 30
0.0
 11
610.1673405216553
 21
335.6717369160262
 31
0.0
  0
LINE
  5
324
330
1F
100
AcDbEntity
  8
D-0
  6
Continuous
 62
     7
370
     9
100
AcDbLine
 10
618.9555612745985
 20
318.9322688151822
 30
0.0
 11
618.9555612745985
 21
319.682409958981
 31
0.0
  0
LINE
  5
325
330
1F
100
AcDbEntity
  8
D-0
  6
Continuous
 62
     7
370
     9
100
AcDbLine
 10
618.9555612745985
 20
319.682409958981
 30
0.0
 11
619.7057024183973
 21
319.682409958981
 31
0.0
  0
LINE
  5
326
330
1F
100
AcDbEntity
  8
D-0
  6
Continuous
 62
     7
370
     9
100
AcDbLine
 10
619.7057024183973
 20
319.682409958981
 30
0.0
 11
619.7057024183973
 21
318.9322688151822
 31
0.0
  0
LINE
  5
327
330
1F
100
AcDbEntity
  8
D-0
  6
Continuous
 62
     7
370
     9
100
AcDbLine
 10
619.7057024183973
 20
318.9322688151822
 30
0.0
 11
618.9555612745985
 21
318.9322688151822
 31
0.0
  0
LINE
  5
328
330
1F
100
AcDbEntity
  8
D-0
  6
Continuous
 62
     7
370
     9
100
AcDbLine
 10
595.9387926359381
 20
322.9078924891326
 30
0.0
 11
595.9387926359381
 21
323.6580336329314
 31
0.0
  0
LINE
  5
329
330
1F
100
AcDbEntity
  8
D-0
  6
Continuous
 62
     7
370
     9
100
AcDbLine
 10
595.9387926359381
 20
323.6580336329314
 30
0.0
 11
596.6889337797369
 21
323.6580336329314
 31
0.0
  0
LINE
  5
32A
330
1F
100
AcDbEntity
  8
D-0
  6
Continuous
 62
     7
370
     9
100
AcDbLine
 10
596.6889337797369
 20
323.6580336329314
 30
0.0
 11
596.6889337797369
 21
322.9078924891326
 31
0.0
  0
LINE
  5
32B
330
1F
100
AcDbEntity
  8
D-0
  6
Continuous
 62
     7
370
     9
100
AcDbLine
 10
596.6889337797369
 20
322.9078924891326
 30
0.0
 11
595.9387926359381
 21
322.9078924891326
 31
0.0
  0
LINE
  5
32C
330
1F
100
AcDbEntity
  8
D-0
  6
Continuous
 62
     7
370
     9
100
AcDbLine
 10
644.0647634258644
 20
375.4279736555307
 30
0.0
 11
644.0647634258644
 21
376.1781147993295
 31
0.0
  0
LINE
  5
32D
330
1F
100
AcDbEntity
  8
D-0
  6
Continuous
 62
     7
370
     9
100
AcDbLine
 10
644.0647634258644
 20
376.1781147993295
 30
0.0
 11
644.8149045696632
 21
376.1781147993295
 31
0.0
  0
LINE
  5
32E
330
1F
100
AcDbEntity
  8
D-0
  6
Continuous
 62
     7
370
     9
100
AcDbLine
 10
644.8149045696632
 20
376.1781147993295
 30
0.0
 11
644.8149045696632
 21
375.4279736555307
 31
0.0
  0
LINE
  5
32F
330
1F
100
AcDbEntity
  8
D-0
  6
Continuous
 62
     7
370
     9
100
AcDbLine
 10
644.8149045696632
 20
375.4279736555307
 30
0.0
 11
644.0647634258644
 21
375.4279736555307
 31
0.0
  0
LINE
  5
330
330
1F
100
AcDbEntity
  8
D-0
  6
Continuous
 62
     7
370
     9
100
AcDbLine
 10
688.4243538931012
 20
369.7784031714958
 30
0.0
 11
688.4243538931012
 21
370.5285443152947
 31
0.0
  0
LINE
  5
331
330
1F
100
AcDbEntity
  8
D-0
  6
Continuous
 62
     7
370
     9
100
AcDbLine
 10
688.4243538931012
 20
370.5285443152947
 30
0.0
 11
689.1744950369
 21
370.5285443152947
 31
0.0
  0
LINE
  5
332
330
1F
100
AcDbEntity
  8
D-0
  6
Continuous
 62
     7
370
     9
100
AcDbLine
 10
689.1744950369
 20
370.5285443152947
 30
0.0
 11
689.1744950369
 21
369.7784031714958
 31
0.0
  0
LINE
  5
333
330
1F
100
AcDbEntity
  8
D-0
  6
Continuous
 62
     7
370
     9
100
AcDbLine
 10
689.1744950369
 20
369.7784031714958
 30
0.0
 11
688.4243538931012
 21
369.7784031714958
 31
0.0
  0
LINE
  5
334
330
1F
100
AcDbEntity
  8
D-0
  6
Continuous
 62
     7
370
     9
100
AcDbLine
 10
663.9428817956167
 20
389.8657648925087
 30
0.0
 11
663.9428817956167
 21
390.6159060363075
 31
0.0
  0
LINE
  5
335
330
1F
100
AcDbEntity
  8
D-0
  6
Continuous
 62
     7
370
     9
100
AcDbLine
 10
663.9428817956167
 20
390.6159060363075
 30
0.0
 11
664.6930229394155
 21
390.6159060363075
 31
0.0
  0
LINE
  5
336
330
1F
100
AcDbEntity
  8
D-0
  6
Continuous
 62
     7
370
     9
100
AcDbLine
 10
664.6930229394155
 20
390.6159060363075
 30
0.0
 11
664.6930229394155
 21
389.8657648925087
 31
0.0
  0
LINE
  5
337
330
1F
100
AcDbEntity
  8
D-0
  6
Continuous
 62
     7
370
     9
100
AcDbLine
 10
664.6930229394155
 20
389.8657648925087
 30
0.0
 11
663.9428817956167
 21
389.8657648925087
 31
0.0
  0
LINE
  5
338
330
1F
100
AcDbEntity
  8
D-0
  6
Continuous
 62
     7
370
     9
100
AcDbLine
 10
468.0387941779267
 20
336.351777807623
 30
0.0
 11
468.0387941779267
 21
337.1019189514218
 31
0.0
  0
LINE
  5
339
330
1F
100
AcDbEntity
  8
D-0
  6
Continuous
 62
     7
370
     9
100
AcDbLine
 10
468.0387941779267
 20
337.1019189514218
 30
0.0
 11
468.7889353217255
 21
337.1019189514218
 31
0.0
  0
LINE
  5
33A
330
1F
100
AcDbEntity
  8
D-0
  6
Continuous
 62
     7
370
     9
100
AcDbLine
 10
468.7889353217255
 20
337.1019189514218
 30
0.0
 11
468.7889353217255
 21
336.351777807623
 31
0.0
  0
LINE
  5
33B
330
1F
100
AcDbEntity
  8
D-0
  6
Continuous
 62
     7
370
     9
100
AcDbLine
 10
468.7889353217255
 20
336.351777807623
 30
0.0
 11
468.0387941779267
 21
336.351777807623
 31
0.0
  0
LINE
  5
33C
330
1F
100
AcDbEntity
  8
D-0
  6
Continuous
 62
     7
370
     9
100
AcDbLine
 10
511.8229654291969
 20
339.6473605899766
 30
0.0
 11
511.8229654291969
 21
340.3975017337755
 31
0.0
  0
LINE
  5
33D
330
1F
100
AcDbEntity
  8
D-0
  6
Continuous
 62
     7
370
     9
100
AcDbLine
 10
511.8229654291969
 20
340.3975017337755
 30
0.0
 11
512.5731065729957
 21
340.3975017337755
 31
0.0
  0
LINE
  5
33E
330
1F
100
AcDbEntity
  8
D-0
  6
Continuous
 62
     7
370
     9
100
AcDbLine
 10
512.5731065729957
 20
340.3975017337755
 30
0.0
 11
512.5731065729957
 21
339.6473605899766
 31
0.0
  0
LINE
  5
33F
330
1F
100
AcDbEntity
  8
D-0
  6
Continuous
 62
     7
370
     9
100
AcDbLine
 10
512.5731065729957
 20
339.6473605899766
 30
0.0
 11
511.8229654291969
 21
339.6473605899766
 31
0.0
  0
LINE
  5
340
330
1F
100
AcDbEntity
  8
D-0
  6
Continuous
 62
     7
370
     9
100
AcDbLine
 10
505.7025974048258
 20
322.2278515975358
 30
0.0
 11
505.7025974048258
 21
322.9779927413347
 31
0.0
  0
LINE
  5
341
330
1F
100
AcDbEntity
  8
D-0
  6
Continuous
 62
     7
370
     9
100
AcDbLine
 10
505.7025974048258
 20
322.9779927413347
 30
0.0
 11
506.4527385486247
 21
322.9779927413347
 31
0.0
  0
LINE
  5
342
330
1F
100
AcDbEntity
  8
D-0
  6
Continuous
 62
     7
370
     9
100
AcDbLine
 10
506.4527385486247
 20
322.9779927413347
 30
0.0
 11
506.4527385486247
 21
322.2278515975358
 31
0.0
  0
LINE
  5
343
330
1F
100
AcDbEntity
  8
D-0
  6
Continuous
 62
     7
370
     9
100
AcDbLine
 10
506.4527385486247
 20
322.2278515975358
 30
0.0
 11
505.7025974048258
 21
322.2278515975358
 31
0.0
  0
LINE
  5
344
330
1F
100
AcDbEntity
  8
D-0
  6
Continuous
 62
     7
370
     9
100
AcDbLine
 10
484.0459105493588
 20
299.1587721210602
 30
0.0
 11
484.0459105493588
 21
299.908913264859
 31
0.0
  0
LINE
  5
345
330
1F
100
AcDbEntity
  8
D-0
  6
Continuous
 62
     7
370
     9
100
AcDbLine
 10
484.0459105493588
 20
299.908913264859
 30
0.0
 11
484.7960516931576
 21
299.908913264859
 31
0.0
  0
LINE
  5
346
330
1F
100
AcDbEntity
  8
D-0
  6
Continuous
 62
     7
370
     9
100
AcDbLine
 10
484.7960516931576
 20
299.908913264859
 30
0.0
 11
484.7960516931576
 21
299.1587721210602
 31
0.0
  0
LINE
  5
347
330
1F
100
AcDbEntity
  8
D-0
  6
Continuous
 62
     7
370
     9
100
AcDbLine
 10
484.7960516931576
 20
299.1587721210602
 30
0.0
 11
484.0459105493588
 21
299.1587721210602
 31
0.0
  0
LINE
  5
348
330
1F
100
AcDbEntity
  8
D-0
  6
Continuous
 62
     7
370
     9
100
AcDbLine
 10
460.506033532547
 20
281.2684655882832
 30
0.0
 11
460.506033532547
 21
282.018606732082
 31
0.0
  0
LINE
  5
349
330
1F
100
AcDbEntity
  8
D-0
  6
Continuous
 62
     7
370
     9
100
AcDbLine
 10
460.506033532547
 20
282.018606732082
 30
0.0
 11
461.2561746763458
 21
282.018606732082
 31
0.0
  0
LINE
  5
34A
330
1F
100
AcDbEntity
  8
D-0
  6
Continuous
 62
     7
370
     9
100
AcDbLine
 10
461.2561746763458
 20
282.018606732082
 30
0.0
 11
461.2561746763458
 21
281.2684655882832
 31
0.0
  0
LINE
  5
34B
330
1F
100
AcDbEntity
  8
D-0
  6
Continuous
 62
     7
370
     9
100
AcDbLine
 10
461.2561746763458
 20
281.2684655882832
 30
0.0
 11
460.506033532547
 21
281.2684655882832
 31
0.0
  0
LINE
  5
34C
330
1F
100
AcDbEntity
  8
D-0
  6
Continuous
 62
     7
370
     9
100
AcDbLine
 10
491.1078736544025
 20
261.9657664344974
 30
0.0
 11
491.1078736544025
 21
262.7159075782963
 31
0.0
  0
LINE
  5
34D
330
1F
100
AcDbEntity
  8
D-0
  6
Continuous
 62
     7
370
     9
100
AcDbLine
 10
491.1078736544025
 20
262.7159075782963
 30
0.0
 11
491.8580147982013
 21
262.7159075782963
 31
0.0
  0
LINE
  5
34E
330
1F
100
AcDbEntity
  8
D-0
  6
Continuous
 62
     7
370
     9
100
AcDbLine
 10
491.8580147982013
 20
262.7159075782963
 30
0.0
 11
491.8580147982013
 21
261.9657664344974
 31
0.0
  0
LINE
  5
34F
330
1F
100
AcDbEntity
  8
D-0
  6
Continuous
 62
     7
370
     9
100
AcDbLine
 10
491.8580147982013
 20
261.9657664344974
 30
0.0
 11
491.1078736544025
 21
261.9657664344974
 31
0.0
  0
LINE
  5
350
330
1F
100
AcDbEntity
  8
D-0
  6
Continuous
 62
     7
370
     9
100
AcDbLine
 10
469.9219843392717
 20
233.7179140143232
 30
0.0
 11
469.9219843392717
 21
234.468055158122
 31
0.0
  0
LINE
  5
351
330
1F
100
AcDbEntity
  8
D-0
  6
Continuous
 62
     7
370
     9
100
AcDbLine
 10
469.9219843392717
 20
234.468055158122
 30
0.0
 11
470.6721254830705
 21
234.468055158122
 31
0.0
  0
LINE
  5
352
330
1F
100
AcDbEntity
  8
D-0
  6
Continuous
 62
     7
370
     9
100
AcDbLine
 10
470.6721254830705
 20
234.468055158122
 30
0.0
 11
470.6721254830705
 21
233.7179140143232
 31
0.0
  0
LINE
  5
353
330
1F
100
AcDbEntity
  8
D-0
  6
Continuous
 62
     7
370
     9
100
AcDbLine
 10
470.6721254830705
 20
233.7179140143232
 30
0.0
 11
469.9219843392717
 21
233.7179140143232
 31
0.0
  0
LINE
  5
354
330
1F
100
AcDbEntity
  8
D-0
  6
Continuous
 62
     7
370
     9
100
AcDbLine
 10
494.4034564367561
 20
214.4152148605374
 30
0.0
 11
494.4034564367561
 21
215.1653560043362
 31
0.0
  0
LINE
  5
355
330
1F
100
AcDbEntity
  8
D-0
  6
Continuous
 62
     7
370
     9
100
AcDbLine
 10
494.4034564367561
 20
215.1653560043362
 30
0.0
 11
495.153597580555
 21
215.1653560043362
 31
0.0
  0
LINE
  5
356
330
1F
100
AcDbEntity
  8
D-0
  6
Continuous
 62
     7
370
     9
100
AcDbLine
 10
495.153597580555
 20
215.1653560043362
 30
0.0
 11
495.153597580555
 21
214.4152148605374
 31
0.0
  0
LINE
  5
357
330
1F
100
AcDbEntity
  8
D-0
  6
Continuous
 62
     7
370
     9
100
AcDbLine
 10
495.153597580555
 20
214.4152148605374
 30
0.0
 11
494.4034564367561
 21
214.4152148605374
 31
0.0
  0
LINE
  5
358
330
1F
100
AcDbEntity
  8
D-0
  6
Continuous
 62
     7
370
     9
100
AcDbLine
 10
462.0967103572519
 20
193.4985592739405
 30
0.0
 11
462.0967103572519
 21
194.2487004177394
 31
0.0
  0
LINE
  5
359
330
1F
100
AcDbEntity
  8
D-0
  6
Continuous
 62
     7
370
     9
100
AcDbLine
 10
462.0967103572519
 20
194.2487004177394
 30
0.0
 11
462.8468515010508
 21
194.2487004177394
 31
0.0
  0
LINE
  5
35A
330
1F
100
AcDbEntity
  8
D-0
  6
Continuous
 62
     7
370
     9
100
AcDbLine
 10
462.8468515010508
 20
194.2487004177394
 30
0.0
 11
462.8468515010508
 21
193.4985592739405
 31
0.0
  0
LINE
  5
35B
330
1F
100
AcDbEntity
  8
D-0
  6
Continuous
 62
     7
370
     9
100
AcDbLine
 10
462.8468515010508
 20
193.4985592739405
 30
0.0
 11
462.0967103572519
 21
193.4985592739405
 31
0.0
  0
LINE
  5
35C
330
1F
100
AcDbEntity
  8
D-0
  6
Continuous
 62
     7
370
     9
100
AcDbLine
 10
500.3952805381056
 20
177.3280518642468
 30
0.0
 11
500.3952805381056
 21
178.0781930080456
 31
0.0
  0
LINE
  5
35D
330
1F
100
AcDbEntity
  8
D-0
  6
Continuous
 62
     7
370
     9
100
AcDbLine
 10
500.3952805381056
 20
178.0781930080456
 30
0.0
 11
501.1454216819044
 21
178.0781930080456
 31
0.0
  0
LINE
  5
35E
330
1F
100
AcDbEntity
  8
D-0
  6
Continuous
 62
     7
370
     9
100
AcDbLine
 10
501.1454216819044
 20
178.0781930080456
 30
0.0
 11
501.1454216819044
 21
177.3280518642468
 31
0.0
  0
LINE
  5
35F
330
1F
100
AcDbEntity
  8
D-0
  6
Continuous
 62
     7
370
     9
100
AcDbLine
 10
501.1454216819044
 20
177.3280518642468
 30
0.0
 11
500.3952805381056
 21
177.3280518642468
 31
0.0
  0
LINE
  5
360
330
1F
100
AcDbEntity
  8
D-0
  6
Continuous
 62
     7
370
     9
100
AcDbLine
 10
478.6927574356218
 20
178.6046708702752
 30
0.0
 11
478.6927574356218
 21
179.3548120140741
 31
0.0
  0
LINE
  5
361
330
1F
100
AcDbEntity
  8
D-0
  6
Continuous
 62
     7
370
     9
100
AcDbLine
 10
478.6927574356218
 20
179.3548120140741
 30
0.0
 11
479.4428985794207
 21
179.3548120140741
 31
0.0
  0
LINE
  5
362
330
1F
100
AcDbEntity
  8
D-0
  6
Continuous
 62
     7
370
     9
100
AcDbLine
 10
479.4428985794207
 20
179.3548120140741
 30
0.0
 11
479.4428985794207
 21
178.6046708702752
 31
0.0
  0
LINE
  5
363
330
1F
100
AcDbEntity
  8
D-0
  6
Continuous
 62
     7
370
     9
100
AcDbLine
 10
479.4428985794207
 20
178.6046708702752
 30
0.0
 11
478.6927574356218
 21
178.6046708702752
 31
0.0
  0
LINE
  5
364
330
1F
100
AcDbEntity
  8
D-0
  6
Continuous
 62
     7
370
     9
100
AcDbLine
 10
489.7567888212018
 20
237.3291451475841
 30
0.0
 11
489.7567888212018
 21
238.0792862913829
 31
0.0
  0
LINE
  5
365
330
1F
100
AcDbEntity
  8
D-0
  6
Continuous
 62
     7
370
     9
100
AcDbLine
 10
489.7567888212018
 20
238.0792862913829
 30
0.0
 11
490.5069299650006
 21
238.0792862913829
 31
0.0
  0
LINE
  5
366
330
1F
100
AcDbEntity
  8
D-0
  6
Continuous
 62
     7
370
     9
100
AcDbLine
 10
490.5069299650006
 20
238.0792862913829
 30
0.0
 11
490.5069299650006
 21
237.3291451475841
 31
0.0
  0
LINE
  5
367
330
1F
100
AcDbEntity
  8
D-0
  6
Continuous
 62
     7
370
     9
100
AcDbLine
 10
490.5069299650006
 20
237.3291451475841
 30
0.0
 11
489.7567888212018
 21
237.3291451475841
 31
0.0
  0
LINE
  5
368
330
1F
100
AcDbEntity
  8
D-0
  6
Continuous
 62
     7
370
     9
100
AcDbLine
 10
461.2456310198996
 20
260.3082872560963
 30
0.0
 11
461.2456310198996
 21
261.0584283998951
 31
0.0
  0
LINE
  5
369
330
1F
100
AcDbEntity
  8
D-0
  6
Continuous
 62
     7
370
     9
100
AcDbLine
 10
461.2456310198996
 20
261.0584283998951
 30
0.0
 11
461.9957721636985
 21
261.0584283998951
 31
0.0
  0
LINE
  5
36A
330
1F
100
AcDbEntity
  8
D-0
  6
Continuous
 62
     7
370
     9
100
AcDbLine
 10
461.9957721636985
 20
261.0584283998951
 30
0.0
 11
461.9957721636985
 21
260.3082872560963
 31
0.0
  0
LINE
  5
36B
330
1F
100
AcDbEntity
  8
D-0
  6
Continuous
 62
     7
370
     9
100
AcDbLine
 10
461.9957721636985
 20
260.3082872560963
 30
0.0
 11
461.2456310198996
 21
260.3082872560963
 31
0.0
  0
LINE
  5
36C
330
1F
100
AcDbEntity
  8
D-0
  6
Continuous
 62
     7
370
     9
100
AcDbLine
 10
462.9477896946042
 20
315.6284441839958
 30
0.0
 11
462.9477896946042
 21
316.3785853277947
 31
0.0
  0
LINE
  5
36D
330
1F
100
AcDbEntity
  8
D-0
  6
Continuous
 62
     7
370
     9
100
AcDbLine
 10
462.9477896946042
 20
316.3785853277947
 30
0.0
 11
463.6979308384031
 21
316.3785853277947
 31
0.0
  0
LINE
  5
36E
330
1F
100
AcDbEntity
  8
D-0
  6
Continuous
 62
     7
370
     9
100
AcDbLine
 10
463.6979308384031
 20
316.3785853277947
 30
0.0
 11
463.6979308384031
 21
315.6284441839958
 31
0.0
  0
LINE
  5
36F
330
1F
100
AcDbEntity
  8
D-0
  6
Continuous
 62
     7
370
     9
100
AcDbLine
 10
463.6979308384031
 20
315.6284441839958
 30
0.0
 11
462.9477896946042
 21
315.6284441839958
 31
0.0
  0
LINE
  5
370
330
1F
100
AcDbEntity
  8
D-0
  6
Continuous
 62
     7
370
     9
100
AcDbLine
 10
489.7567888212018
 20
339.8842052985365
 30
0.0
 11
489.7567888212018
 21
340.6343464423353
 31
0.0
  0
LINE
  5
371
330
1F
100
AcDbEntity
  8
D-0
  6
Continuous
 62
     7
370
     9
100
AcDbLine
 10
489.7567888212018
 20
340.6343464423353
 30
0.0
 11
490.5069299650006
 21
340.6343464423353
 31
0.0
  0
LINE
  5
372
330
1F
100
AcDbEntity
  8
D-0
  6
Continuous
 62
     7
370
     9
100
AcDbLine
 10
490.5069299650006
 20
340.6343464423353
 30
0.0
 11
490.5069299650006
 21
339.8842052985365
 31
0.0
  0
LINE
  5
373
330
1F
100
AcDbEntity
  8
D-0
  6
Continuous
 62
     7
370
     9
100
AcDbLine
 10
490.5069299650006
 20
339.8842052985365
 30
0.0
 11
489.7567888212018
 21
339.8842052985365
 31
0.0
  0
LINE
  5
374
330
1F
100
AcDbEntity
  8
D-0
  6
Continuous
 62
     7
370
     9
100
AcDbLine
 10
501.671899544134
 20
282.4363500272561
 30
0.0
 11
501.671899544134
 21
283.1864911710549
 31
0.0
  0
LINE
  5
375
330
1F
100
AcDbEntity
  8
D-0
  6
Continuous
 62
     7
370
     9
100
AcDbLine
 10
501.671899544134
 20
283.1864911710549
 30
0.0
 11
502.4220406879328
 21
283.1864911710549
 31
0.0
  0
LINE
  5
376
330
1F
100
AcDbEntity
  8
D-0
  6
Continuous
 62
     7
370
     9
100
AcDbLine
 10
502.4220406879328
 20
283.1864911710549
 30
0.0
 11
502.4220406879328
 21
282.4363500272561
 31
0.0
  0
LINE
  5
377
330
1F
100
AcDbEntity
  8
D-0
  6
Continuous
 62
     7
370
     9
100
AcDbLine
 10
502.4220406879328
 20
282.4363500272561
 30
0.0
 11
501.671899544134
 21
282.4363500272561
 31
0.0
  0
LINE
  5
378
330
1F
100
AcDbEntity
  8
D-0
  6
Continuous
 62
     7
370
     9
100
AcDbLine
 10
545.5024854177773
 20
329.6712532503088
 30
0.0
 11
545.5024854177773
 21
330.4213943941077
 31
0.0
  0
LINE
  5
379
330
1F
100
AcDbEntity
  8
D-0
  6
Continuous
 62
     7
370
     9
100
AcDbLine
 10
545.5024854177773
 20
330.4213943941077
 30
0.0
 11
546.2526265615761
 21
330.4213943941077
 31
0.0
  0
LINE
  5
37A
330
1F
100
AcDbEntity
  8
D-0
  6
Continuous
 62
     7
370
     9
100
AcDbLine
 10
546.2526265615761
 20
330.4213943941077
 30
0.0
 11
546.2526265615761
 21
329.6712532503088
 31
0.0
  0
LINE
  5
37B
330
1F
100
AcDbEntity
  8
D-0
  6
Continuous
 62
     7
370
     9
100
AcDbLine
 10
546.2526265615761
 20
329.6712532503088
 30
0.0
 11
545.5024854177773
 21
329.6712532503088
 31
0.0
  0
LINE
  5
37C
330
1F
100
AcDbEntity
  8
D-0
  6
Continuous
 62
     7
370
     9
100
AcDbLine
 10
558.6942151467381
 20
321.585999545462
 30
0.0
 11
558.6942151467381
 21
322.3361406892608
 31
0.0
  0
LINE
  5
37D
330
1F
100
AcDbEntity
  8
D-0
  6
Continuous
 62
     7
370
     9
100
AcDbLine
 10
558.6942151467381
 20
322.3361406892608
 30
0.0
 11
559.4443562905369
 21
322.3361406892608
 31
0.0
  0
LINE
  5
37E
330
1F
100
AcDbEntity
  8
D-0
  6
Continuous
 62
     7
370
     9
100
AcDbLine
 10
559.4443562905369
 20
322.3361406892608
 30
0.0
 11
559.4443562905369
 21
321.585999545462
 31
0.0
  0
LINE
  5
37F
330
1F
100
AcDbEntity
  8
D-0
  6
Continuous
 62
     7
370
     9
100
AcDbLine
 10
559.4443562905369
 20
321.585999545462
 30
0.0
 11
558.6942151467381
 21
321.585999545462
 31
0.0
  0
LINE
  5
380
330
1F
100
AcDbEntity
  8
D-0
  6
Continuous
 62
     7
370
     9
100
AcDbLine
 10
561.247453158795
 20
335.628808611775
 30
0.0
 11
561.247453158795
 21
336.3789497555738
 31
0.0
  0
LINE
  5
381
330
1F
100
AcDbEntity
  8
D-0
  6
Continuous
 62
     7
370
     9
100
AcDbLine
 10
561.247453158795
 20
336.3789497555738
 30
0.0
 11
561.9975943025938
 21
336.3789497555738
 31
0.0
  0
LINE
  5
382
330
1F
100
AcDbEntity
  8
D-0
  6
Continuous
 62
     7
370
     9
100
AcDbLine
 10
561.9975943025938
 20
336.3789497555738
 30
0.0
 11
561.9975943025938
 21
335.628808611775
 31
0.0
  0
LINE
  5
383
330
1F
100
AcDbEntity
  8
D-0
  6
Continuous
 62
     7
370
     9
100
AcDbLine
 10
561.9975943025938
 20
335.628808611775
 30
0.0
 11
561.247453158795
 21
335.628808611775
 31
0.0
  0
LINE
  5
384
330
1F
100
AcDbEntity
  8
D-0
  6
Continuous
 62
     7
370
     9
100
AcDbLine
 10
480.8204557790026
 20
322.0115392141381
 30
0.0
 11
480.8204557790026
 21
322.7616803579369
 31
0.0
  0
LINE
  5
385
330
1F
100
AcDbEntity
  8
D-0
  6
Continuous
 62
     7
370
     9
100
AcDbLine
 10
480.8204557790026
 20
322.7616803579369
 30
0.0
 11
481.5705969228014
 21
322.7616803579369
 31
0.0
  0
LINE
  5
386
330
1F
100
AcDbEntity
  8
D-0
  6
Continuous
 62
     7
370
     9
100
AcDbLine
 10
481.5705969228014
 20
322.7616803579369
 30
0.0
 11
481.5705969228014
 21
322.0115392141381
 31
0.0
  0
LINE
  5
387
330
1F
100
AcDbEntity
  8
D-0
  6
Continuous
 62
     7
370
     9
100
AcDbLine
 10
481.5705969228014
 20
322.0115392141381
 30
0.0
 11
480.8204557790026
 21
322.0115392141381
 31
0.0
  0
LINE
  5
388
330
1F
100
AcDbEntity
  8
D-0
  6
Continuous
 62
     7
370
     9
100
AcDbLine
 10
479.5438367729741
 20
278.6064930091707
 30
0.0
 11
479.5438367729741
 21
279.3566341529695
 31
0.0
  0
LINE
  5
389
330
1F
100
AcDbEntity
  8
D-0
  6
Continuous
 62
     7
370
     9
100
AcDbLine
 10
479.5438367729741
 20
279.3566341529695
 30
0.0
 11
480.293977916773
 21
279.3566341529695
 31
0.0
  0
LINE
  5
38A
330
1F
100
AcDbEntity
  8
D-0
  6
Continuous
 62
     7
370
     9
100
AcDbLine
 10
480.293977916773
 20
279.3566341529695
 30
0.0
 11
480.293977916773
 21
278.6064930091707
 31
0.0
  0
LINE
  5
38B
330
1F
100
AcDbEntity
  8
D-0
  6
Continuous
 62
     7
370
     9
100
AcDbLine
 10
480.293977916773
 20
278.6064930091707
 30
0.0
 11
479.5438367729741
 21
278.6064930091707
 31
0.0
  0
LINE
  5
38C
330
1F
100
AcDbEntity
  8
D-0
  6
Continuous
 62
     7
370
     9
100
AcDbLine
 10
457.4157740018143
 20
213.4989237017197
 30
0.0
 11
457.4157740018143
 21
214.2490648455185
 31
0.0
  0
LINE
  5
38D
330
1F
100
AcDbEntity
  8
D-0
  6
Continuous
 62
     7
370
     9
100
AcDbLine
 10
457.4157740018143
 20
214.2490648455185
 30
0.0
 11
458.1659151456131
 21
214.2490648455185
 31
0.0
  0
LINE
  5
38E
330
1F
100
AcDbEntity
  8
D-0
  6
Continuous
 62
     7
370
     9
100
AcDbLine
 10
458.1659151456131
 20
214.2490648455185
 30
0.0
 11
458.1659151456131
 21
213.4989237017197
 31
0.0
  0
LINE
  5
38F
330
1F
100
AcDbEntity
  8
D-0
  6
Continuous
 62
     7
370
     9
100
AcDbLine
 10
458.1659151456131
 20
213.4989237017197
 30
0.0
 11
457.4157740018143
 21
213.4989237017197
 31
0.0
  0
LINE
  5
390
330
1F
100
AcDbEntity
  8
D-0
  6
Continuous
 62
     7
370
     9
100
AcDbLine
 10
483.3736937910595
 20
203.7115113221682
 30
0.0
 11
483.3736937910595
 21
204.461652465967
 31
0.0
  0
LINE
  5
391
330
1F
100
AcDbEntity
  8
D-0
  6
Continuous
 62
     7
370
     9
100
AcDbLine
 10
483.3736937910595
 20
204.461652465967
 30
0.0
 11
484.1238349348583
 21
204.461652465967
 31
0.0
  0
LINE
  5
392
330
1F
100
AcDbEntity
  8
D-0
  6
Continuous
 62
     7
370
     9
100
AcDbLine
 10
484.1238349348583
 20
204.461652465967
 30
0.0
 11
484.1238349348583
 21
203.7115113221682
 31
0.0
  0
LINE
  5
393
330
1F
100
AcDbEntity
  8
D-0
  6
Continuous
 62
     7
370
     9
100
AcDbLine
 10
484.1238349348583
 20
203.7115113221682
 30
0.0
 11
483.3736937910595
 21
203.7115113221682
 31
0.0
  0
LINE
  5
394
330
1F
100
AcDbEntity
  8
D-0
  6
Continuous
 62
     7
370
     9
100
AcDbLine
 10
502.9485185501625
 20
249.6697955391924
 30
0.0
 11
502.9485185501625
 21
250.4199366829913
 31
0.0
  0
LINE
  5
395
330
1F
100
AcDbEntity
  8
D-0
  6
Continuous
 62
     7
370
     9
100
AcDbLine
 10
502.9485185501625
 20
250.4199366829913
 30
0.0
 11
503.6986596939613
 21
250.4199366829913
 31
0.0
  0
LINE
  5
396
330
1F
100
AcDbEntity
  8
D-0
  6
Continuous
 62
     7
370
     9
100
AcDbLine
 10
503.6986596939613
 20
250.4199366829913
 30
0.0
 11
503.6986596939613
 21
249.6697955391924
 31
0.0
  0
LINE
  5
397
330
1F
100
AcDbEntity
  8
D-0
  6
Continuous
 62
     7
370
     9
100
AcDbLine
 10
503.6986596939613
 20
249.6697955391924
 30
0.0
 11
502.9485185501625
 21
249.6697955391924
 31
0.0
  0
LINE
  5
398
330
1F
100
AcDbEntity
  8
D-0
  6
Continuous
 62
     7
370
     9
100
AcDbLine
 10
530.6085970141123
 20
343.2885226479456
 30
0.0
 11
530.6085970141123
 21
344.0386637917445
 31
0.0
  0
LINE
  5
399
330
1F
100
AcDbEntity
  8
D-0
  6
Continuous
 62
     7
370
     9
100
AcDbLine
 10
530.6085970141123
 20
344.0386637917445
 30
0.0
 11
531.3587381579111
 21
344.0386637917445
 31
0.0
  0
LINE
  5
39A
330
1F
100
AcDbEntity
  8
D-0
  6
Continuous
 62
     7
370
     9
100
AcDbLine
 10
531.3587381579111
 20
344.0386637917445
 30
0.0
 11
531.3587381579111
 21
343.2885226479456
 31
0.0
  0
LINE
  5
39B
330
1F
100
AcDbEntity
  8
D-0
  6
Continuous
 62
     7
370
     9
100
AcDbLine
 10
531.3587381579111
 20
343.2885226479456
 30
0.0
 11
530.6085970141123
 21
343.2885226479456
 31
0.0
  0
LINE
  5
39C
330
1F
100
AcDbEntity
  8
D-0
  6
Continuous
 62
     7
370
     9
100
AcDbLine
 10
524.6510416526462
 20
320.3093805394335
 30
0.0
 11
524.6510416526462
 21
321.0595216832323
 31
0.0
  0
LINE
  5
39D
330
1F
100
AcDbEntity
  8
D-0
  6
Continuous
 62
     7
370
     9
100
AcDbLine
 10
524.6510416526462
 20
321.0595216832323
 30
0.0
 11
525.401182796445
 21
321.0595216832323
 31
0.0
  0
LINE
  5
39E
330
1F
100
AcDbEntity
  8
D-0
  6
Continuous
 62
     7
370
     9
100
AcDbLine
 10
525.401182796445
 20
321.0595216832323
 30
0.0
 11
525.401182796445
 21
320.3093805394335
 31
0.0
  0
LINE
  5
39F
330
1F
100
AcDbEntity
  8
D-0
  6
Continuous
 62
     7
370
     9
100
AcDbLine
 10
525.401182796445
 20
320.3093805394335
 30
0.0
 11
524.6510416526462
 21
320.3093805394335
 31
0.0
  0
LINE
  5
3A0
330
1F
100
AcDbEntity
  8
D-0
  6
Continuous
 62
     7
370
     9
100
AcDbLine
 10
461.2456310198996
 20
299.8834764429782
 30
0.0
 11
461.2456310198996
 21
300.6336175867771
 31
0.0
  0
LINE
  5
3A1
330
1F
100
AcDbEntity
  8
D-0
  6
Continuous
 62
     7
370
     9
100
AcDbLine
 10
461.2456310198996
 20
300.6336175867771
 30
0.0
 11
461.9957721636985
 21
300.6336175867771
 31
0.0
  0
LINE
  5
3A2
330
1F
100
AcDbEntity
  8
D-0
  6
Continuous
 62
     7
370
     9
100
AcDbLine
 10
461.9957721636985
 20
300.6336175867771
 30
0.0
 11
461.9957721636985
 21
299.8834764429782
 31
0.0
  0
LINE
  5
3A3
330
1F
100
AcDbEntity
  8
D-0
  6
Continuous
 62
     7
370
     9
100
AcDbLine
 10
461.9957721636985
 20
299.8834764429782
 30
0.0
 11
461.2456310198996
 21
299.8834764429782
 31
0.0
  0
LINE
  5
3A4
330
1F
100
AcDbEntity
  8
D-0
  6
Continuous
 62
     7
370
     9
100
AcDbLine
 10
453.5859169837289
 20
344.9906813226502
 30
0.0
 11
453.5859169837289
 21
345.7408224664491
 31
0.0
  0
LINE
  5
3A5
330
1F
100
AcDbEntity
  8
D-0
  6
Continuous
 62
     7
370
     9
100
AcDbLine
 10
453.5859169837289
 20
345.7408224664491
 30
0.0
 11
454.3360581275277
 21
345.7408224664491
 31
0.0
  0
LINE
  5
3A6
330
1F
100
AcDbEntity
  8
D-0
  6
Continuous
 62
     7
370
     9
100
AcDbLine
 10
454.3360581275277
 20
345.7408224664491
 30
0.0
 11
454.3360581275277
 21
344.9906813226502
 31
0.0
  0
LINE
  5
3A7
330
1F
100
AcDbEntity
  8
D-0
  6
Continuous
 62
     7
370
     9
100
AcDbLine
 10
454.3360581275277
 20
344.9906813226502
 30
0.0
 11
453.5859169837289
 21
344.9906813226502
 31
0.0
  0
LINE
  5
3A8
330
1F
100
AcDbEntity
  8
D-0
  6
Continuous
 62
     7
370
     9
100
AcDbLine
 10
458.5006649077357
 20
168.8098089326419
 30
0.0
 11
458.5006649077357
 21
169.5599500764407
 31
0.0
  0
LINE
  5
3A9
330
1F
100
AcDbEntity
  8
D-0
  6
Continuous
 62
     7
370
     9
100
AcDbLine
 10
458.5006649077357
 20
169.5599500764407
 30
0.0
 11
459.2508060515345
 21
169.5599500764407
 31
0.0
  0
LINE
  5
3AA
330
1F
100
AcDbEntity
  8
D-0
  6
Continuous
 62
     7
370
     9
100
AcDbLine
 10
459.2508060515345
 20
169.5599500764407
 30
0.0
 11
459.2508060515345
 21
168.8098089326419
 31
0.0
  0
LINE
  5
3AB
330
1F
100
AcDbEntity
  8
D-0
  6
Continuous
 62
     7
370
     9
100
AcDbLine
 10
459.2508060515345
 20
168.8098089326419
 30
0.0
 11
458.5006649077357
 21
168.8098089326419
 31
0.0
  0
LINE
  5
3AC
330
1F
100
AcDbEntity
  8
D-0
  6
Continuous
 62
     7
370
     9
100
AcDbLine
 10
503.8684736262715
 20
193.6427147575246
 30
0.0
 11
503.8684736262715
 21
194.3928559013234
 31
0.0
  0
LINE
  5
3AD
330
1F
100
AcDbEntity
  8
D-0
  6
Continuous
 62
     7
370
     9
100
AcDbLine
 10
503.8684736262715
 20
194.3928559013234
 30
0.0
 11
504.6186147700703
 21
194.3928559013234
 31
0.0
  0
LINE
  5
3AE
330
1F
100
AcDbEntity
  8
D-0
  6
Continuous
 62
     7
370
     9
100
AcDbLine
 10
504.6186147700703
 20
194.3928559013234
 30
0.0
 11
504.6186147700703
 21
193.6427147575246
 31
0.0
  0
LINE
  5
3AF
330
1F
100
AcDbEntity
  8
D-0
  6
Continuous
 62
     7
370
     9
100
AcDbLine
 10
504.6186147700703
 20
193.6427147575246
 30
0.0
 11
503.8684736262715
 21
193.6427147575246
 31
0.0
  0
LINE
  5
3B0
330
1F
100
AcDbEntity
  8
D-0
  6
Continuous
 62
     7
370
     9
100
AcDbLine
 10
582.4365411681919
 20
381.1613869536395
 30
0.0
 11
582.4365411681919
 21
381.9115280974383
 31
0.0
  0
LINE
  5
3B1
330
1F
100
AcDbEntity
  8
D-0
  6
Continuous
 62
     7
370
     9
100
AcDbLine
 10
582.4365411681919
 20
381.9115280974383
 30
0.0
 11
583.1866823119907
 21
381.9115280974383
 31
0.0
  0
LINE
  5
3B2
330
1F
100
AcDbEntity
  8
D-0
  6
Continuous
 62
     7
370
     9
100
AcDbLine
 10
583.1866823119907
 20
381.9115280974383
 30
0.0
 11
583.1866823119907
 21
381.1613869536395
 31
0.0
  0
LINE
  5
3B3
330
1F
100
AcDbEntity
  8
D-0
  6
Continuous
 62
     7
370
     9
100
AcDbLine
 10
583.1866823119907
 20
381.1613869536395
 30
0.0
 11
582.4365411681919
 21
381.1613869536395
 31
0.0
  0
LINE
  5
3B4
330
1F
100
AcDbEntity
  8
D-0
  6
Continuous
 62
     7
370
     9
100
AcDbLine
 10
651.062301103064
 20
381.673493298294
 30
0.0
 11
651.062301103064
 21
382.4236344420929
 31
0.0
  0
LINE
  5
3B5
330
1F
100
AcDbEntity
  8
D-0
  6
Continuous
 62
     7
370
     9
100
AcDbLine
 10
651.062301103064
 20
382.4236344420929
 30
0.0
 11
651.8124422468628
 21
382.4236344420929
 31
0.0
  0
LINE
  5
3B6
330
1F
100
AcDbEntity
  8
D-0
  6
Continuous
 62
     7
370
     9
100
AcDbLine
 10
651.8124422468628
 20
382.4236344420929
 30
0.0
 11
651.8124422468628
 21
381.673493298294
 31
0.0
  0
LINE
  5
3B7
330
1F
100
AcDbEntity
  8
D-0
  6
Continuous
 62
     7
370
     9
100
AcDbLine
 10
651.8124422468628
 20
381.673493298294
 30
0.0
 11
651.062301103064
 21
381.673493298294
 31
0.0
  0
LINE
  5
3B8
330
1F
100
AcDbEntity
  8
D-0
  6
Continuous
 62
     7
370
     9
100
AcDbLine
 10
707.4317411897982
 20
374.7001974367862
 30
0.0
 11
707.4317411897982
 21
375.450338580585
 31
0.0
  0
LINE
  5
3B9
330
1F
100
AcDbEntity
  8
D-0
  6
Continuous
 62
     7
370
     9
100
AcDbLine
 10
707.4317411897982
 20
375.450338580585
 30
0.0
 11
708.1818823335971
 21
375.450338580585
 31
0.0
  0
LINE
  5
3BA
330
1F
100
AcDbEntity
  8
D-0
  6
Continuous
 62
     7
370
     9
100
AcDbLine
 10
708.1818823335971
 20
375.450338580585
 30
0.0
 11
708.1818823335971
 21
374.7001974367862
 31
0.0
  0
LINE
  5
3BB
330
1F
100
AcDbEntity
  8
D-0
  6
Continuous
 62
     7
370
     9
100
AcDbLine
 10
708.1818823335971
 20
374.7001974367862
 30
0.0
 11
707.4317411897982
 21
374.7001974367862
 31
0.0
  0
LINE
  5
3BC
330
1F
100
AcDbEntity
  8
D-0
  6
Continuous
 62
     7
370
     9
100
AcDbLine
 10
563.849496696023
 20
409.9540240463363
 30
0.0
 11
563.849496696023
 21
410.7041651901351
 31
0.0
  0
LINE
  5
3BD
330
1F
100
AcDbEntity
  8
D-0
  6
Continuous
 62
     7
370
     9
100
AcDbLine
 10
563.849496696023
 20
410.7041651901351
 30
0.0
 11
564.5996378398219
 21
410.7041651901351
 31
0.0
  0
LINE
  5
3BE
330
1F
100
AcDbEntity
  8
D-0
  6
Continuous
 62
     7
370
     9
100
AcDbLine
 10
564.5996378398219
 20
410.7041651901351
 30
0.0
 11
564.5996378398219
 21
409.9540240463363
 31
0.0
  0
LINE
  5
3BF
330
1F
100
AcDbEntity
  8
D-0
  6
Continuous
 62
     7
370
     9
100
AcDbLine
 10
564.5996378398219
 20
409.9540240463363
 30
0.0
 11
563.849496696023
 21
409.9540240463363
 31
0.0
  0
LINE
  5
3C0
330
1F
100
AcDbEntity
  8
D-0
  6
Continuous
 62
     7
370
     9
100
AcDbLine
 10
545.226838433834
 20
408.0708338849914
 30
0.0
 11
545.226838433834
 21
408.8209750287902
 31
0.0
  0
LINE
  5
3C1
330
1F
100
AcDbEntity
  8
D-0
  6
Continuous
 62
     7
370
     9
100
AcDbLine
 10
545.226838433834
 20
408.8209750287902
 30
0.0
 11
545.9769795776328
 21
408.8209750287902
 31
0.0
  0
LINE
  5
3C2
330
1F
100
AcDbEntity
  8
D-0
  6
Continuous
 62
     7
370
     9
100
AcDbLine
 10
545.9769795776328
 20
408.8209750287902
 30
0.0
 11
545.9769795776328
 21
408.0708338849914
 31
0.0
  0
LINE
  5
3C3
330
1F
100
AcDbEntity
  8
D-0
  6
Continuous
 62
     7
370
     9
100
AcDbLine
 10
545.9769795776328
 20
408.0708338849914
 30
0.0
 11
545.226838433834
 21
408.0708338849914
 31
0.0
  0
LINE
  5
3C4
330
1F
100
AcDbEntity
  8
D-0
  6
Continuous
 62
     7
370
     9
100
AcDbLine
 10
666.9118525889736
 20
407.7838755075678
 30
0.0
 11
666.9118525889736
 21
408.5339975778803
 31
0.0
  0
LINE
  5
3C5
330
1F
100
AcDbEntity
  8
D-0
  6
Continuous
 62
     7
370
     9
100
AcDbLine
 10
666.9118525889736
 20
408.5339975778803
 30
0.0
 11
667.6619937327724
 21
408.5339975778803
 31
0.0
  0
LINE
  5
3C6
330
1F
100
AcDbEntity
  8
D-0
  6
Continuous
 62
     7
370
     9
100
AcDbLine
 10
667.6619937327724
 20
408.5339975778803
 30
0.0
 11
667.6619937327724
 21
407.7838755075678
 31
0.0
  0
LINE
  5
3C7
330
1F
100
AcDbEntity
  8
D-0
  6
Continuous
 62
     7
370
     9
100
AcDbLine
 10
667.6619937327724
 20
407.7838755075678
 30
0.0
 11
666.9118525889736
 21
407.7838755075678
 31
0.0
  0
TEXT
  5
3C8
330
1F
100
AcDbEntity
  8
D-4
  6
Continuous
 62
     7
370
     9
100
AcDbText
 10
587.9631790049702
 20
579.9544990165551
 30
0.0
 40
11.43
  1
蓋フレーム（Ａ６０６３Ｓ－Ｔ５）
 50
0.0000255446035848
 41
1.15625
  7
ＭＳ ゴシック
100
AcDbText
  0
TEXT
  5
3C9
330
1F
100
AcDbEntity
  8
D-4
  6
Continuous
 62
     7
370
     9
100
AcDbText
 10
613.9490626812219
 20
541.0474943250852
 30
0.0
 40
11.43
  1
アルミ受枠（Ａ６０６３Ｓ－Ｔ５）
 41
1.15625
  7
ＭＳ ゴシック
100
AcDbText
  0
TEXT
  5
3CA
330
1F
100
AcDbEntity
  8
D-4
  6
Continuous
 62
     7
370
     9
100
AcDbText
 10
641.3184694905251
 20
501.8253995383495
 30
0.0
 40
11.43
  1
アンカー（ＳＰＨＣ）
 50
359.9999589064881
 41
1.15
  7
ＭＳ ゴシック
100
AcDbText
  0
LINE
  5
3CB
330
1F
100
AcDbEntity
  8
D-4
  6
Continuous
 62
     7
370
     9
100
AcDbLine
 10
557.70919387405
 20
367.6670239921344
 30
0.0
 11
637.0092536911109
 21
497.68757898829
 31
0.0
  0
LINE
  5
3CC
330
1F
100
AcDbEntity
  8
D-4
  6
Continuous
 62
     7
370
     9
100
AcDbLine
 10
816.5981821970895
 20
497.68757898829
 30
0.0
 11
637.0092536911109
 21
497.68757898829
 31
0.0
  0
LINE
  5
3CD
330
1F
100
AcDbEntity
  8
D-4
  6
Continuous
 62
     7
370
     9
100
AcDbLine
 10
526.4983718459672
 20
407.0419992481521
 30
0.0
 11
605.3621405013994
 21
536.3468100385037
 31
0.0
  0
LINE
  5
3CE
330
1F
100
AcDbEntity
  8
D-4
  6
Continuous
 62
     7
370
     9
100
AcDbLine
 10
878.7724978717836
 20
536.3468100385037
 30
0.0
 11
605.3621405013994
 21
536.3468100385037
 31
0.0
  0
LINE
  5
3CF
330
1F
100
AcDbEntity
  8
D-4
  6
Continuous
 62
     7
370
     9
100
AcDbLine
 10
509.406466097445
 20
454.5419085202172
 30
0.0
 11
583.5069321953281
 21
576.0373947882927
 31
0.0
  0
LINE
  5
3D0
330
1F
100
AcDbEntity
  8
D-4
  6
Continuous
 62
     7
370
     9
100
AcDbLine
 10
866.4032285780758
 20
576.0373947882927
 30
0.0
 11
583.5069321953281
 21
576.0373947882927
 31
0.0
  0
LINE
  5
3D1
330
1F
100
AcDbEntity
  8
D-4
  6
Continuous
 62
     7
370
     9
100
AcDbLine
 10
138.8631047429266
 20
549.0197910403763
 30
0.0
 11
545.0316145613388
 21
549.0197910403763
 31
0.0
  0
LINE
  5
3D2
330
1F
100
AcDbEntity
  8
D-4
  6
Continuous
 62
     7
370
     9
100
AcDbLine
 10
512.5316310573269
 20
466.627611777185
 30
0.0
 11
512.5316310573269
 21
550.5197712451904
 31
0.0
  0
LINE
  5
3D3
330
1F
100
AcDbEntity
  8
D-4
  6
Continuous
 62
     7
370
     9
100
AcDbLine
 10
515.0315155854096
 20
466.627611777185
 30
0.0
 11
515.0315155854096
 21
550.5197712451904
 31
0.0
  0
LINE
  5
3D4
330
1F
100
AcDbEntity
  8
D-4
  6
Continuous
 62
     7
370
     9
100
AcDbLine
 10
545.0316145613388
 20
466.627611777185
 30
0.0
 11
545.0316145613388
 21
591.5180754576058
 31
0.0
  0
LINE
  5
3D5
330
1F
100
AcDbEntity
  8
D-4
  6
Continuous
 62
     7
370
     9
100
AcDbLine
 10
138.8631047429266
 20
590.0180952527917
 30
0.0
 11
545.0316145613388
 21
590.0180952527917
 31
0.0
  0
TEXT
  5
3D6
330
1F
100
AcDbEntity
  8
D-4
  6
Continuous
 62
     2
370
     9
100
AcDbText
 10
497.7810174065668
 20
554.3396755684589
 30
0.0
 40
15.24
  1
1
 41
0.9999999999999998
  7
ＭＳ ゴシック
100
AcDbText
  0
TEXT
  5
3D7
330
1F
100
AcDbEntity
  8
D-4
  6
Continuous
 62
     2
370
     9
100
AcDbText
 10
519.4067506532413
 20
554.3396755684589
 30
0.0
 40
15.24
  1
12
 41
1.0625
  7
ＭＳ ゴシック
100
AcDbText
  0
LWPOLYLINE
  5
3D8
330
1F
100
AcDbEntity
  8
D-4
  6
Continuous
 62
     7
370
     9
100
AcDbPolyline
 90
        4
 70
     1
 43
0.5
 10
512.7816310573268
 20
549.0197910403763
 42
0.4142135623731
 10
512.5316310573269
 20
549.2697910403762
 42
0.4142135623731
 10
512.2816310573269
 20
549.0197910403763
 42
0.4142135623731
 10
512.5316310573269
 20
548.7697910403763
 42
0.4142135623731
  0
LWPOLYLINE
  5
3D9
330
1F
100
AcDbEntity
  8
D-4
  6
Continuous
 62
     7
370
     9
100
AcDbPolyline
 90
        4
 70
     1
 43
0.5
 10
515.2815155854096
 20
549.0197910403763
 42
0.4142135623731
 10
515.0315155854096
 20
549.2697910403762
 42
0.4142135623731
 10
514.7815155854097
 20
549.0197910403763
 42
0.4142135623731
 10
515.0315155854096
 20
548.7697910403763
 42
0.4142135623731
  0
LWPOLYLINE
  5
3DA
330
1F
100
AcDbEntity
  8
D-4
  6
Continuous
 62
     7
370
     9
100
AcDbPolyline
 90
        4
 70
     1
 43
0.5
 10
545.2816145613388
 20
549.0197910403763
 42
0.4142135623731
 10
545.0316145613388
 20
549.2697910403762
 42
0.4142135623731
 10
544.7816145613389
 20
549.0197910403763
 42
0.4142135623731
 10
545.0316145613388
 20
548.7697910403763
 42
0.4142135623731
  0
LWPOLYLINE
  5
3DB
330
1F
100
AcDbEntity
  8
D-4
  6
Continuous
 62
     7
370
     9
100
AcDbPolyline
 90
        4
 70
     1
 43
0.5
 10
545.2816145613388
 20
590.0180952527917
 42
0.4142135623731
 10
545.0316145613388
 20
590.2680952527917
 42
0.4142135623731
 10
544.7816145613389
 20
590.0180952527917
 42
0.4142135623731
 10
545.0316145613388
 20
589.7680952527917
 42
0.4142135623731
  0
TEXT
  5
3DC
330
1F
100
AcDbEntity
  8
D-4
  6
Continuous
 62
     2
370
     9
100
AcDbText
 10
139.8409679390173
 20
554.3396755684071
 30
0.0
 40
15.24
  1
□600
 50
0.0002181117649
 41
1.1
  7
ＭＳ ゴシック
100
AcDbText
  0
TEXT
  5
3DD
330
1F
100
AcDbEntity
  8
D-4
  6
Continuous
 62
     2
370
     9
100
AcDbText
 10
139.000425596495
 20
595.9474240640249
 30
0.0
 40
15.24
  1
□626
 41
1.1
  7
ＭＳ ゴシック
100
AcDbText
  0
LINE
  5
3DE
330
1F
100
AcDbEntity
  8
D-4
  6
Continuous
 62
     7
370
     9
100
AcDbLine
 10
275.0317135372677
 20
515.1047356538206
 30
0.0
 11
512.5316310573269
 21
515.1047356538206
 31
0.0
  0
LWPOLYLINE
  5
3DF
330
1F
100
AcDbEntity
  8
D-4
  6
Continuous
 62
     7
370
     9
100
AcDbPolyline
 90
        4
 70
     1
 43
0.5
 10
275.2817135372677
 20
515.1047356538206
 42
0.4142135623731
 10
275.0317135372677
 20
515.3547356538205
 42
0.4142135623731
 10
274.7817135372677
 20
515.1047356538206
 42
0.4142135623731
 10
275.0317135372677
 20
514.8547356538206
 42
0.4142135623731
  0
LWPOLYLINE
  5
3E0
330
1F
100
AcDbEntity
  8
D-4
  6
Continuous
 62
     7
370
     9
100
AcDbPolyline
 90
        4
 70
     1
 43
0.5
 10
512.7816310573268
 20
515.1047356538206
 42
0.4142135623731
 10
512.5316310573269
 20
515.3547356538205
 42
0.4142135623731
 10
512.2816310573269
 20
515.1047356538206
 42
0.4142135623731
 10
512.5316310573269
 20
514.8547356538206
 42
0.4142135623731
  0
LINE
  5
3E1
330
1F
100
AcDbEntity
  8
D-4
  6
Continuous
 62
     7
370
     9
100
AcDbLine
 10
275.0317135372677
 20
516.6047356538205
 30
0.0
 11
275.0317135372677
 21
471.3128518268049
 31
0.0
  0
TEXT
  5
3E2
330
1F
100
AcDbEntity
  8
D-4
  6
Continuous
 62
     2
370
   211
100
AcDbText
 10
383.1566722972973
 20
520.9247356538206
 30
0.0
 40
15.24
  1
95
 41
1.0625
  7
ＭＳ ゴシック
100
AcDbText
  0
LINE
  5
3E3
330
1F
100
AcDbEntity
  8
D-0
  6
Continuous
 62
     4
370
     9
100
AcDbLine
 10
296.9198039747312
 20
-371.430697301623
 30
0.0
 11
526.9199132606525
 21
-371.430697301623
 31
0.0
  0
LINE
  5
3E4
330
1F
100
AcDbEntity
  8
D-0
  6
Continuous
 62
     4
370
     9
100
AcDbLine
 10
276.9199545006232
 20
-110.4459063850438
 30
0.0
 11
546.9198555246942
 21
-110.4459063850438
 31
0.0
  0
LINE
  5
3E5
330
1F
100
AcDbEntity
  8
D-0
  6
Continuous
 62
     4
370
     9
100
AcDbLine
 10
271.9199380046349
 20
-242.9461579488635
 30
0.0
 11
271.9199380046349
 21
-115.4460466009432
 31
0.0
  0
LINE
  5
3E6
330
1F
100
AcDbEntity
  8
D-0
  6
Continuous
 62
     4
370
     9
100
AcDbLine
 10
546.9198555246942
 20
-247.946298164763
 30
0.0
 11
276.9199545006232
 21
-247.946298164763
 31
0.0
  0
LINE
  5
3E7
330
1F
100
AcDbEntity
  8
D-0
  6
Continuous
 62
     4
370
     9
100
AcDbLine
 10
551.9199957405937
 20
-242.9461579488635
 30
0.0
 11
551.9199957405937
 21
-115.4460466009432
 31
0.0
  0
LINE
  5
3E8
330
1F
100
AcDbEntity
  8
D-0
  6
Continuous
 62
     4
370
     9
100
AcDbLine
 10
273.3858952338368
 20
-111.9103789753099
 30
0.0
 11
298.3859777137775
 21
-136.910585175162
 31
0.0
  0
LINE
  5
3E9
330
1F
100
AcDbEntity
  8
D-0
  6
Continuous
 62
     4
370
     9
100
AcDbLine
 10
550.455399430416
 20
-246.4825678939648
 30
0.0
 11
525.4553169504754
 21
-221.4824235540683
 31
0.0
  0
LINE
  5
3EA
330
1F
100
AcDbEntity
  8
D-0
  6
Continuous
 62
     4
370
     9
100
AcDbLine
 10
273.3858952338368
 20
-246.4825678939648
 30
0.0
 11
298.3859777137775
 21
-221.4824235540683
 31
0.0
  0
LINE
  5
3EB
330
1F
100
AcDbEntity
  8
D-0
  6
Continuous
 62
     4
370
     9
100
AcDbLine
 10
526.9199132606525
 20
-217.9470033682574
 30
0.0
 11
526.9199132606525
 21
-140.4468714003521
 31
0.0
  0
LINE
  5
3EC
330
1F
100
AcDbEntity
  8
D-0
  6
Continuous
 62
     4
370
     9
100
AcDbLine
 10
301.9200060505864
 20
-222.94695800429
 30
0.0
 11
521.9195256049306
 21
-222.94695800429
 31
0.0
  0
LINE
  5
3ED
330
1F
100
AcDbEntity
  8
D-0
  6
Continuous
 62
     4
370
     9
100
AcDbLine
 10
301.9200060505864
 20
-135.4464837446299
 30
0.0
 11
521.9195256049306
 21
-135.4464837446299
 31
0.0
  0
LINE
  5
3EE
330
1F
100
AcDbEntity
  8
D-0
  6
Continuous
 62
     4
370
     9
100
AcDbLine
 10
296.9198039747312
 20
-140.4468714003521
 30
0.0
 11
296.9198039747312
 21
-217.9470033682574
 31
0.0
  0
LINE
  5
3EF
330
1F
100
AcDbEntity
  8
D-2
  6
Continuous
 62
     3
370
     9
100
AcDbLine
 10
330.2948893414697
 20
-189.9461562992647
 30
0.0
 11
330.2948893414697
 21
-168.4465431301874
 31
0.0
  0
LINE
  5
3F0
330
1F
100
AcDbEntity
  8
D-2
  6
Continuous
 62
     3
370
     9
100
AcDbLine
 10
334.5448848050734
 20
-194.1961208328901
 30
0.0
 11
489.2949252202442
 21
-194.1961208328901
 31
0.0
  0
LINE
  5
3F1
330
1F
100
AcDbEntity
  8
D-0
  6
Continuous
 62
     4
370
     9
100
AcDbLine
 10
329.0448852174728
 20
-190.4461084608989
 30
0.0
 11
329.0448852174728
 21
-167.9461579488635
 31
0.0
  0
LINE
  5
3F2
330
1F
100
AcDbEntity
  8
D-0
  6
Continuous
 62
     4
370
     9
100
AcDbLine
 10
489.7949392418343
 20
-162.9461414528753
 30
0.0
 11
334.0448707834832
 21
-162.9461414528753
 31
0.0
  0
LINE
  5
3F3
330
1F
100
AcDbEntity
  8
D-0
  6
Continuous
 62
     4
370
     9
100
AcDbLine
 10
494.7949248078442
 20
-190.4461084608989
 30
0.0
 11
494.7949248078442
 21
-167.9461579488635
 31
0.0
  0
LINE
  5
3F4
330
1F
100
AcDbEntity
  8
D-0
  6
Continuous
 62
     4
370
     9
100
AcDbLine
 10
489.7949392418343
 20
-195.4461249568871
 30
0.0
 11
334.0448707834832
 21
-195.4461249568871
 31
0.0
  0
LINE
  5
3F5
330
1F
100
AcDbEntity
  8
D-0
  6
JWW_CENTER1
 62
     4
370
     9
100
AcDbLine
 10
267.0582403694998
 20
-179.1961332048812
 30
0.0
 11
560.3464351805218
 21
-179.1961332048812
 31
0.0
  0
LINE
  5
3F6
330
1F
100
AcDbEntity
  8
D-2
  6
Continuous
 62
     3
370
     9
100
AcDbLine
 10
489.2945849904879
 20
-164.1961455768724
 30
0.0
 11
334.5457817744301
 21
-164.1961455768724
 31
0.0
  0
LINE
  5
3F7
330
1F
100
AcDbEntity
  8
D-2
  6
Continuous
 62
     3
370
     9
100
AcDbLine
 10
493.544580454091
 20
-168.4461719704534
 30
0.0
 11
493.544580454091
 21
-190.0046758173179
 31
0.0
  0
LINE
  5
3F8
330
1F
100
AcDbEntity
  8
D-0
  6
Continuous
 62
     4
370
     9
100
AcDbLine
 10
550.455399430416
 20
-111.9103789753099
 30
0.0
 11
525.4553169504754
 21
-136.910585175162
 31
0.0
  0
LINE
  5
3F9
330
1F
100
AcDbEntity
  8
D-0
  6
JWW_CENTER1
 62
     4
370
     9
100
AcDbLine
 10
411.9199050126588
 20
-103.2930397122186
 30
0.0
 11
411.9199050126588
 21
-257.455627058476
 31
0.0
  0
ARC
  5
3FA
330
1F
100
AcDbEntity
  8
D-0
  6
Continuous
 62
     4
370
     9
100
AcDbCircle
 10
521.9195256049306
 20
-140.4468714003521
 30
0.0
 40
4.99999958115655
100
AcDbArc
 50
0.0
 51
90.0
  0
ARC
  5
3FB
330
1F
100
AcDbEntity
  8
D-0
  6
Continuous
 62
     4
370
     9
100
AcDbCircle
 10
521.9195256049306
 20
-217.9470033682574
 30
0.0
 40
4.99999958115655
100
AcDbArc
 50
270.0
 51
0.0
  0
ARC
  5
3FC
330
1F
100
AcDbEntity
  8
D-0
  6
Continuous
 62
     4
370
     9
100
AcDbCircle
 10
301.9200060505864
 20
-217.9470033682574
 30
0.0
 40
4.99999958115655
100
AcDbArc
 50
180.0
 51
270.0
  0
ARC
  5
3FD
330
1F
100
AcDbEntity
  8
D-0
  6
Continuous
 62
     4
370
     9
100
AcDbCircle
 10
301.9200060505864
 20
-140.4468714003521
 30
0.0
 40
4.99999958115655
100
AcDbArc
 50
90.0
 51
180.0
  0
ARC
  5
3FE
330
1F
100
AcDbEntity
  8
D-0
  6
Continuous
 62
     4
370
     9
100
AcDbCircle
 10
546.9198555246942
 20
-115.4460466009432
 30
0.0
 40
5.000000064437454
100
AcDbArc
 50
0.0
 51
90.0
  0
ARC
  5
3FF
330
1F
100
AcDbEntity
  8
D-0
  6
Continuous
 62
     4
370
     9
100
AcDbCircle
 10
276.9198307807118
 20
-115.4460466009432
 30
0.0
 40
5.000000064437454
100
AcDbArc
 50
90.0
 51
180.0
  0
ARC
  5
400
330
1F
100
AcDbEntity
  8
D-0
  6
Continuous
 62
     4
370
     9
100
AcDbCircle
 10
276.9198307807118
 20
-242.9460960889078
 30
0.0
 40
5.000000064437454
100
AcDbArc
 50
180.0
 51
270.0
  0
ARC
  5
401
330
1F
100
AcDbEntity
  8
D-0
  6
Continuous
 62
     4
370
     9
100
AcDbCircle
 10
546.9198555246942
 20
-242.9460960889078
 30
0.0
 40
5.000000064437454
100
AcDbArc
 50
270.0
 51
0.0
  0
ARC
  5
402
330
1F
100
AcDbEntity
  8
D-2
  6
Continuous
 62
     3
370
     9
100
AcDbCircle
 10
334.5457817744301
 20
-168.4465431301874
 30
0.0
 40
4.250002229535902
100
AcDbArc
 50
90.0
 51
180.0
  0
ARC
  5
403
330
1F
100
AcDbEntity
  8
D-2
  6
Continuous
 62
     3
370
     9
100
AcDbCircle
 10
489.2949252202442
 20
-189.945723279575
 30
0.0
 40
4.250002229535902
100
AcDbArc
 50
270.0
 51
359.2052154541016
  0
ARC
  5
404
330
1F
100
AcDbEntity
  8
D-2
  6
Continuous
 62
     3
370
     9
100
AcDbCircle
 10
334.5448848050734
 20
-189.9461562992647
 30
0.0
 40
4.250000296412288
100
AcDbArc
 50
180.0
 51
270.0
  0
ARC
  5
405
330
1F
100
AcDbEntity
  8
D-0
  6
Continuous
 62
     4
370
     9
100
AcDbCircle
 10
411.9199050126588
 20
-179.1961332048812
 30
0.0
 40
31.25000064437454
100
AcDbArc
 50
211.3322448730469
 51
328.6677551269532
  0
ARC
  5
406
330
1F
100
AcDbEntity
  8
D-0
  6
Continuous
 62
     4
370
     9
100
AcDbCircle
 10
411.9199050126588
 20
-179.1961332048812
 30
0.0
 40
31.25000064437454
100
AcDbArc
 50
31.33224487304688
 51
148.6677551269531
  0
ARC
  5
407
330
1F
100
AcDbEntity
  8
D-0
  6
Continuous
 62
     4
370
     9
100
AcDbCircle
 10
334.0448707834832
 20
-167.9461579488635
 30
0.0
 40
5.000000064437454
100
AcDbArc
 50
90.0
 51
180.0
  0
ARC
  5
408
330
1F
100
AcDbEntity
  8
D-0
  6
Continuous
 62
     4
370
     9
100
AcDbCircle
 10
334.0448707834832
 20
-190.4461084608989
 30
0.0
 40
5.000000064437454
100
AcDbArc
 50
180.0
 51
270.0
  0
ARC
  5
409
330
1F
100
AcDbEntity
  8
D-0
  6
Continuous
 62
     4
370
     9
100
AcDbCircle
 10
489.7949392418343
 20
-167.9461579488635
 30
0.0
 40
5.000000064437454
100
AcDbArc
 50
0.0
 51
90.0
  0
ARC
  5
40A
330
1F
100
AcDbEntity
  8
D-0
  6
Continuous
 62
     4
370
     9
100
AcDbCircle
 10
489.7949392418343
 20
-190.4461084608989
 30
0.0
 40
5.000000064437454
100
AcDbArc
 50
270.0
 51
0.0
  0
ARC
  5
40B
330
1F
100
AcDbEntity
  8
D-2
  6
Continuous
 62
     3
370
     9
100
AcDbCircle
 10
489.2945849904879
 20
-168.4461719704534
 30
0.0
 40
4.250000296412288
100
AcDbArc
 50
0.0
 51
90.0
  0
LINE
  5
40C
330
1F
100
AcDbEntity
  8
D-0
  6
Continuous
 62
     4
370
     9
100
AcDbLine
 10
274.049033958499
 20
-374.8612030026365
 30
0.0
 11
296.9198039747312
 21
-371.430697301623
 31
0.0
  0
LINE
  5
40D
330
1F
100
AcDbEntity
  8
D-0
  6
Continuous
 62
     4
370
     9
100
AcDbLine
 10
271.9199380046349
 20
-377.3335598504511
 30
0.0
 11
271.9199380046349
 21
-377.6805942016967
 31
0.0
  0
LINE
  5
40E
330
1F
100
AcDbEntity
  8
D-2
  6
Continuous
 62
     3
370
     9
100
AcDbLine
 10
331.9196410768478
 20
-471.4305942016967
 30
0.0
 11
491.9196740688244
 21
-471.4305942016967
 31
0.0
  0
LINE
  5
40F
330
1F
100
AcDbEntity
  8
D-2
  6
Continuous
 62
     3
370
     9
100
AcDbLine
 10
331.9196410768478
 20
-477.6806766816377
 30
0.0
 11
491.9196740688244
 21
-477.6806766816377
 31
0.0
  0
LINE
  5
410
330
1F
100
AcDbEntity
  8
D-2
  6
Continuous
 62
     3
370
     9
100
AcDbLine
 10
374.4199050126588
 20
-467.9305579105228
 30
0.0
 11
381.9198060367296
 21
-470.6806040992898
 31
0.0
  0
LINE
  5
411
330
1F
100
AcDbEntity
  8
D-2
  6
Continuous
 62
     3
370
     9
100
AcDbLine
 10
449.4199050126588
 20
-467.9305579105228
 30
0.0
 11
441.9200039885874
 21
-470.6806040992898
 31
0.0
  0
LINE
  5
412
330
1F
100
AcDbEntity
  8
D-2
  6
Continuous
 62
     3
370
     9
100
AcDbLine
 10
381.9198060367296
 20
-470.6806040992898
 30
0.0
 11
381.9198060367296
 21
-471.4305942016967
 31
0.0
  0
LINE
  5
413
330
1F
100
AcDbEntity
  8
D-2
  6
Continuous
 62
     3
370
     9
100
AcDbLine
 10
441.9200039885874
 20
-470.6806040992898
 30
0.0
 11
441.9200039885874
 21
-471.4305942016967
 31
0.0
  0
LINE
  5
414
330
1F
100
AcDbEntity
  8
D-2
  6
Continuous
 62
     3
370
     9
100
AcDbLine
 10
371.9197421147754
 20
-495.1806106976849
 30
0.0
 11
371.9197421147754
 21
-477.6806766816377
 31
0.0
  0
LINE
  5
415
330
1F
100
AcDbEntity
  8
D-2
  6
Continuous
 62
     3
370
     9
100
AcDbLine
 10
449.4199050126588
 20
-497.6804952257677
 30
0.0
 11
374.4199050126588
 21
-497.6804952257677
 31
0.0
  0
LINE
  5
416
330
1F
100
AcDbEntity
  8
D-2
  6
Continuous
 62
     3
370
     9
100
AcDbLine
 10
451.9197895407416
 20
-495.1806106976849
 30
0.0
 11
451.9197895407416
 21
-477.6806766816377
 31
0.0
  0
LINE
  5
417
330
1F
100
AcDbEntity
  8
D-2
  6
Continuous
 62
     3
370
     9
100
AcDbLine
 10
331.9196410768478
 20
-471.4305942016967
 30
0.0
 11
331.9196410768478
 21
-482.6806931776258
 31
0.0
  0
LINE
  5
418
330
1F
100
AcDbEntity
  8
D-2
  6
Continuous
 62
     3
370
     9
100
AcDbLine
 10
491.9196740688244
 20
-471.4305942016967
 30
0.0
 11
491.9196740688244
 21
-482.6806931776258
 31
0.0
  0
LINE
  5
419
330
1F
100
AcDbEntity
  8
D-2
  6
Continuous
 62
     3
370
     9
100
AcDbLine
 10
331.9196410768478
 20
-482.6806931776258
 30
0.0
 11
371.294740052777
 21
-482.6806931776258
 31
0.0
  0
LINE
  5
41A
330
1F
100
AcDbEntity
  8
D-2
  6
Continuous
 62
     3
370
     9
100
AcDbLine
 10
452.5448225327176
 20
-482.6806931776258
 30
0.0
 11
491.9196740688244
 21
-482.6806931776258
 31
0.0
  0
LINE
  5
41B
330
1F
100
AcDbEntity
  8
D-2
  6
Continuous
 62
     3
370
     9
100
AcDbLine
 10
452.5448225327176
 20
-477.6806766816377
 30
0.0
 11
452.5448225327176
 21
-482.6806931776258
 31
0.0
  0
LINE
  5
41C
330
1F
100
AcDbEntity
  8
D-2
  6
Continuous
 62
     3
370
     9
100
AcDbLine
 10
371.294740052777
 20
-477.6806766816377
 30
0.0
 11
371.294740052777
 21
-482.6806931776258
 31
0.0
  0
LINE
  5
41D
330
1F
100
AcDbEntity
  8
D-2
  6
Continuous
 62
     3
370
     9
100
AcDbLine
 10
374.4199050126588
 20
-434.9304985249654
 30
0.0
 11
374.4199050126588
 21
-467.9305579105228
 31
0.0
  0
LINE
  5
41E
330
1F
100
AcDbEntity
  8
D-2
  6
Continuous
 62
     3
370
     9
100
AcDbLine
 10
449.4199050126588
 20
-434.9710786558775
 30
0.0
 11
449.4199050126588
 21
-467.9305579105228
 31
0.0
  0
LINE
  5
41F
330
1F
100
AcDbEntity
  8
D-0
  6
Continuous
 62
     4
370
     9
100
AcDbLine
 10
549.7907760668181
 20
-374.8612030026365
 30
0.0
 11
526.920036980564
 21
-371.430697301623
 31
0.0
  0
LINE
  5
420
330
1F
100
AcDbEntity
  8
D-0
  6
Continuous
 62
     4
370
     9
100
AcDbLine
 10
551.9198720206822
 20
-377.3335598504511
 30
0.0
 11
551.9198720206822
 21
-377.6805942016967
 31
0.0
  0
LINE
  5
421
330
1F
100
AcDbEntity
  8
D-D
  6
Continuous
 62
     7
370
     9
100
AcDbLine
 10
271.9199380046349
 20
-377.6805942016967
 30
0.0
 11
220.6495407152558
 21
-377.6805942016967
 31
0.0
  0
LINE
  5
422
330
1F
100
AcDbEntity
  8
D-3
  6
Continuous
 62
     3
370
     9
100
AcDbLine
 10
316.9200864685286
 20
-428.1805566733237
 30
0.0
 11
316.9200864685286
 21
-420.1805797677072
 31
0.0
  0
LINE
  5
423
330
1F
100
AcDbEntity
  8
D-3
  6
Continuous
 62
     3
370
     9
100
AcDbLine
 10
506.9202184364337
 20
-420.1805797677072
 30
0.0
 11
506.9202184364337
 21
-428.1805566733237
 31
0.0
  0
LINE
  5
424
330
1F
100
AcDbEntity
  8
D-2
  6
Continuous
 62
     3
370
     9
100
AcDbLine
 10
386.9195750928952
 20
-398.9304787297796
 30
0.0
 11
386.9195750928952
 21
-416.502727033992
 31
0.0
  0
LINE
  5
425
330
1F
100
AcDbEntity
  8
D-2
  6
Continuous
 62
     3
370
     9
100
AcDbLine
 10
436.919740052777
 20
-398.9304787297796
 30
0.0
 11
436.919740052777
 21
-416.4305983256938
 31
0.0
  0
LINE
  5
426
330
1F
100
AcDbEntity
  8
D-D
  6
Continuous
 62
     7
370
     9
100
AcDbLine
 10
551.9198720206822
 20
-377.6805942016967
 30
0.0
 11
603.1902693100614
 21
-377.6805942016967
 31
0.0
  0
LINE
  5
427
330
1F
100
AcDbEntity
  8
D-0
  6
Continuous
 62
     4
370
     9
100
AcDbLine
 10
522.0712680761613
 20
-397.6805364657382
 30
0.0
 11
506.7679810855577
 21
-397.6805364657382
 31
0.0
  0
LINE
  5
428
330
1F
100
AcDbEntity
  8
D-A
  6
Continuous
 62
     2
370
     9
100
AcDbLine
 10
299.3165679567306
 20
-403.9304952257677
 30
0.0
 11
299.3165679567306
 21
-397.6805364657382
 31
0.0
  0
LINE
  5
429
330
1F
100
AcDbEntity
  8
D-A
  6
Continuous
 62
     2
370
     9
100
AcDbLine
 10
319.5238029321848
 20
-403.9304952257677
 30
0.0
 11
319.5238029321848
 21
-397.6805364657382
 31
0.0
  0
LINE
  5
42A
330
1F
100
AcDbEntity
  8
D-A
  6
Continuous
 62
     2
370
     9
100
AcDbLine
 10
314.4720096533098
 20
-403.9304952257677
 30
0.0
 11
314.4720096533098
 21
-397.6805364657382
 31
0.0
  0
LINE
  5
42B
330
1F
100
AcDbEntity
  8
D-A
  6
Continuous
 62
     2
370
     9
100
AcDbLine
 10
304.3683612356051
 20
-403.9304952257677
 30
0.0
 11
304.3683612356051
 21
-397.6805364657382
 31
0.0
  0
LINE
  5
42C
330
1F
100
AcDbEntity
  8
D-A
  6
Continuous
 62
     2
370
     9
100
AcDbLine
 10
301.8424645961682
 20
-405.1804993497648
 30
0.0
 11
316.9979062927473
 21
-405.1804993497648
 31
0.0
  0
LINE
  5
42D
330
1F
100
AcDbEntity
  8
D-A
  6
Continuous
 62
     2
370
     9
100
AcDbLine
 10
319.5238029321848
 20
-397.6805364657382
 30
0.0
 11
316.9204266982848
 21
-397.6805364657382
 31
0.0
  0
LINE
  5
42E
330
1F
100
AcDbEntity
  8
D-A
  6
Continuous
 62
     2
370
     9
100
AcDbLine
 10
301.9199132606525
 20
-397.6805364657382
 30
0.0
 11
299.3165679567306
 21
-397.6805364657382
 31
0.0
  0
LINE
  5
42F
330
1F
100
AcDbEntity
  8
D-0
  6
Continuous
 62
     4
370
     9
100
AcDbLine
 10
317.0718289397593
 20
-397.6805364657382
 30
0.0
 11
301.7685419491556
 21
-397.6805364657382
 31
0.0
  0
LINE
  5
430
330
1F
100
AcDbEntity
  8
D-0
  6
Continuous
 62
     4
370
     9
100
AcDbLine
 10
298.3163852636613
 20
-380.0246535014752
 30
0.0
 11
299.2734206376588
 21
-395.3364153060042
 31
0.0
  0
LINE
  5
431
330
1F
100
AcDbEntity
  8
D-0
  6
Continuous
 62
     4
370
     9
100
AcDbLine
 10
525.5234247616556
 20
-380.0246535014752
 30
0.0
 11
524.5663893876588
 21
-395.3364153060042
 31
0.0
  0
LINE
  5
432
330
1F
100
AcDbEntity
  8
D-A
  6
Continuous
 62
     2
370
     9
100
AcDbLine
 10
299.3168463265312
 20
-436.9305236813473
 30
0.0
 11
299.3168463265312
 21
-430.6805649213177
 31
0.0
  0
LINE
  5
433
330
1F
100
AcDbEntity
  8
D-A
  6
Continuous
 62
     2
370
     9
100
AcDbLine
 10
319.5240194420296
 20
-436.9305236813473
 30
0.0
 11
319.5240194420296
 21
-430.6805649213177
 31
0.0
  0
LINE
  5
434
330
1F
100
AcDbEntity
  8
D-A
  6
Continuous
 62
     2
370
     9
100
AcDbLine
 10
314.4722880231103
 20
-436.9305236813473
 30
0.0
 11
314.4722880231103
 21
-430.6805649213177
 31
0.0
  0
LINE
  5
435
330
1F
100
AcDbEntity
  8
D-A
  6
Continuous
 62
     2
370
     9
100
AcDbLine
 10
304.3685777454499
 20
-436.9305236813473
 30
0.0
 11
304.3685777454499
 21
-430.6805649213177
 31
0.0
  0
LINE
  5
436
330
1F
100
AcDbEntity
  8
D-A
  6
Continuous
 62
     2
370
     9
100
AcDbLine
 10
301.0709781591692
 20
-438.1805278053445
 30
0.0
 11
317.7693927297457
 21
-438.1805278053445
 31
0.0
  0
LINE
  5
437
330
1F
100
AcDbEntity
  8
D-A
  6
Continuous
 62
     2
370
     9
100
AcDbLine
 10
299.9207232136723
 20
-428.1809278330577
 30
0.0
 11
299.9207232136723
 21
-430.6806267812735
 31
0.0
  0
LINE
  5
438
330
1F
100
AcDbEntity
  8
D-A
  6
Continuous
 62
     2
370
     9
100
AcDbLine
 10
318.9202662747999
 20
-428.1809278330577
 30
0.0
 11
318.9202662747999
 21
-430.6806267812735
 31
0.0
  0
LINE
  5
439
330
1F
100
AcDbEntity
  8
D-A
  6
Continuous
 62
     2
370
     9
100
AcDbLine
 10
306.9205483561973
 20
-428.1805566733237
 30
0.0
 11
306.9205483561973
 21
-430.6802556215395
 31
0.0
  0
LINE
  5
43A
330
1F
100
AcDbEntity
  8
D-A
  6
Continuous
 62
     2
370
     9
100
AcDbLine
 10
305.6704823722447
 20
-428.1805566733237
 30
0.0
 11
305.6704823722447
 21
-430.6802556215395
 31
0.0
  0
LINE
  5
43B
330
1F
100
AcDbEntity
  8
D-A
  6
Continuous
 62
     2
370
     9
100
AcDbLine
 10
299.3168463265312
 20
-430.6805649213177
 30
0.0
 11
319.5240194420296
 21
-430.6805649213177
 31
0.0
  0
LINE
  5
43C
330
1F
100
AcDbEntity
  8
D-A
  6
Continuous
 62
     2
370
     9
100
AcDbLine
 10
524.5232111386088
 20
-403.9304952257677
 30
0.0
 11
524.5232111386088
 21
-397.6805364657382
 31
0.0
  0
LINE
  5
43D
330
1F
100
AcDbEntity
  8
D-A
  6
Continuous
 62
     2
370
     9
100
AcDbLine
 10
504.3160380231103
 20
-403.9304952257677
 30
0.0
 11
504.3160380231103
 21
-397.6805364657382
 31
0.0
  0
LINE
  5
43E
330
1F
100
AcDbEntity
  8
D-A
  6
Continuous
 62
     2
370
     9
100
AcDbLine
 10
509.3677694420296
 20
-403.9304952257677
 30
0.0
 11
509.3677694420296
 21
-397.6805364657382
 31
0.0
  0
LINE
  5
43F
330
1F
100
AcDbEntity
  8
D-A
  6
Continuous
 62
     2
370
     9
100
AcDbLine
 10
519.47147971969
 20
-403.9304952257677
 30
0.0
 11
519.47147971969
 21
-397.6805364657382
 31
0.0
  0
LINE
  5
440
330
1F
100
AcDbEntity
  8
D-A
  6
Continuous
 62
     2
370
     9
100
AcDbLine
 10
521.9973454291494
 20
-405.1804993497648
 30
0.0
 11
506.8419037325697
 21
-405.1804993497648
 31
0.0
  0
LINE
  5
441
330
1F
100
AcDbEntity
  8
D-A
  6
Continuous
 62
     2
370
     9
100
AcDbLine
 10
504.3160380231103
 20
-397.6805364657382
 30
0.0
 11
506.9193523970546
 21
-397.6805364657382
 31
0.0
  0
LINE
  5
442
330
1F
100
AcDbEntity
  8
D-A
  6
Continuous
 62
     2
370
     9
100
AcDbLine
 10
521.9198967646645
 20
-397.6805364657382
 30
0.0
 11
524.5232111386088
 21
-397.6805364657382
 31
0.0
  0
LINE
  5
443
330
1F
100
AcDbEntity
  8
D-A
  6
Continuous
 62
     2
370
     9
100
AcDbLine
 10
523.9190868116452
 20
-428.1809278330577
 30
0.0
 11
523.9190868116452
 21
-430.6806267812735
 31
0.0
  0
LINE
  5
444
330
1F
100
AcDbEntity
  8
D-A
  6
Continuous
 62
     2
370
     9
100
AcDbLine
 10
504.9195437505176
 20
-428.1809278330577
 30
0.0
 11
504.9195437505176
 21
-430.6806267812735
 31
0.0
  0
LINE
  5
445
330
1F
100
AcDbEntity
  8
D-A
  6
Continuous
 62
     2
370
     9
100
AcDbLine
 10
511.9199874925994
 20
-428.1805566733237
 30
0.0
 11
511.9199874925994
 21
-430.6802556215395
 31
0.0
  0
LINE
  5
446
330
1F
100
AcDbEntity
  8
D-A
  6
Continuous
 62
     2
370
     9
100
AcDbLine
 10
510.6699215086468
 20
-428.1805566733237
 30
0.0
 11
510.6699215086468
 21
-430.6802556215395
 31
0.0
  0
LINE
  5
447
330
1F
100
AcDbEntity
  8
D-D
  6
Continuous
 62
     7
370
     9
100
AcDbLine
 10
220.6495407152558
 20
-407.6806003876924
 30
0.0
 11
291.9198802686765
 21
-407.6806003876924
 31
0.0
  0
LINE
  5
448
330
1F
100
AcDbEntity
  8
D-D
  6
Continuous
 62
     7
370
     9
100
AcDbLine
 10
220.6495407152558
 20
-400.1806065736879
 30
0.0
 11
291.9198802686765
 21
-400.1806065736879
 31
0.0
  0
LINE
  5
449
330
1F
100
AcDbEntity
  8
D-D
  6
Continuous
 62
     7
370
     9
100
AcDbLine
 10
220.6495407152558
 20
-392.6806127596835
 30
0.0
 11
291.9198802686765
 21
-392.6806127596835
 31
0.0
  0
LINE
  5
44A
330
1F
100
AcDbEntity
  8
D-D
  6
Continuous
 62
     7
370
     9
100
AcDbLine
 10
603.1902693100614
 20
-407.6806003876924
 30
0.0
 11
531.9199297566411
 21
-407.6806003876924
 31
0.0
  0
LINE
  5
44B
330
1F
100
AcDbEntity
  8
D-D
  6
Continuous
 62
     7
370
     9
100
AcDbLine
 10
603.1902693100614
 20
-400.1806065736879
 30
0.0
 11
531.9199297566411
 21
-400.1806065736879
 31
0.0
  0
LINE
  5
44C
330
1F
100
AcDbEntity
  8
D-D
  6
Continuous
 62
     7
370
     9
100
AcDbLine
 10
603.1902693100614
 20
-392.6806127596835
 30
0.0
 11
531.9199297566411
 21
-392.6806127596835
 31
0.0
  0
LINE
  5
44D
330
1F
100
AcDbEntity
  8
D-D
  6
Continuous
 62
     7
370
     9
100
AcDbLine
 10
603.1902693100614
 20
-385.1805880157012
 30
0.0
 11
531.9199297566411
 21
-385.1805880157012
 31
0.0
  0
LINE
  5
44E
330
1F
100
AcDbEntity
  8
D-2
  6
JWW_CENTER1
 62
     3
370
     9
100
AcDbLine
 10
411.9199050126588
 20
-366.5926301695494
 30
0.0
 11
411.9199050126588
 21
-501.005529702383
 31
0.0
  0
LINE
  5
44F
330
1F
100
AcDbEntity
  8
D-5
  6
JWW_PHANTOM2
 62
     7
370
     9
100
AcDbLine
 10
491.0449124358536
 20
-298.9303962498387
 30
0.0
 11
332.7948666594858
 21
-298.9303962498387
 31
0.0
  0
LINE
  5
450
330
1F
100
AcDbEntity
  8
D-5
  6
JWW_PHANTOM2
 62
     7
370
     9
100
AcDbLine
 10
386.9195750928952
 20
-325.180420993821
 30
0.0
 11
386.9195750928952
 21
-342.7526692980334
 31
0.0
  0
LINE
  5
451
330
1F
100
AcDbEntity
  8
D-5
  6
JWW_PHANTOM2
 62
     7
370
     9
100
AcDbLine
 10
436.919740052777
 20
-325.180420993821
 30
0.0
 11
436.919740052777
 21
-342.6805405897352
 31
0.0
  0
LINE
  5
452
330
1F
100
AcDbEntity
  8
D-5
  6
JWW_PHANTOM2
 62
     7
370
     9
100
AcDbLine
 10
330.2948893414697
 20
-310.1804333658121
 30
0.0
 11
330.2948893414697
 21
-301.4304663577885
 31
0.0
  0
LINE
  5
453
330
1F
100
AcDbEntity
  8
D-5
  6
JWW_PHANTOM2
 62
     7
370
     9
100
AcDbLine
 10
379.4195503489129
 20
-317.6803962498387
 30
0.0
 11
335.0448988266629
 21
-317.6803962498387
 31
0.0
  0
LINE
  5
454
330
1F
100
AcDbEntity
  8
D-5
  6
JWW_PHANTOM2
 62
     7
370
     9
100
AcDbLine
 10
335.0448988266629
 20
-312.6804416138062
 30
0.0
 11
335.0448988266629
 21
-317.6803962498387
 31
0.0
  0
LINE
  5
455
330
1F
100
AcDbEntity
  8
D-5
  6
JWW_PHANTOM2
 62
     7
370
     9
100
AcDbLine
 10
493.5449206838473
 20
-310.1804333658121
 30
0.0
 11
493.5449206838473
 21
-301.4304663577885
 31
0.0
  0
LINE
  5
456
330
1F
100
AcDbEntity
  8
D-5
  6
JWW_PHANTOM2
 62
     7
370
     9
100
AcDbLine
 10
444.4197338667811
 20
-317.6803962498387
 30
0.0
 11
488.7949111986541
 21
-317.6803962498387
 31
0.0
  0
LINE
  5
457
330
1F
100
AcDbEntity
  8
D-5
  6
JWW_PHANTOM2
 62
     7
370
     9
100
AcDbLine
 10
488.7949111986541
 20
-312.6804416138062
 30
0.0
 11
488.7949111986541
 21
-317.6803962498387
 31
0.0
  0
LINE
  5
458
330
1F
100
AcDbEntity
  8
D-A
  6
Continuous
 62
     2
370
     9
100
AcDbLine
 10
299.3165679567306
 20
-445.1676407269818
 30
0.0
 11
299.3165679567306
 21
-439.1934536492792
 31
0.0
  0
LINE
  5
459
330
1F
100
AcDbEntity
  8
D-A
  6
Continuous
 62
     2
370
     9
100
AcDbLine
 10
301.0709781591692
 20
-438.1805278053445
 30
0.0
 11
299.3165679567306
 21
-439.1934536492792
 31
0.0
  0
LINE
  5
45A
330
1F
100
AcDbEntity
  8
D-A
  6
Continuous
 62
     2
370
     9
100
AcDbLine
 10
302.4201437920874
 20
-447.6811344453096
 30
0.0
 11
302.4201437920874
 21
-448.8731139308986
 31
0.0
  0
LINE
  5
45B
330
1F
100
AcDbEntity
  8
D-A
  6
Continuous
 62
     2
370
     9
100
AcDbLine
 10
301.7951726600666
 20
-446.5986470812365
 30
0.0
 11
299.3165679567306
 21
-445.1676407269818
 31
0.0
  0
LINE
  5
45C
330
1F
100
AcDbEntity
  8
D-A
  6
Continuous
 62
     2
370
     9
100
AcDbLine
 10
317.0451672988708
 20
-446.5986470812365
 30
0.0
 11
319.5237720022067
 21
-445.1676407269818
 31
0.0
  0
LINE
  5
45D
330
1F
100
AcDbEntity
  8
D-A
  6
Continuous
 62
     2
370
     9
100
AcDbLine
 10
316.4201652368723
 20
-448.8731139308986
 30
0.0
 11
316.4201652368723
 21
-447.6811344453096
 31
0.0
  0
LINE
  5
45E
330
1F
100
AcDbEntity
  8
D-A
  6
Continuous
 62
     2
370
     9
100
AcDbLine
 10
319.5237720022067
 20
-445.1676407269818
 30
0.0
 11
319.5237720022067
 21
-439.1934536492792
 31
0.0
  0
LINE
  5
45F
330
1F
100
AcDbEntity
  8
D-A
  6
Continuous
 62
     2
370
     9
100
AcDbLine
 10
304.3683612356051
 20
-445.1676407269818
 30
0.0
 11
304.3683612356051
 21
-439.1934536492792
 31
0.0
  0
LINE
  5
460
330
1F
100
AcDbEntity
  8
D-A
  6
Continuous
 62
     2
370
     9
100
AcDbLine
 10
314.4719787233322
 20
-445.1676407269818
 30
0.0
 11
314.4719787233322
 21
-439.1934536492792
 31
0.0
  0
LINE
  5
461
330
1F
100
AcDbEntity
  8
D-A
  6
Continuous
 62
     2
370
     9
100
AcDbLine
 10
317.7693927297457
 20
-438.1805278053445
 30
0.0
 11
319.5237720022067
 21
-439.1934536492792
 31
0.0
  0
LINE
  5
462
330
1F
100
AcDbEntity
  8
D-A
  6
Continuous
 62
     2
370
     9
100
AcDbLine
 10
301.0710400191249
 20
-446.1805356409388
 30
0.0
 11
317.76933086979
 21
-446.1805356409388
 31
0.0
  0
LINE
  5
463
330
1F
100
AcDbEntity
  8
D-A
  6
JWW_CENTER1
 62
     2
370
     9
100
AcDbLine
 10
309.4201854444577
 20
-379.1328185207425
 30
0.0
 11
309.4201854444577
 21
-457.3003575502504
 31
0.0
  0
LINE
  5
464
330
1F
100
AcDbEntity
  8
D-A
  6
JWW_CENTER1
 62
     2
370
     9
100
AcDbLine
 10
514.4196245808598
 20
-379.1328185207425
 30
0.0
 11
514.4196245808598
 21
-457.3003575502504
 31
0.0
  0
LINE
  5
465
330
1F
100
AcDbEntity
  8
D-3
  6
Continuous
 62
     3
370
     9
100
AcDbLine
 10
220.6495407152558
 20
-420.1805488377294
 30
0.0
 11
382.2323225327176
 21
-420.1805488377294
 31
0.0
  0
LINE
  5
466
330
1F
100
AcDbEntity
  8
D-A
  6
Continuous
 62
     2
370
     9
100
AcDbLine
 10
304.4203854583139
 20
-405.1804993497648
 30
0.0
 11
304.4203854583139
 21
-420.1805488377294
 31
0.0
  0
LINE
  5
467
330
1F
100
AcDbEntity
  8
D-A
  6
Continuous
 62
     2
370
     9
100
AcDbLine
 10
312.9203454555432
 20
-405.1804993497648
 30
0.0
 11
312.9203454555432
 21
-420.1805488377294
 31
0.0
  0
LINE
  5
468
330
1F
100
AcDbEntity
  8
D-A
  6
Continuous
 62
     2
370
     9
100
AcDbLine
 10
314.420542170202
 20
-405.1804993497648
 30
0.0
 11
314.420542170202
 21
-420.1805488377294
 31
0.0
  0
LINE
  5
469
330
1F
100
AcDbEntity
  8
D-A
  6
Continuous
 62
     2
370
     9
100
AcDbLine
 10
305.9206440329291
 20
-405.1804993497648
 30
0.0
 11
305.9206440329291
 21
-420.1805488377294
 31
0.0
  0
LINE
  5
46A
330
1F
100
AcDbEntity
  8
D-D
  6
Continuous
 62
     7
370
     9
100
AcDbLine
 10
220.6495407152558
 20
-415.1805942016967
 30
0.0
 11
304.4203854583139
 21
-415.1805942016967
 31
0.0
  0
LINE
  5
46B
330
1F
100
AcDbEntity
  8
D-D
  6
Continuous
 62
     7
370
     9
100
AcDbLine
 10
314.420542170202
 20
-415.1805942016967
 30
0.0
 11
386.9195750928952
 21
-415.1805942016967
 31
0.0
  0
LINE
  5
46C
330
1F
100
AcDbEntity
  8
D-3
  6
Continuous
 62
     3
370
     9
100
AcDbLine
 10
441.1504042802369
 20
-420.1805488377294
 30
0.0
 11
603.1902693100614
 21
-420.1805488377294
 31
0.0
  0
LINE
  5
46D
330
1F
100
AcDbEntity
  8
D-A
  6
Continuous
 62
     2
370
     9
100
AcDbLine
 10
510.9194645697744
 20
-405.1804993497648
 30
0.0
 11
510.9194645697744
 21
-420.1805488377294
 31
0.0
  0
LINE
  5
46E
330
1F
100
AcDbEntity
  8
D-A
  6
Continuous
 62
     2
370
     9
100
AcDbLine
 10
509.4192369251374
 20
-405.1804993497648
 30
0.0
 11
509.4192369251374
 21
-420.1805488377294
 31
0.0
  0
LINE
  5
46F
330
1F
100
AcDbEntity
  8
D-A
  6
Continuous
 62
     2
370
     9
100
AcDbLine
 10
517.9191659923885
 20
-405.1804993497648
 30
0.0
 11
517.9191659923885
 21
-420.1805488377294
 31
0.0
  0
LINE
  5
470
330
1F
100
AcDbEntity
  8
D-A
  6
Continuous
 62
     2
370
     9
100
AcDbLine
 10
519.4193936370255
 20
-405.1804993497648
 30
0.0
 11
519.4193936370255
 21
-420.1805488377294
 31
0.0
  0
LINE
  5
471
330
1F
100
AcDbEntity
  8
D-D
  6
Continuous
 62
     7
370
     9
100
AcDbLine
 10
436.919740052777
 20
-415.1805942016967
 30
0.0
 11
509.4192369251374
 21
-415.1805942016967
 31
0.0
  0
LINE
  5
472
330
1F
100
AcDbEntity
  8
D-D
  6
Continuous
 62
     7
370
     9
100
AcDbLine
 10
519.4193936370255
 20
-415.1805942016967
 30
0.0
 11
603.1902693100614
 21
-415.1805942016967
 31
0.0
  0
LINE
  5
473
330
1F
100
AcDbEntity
  8
D-D
  6
Continuous
 62
     7
370
     9
100
AcDbLine
 10
291.9198802686765
 20
-377.6805942016967
 30
0.0
 11
291.9198802686765
 21
-420.1805488377294
 31
0.0
  0
LINE
  5
474
330
1F
100
AcDbEntity
  8
D-D
  6
Continuous
 62
     7
370
     9
100
AcDbLine
 10
531.9199297566411
 20
-377.6805942016967
 30
0.0
 11
531.9199297566411
 21
-420.1805488377294
 31
0.0
  0
LINE
  5
475
330
1F
100
AcDbEntity
  8
D-A
  6
Continuous
 62
     2
370
     9
100
AcDbLine
 10
524.5229636987864
 20
-436.9305236813473
 30
0.0
 11
524.5229636987864
 21
-430.6805649213177
 31
0.0
  0
LINE
  5
476
330
1F
100
AcDbEntity
  8
D-A
  6
Continuous
 62
     2
370
     9
100
AcDbLine
 10
504.3157905832879
 20
-436.9305236813473
 30
0.0
 11
504.3157905832879
 21
-430.6805649213177
 31
0.0
  0
LINE
  5
477
330
1F
100
AcDbEntity
  8
D-A
  6
Continuous
 62
     2
370
     9
100
AcDbLine
 10
509.3675220022067
 20
-436.9305236813473
 30
0.0
 11
509.3675220022067
 21
-430.6805649213177
 31
0.0
  0
LINE
  5
478
330
1F
100
AcDbEntity
  8
D-A
  6
Continuous
 62
     2
370
     9
100
AcDbLine
 10
519.4712322798671
 20
-436.9305236813473
 30
0.0
 11
519.4712322798671
 21
-430.6805649213177
 31
0.0
  0
LINE
  5
479
330
1F
100
AcDbEntity
  8
D-A
  6
Continuous
 62
     2
370
     9
100
AcDbLine
 10
522.7688627961254
 20
-438.1805278053445
 30
0.0
 11
506.0703863655937
 21
-438.1805278053445
 31
0.0
  0
LINE
  5
47A
330
1F
100
AcDbEntity
  8
D-A
  6
Continuous
 62
     2
370
     9
100
AcDbLine
 10
524.5229636987864
 20
-430.6805649213177
 30
0.0
 11
504.3157905832879
 21
-430.6805649213177
 31
0.0
  0
LINE
  5
47B
330
1F
100
AcDbEntity
  8
D-A
  6
Continuous
 62
     2
370
     9
100
AcDbLine
 10
524.5232111386088
 20
-445.1676407269818
 30
0.0
 11
524.5232111386088
 21
-439.1934536492792
 31
0.0
  0
LINE
  5
47C
330
1F
100
AcDbEntity
  8
D-A
  6
Continuous
 62
     2
370
     9
100
AcDbLine
 10
522.7688627961254
 20
-438.1805278053445
 30
0.0
 11
524.5232111386088
 21
-439.1934536492792
 31
0.0
  0
LINE
  5
47D
330
1F
100
AcDbEntity
  8
D-A
  6
Continuous
 62
     2
370
     9
100
AcDbLine
 10
521.4196971632077
 20
-447.6811344453096
 30
0.0
 11
521.4196971632077
 21
-448.8731139308986
 31
0.0
  0
LINE
  5
47E
330
1F
100
AcDbEntity
  8
D-A
  6
Continuous
 62
     2
370
     9
100
AcDbLine
 10
522.0446064352728
 20
-446.5986470812365
 30
0.0
 11
524.5232111386088
 21
-445.1676407269818
 31
0.0
  0
LINE
  5
47F
330
1F
100
AcDbEntity
  8
D-A
  6
Continuous
 62
     2
370
     9
100
AcDbLine
 10
506.7946427264468
 20
-446.5986470812365
 30
0.0
 11
504.3160380231103
 21
-445.1676407269818
 31
0.0
  0
LINE
  5
480
330
1F
100
AcDbEntity
  8
D-A
  6
Continuous
 62
     2
370
     9
100
AcDbLine
 10
507.4196757184228
 20
-448.8731139308986
 30
0.0
 11
507.4196757184228
 21
-447.6811344453096
 31
0.0
  0
LINE
  5
481
330
1F
100
AcDbEntity
  8
D-A
  6
Continuous
 62
     2
370
     9
100
AcDbLine
 10
504.3160380231103
 20
-445.1676407269818
 30
0.0
 11
504.3160380231103
 21
-439.1934536492792
 31
0.0
  0
LINE
  5
482
330
1F
100
AcDbEntity
  8
D-A
  6
Continuous
 62
     2
370
     9
100
AcDbLine
 10
519.47147971969
 20
-445.1676407269818
 30
0.0
 11
519.47147971969
 21
-439.1934536492792
 31
0.0
  0
LINE
  5
483
330
1F
100
AcDbEntity
  8
D-A
  6
Continuous
 62
     2
370
     9
100
AcDbLine
 10
509.3678313019848
 20
-445.1676407269818
 30
0.0
 11
509.3678313019848
 21
-439.1934536492792
 31
0.0
  0
LINE
  5
484
330
1F
100
AcDbEntity
  8
D-A
  6
Continuous
 62
     2
370
     9
100
AcDbLine
 10
506.0703863655937
 20
-438.1805278053445
 30
0.0
 11
504.3160380231103
 21
-439.1934536492792
 31
0.0
  0
LINE
  5
485
330
1F
100
AcDbEntity
  8
D-A
  6
Continuous
 62
     2
370
     9
100
AcDbLine
 10
522.7687390762145
 20
-446.1805356409388
 30
0.0
 11
506.0705100855051
 21
-446.1805356409388
 31
0.0
  0
LINE
  5
486
330
1F
100
AcDbEntity
  8
D-5
  6
JWW_PHANTOM2
 62
     7
370
     9
100
AcDbLine
 10
491.0449124358536
 20
-312.6804416138062
 30
0.0
 11
332.7948666594858
 21
-312.6804416138062
 31
0.0
  0
LINE
  5
487
330
1F
100
AcDbEntity
  8
D-0
  6
Continuous
 62
     4
370
     9
100
AcDbLine
 10
328.833819048765
 20
-397.6805364657382
 30
0.0
 11
495.005990976552
 21
-397.6805364657382
 31
0.0
  0
LINE
  5
488
330
1F
100
AcDbEntity
  8
D-0
  6
Continuous
 62
     4
370
     9
100
AcDbLine
 10
551.9198720206822
 20
-377.6805942016967
 30
0.0
 11
271.9199380046349
 21
-377.6805942016967
 31
0.0
  0
LINE
  5
489
330
1F
100
AcDbEntity
  8
D-3
  6
Continuous
 62
     3
370
     9
100
AcDbLine
 10
220.6495407152558
 20
-428.1805566733237
 30
0.0
 11
373.9672447871254
 21
-428.1805566733237
 31
0.0
  0
LINE
  5
48A
330
1F
100
AcDbEntity
  8
D-3
  6
Continuous
 62
     3
370
     9
100
AcDbLine
 10
450.3931167650603
 20
-428.1805566733237
 30
0.0
 11
603.1902693100614
 21
-428.1805566733237
 31
0.0
  0
LINE
  5
48B
330
1F
100
AcDbEntity
  8
D-D
  6
Continuous
 62
     7
370
     9
100
AcDbLine
 10
220.6495407152558
 20
-385.1805880157012
 30
0.0
 11
291.9198802686765
 21
-385.1805880157012
 31
0.0
  0
LINE
  5
48C
330
1F
100
AcDbEntity
  8
D-5
  6
JWW_PHANTOM2
 62
     7
370
     9
100
AcDbLine
 10
374.4199050126588
 20
-369.7289917814054
 30
0.0
 11
374.4199050126588
 21
-361.2210209199189
 31
0.0
  0
LINE
  5
48D
330
1F
100
AcDbEntity
  8
D-5
  6
JWW_PHANTOM2
 62
     7
370
     9
100
AcDbLine
 10
449.4199050126588
 20
-369.7289917814054
 30
0.0
 11
449.4199050126588
 21
-361.2210209199189
 31
0.0
  0
LINE
  5
48E
330
1F
100
AcDbEntity
  8
D-0
  6
Continuous
 62
     4
370
     9
100
AcDbLine
 10
319.7621802713155
 20
-392.2127349850584
 30
0.0
 11
319.5669502512567
 21
-395.3364153060042
 31
0.0
  0
LINE
  5
48F
330
1F
100
AcDbEntity
  8
D-0
  6
Continuous
 62
     4
370
     9
100
AcDbLine
 10
496.5922039595546
 20
-385.1805880157012
 30
0.0
 11
327.2475751357848
 21
-385.1805880157012
 31
0.0
  0
LINE
  5
490
330
1F
100
AcDbEntity
  8
D-0
  6
Continuous
 62
     4
370
     9
100
AcDbLine
 10
504.0776297540015
 20
-392.2127349850584
 30
0.0
 11
504.2728597740609
 21
-395.3364153060042
 31
0.0
  0
LINE
  5
491
330
1F
100
AcDbEntity
  8
D-0
  6
Continuous
 62
     4
370
     9
100
AcDbLine
 10
500.8193421695421
 20
-386.4852763405007
 30
0.0
 11
499.9674068602093
 21
-393.3006660252294
 31
0.0
  0
LINE
  5
492
330
1F
100
AcDbEntity
  8
D-0
  6
Continuous
 62
     4
370
     9
100
AcDbLine
 10
323.020498785753
 20
-386.4852763405007
 30
0.0
 11
323.8724340950859
 21
-393.3006660252294
 31
0.0
  0
ARC
  5
493
330
1F
100
AcDbEntity
  8
D-0
  6
Continuous
 62
     4
370
     9
100
AcDbCircle
 10
274.4198225327177
 20
-377.3335598504511
 30
0.0
 40
2.500000032218727
100
AcDbArc
 50
98.53070068359375
 51
180.0
  0
ARC
  5
494
330
1F
100
AcDbEntity
  8
D-2
  6
Continuous
 62
     3
370
     9
100
AcDbCircle
 10
374.4199050126588
 20
-495.1806106976849
 30
0.0
 40
2.500000032218727
100
AcDbArc
 50
180.0
 51
270.0
  0
ARC
  5
495
330
1F
100
AcDbEntity
  8
D-2
  6
Continuous
 62
     3
370
     9
100
AcDbCircle
 10
449.4199050126588
 20
-495.1806106976849
 30
0.0
 40
2.500000032218727
100
AcDbArc
 50
270.0
 51
0.0
  0
ARC
  5
496
330
1F
100
AcDbEntity
  8
D-2
  6
Continuous
 62
     3
370
     9
100
AcDbCircle
 10
386.9198225327176
 20
-434.9710786558775
 30
0.0
 40
12.50000064437454
100
AcDbArc
 50
112.0243377685547
 51
180.0
  0
ARC
  5
497
330
1F
100
AcDbEntity
  8
D-2
  6
Continuous
 62
     3
370
     9
100
AcDbCircle
 10
436.919740052777
 20
-434.9710786558775
 30
0.0
 40
12.50000064437454
100
AcDbArc
 50
0.0
 51
67.9756622314453
  0
ARC
  5
498
330
1F
100
AcDbEntity
  8
D-2
  6
Continuous
 62
     3
370
     9
100
AcDbCircle
 10
379.4198905786692
 20
-416.4305983256938
 30
0.0
 40
7.500000096656181
100
AcDbArc
 50
292.0240478515625
 51
359.4492034912109
  0
ARC
  5
499
330
1F
100
AcDbEntity
  8
D-2
  6
Continuous
 62
     3
370
     9
100
AcDbCircle
 10
444.4196410768478
 20
-416.4305983256938
 30
0.0
 40
7.500000096656181
100
AcDbArc
 50
180.0
 51
247.9759521484375
  0
ARC
  5
49A
330
1F
100
AcDbEntity
  8
D-0
  6
Continuous
 62
     4
370
     9
100
AcDbCircle
 10
549.4199874925994
 20
-377.3335598504511
 30
0.0
 40
2.500000032218727
100
AcDbArc
 50
0.0
 51
81.46929931640625
  0
ARC
  5
49B
330
1F
100
AcDbEntity
  8
D-A
  6
Continuous
 62
     2
370
     9
100
AcDbCircle
 10
309.4201854444577
 20
-394.3471508951091
 30
0.0
 40
10.83333975559956
100
AcDbArc
 50
242.2042083740235
 51
297.7957916259766
  0
ARC
  5
49C
330
1F
100
AcDbEntity
  8
D-A
  6
Continuous
 62
     2
370
     9
100
AcDbCircle
 10
316.9979062927473
 20
-402.0034338870853
 30
0.0
 40
3.177055072140049
100
AcDbArc
 50
217.3407897949219
 51
322.6592102050781
  0
ARC
  5
49D
330
1F
100
AcDbEntity
  8
D-A
  6
Continuous
 62
     2
370
     9
100
AcDbCircle
 10
301.8424645961682
 20
-402.0034338870853
 30
0.0
 40
3.177055072140049
100
AcDbArc
 50
217.3407897949219
 51
322.6592102050781
  0
ARC
  5
49E
330
1F
100
AcDbEntity
  8
D-0
  6
Continuous
 62
     4
370
     9
100
AcDbCircle
 10
301.7685419491556
 20
-395.1805282177442
 30
0.0
 40
2.500000032218727
100
AcDbArc
 50
183.576416015625
 51
270.0
  0
ARC
  5
49F
330
1F
100
AcDbEntity
  8
D-0
  6
Continuous
 62
     4
370
     9
100
AcDbCircle
 10
317.0718289397593
 20
-395.1805282177442
 30
0.0
 40
2.500000032218727
100
AcDbArc
 50
270.0
 51
356.423583984375
  0
ARC
  5
4A0
330
1F
100
AcDbEntity
  8
D-0
  6
Continuous
 62
     4
370
     9
100
AcDbCircle
 10
295.8212639521645
 20
-380.1806024496909
 30
0.0
 40
2.500000032218727
100
AcDbArc
 50
3.576416015625
 51
90.00000000000001
  0
ARC
  5
4A1
330
1F
100
AcDbEntity
  8
D-0
  6
Continuous
 62
     4
370
     9
100
AcDbCircle
 10
522.0712680761613
 20
-395.1805282177442
 30
0.0
 40
2.500000032218727
100
AcDbArc
 50
270.0
 51
356.423583984375
  0
ARC
  5
4A2
330
1F
100
AcDbEntity
  8
D-0
  6
Continuous
 62
     4
370
     9
100
AcDbCircle
 10
506.7679810855577
 20
-395.1805282177442
 30
0.0
 40
2.500000032218727
100
AcDbArc
 50
183.576416015625
 51
270.0
  0
ARC
  5
4A3
330
1F
100
AcDbEntity
  8
D-0
  6
Continuous
 62
     4
370
     9
100
AcDbCircle
 10
528.0185460731525
 20
-380.1806024496909
 30
0.0
 40
2.500000032218727
100
AcDbArc
 50
90.0
 51
176.423583984375
  0
ARC
  5
4A4
330
1F
100
AcDbEntity
  8
D-0
  6
Continuous
 62
     4
370
     9
100
AcDbCircle
 10
495.005990976552
 20
-392.68051996975
 30
0.0
 40
5.000000064437454
100
AcDbArc
 50
270.0
 51
352.8752899169922
  0
ARC
  5
4A5
330
1F
100
AcDbEntity
  8
D-0
  6
Continuous
 62
     4
370
     9
100
AcDbCircle
 10
328.833819048765
 20
-392.68051996975
 30
0.0
 40
5.000000064437454
100
AcDbArc
 50
187.1247100830078
 51
270.0
  0
ARC
  5
4A6
330
1F
100
AcDbEntity
  8
D-A
  6
Continuous
 62
     2
370
     9
100
AcDbCircle
 10
309.4204328842801
 20
-427.3471793506886
 30
0.0
 40
10.83333975559956
100
AcDbArc
 50
242.2042083740235
 51
297.7957916259766
  0
ARC
  5
4A7
330
1F
100
AcDbEntity
  8
D-A
  6
Continuous
 62
     2
370
     9
100
AcDbCircle
 10
316.9981537325697
 20
-435.0034623426649
 30
0.0
 40
3.177055072140049
100
AcDbArc
 50
217.3407897949219
 51
322.6592102050781
  0
ARC
  5
4A8
330
1F
100
AcDbEntity
  8
D-A
  6
Continuous
 62
     2
370
     9
100
AcDbCircle
 10
301.8427120359905
 20
-435.0034623426649
 30
0.0
 40
3.177055072140049
100
AcDbArc
 50
217.3407897949219
 51
322.6592102050781
  0
ARC
  5
4A9
330
1F
100
AcDbEntity
  8
D-A
  6
Continuous
 62
     2
370
     9
100
AcDbCircle
 10
514.4196245808598
 20
-394.3471508951091
 30
0.0
 40
10.83333975559956
100
AcDbArc
 50
242.2042083740235
 51
297.7957916259766
  0
ARC
  5
4AA
330
1F
100
AcDbEntity
  8
D-A
  6
Continuous
 62
     2
370
     9
100
AcDbCircle
 10
506.8419037325697
 20
-402.0034338870853
 30
0.0
 40
3.177055072140049
100
AcDbArc
 50
217.3407897949219
 51
322.6592102050781
  0
ARC
  5
4AB
330
1F
100
AcDbEntity
  8
D-A
  6
Continuous
 62
     2
370
     9
100
AcDbCircle
 10
521.9973454291494
 20
-402.0034338870853
 30
0.0
 40
3.177055072140049
100
AcDbArc
 50
217.3407897949219
 51
322.6592102050781
  0
ARC
  5
4AC
330
1F
100
AcDbEntity
  8
D-5
  6
JWW_PHANTOM2
 62
     7
370
     9
100
AcDbCircle
 10
332.7948666594858
 20
-301.4304663577885
 30
0.0
 40
2.500000032218727
100
AcDbArc
 50
90.0
 51
180.0
  0
ARC
  5
4AD
330
1F
100
AcDbEntity
  8
D-5
  6
JWW_PHANTOM2
 62
     7
370
     9
100
AcDbCircle
 10
491.0449124358536
 20
-301.4304663577885
 30
0.0
 40
2.500000032218727
100
AcDbArc
 50
0.0
 51
90.0
  0
ARC
  5
4AE
330
1F
100
AcDbEntity
  8
D-5
  6
JWW_PHANTOM2
 62
     7
370
     9
100
AcDbCircle
 10
379.4195503489129
 20
-325.180420993821
 30
0.0
 40
7.500000096656181
100
AcDbArc
 50
0.0
 51
90.0
  0
ARC
  5
4AF
330
1F
100
AcDbEntity
  8
D-5
  6
JWW_PHANTOM2
 62
     7
370
     9
100
AcDbCircle
 10
444.4197338667811
 20
-325.180420993821
 30
0.0
 40
7.500000096656181
100
AcDbArc
 50
90.0
 51
180.0
  0
ARC
  5
4B0
330
1F
100
AcDbEntity
  8
D-5
  6
JWW_PHANTOM2
 62
     7
370
     9
100
AcDbCircle
 10
332.7948666594858
 20
-310.1804333658121
 30
0.0
 40
2.500000032218727
100
AcDbArc
 50
180.0
 51
270.0
  0
ARC
  5
4B1
330
1F
100
AcDbEntity
  8
D-5
  6
JWW_PHANTOM2
 62
     7
370
     9
100
AcDbCircle
 10
491.0449124358536
 20
-310.1804333658121
 30
0.0
 40
2.500000032218727
100
AcDbArc
 50
270.0
 51
0.0
  0
ARC
  5
4B2
330
1F
100
AcDbEntity
  8
D-5
  6
JWW_PHANTOM2
 62
     7
370
     9
100
AcDbCircle
 10
386.9198225327176
 20
-361.2210209199189
 30
0.0
 40
12.50000064437454
100
AcDbArc
 50
112.0243377685547
 51
180.0
  0
ARC
  5
4B3
330
1F
100
AcDbEntity
  8
D-5
  6
JWW_PHANTOM2
 62
     7
370
     9
100
AcDbCircle
 10
379.4198905786692
 20
-342.6805405897352
 30
0.0
 40
7.500000096656181
100
AcDbArc
 50
292.0240478515625
 51
359.4492034912109
  0
ARC
  5
4B4
330
1F
100
AcDbEntity
  8
D-5
  6
JWW_PHANTOM2
 62
     7
370
     9
100
AcDbCircle
 10
436.9199874925994
 20
-361.2210209199189
 30
0.0
 40
12.50000064437454
100
AcDbArc
 50
0.0
 51
67.9756622314453
  0
ARC
  5
4B5
330
1F
100
AcDbEntity
  8
D-5
  6
JWW_PHANTOM2
 62
     7
370
     9
100
AcDbCircle
 10
444.4199194466484
 20
-342.6805405897352
 30
0.0
 40
7.500000096656181
100
AcDbArc
 50
180.5507965087891
 51
247.9759521484375
  0
ARC
  5
4B6
330
1F
100
AcDbEntity
  8
D-A
  6
Continuous
 62
     2
370
     9
100
AcDbCircle
 10
309.4201854444577
 20
-433.0764628639382
 30
0.0
 40
13.10409210823678
100
AcDbArc
 50
247.3243103027344
 51
292.6756896972656
  0
ARC
  5
4B7
330
1F
100
AcDbEntity
  8
D-A
  6
Continuous
 62
     2
370
     9
100
AcDbCircle
 10
301.0710400191249
 20
-440.3073040108712
 30
0.0
 40
5.873256277393651
100
AcDbArc
 50
270.0
 51
304.1535186767578
  0
ARC
  5
4B8
330
1F
100
AcDbEntity
  8
D-A
  6
Continuous
 62
     2
370
     9
100
AcDbCircle
 10
309.4201854444577
 20
-451.2846315123228
 30
0.0
 40
13.10409210823678
100
AcDbArc
 50
67.32431030273438
 51
112.6756896972656
  0
ARC
  5
4B9
330
1F
100
AcDbEntity
  8
D-A
  6
Continuous
 62
     2
370
     9
100
AcDbCircle
 10
301.0710400191249
 20
-444.053759435412
 30
0.0
 40
5.873256277393651
100
AcDbArc
 50
55.84648132324219
 51
90.0
  0
ARC
  5
4BA
330
1F
100
AcDbEntity
  8
D-A
  6
Continuous
 62
     2
370
     9
100
AcDbCircle
 10
309.4201854444577
 20
-446.1805356409388
 30
0.0
 40
7.500000096656181
100
AcDbArc
 50
201.0391845703125
 51
338.9608154296875
  0
ARC
  5
4BB
330
1F
100
AcDbEntity
  8
D-A
  6
Continuous
 62
     2
370
     9
100
AcDbCircle
 10
301.1701705980681
 20
-447.6811344453096
 30
0.0
 40
1.250000016109364
100
AcDbArc
 50
0.0
 51
59.99960327148438
  0
ARC
  5
4BC
330
1F
100
AcDbEntity
  8
D-A
  6
Continuous
 62
     2
370
     9
100
AcDbCircle
 10
317.76933086979
 20
-440.3073040108712
 30
0.0
 40
5.873256277393651
100
AcDbArc
 50
235.8464813232422
 51
270.0
  0
ARC
  5
4BD
330
1F
100
AcDbEntity
  8
D-A
  6
Continuous
 62
     2
370
     9
100
AcDbCircle
 10
317.76933086979
 20
-444.053759435412
 30
0.0
 40
5.873256277393651
100
AcDbArc
 50
90.0
 51
124.1535186767578
  0
ARC
  5
4BE
330
1F
100
AcDbEntity
  8
D-A
  6
Continuous
 62
     2
370
     9
100
AcDbCircle
 10
317.6701693608692
 20
-447.6811344453096
 30
0.0
 40
1.250000016109364
100
AcDbArc
 50
120.0003967285156
 51
180.0
  0
ARC
  5
4BF
330
1F
100
AcDbEntity
  8
D-A
  6
Continuous
 62
     2
370
     9
100
AcDbCircle
 10
514.4193771410369
 20
-427.3471793506886
 30
0.0
 40
10.83333975559956
100
AcDbArc
 50
242.2042083740235
 51
297.7957916259766
  0
ARC
  5
4C0
330
1F
100
AcDbEntity
  8
D-A
  6
Continuous
 62
     2
370
     9
100
AcDbCircle
 10
506.8416562927473
 20
-435.0034623426649
 30
0.0
 40
3.177055072140049
100
AcDbArc
 50
217.3407897949219
 51
322.6592102050781
  0
ARC
  5
4C1
330
1F
100
AcDbEntity
  8
D-A
  6
Continuous
 62
     2
370
     9
100
AcDbCircle
 10
521.9970979893264
 20
-435.0034623426649
 30
0.0
 40
3.177055072140049
100
AcDbArc
 50
217.3407897949219
 51
322.6592102050781
  0
ARC
  5
4C2
330
1F
100
AcDbEntity
  8
D-A
  6
Continuous
 62
     2
370
     9
100
AcDbCircle
 10
514.4196245808598
 20
-433.0764628639382
 30
0.0
 40
13.10409210823678
100
AcDbArc
 50
247.3243103027344
 51
292.6756896972656
  0
ARC
  5
4C3
330
1F
100
AcDbEntity
  8
D-A
  6
Continuous
 62
     2
370
     9
100
AcDbCircle
 10
522.7687390762145
 20
-440.3073040108712
 30
0.0
 40
5.873256277393651
100
AcDbArc
 50
235.8464813232422
 51
270.0
  0
ARC
  5
4C4
330
1F
100
AcDbEntity
  8
D-A
  6
Continuous
 62
     2
370
     9
100
AcDbCircle
 10
514.4196245808598
 20
-451.2846315123228
 30
0.0
 40
13.10409210823678
100
AcDbArc
 50
67.32431030273438
 51
112.6756896972656
  0
ARC
  5
4C5
330
1F
100
AcDbEntity
  8
D-A
  6
Continuous
 62
     2
370
     9
100
AcDbCircle
 10
522.7687390762145
 20
-444.053759435412
 30
0.0
 40
5.873256277393651
100
AcDbArc
 50
90.0
 51
124.1535186767578
  0
ARC
  5
4C6
330
1F
100
AcDbEntity
  8
D-A
  6
Continuous
 62
     2
370
     9
100
AcDbCircle
 10
514.4196245808598
 20
-446.1805356409388
 30
0.0
 40
7.500000096656181
100
AcDbArc
 50
201.0391845703125
 51
338.9608154296875
  0
ARC
  5
4C7
330
1F
100
AcDbEntity
  8
D-A
  6
Continuous
 62
     2
370
     9
100
AcDbCircle
 10
522.6696394272489
 20
-447.6811344453096
 30
0.0
 40
1.250000016109364
100
AcDbArc
 50
120.0003967285156
 51
180.0
  0
ARC
  5
4C8
330
1F
100
AcDbEntity
  8
D-A
  6
Continuous
 62
     2
370
     9
100
AcDbCircle
 10
506.0705100855051
 20
-440.3073040108712
 30
0.0
 40
5.873256277393651
100
AcDbArc
 50
270.0
 51
304.1535186767578
  0
ARC
  5
4C9
330
1F
100
AcDbEntity
  8
D-A
  6
Continuous
 62
     2
370
     9
100
AcDbCircle
 10
506.0705100855051
 20
-444.053759435412
 30
0.0
 40
5.873256277393651
100
AcDbArc
 50
55.84648132324219
 51
90.0
  0
ARC
  5
4CA
330
1F
100
AcDbEntity
  8
D-A
  6
Continuous
 62
     2
370
     9
100
AcDbCircle
 10
506.1696097344702
 20
-447.6811344453096
 30
0.0
 40
1.250000016109364
100
AcDbArc
 50
0.0
 51
59.99960327148438
  0
ARC
  5
4CB
330
1F
100
AcDbEntity
  8
D-2
  6
Continuous
 62
     3
370
     9
100
AcDbCircle
 10
379.4195503489129
 20
-398.9304787297796
 30
0.0
 40
7.500000096656181
100
AcDbArc
 50
0.0
 51
9.593612670898438
  0
ARC
  5
4CC
330
1F
100
AcDbEntity
  8
D-2
  6
Continuous
 62
     3
370
     9
100
AcDbCircle
 10
444.4197338667811
 20
-398.9304787297796
 30
0.0
 40
7.500000096656181
100
AcDbArc
 50
170.4063873291016
 51
180.0
  0
ARC
  5
4CD
330
1F
100
AcDbEntity
  8
D-0
  6
Continuous
 62
     4
370
     9
100
AcDbCircle
 10
327.2475751357848
 20
-392.6805818297056
 30
0.0
 40
7.500000096656181
100
AcDbArc
 50
90.0
 51
176.423583984375
  0
ARC
  5
4CE
330
1F
100
AcDbEntity
  8
D-0
  6
Continuous
 62
     4
370
     9
100
AcDbCircle
 10
496.5922039595546
 20
-392.6805818297056
 30
0.0
 40
7.500000096656181
100
AcDbArc
 50
3.576400756835938
 51
89.99999999999999
  0
TEXT
  5
4CF
330
1F
100
AcDbEntity
  8
D-F
  6
Continuous
 62
     7
370
     9
100
AcDbText
 10
173.9772398025708
 20
-342.5781779932636
 30
0.0
 40
11.43
  1
ＳＣＳ１３
 41
1.133333333333333
  7
ＭＳ ゴシック
100
AcDbText
  0
TEXT
  5
4D0
330
1F
100
AcDbEntity
  8
D-F
  6
Continuous
 62
     7
370
     9
100
AcDbText
 10
174.4770829356531
 20
-319.5125181867286
 30
0.0
 40
11.43
  1
把手カバ－
 41
1.133333333333333
  7
ＭＳ ゴシック
100
AcDbText
  0
LINE
  5
4D1
330
1F
100
AcDbEntity
  8
D-F
  6
Continuous
 62
     7
370
     9
100
AcDbLine
 10
170.4783378709948
 20
-326.6125645734473
 30
0.0
 11
262.3689300263251
 21
-326.6125645734473
 31
0.0
  0
TEXT
  5
4D2
330
1F
100
AcDbEntity
  8
D-F
  6
Continuous
 62
     7
370
     9
100
AcDbText
 10
158.878875143329
 20
-495.7364526203304
 30
0.0
 40
11.43
  1
強化ナイロン樹脂
 41
1.145833333333331
  7
ＭＳ ゴシック
100
AcDbText
  0
TEXT
  5
4D3
330
1F
100
AcDbEntity
  8
D-F
  6
Continuous
 62
     7
370
     9
100
AcDbText
 10
193.6078407805161
 20
-471.311505153223
 30
0.0
 40
11.43
  1
把手本体
 41
1.125
  7
ＭＳ ゴシック
100
AcDbText
  0
LINE
  5
4D4
330
1F
100
AcDbEntity
  8
D-F
  6
Continuous
 62
     7
370
     9
100
AcDbLine
 10
262.3689300263251
 20
-326.6125645734473
 30
0.0
 11
307.225631152948
 21
-371.430697301623
 31
0.0
  0
LINE
  5
4D5
330
1F
100
AcDbEntity
  8
D-F
  6
Continuous
 62
     7
370
     9
100
AcDbLine
 10
307.225631152948
 20
-371.430697301623
 30
0.0
 11
297.3054425266258
 21
-363.8254453256404
 31
0.0
  0
LINE
  5
4D6
330
1F
100
AcDbEntity
  8
D-F
  6
Continuous
 62
     7
370
     9
100
AcDbLine
 10
307.225631152948
 20
-371.430697301623
 30
0.0
 11
299.611848811312
 21
-361.5170542550838
 31
0.0
  0
LINE
  5
4D7
330
1F
100
AcDbEntity
  8
D-F
  6
Continuous
 62
     7
370
     9
100
AcDbLine
 10
302.576380031586
 20
-477.2777822726276
 30
0.0
 11
374.4199050126588
 21
-449.7853880159894
 31
0.0
  0
LINE
  5
4D8
330
1F
100
AcDbEntity
  8
D-F
  6
Continuous
 62
     7
370
     9
100
AcDbLine
 10
374.4199050126588
 20
-449.7853880159894
 30
0.0
 11
363.4284897658694
 21
-455.7384368880083
 31
0.0
  0
LINE
  5
4D9
330
1F
100
AcDbEntity
  8
D-F
  6
Continuous
 62
     7
370
     9
100
AcDbLine
 10
374.4199050126588
 20
-449.7853880159894
 30
0.0
 11
362.2622507338127
 21
-452.690804068134
 31
0.0
  0
LINE
  5
4DA
330
1F
100
AcDbEntity
  8
D-4
  6
Continuous
 62
     7
370
     9
100
AcDbLine
 10
696.2710081927395
 20
-298.9303962498387
 30
0.0
 11
696.2710081927395
 21
-371.430697301623
 31
0.0
  0
LINE
  5
4DB
330
1F
100
AcDbEntity
  8
D-4
  6
Continuous
 62
     7
370
     9
100
AcDbLine
 10
696.2710081927395
 20
-371.430697301623
 30
0.0
 11
694.6394307899885
 21
-383.8237580687955
 31
0.0
  0
LINE
  5
4DC
330
1F
100
AcDbEntity
  8
D-4
  6
Continuous
 62
     7
370
     9
100
AcDbLine
 10
696.2710081927395
 20
-371.430697301623
 30
0.0
 11
697.9025855954899
 21
-383.8237580687955
 31
0.0
  0
LINE
  5
4DD
330
1F
100
AcDbEntity
  8
D-4
  6
Continuous
 62
     7
370
     9
100
AcDbLine
 10
697.7710081927393
 20
-298.9303962498387
 30
0.0
 11
501.0449124358536
 21
-298.9303962498387
 31
0.0
  0
LINE
  5
4DE
330
1F
100
AcDbEntity
  8
D-4
  6
Continuous
 62
     7
370
     9
100
AcDbLine
 10
697.7710081927393
 20
-371.430697301623
 30
0.0
 11
536.9199132606525
 21
-371.430697301623
 31
0.0
  0
TEXT
  5
4DF
330
1F
100
AcDbEntity
  8
D-4
  6
Continuous
 62
     2
370
   211
100
AcDbText
 10
690.4510081927393
 20
-345.8055467757308
 30
0.0
 40
15.24
  1
29
 50
90.0
 41
1.0625
  7
ＭＳ ゴシック
100
AcDbText
  0
LINE
  5
4E0
330
1F
100
AcDbEntity
  8
D-4
  6
Continuous
 62
     7
370
     9
100
AcDbLine
 10
696.2710081927395
 20
-371.430697301623
 30
0.0
 11
696.2710081927395
 21
-497.6804952257677
 31
0.0
  0
LINE
  5
4E1
330
1F
100
AcDbEntity
  8
D-4
  6
Continuous
 62
     7
370
     9
100
AcDbLine
 10
696.2710081927395
 20
-371.430697301623
 30
0.0
 11
694.6394307899885
 21
-359.0376365344503
 31
0.0
  0
LINE
  5
4E2
330
1F
100
AcDbEntity
  8
D-4
  6
Continuous
 62
     7
370
     9
100
AcDbLine
 10
696.2710081927395
 20
-371.430697301623
 30
0.0
 11
697.9025855954899
 21
-359.0376365344503
 31
0.0
  0
LINE
  5
4E3
330
1F
100
AcDbEntity
  8
D-4
  6
Continuous
 62
     7
370
     9
100
AcDbLine
 10
697.7710081927393
 20
-497.6804952257677
 30
0.0
 11
459.4199050126588
 21
-497.6804952257677
 31
0.0
  0
TEXT
  5
4E4
330
1F
100
AcDbEntity
  8
D-4
  6
Continuous
 62
     2
370
   211
100
AcDbText
 10
690.4510081927393
 20
-456.4305962636953
 30
0.0
 40
15.24
  1
50.5
 50
90.0
 41
1.09375
  7
ＭＳ ゴシック
100
AcDbText
  0
LINE
  5
4E5
330
1F
100
AcDbEntity
  8
D-4
  6
Continuous
 62
     7
370
     9
100
AcDbLine
 10
654.8065929141268
 20
-371.430697301623
 30
0.0
 11
653.1750155113764
 21
-359.0376365344503
 31
0.0
  0
LINE
  5
4E6
330
1F
100
AcDbEntity
  8
D-4
  6
Continuous
 62
     7
370
     9
100
AcDbLine
 10
654.8065929141268
 20
-371.430697301623
 30
0.0
 11
656.4381703168777
 21
-359.0376365344503
 31
0.0
  0
LINE
  5
4E7
330
1F
100
AcDbEntity
  8
D-4
  6
Continuous
 62
     7
370
     9
100
AcDbLine
 10
654.8065929141268
 20
-377.6805942016967
 30
0.0
 11
653.1750155113764
 21
-390.0736549688695
 31
0.0
  0
LINE
  5
4E8
330
1F
100
AcDbEntity
  8
D-4
  6
Continuous
 62
     7
370
     9
100
AcDbLine
 10
654.8065929141268
 20
-377.6805942016967
 30
0.0
 11
656.4381703168777
 21
-390.0736549688695
 31
0.0
  0
LINE
  5
4E9
330
1F
100
AcDbEntity
  8
D-4
  6
Continuous
 62
     7
370
     9
100
AcDbLine
 10
656.3065929141271
 20
-377.6805942016967
 30
0.0
 11
613.1902693100614
 21
-377.6805942016967
 31
0.0
  0
TEXT
  5
4EA
330
1F
100
AcDbEntity
  8
D-4
  6
Continuous
 62
     2
370
   211
100
AcDbText
 10
648.9865929141266
 20
-366.5945335647095
 30
0.0
 40
15.24
  1
2.5
 50
90.0
 41
1.083333333333333
  7
ＭＳ ゴシック
100
AcDbText
  0
LINE
  5
4EB
330
1F
100
AcDbEntity
  8
D-4
  6
Continuous
 62
     7
370
     9
100
AcDbLine
 10
654.8065929141268
 20
-328.2967550367471
 30
0.0
 11
654.8065929141268
 21
-397.4756195853378
 31
0.0
  0
LINE
  5
4EC
330
1F
100
AcDbEntity
  8
D-4
  6
Continuous
 62
     7
370
     9
100
AcDbLine
 10
696.2710081927395
 20
-497.6804952257677
 30
0.0
 11
694.6394307899885
 21
-485.2874344585952
 31
0.0
  0
LINE
  5
4ED
330
1F
100
AcDbEntity
  8
D-4
  6
Continuous
 62
     7
370
     9
100
AcDbLine
 10
696.2710081927395
 20
-497.6804952257677
 30
0.0
 11
697.9025855954899
 21
-485.2874344585952
 31
0.0
  0
LINE
  5
4EE
330
1F
100
AcDbEntity
  8
D-4
  6
Continuous
 62
     7
370
     9
100
AcDbLine
 10
696.2710081927395
 20
-298.9303962498387
 30
0.0
 11
694.6394307899885
 21
-311.3234570170113
 31
0.0
  0
LINE
  5
4EF
330
1F
100
AcDbEntity
  8
D-4
  6
Continuous
 62
     7
370
     9
100
AcDbLine
 10
696.2710081927395
 20
-298.9303962498387
 30
0.0
 11
697.9025855954899
 21
-311.3234570170113
 31
0.0
  0
LINE
  5
4F0
330
1F
100
AcDbEntity
  8
D-4
  6
Continuous
 62
     7
370
     9
100
AcDbLine
 10
271.9198307162743
 20
-77.87868110923085
 30
0.0
 11
551.9199957405937
 21
-77.87868110923085
 31
0.0
  0
LINE
  5
4F1
330
1F
100
AcDbEntity
  8
D-4
  6
Continuous
 62
     7
370
     9
100
AcDbLine
 10
271.9198307162743
 20
-77.87868110923085
 30
0.0
 11
284.3128914834471
 21
-76.2471037064802
 31
0.0
  0
LINE
  5
4F2
330
1F
100
AcDbEntity
  8
D-4
  6
Continuous
 62
     7
370
     9
100
AcDbLine
 10
271.9198307162743
 20
-77.87868110923085
 30
0.0
 11
284.3128914834471
 21
-79.5102585119815
 31
0.0
  0
LINE
  5
4F3
330
1F
100
AcDbEntity
  8
D-4
  6
Continuous
 62
     7
370
     9
100
AcDbLine
 10
551.9199957405937
 20
-77.87868110923085
 30
0.0
 11
539.5269349734207
 21
-76.2471037064802
 31
0.0
  0
LINE
  5
4F4
330
1F
100
AcDbEntity
  8
D-4
  6
Continuous
 62
     7
370
     9
100
AcDbLine
 10
551.9199957405937
 20
-77.87868110923085
 30
0.0
 11
539.5269349734207
 21
-79.5102585119815
 31
0.0
  0
LINE
  5
4F5
330
1F
100
AcDbEntity
  8
D-4
  6
Continuous
 62
     7
370
     9
100
AcDbLine
 10
271.9198307162743
 20
-76.37868110923083
 30
0.0
 11
271.9198307162743
 21
-105.4460466009432
 31
0.0
  0
LINE
  5
4F6
330
1F
100
AcDbEntity
  8
D-4
  6
Continuous
 62
     7
370
     9
100
AcDbLine
 10
551.9199957405937
 20
-76.37868110923083
 30
0.0
 11
551.9199957405937
 21
-105.4460466009432
 31
0.0
  0
TEXT
  5
4F7
330
1F
100
AcDbEntity
  8
D-4
  6
Continuous
 62
     2
370
   211
100
AcDbText
 10
395.6699132284342
 20
-72.05868110923086
 30
0.0
 40
15.24
  1
112
 41
1.083333333333333
  7
ＭＳ ゴシック
100
AcDbText
  0
LINE
  5
4F8
330
1F
100
AcDbEntity
  8
D-4
  6
Continuous
 62
     7
370
     9
100
AcDbLine
 10
594.7420209962206
 20
-247.9460961533453
 30
0.0
 11
594.7420209962206
 21
-110.4459063850438
 31
0.0
  0
LINE
  5
4F9
330
1F
100
AcDbEntity
  8
D-4
  6
Continuous
 62
     7
370
     9
100
AcDbLine
 10
594.7420209962206
 20
-247.9460961533453
 30
0.0
 11
593.1104435934697
 21
-235.5530353861727
 31
0.0
  0
LINE
  5
4FA
330
1F
100
AcDbEntity
  8
D-4
  6
Continuous
 62
     7
370
     9
100
AcDbLine
 10
594.7420209962206
 20
-247.9460961533453
 30
0.0
 11
596.373598398971
 21
-235.5530353861727
 31
0.0
  0
LINE
  5
4FB
330
1F
100
AcDbEntity
  8
D-4
  6
Continuous
 62
     7
370
     9
100
AcDbLine
 10
594.7420209962206
 20
-110.4459063850438
 30
0.0
 11
593.1104435934697
 21
-122.8389671522164
 31
0.0
  0
LINE
  5
4FC
330
1F
100
AcDbEntity
  8
D-4
  6
Continuous
 62
     7
370
     9
100
AcDbLine
 10
594.7420209962206
 20
-110.4459063850438
 30
0.0
 11
596.373598398971
 21
-122.8389671522164
 31
0.0
  0
LINE
  5
4FD
330
1F
100
AcDbEntity
  8
D-4
  6
Continuous
 62
     7
370
     9
100
AcDbLine
 10
596.2420209962204
 20
-247.9460961533453
 30
0.0
 11
556.9198555246942
 21
-247.9460961533453
 31
0.0
  0
LINE
  5
4FE
330
1F
100
AcDbEntity
  8
D-4
  6
Continuous
 62
     7
370
     9
100
AcDbLine
 10
596.2420209962204
 20
-110.4459063850438
 30
0.0
 11
556.9198555246942
 21
-110.4459063850438
 31
0.0
  0
TEXT
  5
4FF
330
1F
100
AcDbEntity
  8
D-4
  6
Continuous
 62
     2
370
   211
100
AcDbText
 10
588.9220209962205
 20
-189.8210012691945
 30
0.0
 40
15.24
  1
55
 50
90.0
 41
1.0625
  7
ＭＳ ゴシック
100
AcDbText
  0
TEXT
  5
500
330
1F
100
AcDbEntity
  8
D-F
  6
Continuous
 62
     2
370
     9
100
AcDbText
 10
305.5863091494936
 20
-557.4147345007572
 30
0.0
 40
15.24
  1
把手詳細図　Ｓ＝１：２
 41
1.113636363636364
  7
ＭＳ ゴシック
100
AcDbText
  0
LINE
  5
501
330
1F
100
AcDbEntity
  8
D-F
  6
Continuous
 62
     7
370
     9
100
AcDbLine
 10
300.9253971988116
 20
-567.4330991709695
 30
0.0
 11
554.9789089955343
 21
-567.4330991709695
 31
0.0
  0
LINE
  5
502
330
1F
100
AcDbEntity
  8
D-2
  6
Continuous
 62
     3
370
     9
100
AcDbLine
 10
298.7817918932117
 20
358.2925188717797
 30
0.0
 11
251.2818826211466
 21
358.2925188717797
 31
0.0
  0
LINE
  5
503
330
1F
100
AcDbEntity
  8
D-2
  6
Continuous
 62
     3
370
     9
100
AcDbLine
 10
298.7817918932117
 20
358.2925188717797
 30
0.0
 11
298.7817918932117
 21
347.0421724560279
 31
0.0
  0
LINE
  5
504
330
1F
100
AcDbEntity
  8
D-2
  6
Continuous
 62
     3
370
     9
100
AcDbLine
 10
298.7817918932117
 20
347.0421724560279
 30
0.0
 11
275.0315898173565
 21
347.0421724560279
 31
0.0
  0
LINE
  5
505
330
1F
100
AcDbEntity
  8
D-2
  6
Continuous
 62
     3
370
     9
100
AcDbLine
 10
251.2818826211466
 20
358.2925188717797
 30
0.0
 11
251.2818826211466
 21
352.0424363918385
 31
0.0
  0
LINE
  5
506
330
1F
100
AcDbEntity
  8
D-2
  6
Continuous
 62
     3
370
     9
100
AcDbLine
 10
298.7817918932117
 20
352.0424363918385
 30
0.0
 11
251.2818826211466
 21
352.0424363918385
 31
0.0
  0
LINE
  5
507
330
1F
100
AcDbEntity
  8
D-2
  6
Continuous
 62
     3
370
     9
100
AcDbLine
 10
275.0315898173565
 20
347.0421724560279
 30
0.0
 11
275.0315898173565
 21
352.0424363918385
 31
0.0
  0
LINE
  5
508
330
1F
100
AcDbEntity
  8
D-2
  6
Continuous
 62
     3
370
     9
100
AcDbLine
 10
280.0320393330343
 20
332.0421229680633
 30
0.0
 11
270.0318826211466
 21
332.0421229680633
 31
0.0
  0
LINE
  5
509
330
1F
100
AcDbEntity
  8
D-2
  6
Continuous
 62
     3
370
     9
100
AcDbLine
 10
267.531441353463
 20
334.5425023757911
 30
0.0
 11
267.531441353463
 21
352.0424363918385
 31
0.0
  0
LINE
  5
50A
330
1F
100
AcDbEntity
  8
D-2
  6
Continuous
 62
     3
370
     9
100
AcDbLine
 10
282.5317382812501
 20
334.5425023757911
 30
0.0
 11
282.5317382812501
 21
347.0421724560279
 31
0.0
  0
LINE
  5
50B
330
1F
100
AcDbEntity
  8
D-0
  6
Continuous
 62
     4
370
     9
100
AcDbLine
 10
231.281816637194
 20
458.2919827521638
 30
0.0
 11
207.40121377481
 21
455.7852936289586
 31
0.0
  0
LINE
  5
50C
330
1F
100
AcDbEntity
  8
D-0
  6
Continuous
 62
     4
370
     9
100
AcDbLine
 10
318.7813629975191
 20
458.2919827521638
 30
0.0
 11
342.661780280036
 21
455.7852936289586
 31
0.0
  0
LINE
  5
50D
330
1F
100
AcDbEntity
  8
D-0
  6
Continuous
 62
     4
370
     9
100
AcDbLine
 10
318.7813629975191
 20
458.2919827521638
 30
0.0
 11
231.281816637194
 21
458.2919827521638
 31
0.0
  0
LINE
  5
50E
330
1F
100
AcDbEntity
  8
D-0
  6
Continuous
 62
     4
370
     9
100
AcDbLine
 10
343.7813217575487
 20
454.5420322401281
 30
0.0
 11
343.7813217575487
 21
452.0420239921341
 31
0.0
  0
LINE
  5
50F
330
1F
100
AcDbEntity
  8
D-0
  6
Continuous
 62
     4
370
     9
100
AcDbLine
 10
206.2818578771644
 20
454.5420322401281
 30
0.0
 11
206.2818578771644
 21
452.0420239921341
 31
0.0
  0
LINE
  5
510
330
1F
100
AcDbEntity
  8
D-0
  6
Continuous
 62
     4
370
     9
100
AcDbLine
 10
252.5315774453654
 20
432.0420817280927
 30
0.0
 11
297.5316021893477
 21
432.0420817280927
 31
0.0
  0
LINE
  5
511
330
1F
100
AcDbEntity
  8
D-0
  6
Continuous
 62
     4
370
     9
100
AcDbLine
 10
313.7817176612649
 20
432.0420817280927
 30
0.0
 11
298.7811732936551
 21
432.0420817280927
 31
0.0
  0
LINE
  5
512
330
1F
100
AcDbEntity
  8
D-0
  6
Continuous
 62
     4
370
     9
100
AcDbLine
 10
236.2814619734482
 20
432.0420817280927
 30
0.0
 11
251.282006341058
 21
432.0420817280927
 31
0.0
  0
LINE
  5
513
330
1F
100
AcDbEntity
  8
D-A
  6
Continuous
 62
     2
370
     9
100
AcDbLine
 10
315.0314124854837
 20
432.0420817280927
 30
0.0
 11
315.0314124854837
 21
425.7921229680633
 31
0.0
  0
LINE
  5
514
330
1F
100
AcDbEntity
  8
D-A
  6
Continuous
 62
     2
370
     9
100
AcDbLine
 10
297.5314784694364
 20
432.0420817280927
 30
0.0
 11
297.5314784694364
 21
425.7921229680633
 31
0.0
  0
LINE
  5
515
330
1F
100
AcDbEntity
  8
D-A
  6
Continuous
 62
     2
370
     9
100
AcDbLine
 10
310.6564289814718
 20
424.5420569841104
 30
0.0
 11
301.9064619734482
 21
424.5420569841104
 31
0.0
  0
LINE
  5
516
330
1F
100
AcDbEntity
  8
D-A
  6
JWW_CENTER1
 62
     2
370
     9
100
AcDbLine
 10
306.28144547746
 20
453.7644525974974
 30
0.0
 11
306.28144547746
 21
433.0344391367711
 31
0.0
  0
LINE
  5
517
330
1F
100
AcDbEntity
  8
D-A
  6
Continuous
 62
     2
370
     9
100
AcDbLine
 10
315.0314124854837
 20
432.0420817280927
 30
0.0
 11
313.7817176612649
 21
432.0420817280927
 31
0.0
  0
LINE
  5
518
330
1F
100
AcDbEntity
  8
D-A
  6
Continuous
 62
     2
370
     9
100
AcDbLine
 10
306.28144547746
 20
425.7921229680633
 30
0.0
 11
306.28144547746
 21
432.0420817280927
 31
0.0
  0
LINE
  5
519
330
1F
100
AcDbEntity
  8
D-A
  6
Continuous
 62
     2
370
     9
100
AcDbLine
 10
235.0317052892738
 20
432.0420817280927
 30
0.0
 11
235.0317052892738
 21
425.7921229680633
 31
0.0
  0
LINE
  5
51A
330
1F
100
AcDbEntity
  8
D-A
  6
Continuous
 62
     2
370
     9
100
AcDbLine
 10
252.5317011652767
 20
432.0420817280927
 30
0.0
 11
252.5317011652767
 21
425.7921229680633
 31
0.0
  0
LINE
  5
51B
330
1F
100
AcDbEntity
  8
D-A
  6
Continuous
 62
     2
370
     9
100
AcDbLine
 10
239.4066887932856
 20
424.5420569841104
 30
0.0
 11
248.1567795212205
 21
424.5420569841104
 31
0.0
  0
LINE
  5
51C
330
1F
100
AcDbEntity
  8
D-A
  6
Continuous
 62
     2
370
     9
100
AcDbLine
 10
235.0317052892738
 20
432.0420817280927
 30
0.0
 11
236.2814619734482
 21
432.0420817280927
 31
0.0
  0
LINE
  5
51D
330
1F
100
AcDbEntity
  8
D-A
  6
Continuous
 62
     2
370
     9
100
AcDbLine
 10
243.7817341572531
 20
425.7921229680633
 30
0.0
 11
243.7817341572531
 21
432.0420817280927
 31
0.0
  0
LINE
  5
51E
330
1F
100
AcDbEntity
  8
D-2
  6
Continuous
 62
     3
370
     9
100
AcDbLine
 10
282.5317382812501
 20
358.2925188717797
 30
0.0
 11
282.5317382812501
 21
432.0420817280927
 31
0.0
  0
LINE
  5
51F
330
1F
100
AcDbEntity
  8
D-2
  6
Continuous
 62
     3
370
     9
100
AcDbLine
 10
267.531441353463
 20
358.2925188717797
 30
0.0
 11
267.531441353463
 21
432.0420817280927
 31
0.0
  0
LINE
  5
520
330
1F
100
AcDbEntity
  8
D-A
  6
Continuous
 62
     2
370
     9
100
AcDbLine
 10
308.7807732659418
 20
401.5420305905297
 30
0.0
 11
308.7807732659418
 21
399.0423316423135
 31
0.0
  0
LINE
  5
521
330
1F
100
AcDbEntity
  8
D-A
  6
Continuous
 62
     2
370
     9
100
AcDbLine
 10
310.0308392498945
 20
401.5420305905297
 30
0.0
 11
310.0308392498945
 21
399.0423316423135
 31
0.0
  0
LINE
  5
522
330
1F
100
AcDbEntity
  8
D-A
  6
Continuous
 62
     2
370
     9
100
AcDbLine
 10
315.7805984084672
 20
401.5416594307956
 30
0.0
 11
315.7805984084672
 21
399.0420223425354
 31
0.0
  0
LINE
  5
523
330
1F
100
AcDbEntity
  8
D-A
  6
Continuous
 62
     2
370
     9
100
AcDbLine
 10
315.7805984084672
 20
399.0420223425354
 30
0.0
 11
296.7810553473396
 21
399.0420223425354
 31
0.0
  0
LINE
  5
524
330
1F
100
AcDbEntity
  8
D-A
  6
Continuous
 62
     2
370
     9
100
AcDbLine
 10
296.7810553473396
 20
401.5416594307956
 30
0.0
 11
296.7810553473396
 21
399.0420223425354
 31
0.0
  0
LINE
  5
525
330
1F
100
AcDbEntity
  8
D-A
  6
Continuous
 62
     2
370
     9
100
AcDbLine
 10
315.0314124854837
 20
399.0420223425354
 30
0.0
 11
315.0314124854837
 21
392.7920635825057
 31
0.0
  0
LINE
  5
526
330
1F
100
AcDbEntity
  8
D-A
  6
Continuous
 62
     2
370
     9
100
AcDbLine
 10
297.5314784694364
 20
399.0420223425354
 30
0.0
 11
297.5314784694364
 21
392.7920635825057
 31
0.0
  0
LINE
  5
527
330
1F
100
AcDbEntity
  8
D-A
  6
Continuous
 62
     2
370
     9
100
AcDbLine
 10
314.6306218327704
 20
391.5419975985531
 30
0.0
 11
297.9322691221496
 21
391.5419975985531
 31
0.0
  0
LINE
  5
528
330
1F
100
AcDbEntity
  8
D-A
  6
Continuous
 62
     2
370
     9
100
AcDbLine
 10
306.28144547746
 20
392.7920635825057
 30
0.0
 11
306.28144547746
 21
399.0420223425354
 31
0.0
  0
LINE
  5
529
330
1F
100
AcDbEntity
  8
D-A
  6
Continuous
 62
     2
370
     9
100
AcDbLine
 10
246.2810619457349
 20
401.5420305905297
 30
0.0
 11
246.2810619457349
 21
399.0423316423135
 31
0.0
  0
LINE
  5
52A
330
1F
100
AcDbEntity
  8
D-A
  6
Continuous
 62
     2
370
     9
100
AcDbLine
 10
247.5311279296876
 20
401.5420305905297
 30
0.0
 11
247.5311279296876
 21
399.0423316423135
 31
0.0
  0
LINE
  5
52B
330
1F
100
AcDbEntity
  8
D-A
  6
Continuous
 62
     2
370
     9
100
AcDbLine
 10
253.2808870882602
 20
401.5416594307956
 30
0.0
 11
253.2808870882602
 21
399.0420223425354
 31
0.0
  0
LINE
  5
52C
330
1F
100
AcDbEntity
  8
D-A
  6
Continuous
 62
     2
370
     9
100
AcDbLine
 10
253.2808870882602
 20
399.0420223425354
 30
0.0
 11
234.2813440271327
 21
399.0420223425354
 31
0.0
  0
LINE
  5
52D
330
1F
100
AcDbEntity
  8
D-A
  6
Continuous
 62
     2
370
     9
100
AcDbLine
 10
234.2813440271327
 20
401.5416594307956
 30
0.0
 11
234.2813440271327
 21
399.0420223425354
 31
0.0
  0
LINE
  5
52E
330
1F
100
AcDbEntity
  8
D-A
  6
Continuous
 62
     2
370
     9
100
AcDbLine
 10
252.5317011652767
 20
399.0420223425354
 30
0.0
 11
252.5317011652767
 21
392.7920635825057
 31
0.0
  0
LINE
  5
52F
330
1F
100
AcDbEntity
  8
D-A
  6
Continuous
 62
     2
370
     9
100
AcDbLine
 10
235.0317671492294
 20
399.0420223425354
 30
0.0
 11
235.0317671492294
 21
392.7920635825057
 31
0.0
  0
LINE
  5
530
330
1F
100
AcDbEntity
  8
D-A
  6
Continuous
 62
     2
370
     9
100
AcDbLine
 10
243.7817341572531
 20
392.7920635825057
 30
0.0
 11
243.7817341572531
 21
399.0420223425354
 31
0.0
  0
LINE
  5
531
330
1F
100
AcDbEntity
  8
D-A
  6
Continuous
 62
     2
370
     9
100
AcDbLine
 10
311.2812145336255
 20
424.5420569841104
 30
0.0
 11
311.2812145336255
 21
414.5420239921341
 31
0.0
  0
LINE
  5
532
330
1F
100
AcDbEntity
  8
D-A
  6
Continuous
 62
     2
370
     9
100
AcDbLine
 10
309.7809868889887
 20
424.5420569841104
 30
0.0
 11
309.7809868889887
 21
414.5420239921341
 31
0.0
  0
LINE
  5
533
330
1F
100
AcDbEntity
  8
D-A
  6
Continuous
 62
     2
370
     9
100
AcDbLine
 10
302.7812854663747
 20
424.5420569841104
 30
0.0
 11
302.7812854663747
 21
414.5420239921341
 31
0.0
  0
LINE
  5
534
330
1F
100
AcDbEntity
  8
D-A
  6
Continuous
 62
     2
370
     9
100
AcDbLine
 10
301.2810578217378
 20
424.5420569841104
 30
0.0
 11
301.2810578217378
 21
414.5420239921341
 31
0.0
  0
LINE
  5
535
330
1F
100
AcDbEntity
  8
D-A
  6
Continuous
 62
     2
370
     9
100
AcDbLine
 10
248.7821218129752
 20
424.5420569841104
 30
0.0
 11
248.7821218129752
 21
414.5420239921341
 31
0.0
  0
LINE
  5
536
330
1F
100
AcDbEntity
  8
D-A
  6
Continuous
 62
     2
370
     9
100
AcDbLine
 10
247.2818941683383
 20
424.5420569841104
 30
0.0
 11
247.2818941683383
 21
414.5420239921341
 31
0.0
  0
LINE
  5
537
330
1F
100
AcDbEntity
  8
D-A
  6
Continuous
 62
     2
370
     9
100
AcDbLine
 10
240.2821927457244
 20
424.5420569841104
 30
0.0
 11
240.2821927457244
 21
414.5420239921341
 31
0.0
  0
LINE
  5
538
330
1F
100
AcDbEntity
  8
D-A
  6
Continuous
 62
     2
370
     9
100
AcDbLine
 10
238.7819651010875
 20
424.5420569841104
 30
0.0
 11
238.7819651010875
 21
414.5420239921341
 31
0.0
  0
LINE
  5
539
330
1F
100
AcDbEntity
  8
D-3
  6
Continuous
 62
     3
370
     9
100
AcDbLine
 10
311.2815856933594
 20
401.5420305905297
 30
0.0
 11
311.2815856933594
 21
409.5420074961461
 31
0.0
  0
LINE
  5
53A
330
1F
100
AcDbEntity
  8
D-3
  6
Continuous
 62
     3
370
     9
100
AcDbLine
 10
238.7815939413536
 20
401.5420305905297
 30
0.0
 11
238.7815939413536
 21
409.5420074961461
 31
0.0
  0
LINE
  5
53B
330
1F
100
AcDbEntity
  8
D-0
  6
Continuous
 62
     4
370
     9
100
AcDbLine
 10
316.427653544658
 20
434.3861410278711
 30
0.0
 11
317.3851219383447
 21
449.6980884122672
 31
0.0
  0
LINE
  5
53C
330
1F
100
AcDbEntity
  8
D-0
  6
Continuous
 62
     4
370
     9
100
AcDbLine
 10
233.635526090055
 20
434.3861410278711
 30
0.0
 11
232.6780576963684
 21
449.6980884122672
 31
0.0
  0
LINE
  5
53D
330
1F
100
AcDbEntity
  8
D-A
  6
Continuous
 62
     2
370
     9
100
AcDbLine
 10
296.1777970597552
 20
384.554853746938
 30
0.0
 11
296.1777970597552
 21
390.5290408246406
 31
0.0
  0
LINE
  5
53E
330
1F
100
AcDbEntity
  8
D-A
  6
Continuous
 62
     2
370
     9
100
AcDbLine
 10
297.9322691221496
 20
391.5419975985531
 30
0.0
 11
296.1777970597552
 21
390.5290408246406
 31
0.0
  0
LINE
  5
53F
330
1F
100
AcDbEntity
  8
D-A
  6
Continuous
 62
     2
370
     9
100
AcDbLine
 10
299.2814347550677
 20
382.0413600286101
 30
0.0
 11
299.2814347550677
 21
380.8494424029765
 31
0.0
  0
LINE
  5
540
330
1F
100
AcDbEntity
  8
D-A
  6
Continuous
 62
     2
370
     9
100
AcDbLine
 10
298.6564017630914
 20
383.1239092526391
 30
0.0
 11
296.1777970597552
 21
384.554853746938
 31
0.0
  0
LINE
  5
541
330
1F
100
AcDbEntity
  8
D-A
  6
Continuous
 62
     2
370
     9
100
AcDbLine
 10
313.906427331873
 20
383.1239092526391
 30
0.0
 11
316.3850320352091
 21
384.554853746938
 31
0.0
  0
LINE
  5
542
330
1F
100
AcDbEntity
  8
D-A
  6
Continuous
 62
     2
370
     9
100
AcDbLine
 10
313.2814561998523
 20
380.8494424029765
 30
0.0
 11
313.2814561998523
 21
382.0413600286101
 31
0.0
  0
LINE
  5
543
330
1F
100
AcDbEntity
  8
D-A
  6
Continuous
 62
     2
370
     9
100
AcDbLine
 10
316.3850320352091
 20
384.554853746938
 30
0.0
 11
316.3850320352091
 21
390.5290408246406
 31
0.0
  0
LINE
  5
544
330
1F
100
AcDbEntity
  8
D-A
  6
Continuous
 62
     2
370
     9
100
AcDbLine
 10
301.2296521985854
 20
384.554853746938
 30
0.0
 11
301.2296521985854
 21
390.5290408246406
 31
0.0
  0
LINE
  5
545
330
1F
100
AcDbEntity
  8
D-A
  6
Continuous
 62
     2
370
     9
100
AcDbLine
 10
311.3332387563346
 20
384.554853746938
 30
0.0
 11
311.3332387563346
 21
390.5290408246406
 31
0.0
  0
LINE
  5
546
330
1F
100
AcDbEntity
  8
D-A
  6
Continuous
 62
     2
370
     9
100
AcDbLine
 10
314.6306218327704
 20
391.5419975985531
 30
0.0
 11
316.3850320352091
 21
390.5290408246406
 31
0.0
  0
LINE
  5
547
330
1F
100
AcDbEntity
  8
D-A
  6
Continuous
 62
     2
370
     9
100
AcDbLine
 10
297.9322691221496
 20
383.541958832981
 30
0.0
 11
314.6306218327704
 21
383.541958832981
 31
0.0
  0
LINE
  5
548
330
1F
100
AcDbEntity
  8
D-A
  6
JWW_CENTER1
 62
     2
370
     9
100
AcDbLine
 10
306.28144547746
 20
396.7500491254219
 30
0.0
 11
306.28144547746
 21
372.8683946437916
 31
0.0
  0
LINE
  5
549
330
1F
100
AcDbEntity
  8
D-A
  6
Continuous
 62
     2
370
     9
100
AcDbLine
 10
253.8853825749579
 20
384.554853746938
 30
0.0
 11
253.8853825749579
 21
390.5290408246406
 31
0.0
  0
LINE
  5
54A
330
1F
100
AcDbEntity
  8
D-A
  6
Continuous
 62
     2
370
     9
100
AcDbLine
 10
252.1309105125634
 20
391.5419975985531
 30
0.0
 11
253.8853825749579
 21
390.5290408246406
 31
0.0
  0
LINE
  5
54B
330
1F
100
AcDbEntity
  8
D-A
  6
Continuous
 62
     2
370
     9
100
AcDbLine
 10
250.7817448796454
 20
382.0413600286101
 30
0.0
 11
250.7817448796454
 21
380.8494424029765
 31
0.0
  0
LINE
  5
54C
330
1F
100
AcDbEntity
  8
D-A
  6
Continuous
 62
     2
370
     9
100
AcDbLine
 10
251.4067778716218
 20
383.1239092526391
 30
0.0
 11
253.8853825749579
 21
384.554853746938
 31
0.0
  0
LINE
  5
54D
330
1F
100
AcDbEntity
  8
D-A
  6
Continuous
 62
     2
370
     9
100
AcDbLine
 10
236.1567523028401
 20
383.1239092526391
 30
0.0
 11
233.6781475995039
 21
384.554853746938
 31
0.0
  0
LINE
  5
54E
330
1F
100
AcDbEntity
  8
D-A
  6
Continuous
 62
     2
370
     9
100
AcDbLine
 10
236.7817234348607
 20
380.8494424029765
 30
0.0
 11
236.7817234348607
 21
382.0413600286101
 31
0.0
  0
LINE
  5
54F
330
1F
100
AcDbEntity
  8
D-A
  6
Continuous
 62
     2
370
     9
100
AcDbLine
 10
233.6781475995039
 20
384.554853746938
 30
0.0
 11
233.6781475995039
 21
390.5290408246406
 31
0.0
  0
LINE
  5
550
330
1F
100
AcDbEntity
  8
D-A
  6
Continuous
 62
     2
370
     9
100
AcDbLine
 10
248.8335274361276
 20
384.554853746938
 30
0.0
 11
248.8335274361276
 21
390.5290408246406
 31
0.0
  0
LINE
  5
551
330
1F
100
AcDbEntity
  8
D-A
  6
Continuous
 62
     2
370
     9
100
AcDbLine
 10
238.7299408783784
 20
384.554853746938
 30
0.0
 11
238.7299408783784
 21
390.5290408246406
 31
0.0
  0
LINE
  5
552
330
1F
100
AcDbEntity
  8
D-A
  6
Continuous
 62
     2
370
     9
100
AcDbLine
 10
252.1309105125634
 20
383.541958832981
 30
0.0
 11
235.4325578019427
 21
383.541958832981
 31
0.0
  0
LINE
  5
553
330
1F
100
AcDbEntity
  8
D-A
  6
JWW_CENTER1
 62
     2
370
     9
100
AcDbLine
 10
243.7817341572531
 20
396.9437945065453
 30
0.0
 11
243.7817341572531
 21
372.8683946437916
 31
0.0
  0
LINE
  5
554
330
1F
100
AcDbEntity
  8
D-3
  6
Continuous
 62
     3
370
     9
100
AcDbLine
 10
282.5317382812501
 20
409.5420074961461
 30
0.0
 11
374.6757919723924
 21
409.5420074961461
 31
0.0
  0
LINE
  5
555
330
1F
100
AcDbEntity
  8
D-A
  6
JWW_CENTER1
 62
     2
370
     9
100
AcDbLine
 10
306.28144547746
 20
423.5385647834138
 30
0.0
 11
306.28144547746
 21
401.5420305905297
 31
0.0
  0
LINE
  5
556
330
1F
100
AcDbEntity
  8
D-A
  6
Continuous
 62
     2
370
     9
100
AcDbLine
 10
252.1309105125634
 20
391.5419975985531
 30
0.0
 11
235.4325578019427
 21
391.5419975985531
 31
0.0
  0
LINE
  5
557
330
1F
100
AcDbEntity
  8
D-A
  6
Continuous
 62
     2
370
     9
100
AcDbLine
 10
235.4325578019427
 20
391.5419975985531
 30
0.0
 11
233.6781475995039
 21
390.5290408246406
 31
0.0
  0
LINE
  5
558
330
1F
100
AcDbEntity
  8
D-0
  6
Continuous
 62
     4
370
     9
100
AcDbLine
 10
206.2818578771644
 20
452.0420239921341
 30
0.0
 11
343.7813217575487
 21
452.0420239921341
 31
0.0
  0
LINE
  5
559
330
1F
100
AcDbEntity
  8
D-0
  6
Continuous
 62
     4
370
     9
100
AcDbLine
 10
252.492481953389
 20
432.3547219439922
 30
0.0
 11
252.5315774453654
 21
432.0420817280927
 31
0.0
  0
LINE
  5
55A
330
1F
100
AcDbEntity
  8
D-A
  6
JWW_CENTER1
 62
     2
370
     9
100
AcDbLine
 10
243.7817341572531
 20
453.7644525974974
 30
0.0
 11
243.7817341572531
 21
433.0344391367711
 31
0.0
  0
LINE
  5
55B
330
1F
100
AcDbEntity
  8
D-A
  6
JWW_CENTER1
 62
     2
370
     9
100
AcDbLine
 10
243.7817341572531
 20
423.5385647834138
 30
0.0
 11
243.7817341572531
 21
401.5420305905297
 31
0.0
  0
LINE
  5
55C
330
1F
100
AcDbEntity
  8
D-0
  6
Continuous
 62
     4
370
     9
100
AcDbLine
 10
295.85241369299
 20
437.9722863773221
 30
0.0
 11
296.281165045661
 21
434.542089976087
 31
0.0
  0
LINE
  5
55D
330
1F
100
AcDbEntity
  8
D-0
  6
Continuous
 62
     4
370
     9
100
AcDbLine
 10
261.6528897672088
 20
444.5419992481518
 30
0.0
 11
288.4102898675043
 21
444.5419992481518
 31
0.0
  0
LINE
  5
55E
330
1F
100
AcDbEntity
  8
D-0
  6
Continuous
 62
     4
370
     9
100
AcDbLine
 10
254.2107659417231
 20
437.9722863773221
 30
0.0
 11
253.782014589052
 21
434.542089976087
 31
0.0
  0
ARC
  5
55F
330
1F
100
AcDbEntity
  8
D-2
  6
Continuous
 62
     3
370
     9
100
AcDbCircle
 10
270.0318826211466
 20
334.5425023757911
 30
0.0
 40
2.500000273859179
100
AcDbArc
 50
180.0
 51
270.0
  0
ARC
  5
560
330
1F
100
AcDbEntity
  8
D-2
  6
Continuous
 62
     3
370
     9
100
AcDbCircle
 10
280.0320393330343
 20
334.5425023757911
 30
0.0
 40
2.500000273859179
100
AcDbArc
 50
270.0
 51
0.0
  0
ARC
  5
561
330
1F
100
AcDbEntity
  8
D-0
  6
Continuous
 62
     4
370
     9
100
AcDbCircle
 10
342.5313794935073
 20
454.5420322401281
 30
0.0
 40
1.250000016109364
100
AcDbArc
 50
0.0
 51
84.00610351562501
  0
ARC
  5
562
330
1F
100
AcDbEntity
  8
D-0
  6
Continuous
 62
     4
370
     9
100
AcDbCircle
 10
207.5318620011614
 20
454.5420322401281
 30
0.0
 40
1.250000016109364
100
AcDbArc
 50
95.993896484375
 51
180.0
  0
ARC
  5
563
330
1F
100
AcDbEntity
  8
D-A
  6
Continuous
 62
     2
370
     9
100
AcDbCircle
 10
310.6564289814718
 20
432.8233729680633
 30
0.0
 40
8.281277321480417
100
AcDbArc
 50
238.1089477539062
 51
301.8907012939453
  0
ARC
  5
564
330
1F
100
AcDbEntity
  8
D-A
  6
Continuous
 62
     2
370
     9
100
AcDbCircle
 10
301.9064619734482
 20
432.8233729680633
 30
0.0
 40
8.281277321480417
100
AcDbArc
 50
238.1092987060547
 51
301.8910522460938
  0
ARC
  5
565
330
1F
100
AcDbEntity
  8
D-A
  6
Continuous
 62
     2
370
     9
100
AcDbCircle
 10
239.4066887932856
 20
432.8233729680633
 30
0.0
 40
8.281277321480417
100
AcDbArc
 50
238.1092987060547
 51
301.8910522460938
  0
ARC
  5
566
330
1F
100
AcDbEntity
  8
D-A
  6
Continuous
 62
     2
370
     9
100
AcDbCircle
 10
248.1567795212205
 20
432.8233729680633
 30
0.0
 40
8.281277321480417
100
AcDbArc
 50
238.1089477539062
 51
301.8907012939453
  0
ARC
  5
567
330
1F
100
AcDbEntity
  8
D-A
  6
Continuous
 62
     2
370
     9
100
AcDbCircle
 10
310.6564289814718
 20
399.8233135825057
 30
0.0
 40
8.281277321480417
100
AcDbArc
 50
238.1089477539062
 51
301.8907012939453
  0
ARC
  5
568
330
1F
100
AcDbEntity
  8
D-A
  6
Continuous
 62
     2
370
     9
100
AcDbCircle
 10
301.9064619734482
 20
399.8233135825057
 30
0.0
 40
8.281277321480417
100
AcDbArc
 50
238.1092987060547
 51
301.8910522460938
  0
ARC
  5
569
330
1F
100
AcDbEntity
  8
D-A
  6
Continuous
 62
     2
370
     9
100
AcDbCircle
 10
248.1567176612648
 20
399.8233135825057
 30
0.0
 40
8.281277321480417
100
AcDbArc
 50
238.1089477539062
 51
301.8907012939453
  0
ARC
  5
56A
330
1F
100
AcDbEntity
  8
D-A
  6
Continuous
 62
     2
370
     9
100
AcDbCircle
 10
239.4067506532412
 20
399.8233135825057
 30
0.0
 40
8.281277321480417
100
AcDbArc
 50
238.1092987060547
 51
301.8910522460938
  0
ARC
  5
56B
330
1F
100
AcDbEntity
  8
D-0
  6
Continuous
 62
     4
370
     9
100
AcDbCircle
 10
319.8802432498417
 20
449.5420776040958
 30
0.0
 40
2.500000032218727
100
AcDbArc
 50
90.0
 51
176.4221649169922
  0
ARC
  5
56C
330
1F
100
AcDbEntity
  8
D-0
  6
Continuous
 62
     4
370
     9
100
AcDbCircle
 10
313.932532233161
 20
434.5421518360424
 30
0.0
 40
2.500000032218727
100
AcDbArc
 50
270.0
 51
356.4221649169922
  0
ARC
  5
56D
330
1F
100
AcDbEntity
  8
D-0
  6
Continuous
 62
     4
370
     9
100
AcDbCircle
 10
230.1829363848713
 20
449.5420776040958
 30
0.0
 40
2.500000032218727
100
AcDbArc
 50
3.577835083007803
 51
89.99999999999999
  0
ARC
  5
56E
330
1F
100
AcDbEntity
  8
D-0
  6
Continuous
 62
     4
370
     9
100
AcDbCircle
 10
236.130647401552
 20
434.5421518360424
 30
0.0
 40
2.500000032218727
100
AcDbArc
 50
183.5778350830078
 51
270.0
  0
ARC
  5
56F
330
1F
100
AcDbEntity
  8
D-A
  6
Continuous
 62
     2
370
     9
100
AcDbCircle
 10
306.28144547746
 20
396.6460625399594
 30
0.0
 40
13.10409210823678
100
AcDbArc
 50
247.3243103027343
 51
292.6756896972656
  0
ARC
  5
570
330
1F
100
AcDbEntity
  8
D-A
  6
Continuous
 62
     2
370
     9
100
AcDbCircle
 10
297.9322691221496
 20
389.4151904630484
 30
0.0
 40
5.873256277393651
100
AcDbArc
 50
270.0
 51
304.1535186767578
  0
ARC
  5
571
330
1F
100
AcDbEntity
  8
D-A
  6
Continuous
 62
     2
370
     9
100
AcDbCircle
 10
306.28144547746
 20
378.4378938915747
 30
0.0
 40
13.10409210823678
100
AcDbArc
 50
67.32431030273439
 51
112.6756896972656
  0
ARC
  5
572
330
1F
100
AcDbEntity
  8
D-A
  6
Continuous
 62
     2
370
     9
100
AcDbCircle
 10
297.9322691221496
 20
385.6687659684854
 30
0.0
 40
5.873256277393651
100
AcDbArc
 50
55.84648132324221
 51
90.00000000000003
  0
ARC
  5
573
330
1F
100
AcDbEntity
  8
D-A
  6
Continuous
 62
     2
370
     9
100
AcDbCircle
 10
306.28144547746
 20
383.541958832981
 30
0.0
 40
7.500000096656181
100
AcDbArc
 50
201.0391845703125
 51
338.9608154296874
  0
ARC
  5
574
330
1F
100
AcDbEntity
  8
D-A
  6
Continuous
 62
     2
370
     9
100
AcDbCircle
 10
298.0314306310706
 20
382.0413600286101
 30
0.0
 40
1.250000016109364
100
AcDbArc
 50
0.0
 51
59.99960327148438
  0
ARC
  5
575
330
1F
100
AcDbEntity
  8
D-A
  6
Continuous
 62
     2
370
     9
100
AcDbCircle
 10
314.6306218327704
 20
389.4151904630484
 30
0.0
 40
5.873256277393651
100
AcDbArc
 50
235.8464813232422
 51
270.0
  0
ARC
  5
576
330
1F
100
AcDbEntity
  8
D-A
  6
Continuous
 62
     2
370
     9
100
AcDbCircle
 10
314.6306218327704
 20
385.6687659684854
 30
0.0
 40
5.873256277393651
100
AcDbArc
 50
90.0
 51
124.1535186767578
  0
ARC
  5
577
330
1F
100
AcDbEntity
  8
D-A
  6
Continuous
 62
     2
370
     9
100
AcDbCircle
 10
314.5313984638937
 20
382.0413600286101
 30
0.0
 40
1.250000016109364
100
AcDbArc
 50
120.0003967285157
 51
180.0000000000001
  0
ARC
  5
578
330
1F
100
AcDbEntity
  8
D-A
  6
Continuous
 62
     2
370
     9
100
AcDbCircle
 10
243.7817341572531
 20
396.6460625399594
 30
0.0
 40
13.10409210823678
100
AcDbArc
 50
247.3243103027343
 51
292.6756896972656
  0
ARC
  5
579
330
1F
100
AcDbEntity
  8
D-A
  6
Continuous
 62
     2
370
     9
100
AcDbCircle
 10
252.1309105125634
 20
389.4151904630484
 30
0.0
 40
5.873256277393651
100
AcDbArc
 50
235.8464813232422
 51
270.0
  0
ARC
  5
57A
330
1F
100
AcDbEntity
  8
D-A
  6
Continuous
 62
     2
370
     9
100
AcDbCircle
 10
243.7817341572531
 20
378.4378938915747
 30
0.0
 40
13.10409210823678
100
AcDbArc
 50
67.32431030273439
 51
112.6756896972656
  0
ARC
  5
57B
330
1F
100
AcDbEntity
  8
D-A
  6
Continuous
 62
     2
370
     9
100
AcDbCircle
 10
243.7817341572531
 20
383.541958832981
 30
0.0
 40
7.500000096656181
100
AcDbArc
 50
201.0391845703125
 51
338.9608154296874
  0
ARC
  5
57C
330
1F
100
AcDbEntity
  8
D-A
  6
Continuous
 62
     2
370
     9
100
AcDbCircle
 10
252.0317490036424
 20
382.0413600286101
 30
0.0
 40
1.250000016109364
100
AcDbArc
 50
120.0003967285157
 51
180.0000000000001
  0
ARC
  5
57D
330
1F
100
AcDbEntity
  8
D-A
  6
Continuous
 62
     2
370
     9
100
AcDbCircle
 10
235.4325578019427
 20
389.4151904630484
 30
0.0
 40
5.873256277393651
100
AcDbArc
 50
270.0
 51
304.1535186767578
  0
ARC
  5
57E
330
1F
100
AcDbEntity
  8
D-A
  6
Continuous
 62
     2
370
     9
100
AcDbCircle
 10
235.4325578019427
 20
385.6687659684854
 30
0.0
 40
5.873256277393651
100
AcDbArc
 50
55.84648132324221
 51
90.00000000000003
  0
ARC
  5
57F
330
1F
100
AcDbEntity
  8
D-A
  6
Continuous
 62
     2
370
     9
100
AcDbCircle
 10
235.5317811708193
 20
382.0413600286101
 30
0.0
 40
1.250000016109364
100
AcDbArc
 50
0.0
 51
59.99960327148438
  0
ARC
  5
580
330
1F
100
AcDbEntity
  8
D-A
  6
Continuous
 62
     2
370
     9
100
AcDbCircle
 10
252.1309105125634
 20
385.6687659684854
 30
0.0
 40
5.873256277393651
100
AcDbArc
 50
90.0
 51
124.1535186767578
  0
ARC
  5
581
330
1F
100
AcDbEntity
  8
D-0
  6
Continuous
 62
     4
370
     9
100
AcDbCircle
 10
298.7811732936551
 20
434.542089976087
 30
0.0
 40
2.500000032218727
100
AcDbArc
 50
180.0
 51
270.0
  0
ARC
  5
582
330
1F
100
AcDbEntity
  8
D-0
  6
Continuous
 62
     4
370
     9
100
AcDbCircle
 10
251.282006341058
 20
434.542089976087
 30
0.0
 40
2.500000032218727
100
AcDbArc
 50
270.0
 51
0.0
  0
ARC
  5
583
330
1F
100
AcDbEntity
  8
D-0
  6
Continuous
 62
     4
370
     9
100
AcDbCircle
 10
288.4102898675043
 20
437.0419745041695
 30
0.0
 40
7.500000096656181
100
AcDbArc
 50
7.125366210937503
 51
90.00000000000001
  0
ARC
  5
584
330
1F
100
AcDbEntity
  8
D-0
  6
Continuous
 62
     4
370
     9
100
AcDbCircle
 10
261.6528897672088
 20
437.0419745041695
 30
0.0
 40
7.500000096656181
100
AcDbArc
 50
90.0
 51
172.8746337890625
  0
LINE
  5
585
330
1F
100
AcDbEntity
  8
D-3
  6
Continuous
 62
     3
370
     9
100
AcDbLine
 10
267.531441353463
 20
401.5420305905297
 30
0.0
 11
144.1992755436217
 21
401.5420305905297
 31
0.0
  0
LINE
  5
586
330
1F
100
AcDbEntity
  8
D-3
  6
Continuous
 62
     3
370
     9
100
AcDbLine
 10
267.531441353463
 20
409.5420074961461
 30
0.0
 11
144.1992755436217
 21
409.5420074961461
 31
0.0
  0
LINE
  5
587
330
1F
100
AcDbEntity
  8
D-B
  6
Continuous
 62
     7
370
     9
100
AcDbLine
 10
226.2815527013831
 20
409.5420074961461
 30
0.0
 11
226.2815527013831
 21
452.0420239921341
 31
0.0
  0
LINE
  5
588
330
1F
100
AcDbEntity
  8
D-B
  6
Continuous
 62
     7
370
     9
100
AcDbLine
 10
206.2818578771644
 20
452.0420239921341
 30
0.0
 11
144.1992755436217
 21
452.0420239921341
 31
0.0
  0
LINE
  5
589
330
1F
100
AcDbEntity
  8
D-B
  6
Continuous
 62
     7
370
     9
100
AcDbLine
 10
226.2815527013831
 20
422.0420487361164
 30
0.0
 11
144.1992755436217
 21
422.0420487361164
 31
0.0
  0
LINE
  5
58A
330
1F
100
AcDbEntity
  8
D-B
  6
Continuous
 62
     7
370
     9
100
AcDbLine
 10
226.2815527013831
 20
429.5420734800987
 30
0.0
 11
144.1992755436217
 21
429.5420734800987
 31
0.0
  0
LINE
  5
58B
330
1F
100
AcDbEntity
  8
D-B
  6
Continuous
 62
     7
370
     9
100
AcDbLine
 10
226.2815527013831
 20
437.0420363641252
 30
0.0
 11
144.1992755436217
 21
437.0420363641252
 31
0.0
  0
LINE
  5
58C
330
1F
100
AcDbEntity
  8
D-B
  6
Continuous
 62
     7
370
     9
100
AcDbLine
 10
226.2815527013831
 20
444.5420611081075
 30
0.0
 11
144.1992755436217
 21
444.5420611081075
 31
0.0
  0
LINE
  5
58D
330
1F
100
AcDbEntity
  8
D-B
  6
Continuous
 62
     7
370
     9
100
AcDbLine
 10
144.1992755436217
 20
414.5420239921341
 30
0.0
 11
267.531441353463
 21
414.5420239921341
 31
0.0
  0
LINE
  5
58E
330
1F
100
AcDbEntity
  8
D-B
  6
Continuous
 62
     7
370
     9
100
AcDbLine
 10
282.5317382812501
 20
414.5420239921344
 30
0.0
 11
380.6687226166596
 21
414.5420239921344
 31
0.0
  0
LINE
  5
58F
330
1F
100
AcDbEntity
  8
D-B
  6
Continuous
 62
     7
370
     9
100
AcDbLine
 10
347.6392178922086
 20
409.5418837762349
 30
0.0
 11
342.639448836043
 21
414.5420239921344
 31
0.0
  0
LINE
  5
590
330
1F
100
AcDbEntity
  8
D-B
  6
Continuous
 62
     7
370
     9
100
AcDbLine
 10
352.94284305057
 20
409.5418837762349
 30
0.0
 11
347.9425791147591
 21
414.5420239921344
 31
0.0
  0
LINE
  5
591
330
1F
100
AcDbEntity
  8
D-B
  6
Continuous
 62
     7
370
     9
100
AcDbLine
 10
337.0327098949534
 20
409.5418837762349
 30
0.0
 11
332.0329408387877
 21
414.5420239921344
 31
0.0
  0
LINE
  5
592
330
1F
100
AcDbEntity
  8
D-B
  6
Continuous
 62
     7
370
     9
100
AcDbLine
 10
342.3363350533148
 20
409.5418837762349
 30
0.0
 11
337.3360711175039
 21
414.5420239921344
 31
0.0
  0
LINE
  5
593
330
1F
100
AcDbEntity
  8
D-B
  6
Continuous
 62
     7
370
     9
100
AcDbLine
 10
331.7298270560596
 20
409.5418837762349
 30
0.0
 11
326.7295631202487
 21
414.5420239921344
 31
0.0
  0
LINE
  5
594
330
1F
100
AcDbEntity
  8
D-B
  6
Continuous
 62
     7
370
     9
100
AcDbLine
 10
326.4262018976981
 20
409.5418837762349
 30
0.0
 11
323.7816269333299
 21
412.186655061619
 31
0.0
  0
TEXT
  5
595
330
1F
100
AcDbEntity
  8
D-0
  6
Continuous
 62
     7
370
     9
100
AcDbText
 10
256.4234420910163
 20
636.9992167708223
 30
0.0
 40
11.43
  1
把手カバー
 50
0.00004296140575
 41
1.133333333333334
  7
ＭＳ ゴシック
100
AcDbText
  0
TEXT
  5
596
330
1F
100
AcDbEntity
  8
D-0
  6
Continuous
 62
     7
370
     9
100
AcDbText
 10
232.9273138429368
 20
615.1537445896851
 30
0.0
 40
11.43
  1
（ＳＣＳ１３）
 41
1.142857142857143
  7
ＭＳ ゴシック
100
AcDbText
  0
LINE
  5
597
330
1F
100
AcDbEntity
  8
D-0
  6
Continuous
 62
     7
370
     9
100
AcDbLine
 10
237.2555482860319
 20
630.0007444313236
 30
0.0
 11
368.4664752032307
 21
630.0007444313236
 31
0.0
  0
LINE
  5
598
330
1F
100
AcDbEntity
  8
D-4
  6
Continuous
 62
     7
370
     9
100
AcDbLine
 10
368.4664752032307
 20
630.0007444313236
 30
0.0
 11
263.740522911437
 21
458.2919827521638
 31
0.0
  0
LINE
  5
599
330
1F
100
AcDbEntity
  8
D-4
  6
Continuous
 62
     7
370
     9
100
AcDbLine
 10
263.5315329586603
 20
458.2919827521638
 30
0.0
 11
268.5916545942351
 21
469.7219945208886
 31
0.0
  0
LINE
  5
59A
330
1F
100
AcDbEntity
  8
D-4
  6
Continuous
 62
     7
370
     9
100
AcDbLine
 10
263.5315329586603
 20
458.2919827521638
 30
0.0
 11
271.3775398621181
 21
468.022870464541
 31
0.0
  0
LINE
  5
59B
330
1F
100
AcDbEntity
  8
D-F
  6
Continuous
 62
     7
370
     9
100
AcDbLine
 10
302.576380031586
 20
-477.2777822726276
 30
0.0
 11
155.2222596075881
 21
-477.2777822726276
 31
0.0
  0
LINE
  5
59C
330
1F
100
AcDbEntity
  8
D-B
  6
Continuous
 62
     7
370
     9
100
AcDbLine
 10
215.4425160656717
 20
409.5418837762349
 30
0.0
 11
210.442747009506
 21
414.5420239921344
 31
0.0
  0
LINE
  5
59D
330
1F
100
AcDbEntity
  8
D-B
  6
Continuous
 62
     7
370
     9
100
AcDbLine
 10
220.7461412240331
 20
409.5418837762349
 30
0.0
 11
215.7458772882222
 21
414.5420239921344
 31
0.0
  0
LINE
  5
59E
330
1F
100
AcDbEntity
  8
D-B
  6
Continuous
 62
     7
370
     9
100
AcDbLine
 10
226.0492715027493
 20
409.5418837762349
 30
0.0
 11
221.0492550067613
 21
414.5420239921344
 31
0.0
  0
LINE
  5
59F
330
1F
100
AcDbEntity
  8
D-B
  6
Continuous
 62
     7
370
     9
100
AcDbLine
 10
204.8360080684164
 20
409.5418837762349
 30
0.0
 11
199.8362390122508
 21
414.5420239921344
 31
0.0
  0
LINE
  5
5A0
330
1F
100
AcDbEntity
  8
D-B
  6
Continuous
 62
     7
370
     9
100
AcDbLine
 10
210.1396332267779
 20
409.5418837762349
 30
0.0
 11
205.139369290967
 21
414.5420239921344
 31
0.0
  0
LINE
  5
5A1
330
1F
100
AcDbEntity
  8
D-B
  6
Continuous
 62
     7
370
     9
100
AcDbLine
 10
194.2295000711615
 20
409.5418837762349
 30
0.0
 11
189.2297310149959
 21
414.5420239921344
 31
0.0
  0
LINE
  5
5A2
330
1F
100
AcDbEntity
  8
D-B
  6
Continuous
 62
     7
370
     9
100
AcDbLine
 10
199.533125229523
 20
409.5418837762349
 30
0.0
 11
194.532861293712
 21
414.5420239921344
 31
0.0
  0
LINE
  5
5A3
330
1F
100
AcDbEntity
  8
D-B
  6
Continuous
 62
     7
370
     9
100
AcDbLine
 10
183.6229920739063
 20
409.5418837762349
 30
0.0
 11
178.6232230177407
 21
414.5420239921344
 31
0.0
  0
LINE
  5
5A4
330
1F
100
AcDbEntity
  8
D-B
  6
Continuous
 62
     7
370
     9
100
AcDbLine
 10
188.9266172322677
 20
409.5418837762349
 30
0.0
 11
183.9263532964568
 21
414.5420239921344
 31
0.0
  0
LINE
  5
5A5
330
1F
100
AcDbEntity
  8
D-B
  6
Continuous
 62
     7
370
     9
100
AcDbLine
 10
173.0164840766514
 20
409.5418837762349
 30
0.0
 11
168.0167150204857
 21
414.5420239921344
 31
0.0
  0
LINE
  5
5A6
330
1F
100
AcDbEntity
  8
D-B
  6
Continuous
 62
     7
370
     9
100
AcDbLine
 10
178.3201092350128
 20
409.5418837762349
 30
0.0
 11
173.3198452992019
 21
414.5420239921344
 31
0.0
  0
LINE
  5
5A7
330
1F
100
AcDbEntity
  8
D-B
  6
Continuous
 62
     7
370
     9
100
AcDbLine
 10
162.4099760793961
 20
409.5418837762349
 30
0.0
 11
157.4102070232305
 21
414.5420239921344
 31
0.0
  0
LINE
  5
5A8
330
1F
100
AcDbEntity
  8
D-B
  6
Continuous
 62
     7
370
     9
100
AcDbLine
 10
167.7136012377576
 20
409.5418837762349
 30
0.0
 11
162.7133373019466
 21
414.5420239921344
 31
0.0
  0
LINE
  5
5A9
330
1F
100
AcDbEntity
  8
D-B
  6
Continuous
 62
     7
370
     9
100
AcDbLine
 10
151.8034680821412
 20
409.5418837762349
 30
0.0
 11
146.8036990259756
 21
414.5420239921344
 31
0.0
  0
LINE
  5
5AA
330
1F
100
AcDbEntity
  8
D-B
  6
Continuous
 62
     7
370
     9
100
AcDbLine
 10
157.1070932405026
 20
409.5418837762349
 30
0.0
 11
152.1068293046917
 21
414.5420239921344
 31
0.0
  0
LINE
  5
5AB
330
1F
100
AcDbEntity
  8
D-B
  6
Continuous
 62
     7
370
     9
100
AcDbLine
 10
146.5005852432474
 20
409.5418837762349
 30
0.0
 11
144.1992755436217
 21
411.8431365352998
 31
0.0
  0
LINE
  5
5AC
330
1F
100
AcDbEntity
  8
通り芯
  6
Continuous
 62
     4
370
     9
100
AcDbLine
 10
-662.2261437964715
 20
-37.40345826020118
 30
0.0
 11
-662.2261437964715
 21
70.59650214942724
 31
0.0
  0
LINE
  5
5AD
330
1F
100
AcDbEntity
  8
通り芯
  6
Continuous
 62
     4
370
     9
100
AcDbLine
 10
-609.2260431709437
 20
-39.40346485859635
 30
0.0
 11
-660.2260877101118
 21
-39.40346485859635
 31
0.0
  0
LINE
  5
5AE
330
1F
100
AcDbEntity
  8
通り芯
  6
Continuous
 62
     4
370
     9
100
AcDbLine
 10
-607.2259870845838
 20
70.59650214942724
 30
0.0
 11
-607.225987084584
 21
-37.40345826020118
 31
0.0
  0
LINE
  5
5AF
330
1F
100
AcDbEntity
  8
通り芯
  6
Continuous
 62
     4
370
     9
100
AcDbLine
 10
-609.2260431709437
 20
72.59655823578709
 30
0.0
 11
-660.2260877101118
 21
72.59655823578709
 31
0.0
  0
LINE
  5
5B0
330
1F
100
AcDbEntity
  8
通り芯
  6
Continuous
 62
     4
370
     9
100
AcDbLine
 10
-661.6403547603652
 20
-38.81708196691562
 30
0.0
 11
-651.6402722804243
 21
-28.81704897493933
 31
0.0
  0
LINE
  5
5B1
330
1F
100
AcDbEntity
  8
通り芯
  6
Continuous
 62
     4
370
     9
100
AcDbLine
 10
-607.8114791929031
 20
72.01071971171612
 30
0.0
 11
-617.8115369288618
 21
62.01068671973974
 31
0.0
  0
LINE
  5
5B2
330
1F
100
AcDbEntity
  8
通り芯
  6
Continuous
 62
     4
370
     9
100
AcDbLine
 10
-607.8114791929032
 20
-38.81708196691562
 30
0.0
 11
-617.8115369288618
 21
-28.81704897493933
 31
0.0
  0
LINE
  5
5B3
330
1F
100
AcDbEntity
  8
通り芯
  6
Continuous
 62
     4
370
     9
100
AcDbLine
 10
-619.225705003186
 20
62.59652524381071
 30
0.0
 11
-650.2257577903482
 21
62.59652524381071
 31
0.0
  0
LINE
  5
5B4
330
1F
100
AcDbEntity
  8
通り芯
  6
Continuous
 62
     4
370
     9
100
AcDbLine
 10
-617.2257231487731
 20
-27.40343764021588
 30
0.0
 11
-617.225723148773
 21
60.59637018152184
 31
0.0
  0
LINE
  5
5B5
330
1F
100
AcDbEntity
  8
通り芯
  6
Continuous
 62
     4
370
     9
100
AcDbLine
 10
-652.2259128526372
 20
-27.40343764021588
 30
0.0
 11
-652.2259128526371
 21
60.59637018152184
 31
0.0
  0
LINE
  5
5B6
330
1F
100
AcDbEntity
  8
通り芯
  6
Continuous
 62
     4
370
     9
100
AcDbLine
 10
-650.2257577903482
 20
-29.40351847055794
 30
0.0
 11
-619.2257050031861
 21
-29.40351847055794
 31
0.0
  0
LINE
  5
5B7
330
1F
100
AcDbEntity
  8
仕上
  6
Continuous
 62
     3
370
     9
100
AcDbLine
 10
-630.4260438307832
 20
-16.05348432386251
 30
0.0
 11
-639.0258890984142
 21
-16.05348432386251
 31
0.0
  0
LINE
  5
5B8
330
1F
100
AcDbEntity
  8
仕上
  6
Continuous
 62
     3
370
     9
100
AcDbLine
 10
-628.7260580173331
 20
-14.35348613842109
 30
0.0
 11
-628.726058017333
 21
47.5465300276473
 31
0.0
  0
LINE
  5
5B9
330
1F
100
AcDbEntity
  8
通り芯
  6
Continuous
 62
     4
370
     9
100
AcDbLine
 10
-630.2260629661295
 20
-16.55348597346133
 30
0.0
 11
-639.2260431709437
 21
-16.55348597346133
 31
0.0
  0
LINE
  5
5BA
330
1F
100
AcDbEntity
  8
通り芯
  6
Continuous
 62
     4
370
     9
100
AcDbLine
 10
-641.2260497693389
 20
47.74653563628323
 30
0.0
 11
-641.2260497693389
 21
-14.55349174705717
 31
0.0
  0
LINE
  5
5BB
330
1F
100
AcDbEntity
  8
通り芯
  6
Continuous
 62
     4
370
     9
100
AcDbLine
 10
-630.2260629661295
 20
49.7465298626874
 30
0.0
 11
-639.2260431709437
 21
49.7465298626874
 31
0.0
  0
LINE
  5
5BC
330
1F
100
AcDbEntity
  8
通り芯
  6
Continuous
 62
     4
370
     9
100
AcDbLine
 10
-628.2260563677341
 20
47.74653563628323
 30
0.0
 11
-628.2260563677343
 21
-14.55349174705717
 31
0.0
  0
LINE
  5
5BD
330
1F
100
AcDbEntity
  8
仕上
  6
Continuous
 62
     3
370
     9
100
AcDbLine
 10
-640.7260481197402
 20
47.54639393574482
 30
0.0
 11
-640.7260481197402
 21
-14.35312735067839
 31
0.0
  0
LINE
  5
5BE
330
1F
100
AcDbEntity
  8
仕上
  6
Continuous
 62
     3
370
     9
100
AcDbLine
 10
-639.0260375623077
 20
49.24639212118617
 30
0.0
 11
-630.4026360235619
 21
49.24639212118617
 31
0.0
  0
LINE
  5
5BF
330
1F
100
AcDbEntity
  8
通り芯
  6
Continuous
 62
     4
370
     9
100
AcDbLine
 10
-661.6403547603652
 20
72.01071971171612
 30
0.0
 11
-651.6402722804243
 21
62.01068671973974
 31
0.0
  0
ARC
  5
5C0
330
1F
100
AcDbEntity
  8
通り芯
  6
Continuous
 62
     4
370
     9
100
AcDbCircle
 10
-650.2257577903482
 20
60.59637018152184
 30
0.0
 40
1.99999983246262
100
AcDbArc
 50
90.0
 51
180.0
  0
ARC
  5
5C1
330
1F
100
AcDbEntity
  8
通り芯
  6
Continuous
 62
     4
370
     9
100
AcDbCircle
 10
-619.225705003186
 20
60.59637018152184
 30
0.0
 40
1.99999983246262
100
AcDbArc
 50
0.0
 51
90.0
  0
ARC
  5
5C2
330
1F
100
AcDbEntity
  8
通り芯
  6
Continuous
 62
     4
370
     9
100
AcDbCircle
 10
-619.2257050031861
 20
-27.40343764021588
 30
0.0
 40
1.99999983246262
100
AcDbArc
 50
270.0
 51
0.0
  0
ARC
  5
5C3
330
1F
100
AcDbEntity
  8
通り芯
  6
Continuous
 62
     4
370
     9
100
AcDbCircle
 10
-650.2257577903482
 20
-27.40343764021588
 30
0.0
 40
1.99999983246262
100
AcDbArc
 50
180.0
 51
270.0
  0
ARC
  5
5C4
330
1F
100
AcDbEntity
  8
通り芯
  6
Continuous
 62
     4
370
     9
100
AcDbCircle
 10
-660.2260877101118
 20
70.59650214942724
 30
0.0
 40
2.000000025774982
100
AcDbArc
 50
90.0
 51
180.0
  0
ARC
  5
5C5
330
1F
100
AcDbEntity
  8
通り芯
  6
Continuous
 62
     4
370
     9
100
AcDbCircle
 10
-660.2260877101118
 20
-37.40350774816562
 30
0.0
 40
2.000000025774982
100
AcDbArc
 50
180.0
 51
270.0
  0
ARC
  5
5C6
330
1F
100
AcDbEntity
  8
通り芯
  6
Continuous
 62
     4
370
     9
100
AcDbCircle
 10
-609.226067914926
 20
-37.40350774816562
 30
0.0
 40
2.000000025774982
100
AcDbArc
 50
270.0
 51
0.0
  0
ARC
  5
5C7
330
1F
100
AcDbEntity
  8
通り芯
  6
Continuous
 62
     4
370
     9
100
AcDbCircle
 10
-609.2260679149259
 20
70.59650214942724
 30
0.0
 40
2.000000025774982
100
AcDbArc
 50
0.0
 51
90.0
  0
ARC
  5
5C8
330
1F
100
AcDbEntity
  8
仕上
  6
Continuous
 62
     3
370
     9
100
AcDbCircle
 10
-639.0258890984142
 20
-14.35312735067839
 30
0.0
 40
1.700000891814361
100
AcDbArc
 50
180.0
 51
270.0
  0
ARC
  5
5C9
330
1F
100
AcDbEntity
  8
仕上
  6
Continuous
 62
     3
370
     9
100
AcDbCircle
 10
-630.426217038659
 20
47.5465300276473
 30
0.0
 40
1.700000891814361
100
AcDbArc
 50
0.0
 51
89.20521545410156
  0
ARC
  5
5CA
330
1F
100
AcDbEntity
  8
仕上
  6
Continuous
 62
     3
370
     9
100
AcDbCircle
 10
-630.4260438307832
 20
-14.35348613842109
 30
0.0
 40
1.700000118564915
100
AcDbArc
 50
270.0
 51
0.0
  0
ARC
  5
5CB
330
1F
100
AcDbEntity
  8
通り芯
  6
Continuous
 62
     4
370
     9
100
AcDbCircle
 10
-634.7260530685365
 20
16.59652194461302
 30
0.0
 40
12.50000025774982
100
AcDbArc
 50
301.3322448730469
 51
58.66775512695313
  0
ARC
  5
5CC
330
1F
100
AcDbEntity
  8
通り芯
  6
Continuous
 62
     4
370
     9
100
AcDbCircle
 10
-634.7260530685365
 20
16.59652194461302
 30
0.0
 40
12.50000025774982
100
AcDbArc
 50
121.3322448730469
 51
238.6677551269532
  0
ARC
  5
5CD
330
1F
100
AcDbEntity
  8
通り芯
  6
Continuous
 62
     4
370
     9
100
AcDbCircle
 10
-639.2260431709437
 20
-14.55349174705717
 30
0.0
 40
2.000000025774982
100
AcDbArc
 50
180.0
 51
270.0
  0
ARC
  5
5CE
330
1F
100
AcDbEntity
  8
通り芯
  6
Continuous
 62
     4
370
     9
100
AcDbCircle
 10
-630.2260629661295
 20
-14.55349174705717
 30
0.0
 40
2.000000025774982
100
AcDbArc
 50
270.0
 51
0.0
  0
ARC
  5
5CF
330
1F
100
AcDbEntity
  8
通り芯
  6
Continuous
 62
     4
370
     9
100
AcDbCircle
 10
-639.2260431709437
 20
47.74653563628323
 30
0.0
 40
2.000000025774982
100
AcDbArc
 50
90.0
 51
180.0
  0
ARC
  5
5D0
330
1F
100
AcDbEntity
  8
通り芯
  6
Continuous
 62
     4
370
     9
100
AcDbCircle
 10
-630.2260629661295
 20
47.74653563628323
 30
0.0
 40
2.000000025774982
100
AcDbArc
 50
0.0
 51
90.0
  0
ARC
  5
5D1
330
1F
100
AcDbEntity
  8
仕上
  6
Continuous
 62
     3
370
     9
100
AcDbCircle
 10
-639.0260375623077
 20
47.54639393574482
 30
0.0
 40
1.700000118564915
100
AcDbArc
 50
90.0
 51
180.0
  0
LINE
  5
5D2
330
1F
100
AcDbEntity
  8
通り芯
  6
Continuous
 62
     4
370
     9
100
AcDbLine
 10
-252.2335496114488
 20
-37.40345826020118
 30
0.0
 11
-252.2335496114488
 21
70.59650214942724
 31
0.0
  0
LINE
  5
5D3
330
1F
100
AcDbEntity
  8
通り芯
  6
Continuous
 62
     4
370
     9
100
AcDbLine
 10
-199.2334489859209
 20
-39.40346485859635
 30
0.0
 11
-250.233493525089
 21
-39.40346485859635
 31
0.0
  0
LINE
  5
5D4
330
1F
100
AcDbEntity
  8
通り芯
  6
Continuous
 62
     4
370
     9
100
AcDbLine
 10
-197.2333928995612
 20
70.59650214942724
 30
0.0
 11
-197.2333928995612
 21
-37.40345826020118
 31
0.0
  0
LINE
  5
5D5
330
1F
100
AcDbEntity
  8
通り芯
  6
Continuous
 62
     4
370
     9
100
AcDbLine
 10
-199.2334489859209
 20
72.59655823578709
 30
0.0
 11
-250.233493525089
 21
72.59655823578709
 31
0.0
  0
LINE
  5
5D6
330
1F
100
AcDbEntity
  8
通り芯
  6
Continuous
 62
     4
370
     9
100
AcDbLine
 10
-251.6477605753424
 20
-38.81708196691562
 30
0.0
 11
-241.6476780954015
 21
-28.81704897493933
 31
0.0
  0
LINE
  5
5D7
330
1F
100
AcDbEntity
  8
通り芯
  6
Continuous
 62
     4
370
     9
100
AcDbLine
 10
-197.8188850078804
 20
72.01071971171612
 30
0.0
 11
-207.818942743839
 21
62.01068671973974
 31
0.0
  0
LINE
  5
5D8
330
1F
100
AcDbEntity
  8
通り芯
  6
Continuous
 62
     4
370
     9
100
AcDbLine
 10
-197.8188850078804
 20
-38.81708196691562
 30
0.0
 11
-207.818942743839
 21
-28.81704897493933
 31
0.0
  0
LINE
  5
5D9
330
1F
100
AcDbEntity
  8
通り芯
  6
Continuous
 62
     4
370
     9
100
AcDbLine
 10
-209.2331108181634
 20
62.59652524381071
 30
0.0
 11
-240.2331636053255
 21
62.59652524381071
 31
0.0
  0
LINE
  5
5DA
330
1F
100
AcDbEntity
  8
通り芯
  6
Continuous
 62
     4
370
     9
100
AcDbLine
 10
-207.2331289637503
 20
-27.40343764021588
 30
0.0
 11
-207.2331289637503
 21
60.59637018152184
 31
0.0
  0
LINE
  5
5DB
330
1F
100
AcDbEntity
  8
通り芯
  6
Continuous
 62
     4
370
     9
100
AcDbLine
 10
-242.2333186676144
 20
-27.40343764021588
 30
0.0
 11
-242.2333186676144
 21
60.59637018152184
 31
0.0
  0
LINE
  5
5DC
330
1F
100
AcDbEntity
  8
通り芯
  6
Continuous
 62
     4
370
     9
100
AcDbLine
 10
-240.2331636053255
 20
-29.40351847055794
 30
0.0
 11
-209.2331108181634
 21
-29.40351847055794
 31
0.0
  0
LINE
  5
5DD
330
1F
100
AcDbEntity
  8
仕上
  6
Continuous
 62
     3
370
     9
100
AcDbLine
 10
-220.4334496457605
 20
-16.05348432386251
 30
0.0
 11
-229.0332949133914
 21
-16.05348432386251
 31
0.0
  0
LINE
  5
5DE
330
1F
100
AcDbEntity
  8
仕上
  6
Continuous
 62
     3
370
     9
100
AcDbLine
 10
-218.7334638323103
 20
-14.35348613842109
 30
0.0
 11
-218.7334638323103
 21
47.5465300276473
 31
0.0
  0
LINE
  5
5DF
330
1F
100
AcDbEntity
  8
通り芯
  6
Continuous
 62
     4
370
     9
100
AcDbLine
 10
-220.2334687811068
 20
-16.55348597346133
 30
0.0
 11
-229.2334489859209
 21
-16.55348597346133
 31
0.0
  0
LINE
  5
5E0
330
1F
100
AcDbEntity
  8
通り芯
  6
Continuous
 62
     4
370
     9
100
AcDbLine
 10
-231.2334555843162
 20
47.74653563628323
 30
0.0
 11
-231.2334555843162
 21
-14.55349174705717
 31
0.0
  0
LINE
  5
5E1
330
1F
100
AcDbEntity
  8
通り芯
  6
Continuous
 62
     4
370
     9
100
AcDbLine
 10
-220.2334687811068
 20
49.7465298626874
 30
0.0
 11
-229.2334489859209
 21
49.7465298626874
 31
0.0
  0
LINE
  5
5E2
330
1F
100
AcDbEntity
  8
通り芯
  6
Continuous
 62
     4
370
     9
100
AcDbLine
 10
-218.2334621827115
 20
47.74653563628323
 30
0.0
 11
-218.2334621827115
 21
-14.55349174705717
 31
0.0
  0
LINE
  5
5E3
330
1F
100
AcDbEntity
  8
仕上
  6
Continuous
 62
     3
370
     9
100
AcDbLine
 10
-230.7334539347174
 20
47.54639393574482
 30
0.0
 11
-230.7334539347174
 21
-14.35312735067839
 31
0.0
  0
LINE
  5
5E4
330
1F
100
AcDbEntity
  8
仕上
  6
Continuous
 62
     3
370
     9
100
AcDbLine
 10
-229.033443377285
 20
49.24639212118617
 30
0.0
 11
-220.4100418385392
 21
49.24639212118617
 31
0.0
  0
LINE
  5
5E5
330
1F
100
AcDbEntity
  8
通り芯
  6
Continuous
 62
     4
370
     9
100
AcDbLine
 10
-251.6477605753424
 20
72.01071971171612
 30
0.0
 11
-241.6476780954015
 21
62.01068671973974
 31
0.0
  0
ARC
  5
5E6
330
1F
100
AcDbEntity
  8
通り芯
  6
Continuous
 62
     4
370
     9
100
AcDbCircle
 10
-240.2331636053255
 20
60.59637018152184
 30
0.0
 40
1.99999983246262
100
AcDbArc
 50
90.0
 51
180.0
  0
ARC
  5
5E7
330
1F
100
AcDbEntity
  8
通り芯
  6
Continuous
 62
     4
370
     9
100
AcDbCircle
 10
-209.2331108181634
 20
60.59637018152184
 30
0.0
 40
1.99999983246262
100
AcDbArc
 50
0.0
 51
90.0
  0
ARC
  5
5E8
330
1F
100
AcDbEntity
  8
通り芯
  6
Continuous
 62
     4
370
     9
100
AcDbCircle
 10
-209.2331108181634
 20
-27.40343764021588
 30
0.0
 40
1.99999983246262
100
AcDbArc
 50
270.0
 51
0.0
  0
ARC
  5
5E9
330
1F
100
AcDbEntity
  8
通り芯
  6
Continuous
 62
     4
370
     9
100
AcDbCircle
 10
-240.2331636053255
 20
-27.40343764021588
 30
0.0
 40
1.99999983246262
100
AcDbArc
 50
180.0
 51
270.0
  0
ARC
  5
5EA
330
1F
100
AcDbEntity
  8
通り芯
  6
Continuous
 62
     4
370
     9
100
AcDbCircle
 10
-250.233493525089
 20
70.59650214942724
 30
0.0
 40
2.000000025774982
100
AcDbArc
 50
90.0
 51
180.0
  0
ARC
  5
5EB
330
1F
100
AcDbEntity
  8
通り芯
  6
Continuous
 62
     4
370
     9
100
AcDbCircle
 10
-250.233493525089
 20
-37.40350774816562
 30
0.0
 40
2.000000025774982
100
AcDbArc
 50
180.0
 51
270.0
  0
ARC
  5
5EC
330
1F
100
AcDbEntity
  8
通り芯
  6
Continuous
 62
     4
370
     9
100
AcDbCircle
 10
-199.2334737299032
 20
-37.40350774816562
 30
0.0
 40
2.000000025774982
100
AcDbArc
 50
270.0
 51
0.0
  0
ARC
  5
5ED
330
1F
100
AcDbEntity
  8
通り芯
  6
Continuous
 62
     4
370
     9
100
AcDbCircle
 10
-199.2334737299032
 20
70.59650214942724
 30
0.0
 40
2.000000025774982
100
AcDbArc
 50
0.0
 51
90.0
  0
ARC
  5
5EE
330
1F
100
AcDbEntity
  8
仕上
  6
Continuous
 62
     3
370
     9
100
AcDbCircle
 10
-229.0332949133914
 20
-14.35312735067839
 30
0.0
 40
1.700000891814361
100
AcDbArc
 50
180.0
 51
270.0
  0
ARC
  5
5EF
330
1F
100
AcDbEntity
  8
仕上
  6
Continuous
 62
     3
370
     9
100
AcDbCircle
 10
-220.4336228536363
 20
47.5465300276473
 30
0.0
 40
1.700000891814361
100
AcDbArc
 50
0.0
 51
89.20521545410156
  0
ARC
  5
5F0
330
1F
100
AcDbEntity
  8
仕上
  6
Continuous
 62
     3
370
     9
100
AcDbCircle
 10
-220.4334496457605
 20
-14.35348613842109
 30
0.0
 40
1.700000118564915
100
AcDbArc
 50
270.0
 51
0.0
  0
ARC
  5
5F1
330
1F
100
AcDbEntity
  8
通り芯
  6
Continuous
 62
     4
370
     9
100
AcDbCircle
 10
-224.7334588835139
 20
16.59652194461302
 30
0.0
 40
12.50000025774982
100
AcDbArc
 50
301.3322448730469
 51
58.66775512695313
  0
ARC
  5
5F2
330
1F
100
AcDbEntity
  8
通り芯
  6
Continuous
 62
     4
370
     9
100
AcDbCircle
 10
-224.7334588835139
 20
16.59652194461302
 30
0.0
 40
12.50000025774982
100
AcDbArc
 50
121.3322448730469
 51
238.6677551269532
  0
ARC
  5
5F3
330
1F
100
AcDbEntity
  8
通り芯
  6
Continuous
 62
     4
370
     9
100
AcDbCircle
 10
-229.2334489859209
 20
-14.55349174705717
 30
0.0
 40
2.000000025774982
100
AcDbArc
 50
180.0
 51
270.0
  0
ARC
  5
5F4
330
1F
100
AcDbEntity
  8
通り芯
  6
Continuous
 62
     4
370
     9
100
AcDbCircle
 10
-220.2334687811068
 20
-14.55349174705717
 30
0.0
 40
2.000000025774982
100
AcDbArc
 50
270.0
 51
0.0
  0
ARC
  5
5F5
330
1F
100
AcDbEntity
  8
通り芯
  6
Continuous
 62
     4
370
     9
100
AcDbCircle
 10
-229.2334489859209
 20
47.74653563628323
 30
0.0
 40
2.000000025774982
100
AcDbArc
 50
90.0
 51
180.0
  0
ARC
  5
5F6
330
1F
100
AcDbEntity
  8
通り芯
  6
Continuous
 62
     4
370
     9
100
AcDbCircle
 10
-220.2334687811068
 20
47.74653563628323
 30
0.0
 40
2.000000025774982
100
AcDbArc
 50
0.0
 51
90.0
  0
ARC
  5
5F7
330
1F
100
AcDbEntity
  8
仕上
  6
Continuous
 62
     3
370
     9
100
AcDbCircle
 10
-229.033443377285
 20
47.54639393574482
 30
0.0
 40
1.700000118564915
100
AcDbArc
 50
90.0
 51
180.0
  0
LINE
  5
5F8
330
1F
100
AcDbEntity
  8
D-D
  6
Continuous
 62
     7
370
     9
100
AcDbLine
 10
221.94308611206
 20
-415.1805942016953
 30
0.0
 11
226.9430407480925
 21
-420.1805488377278
 31
0.0
  0
LINE
  5
5F9
330
1F
100
AcDbEntity
  8
D-D
  6
Continuous
 62
     7
370
     9
100
AcDbLine
 10
227.2463869709619
 20
-415.1805942016926
 30
0.0
 11
232.2463416069943
 21
-420.180548837725
 31
0.0
  0
LINE
  5
5FA
330
1F
100
AcDbEntity
  8
D-D
  6
Continuous
 62
     7
370
     9
100
AcDbLine
 10
232.5496878298596
 20
-415.1805942016949
 30
0.0
 11
237.5496424658922
 21
-420.1805488377275
 31
0.0
  0
LINE
  5
5FB
330
1F
100
AcDbEntity
  8
D-D
  6
Continuous
 62
     7
370
     9
100
AcDbLine
 10
237.8529886887564
 20
-415.1805942016963
 30
0.0
 11
242.852943324789
 21
-420.1805488377288
 31
0.0
  0
LINE
  5
5FC
330
1F
100
AcDbEntity
  8
D-D
  6
Continuous
 62
     7
370
     9
100
AcDbLine
 10
243.1562895476583
 20
-415.1805942016936
 30
0.0
 11
248.1562441836908
 21
-420.1805488377261
 31
0.0
  0
LINE
  5
5FD
330
1F
100
AcDbEntity
  8
D-D
  6
Continuous
 62
     7
370
     9
100
AcDbLine
 10
248.4595904065566
 20
-415.1805942016965
 30
0.0
 11
253.4595450425894
 21
-420.1805488377292
 31
0.0
  0
LINE
  5
5FE
330
1F
100
AcDbEntity
  8
D-D
  6
Continuous
 62
     7
370
     9
100
AcDbLine
 10
253.7628912654586
 20
-415.1805942016939
 30
0.0
 11
258.7628459014913
 21
-420.1805488377266
 31
0.0
  0
LINE
  5
5FF
330
1F
100
AcDbEntity
  8
D-D
  6
Continuous
 62
     7
370
     9
100
AcDbLine
 10
259.0661921243548
 20
-415.1805942016946
 30
0.0
 11
264.0661467603872
 21
-420.1805488377271
 31
0.0
  0
LINE
  5
600
330
1F
100
AcDbEntity
  8
D-D
  6
Continuous
 62
     7
370
     9
100
AcDbLine
 10
264.3694929832536
 20
-415.180594201698
 30
0.0
 11
269.3694476192863
 21
-420.1805488377307
 31
0.0
  0
LINE
  5
601
330
1F
100
AcDbEntity
  8
D-D
  6
Continuous
 62
     7
370
     9
100
AcDbLine
 10
269.6727938421557
 20
-415.1805942016956
 30
0.0
 11
274.6727484781883
 21
-420.1805488377282
 31
0.0
  0
LINE
  5
602
330
1F
100
AcDbEntity
  8
D-D
  6
Continuous
 62
     7
370
     9
100
AcDbLine
 10
274.9760947010512
 20
-415.1805942016956
 30
0.0
 11
279.9760493370837
 21
-420.1805488377281
 31
0.0
  0
LINE
  5
603
330
1F
100
AcDbEntity
  8
D-D
  6
Continuous
 62
     7
370
     9
100
AcDbLine
 10
280.2793955599529
 20
-415.1805942016928
 30
0.0
 11
285.2793501959855
 21
-420.1805488377254
 31
0.0
  0
LINE
  5
604
330
1F
100
AcDbEntity
  8
D-D
  6
Continuous
 62
     7
370
     9
100
AcDbLine
 10
285.5826964188527
 20
-415.1805942016971
 30
0.0
 11
290.5826510548854
 21
-420.1805488377298
 31
0.0
  0
LINE
  5
605
330
1F
100
AcDbEntity
  8
D-D
  6
Continuous
 62
     7
370
     9
100
AcDbLine
 10
290.8859972777476
 20
-415.1805942016966
 30
0.0
 11
291.9198802686765
 21
-416.2144771926255
 31
0.0
  0
LINE
  5
606
330
1F
100
AcDbEntity
  8
D-D
  6
Continuous
 62
     7
370
     9
100
AcDbLine
 10
531.919929756642
 20
-417.5659880301317
 30
0.0
 11
534.5344905642385
 21
-420.1805488377282
 31
0.0
  0
LINE
  5
607
330
1F
100
AcDbEntity
  8
D-D
  6
Continuous
 62
     7
370
     9
100
AcDbLine
 10
534.8378367871104
 20
-415.1805942016956
 30
0.0
 11
539.8377914231429
 21
-420.1805488377281
 31
0.0
  0
LINE
  5
608
330
1F
100
AcDbEntity
  8
D-D
  6
Continuous
 62
     7
370
     9
100
AcDbLine
 10
540.1411376460076
 20
-415.1805942016973
 30
0.0
 11
545.1410922820402
 21
-420.1805488377299
 31
0.0
  0
LINE
  5
609
330
1F
100
AcDbEntity
  8
D-D
  6
Continuous
 62
     7
370
     9
100
AcDbLine
 10
545.4444385049096
 20
-415.1805942016949
 30
0.0
 11
550.444393140942
 21
-420.1805488377272
 31
0.0
  0
LINE
  5
60A
330
1F
100
AcDbEntity
  8
D-D
  6
Continuous
 62
     7
370
     9
100
AcDbLine
 10
550.7477393638068
 20
-415.1805942016966
 30
0.0
 11
555.7476939998393
 21
-420.180548837729
 31
0.0
  0
LINE
  5
60B
330
1F
100
AcDbEntity
  8
D-D
  6
Continuous
 62
     7
370
     9
100
AcDbLine
 10
556.0510402227014
 20
-415.1805942016958
 30
0.0
 11
561.0509948587339
 21
-420.1805488377283
 31
0.0
  0
LINE
  5
60C
330
1F
100
AcDbEntity
  8
D-D
  6
Continuous
 62
     7
370
     9
100
AcDbLine
 10
561.3543410816059
 20
-415.1805942016956
 30
0.0
 11
566.3542957176384
 21
-420.1805488377281
 31
0.0
  0
LINE
  5
60D
330
1F
100
AcDbEntity
  8
D-D
  6
Continuous
 62
     7
370
     9
100
AcDbLine
 10
566.6576419405031
 20
-415.1805942016975
 30
0.0
 11
571.6575965765356
 21
-420.18054883773
 31
0.0
  0
LINE
  5
60E
330
1F
100
AcDbEntity
  8
D-D
  6
Continuous
 62
     7
370
     9
100
AcDbLine
 10
571.9609427994051
 20
-415.1805942016948
 30
0.0
 11
576.9608974354376
 21
-420.1805488377273
 31
0.0
  0
LINE
  5
60F
330
1F
100
AcDbEntity
  8
D-D
  6
Continuous
 62
     7
370
     9
100
AcDbLine
 10
577.2642436583023
 20
-415.1805942016967
 30
0.0
 11
582.2641982943347
 21
-420.180548837729
 31
0.0
  0
LINE
  5
610
330
1F
100
AcDbEntity
  8
D-D
  6
Continuous
 62
     7
370
     9
100
AcDbLine
 10
582.5675445171969
 20
-415.1805942016958
 30
0.0
 11
587.5674991532294
 21
-420.1805488377283
 31
0.0
  0
LINE
  5
611
330
1F
100
AcDbEntity
  8
D-D
  6
Continuous
 62
     7
370
     9
100
AcDbLine
 10
587.8708453761014
 20
-415.1805942016958
 30
0.0
 11
592.8708000121339
 21
-420.1805488377282
 31
0.0
  0
LINE
  5
612
330
1F
100
AcDbEntity
  8
D-D
  6
Continuous
 62
     7
370
     9
100
AcDbLine
 10
593.1741462349988
 20
-415.1805942016977
 30
0.0
 11
598.1741008710311
 21
-420.18054883773
 31
0.0
  0
LINE
  5
613
330
1F
100
AcDbEntity
  8
D-D
  6
Continuous
 62
     7
370
     9
100
AcDbLine
 10
598.4774470939007
 20
-415.1805942016949
 30
0.0
 11
603.1902693100632
 21
-419.8934164178575
 31
0.0
  0
LINE
  5
614
330
1F
100
AcDbEntity
  8
D-4
  6
Continuous
 62
     7
370
     9
100
AcDbLine
 10
275.0317135372677
 20
332.0421229680633
 30
0.0
 11
269.9715691643792
 21
320.6121352410785
 31
0.0
  0
LINE
  5
615
330
1F
100
AcDbEntity
  8
D-4
  6
Continuous
 62
     7
370
     9
100
AcDbLine
 10
275.0317135372677
 20
332.0421229680633
 30
0.0
 11
267.1856442013302
 21
322.3113045031139
 31
0.0
  0
LINE
  5
616
330
1F
100
AcDbEntity
  8
D-4
  6
Continuous
 62
     7
370
     9
100
AcDbLine
 10
252.1463513133988
 20
294.5191987745464
 30
0.0
 11
275.0317135372677
 21
332.0421229680633
 31
0.0
  0
LINE
  5
617
330
1F
100
AcDbEntity
  8
D-0
  6
Continuous
 62
     7
370
     9
100
AcDbLine
 10
124.2230123365954
 20
294.5191987745464
 30
0.0
 11
252.1463513133988
 21
294.5191987745464
 31
0.0
  0
TEXT
  5
618
330
1F
100
AcDbEntity
  8
D-0
  6
Continuous
 62
     7
370
     9
100
AcDbText
 10
154.4346818249971
 20
299.907332748364
 30
0.0
 40
11.43
  1
把手本体
 41
1.125
  7
ＭＳ ゴシック
100
AcDbText
  0
TEXT
  5
619
330
1F
100
AcDbEntity
  8
D-0
  6
Continuous
 62
     7
370
     9
100
AcDbText
 10
119.4346818249971
 20
277.2970240754332
 30
0.0
 40
11.43
  1
（強化ナイロン）
 41
1.145833333333333
  7
ＭＳ ゴシック
100
AcDbText
  0
LINE
  5
61A
330
1F
100
AcDbEntity
  8
D-4
  6
Continuous
 62
     7
370
     9
100
AcDbLine
 10
399.3719321295274
 20
239.4429803762477
 30
0.0
 11
482.5317795212206
 21
375.7922054480043
 31
0.0
  0
TEXT
  5
61B
330
1F
100
AcDbEntity
  8
D-4
  6
Continuous
 62
     7
370
     9
100
AcDbText
 10
263.8275699395904
 20
245.4904831062433
 30
0.0
 40
11.43
  1
クッション
 41
1.133333333333334
  7
ＭＳ ゴシック
100
AcDbText
  0
TEXT
  5
61C
330
1F
100
AcDbEntity
  8
D-4
  6
Continuous
 62
     7
370
     9
100
AcDbText
 10
211.4201493581353
 20
221.7807356927048
 30
0.0
 40
11.43
  1
（軟質ポリ塩化ビニル）
 41
1.151515151515151
  7
ＭＳ ゴシック
100
AcDbText
  0
LINE
  5
61D
330
1F
100
AcDbEntity
  8
D-4
  6
Continuous
 62
     7
370
     9
100
AcDbLine
 10
216.7342897126429
 20
239.4429803762477
 30
0.0
 11
399.3721945561838
 21
239.4429803762477
 31
0.0
  0
LINE
  5
61E
330
1F
100
AcDbEntity
  8
その他
  6
Continuous
 62
     7
370
     9
100
AcDbLine
 10
-634.7260530685365
 20
-82.11314475873544
 30
0.0
 11
-224.7334588835138
 21
-82.11314475873544
 31
0.0
  0
LWPOLYLINE
  5
61F
330
1F
100
AcDbEntity
  8
その他
  6
Continuous
 62
     7
370
     9
100
AcDbPolyline
 90
        4
 70
     1
 43
0.5
 10
-634.4760530685367
 20
-82.11314475873544
 42
0.4142135623731
 10
-634.7260530685365
 20
-81.86314475873544
 42
0.4142135623731
 10
-634.9760530685365
 20
-82.11314475873544
 42
0.4142135623731
 10
-634.7260530685365
 20
-82.36314475873544
 42
0.4142135623731
  0
LWPOLYLINE
  5
620
330
1F
100
AcDbEntity
  8
その他
  6
Continuous
 62
     7
370
     9
100
AcDbPolyline
 90
        4
 70
     1
 43
0.5
 10
-224.4834588835138
 20
-82.11314475873544
 42
0.4142135623731
 10
-224.7334588835138
 20
-81.86314475873544
 42
0.4142135623731
 10
-224.9834588835138
 20
-82.11314475873544
 42
0.4142135623731
 10
-224.7334588835138
 20
-82.36314475873544
 42
0.4142135623731
  0
LINE
  5
621
330
1F
100
AcDbEntity
  8
その他
  6
Continuous
 62
     7
370
     9
100
AcDbLine
 10
-634.7260530685365
 20
-83.61314475873544
 30
0.0
 11
-634.7260530685365
 21
-52.80283414627135
 31
0.0
  0
LINE
  5
622
330
1F
100
AcDbEntity
  8
その他
  6
Continuous
 62
     7
370
     9
100
AcDbLine
 10
-224.7334588835138
 20
-83.61314475873544
 30
0.0
 11
-224.7334588835138
 21
-52.08137597632685
 31
0.0
  0
TEXT
  5
623
330
1F
100
AcDbEntity
  8
その他
  6
Continuous
 62
     2
370
   211
100
AcDbText
 10
-445.9797559760252
 20
-76.29314475873545
 30
0.0
 40
15.24
  1
410
 41
1.083333333333333
  7
ＭＳ ゴシック
100
AcDbText
  0
TEXT
  5
624
330
1F
100
AcDbEntity
  8
D-4
  6
Continuous
 62
     7
370
     9
100
AcDbText
 10
529.4283356537692
 20
637.1771260033254
 30
0.0
 40
11.43
  1
底板　ｔ＝３．２
 41
1.145833333333333
  7
ＭＳ ゴシック
100
AcDbText
  0
TEXT
  5
625
330
1F
100
AcDbEntity
  8
D-4
  6
Continuous
 62
     7
370
     9
100
AcDbText
 10
529.4283356537692
 20
615.8539735873388
 30
0.0
 40
11.43
  1
溶融亜鉛めっき鋼板
 41
1.148148148148148
  7
ＭＳ ゴシック
100
AcDbText
  0
LINE
  5
626
330
1F
100
AcDbEntity
  8
D-4
  6
Continuous
 62
     7
370
     9
100
AcDbLine
 10
687.9368992953811
 20
632.0799812609267
 30
0.0
 11
520.666957545925
 21
632.0799812609267
 31
0.0
  0
ENDSEC
  0
SECTION
  2
OBJECTS
  0
DICTIONARY
  5
C
330
0
100
AcDbDictionary
281
     1
  3
ACAD_GROUP
350
D
  3
ACAD_LAYOUT
350
1A
  3
ACAD_MLEADERSTYLE
350
628
  3
ACAD_MLINESTYLE
350
17
  3
ACAD_PLOTSETTINGS
350
19
  3
ACAD_PLOTSTYLENAME
350
E
  3
ACAD_TABLESTYLE
350
627
  3
ACAD_VISUALSTYLE
350
2A
  0
DICTIONARY
  5
D
102
{ACAD_REACTORS
330
C
102
}
330
C
100
AcDbDictionary
281
     1
  0
DICTIONARY
  5
1A
102
{ACAD_REACTORS
330
C
102
}
330
C
100
AcDbDictionary
281
     1
  3
Layout1
350
1E
  3
Layout2
350
26
  3
Model
350
22
  0
DICTIONARY
  5
628
102
{ACAD_REACTORS
330
C
102
}
330
C
100
AcDbDictionary
281
     1
  0
DICTIONARY
  5
17
102
{ACAD_REACTORS
330
C
102
}
330
C
100
AcDbDictionary
281
     1
  3
Standard
350
18
  0
DICTIONARY
  5
19
102
{ACAD_REACTORS
330
C
102
}
330
C
100
AcDbDictionary
281
     1
  0
ACDBDICTIONARYWDFLT
  5
E
102
{ACAD_REACTORS
330
C
102
}
330
C
100
AcDbDictionary
281
     1
  3
Normal
350
F
100
AcDbDictionaryWithDefault
340
F
  0
DICTIONARY
  5
627
102
{ACAD_REACTORS
330
C
102
}
330
C
100
AcDbDictionary
281
     1
  0
DICTIONARY
  5
2A
102
{ACAD_REACTORS
330
C
102
}
330
C
100
AcDbDictionary
281
     1
  3
2dWireframe
350
2F
  3
3D Hidden
350
31
  3
3dWireframe
350
30
  3
Basic
350
32
  3
Brighten
350
36
  3
ColorChange
350
3A
  3
Conceptual
350
34
  3
Dim
350
35
  3
Facepattern
350
39
  3
Flat
350
2B
  3
FlatWithEdges
350
2C
  3
Gouraud
350
2D
  3
GouraudWithEdges
350
2E
  3
Linepattern
350
38
  3
Realistic
350
33
  3
Thicken
350
37
  0
LAYOUT
  5
1E
102
{ACAD_REACTORS
330
1A
102
}
330
1A
100
AcDbPlotSettings
  1

  2
none_device
  4

  6

 40
0.0
 41
0.0
 42
0.0
 43
0.0
 44
0.0
 45
0.0
 46
0.0
 47
0.0
 48
0.0
 49
0.0
140
0.0
141
0.0
142
1.0
143
1.0
 70
   688
 72
     0
 73
     0
 74
     5
  7

 75
    16
 76
     0
 77
     5
 78
   300
147
1.0
148
0.0
149
0.0
100
AcDbLayout
  1
Layout1
 70
     1
 71
     1
 10
0.0
 20
0.0
 11
420.0
 21
297.0
 12
0.0
 22
0.0
 32
0.0
 14
1.000000000000000E+20
 24
1.000000000000000E+20
 34
1.000000000000000E+20
 15
-1.000000000000000E+20
 25
-1.000000000000000E+20
 35
-1.000000000000000E+20
146
0.0
 13
0.0
 23
0.0
 33
0.0
 16
1.0
 26
0.0
 36
0.0
 17
0.0
 27
1.0
 37
0.0
 76
     0
330
1B
  0
LAYOUT
  5
26
102
{ACAD_REACTORS
330
1A
102
}
330
1A
100
AcDbPlotSettings
  1

  2
none_device
  4

  6

 40
0.0
 41
0.0
 42
0.0
 43
0.0
 44
0.0
 45
0.0
 46
0.0
 47
0.0
 48
0.0
 49
0.0
140
0.0
141
0.0
142
1.0
143
1.0
 70
   688
 72
     0
 73
     0
 74
     5
  7

 75
    16
 76
     0
 77
     5
 78
   300
147
1.0
148
0.0
149
0.0
100
AcDbLayout
  1
Layout2
 70
     1
 71
     2
 10
0.0
 20
0.0
 11
0.0
 21
0.0
 12
0.0
 22
0.0
 32
0.0
 14
0.0
 24
0.0
 34
0.0
 15
0.0
 25
0.0
 35
0.0
146
0.0
 13
0.0
 23
0.0
 33
0.0
 16
1.0
 26
0.0
 36
0.0
 17
0.0
 27
1.0
 37
0.0
 76
     0
330
23
  0
LAYOUT
  5
22
102
{ACAD_REACTORS
330
1A
102
}
330
1A
100
AcDbPlotSettings
  1

  2
none_device
  4

  6

 40
0.0
 41
0.0
 42
0.0
 43
0.0
 44
0.0
 45
0.0
 46
0.0
 47
0.0
 48
0.0
 49
0.0
140
0.0
141
0.0
142
1.0
143
1.0
 70
  1712
 72
     0
 73
     0
 74
     0
  7

 75
     0
 76
     0
 77
     5
 78
   300
147
1.0
148
0.0
149
0.0
100
AcDbLayout
  1
Model
 70
     1
 71
     0
 10
-1050.0
 20
-742.5
 11
1050.0
 21
742.5
 12
0.0
 22
0.0
 32
0.0
 14
-1050.0
 24
-742.5
 34
0.0
 15
1050.0
 25
742.5
 35
0.0
146
0.0
 13
0.0
 23
0.0
 33
0.0
 16
1.0
 26
0.0
 36
0.0
 17
0.0
 27
1.0
 37
0.0
 76
     0
330
1F
331
29
  0
MLINESTYLE
  5
18
102
{ACAD_REACTORS
330
17
102
}
330
17
100
AcDbMlineStyle
  2
Standard
 70
     0
  3

 62
   256
 51
90.0
 52
90.0
 71
     2
 49
0.5
 62
   256
  6
BYLAYER
 49
-0.5
 62
   256
  6
BYLAYER
  0
ACDBPLACEHOLDER
  5
F
102
{ACAD_REACTORS
330
E
102
}
330
E
  0
VISUALSTYLE
  5
2F
102
{ACAD_REACTORS
330
2A
102
}
330
2A
100
AcDbVisualStyle
  2
2dWireframe
 70
     4
 71
     0
 72
     2
 73
     0
 90
        0
 40
-0.6
 41
-30.0
 62
     5
 63
     7
421
 16777215
 74
     1
 91
        4
 64
     7
 65
   257
 75
     1
175
     1
 42
1.0
 92
        0
 66
   257
 43
1.0
 76
     1
 77
     6
 78
     2
 67
     7
 79
     5
170
     0
171
     0
290
     0
174
     0
 93
        1
 44
0.0
173
     0
291
     0
 45
0.0
1001
ACAD
1000
AcDbSavedByObjectVersion
1070
     0
  0
VISUALSTYLE
  5
31
102
{ACAD_REACTORS
330
2A
102
}
330
2A
100
AcDbVisualStyle
  2
3D Hidden
 70
     6
 71
     1
 72
     2
 73
     2
 90
        0
 40
-0.6
 41
-30.0
 62
     5
 63
     7
421
 16777215
 74
     2
 91
        2
 64
     7
 65
   257
 75
     2
175
     1
 42
40.0
 92
        0
 66
   257
 43
1.0
 76
     1
 77
     6
 78
     2
 67
     7
 79
     3
170
     0
171
     0
290
     0
174
     0
 93
        1
 44
0.0
173
     0
291
     0
 45
0.0
1001
ACAD
1000
AcDbSavedByObjectVersion
1070
     0
  0
VISUALSTYLE
  5
30
102
{ACAD_REACTORS
330
2A
102
}
330
2A
100
AcDbVisualStyle
  2
3dWireframe
 70
     5
 71
     0
 72
     2
 73
     0
 90
        0
 40
-0.6
 41
-30.0
 62
     5
 63
     7
421
 16777215
 74
     1
 91
        4
 64
     7
 65
   257
 75
     1
175
     1
 42
1.0
 92
        0
 66
   257
 43
1.0
 76
     1
 77
     6
 78
     2
 67
     7
 79
     5
170
     0
171
     0
290
     0
174
     0
 93
        1
 44
0.0
173
     0
291
     0
 45
0.0
1001
ACAD
1000
AcDbSavedByObjectVersion
1070
     0
  0
VISUALSTYLE
  5
32
102
{ACAD_REACTORS
330
2A
102
}
330
2A
100
AcDbVisualStyle
  2
Basic
 70
     7
 71
     1
 72
     0
 73
     1
 90
        0
 40
-0.6
 41
-30.0
 62
     5
 63
     7
421
 16777215
 74
     0
 91
        4
 64
     7
 65
   257
 75
     1
175
     1
 42
1.0
 92
        8
 66
     7
 43
1.0
 76
     1
 77
     6
 78
     2
 67
     7
 79
     5
170
     0
171
     0
290
     0
174
     0
 93
        1
 44
0.0
173
     0
291
     1
 45
0.0
1001
ACAD
1000
AcDbSavedByObjectVersion
1070
     0
  0
VISUALSTYLE
  5
36
102
{ACAD_REACTORS
330
2A
102
}
330
2A
100
AcDbVisualStyle
  2
Brighten
 70
    12
 71
     2
 72
     2
 73
     0
 90
        0
 40
-0.6
 41
-30.0
 62
     5
 63
     7
421
 16777215
 74
     1
 91
        4
 64
     7
 65
   257
 75
     1
175
     1
 42
1.0
 92
        8
 66
     7
 43
1.0
 76
     1
 77
     6
 78
     2
 67
     7
 79
     5
170
     0
171
     0
290
     0
174
     0
 93
        1
 44
50.0
173
     0
291
     1
 45
0.0
1001
ACAD
1000
AcDbSavedByObjectVersion
1070
     0
  0
VISUALSTYLE
  5
3A
102
{ACAD_REACTORS
330
2A
102
}
330
2A
100
AcDbVisualStyle
  2
ColorChange
 70
    16
 71
     2
 72
     2
 73
     3
 90
        0
 40
-0.6
 41
-30.0
 62
     5
 63
     8
421
  8421504
 74
     1
 91
        4
 64
     7
 65
   257
 75
     1
175
     1
 42
1.0
 92
        8
 66
     8
424
  8421504
 43
1.0
 76
     1
 77
     6
 78
     2
 67
     7
 79
     5
170
     0
171
     0
290
     0
174
     0
 93
        1
 44
0.0
173
     0
291
     1
 45
0.0
1001
ACAD
1000
AcDbSavedByObjectVersion
1070
     0
  0
VISUALSTYLE
  5
34
102
{ACAD_REACTORS
330
2A
102
}
330
2A
100
AcDbVisualStyle
  2
Conceptual
 70
     9
 71
     3
 72
     2
 73
     0
 90
        0
 40
-0.6
 41
-30.0
 62
     5
 63
     7
421
 16777215
 74
     2
 91
        2
 64
     7
 65
   257
 75
     1
175
     1
 42
40.0
 92
        8
 66
     7
 43
1.0
 76
     1
 77
     6
 78
     2
 67
     7
 79
     3
170
     0
171
     0
290
     0
174
     0
 93
        1
 44
0.0
173
     0
291
     0
 45
0.0
1001
ACAD
1000
AcDbSavedByObjectVersion
1070
     0
  0
VISUALSTYLE
  5
35
102
{ACAD_REACTORS
330
2A
102
}
330
2A
100
AcDbVisualStyle
  2
Dim
 70
    11
 71
     2
 72
     2
 73
     0
 90
        0
 40
-0.6
 41
-30.0
 62
     5
 63
     7
421
 16777215
 74
     1
 91
        4
 64
     7
 65
   257
 75
     1
175
     1
 42
1.0
 92
        8
 66
     7
 43
1.0
 76
     1
 77
     6
 78
     2
 67
     7
 79
     5
170
     0
171
     0
290
     0
174
     0
 93
        1
 44
-50.0
173
     0
291
     1
 45
0.0
1001
ACAD
1000
AcDbSavedByObjectVersion
1070
     0
  0
VISUALSTYLE
  5
39
102
{ACAD_REACTORS
330
2A
102
}
330
2A
100
AcDbVisualStyle
  2
Facepattern
 70
    15
 71
     2
 72
     2
 73
     0
 90
        0
 40
-0.6
 41
-30.0
 62
     5
 63
     7
421
 16777215
 74
     1
 91
        4
 64
     7
 65
   257
 75
     1
175
     1
 42
1.0
 92
        8
 66
     7
 43
1.0
 76
     1
 77
     6
 78
     2
 67
     7
 79
     5
170
     0
171
     0
290
     0
174
     0
 93
        1
 44
0.0
173
     0
291
     1
 45
0.0
1001
ACAD
1000
AcDbSavedByObjectVersion
1070
     0
  0
VISUALSTYLE
  5
2B
102
{ACAD_REACTORS
330
2A
102
}
330
2A
100
AcDbVisualStyle
  2
Flat
 70
     0
 71
     2
 72
     1
 73
     1
 90
        2
 40
-0.6
 41
30.0
 62
     5
 63
     7
421
 16777215
 74
     0
 91
        4
 64
     7
 65
   257
 75
     1
175
     1
 42
1.0
 92
        8
 66
     7
 43
1.0
 76
     1
 77
     6
 78
     2
 67
     7
 79
     5
170
     0
171
     0
290
     0
174
     0
 93
       13
 44
0.0
173
     0
291
     1
 45
0.0
1001
ACAD
1000
AcDbSavedByObjectVersion
1070
     0
  0
VISUALSTYLE
  5
2C
102
{ACAD_REACTORS
330
2A
102
}
330
2A
100
AcDbVisualStyle
  2
FlatWithEdges
 70
     1
 71
     2
 72
     1
 73
     1
 90
        2
 40
-0.6
 41
30.0
 62
     5
 63
     7
421
 16777215
 74
     1
 91
        4
 64
     7
 65
   257
 75
     1
175
     1
 42
1.0
 92
        0
 66
   257
 43
1.0
 76
     1
 77
     6
 78
     2
 67
     7
 79
     5
170
     0
171
     0
290
     0
174
     0
 93
       13
 44
0.0
173
     0
291
     1
 45
0.0
1001
ACAD
1000
AcDbSavedByObjectVersion
1070
     0
  0
VISUALSTYLE
  5
2D
102
{ACAD_REACTORS
330
2A
102
}
330
2A
100
AcDbVisualStyle
  2
Gouraud
 70
     2
 71
     2
 72
     2
 73
     1
 90
        2
 40
-0.6
 41
30.0
 62
     5
 63
     7
421
 16777215
 74
     0
 91
        4
 64
     7
 65
   257
 75
     1
175
     1
 42
1.0
 92
        0
 66
     7
 43
1.0
 76
     1
 77
     6
 78
     2
 67
     7
 79
     5
170
     0
171
     0
290
     0
174
     0
 93
       13
 44
0.0
173
     0
291
     1
 45
0.0
1001
ACAD
1000
AcDbSavedByObjectVersion
1070
     0
  0
VISUALSTYLE
  5
2E
102
{ACAD_REACTORS
330
2A
102
}
330
2A
100
AcDbVisualStyle
  2
GouraudWithEdges
 70
     3
 71
     2
 72
     2
 73
     1
 90
        2
 40
-0.6
 41
30.0
 62
     5
 63
     7
421
 16777215
 74
     1
 91
        4
 64
     7
 65
   257
 75
     1
175
     1
 42
1.0
 92
        0
 66
   257
 43
1.0
 76
     1
 77
     6
 78
     2
 67
     7
 79
     5
170
     0
171
     0
290
     0
174
     0
 93
       13
 44
0.0
173
     0
291
     1
 45
0.0
1001
ACAD
1000
AcDbSavedByObjectVersion
1070
     0
  0
VISUALSTYLE
  5
38
102
{ACAD_REACTORS
330
2A
102
}
330
2A
100
AcDbVisualStyle
  2
Linepattern
 70
    14
 71
     2
 72
     2
 73
     0
 90
        0
 40
-0.6
 41
-30.0
 62
     5
 63
     7
421
 16777215
 74
     1
 91
        4
 64
     7
 65
   257
 75
     7
175
     7
 42
1.0
 92
        8
 66
     7
 43
1.0
 76
     1
 77
     6
 78
     2
 67
     7
 79
     5
170
     0
171
     0
290
     0
174
     0
 93
        1
 44
0.0
173
     0
291
     1
 45
0.0
1001
ACAD
1000
AcDbSavedByObjectVersion
1070
     0
  0
VISUALSTYLE
  5
33
102
{ACAD_REACTORS
330
2A
102
}
330
2A
100
AcDbVisualStyle
  2
Realistic
 70
     8
 71
     2
 72
     2
 73
     0
 90
        0
 40
-0.6
 41
-30.0
 62
     5
 63
     7
421
 16777215
 74
     1
 91
        0
 64
     7
 65
   257
 75
     1
175
     1
 42
1.0
 92
        8
 66
     8
424
  7895160
 43
1.0
 76
     1
 77
     6
 78
     2
 67
     7
 79
     5
170
     0
171
     0
290
     0
174
     0
 93
       13
 44
0.0
173
     0
291
     0
 45
0.0
1001
ACAD
1000
AcDbSavedByObjectVersion
1070
     0
  0
VISUALSTYLE
  5
37
102
{ACAD_REACTORS
330
2A
102
}
330
2A
100
AcDbVisualStyle
  2
Thicken
 70
    13
 71
     2
 72
     2
 73
     0
 90
        0
 40
-0.6
 41
-30.0
 62
     5
 63
     7
421
 16777215
 74
     1
 91
        4
 64
     7
 65
   257
 75
     1
175
     1
 42
1.0
 92
       12
 66
     7
 43
1.0
 76
     1
 77
     6
 78
     2
 67
     7
 79
     5
170
     0
171
     0
290
     0
174
     0
 93
        1
 44
0.0
173
     0
291
     1
 45
0.0
1001
ACAD
1000
AcDbSavedByObjectVersion
1070
     0
  0
ENDSEC
  0
EOF
