  0
SECTION
  2
HEADER
  9
$ACADVER
  1
AC1018
  9
$ACADMAINTVER
 70
     0
  9
$DWGCODEPAGE
  3
ANSI_932
  9
$INSBASE
 10
0.0
 20
0.0
 30
0.0
  9
$EXTMIN
 10
-1050.0
 20
-742.5
 30
0.0
  9
$EXTMAX
 10
1050.0
 20
742.5
 30
0.0
  9
$LIMMIN
 10
-1050.0
 20
-742.5
  9
$LIMMAX
 10
1050.0
 20
742.5
  9
$ORTHOMODE
 70
     0
  9
$REGENMODE
 70
     1
  9
$FILLMODE
 70
     1
  9
$QTEXTMODE
 70
     0
  9
$MIRRTEXT
 70
     1
  9
$LTSCALE
 40
5.0
  9
$ATTMODE
 70
     1
  9
$TEXTSIZE
 40
2.5
  9
$TRACEWID
 40
1.0
  9
$TEXTSTYLE
  7
Standard
  9
$CLAYER
  8
0
  9
$CELTYPE
  6
ByLayer
  9
$CECOLOR
 62
   256
  9
$CELTSCALE
 40
1.0
  9
$DISPSILH
 70
     0
  9
$DIMSCALE
 40
1.0
  9
$DIMASZ
 40
2.5
  9
$DIMEXO
 40
0.625
  9
$DIMDLI
 40
3.75
  9
$DIMRND
 40
0.0
  9
$DIMDLE
 40
0.0
  9
$DIMEXE
 40
1.25
  9
$DIMTP
 40
0.0
  9
$DIMTM
 40
0.0
  9
$DIMTXT
 40
2.5
  9
$DIMCEN
 40
2.5
  9
$DIMTSZ
 40
0.0
  9
$DIMTOL
 70
     0
  9
$DIMLIM
 70
     0
  9
$DIMTIH
 70
     0
  9
$DIMTOH
 70
     0
  9
$DIMSE1
 70
     0
  9
$DIMSE2
 70
     0
  9
$DIMTAD
 70
     1
  9
$DIMZIN
 70
     8
  9
$DIMBLK
  1

  9
$DIMASO
 70
     1
  9
$DIMSHO
 70
     1
  9
$DIMPOST
  1

  9
$DIMAPOST
  1

  9
$DIMALT
 70
     0
  9
$DIMALTD
 70
     3
  9
$DIMALTF
 40
0.03937007874016
  9
$DIMLFAC
 40
1.0
  9
$DIMTOFL
 70
     1
  9
$DIMTVP
 40
0.0
  9
$DIMTIX
 70
     0
  9
$DIMSOXD
 70
     0
  9
$DIMSAH
 70
     0
  9
$DIMBLK1
  1

  9
$DIMBLK2
  1

  9
$DIMSTYLE
  2
ISO-25
  9
$DIMCLRD
 70
     0
  9
$DIMCLRE
 70
     0
  9
$DIMCLRT
 70
     0
  9
$DIMTFAC
 40
1.0
  9
$DIMGAP
 40
0.625
  9
$DIMJUST
 70
     0
  9
$DIMSD1
 70
     0
  9
$DIMSD2
 70
     0
  9
$DIMTOLJ
 70
     0
  9
$DIMTZIN
 70
     8
  9
$DIMALTZ
 70
     0
  9
$DIMALTTZ
 70
     0
  9
$DIMUPT
 70
     0
  9
$DIMDEC
 70
     2
  9
$DIMTDEC
 70
     2
  9
$DIMALTU
 70
     2
  9
$DIMALTTD
 70
     3
  9
$DIMTXSTY
  7
Standard
  9
$DIMAUNIT
 70
     0
  9
$DIMADEC
 70
     0
  9
$DIMALTRND
 40
0.0
  9
$DIMAZIN
 70
     0
  9
$DIMDSEP
 70
    44
  9
$DIMATFIT
 70
     3
  9
$DIMFRAC
 70
     0
  9
$DIMLDRBLK
  1

  9
$DIMLUNIT
 70
     2
  9
$DIMLWD
 70
    -2
  9
$DIMLWE
 70
    -2
  9
$DIMTMOVE
 70
     0
  9
$LUNITS
 70
     2
  9
$LUPREC
 70
     4
  9
$SKETCHINC
 40
1.0
  9
$FILLETRAD
 40
10.0
  9
$AUNITS
 70
     0
  9
$AUPREC
 70
     0
  9
$MENU
  1
.
  9
$ELEVATION
 40
0.0
  9
$PELEVATION
 40
0.0
  9
$THICKNESS
 40
0.0
  9
$LIMCHECK
 70
     0
  9
$CHAMFERA
 40
10.0
  9
$CHAMFERB
 40
10.0
  9
$CHAMFERC
 40
20.0
  9
$CHAMFERD
 40
0.0
  9
$SKPOLY
 70
     0
  9
$TDCREATE
 40
2457352.398820683
  9
$TDUCREATE
 40
2457352.023820683
  9
$TDUPDATE
 40
2457352.398820695
  9
$TDUUPDATE
 40
2457352.023820695
  9
$TDINDWG
 40
0.0000000116
  9
$TDUSRTIMER
 40
0.0000000116
  9
$USRTIMER
 70
     1
  9
$ANGBASE
 50
0.0
  9
$ANGDIR
 70
     0
  9
$PDMODE
 70
     0
  9
$PDSIZE
 40
0.0
  9
$PLINEWID
 40
0.0
  9
$SPLFRAME
 70
     0
  9
$SPLINETYPE
 70
     6
  9
$SPLINESEGS
 70
     8
  9
$HANDSEED
  5
4E4
  9
$SURFTAB1
 70
     6
  9
$SURFTAB2
 70
     6
  9
$SURFTYPE
 70
     6
  9
$SURFU
 70
     6
  9
$SURFV
 70
     6
  9
$UCSBASE
  2

  9
$UCSNAME
  2

  9
$UCSORG
 10
0.0
 20
0.0
 30
0.0
  9
$UCSXDIR
 10
1.0
 20
0.0
 30
0.0
  9
$UCSYDIR
 10
0.0
 20
1.0
 30
0.0
  9
$UCSORTHOREF
  2

  9
$UCSORTHOVIEW
 70
     0
  9
$UCSORGTOP
 10
0.0
 20
0.0
 30
0.0
  9
$UCSORGBOTTOM
 10
0.0
 20
0.0
 30
0.0
  9
$UCSORGLEFT
 10
0.0
 20
0.0
 30
0.0
  9
$UCSORGRIGHT
 10
0.0
 20
0.0
 30
0.0
  9
$UCSORGFRONT
 10
0.0
 20
0.0
 30
0.0
  9
$UCSORGBACK
 10
0.0
 20
0.0
 30
0.0
  9
$PUCSBASE
  2

  9
$PUCSNAME
  2

  9
$PUCSORG
 10
0.0
 20
0.0
 30
0.0
  9
$PUCSXDIR
 10
1.0
 20
0.0
 30
0.0
  9
$PUCSYDIR
 10
0.0
 20
1.0
 30
0.0
  9
$PUCSORTHOREF
  2

  9
$PUCSORTHOVIEW
 70
     0
  9
$PUCSORGTOP
 10
0.0
 20
0.0
 30
0.0
  9
$PUCSORGBOTTOM
 10
0.0
 20
0.0
 30
0.0
  9
$PUCSORGLEFT
 10
0.0
 20
0.0
 30
0.0
  9
$PUCSORGRIGHT
 10
0.0
 20
0.0
 30
0.0
  9
$PUCSORGFRONT
 10
0.0
 20
0.0
 30
0.0
  9
$PUCSORGBACK
 10
0.0
 20
0.0
 30
0.0
  9
$USERI1
 70
     0
  9
$USERI2
 70
     0
  9
$USERI3
 70
     0
  9
$USERI4
 70
     0
  9
$USERI5
 70
     0
  9
$USERR1
 40
0.0
  9
$USERR2
 40
0.0
  9
$USERR3
 40
0.0
  9
$USERR4
 40
0.0
  9
$USERR5
 40
0.0
  9
$WORLDVIEW
 70
     1
  9
$SHADEDGE
 70
     3
  9
$SHADEDIF
 70
    70
  9
$TILEMODE
 70
     1
  9
$MAXACTVP
 70
    64
  9
$PINSBASE
 10
0.0
 20
0.0
 30
0.0
  9
$PLIMCHECK
 70
     0
  9
$PEXTMIN
 10
1.000000000000000E+20
 20
1.000000000000000E+20
 30
1.000000000000000E+20
  9
$PEXTMAX
 10
-1.000000000000000E+20
 20
-1.000000000000000E+20
 30
-1.000000000000000E+20
  9
$PLIMMIN
 10
0.0
 20
0.0
  9
$PLIMMAX
 10
420.0
 20
297.0
  9
$UNITMODE
 70
     0
  9
$VISRETAIN
 70
     1
  9
$PLINEGEN
 70
     0
  9
$PSLTSCALE
 70
     1
  9
$TREEDEPTH
 70
  3020
  9
$CMLSTYLE
  2
Standard
  9
$CMLJUST
 70
     0
  9
$CMLSCALE
 40
20.0
  9
$PROXYGRAPHICS
 70
     1
  9
$MEASUREMENT
 70
     1
  9
$CELWEIGHT
370
    -1
  9
$ENDCAPS
280
     0
  9
$JOINSTYLE
280
     0
  9
$LWDISPLAY
290
     0
  9
$INSUNITS
 70
     4
  9
$HYPERLINKBASE
  1

  9
$STYLESHEET
  1

  9
$XEDIT
290
     1
  9
$CEPSNTYPE
380
     0
  9
$PSTYLEMODE
290
     1
  9
$FINGERPRINTGUID
  2
{6E6F5A5A-2FD5-4416-AF6B-DE61B49853AD}
  9
$VERSIONGUID
  2
{FAEB1C32-E019-11D5-929B-00C0DF256EC4}
  9
$EXTNAMES
290
     1
  9
$PSVPSCALE
 40
0.0
  9
$OLESTARTUP
290
     0
  9
$SORTENTS
280
   127
  9
$INDEXCTL
280
     0
  9
$HIDETEXT
280
     1
  9
$XCLIPFRAME
290
     0
  9
$HALOGAP
280
     0
  9
$OBSCOLOR
 70
   257
  9
$OBSLTYPE
280
     0
  9
$INTERSECTIONDISPLAY
280
     0
  9
$INTERSECTIONCOLOR
 70
   257
  9
$DIMASSOC
280
     2
  9
$PROJECTNAME
  1

  0
ENDSEC
  0
SECTION
  2
CLASSES
  0
CLASS
  1
ACDBDICTIONARYWDFLT
  2
AcDbDictionaryWithDefault
  3
ObjectDBX Classes
 90
        0
 91
        4
280
     0
281
     0
  0
CLASS
  1
VISUALSTYLE
  2
AcDbVisualStyle
  3
ObjectDBX Classes
 90
     4095
 91
        4
280
     0
281
     0
  0
ENDSEC
  0
SECTION
  2
TABLES
  0
TABLE
  2
VPORT
  5
8
330
0
100
AcDbSymbolTable
 70
     1
  0
VPORT
  5
29
330
8
100
AcDbSymbolTableRecord
100
AcDbViewportTableRecord
  2
*Active
 70
     0
 10
0.0
 20
0.0
 11
1.0
 21
1.0
 12
0.0
 22
0.0
 13
0.0
 23
0.0
 14
10.0
 24
10.0
 15
10.0
 25
10.0
 16
0.0
 26
0.0
 36
1.0
 17
0.0
 27
0.0
 37
0.0
 40
1633.5
 41
1.414141414141414
 42
50.0
 43
0.0
 44
0.0
 50
0.0
 51
0.0
 71
     0
 72
 10000
 73
     1
 74
     3
 75
     0
 76
     0
 77
     0
 78
     0
281
     0
 65
     1
110
0.0
120
0.0
130
0.0
111
1.0
121
0.0
131
0.0
112
0.0
122
1.0
132
0.0
 79
     0
146
0.0
  0
ENDTAB
  0
TABLE
  2
LTYPE
  5
5
330
0
100
AcDbSymbolTable
 70
     5
  0
LTYPE
  5
14
330
5
100
AcDbSymbolTableRecord
100
AcDbLinetypeTableRecord
  2
ByBlock
 70
     0
  3

 72
    65
 73
     0
 40
0.0
  0
LTYPE
  5
15
330
5
100
AcDbSymbolTableRecord
100
AcDbLinetypeTableRecord
  2
ByLayer
 70
     0
  3

 72
    65
 73
     0
 40
0.0
  0
LTYPE
  5
16
330
5
100
AcDbSymbolTableRecord
100
AcDbLinetypeTableRecord
  2
Continuous
 70
     0
  3
Solid line
 72
    65
 73
     0
 40
0.0
  0
LTYPE
  5
3C
330
5
100
AcDbSymbolTableRecord
100
AcDbLinetypeTableRecord
  2
JWW_DASHED1
 70
     0
  3
-  --  --  --  --  --  --  --  -
 72
    65
 73
     2
 40
1.693333333333333
 49
0.8466666666666667
 74
     0
 49
-0.8466666666666667
 74
     0
  0
LTYPE
  5
3D
330
5
100
AcDbSymbolTableRecord
100
AcDbLinetypeTableRecord
  2
JWW_CENTER1
 70
     0
  3
-----  --  ----------  --  -----
 72
    65
 73
     4
 40
6.773333333333333
 49
4.233333333333333
 74
     0
 49
-0.8466666666666667
 74
     0
 49
0.8466666666666667
 74
     0
 49
-0.8466666666666667
 74
     0
  0
LTYPE
  5
3E
330
5
100
AcDbSymbolTableRecord
100
AcDbLinetypeTableRecord
  2
JWW_DASHED3
 70
     0
  3
---  ------  ------  ------  ---
 72
    65
 73
     2
 40
3.386666666666667
 49
2.54
 74
     0
 49
-0.8466666666666667
 74
     0
  0
LTYPE
  5
3F
330
5
100
AcDbSymbolTableRecord
100
AcDbLinetypeTableRecord
  2
JWW_PHANTOM2
 70
     0
  3
------------  -  -  ------------
 72
    65
 73
     6
 40
13.54666666666667
 49
10.16
 74
     0
 49
-0.8466666666666667
 74
     0
 49
0.4233333333333333
 74
     0
 49
-0.8466666666666667
 74
     0
 49
0.4233333333333333
 74
     0
 49
-0.8466666666666667
 74
     0
  0
ENDTAB
  0
TABLE
  2
LAYER
  5
2
330
0
100
AcDbSymbolTable
 70
    21
  0
LAYER
  5
10
330
2
100
AcDbSymbolTableRecord
100
AcDbLayerTableRecord
  2
0
 70
     0
 62
     7
  6
Continuous
370
    -3
390
F
  0
LAYER
  5
40
330
2
100
AcDbSymbolTableRecord
100
AcDbLayerTableRecord
  2
その他
 70
     0
 62
     7
  6
Continuous
370
    -3
390
F
  0
LAYER
  5
41
330
2
100
AcDbSymbolTableRecord
100
AcDbLayerTableRecord
  2
1-4ﾚｲﾔ
 70
     0
 62
     7
  6
Continuous
370
    -3
390
F
  0
LAYER
  5
42
330
2
100
AcDbSymbolTableRecord
100
AcDbLayerTableRecord
  2
通り芯
 70
     0
 62
     7
  6
Continuous
370
    -3
390
F
  0
LAYER
  5
43
330
2
100
AcDbSymbolTableRecord
100
AcDbLayerTableRecord
  2
躯体
 70
     0
 62
     7
  6
Continuous
370
    -3
390
F
  0
LAYER
  5
44
330
2
100
AcDbSymbolTableRecord
100
AcDbLayerTableRecord
  2
0-A
 70
     0
 62
     7
  6
Continuous
370
    -3
390
F
  0
LAYER
  5
45
330
2
100
AcDbSymbolTableRecord
100
AcDbLayerTableRecord
  2
仕上
 70
     0
 62
     7
  6
Continuous
370
    -3
390
F
  0
LAYER
  5
46
330
2
100
AcDbSymbolTableRecord
100
AcDbLayerTableRecord
  2
建具
 70
     0
 62
     7
  6
Continuous
370
    -3
390
F
  0
LAYER
  5
47
330
2
100
AcDbSymbolTableRecord
100
AcDbLayerTableRecord
  2
0-9
 70
     0
 62
     7
  6
Continuous
370
    -3
390
F
  0
LAYER
  5
48
330
2
100
AcDbSymbolTableRecord
100
AcDbLayerTableRecord
  2
D-4
 70
     0
 62
     7
  6
Continuous
370
    -3
390
F
  0
LAYER
  5
49
330
2
100
AcDbSymbolTableRecord
100
AcDbLayerTableRecord
  2
D-0
 70
     0
 62
     7
  6
Continuous
370
    -3
390
F
  0
LAYER
  5
4A
330
2
100
AcDbSymbolTableRecord
100
AcDbLayerTableRecord
  2
D-1
 70
     0
 62
     7
  6
Continuous
370
    -3
390
F
  0
LAYER
  5
4B
330
2
100
AcDbSymbolTableRecord
100
AcDbLayerTableRecord
  2
D-5
 70
     0
 62
     7
  6
Continuous
370
    -3
390
F
  0
LAYER
  5
4C
330
2
100
AcDbSymbolTableRecord
100
AcDbLayerTableRecord
  2
D-3
 70
     0
 62
     7
  6
Continuous
370
    -3
390
F
  0
LAYER
  5
4D
330
2
100
AcDbSymbolTableRecord
100
AcDbLayerTableRecord
  2
D-B
 70
     0
 62
     7
  6
Continuous
370
    -3
390
F
  0
LAYER
  5
4E
330
2
100
AcDbSymbolTableRecord
100
AcDbLayerTableRecord
  2
D-A
 70
     0
 62
     7
  6
Continuous
370
    -3
390
F
  0
LAYER
  5
4F
330
2
100
AcDbSymbolTableRecord
100
AcDbLayerTableRecord
  2
D-6
 70
     0
 62
     7
  6
Continuous
370
    -3
390
F
  0
LAYER
  5
50
330
2
100
AcDbSymbolTableRecord
100
AcDbLayerTableRecord
  2
D-2
 70
     0
 62
     7
  6
Continuous
370
    -3
390
F
  0
LAYER
  5
51
330
2
100
AcDbSymbolTableRecord
100
AcDbLayerTableRecord
  2
D-D
 70
     0
 62
     7
  6
Continuous
370
    -3
390
F
  0
LAYER
  5
52
330
2
100
AcDbSymbolTableRecord
100
AcDbLayerTableRecord
  2
D-F
 70
     0
 62
     7
  6
Continuous
370
    -3
390
F
  0
LAYER
  5
53
330
2
100
AcDbSymbolTableRecord
100
AcDbLayerTableRecord
  2
F-0ﾚｲﾔ
 70
     0
 62
     7
  6
Continuous
370
    -3
390
F
  0
ENDTAB
  0
TABLE
  2
STYLE
  5
3
330
0
100
AcDbSymbolTable
 70
     2
  0
STYLE
  5
11
330
3
100
AcDbSymbolTableRecord
100
AcDbTextStyleTableRecord
  2
Standard
 70
     0
 40
0.0
 41
1.0
 50
0.0
 71
     0
 42
2.5
  3
txt
  4

1001
ACAD
1000

1071
        0
  0
STYLE
  5
3B
330
3
100
AcDbSymbolTableRecord
100
AcDbTextStyleTableRecord
  2
ＭＳ ゴシック
 70
     0
 40
1.0
 41
1.0
 50
0.0
 71
     0
 42
10.0
  3

  4

1001
ACAD
1000
MS Gothic
1071
    32817
  0
ENDTAB
  0
TABLE
  2
VIEW
  5
6
330
0
100
AcDbSymbolTable
 70
     0
  0
ENDTAB
  0
TABLE
  2
UCS
  5
7
330
0
100
AcDbSymbolTable
 70
     0
  0
ENDTAB
  0
TABLE
  2
APPID
  5
9
330
0
100
AcDbSymbolTable
 70
     1
  0
APPID
  5
12
330
9
100
AcDbSymbolTableRecord
100
AcDbRegAppTableRecord
  2
ACAD
 70
     0
  0
ENDTAB
  0
TABLE
  2
DIMSTYLE
  5
A
330
0
100
AcDbSymbolTable
 70
     1
100
AcDbDimStyleTable
  0
DIMSTYLE
105
27
330
A
100
AcDbSymbolTableRecord
100
AcDbDimStyleTableRecord
  2
ISO-25
 70
     0
 41
2.5
 42
0.625
 43
3.75
 44
1.25
 73
     0
 74
     0
 77
     1
 78
     8
140
2.5
141
2.5
143
0.03937007874016
147
0.625
171
     3
172
     1
271
     2
272
     2
274
     3
278
    44
283
     0
284
     8
340
11
  0
ENDTAB
  0
TABLE
  2
BLOCK_RECORD
  5
1
330
0
100
AcDbSymbolTable
 70
     1
  0
BLOCK_RECORD
  5
1F
330
1
100
AcDbSymbolTableRecord
100
AcDbBlockTableRecord
  2
*Model_Space
340
22
  0
BLOCK_RECORD
  5
1B
330
1
100
AcDbSymbolTableRecord
100
AcDbBlockTableRecord
  2
*Paper_Space
340
1E
  0
BLOCK_RECORD
  5
23
330
1
100
AcDbSymbolTableRecord
100
AcDbBlockTableRecord
  2
*Paper_Space0
340
26
  0
ENDTAB
  0
ENDSEC
  0
SECTION
  2
BLOCKS
  0
BLOCK
  5
20
330
1F
100
AcDbEntity
  8
0
100
AcDbBlockBegin
  2
*Model_Space
 70
     0
 10
0.0
 20
0.0
 30
0.0
  3
*Model_Space
  1

  0
ENDBLK
  5
21
330
1F
100
AcDbEntity
  8
0
100
AcDbBlockEnd
  0
BLOCK
  5
1C
330
1B
100
AcDbEntity
 67
     1
  8
0
100
AcDbBlockBegin
  2
*Paper_Space
 70
     0
 10
0.0
 20
0.0
 30
0.0
  3
*Paper_Space
  1

  0
ENDBLK
  5
1D
330
1B
100
AcDbEntity
 67
     1
  8
0
100
AcDbBlockEnd
  0
BLOCK
  5
24
330
23
100
AcDbEntity
  8
0
100
AcDbBlockBegin
  2
*Paper_Space0
 70
     0
 10
0.0
 20
0.0
 30
0.0
  3
*Paper_Space0
  1

  0
ENDBLK
  5
25
330
23
100
AcDbEntity
  8
0
100
AcDbBlockEnd
  0
ENDSEC
  0
SECTION
  2
ENTITIES
  0
LINE
  5
54
330
1F
100
AcDbEntity
  8
その他
  6
Continuous
 62
     7
370
     9
100
AcDbLine
 10
-729.7297297297297
 20
416.4977367504224
 30
0.0
 11
-129.7297297297297
 21
416.4977367504224
 31
0.0
  0
LINE
  5
55
330
1F
100
AcDbEntity
  8
その他
  6
Continuous
 62
     7
370
     9
100
AcDbLine
 10
-742.7297231313344
 20
455.9896273226352
 30
0.0
 11
-116.729736328125
 21
455.9896273226352
 31
0.0
  0
LINE
  5
56
330
1F
100
AcDbEntity
  8
その他
  6
Continuous
 62
     7
370
     9
100
AcDbLine
 10
-742.7297231313344
 20
337.0985041437923
 30
0.0
 11
-742.7297231313344
 21
457.4896075274494
 31
0.0
  0
LINE
  5
57
330
1F
100
AcDbEntity
  8
その他
  6
Continuous
 62
     7
370
     9
100
AcDbLine
 10
-116.729736328125
 20
337.0985041437923
 30
0.0
 11
-116.729736328125
 21
457.4896075274494
 31
0.0
  0
LINE
  5
58
330
1F
100
AcDbEntity
  8
その他
  6
Continuous
 62
     7
370
     9
100
AcDbLine
 10
-829.6287949020798
 20
316.5971250791808
 30
0.0
 11
-829.6194540487752
 21
-283.4028439908414
 31
0.0
  0
LINE
  5
59
330
1F
100
AcDbEntity
  8
その他
  6
Continuous
 62
     7
370
     9
100
AcDbLine
 10
-869.1208710541596
 20
329.5964998812289
 30
0.0
 11
-869.1111590411213
 21
-296.4034559920027
 31
0.0
  0
LINE
  5
5A
330
1F
100
AcDbEntity
  8
その他
  6
Continuous
 62
     7
370
     9
100
AcDbLine
 10
-750.2297478753167
 20
329.5983556798987
 30
0.0
 11
-870.6208512589739
 21
329.5964998812289
 31
0.0
  0
LINE
  5
5B
330
1F
100
AcDbEntity
  8
その他
  6
Continuous
 62
     7
370
     9
100
AcDbLine
 10
-750.2200358622782
 20
-296.4016001933329
 30
0.0
 11
-870.6111392459354
 21
-296.4034869219805
 31
0.0
  0
LINE
  5
5C
330
1F
100
AcDbEntity
  8
1-4ﾚｲﾔ
  6
Continuous
 62
     7
370
     9
100
AcDbLine
 10
-568.7236064189188
 20
-401.9594903894372
 30
0.0
 11
-303.4594561602619
 21
-401.9594903894372
 31
0.0
  0
TEXT
  5
5D
330
1F
100
AcDbEntity
  8
その他
  6
Continuous
 62
     2
370
     9
100
AcDbText
 10
-445.9797297297297
 20
421.8177449984164
 30
0.0
 40
15.24
  1
600
 41
1.083333333333333
  7
ＭＳ ゴシック
100
AcDbText
  0
TEXT
  5
5E
330
1F
100
AcDbEntity
  8
その他
  6
Continuous
 62
     2
370
     9
100
AcDbText
 10
-445.9797297297297
 20
461.3096355706293
 30
0.0
 40
15.24
  1
626
 41
1.083333333333333
  7
ＭＳ ゴシック
100
AcDbText
  0
TEXT
  5
5F
330
1F
100
AcDbEntity
  8
その他
  6
Continuous
 62
     2
370
     9
100
AcDbText
 10
-834.9438543531687
 20
0.3470202807610946
 30
0.0
 40
15.24
  1
600
 50
90.0008724470594
 41
1.083333333333333
  7
ＭＳ ゴシック
100
AcDbText
  0
TEXT
  5
60
330
1F
100
AcDbEntity
  8
その他
  6
Continuous
 62
     2
370
     9
100
AcDbText
 10
-874.4357449253815
 20
0.3464016812045202
 30
0.0
 40
15.24
  1
626
 50
90.0008724470594
 41
1.083333333333333
  7
ＭＳ ゴシック
100
AcDbText
  0
TEXT
  5
61
330
1F
100
AcDbEntity
  8
1-4ﾚｲﾔ
  6
Continuous
 62
     2
370
     9
100
AcDbText
 10
-556.9999055604677
 20
-395.7795050378747
 30
0.0
 40
15.24
  1
平面詳細図　Ｓ＝１：５
 41
1.113636363636364
  7
ＭＳ ゴシック
100
AcDbText
  0
LWPOLYLINE
  5
62
330
1F
100
AcDbEntity
  8
その他
  6
Continuous
 62
     7
370
     9
100
AcDbPolyline
 90
        4
 70
     1
 43
0.5
 10
-729.4797297297296
 20
416.4977367504224
 42
0.4142135623731
 10
-729.7297297297297
 20
416.7477367504224
 42
0.4142135623731
 10
-729.9797297297298
 20
416.4977367504224
 42
0.4142135623731
 10
-729.7297297297297
 20
416.2477367504224
 42
0.4142135623731
  0
LWPOLYLINE
  5
63
330
1F
100
AcDbEntity
  8
その他
  6
Continuous
 62
     7
370
     9
100
AcDbPolyline
 90
        4
 70
     1
 43
0.5
 10
-129.4797297297297
 20
416.4977367504224
 42
0.4142135623731
 10
-129.7297297297297
 20
416.7477367504224
 42
0.4142135623731
 10
-129.9797297297297
 20
416.4977367504224
 42
0.4142135623731
 10
-129.7297297297297
 20
416.2477367504224
 42
0.4142135623731
  0
LWPOLYLINE
  5
64
330
1F
100
AcDbEntity
  8
その他
  6
Continuous
 62
     7
370
     9
100
AcDbPolyline
 90
        4
 70
     1
 43
0.5
 10
-742.4797231313344
 20
455.9896273226352
 42
0.4142135623731
 10
-742.7297231313344
 20
456.2396273226352
 42
0.4142135623731
 10
-742.9797231313344
 20
455.9896273226352
 42
0.4142135623731
 10
-742.7297231313344
 20
455.7396273226352
 42
0.4142135623731
  0
LWPOLYLINE
  5
65
330
1F
100
AcDbEntity
  8
その他
  6
Continuous
 62
     7
370
     9
100
AcDbPolyline
 90
        4
 70
     1
 43
0.5
 10
-116.479736328125
 20
455.9896273226352
 42
0.4142135623731
 10
-116.729736328125
 20
456.2396273226352
 42
0.4142135623731
 10
-116.979736328125
 20
455.9896273226352
 42
0.4142135623731
 10
-116.729736328125
 20
455.7396273226352
 42
0.4142135623731
  0
LWPOLYLINE
  5
66
330
1F
100
AcDbEntity
  8
その他
  6
Continuous
 62
     7
370
     9
100
AcDbPolyline
 90
        4
 70
     1
 43
0.5
 10
-829.3787949020798
 20
316.5971250791808
 42
0.4142135623731
 10
-829.6287949020798
 20
316.8471250791808
 42
0.4142135623731
 10
-829.8787949020799
 20
316.5971250791808
 42
0.4142135623731
 10
-829.6287949020798
 20
316.3471250791809
 42
0.4142135623731
  0
LWPOLYLINE
  5
67
330
1F
100
AcDbEntity
  8
その他
  6
Continuous
 62
     7
370
     9
100
AcDbPolyline
 90
        4
 70
     1
 43
0.5
 10
-829.3694540487752
 20
-283.4028439908414
 42
0.4142135623731
 10
-829.6194540487752
 20
-283.1528439908414
 42
0.4142135623731
 10
-829.8694540487753
 20
-283.4028439908414
 42
0.4142135623731
 10
-829.6194540487752
 20
-283.6528439908414
 42
0.4142135623731
  0
LWPOLYLINE
  5
68
330
1F
100
AcDbEntity
  8
その他
  6
Continuous
 62
     7
370
     9
100
AcDbPolyline
 90
        4
 70
     1
 43
0.5
 10
-868.8708710541596
 20
329.5964998812289
 42
0.4142135623731
 10
-869.1208710541596
 20
329.8464998812289
 42
0.4142135623731
 10
-869.3708710541597
 20
329.5964998812289
 42
0.4142135623731
 10
-869.1208710541596
 20
329.3464998812289
 42
0.4142135623731
  0
LWPOLYLINE
  5
69
330
1F
100
AcDbEntity
  8
その他
  6
Continuous
 62
     7
370
     9
100
AcDbPolyline
 90
        4
 70
     1
 43
0.5
 10
-868.8611590411211
 20
-296.4034559920027
 42
0.4142135623731
 10
-869.1111590411213
 20
-296.1534559920028
 42
0.4142135623731
 10
-869.3611590411213
 20
-296.4034559920027
 42
0.4142135623731
 10
-869.1111590411213
 20
-296.6534559920027
 42
0.4142135623731
  0
LINE
  5
6A
330
1F
100
AcDbEntity
  8
通り芯
  6
Continuous
 62
     4
370
     9
100
AcDbLine
 10
-141.7297069299175
 20
-271.4035008551991
 30
0.0
 11
-717.729752529542
 21
-271.4035008551991
 31
0.0
  0
LINE
  5
6B
330
1F
100
AcDbEntity
  8
通り芯
  6
Continuous
 62
     4
370
     9
100
AcDbLine
 10
-141.7297069299175
 20
304.5965447444252
 30
0.0
 11
-141.7297069299175
 21
-271.4035008551991
 31
0.0
  0
LINE
  5
6C
330
1F
100
AcDbEntity
  8
通り芯
  6
Continuous
 62
     4
370
     9
100
AcDbLine
 10
-717.729752529542
 20
304.5965447444252
 30
0.0
 11
-141.7297069299175
 21
304.5965447444252
 31
0.0
  0
LINE
  5
6D
330
1F
100
AcDbEntity
  8
通り芯
  6
Continuous
 62
     4
370
     9
100
AcDbLine
 10
-717.729752529542
 20
-271.4035008551991
 30
0.0
 11
-717.729752529542
 21
304.5965447444252
 31
0.0
  0
LINE
  5
6E
330
1F
100
AcDbEntity
  8
通り芯
  6
Continuous
 62
     4
370
     9
100
AcDbLine
 10
-729.7297687898731
 20
-283.4034646229394
 30
0.0
 11
-729.7297687898731
 21
316.5965610047564
 31
0.0
  0
LINE
  5
6F
330
1F
100
AcDbEntity
  8
通り芯
  6
Continuous
 62
     4
370
     9
100
AcDbLine
 10
-129.7297431621772
 20
-283.4034646229395
 30
0.0
 11
-729.7297687898731
 21
-283.4034646229394
 31
0.0
  0
LINE
  5
70
330
1F
100
AcDbEntity
  8
通り芯
  6
Continuous
 62
     4
370
     9
100
AcDbLine
 10
-129.7297431621772
 20
316.5965610047564
 30
0.0
 11
-129.7297431621772
 21
-283.4034646229395
 31
0.0
  0
LINE
  5
71
330
1F
100
AcDbEntity
  8
通り芯
  6
Continuous
 62
     4
370
     9
100
AcDbLine
 10
-729.7297687898731
 20
316.5965610047564
 30
0.0
 11
-129.7297431621772
 21
316.5965610047564
 31
0.0
  0
LINE
  5
72
330
1F
100
AcDbEntity
  8
通り芯
  6
Continuous
 62
     4
370
     9
100
AcDbLine
 10
-727.229756653539
 20
314.0965488684222
 30
0.0
 11
-132.2297552985113
 21
314.0965488684222
 31
0.0
  0
LINE
  5
73
330
1F
100
AcDbEntity
  8
通り芯
  6
Continuous
 62
     4
370
     9
100
AcDbLine
 10
-727.229756653539
 20
-280.9034524866054
 30
0.0
 11
-727.229756653539
 21
314.0965488684222
 31
0.0
  0
LINE
  5
74
330
1F
100
AcDbEntity
  8
通り芯
  6
Continuous
 62
     4
370
     9
100
AcDbLine
 10
-132.2297552985113
 20
-280.9034524866054
 30
0.0
 11
-727.229756653539
 21
-280.9034524866054
 31
0.0
  0
LINE
  5
75
330
1F
100
AcDbEntity
  8
通り芯
  6
Continuous
 62
     4
370
     9
100
AcDbLine
 10
-132.2297552985113
 20
314.0965488684222
 30
0.0
 11
-132.2297552985113
 21
-280.9034524866054
 31
0.0
  0
LINE
  5
76
330
1F
100
AcDbEntity
  8
通り芯
  6
Continuous
 62
     4
370
     9
100
AcDbLine
 10
-720.229764665876
 20
307.0965568807594
 30
0.0
 11
-139.2296947935833
 21
307.0965568807594
 31
0.0
  0
LINE
  5
77
330
1F
100
AcDbEntity
  8
通り芯
  6
Continuous
 62
     4
370
     9
100
AcDbLine
 10
-720.229764665876
 20
-273.9035129915334
 30
0.0
 11
-720.229764665876
 21
307.0965568807594
 31
0.0
  0
LINE
  5
78
330
1F
100
AcDbEntity
  8
通り芯
  6
Continuous
 62
     4
370
     9
100
AcDbLine
 10
-139.2296947935833
 20
-273.9035129915334
 30
0.0
 11
-720.229764665876
 21
-273.9035129915334
 31
0.0
  0
LINE
  5
79
330
1F
100
AcDbEntity
  8
通り芯
  6
Continuous
 62
     4
370
     9
100
AcDbLine
 10
-139.2296947935833
 20
307.0965568807594
 30
0.0
 11
-139.2296947935833
 21
-273.9035129915334
 31
0.0
  0
LINE
  5
7A
330
1F
100
AcDbEntity
  8
躯体
  6
Continuous
 62
     2
370
     9
100
AcDbLine
 10
-730.7296476621884
 20
317.5965448622537
 30
0.0
 11
-128.7297068120889
 21
317.5965448622537
 31
0.0
  0
LINE
  5
7B
330
1F
100
AcDbEntity
  8
躯体
  6
Continuous
 62
     2
370
     9
100
AcDbLine
 10
-742.7296639225198
 20
329.5964561374029
 30
0.0
 11
-116.7297430443487
 21
329.5964561374029
 31
0.0
  0
LINE
  5
7C
330
1F
100
AcDbEntity
  8
躯体
  6
Continuous
 62
     2
370
     9
100
AcDbLine
 10
-730.7296476621884
 20
-284.4035009730277
 30
0.0
 11
-730.7296476621884
 21
317.5965448622537
 31
0.0
  0
LINE
  5
7D
330
1F
100
AcDbEntity
  8
躯体
  6
Continuous
 62
     2
370
     9
100
AcDbLine
 10
-742.7296639225199
 20
-296.403464740768
 30
0.0
 11
-742.7296639225198
 21
329.5964561374029
 31
0.0
  0
LINE
  5
7E
330
1F
100
AcDbEntity
  8
躯体
  6
Continuous
 62
     2
370
     9
100
AcDbLine
 10
-128.7297068120889
 20
-284.4035009730277
 30
0.0
 11
-730.7296476621884
 21
-284.4035009730277
 31
0.0
  0
LINE
  5
7F
330
1F
100
AcDbEntity
  8
躯体
  6
Continuous
 62
     2
370
     9
100
AcDbLine
 10
-128.7297068120889
 20
317.5965448622537
 30
0.0
 11
-128.7297068120889
 21
-284.4035009730277
 31
0.0
  0
LINE
  5
80
330
1F
100
AcDbEntity
  8
躯体
  6
Continuous
 62
     2
370
     9
100
AcDbLine
 10
-116.7297430443487
 20
329.5964561374029
 30
0.0
 11
-116.7297430443487
 21
-296.403464740768
 31
0.0
  0
LINE
  5
81
330
1F
100
AcDbEntity
  8
躯体
  6
Continuous
 62
     2
370
     9
100
AcDbLine
 10
-116.7297430443487
 20
-296.403464740768
 30
0.0
 11
-742.7296639225199
 21
-296.403464740768
 31
0.0
  0
LINE
  5
82
330
1F
100
AcDbEntity
  8
躯体
  6
Continuous
 62
     2
370
     9
100
AcDbLine
 10
-740.2296517861855
 20
327.096444001069
 30
0.0
 11
-119.2297551806828
 21
327.096444001069
 31
0.0
  0
LINE
  5
83
330
1F
100
AcDbEntity
  8
躯体
  6
Continuous
 62
     2
370
     9
100
AcDbLine
 10
-119.2297551806828
 20
327.096444001069
 30
0.0
 11
-119.2297551806828
 21
-293.9034526044338
 31
0.0
  0
LINE
  5
84
330
1F
100
AcDbEntity
  8
躯体
  6
Continuous
 62
     2
370
     9
100
AcDbLine
 10
-119.2297551806828
 20
-293.9034526044338
 30
0.0
 11
-740.2296517861856
 21
-293.9034526044338
 31
0.0
  0
LINE
  5
85
330
1F
100
AcDbEntity
  8
躯体
  6
Continuous
 62
     2
370
     9
100
AcDbLine
 10
-740.2296517861856
 20
-293.9034526044338
 30
0.0
 11
-740.2296517861855
 21
327.096444001069
 31
0.0
  0
LINE
  5
86
330
1F
100
AcDbEntity
  8
躯体
  6
Continuous
 62
     2
370
     9
100
AcDbLine
 10
-733.2296597985227
 20
-286.9035131093618
 30
0.0
 11
-733.2296597985227
 21
320.096556998588
 31
0.0
  0
LINE
  5
87
330
1F
100
AcDbEntity
  8
躯体
  6
Continuous
 62
     2
370
     9
100
AcDbLine
 10
-733.2296597985227
 20
320.096556998588
 30
0.0
 11
-126.2296946757549
 21
320.096556998588
 31
0.0
  0
LINE
  5
88
330
1F
100
AcDbEntity
  8
躯体
  6
Continuous
 62
     2
370
     9
100
AcDbLine
 10
-126.2296946757549
 20
-286.9035131093619
 30
0.0
 11
-733.2296597985227
 21
-286.9035131093618
 31
0.0
  0
LINE
  5
89
330
1F
100
AcDbEntity
  8
躯体
  6
Continuous
 62
     2
370
     9
100
AcDbLine
 10
-126.2296946757549
 20
320.096556998588
 30
0.0
 11
-126.2296946757549
 21
-286.9035131093619
 31
0.0
  0
LINE
  5
8A
330
1F
100
AcDbEntity
  8
躯体
  6
Continuous
 62
     2
370
     9
100
AcDbLine
 10
-128.7297068120889
 20
-284.4035009730277
 30
0.0
 11
-116.7297430443487
 21
-296.403464740768
 31
0.0
  0
LINE
  5
8B
330
1F
100
AcDbEntity
  8
躯体
  6
Continuous
 62
     2
370
     9
100
AcDbLine
 10
-730.7296476621884
 20
-284.4035009730277
 30
0.0
 11
-742.7296639225199
 21
-296.403464740768
 31
0.0
  0
LINE
  5
8C
330
1F
100
AcDbEntity
  8
躯体
  6
Continuous
 62
     2
370
     9
100
AcDbLine
 10
-730.7296476621884
 20
317.5965448622537
 30
0.0
 11
-742.7296639225198
 21
329.5964561374029
 31
0.0
  0
LINE
  5
8D
330
1F
100
AcDbEntity
  8
躯体
  6
Continuous
 62
     2
370
     9
100
AcDbLine
 10
-128.7297068120889
 20
317.5965448622537
 30
0.0
 11
-116.7297430443487
 21
329.5964561374029
 31
0.0
  0
LINE
  5
8E
330
1F
100
AcDbEntity
  8
0-A
  6
JWW_DASHED1
 62
     2
370
     9
100
AcDbLine
 10
-675.6297497252239
 20
316.5965610047564
 30
0.0
 11
-675.6297497252239
 21
316.2965133549163
 31
0.0
  0
LINE
  5
8F
330
1F
100
AcDbEntity
  8
0-A
  6
JWW_DASHED1
 62
     2
370
     9
100
AcDbLine
 10
-677.6797953719796
 20
314.2465726933423
 30
0.0
 11
-675.6297497252239
 21
316.2965133549163
 31
0.0
  0
LINE
  5
90
330
1F
100
AcDbEntity
  8
0-A
  6
JWW_DASHED1
 62
     2
370
     9
100
AcDbLine
 10
-681.7796766951277
 20
314.2465726933423
 30
0.0
 11
-677.6797953719796
 21
314.2465726933423
 31
0.0
  0
LINE
  5
91
330
1F
100
AcDbEntity
  8
0-A
  6
JWW_DASHED1
 62
     2
370
     9
100
AcDbLine
 10
-681.7796766951277
 20
314.2465726933423
 30
0.0
 11
-683.8297223418834
 21
316.2965133549163
 31
0.0
  0
LINE
  5
92
330
1F
100
AcDbEntity
  8
0-A
  6
JWW_DASHED1
 62
     2
370
     9
100
AcDbLine
 10
-675.6297497252239
 20
316.2965133549163
 30
0.0
 11
-683.8297223418834
 21
316.2965133549163
 31
0.0
  0
LINE
  5
93
330
1F
100
AcDbEntity
  8
0-A
  6
JWW_DASHED1
 62
     2
370
     9
100
AcDbLine
 10
-683.8297223418834
 20
316.5965610047564
 30
0.0
 11
-683.8297223418834
 21
316.2965133549163
 31
0.0
  0
LINE
  5
94
330
1F
100
AcDbEntity
  8
0-A
  6
JWW_DASHED1
 62
     2
370
     9
100
AcDbLine
 10
-677.6797953719796
 20
314.2465726933423
 30
0.0
 11
-677.6797953719796
 21
308.2631522219154
 31
0.0
  0
LINE
  5
95
330
1F
100
AcDbEntity
  8
0-A
  6
JWW_DASHED1
 62
     2
370
     9
100
AcDbLine
 10
-681.7796766951277
 20
314.2465726933423
 30
0.0
 11
-681.7796766951277
 21
308.2631522219154
 31
0.0
  0
LINE
  5
96
330
1F
100
AcDbEntity
  8
0-A
  6
JWW_DASHED1
 62
     2
370
     9
100
AcDbLine
 10
-681.7796766951277
 20
308.2631522219154
 30
0.0
 11
-679.7297360335538
 21
291.5965446265967
 31
0.0
  0
LINE
  5
97
330
1F
100
AcDbEntity
  8
0-A
  6
JWW_DASHED1
 62
     2
370
     9
100
AcDbLine
 10
-679.7297360335538
 20
291.5965446265967
 30
0.0
 11
-677.6797953719796
 21
308.2631522219154
 31
0.0
  0
LINE
  5
98
330
1F
100
AcDbEntity
  8
0-A
  6
JWW_DASHED1
 62
     2
370
     9
100
AcDbLine
 10
-680.4075203678324
 20
293.0105900414662
 30
0.0
 11
-679.0219259372549
 21
293.2547855745409
 31
0.0
  0
LINE
  5
99
330
1F
100
AcDbEntity
  8
0-A
  6
JWW_DASHED1
 62
     2
370
     9
100
AcDbLine
 10
-680.6242097832521
 20
294.7723463787534
 30
0.0
 11
-678.795682870283
 21
295.094755872336
 31
0.0
  0
LINE
  5
9A
330
1F
100
AcDbEntity
  8
0-A
  6
JWW_DASHED1
 62
     2
370
     9
100
AcDbLine
 10
-682.1410356911913
 20
307.1048507101287
 30
0.0
 11
-677.2115614607526
 21
307.9741280161736
 31
0.0
  0
LINE
  5
9B
330
1F
100
AcDbEntity
  8
0-A
  6
JWW_DASHED1
 62
     2
370
     9
100
AcDbLine
 10
-681.9243462757714
 20
305.3430943728412
 30
0.0
 11
-677.4378045277246
 21
306.1341577183785
 31
0.0
  0
LINE
  5
9C
330
1F
100
AcDbEntity
  8
0-A
  6
JWW_DASHED1
 62
     2
370
     9
100
AcDbLine
 10
-681.7076568603513
 20
303.581338035554
 30
0.0
 11
-677.6640475946963
 21
304.2942924057654
 31
0.0
  0
LINE
  5
9D
330
1F
100
AcDbEntity
  8
0-A
  6
JWW_DASHED1
 62
     2
370
     9
100
AcDbLine
 10
-681.4909674449316
 20
301.8194767130847
 30
0.0
 11
-677.8903956468502
 21
302.4544270931524
 31
0.0
  0
LINE
  5
9E
330
1F
100
AcDbEntity
  8
0-A
  6
JWW_DASHED1
 62
     2
370
     9
100
AcDbLine
 10
-681.2742780295117
 20
300.0577203757974
 30
0.0
 11
-678.1167436990039
 21
300.6144567953573
 31
0.0
  0
LINE
  5
9F
330
1F
100
AcDbEntity
  8
0-A
  6
JWW_DASHED1
 62
     2
370
     9
100
AcDbLine
 10
-681.0575886140919
 20
298.2959640385101
 30
0.0
 11
-678.3430917511577
 21
298.7744864975623
 31
0.0
  0
LINE
  5
A0
330
1F
100
AcDbEntity
  8
0-A
  6
JWW_DASHED1
 62
     2
370
     9
100
AcDbLine
 10
-680.840899198672
 20
296.5341027160409
 30
0.0
 11
-678.5694398033113
 21
296.934726170131
 31
0.0
  0
LINE
  5
A1
330
1F
100
AcDbEntity
  8
0-A
  6
JWW_DASHED1
 62
     2
370
     9
100
AcDbLine
 10
-183.8297097342354
 20
316.5965610047564
 30
0.0
 11
-183.8297097342354
 21
316.2965133549163
 31
0.0
  0
LINE
  5
A2
330
1F
100
AcDbEntity
  8
0-A
  6
JWW_DASHED1
 62
     2
370
     9
100
AcDbLine
 10
-181.7796640874795
 20
314.2465726933423
 30
0.0
 11
-183.8297097342354
 21
316.2965133549163
 31
0.0
  0
LINE
  5
A3
330
1F
100
AcDbEntity
  8
0-A
  6
JWW_DASHED1
 62
     2
370
     9
100
AcDbLine
 10
-177.6797827643316
 20
314.2465726933423
 30
0.0
 11
-181.7796640874795
 21
314.2465726933423
 31
0.0
  0
LINE
  5
A4
330
1F
100
AcDbEntity
  8
0-A
  6
JWW_DASHED1
 62
     2
370
     9
100
AcDbLine
 10
-177.6797827643316
 20
314.2465726933423
 30
0.0
 11
-175.6297371175758
 21
316.2965133549163
 31
0.0
  0
LINE
  5
A5
330
1F
100
AcDbEntity
  8
0-A
  6
JWW_DASHED1
 62
     2
370
     9
100
AcDbLine
 10
-183.8297097342354
 20
316.2965133549163
 30
0.0
 11
-175.6297371175758
 21
316.2965133549163
 31
0.0
  0
LINE
  5
A6
330
1F
100
AcDbEntity
  8
0-A
  6
JWW_DASHED1
 62
     2
370
     9
100
AcDbLine
 10
-175.6297371175758
 20
316.5965610047564
 30
0.0
 11
-175.6297371175758
 21
316.2965133549163
 31
0.0
  0
LINE
  5
A7
330
1F
100
AcDbEntity
  8
0-A
  6
JWW_DASHED1
 62
     2
370
     9
100
AcDbLine
 10
-181.7796640874795
 20
314.2465726933423
 30
0.0
 11
-181.7796640874795
 21
308.2631522219154
 31
0.0
  0
LINE
  5
A8
330
1F
100
AcDbEntity
  8
0-A
  6
JWW_DASHED1
 62
     2
370
     9
100
AcDbLine
 10
-177.6797827643316
 20
314.2465726933423
 30
0.0
 11
-177.6797827643316
 21
308.2631522219154
 31
0.0
  0
LINE
  5
A9
330
1F
100
AcDbEntity
  8
0-A
  6
JWW_DASHED1
 62
     2
370
     9
100
AcDbLine
 10
-177.6797827643316
 20
308.2631522219154
 30
0.0
 11
-179.7297234259057
 21
291.5965446265967
 31
0.0
  0
LINE
  5
AA
330
1F
100
AcDbEntity
  8
0-A
  6
JWW_DASHED1
 62
     2
370
     9
100
AcDbLine
 10
-179.7297234259057
 20
291.5965446265967
 30
0.0
 11
-181.7796640874795
 21
308.2631522219154
 31
0.0
  0
LINE
  5
AB
330
1F
100
AcDbEntity
  8
0-A
  6
JWW_DASHED1
 62
     2
370
     9
100
AcDbLine
 10
-179.0519390916272
 20
293.0105900414662
 30
0.0
 11
-180.4375335222045
 21
293.2547855745409
 31
0.0
  0
LINE
  5
AC
330
1F
100
AcDbEntity
  8
0-A
  6
JWW_DASHED1
 62
     2
370
     9
100
AcDbLine
 10
-178.8352496762073
 20
294.7723463787534
 30
0.0
 11
-180.6637765891763
 21
295.094755872336
 31
0.0
  0
LINE
  5
AD
330
1F
100
AcDbEntity
  8
0-A
  6
JWW_DASHED1
 62
     2
370
     9
100
AcDbLine
 10
-177.318423768268
 20
307.1048507101287
 30
0.0
 11
-182.2478979987066
 21
307.9741280161736
 31
0.0
  0
LINE
  5
AE
330
1F
100
AcDbEntity
  8
0-A
  6
JWW_DASHED1
 62
     2
370
     9
100
AcDbLine
 10
-177.5351131836879
 20
305.3430943728412
 30
0.0
 11
-182.0216549317348
 21
306.1341577183785
 31
0.0
  0
LINE
  5
AF
330
1F
100
AcDbEntity
  8
0-A
  6
JWW_DASHED1
 62
     2
370
     9
100
AcDbLine
 10
-177.7518025991077
 20
303.581338035554
 30
0.0
 11
-181.795411864763
 21
304.2942924057654
 31
0.0
  0
LINE
  5
B0
330
1F
100
AcDbEntity
  8
0-A
  6
JWW_DASHED1
 62
     2
370
     9
100
AcDbLine
 10
-177.9684920145278
 20
301.8194767130847
 30
0.0
 11
-181.5690638126093
 21
302.4544270931524
 31
0.0
  0
LINE
  5
B1
330
1F
100
AcDbEntity
  8
0-A
  6
JWW_DASHED1
 62
     2
370
     9
100
AcDbLine
 10
-178.1851814299476
 20
300.0577203757974
 30
0.0
 11
-181.3427157604556
 21
300.6144567953573
 31
0.0
  0
LINE
  5
B2
330
1F
100
AcDbEntity
  8
0-A
  6
JWW_DASHED1
 62
     2
370
     9
100
AcDbLine
 10
-178.4018708453675
 20
298.2959640385101
 30
0.0
 11
-181.1163677083018
 21
298.7744864975623
 31
0.0
  0
LINE
  5
B3
330
1F
100
AcDbEntity
  8
0-A
  6
JWW_DASHED1
 62
     2
370
     9
100
AcDbLine
 10
-178.6185602607874
 20
296.5341027160409
 30
0.0
 11
-180.8900196561482
 21
296.934726170131
 31
0.0
  0
LINE
  5
B4
330
1F
100
AcDbEntity
  8
仕上
  6
JWW_CENTER1
 62
     3
370
     9
100
AcDbLine
 10
-224.7334588835137
 20
74.16530391148157
 30
0.0
 11
-224.7334588835137
 21
-42.08132348373596
 31
0.0
  0
LINE
  5
B5
330
1F
100
AcDbEntity
  8
仕上
  6
JWW_CENTER1
 62
     3
370
     9
100
AcDbLine
 10
-634.7260530685365
 20
74.56204291384182
 30
0.0
 11
-634.7260530685365
 21
-42.80283414627135
 31
0.0
  0
LINE
  5
B6
330
1F
100
AcDbEntity
  8
躯体
  6
JWW_CENTER1
 62
     2
370
     9
100
AcDbLine
 10
-701.7295908688578
 20
-127.0522877755774
 30
0.0
 11
-701.7295908688578
 21
-139.3450027230163
 31
0.0
  0
LINE
  5
B7
330
1F
100
AcDbEntity
  8
躯体
  6
JWW_CENTER1
 62
     2
370
     9
100
AcDbLine
 10
-695.726958109145
 20
-133.4034713391632
 30
0.0
 11
-708.019673056584
 21
-133.4034713391632
 31
0.0
  0
LINE
  5
B8
330
1F
100
AcDbEntity
  8
建具
  6
Continuous
 62
     3
370
     9
100
AcDbLine
 10
-708.229643420363
 20
-261.9033917460203
 30
0.0
 11
-708.229643420363
 21
295.0964356352463
 31
0.0
  0
LINE
  5
B9
330
1F
100
AcDbEntity
  8
建具
  6
Continuous
 62
     3
370
     9
100
AcDbLine
 10
-151.2297635465055
 20
-261.9033917460203
 30
0.0
 11
-708.229643420363
 21
-261.9033917460203
 31
0.0
  0
LINE
  5
BA
330
1F
100
AcDbEntity
  8
建具
  6
Continuous
 62
     3
370
     9
100
AcDbLine
 10
-151.2297635465055
 20
295.0964356352463
 30
0.0
 11
-151.2297635465055
 21
-261.9033917460203
 31
0.0
  0
LINE
  5
BB
330
1F
100
AcDbEntity
  8
建具
  6
Continuous
 62
     3
370
     9
100
AcDbLine
 10
-708.229643420363
 20
295.0964356352463
 30
0.0
 11
-151.2297635465055
 21
295.0964356352463
 31
0.0
  0
LINE
  5
BC
330
1F
100
AcDbEntity
  8
通り芯
  6
Continuous
 62
     4
370
     9
100
AcDbLine
 10
-708.7296878417026
 20
-262.4033836747689
 30
0.0
 11
-708.7296878417026
 21
295.5964275639948
 31
0.0
  0
LINE
  5
BD
330
1F
100
AcDbEntity
  8
通り芯
  6
Continuous
 62
     4
370
     9
100
AcDbLine
 10
-708.7295828565208
 20
295.5964275639948
 30
0.0
 11
-150.7297716177568
 21
295.5964275639948
 31
0.0
  0
LINE
  5
BE
330
1F
100
AcDbEntity
  8
通り芯
  6
Continuous
 62
     4
370
     9
100
AcDbLine
 10
-729.7297687898731
 20
316.5965610047564
 30
0.0
 11
-708.7295828565208
 21
295.5964275639948
 31
0.0
  0
LINE
  5
BF
330
1F
100
AcDbEntity
  8
通り芯
  6
Continuous
 62
     4
370
     9
100
AcDbLine
 10
-729.7297687898731
 20
-283.4034646229394
 30
0.0
 11
-708.7295828565208
 21
-262.4033836747689
 31
0.0
  0
LINE
  5
C0
330
1F
100
AcDbEntity
  8
通り芯
  6
Continuous
 62
     4
370
     9
100
AcDbLine
 10
-150.7297716177568
 20
-262.403383674769
 30
0.0
 11
-708.7295828565208
 21
-262.4033836747689
 31
0.0
  0
LINE
  5
C1
330
1F
100
AcDbEntity
  8
通り芯
  6
Continuous
 62
     4
370
     9
100
AcDbLine
 10
-150.7297716177568
 20
-262.40343616736
 30
0.0
 11
-129.7297431621772
 21
-283.4034646229395
 31
0.0
  0
LINE
  5
C2
330
1F
100
AcDbEntity
  8
通り芯
  6
Continuous
 62
     4
370
     9
100
AcDbLine
 10
-150.7297716177568
 20
295.5964275639948
 30
0.0
 11
-129.7297431621772
 21
316.5965610047564
 31
0.0
  0
LINE
  5
C3
330
1F
100
AcDbEntity
  8
通り芯
  6
Continuous
 62
     4
370
     9
100
AcDbLine
 10
-150.7297716177568
 20
295.5964275639948
 30
0.0
 11
-150.7297716177568
 21
-262.40343616736
 31
0.0
  0
LINE
  5
C4
330
1F
100
AcDbEntity
  8
躯体
  6
JWW_CENTER1
 62
     2
370
     9
100
AcDbLine
 10
-701.7295908688578
 20
-27.05227475552945
 30
0.0
 11
-701.7295908688578
 21
-39.34498970296858
 31
0.0
  0
LINE
  5
C5
330
1F
100
AcDbEntity
  8
躯体
  6
JWW_CENTER1
 62
     2
370
     9
100
AcDbLine
 10
-695.726958109145
 20
-33.40345831911534
 30
0.0
 11
-708.019673056584
 21
-33.40345831911534
 31
0.0
  0
LINE
  5
C6
330
1F
100
AcDbEntity
  8
躯体
  6
JWW_CENTER1
 62
     2
370
     9
100
AcDbLine
 10
-701.7295908688578
 20
-227.0523007956251
 30
0.0
 11
-701.7295908688578
 21
-239.3450157430642
 31
0.0
  0
LINE
  5
C7
330
1F
100
AcDbEntity
  8
躯体
  6
JWW_CENTER1
 62
     2
370
     9
100
AcDbLine
 10
-695.726958109145
 20
-233.403484359211
 30
0.0
 11
-708.019673056584
 21
-233.403484359211
 31
0.0
  0
LINE
  5
C8
330
1F
100
AcDbEntity
  8
躯体
  6
JWW_CENTER1
 62
     2
370
     9
100
AcDbLine
 10
-701.7295908688578
 20
72.9477382645183
 30
0.0
 11
-701.7295908688578
 21
60.65502331707933
 31
0.0
  0
LINE
  5
C9
330
1F
100
AcDbEntity
  8
躯体
  6
JWW_CENTER1
 62
     2
370
     9
100
AcDbLine
 10
-695.726958109145
 20
66.59655470093242
 30
0.0
 11
-708.019673056584
 21
66.59655470093242
 31
0.0
  0
LINE
  5
CA
330
1F
100
AcDbEntity
  8
躯体
  6
JWW_CENTER1
 62
     2
370
     9
100
AcDbLine
 10
-701.7295908688578
 20
172.9477512845661
 30
0.0
 11
-701.7295908688578
 21
160.6550363371271
 31
0.0
  0
LINE
  5
CB
330
1F
100
AcDbEntity
  8
躯体
  6
JWW_CENTER1
 62
     2
370
     9
100
AcDbLine
 10
-695.726958109145
 20
166.5965677209802
 30
0.0
 11
-708.019673056584
 21
166.5965677209802
 31
0.0
  0
LINE
  5
CC
330
1F
100
AcDbEntity
  8
躯体
  6
JWW_CENTER1
 62
     2
370
     9
100
AcDbLine
 10
-701.7295908688578
 20
272.9477118120229
 30
0.0
 11
-701.7295908688578
 21
260.6549968645839
 31
0.0
  0
LINE
  5
CD
330
1F
100
AcDbEntity
  8
躯体
  6
JWW_CENTER1
 62
     2
370
     9
100
AcDbLine
 10
-695.726958109145
 20
266.596528248437
 30
0.0
 11
-708.019673056584
 21
266.596528248437
 31
0.0
  0
LINE
  5
CE
330
1F
100
AcDbEntity
  8
躯体
  6
JWW_CENTER1
 62
     2
370
     9
100
AcDbLine
 10
-286.0809200095393
 20
-255.4033391945151
 30
0.0
 11
-273.7882050621003
 21
-255.4033391945151
 31
0.0
  0
LINE
  5
CF
330
1F
100
AcDbEntity
  8
躯体
  6
JWW_CENTER1
 62
     2
370
     9
100
AcDbLine
 10
-279.7297364459534
 20
-249.4007064348023
 30
0.0
 11
-279.7297364459534
 21
-261.6934213822414
 31
0.0
  0
LINE
  5
D0
330
1F
100
AcDbEntity
  8
躯体
  6
JWW_CENTER1
 62
     2
370
     9
100
AcDbLine
 10
-386.0809330295871
 20
-255.4033391945151
 30
0.0
 11
-373.7882180821481
 21
-255.4033391945151
 31
0.0
  0
LINE
  5
D1
330
1F
100
AcDbEntity
  8
躯体
  6
JWW_CENTER1
 62
     2
370
     9
100
AcDbLine
 10
-379.7297494660012
 20
-249.4007064348023
 30
0.0
 11
-379.7297494660012
 21
-261.6934213822414
 31
0.0
  0
LINE
  5
D2
330
1F
100
AcDbEntity
  8
躯体
  6
JWW_CENTER1
 62
     2
370
     9
100
AcDbLine
 10
-186.0809069894916
 20
-255.4033391945151
 30
0.0
 11
-173.7881920420525
 21
-255.4033391945151
 31
0.0
  0
LINE
  5
D3
330
1F
100
AcDbEntity
  8
躯体
  6
JWW_CENTER1
 62
     2
370
     9
100
AcDbLine
 10
-179.7297234259057
 20
-249.4007064348023
 30
0.0
 11
-179.7297234259057
 21
-261.6934213822414
 31
0.0
  0
LINE
  5
D4
330
1F
100
AcDbEntity
  8
躯体
  6
JWW_CENTER1
 62
     2
370
     9
100
AcDbLine
 10
-486.080946049635
 20
-255.4033391945151
 30
0.0
 11
-473.7882311021958
 21
-255.4033391945151
 31
0.0
  0
LINE
  5
D5
330
1F
100
AcDbEntity
  8
躯体
  6
JWW_CENTER1
 62
     2
370
     9
100
AcDbLine
 10
-479.729762486049
 20
-249.4007064348023
 30
0.0
 11
-479.729762486049
 21
-261.6934213822414
 31
0.0
  0
LINE
  5
D6
330
1F
100
AcDbEntity
  8
躯体
  6
JWW_CENTER1
 62
     2
370
     9
100
AcDbLine
 10
-586.0809590696828
 20
-255.4033391945151
 30
0.0
 11
-573.7882441222438
 21
-255.4033391945151
 31
0.0
  0
LINE
  5
D7
330
1F
100
AcDbEntity
  8
躯体
  6
JWW_CENTER1
 62
     2
370
     9
100
AcDbLine
 10
-579.7297755060969
 20
-249.4007064348023
 30
0.0
 11
-579.7297755060969
 21
-261.6934213822414
 31
0.0
  0
LINE
  5
D8
330
1F
100
AcDbEntity
  8
躯体
  6
JWW_CENTER1
 62
     2
370
     9
100
AcDbLine
 10
-686.0809195971397
 20
-255.4033391945151
 30
0.0
 11
-673.7882046497007
 21
-255.4033391945151
 31
0.0
  0
LINE
  5
D9
330
1F
100
AcDbEntity
  8
躯体
  6
JWW_CENTER1
 62
     2
370
     9
100
AcDbLine
 10
-679.7297360335538
 20
-249.4007064348023
 30
0.0
 11
-679.7297360335538
 21
-261.6934213822414
 31
0.0
  0
LINE
  5
DA
330
1F
100
AcDbEntity
  8
躯体
  6
JWW_CENTER1
 62
     2
370
     9
100
AcDbLine
 10
-157.7298685906016
 20
160.2453316648034
 30
0.0
 11
-157.7298685906016
 21
172.5380466122424
 31
0.0
  0
LINE
  5
DB
330
1F
100
AcDbEntity
  8
躯体
  6
JWW_CENTER1
 62
     2
370
     9
100
AcDbLine
 10
-163.7325013503144
 20
166.5965152283893
 30
0.0
 11
-151.4397864028754
 21
166.5965152283893
 31
0.0
  0
LINE
  5
DC
330
1F
100
AcDbEntity
  8
躯体
  6
JWW_CENTER1
 62
     2
370
     9
100
AcDbLine
 10
-157.7298685906016
 20
60.24531864475549
 30
0.0
 11
-157.7298685906016
 21
72.53803359219461
 31
0.0
  0
LINE
  5
DD
330
1F
100
AcDbEntity
  8
躯体
  6
JWW_CENTER1
 62
     2
370
     9
100
AcDbLine
 10
-163.7325013503144
 20
66.59650220834152
 30
0.0
 11
-151.4397864028754
 21
66.59650220834152
 31
0.0
  0
LINE
  5
DE
330
1F
100
AcDbEntity
  8
躯体
  6
JWW_CENTER1
 62
     2
370
     9
100
AcDbLine
 10
-157.7298685906016
 20
260.2453446848511
 30
0.0
 11
-157.7298685906016
 21
272.5380596322902
 31
0.0
  0
LINE
  5
DF
330
1F
100
AcDbEntity
  8
躯体
  6
JWW_CENTER1
 62
     2
370
     9
100
AcDbLine
 10
-163.7325013503144
 20
266.596528248437
 30
0.0
 11
-151.4397864028754
 21
266.596528248437
 31
0.0
  0
LINE
  5
E0
330
1F
100
AcDbEntity
  8
躯体
  6
JWW_CENTER1
 62
     2
370
     9
100
AcDbLine
 10
-157.7298685906016
 20
-39.75469437529227
 30
0.0
 11
-157.7298685906016
 21
-27.46197942785329
 31
0.0
  0
LINE
  5
E1
330
1F
100
AcDbEntity
  8
躯体
  6
JWW_CENTER1
 62
     2
370
     9
100
AcDbLine
 10
-163.7325013503144
 20
-33.40351081170638
 30
0.0
 11
-151.4397864028754
 21
-33.40351081170638
 31
0.0
  0
LINE
  5
E2
330
1F
100
AcDbEntity
  8
躯体
  6
JWW_CENTER1
 62
     2
370
     9
100
AcDbLine
 10
-157.7298685906016
 20
-139.75470739534
 30
0.0
 11
-157.7298685906016
 21
-127.4619924479009
 31
0.0
  0
LINE
  5
E3
330
1F
100
AcDbEntity
  8
躯体
  6
JWW_CENTER1
 62
     2
370
     9
100
AcDbLine
 10
-163.7325013503144
 20
-133.4035238317541
 30
0.0
 11
-151.4397864028754
 21
-133.4035238317541
 31
0.0
  0
LINE
  5
E4
330
1F
100
AcDbEntity
  8
躯体
  6
JWW_CENTER1
 62
     2
370
     9
100
AcDbLine
 10
-157.7298685906016
 20
-239.754667922797
 30
0.0
 11
-157.7298685906016
 21
-227.4619529753579
 31
0.0
  0
LINE
  5
E5
330
1F
100
AcDbEntity
  8
躯体
  6
JWW_CENTER1
 62
     2
370
     9
100
AcDbLine
 10
-163.7325013503144
 20
-233.4034843592111
 30
0.0
 11
-151.4397864028754
 21
-233.4034843592111
 31
0.0
  0
LINE
  5
E6
330
1F
100
AcDbEntity
  8
躯体
  6
JWW_CENTER1
 62
     2
370
     9
100
AcDbLine
 10
-573.378486957329
 20
288.5963830837412
 30
0.0
 11
-585.6712019047682
 21
288.5963830837412
 31
0.0
  0
LINE
  5
E7
330
1F
100
AcDbEntity
  8
躯体
  6
JWW_CENTER1
 62
     2
370
     9
100
AcDbLine
 10
-579.7296705209151
 20
282.5937503240283
 30
0.0
 11
-579.7296705209151
 21
294.8864652714674
 31
0.0
  0
LINE
  5
E8
330
1F
100
AcDbEntity
  8
躯体
  6
JWW_CENTER1
 62
     2
370
     9
100
AcDbLine
 10
-473.3785264298722
 20
288.5963830837412
 30
0.0
 11
-485.6712413773112
 21
288.5963830837412
 31
0.0
  0
LINE
  5
E9
330
1F
100
AcDbEntity
  8
躯体
  6
JWW_CENTER1
 62
     2
370
     9
100
AcDbLine
 10
-479.7297099934581
 20
282.5937503240283
 30
0.0
 11
-479.7297099934581
 21
294.8864652714674
 31
0.0
  0
LINE
  5
EA
330
1F
100
AcDbEntity
  8
躯体
  6
JWW_CENTER1
 62
     2
370
     9
100
AcDbLine
 10
-673.3785524699679
 20
288.5963830837412
 30
0.0
 11
-685.6712674174069
 21
288.5963830837412
 31
0.0
  0
LINE
  5
EB
330
1F
100
AcDbEntity
  8
躯体
  6
JWW_CENTER1
 62
     2
370
     9
100
AcDbLine
 10
-373.3785134098244
 20
288.5963830837412
 30
0.0
 11
-385.6712283572634
 21
288.5963830837412
 31
0.0
  0
LINE
  5
EC
330
1F
100
AcDbEntity
  8
躯体
  6
JWW_CENTER1
 62
     2
370
     9
100
AcDbLine
 10
-379.7296969734103
 20
282.5937503240283
 30
0.0
 11
-379.7296969734103
 21
294.8864652714674
 31
0.0
  0
LINE
  5
ED
330
1F
100
AcDbEntity
  8
躯体
  6
JWW_CENTER1
 62
     2
370
     9
100
AcDbLine
 10
-273.3785003897766
 20
288.5963830837412
 30
0.0
 11
-285.6712153372156
 21
288.5963830837412
 31
0.0
  0
LINE
  5
EE
330
1F
100
AcDbEntity
  8
躯体
  6
JWW_CENTER1
 62
     2
370
     9
100
AcDbLine
 10
-279.7296839533625
 20
282.5937503240283
 30
0.0
 11
-279.7296839533625
 21
294.8864652714674
 31
0.0
  0
LINE
  5
EF
330
1F
100
AcDbEntity
  8
躯体
  6
JWW_CENTER1
 62
     2
370
     9
100
AcDbLine
 10
-173.3785398623198
 20
288.5963830837412
 30
0.0
 11
-185.6712548097588
 21
288.5963830837412
 31
0.0
  0
LINE
  5
F0
330
1F
100
AcDbEntity
  8
躯体
  6
JWW_CENTER1
 62
     2
370
     9
100
AcDbLine
 10
-679.7297360335538
 20
282.5937503240283
 30
0.0
 11
-679.7297360335538
 21
317.0208586173626
 31
0.0
  0
LINE
  5
F1
330
1F
100
AcDbEntity
  8
躯体
  6
JWW_CENTER1
 62
     2
370
     9
100
AcDbLine
 10
-179.7297234259057
 20
282.5937503240283
 30
0.0
 11
-179.7297234259056
 21
317.0208586173626
 31
0.0
  0
CIRCLE
  5
F2
330
1F
100
AcDbEntity
  8
躯体
  6
JWW_DASHED1
 62
     2
370
     9
100
AcDbCircle
 10
-701.7295908688578
 20
-133.4034713391632
 30
0.0
 40
1.999999907716361
  0
CIRCLE
  5
F3
330
1F
100
AcDbEntity
  8
躯体
  6
JWW_DASHED1
 62
     2
370
     9
100
AcDbCircle
 10
-701.7295908688578
 20
-33.40345831911534
 30
0.0
 40
1.999999907716361
  0
CIRCLE
  5
F4
330
1F
100
AcDbEntity
  8
躯体
  6
JWW_DASHED1
 62
     2
370
     9
100
AcDbCircle
 10
-701.7295908688578
 20
-233.403484359211
 30
0.0
 40
1.999999907716361
  0
CIRCLE
  5
F5
330
1F
100
AcDbEntity
  8
躯体
  6
JWW_DASHED1
 62
     2
370
     9
100
AcDbCircle
 10
-701.7295908688578
 20
66.59655470093242
 30
0.0
 40
1.999999907716361
  0
CIRCLE
  5
F6
330
1F
100
AcDbEntity
  8
躯体
  6
JWW_DASHED1
 62
     2
370
     9
100
AcDbCircle
 10
-701.7295908688578
 20
166.5965677209802
 30
0.0
 40
1.999999907716361
  0
CIRCLE
  5
F7
330
1F
100
AcDbEntity
  8
躯体
  6
JWW_DASHED1
 62
     2
370
     9
100
AcDbCircle
 10
-701.7295908688578
 20
266.596528248437
 30
0.0
 40
1.999999907716361
  0
CIRCLE
  5
F8
330
1F
100
AcDbEntity
  8
躯体
  6
JWW_DASHED1
 62
     2
370
     9
100
AcDbCircle
 10
-279.7297364459534
 20
-255.4033391945151
 30
0.0
 40
1.999999907716361
  0
CIRCLE
  5
F9
330
1F
100
AcDbEntity
  8
躯体
  6
JWW_DASHED1
 62
     2
370
     9
100
AcDbCircle
 10
-379.7297494660012
 20
-255.4033391945151
 30
0.0
 40
1.999999907716361
  0
CIRCLE
  5
FA
330
1F
100
AcDbEntity
  8
躯体
  6
JWW_DASHED1
 62
     2
370
     9
100
AcDbCircle
 10
-179.7297234259057
 20
-255.4033391945151
 30
0.0
 40
1.999999907716361
  0
CIRCLE
  5
FB
330
1F
100
AcDbEntity
  8
躯体
  6
JWW_DASHED1
 62
     2
370
     9
100
AcDbCircle
 10
-479.729762486049
 20
-255.4033391945151
 30
0.0
 40
1.999999907716361
  0
CIRCLE
  5
FC
330
1F
100
AcDbEntity
  8
躯体
  6
JWW_DASHED1
 62
     2
370
     9
100
AcDbCircle
 10
-579.7297755060969
 20
-255.4033391945151
 30
0.0
 40
1.999999907716361
  0
CIRCLE
  5
FD
330
1F
100
AcDbEntity
  8
躯体
  6
JWW_DASHED1
 62
     2
370
     9
100
AcDbCircle
 10
-679.7297360335538
 20
-255.4033391945151
 30
0.0
 40
1.999999907716361
  0
CIRCLE
  5
FE
330
1F
100
AcDbEntity
  8
躯体
  6
JWW_DASHED1
 62
     2
370
     9
100
AcDbCircle
 10
-157.7298685906016
 20
166.5965152283893
 30
0.0
 40
1.999999907716361
  0
CIRCLE
  5
FF
330
1F
100
AcDbEntity
  8
躯体
  6
JWW_DASHED1
 62
     2
370
     9
100
AcDbCircle
 10
-157.7298685906016
 20
66.59650220834152
 30
0.0
 40
1.999999907716361
  0
CIRCLE
  5
100
330
1F
100
AcDbEntity
  8
躯体
  6
JWW_DASHED1
 62
     2
370
     9
100
AcDbCircle
 10
-157.7298685906016
 20
266.596528248437
 30
0.0
 40
1.999999907716361
  0
CIRCLE
  5
101
330
1F
100
AcDbEntity
  8
躯体
  6
JWW_DASHED1
 62
     2
370
     9
100
AcDbCircle
 10
-157.7298685906016
 20
-33.40351081170638
 30
0.0
 40
1.999999907716361
  0
CIRCLE
  5
102
330
1F
100
AcDbEntity
  8
躯体
  6
JWW_DASHED1
 62
     2
370
     9
100
AcDbCircle
 10
-157.7298685906016
 20
-133.4035238317541
 30
0.0
 40
1.999999907716361
  0
CIRCLE
  5
103
330
1F
100
AcDbEntity
  8
躯体
  6
JWW_DASHED1
 62
     2
370
     9
100
AcDbCircle
 10
-157.7298685906016
 20
-233.4034843592111
 30
0.0
 40
1.999999907716361
  0
CIRCLE
  5
104
330
1F
100
AcDbEntity
  8
躯体
  6
JWW_DASHED1
 62
     2
370
     9
100
AcDbCircle
 10
-579.7296705209151
 20
288.5963830837412
 30
0.0
 40
1.999999907716361
  0
CIRCLE
  5
105
330
1F
100
AcDbEntity
  8
躯体
  6
JWW_DASHED1
 62
     2
370
     9
100
AcDbCircle
 10
-479.7297099934581
 20
288.5963830837412
 30
0.0
 40
1.999999907716361
  0
CIRCLE
  5
106
330
1F
100
AcDbEntity
  8
躯体
  6
JWW_DASHED1
 62
     2
370
     9
100
AcDbCircle
 10
-679.7297360335538
 20
288.5963830837412
 30
0.0
 40
1.999999907716361
  0
CIRCLE
  5
107
330
1F
100
AcDbEntity
  8
躯体
  6
JWW_DASHED1
 62
     2
370
     9
100
AcDbCircle
 10
-379.7296969734103
 20
288.5963830837412
 30
0.0
 40
1.999999907716361
  0
CIRCLE
  5
108
330
1F
100
AcDbEntity
  8
躯体
  6
JWW_DASHED1
 62
     2
370
     9
100
AcDbCircle
 10
-279.7296839533625
 20
288.5963830837412
 30
0.0
 40
1.999999907716361
  0
CIRCLE
  5
109
330
1F
100
AcDbEntity
  8
躯体
  6
JWW_DASHED1
 62
     2
370
     9
100
AcDbCircle
 10
-179.7297234259057
 20
288.5963830837412
 30
0.0
 40
1.999999907716361
  0
LINE
  5
10A
330
1F
100
AcDbEntity
  8
その他
  6
Continuous
 62
     7
370
     9
100
AcDbLine
 10
-729.7297297297297
 20
337.0985041437923
 30
0.0
 11
-729.7297297297297
 21
417.9977169552366
 31
0.0
  0
LINE
  5
10B
330
1F
100
AcDbEntity
  8
その他
  6
Continuous
 62
     7
370
     9
100
AcDbLine
 10
-750.2295423330083
 20
316.5984041774176
 30
0.0
 11
-831.128775106894
 21
316.5971250791808
 31
0.0
  0
LINE
  5
10C
330
1F
100
AcDbEntity
  8
その他
  6
Continuous
 62
     7
370
     9
100
AcDbLine
 10
-129.7297297297297
 20
337.0985041437923
 30
0.0
 11
-129.7297297297297
 21
417.9977169552366
 31
0.0
  0
LINE
  5
10D
330
1F
100
AcDbEntity
  8
その他
  6
Continuous
 62
     7
370
     9
100
AcDbLine
 10
-750.220237122861
 20
-283.4016224710142
 30
0.0
 11
-831.1194342535896
 21
-283.4028749208192
 31
0.0
  0
LINE
  5
10E
330
1F
100
AcDbEntity
  8
0-9
  6
JWW_DASHED3
 62
     2
370
     9
100
AcDbLine
 10
-704.7297297297297
 20
-258.403478055387
 30
0.0
 11
-154.7297297297297
 21
-258.403478055387
 31
0.0
  0
LINE
  5
10F
330
1F
100
AcDbEntity
  8
0-9
  6
JWW_DASHED3
 62
     2
370
     9
100
AcDbLine
 10
-154.7297297297297
 20
-258.403478055387
 30
0.0
 11
-154.7297297297297
 21
291.596521944613
 31
0.0
  0
LINE
  5
110
330
1F
100
AcDbEntity
  8
0-9
  6
JWW_DASHED3
 62
     2
370
     9
100
AcDbLine
 10
-154.7297297297297
 20
291.596521944613
 30
0.0
 11
-704.7297297297297
 21
291.596521944613
 31
0.0
  0
LINE
  5
111
330
1F
100
AcDbEntity
  8
0-9
  6
JWW_DASHED3
 62
     2
370
     9
100
AcDbLine
 10
-704.7297297297297
 20
291.596521944613
 30
0.0
 11
-704.7297297297297
 21
-258.403478055387
 31
0.0
  0
LINE
  5
112
330
1F
100
AcDbEntity
  8
その他
  6
Continuous
 62
     7
370
     9
100
AcDbLine
 10
-704.7297297297297
 20
377.0058461782095
 30
0.0
 11
-154.7297297297297
 21
377.0058461782095
 31
0.0
  0
LWPOLYLINE
  5
113
330
1F
100
AcDbEntity
  8
その他
  6
Continuous
 62
     7
370
     9
100
AcDbPolyline
 90
        4
 70
     1
 43
0.5
 10
-704.4797297297296
 20
377.0058461782095
 42
0.4142135623731
 10
-704.7297297297297
 20
377.2558461782095
 42
0.4142135623731
 10
-704.9797297297298
 20
377.0058461782095
 42
0.4142135623731
 10
-704.7297297297297
 20
376.7558461782095
 42
0.4142135623731
  0
LWPOLYLINE
  5
114
330
1F
100
AcDbEntity
  8
その他
  6
Continuous
 62
     7
370
     9
100
AcDbPolyline
 90
        4
 70
     1
 43
0.5
 10
-154.4797297297297
 20
377.0058461782095
 42
0.4142135623731
 10
-154.7297297297297
 20
377.2558461782095
 42
0.4142135623731
 10
-154.9797297297297
 20
377.0058461782095
 42
0.4142135623731
 10
-154.7297297297297
 20
376.7558461782095
 42
0.4142135623731
  0
TEXT
  5
115
330
1F
100
AcDbEntity
  8
その他
  6
Continuous
 62
     2
370
   211
100
AcDbText
 10
-445.9797297297297
 20
382.8258462974188
 30
0.0
 40
15.24
  1
550
 41
1.083333333333333
  7
ＭＳ ゴシック
100
AcDbText
  0
LINE
  5
116
330
1F
100
AcDbEntity
  8
その他
  6
Continuous
 62
     7
370
     9
100
AcDbLine
 10
-154.7297297297297
 20
378.5058462378141
 30
0.0
 11
-154.7297297297297
 21
337.0985041437923
 31
0.0
  0
LINE
  5
117
330
1F
100
AcDbEntity
  8
その他
  6
Continuous
 62
     7
370
     9
100
AcDbLine
 10
-704.7297297297297
 20
378.5058462378141
 30
0.0
 11
-704.7297297297297
 21
337.0985041437923
 31
0.0
  0
LINE
  5
118
330
1F
100
AcDbEntity
  8
その他
  6
Continuous
 62
     7
370
     9
100
AcDbLine
 10
-790.1389914723356
 20
291.5963709439401
 30
0.0
 11
-790.1376166768415
 21
-258.4036290543416
 31
0.0
  0
LWPOLYLINE
  5
119
330
1F
100
AcDbEntity
  8
その他
  6
Continuous
 62
     7
370
     9
100
AcDbPolyline
 90
        4
 70
     1
 43
0.5
 10
-789.8889914723355
 20
291.5963709439401
 42
0.4142135623731
 10
-790.1389914723356
 20
291.8463709439401
 42
0.4142135623731
 10
-790.3889914723356
 20
291.5963709439401
 42
0.4142135623731
 10
-790.1389914723356
 20
291.3463709439401
 42
0.4142135623731
  0
LINE
  5
11A
330
1F
100
AcDbEntity
  8
その他
  6
Continuous
 62
     7
370
     9
100
AcDbLine
 10
-791.6389915319355
 20
291.5963671944977
 30
0.0
 11
-750.2316494380431
 21
291.5964706974565
 31
0.0
  0
LWPOLYLINE
  5
11B
330
1F
100
AcDbEntity
  8
その他
  6
Continuous
 62
     7
370
     9
100
AcDbPolyline
 90
        4
 70
     1
 43
0.5
 10
-789.8876166768414
 20
-258.4036290543416
 42
0.4142135623731
 10
-790.1376166768415
 20
-258.1536290543416
 42
0.4142135623731
 10
-790.3876166768416
 20
-258.4036290543416
 42
0.4142135623731
 10
-790.1376166768415
 20
-258.6536290543416
 42
0.4142135623731
  0
LINE
  5
11C
330
1F
100
AcDbEntity
  8
その他
  6
Continuous
 62
     7
370
     9
100
AcDbLine
 10
-791.6376167364413
 20
-258.403632803784
 30
0.0
 11
-750.2302746425489
 21
-258.4035293008253
 31
0.0
  0
TEXT
  5
11D
330
1F
100
AcDbEntity
  8
その他
  6
Continuous
 62
     2
370
   211
100
AcDbText
 10
-795.9582635748219
 20
0.3463563970137652
 30
0.0
 40
15.24
  1
550
 50
90.00014321814456
 41
1.083333333333333
  7
ＭＳ ゴシック
100
AcDbText
  0
LINE
  5
11E
330
1F
100
AcDbEntity
  8
通り芯
  6
JWW_CENTER1
 62
     4
370
     9
100
AcDbLine
 10
-429.7297297297297
 20
-316.403464740768
 30
0.0
 11
-429.7297297297297
 21
349.5964561374029
 31
0.0
  0
LINE
  5
11F
330
1F
100
AcDbEntity
  8
通り芯
  6
JWW_CENTER1
 62
     4
370
     9
100
AcDbLine
 10
-96.72974304434867
 20
16.59652194461302
 30
0.0
 11
-762.7296639225196
 21
16.59652194461302
 31
0.0
  0
LINE
  5
120
330
1F
100
AcDbEntity
  8
通り芯
  6
JWW_DASHED1
 62
   211
370
     5
100
AcDbLine
 10
-696.7295665961894
 20
283.5963063184819
 30
0.0
 11
-162.7298928632699
 21
283.5963063184819
 31
0.0
  0
LINE
  5
121
330
1F
100
AcDbEntity
  8
通り芯
  6
JWW_DASHED1
 62
   211
370
     5
100
AcDbLine
 10
-696.7295665961894
 20
-250.4032624292557
 30
0.0
 11
-696.7295665961894
 21
283.5963063184819
 31
0.0
  0
LINE
  5
122
330
1F
100
AcDbEntity
  8
通り芯
  6
JWW_DASHED1
 62
   211
370
     5
100
AcDbLine
 10
-162.7298928632699
 20
283.5963063184819
 30
0.0
 11
-162.7300503410428
 21
-250.4032624292557
 31
0.0
  0
LINE
  5
123
330
1F
100
AcDbEntity
  8
通り芯
  6
JWW_DASHED1
 62
   211
370
     5
100
AcDbLine
 10
-162.7300503410428
 20
-250.4032624292557
 30
0.0
 11
-696.7295665961894
 21
-250.4032624292557
 31
0.0
  0
LINE
  5
124
330
1F
100
AcDbEntity
  8
D-4
  6
Continuous
 62
     7
370
     9
100
AcDbLine
 10
526.4983718459672
 20
408.1369406647159
 30
0.0
 11
531.5585162188557
 21
419.5669283917007
 31
0.0
  0
LINE
  5
125
330
1F
100
AcDbEntity
  8
D-4
  6
Continuous
 62
     7
370
     9
100
AcDbLine
 10
526.4983718459672
 20
408.1369406647159
 30
0.0
 11
534.3446886217273
 21
417.8678828495765
 31
0.0
  0
LINE
  5
126
330
1F
100
AcDbEntity
  8
D-0
  6
Continuous
 62
     4
370
     9
100
AcDbLine
 10
510.0314990894216
 20
401.8869819046864
 30
0.0
 11
512.5313836175044
 21
400.6371633605563
 31
0.0
  0
LINE
  5
127
330
1F
100
AcDbEntity
  8
D-0
  6
Continuous
 62
     4
370
     9
100
AcDbLine
 10
512.5313836175044
 20
400.6371633605563
 30
0.0
 11
512.5313836175044
 21
390.6368829287572
 31
0.0
  0
LINE
  5
128
330
1F
100
AcDbEntity
  8
D-0
  6
Continuous
 62
     4
370
     9
100
AcDbLine
 10
500.0317135372677
 20
396.8870891286094
 30
0.0
 11
500.0317135372677
 21
390.6368829287572
 31
0.0
  0
LINE
  5
129
330
1F
100
AcDbEntity
  8
D-0
  6
Continuous
 62
     4
370
     9
100
AcDbLine
 10
505.0314825934333
 20
396.8870891286094
 30
0.0
 11
500.0317135372677
 21
396.8870891286094
 31
0.0
  0
LINE
  5
12A
330
1F
100
AcDbEntity
  8
D-0
  6
Continuous
 62
     4
370
     9
100
AcDbLine
 10
505.0314825934333
 20
403.8869142711348
 30
0.0
 11
505.0314825934333
 21
396.8870891286094
 31
0.0
  0
LINE
  5
12B
330
1F
100
AcDbEntity
  8
D-0
  6
Continuous
 62
     4
370
     9
100
AcDbLine
 10
505.0314825934333
 20
403.8869142711348
 30
0.0
 11
465.0313506255279
 21
403.8869142711348
 31
0.0
  0
LINE
  5
12C
330
1F
100
AcDbEntity
  8
D-0
  6
Continuous
 62
     4
370
     9
100
AcDbLine
 10
470.0316145613388
 20
396.8870891286094
 30
0.0
 11
470.0316145613388
 21
390.6368829287572
 31
0.0
  0
LINE
  5
12D
330
1F
100
AcDbEntity
  8
D-0
  6
Continuous
 62
     4
370
     9
100
AcDbLine
 10
470.0316145613388
 20
396.8870891286094
 30
0.0
 11
465.0313506255279
 21
396.8870891286094
 31
0.0
  0
LINE
  5
12E
330
1F
100
AcDbEntity
  8
D-0
  6
Continuous
 62
     4
370
     9
100
AcDbLine
 10
465.0313506255279
 20
403.8869142711348
 30
0.0
 11
465.0313506255279
 21
396.8870891286094
 31
0.0
  0
LINE
  5
12F
330
1F
100
AcDbEntity
  8
D-0
  6
Continuous
 62
     4
370
     9
100
AcDbLine
 10
505.0314825934333
 20
408.8871782069456
 30
0.0
 11
460.0315815693625
 21
408.8871782069456
 31
0.0
  0
LINE
  5
130
330
1F
100
AcDbEntity
  8
D-0
  6
Continuous
 62
     4
370
     9
100
AcDbLine
 10
460.0315815693625
 20
408.8871782069456
 30
0.0
 11
460.0315815693625
 21
402.6370957270047
 31
0.0
  0
LINE
  5
131
330
1F
100
AcDbEntity
  8
D-0
  6
Continuous
 62
     4
370
     9
100
AcDbLine
 10
460.0315815693625
 20
397.6369555111052
 30
0.0
 11
460.0315815693625
 21
390.6368829287572
 31
0.0
  0
LINE
  5
132
330
1F
100
AcDbEntity
  8
D-0
  6
Continuous
 62
     4
370
     9
100
AcDbLine
 10
512.5313836175044
 20
390.6368829287572
 30
0.0
 11
500.0317135372677
 21
390.6368829287572
 31
0.0
  0
LINE
  5
133
330
1F
100
AcDbEntity
  8
D-0
  6
Continuous
 62
     4
370
     9
100
AcDbLine
 10
470.0316145613388
 20
390.6368829287572
 30
0.0
 11
460.0315815693625
 21
390.6368829287572
 31
0.0
  0
LINE
  5
134
330
1F
100
AcDbEntity
  8
D-1
  6
Continuous
 62
     2
370
     9
100
AcDbLine
 10
538.7812846415752
 20
458.1369819046864
 30
0.0
 11
545.0313671215162
 21
454.3870313926508
 31
0.0
  0
LINE
  5
135
330
1F
100
AcDbEntity
  8
D-1
  6
Continuous
 62
     2
370
     9
100
AcDbLine
 10
545.0313671215162
 20
454.3870313926508
 30
0.0
 11
545.0313671215162
 21
453.1370891286094
 31
0.0
  0
LINE
  5
136
330
1F
100
AcDbEntity
  8
D-5
  6
Continuous
 62
     7
370
     9
100
AcDbLine
 10
452.5314331054688
 20
390.6368829287572
 30
0.0
 11
452.5314331054688
 21
388.1371839805414
 31
0.0
  0
LINE
  5
137
330
1F
100
AcDbEntity
  8
D-5
  6
Continuous
 62
     7
370
     9
100
AcDbLine
 10
512.5313836175044
 20
390.6368829287572
 30
0.0
 11
512.5313836175044
 21
388.1371839805414
 31
0.0
  0
LINE
  5
138
330
1F
100
AcDbEntity
  8
D-5
  6
Continuous
 62
     7
370
     9
100
AcDbLine
 10
496.2815155854096
 20
381.8871633605563
 30
0.0
 11
496.2815155854096
 21
379.4988741924819
 31
0.0
  0
LINE
  5
139
330
1F
100
AcDbEntity
  8
D-5
  6
Continuous
 62
     7
370
     9
100
AcDbLine
 10
468.7815485773859
 20
381.8871633605563
 30
0.0
 11
468.7815485773859
 21
379.4988741924819
 31
0.0
  0
LINE
  5
13A
330
1F
100
AcDbEntity
  8
D-5
  6
Continuous
 62
     7
370
     9
100
AcDbLine
 10
493.1563506255279
 20
388.1371839805414
 30
0.0
 11
493.1563506255279
 21
381.8871633605563
 31
0.0
  0
LINE
  5
13B
330
1F
100
AcDbEntity
  8
D-5
  6
Continuous
 62
     7
370
     9
100
AcDbLine
 10
496.2815155854096
 20
381.8871633605563
 30
0.0
 11
493.1563506255279
 21
381.8871633605563
 31
0.0
  0
LINE
  5
13C
330
1F
100
AcDbEntity
  8
D-5
  6
Continuous
 62
     7
370
     9
100
AcDbLine
 10
471.906466097445
 20
388.1371839805414
 30
0.0
 11
471.906466097445
 21
381.8871633605563
 31
0.0
  0
LINE
  5
13D
330
1F
100
AcDbEntity
  8
D-5
  6
Continuous
 62
     7
370
     9
100
AcDbLine
 10
471.906466097445
 20
381.8871633605563
 30
0.0
 11
468.7815485773859
 21
381.8871633605563
 31
0.0
  0
LINE
  5
13E
330
1F
100
AcDbEntity
  8
D-5
  6
Continuous
 62
     7
370
     9
100
AcDbLine
 10
490.0314331054688
 20
388.1371839805414
 30
0.0
 11
490.0314331054688
 21
379.6884130966205
 31
0.0
  0
LINE
  5
13F
330
1F
100
AcDbEntity
  8
D-5
  6
Continuous
 62
     7
370
     9
100
AcDbLine
 10
490.0314331054688
 20
388.1371839805414
 30
0.0
 11
475.0313836175044
 21
388.1371839805414
 31
0.0
  0
LINE
  5
140
330
1F
100
AcDbEntity
  8
D-5
  6
Continuous
 62
     7
370
     9
100
AcDbLine
 10
475.0313836175044
 20
388.1371839805414
 30
0.0
 11
475.0313836175044
 21
379.6884130966205
 31
0.0
  0
LINE
  5
141
330
1F
100
AcDbEntity
  8
D-1
  6
Continuous
 62
     2
370
     9
100
AcDbLine
 10
515.031268145587
 20
388.1371839805414
 30
0.0
 11
496.2815155854096
 21
388.1371839805414
 31
0.0
  0
LINE
  5
142
330
1F
100
AcDbEntity
  8
D-5
  6
Continuous
 62
     7
370
     9
100
AcDbLine
 10
496.2815155854096
 20
388.1371839805414
 30
0.0
 11
493.1563506255279
 21
388.1371839805414
 31
0.0
  0
LINE
  5
143
330
1F
100
AcDbEntity
  8
D-1
  6
Continuous
 62
     2
370
     9
100
AcDbLine
 10
468.7815485773859
 20
388.1371839805414
 30
0.0
 11
450.0315485773859
 21
388.1371839805414
 31
0.0
  0
LINE
  5
144
330
1F
100
AcDbEntity
  8
D-5
  6
Continuous
 62
     7
370
     9
100
AcDbLine
 10
468.7815485773859
 20
388.1371839805414
 30
0.0
 11
471.906466097445
 21
388.1371839805414
 31
0.0
  0
LINE
  5
145
330
1F
100
AcDbEntity
  8
D-1
  6
Continuous
 62
     2
370
     9
100
AcDbLine
 10
498.1566145613388
 20
383.1371056245976
 30
0.0
 11
496.2815155854096
 21
383.1371056245976
 31
0.0
  0
LINE
  5
146
330
1F
100
AcDbEntity
  8
D-1
  6
Continuous
 62
     2
370
     9
100
AcDbLine
 10
466.906449601457
 20
383.1371056245976
 30
0.0
 11
468.7815485773859
 21
383.1371056245976
 31
0.0
  0
LINE
  5
147
330
1F
100
AcDbEntity
  8
D-1
  6
Continuous
 62
     2
370
     9
100
AcDbLine
 10
488.1565815693625
 20
355.6370148966627
 30
0.0
 11
488.1565815693625
 21
353.1368829287572
 31
0.0
  0
LINE
  5
148
330
1F
100
AcDbEntity
  8
D-1
  6
Continuous
 62
     2
370
     9
100
AcDbLine
 10
491.9065320813979
 20
355.6370148966627
 30
0.0
 11
488.1565815693625
 21
355.6370148966627
 31
0.0
  0
LINE
  5
149
330
1F
100
AcDbEntity
  8
D-1
  6
Continuous
 62
     2
370
     9
100
AcDbLine
 10
491.9065320813979
 20
364.3871056245976
 30
0.0
 11
491.9065320813979
 21
355.6370148966627
 31
0.0
  0
LINE
  5
14A
330
1F
100
AcDbEntity
  8
D-1
  6
Continuous
 62
     2
370
     9
100
AcDbLine
 10
476.9064825934333
 20
355.6370148966627
 30
0.0
 11
476.9064825934333
 21
353.1368829287572
 31
0.0
  0
LINE
  5
14B
330
1F
100
AcDbEntity
  8
D-1
  6
Continuous
 62
     2
370
     9
100
AcDbLine
 10
473.1562846415753
 20
355.6370148966627
 30
0.0
 11
476.9064825934333
 21
355.6370148966627
 31
0.0
  0
LINE
  5
14C
330
1F
100
AcDbEntity
  8
D-1
  6
Continuous
 62
     2
370
     9
100
AcDbLine
 10
473.1562846415753
 20
364.3871056245976
 30
0.0
 11
473.1562846415753
 21
355.6370148966627
 31
0.0
  0
LINE
  5
14D
330
1F
100
AcDbEntity
  8
D-1
  6
Continuous
 62
     2
370
     9
100
AcDbLine
 10
456.2811361776818
 20
383.1371056245976
 30
0.0
 11
460.6561196816935
 21
383.1371056245976
 31
0.0
  0
LINE
  5
14E
330
1F
100
AcDbEntity
  8
D-1
  6
Continuous
 62
     2
370
     9
100
AcDbLine
 10
450.0315485773859
 20
388.1371839805414
 30
0.0
 11
450.0315485773859
 21
353.1368829287572
 31
0.0
  0
LINE
  5
14F
330
1F
100
AcDbEntity
  8
D-1
  6
Continuous
 62
     2
370
     9
100
AcDbLine
 10
453.7814990894216
 20
359.3870891286094
 30
0.0
 11
453.7814990894216
 21
380.6370973766035
 31
0.0
  0
LINE
  5
150
330
1F
100
AcDbEntity
  8
D-1
  6
Continuous
 62
     2
370
     9
100
AcDbLine
 10
466.9066970412797
 20
356.8869571607041
 30
0.0
 11
456.2811361776818
 21
356.8869571607041
 31
0.0
  0
LINE
  5
151
330
1F
100
AcDbEntity
  8
D-1
  6
Continuous
 62
     2
370
     9
100
AcDbLine
 10
469.4065815693625
 20
361.8870973766035
 30
0.0
 11
469.4065815693625
 21
359.3870891286094
 31
0.0
  0
LINE
  5
152
330
1F
100
AcDbEntity
  8
D-1
  6
Continuous
 62
     2
370
     9
100
AcDbLine
 10
465.6563836175044
 20
364.3871056245976
 30
0.0
 11
466.9066970412797
 21
364.3871056245976
 31
0.0
  0
LINE
  5
153
330
1F
100
AcDbEntity
  8
D-1
  6
Continuous
 62
     2
370
     9
100
AcDbLine
 10
463.1567465292443
 20
366.8869901526804
 30
0.0
 11
463.1567465292443
 21
380.6370973766035
 31
0.0
  0
LINE
  5
154
330
1F
100
AcDbEntity
  8
D-1
  6
Continuous
 62
     2
370
     9
100
AcDbLine
 10
527.5314331054688
 20
358.1370231446567
 30
0.0
 11
520.0317795212206
 21
358.1370231446567
 31
0.0
  0
LINE
  5
155
330
1F
100
AcDbEntity
  8
D-1
  6
Continuous
 62
     2
370
     9
100
AcDbLine
 10
512.5313836175044
 20
383.1371056245976
 30
0.0
 11
504.406449601457
 21
383.1371056245976
 31
0.0
  0
LINE
  5
156
330
1F
100
AcDbEntity
  8
D-1
  6
Continuous
 62
     2
370
     9
100
AcDbLine
 10
501.9068125131969
 20
368.1371798565444
 30
0.0
 11
501.9068125131969
 21
380.6370973766035
 31
0.0
  0
LINE
  5
157
330
1F
100
AcDbEntity
  8
D-1
  6
Continuous
 62
     2
370
     9
100
AcDbLine
 10
498.1566145613388
 20
364.3871056245976
 30
0.0
 11
495.6562351536107
 21
364.3871056245976
 31
0.0
  0
LINE
  5
158
330
1F
100
AcDbEntity
  8
D-1
  6
Continuous
 62
     2
370
     9
100
AcDbLine
 10
532.5314496014571
 20
360.6370313926508
 30
0.0
 11
532.5314496014571
 21
353.1368829287572
 31
0.0
  0
LINE
  5
159
330
1F
100
AcDbEntity
  8
D-1
  6
Continuous
 62
     2
370
     9
100
AcDbLine
 10
527.5314331054688
 20
360.6370313926508
 30
0.0
 11
527.5314331054688
 21
358.1370231446567
 31
0.0
  0
LINE
  5
15A
330
1F
100
AcDbEntity
  8
D-1
  6
Continuous
 62
     2
370
     9
100
AcDbLine
 10
515.031268145587
 20
359.3870891286094
 30
0.0
 11
515.031268145587
 21
380.6370973766035
 31
0.0
  0
LINE
  5
15B
330
1F
100
AcDbEntity
  8
D-1
  6
Continuous
 62
     2
370
     9
100
AcDbLine
 10
498.1566145613388
 20
356.8869571607041
 30
0.0
 11
512.5313836175044
 21
356.8869571607041
 31
0.0
  0
LINE
  5
15C
330
1F
100
AcDbEntity
  8
D-1
  6
Continuous
 62
     2
370
     9
100
AcDbLine
 10
495.6562351536107
 20
359.3870891286094
 30
0.0
 11
495.6562351536107
 21
364.3871056245976
 31
0.0
  0
LINE
  5
15D
330
1F
100
AcDbEntity
  8
D-1
  6
Continuous
 62
     2
370
     9
100
AcDbLine
 10
532.5314496014571
 20
408.1369406647159
 30
0.0
 11
520.0317795212206
 21
408.1369406647159
 31
0.0
  0
LINE
  5
15E
330
1F
100
AcDbEntity
  8
D-1
  6
Continuous
 62
     2
370
     9
100
AcDbLine
 10
532.5314496014571
 20
400.6367922008223
 30
0.0
 11
532.5314496014571
 21
408.1369406647159
 31
0.0
  0
LINE
  5
15F
330
1F
100
AcDbEntity
  8
D-1
  6
Continuous
 62
     2
370
     9
100
AcDbLine
 10
527.5314331054688
 20
400.6367922008223
 30
0.0
 11
527.5314331054688
 21
403.1371716085503
 31
0.0
  0
LINE
  5
160
330
1F
100
AcDbEntity
  8
D-1
  6
Continuous
 62
     2
370
     9
100
AcDbLine
 10
527.5314331054688
 20
403.1371716085503
 30
0.0
 11
520.0317795212206
 21
403.1371716085503
 31
0.0
  0
LINE
  5
161
330
1F
100
AcDbEntity
  8
D-1
  6
Continuous
 62
     2
370
     9
100
AcDbLine
 10
520.0317795212206
 20
403.1371716085503
 30
0.0
 11
520.0317795212206
 21
358.1370231446567
 31
0.0
  0
LINE
  5
162
330
1F
100
AcDbEntity
  8
D-1
  6
Continuous
 62
     2
370
     9
100
AcDbLine
 10
525.0315485773859
 20
453.1370891286094
 30
0.0
 11
545.0313671215162
 21
453.1370891286094
 31
0.0
  0
LINE
  5
163
330
1F
100
AcDbEntity
  8
D-1
  6
Continuous
 62
     2
370
     9
100
AcDbLine
 10
520.0317795212206
 20
448.1369489127099
 30
0.0
 11
520.0317795212206
 21
408.1369406647159
 31
0.0
  0
LINE
  5
164
330
1F
100
AcDbEntity
  8
D-1
  6
Continuous
 62
     2
370
     9
100
AcDbLine
 10
532.5314496014571
 20
353.1368829287572
 30
0.0
 11
488.1565815693625
 21
353.1368829287572
 31
0.0
  0
LINE
  5
165
330
1F
100
AcDbEntity
  8
D-1
  6
Continuous
 62
     2
370
     9
100
AcDbLine
 10
476.9064825934333
 20
353.1368829287572
 30
0.0
 11
450.0315485773859
 21
353.1368829287572
 31
0.0
  0
LINE
  5
166
330
1F
100
AcDbEntity
  8
D-1
  6
Continuous
 62
     2
370
     9
100
AcDbLine
 10
498.1566145613388
 20
371.8868829287572
 30
0.0
 11
498.1566145613388
 21
383.1371056245976
 31
0.0
  0
LINE
  5
167
330
1F
100
AcDbEntity
  8
D-1
  6
Continuous
 62
     2
370
     9
100
AcDbLine
 10
466.906449601457
 20
371.8868829287572
 30
0.0
 11
466.906449601457
 21
383.1371056245976
 31
0.0
  0
LINE
  5
168
330
1F
100
AcDbEntity
  8
D-5
  6
Continuous
 62
     7
370
     9
100
AcDbLine
 10
460.0315815693625
 20
390.6368829287572
 30
0.0
 11
452.5314331054688
 21
390.6368829287572
 31
0.0
  0
LINE
  5
169
330
1F
100
AcDbEntity
  8
D-5
  6
Continuous
 62
     7
370
     9
100
AcDbLine
 10
500.0317135372677
 20
390.6368829287572
 30
0.0
 11
470.0316145613388
 21
390.6368829287572
 31
0.0
  0
LINE
  5
16A
330
1F
100
AcDbEntity
  8
D-3
  6
Continuous
 62
     3
370
     9
100
AcDbLine
 10
267.5313176335517
 20
402.6370957270053
 30
0.0
 11
138.8631047429266
 21
402.6370957270047
 31
0.0
  0
LINE
  5
16B
330
1F
100
AcDbEntity
  8
D-B
  6
Continuous
 62
     7
370
     9
100
AcDbLine
 10
458.7815155854096
 20
410.6369489127099
 30
0.0
 11
458.7815155854096
 21
415.6370891286094
 31
0.0
  0
LINE
  5
16C
330
1F
100
AcDbEntity
  8
D-1
  6
Continuous
 62
     2
370
     9
100
AcDbLine
 10
538.7812846415752
 20
458.1369819046864
 30
0.0
 11
521.2813506255279
 21
458.1369819046864
 31
0.0
  0
LINE
  5
16D
330
1F
100
AcDbEntity
  8
D-1
  6
Continuous
 62
     2
370
     9
100
AcDbLine
 10
515.031268145587
 20
453.1370891286094
 30
0.0
 11
515.031268145587
 21
388.1371839805414
 31
0.0
  0
LINE
  5
16E
330
1F
100
AcDbEntity
  8
D-0
  6
JWW_CENTER1
 62
     4
370
     9
100
AcDbLine
 10
442.5314001134925
 20
440.5158023755478
 30
0.0
 11
442.5314001134925
 21
390.6368829287572
 31
0.0
  0
LINE
  5
16F
330
1F
100
AcDbEntity
  8
D-3
  6
Continuous
 62
     3
370
     9
100
AcDbLine
 10
458.7815155854096
 20
410.6369489127099
 30
0.0
 11
458.7815155854096
 21
402.6370957270047
 31
0.0
  0
LINE
  5
170
330
1F
100
AcDbEntity
  8
D-B
  6
Continuous
 62
     7
370
     9
100
AcDbLine
 10
501.2812846415753
 20
431.7621237701846
 30
0.0
 11
501.2812846415753
 21
415.6370891286094
 31
0.0
  0
LINE
  5
171
330
1F
100
AcDbEntity
  8
D-0
  6
Continuous
 62
     4
370
     9
100
AcDbLine
 10
447.7813308303422
 20
402.6370957270047
 30
0.0
 11
447.7813308303422
 21
397.6369555111052
 31
0.0
  0
LINE
  5
172
330
1F
100
AcDbEntity
  8
D-0
  6
Continuous
 62
     4
370
     9
100
AcDbLine
 10
437.2814693966427
 20
402.6370957270047
 30
0.0
 11
437.2814693966427
 21
397.6369555111052
 31
0.0
  0
LINE
  5
173
330
1F
100
AcDbEntity
  8
D-A
  6
Continuous
 62
     2
370
     9
100
AcDbLine
 10
433.7814331054688
 20
395.5661934954273
 30
0.0
 11
433.7814331054688
 21
397.6369555111052
 31
0.0
  0
LINE
  5
174
330
1F
100
AcDbEntity
  8
D-A
  6
Continuous
 62
     2
370
     9
100
AcDbLine
 10
451.2813671215162
 20
395.5661934954273
 30
0.0
 11
451.2813671215162
 21
397.6369555111052
 31
0.0
  0
LINE
  5
175
330
1F
100
AcDbEntity
  8
D-A
  6
Continuous
 62
     2
370
     9
100
AcDbLine
 10
441.2063598632812
 20
394.6369951014768
 30
0.0
 11
443.8564403637037
 21
394.6369951014768
 31
0.0
  0
LINE
  5
176
330
1F
100
AcDbEntity
  8
D-A
  6
Continuous
 62
     2
370
     9
100
AcDbLine
 10
441.2063598632812
 20
391.1762398821461
 30
0.0
 11
441.2063598632812
 21
394.6369951014768
 31
0.0
  0
LINE
  5
177
330
1F
100
AcDbEntity
  8
D-A
  6
Continuous
 62
     2
370
     9
100
AcDbLine
 10
449.2991267023859
 20
399.2712955396103
 30
0.0
 11
436.2637494061445
 21
404.6037474373088
 31
0.0
  0
LINE
  5
178
330
1F
100
AcDbEntity
  8
D-A
  6
Continuous
 62
     2
370
     9
100
AcDbLine
 10
449.2991267023859
 20
403.908998275305
 30
0.0
 11
436.2637494061445
 21
409.2416357528705
 31
0.0
  0
LINE
  5
179
330
1F
100
AcDbEntity
  8
D-A
  6
Continuous
 62
     2
370
     9
100
AcDbLine
 10
449.2991267023859
 20
408.5468247309109
 30
0.0
 11
436.2637494061445
 21
413.879524068432
 31
0.0
  0
LINE
  5
17A
330
1F
100
AcDbEntity
  8
D-A
  6
Continuous
 62
     2
370
     9
100
AcDbLine
 10
449.2991267023859
 20
413.18446560665
 30
0.0
 11
435.781241752006
 21
418.7143744828114
 31
0.0
  0
LINE
  5
17B
330
1F
100
AcDbEntity
  8
D-0
  6
Continuous
 62
     4
370
     9
100
AcDbLine
 10
460.0315815693625
 20
397.6369555111052
 30
0.0
 11
430.0312351536107
 21
397.6369555111052
 31
0.0
  0
LINE
  5
17C
330
1F
100
AcDbEntity
  8
D-0
  6
Continuous
 62
     4
370
     9
100
AcDbLine
 10
430.0312351536107
 20
402.6370957270047
 30
0.0
 11
430.0312351536107
 21
397.6369555111052
 31
0.0
  0
LINE
  5
17D
330
1F
100
AcDbEntity
  8
D-3
  6
Continuous
 62
     3
370
     9
100
AcDbLine
 10
430.0312351536107
 20
402.6370957270047
 30
0.0
 11
282.5316145613386
 21
402.6370957270053
 31
0.0
  0
LINE
  5
17E
330
1F
100
AcDbEntity
  8
D-0
  6
Continuous
 62
     4
370
     9
100
AcDbLine
 10
460.0315815693625
 20
402.6370957270047
 30
0.0
 11
447.5314166094807
 21
402.6370957270047
 31
0.0
  0
LINE
  5
17F
330
1F
100
AcDbEntity
  8
D-0
  6
Continuous
 62
     4
370
     9
100
AcDbLine
 10
437.5313836175044
 20
402.6370957270047
 30
0.0
 11
430.0312351536107
 21
402.6370957270047
 31
0.0
  0
LINE
  5
180
330
1F
100
AcDbEntity
  8
D-3
  6
Continuous
 62
     3
370
     9
100
AcDbLine
 10
458.7815155854096
 20
410.6369489127099
 30
0.0
 11
447.5314166094807
 21
410.6369489127099
 31
0.0
  0
LINE
  5
181
330
1F
100
AcDbEntity
  8
D-3
  6
Continuous
 62
     3
370
     9
100
AcDbLine
 10
437.5313836175044
 20
410.6369489127099
 30
0.0
 11
282.5316145613388
 21
410.6369489127099
 31
0.0
  0
LINE
  5
182
330
1F
100
AcDbEntity
  8
D-1
  6
Continuous
 62
     2
370
     9
100
AcDbLine
 10
521.2813506255279
 20
458.1369819046864
 30
0.0
 11
515.031268145587
 21
453.1370891286094
 31
0.0
  0
LINE
  5
183
330
1F
100
AcDbEntity
  8
D-B
  6
Continuous
 62
     7
370
     9
100
AcDbLine
 10
501.2812846415753
 20
453.1370891286094
 30
0.0
 11
501.2812846415753
 21
442.0121947029338
 31
0.0
  0
LINE
  5
184
330
1F
100
AcDbEntity
  8
D-B
  6
Continuous
 62
     7
370
     9
100
AcDbLine
 10
447.5314166094807
 20
415.6370891286094
 30
0.0
 11
501.2812846415753
 21
415.6370891286094
 31
0.0
  0
LINE
  5
185
330
1F
100
AcDbEntity
  8
D-B
  6
Continuous
 62
     7
370
     9
100
AcDbLine
 10
448.4021573453336
 20
410.6369489127099
 30
0.0
 11
447.5314166094807
 21
411.507689648563
 31
0.0
  0
LINE
  5
186
330
1F
100
AcDbEntity
  8
D-B
  6
Continuous
 62
     7
370
     9
100
AcDbLine
 10
453.7055350638727
 20
410.6369489127099
 30
0.0
 11
448.7055185678844
 21
415.6370891286094
 31
0.0
  0
LINE
  5
187
330
1F
100
AcDbEntity
  8
D-B
  6
Continuous
 62
     7
370
     9
100
AcDbLine
 10
458.7815155854096
 20
410.8644698296229
 30
0.0
 11
454.0088962864232
 21
415.6370891286094
 31
0.0
  0
LINE
  5
188
330
1F
100
AcDbEntity
  8
D-B
  6
Continuous
 62
     7
370
     9
100
AcDbLine
 10
400.6722527581292
 20
410.6369489127099
 30
0.0
 11
395.6724837019638
 21
415.6370891286094
 31
0.0
  0
LINE
  5
189
330
1F
100
AcDbEntity
  8
D-B
  6
Continuous
 62
     7
370
     9
100
AcDbLine
 10
405.9758779164909
 20
410.6369489127099
 30
0.0
 11
400.97561398068
 21
415.6370891286094
 31
0.0
  0
LINE
  5
18A
330
1F
100
AcDbEntity
  8
D-B
  6
Continuous
 62
     7
370
     9
100
AcDbLine
 10
411.279008195207
 20
410.6369489127099
 30
0.0
 11
406.2787442593961
 21
415.6370891286094
 31
0.0
  0
LINE
  5
18B
330
1F
100
AcDbEntity
  8
D-B
  6
Continuous
 62
     7
370
     9
100
AcDbLine
 10
416.5821384739232
 20
410.6369489127099
 30
0.0
 11
411.5823694177575
 21
415.6370891286094
 31
0.0
  0
LINE
  5
18C
330
1F
100
AcDbEntity
  8
D-B
  6
Continuous
 62
     7
370
     9
100
AcDbLine
 10
421.8857636322846
 20
410.6369489127099
 30
0.0
 11
416.885499696474
 21
415.6370891286094
 31
0.0
  0
LINE
  5
18D
330
1F
100
AcDbEntity
  8
D-B
  6
Continuous
 62
     7
370
     9
100
AcDbLine
 10
427.1888939110011
 20
410.6369489127099
 30
0.0
 11
422.1888774150128
 21
415.6370891286094
 31
0.0
  0
LINE
  5
18E
330
1F
100
AcDbEntity
  8
D-B
  6
Continuous
 62
     7
370
     9
100
AcDbLine
 10
432.4922716295399
 20
410.6369489127099
 30
0.0
 11
427.4922551335516
 21
415.6370891286094
 31
0.0
  0
LINE
  5
18F
330
1F
100
AcDbEntity
  8
D-B
  6
Continuous
 62
     7
370
     9
100
AcDbLine
 10
437.5313836175044
 20
410.9010909233729
 30
0.0
 11
432.7953854122677
 21
415.6370891286094
 31
0.0
  0
LINE
  5
190
330
1F
100
AcDbEntity
  8
D-A
  6
Continuous
 62
     2
370
     9
100
AcDbLine
 10
442.5314001134925
 20
437.6369637590992
 30
0.0
 11
447.5314166094807
 21
425.5657975917112
 31
0.0
  0
LINE
  5
191
330
1F
100
AcDbEntity
  8
D-A
  6
Continuous
 62
     2
370
     9
100
AcDbLine
 10
447.5314166094807
 20
397.6369555111052
 30
0.0
 11
447.5314166094807
 21
425.5657975917112
 31
0.0
  0
LINE
  5
192
330
1F
100
AcDbEntity
  8
D-A
  6
Continuous
 62
     2
370
     9
100
AcDbLine
 10
437.5313836175044
 20
397.6369555111052
 30
0.0
 11
437.5313836175044
 21
425.5657975917112
 31
0.0
  0
LINE
  5
193
330
1F
100
AcDbEntity
  8
D-A
  6
Continuous
 62
     2
370
     9
100
AcDbLine
 10
442.5314001134925
 20
437.6369637590992
 30
0.0
 11
437.5313836175044
 21
425.5657975917112
 31
0.0
  0
LINE
  5
194
330
1F
100
AcDbEntity
  8
D-A
  6
Continuous
 62
     2
370
     9
100
AcDbLine
 10
447.8986173062711
 20
429.252589089019
 30
0.0
 11
438.7195896457982
 21
433.0073646775958
 31
0.0
  0
LINE
  5
195
330
1F
100
AcDbEntity
  8
D-A
  6
Continuous
 62
     2
370
     9
100
AcDbLine
 10
449.2813110351562
 20
425.2613847499143
 30
0.0
 11
437.5063921954182
 21
430.0782957771525
 31
0.0
  0
LINE
  5
196
330
1F
100
AcDbEntity
  8
D-A
  6
Continuous
 62
     2
370
     9
100
AcDbLine
 10
449.2813110351562
 20
421.8358278453535
 30
0.0
 11
436.293194745038
 21
427.1489794368865
 31
0.0
  0
LINE
  5
197
330
1F
100
AcDbEntity
  8
D-A
  6
Continuous
 62
     2
370
     9
100
AcDbLine
 10
449.2813110351562
 20
417.8295915370237
 30
0.0
 11
435.781241752006
 21
423.3522627983729
 31
0.0
  0
LINE
  5
198
330
1F
100
AcDbEntity
  8
D-A
  6
Continuous
 62
     2
370
     9
100
AcDbLine
 10
446.1902927707982
 20
433.3769160527015
 30
0.0
 11
439.9330345360011
 21
435.9365572979507
 31
0.0
  0
LINE
  5
199
330
1F
100
AcDbEntity
  8
D-B
  6
Continuous
 62
     7
370
     9
100
AcDbLine
 10
501.2812846415753
 20
423.1369901526804
 30
0.0
 11
447.5314166094807
 21
423.1369901526804
 31
0.0
  0
LINE
  5
19A
330
1F
100
AcDbEntity
  8
D-B
  6
Continuous
 62
     7
370
     9
100
AcDbLine
 10
501.2812846415753
 20
430.637138616574
 30
0.0
 11
445.430899955131
 21
430.637138616574
 31
0.0
  0
LINE
  5
19B
330
1F
100
AcDbEntity
  8
D-A
  6
Continuous
 62
     2
370
     9
100
AcDbLine
 10
443.8564403637037
 20
391.1760543022792
 30
0.0
 11
443.8564403637037
 21
394.6369951014768
 31
0.0
  0
LINE
  5
19C
330
1F
100
AcDbEntity
  8
D-1
  6
Continuous
 62
     2
370
     9
100
AcDbLine
 10
495.6564825934333
 20
369.3868746807632
 30
0.0
 11
469.4065815693625
 21
369.3868746807632
 31
0.0
  0
LINE
  5
19D
330
1F
100
AcDbEntity
  8
D-1
  6
Continuous
 62
     2
370
     9
100
AcDbLine
 10
476.281449601457
 20
369.3868746807632
 30
0.0
 11
476.281449601457
 21
364.3871056245976
 31
0.0
  0
LINE
  5
19E
330
1F
100
AcDbEntity
  8
D-1
  6
Continuous
 62
     2
370
     9
100
AcDbLine
 10
488.7816145613388
 20
369.3868746807632
 30
0.0
 11
488.7816145613388
 21
364.3871056245976
 31
0.0
  0
LINE
  5
19F
330
1F
100
AcDbEntity
  8
D-6
  6
Continuous
 62
     6
370
     9
100
AcDbLine
 10
644.4064166094807
 20
306.2621303685798
 30
0.0
 11
535.0315815693625
 21
415.6370891286094
 31
0.0
  0
LINE
  5
1A0
330
1F
100
AcDbEntity
  8
D-6
  6
Continuous
 62
     6
370
     9
100
AcDbLine
 10
644.4064166094807
 20
415.6370891286094
 30
0.0
 11
535.0315815693625
 21
306.2621303685798
 31
0.0
  0
LINE
  5
1A1
330
1F
100
AcDbEntity
  8
D-6
  6
Continuous
 62
     6
370
     9
100
AcDbLine
 10
644.4064166094807
 20
415.6370891286094
 30
0.0
 11
644.4064166094807
 21
306.2621303685798
 31
0.0
  0
LINE
  5
1A2
330
1F
100
AcDbEntity
  8
D-6
  6
Continuous
 62
     6
370
     9
100
AcDbLine
 10
597.1498644029773
 20
379.1879660553409
 30
0.0
 11
605.7315723316092
 21
366.3152804424819
 31
0.0
  0
LINE
  5
1A3
330
1F
100
AcDbEntity
  8
D-6
  6
Continuous
 62
     6
370
     9
100
AcDbLine
 10
605.7315723316092
 20
366.3152804424819
 30
0.0
 11
600.2705754460516
 21
356.5634295926086
 31
0.0
  0
LINE
  5
1A4
330
1F
100
AcDbEntity
  8
D-6
  6
Continuous
 62
     6
370
     9
100
AcDbLine
 10
600.2705754460516
 20
356.5634295926086
 30
0.0
 11
587.3977661132812
 21
348.7617757048341
 31
0.0
  0
LINE
  5
1A5
330
1F
100
AcDbEntity
  8
D-6
  6
Continuous
 62
     6
370
     9
100
AcDbLine
 10
587.3977661132812
 20
348.7617757048341
 30
0.0
 11
571.4047406170821
 21
359.2939280353872
 31
0.0
  0
LINE
  5
1A6
330
1F
100
AcDbEntity
  8
D-6
  6
Continuous
 62
     6
370
     9
100
AcDbLine
 10
571.4047406170821
 20
359.2939280353872
 30
0.0
 11
581.5465566274283
 21
379.5780549357252
 31
0.0
  0
LINE
  5
1A7
330
1F
100
AcDbEntity
  8
D-6
  6
Continuous
 62
     6
370
     9
100
AcDbLine
 10
581.5465566274283
 20
379.5780549357252
 30
0.0
 11
597.1498644029773
 21
379.1879660553409
 31
0.0
  0
LINE
  5
1A8
330
1F
100
AcDbEntity
  8
D-6
  6
Continuous
 62
     6
370
     9
100
AcDbLine
 10
600.6605406065245
 20
394.4010612305942
 30
0.0
 11
626.4056643924198
 21
384.2589977804253
 31
0.0
  0
LINE
  5
1A9
330
1F
100
AcDbEntity
  8
D-6
  6
Continuous
 62
     6
370
     9
100
AcDbLine
 10
626.4056643924198
 20
384.2589977804253
 30
0.0
 11
624.0653785499367
 21
351.4922741476128
 31
0.0
  0
LINE
  5
1AA
330
1F
100
AcDbEntity
  8
D-6
  6
Continuous
 62
     6
370
     9
100
AcDbLine
 10
624.0653785499367
 20
351.4922741476128
 30
0.0
 11
586.6175883525127
 21
328.4776488044963
 31
0.0
  0
LINE
  5
1AB
330
1F
100
AcDbEntity
  8
D-6
  6
Continuous
 62
     6
370
     9
100
AcDbLine
 10
586.6175883525127
 20
328.4776488044963
 30
0.0
 11
556.191398002006
 21
349.1518645852184
 31
0.0
  0
LINE
  5
1AC
330
1F
100
AcDbEntity
  8
D-6
  6
Continuous
 62
     6
370
     9
100
AcDbLine
 10
556.191398002006
 20
349.1518645852184
 30
0.0
 11
553.4608995592273
 21
377.6276105338036
 31
0.0
  0
LINE
  5
1AD
330
1F
100
AcDbEntity
  8
D-6
  6
Continuous
 62
     6
370
     9
100
AcDbLine
 10
553.4608995592273
 20
377.6276105338036
 30
0.0
 11
572.5746360985011
 21
399.4720929556786
 31
0.0
  0
LINE
  5
1AE
330
1F
100
AcDbEntity
  8
D-6
  6
Continuous
 62
     6
370
     9
100
AcDbLine
 10
572.5746360985011
 20
399.4720929556786
 30
0.0
 11
583.1069121489654
 21
401.0324484772159
 31
0.0
  0
LINE
  5
1AF
330
1F
100
AcDbEntity
  8
D-6
  6
Continuous
 62
     6
370
     9
100
AcDbLine
 10
583.1069121489654
 20
401.0324484772159
 30
0.0
 11
600.6605406065245
 21
394.4010612305942
 31
0.0
  0
LINE
  5
1B0
330
1F
100
AcDbEntity
  8
D-6
  6
Continuous
 62
     6
370
     9
100
AcDbLine
 10
613.5331024994721
 20
409.2240675254633
 30
0.0
 11
636.5477278425888
 21
385.4292644215781
 31
0.0
  0
LINE
  5
1B1
330
1F
100
AcDbEntity
  8
D-6
  6
Continuous
 62
     6
370
     9
100
AcDbLine
 10
636.5477278425888
 20
385.4292644215781
 30
0.0
 11
640.0584040461359
 21
350.3221312263713
 31
0.0
  0
LINE
  5
1B2
330
1F
100
AcDbEntity
  8
D-6
  6
Continuous
 62
     6
370
     9
100
AcDbLine
 10
640.0584040461359
 20
350.3221312263713
 30
0.0
 11
612.7529247387037
 21
325.7470266418063
 31
0.0
  0
LINE
  5
1B3
330
1F
100
AcDbEntity
  8
D-6
  6
Continuous
 62
     6
370
     9
100
AcDbLine
 10
612.7529247387037
 20
325.7470266418063
 30
0.0
 11
572.1846709380279
 21
317.1653187131745
 31
0.0
  0
LINE
  5
1B4
330
1F
100
AcDbEntity
  8
D-6
  6
Continuous
 62
     6
370
     9
100
AcDbLine
 10
572.1846709380279
 20
317.1653187131745
 30
0.0
 11
546.0495819916596
 21
333.1585916491964
 31
0.0
  0
LINE
  5
1B5
330
1F
100
AcDbEntity
  8
D-6
  6
Continuous
 62
     6
370
     9
100
AcDbLine
 10
546.0495819916596
 20
333.1585916491964
 30
0.0
 11
542.1484457479943
 21
359.6840169157716
 31
0.0
  0
LINE
  5
1B6
330
1F
100
AcDbEntity
  8
D-6
  6
Continuous
 62
     6
370
     9
100
AcDbLine
 10
542.1484457479943
 20
359.6840169157716
 30
0.0
 11
539.418194745038
 21
391.28035018752
 31
0.0
  0
LINE
  5
1B7
330
1F
100
AcDbEntity
  8
D-6
  6
Continuous
 62
     6
370
     9
100
AcDbLine
 10
539.418194745038
 20
391.28035018752
 30
0.0
 11
560.8722171267948
 21
405.713391321916
 31
0.0
  0
LINE
  5
1B8
330
1F
100
AcDbEntity
  8
D-6
  6
Continuous
 62
     6
370
     9
100
AcDbLine
 10
560.8722171267948
 20
405.713391321916
 30
0.0
 11
589.7380519557644
 21
410.0041215663206
 31
0.0
  0
LINE
  5
1B9
330
1F
100
AcDbEntity
  8
D-6
  6
Continuous
 62
     6
370
     9
100
AcDbLine
 10
589.7380519557644
 20
410.0041215663206
 30
0.0
 11
613.5331024994721
 21
409.2240675254633
 31
0.0
  0
LINE
  5
1BA
330
1F
100
AcDbEntity
  8
D-6
  6
Continuous
 62
     6
370
     9
100
AcDbLine
 10
643.5690802496833
 20
332.3784138884279
 30
0.0
 11
610.4123914563979
 21
311.3141092273214
 31
0.0
  0
LINE
  5
1BB
330
1F
100
AcDbEntity
  8
D-6
  6
Continuous
 62
     6
370
     9
100
AcDbLine
 10
622.9860460436023
 20
415.6370891286094
 30
0.0
 11
638.1080833641261
 21
405.713391321916
 31
0.0
  0
LINE
  5
1BC
330
1F
100
AcDbEntity
  8
D-6
  6
Continuous
 62
     6
370
     9
100
AcDbLine
 10
535.0315815693625
 20
403.2972651737952
 30
0.0
 11
550.6618602855787
 21
415.6370891286094
 31
0.0
  0
LINE
  5
1BD
330
1F
100
AcDbEntity
  8
D-6
  6
Continuous
 62
     6
370
     9
100
AcDbLine
 10
638.1080833641261
 20
405.713391321916
 30
0.0
 11
644.4064166094807
 21
392.2420250581913
 31
0.0
  0
LINE
  5
1BE
330
1F
100
AcDbEntity
  8
D-6
  6
Continuous
 62
     6
370
     9
100
AcDbLine
 10
644.4064166094807
 20
336.6023353807208
 30
0.0
 11
643.5690802496833
 21
332.3784138884279
 31
0.0
  0
LINE
  5
1BF
330
1F
100
AcDbEntity
  8
D-6
  6
Continuous
 62
     6
370
     9
100
AcDbLine
 10
610.4123914563979
 20
311.3141092273214
 30
0.0
 11
601.3484233134502
 21
306.2621303685798
 31
0.0
  0
LINE
  5
1C0
330
1F
100
AcDbEntity
  8
D-6
  6
Continuous
 62
     6
370
     9
100
AcDbLine
 10
565.4067993164062
 20
306.2621303685798
 30
0.0
 11
550.3401885161529
 21
312.09428698809
 31
0.0
  0
LINE
  5
1C1
330
1F
100
AcDbEntity
  8
D-6
  6
Continuous
 62
     6
370
     9
100
AcDbLine
 10
550.3401885161529
 20
312.09428698809
 30
0.0
 11
535.0315815693625
 21
326.9012096944878
 31
0.0
  0
LINE
  5
1C2
330
1F
100
AcDbEntity
  8
D-A
  6
Continuous
 62
     2
370
     9
100
AcDbLine
 10
487.6567531276393
 20
369.3868746807632
 30
0.0
 11
487.6567531276393
 21
348.5535550940866
 31
0.0
  0
LINE
  5
1C3
330
1F
100
AcDbEntity
  8
D-A
  6
Continuous
 62
     2
370
     9
100
AcDbLine
 10
477.4068059148016
 20
369.3868746807632
 30
0.0
 11
477.4068059148016
 21
348.5535550940866
 31
0.0
  0
LINE
  5
1C4
330
1F
100
AcDbEntity
  8
D-A
  6
Continuous
 62
     2
370
     9
100
AcDbLine
 10
487.6567531276393
 20
348.5535550940866
 30
0.0
 11
482.5317795212206
 21
306.8869159207336
 31
0.0
  0
LINE
  5
1C5
330
1F
100
AcDbEntity
  8
D-A
  6
Continuous
 62
     2
370
     9
100
AcDbLine
 10
477.4068059148016
 20
348.5535550940866
 30
0.0
 11
482.5317795212206
 21
306.8869159207336
 31
0.0
  0
LINE
  5
1C6
330
1F
100
AcDbEntity
  8
D-A
  6
Continuous
 62
     2
370
     9
100
AcDbLine
 10
484.2257525469807
 20
310.4219649468104
 30
0.0
 11
480.7623373495568
 21
311.032646429074
 31
0.0
  0
LINE
  5
1C7
330
1F
100
AcDbEntity
  8
D-A
  6
Continuous
 62
     2
370
     9
100
AcDbLine
 10
484.7676457585516
 20
314.8263937897159
 30
0.0
 11
480.1964424751901
 21
315.6324290119497
 31
0.0
  0
LINE
  5
1C8
330
1F
100
AcDbEntity
  8
D-A
  6
Continuous
 62
     2
370
     9
100
AcDbLine
 10
488.5599084802575
 20
345.6577668497877
 30
0.0
 11
476.2359206740922
 21
347.8307833721694
 31
0.0
  0
LINE
  5
1C9
330
1F
100
AcDbEntity
  8
D-A
  6
Continuous
 62
     2
370
     9
100
AcDbLine
 10
488.0180152686867
 20
341.2533380068822
 30
0.0
 11
476.8015681086359
 21
343.2310007892935
 31
0.0
  0
LINE
  5
1CA
330
1F
100
AcDbEntity
  8
D-A
  6
Continuous
 62
     2
370
     9
100
AcDbLine
 10
487.4766169367609
 20
336.8487854440655
 30
0.0
 11
477.3677104228253
 21
338.6313419263291
 31
0.0
  0
LINE
  5
1CB
330
1F
100
AcDbEntity
  8
D-A
  6
Continuous
 62
     2
370
     9
100
AcDbLine
 10
486.9347237251901
 20
332.4443566011601
 30
0.0
 11
477.9333578573693
 21
334.0315593434531
 31
0.0
  0
LINE
  5
1CC
330
1F
100
AcDbEntity
  8
D-A
  6
Continuous
 62
     2
370
     9
100
AcDbLine
 10
486.3928305136193
 20
328.0399277582547
 30
0.0
 11
478.499005291913
 21
329.4317767605773
 31
0.0
  0
LINE
  5
1CD
330
1F
100
AcDbEntity
  8
D-A
  6
Continuous
 62
     2
370
     9
100
AcDbLine
 10
485.8509373020482
 20
323.6353751954379
 30
0.0
 11
479.0649001662797
 21
324.8318704577901
 31
0.0
  0
LINE
  5
1CE
330
1F
100
AcDbEntity
  8
D-A
  6
Continuous
 62
     2
370
     9
100
AcDbLine
 10
485.3092915303
 20
319.2309463525326
 30
0.0
 11
479.6307950406461
 21
320.232335314737
 31
0.0
  0
LINE
  5
1CF
330
1F
100
AcDbEntity
  8
D-1
  6
JWW_CENTER1
 62
     2
370
     9
100
AcDbLine
 10
482.5317795212206
 20
392.3468158230773
 30
0.0
 11
482.5317795212206
 21
305.3378189111263
 31
0.0
  0
LINE
  5
1D0
330
1F
100
AcDbEntity
  8
D-6
  6
Continuous
 62
     6
370
     9
100
AcDbLine
 10
482.3890067435602
 20
308.0464189296018
 30
0.0
 11
450.0315485773859
 21
340.4040008156871
 31
0.0
  0
LINE
  5
1D1
330
1F
100
AcDbEntity
  8
D-6
  6
Continuous
 62
     6
370
     9
100
AcDbLine
 10
477.4305601377745
 20
348.3603045926086
 30
0.0
 11
472.6537343618034
 21
353.1368829287572
 31
0.0
  0
LINE
  5
1D2
330
1F
100
AcDbEntity
  8
D-1
  6
Continuous
 62
     2
370
     9
100
AcDbLine
 10
477.4068059148016
 20
364.3871056245976
 30
0.0
 11
473.1562846415753
 21
364.3871056245976
 31
0.0
  0
LINE
  5
1D3
330
1F
100
AcDbEntity
  8
D-1
  6
Continuous
 62
     2
370
     9
100
AcDbLine
 10
491.9065320813979
 20
364.3871056245976
 30
0.0
 11
487.6567531276393
 21
364.3871056245976
 31
0.0
  0
LINE
  5
1D4
330
1F
100
AcDbEntity
  8
D-3
  6
Continuous
 62
     3
370
     9
100
AcDbLine
 10
432.5313671215162
 20
410.6369489127099
 30
0.0
 11
432.5313671215162
 21
402.6370957270047
 31
0.0
  0
LINE
  5
1D5
330
1F
100
AcDbEntity
  8
D-3
  6
Continuous
 62
     3
370
     9
100
AcDbLine
 10
452.5314331054688
 20
410.6369489127099
 30
0.0
 11
452.5314331054688
 21
402.6370957270047
 31
0.0
  0
LINE
  5
1D6
330
1F
100
AcDbEntity
  8
D-0
  6
Continuous
 62
     4
370
     9
100
AcDbLine
 10
488.7813671215162
 20
458.1369819046864
 30
0.0
 11
482.5317795212206
 21
454.3870313926508
 31
0.0
  0
LINE
  5
1D7
330
1F
100
AcDbEntity
  8
D-0
  6
Continuous
 62
     4
370
     9
100
AcDbLine
 10
482.5317795212206
 20
454.3870313926508
 30
0.0
 11
482.5317795212206
 21
453.1370891286094
 31
0.0
  0
LINE
  5
1D8
330
1F
100
AcDbEntity
  8
D-0
  6
Continuous
 62
     4
370
     9
100
AcDbLine
 10
488.7813671215162
 20
458.1369819046864
 30
0.0
 11
506.2815485773859
 21
458.1369819046864
 31
0.0
  0
LINE
  5
1D9
330
1F
100
AcDbEntity
  8
D-0
  6
Continuous
 62
     4
370
     9
100
AcDbLine
 10
506.2815485773859
 20
458.1369819046864
 30
0.0
 11
512.5313836175044
 21
453.1370891286094
 31
0.0
  0
LINE
  5
1DA
330
1F
100
AcDbEntity
  8
D-0
  6
Continuous
 62
     4
370
     9
100
AcDbLine
 10
510.0314990894216
 20
447.5119159207336
 30
0.0
 11
505.0314825934333
 21
442.5118994247455
 31
0.0
  0
LINE
  5
1DB
330
1F
100
AcDbEntity
  8
D-0
  6
Continuous
 62
     4
370
     9
100
AcDbLine
 10
510.0314990894216
 20
426.2619076727395
 30
0.0
 11
505.0314825934333
 21
431.262047888639
 31
0.0
  0
LINE
  5
1DC
330
1F
100
AcDbEntity
  8
D-A
  6
Continuous
 62
     2
370
     9
100
AcDbLine
 10
510.0314990894216
 20
447.1370445894413
 30
0.0
 11
509.2815089870143
 21
447.1370445894413
 31
0.0
  0
LINE
  5
1DD
330
1F
100
AcDbEntity
  8
D-A
  6
Continuous
 62
     2
370
     9
100
AcDbLine
 10
504.1565353805956
 20
442.0119472631111
 30
0.0
 11
509.2815089870143
 21
447.1370445894413
 31
0.0
  0
LINE
  5
1DE
330
1F
100
AcDbEntity
  8
D-A
  6
Continuous
 62
     2
370
     9
100
AcDbLine
 10
504.1565353805956
 20
431.761876330362
 30
0.0
 11
504.1565353805956
 21
442.0119472631111
 31
0.0
  0
LINE
  5
1DF
330
1F
100
AcDbEntity
  8
D-A
  6
Continuous
 62
     2
370
     9
100
AcDbLine
 10
504.1565353805956
 20
431.761876330362
 30
0.0
 11
509.2815089870143
 21
426.6369645838987
 31
0.0
  0
LINE
  5
1E0
330
1F
100
AcDbEntity
  8
D-A
  6
Continuous
 62
     2
370
     9
100
AcDbLine
 10
509.2815089870143
 20
447.1370445894413
 30
0.0
 11
509.2815089870143
 21
426.6369645838987
 31
0.0
  0
LINE
  5
1E1
330
1F
100
AcDbEntity
  8
D-A
  6
Continuous
 62
     2
370
     9
100
AcDbLine
 10
510.0314990894216
 20
426.6369645838987
 30
0.0
 11
509.2815089870143
 21
426.6369645838987
 31
0.0
  0
LINE
  5
1E2
330
1F
100
AcDbEntity
  8
D-A
  6
Continuous
 62
     2
370
     9
100
AcDbLine
 10
504.1565353805956
 20
442.0119472631111
 30
0.0
 11
489.1983032226562
 21
442.0119472631111
 31
0.0
  0
LINE
  5
1E3
330
1F
100
AcDbEntity
  8
D-A
  6
Continuous
 62
     2
370
     9
100
AcDbLine
 10
504.1565353805956
 20
431.761876330362
 30
0.0
 11
489.1983032226562
 21
431.761876330362
 31
0.0
  0
LINE
  5
1E4
330
1F
100
AcDbEntity
  8
D-A
  6
Continuous
 62
     2
370
     9
100
AcDbLine
 10
489.1983032226562
 20
431.761876330362
 30
0.0
 11
447.5314166094807
 21
436.8869736566922
 31
0.0
  0
LINE
  5
1E5
330
1F
100
AcDbEntity
  8
D-A
  6
Continuous
 62
     2
370
     9
100
AcDbLine
 10
447.5314166094807
 20
436.8869736566922
 30
0.0
 11
489.1983032226562
 21
442.0119472631111
 31
0.0
  0
LINE
  5
1E6
330
1F
100
AcDbEntity
  8
D-A
  6
Continuous
 62
     2
370
     9
100
AcDbLine
 10
451.0665893554688
 20
435.1925676112425
 30
0.0
 11
451.677518277555
 21
438.6562921084447
 31
0.0
  0
LINE
  5
1E7
330
1F
100
AcDbEntity
  8
D-A
  6
Continuous
 62
     2
370
     9
100
AcDbLine
 10
455.4712656381969
 20
434.6510455594055
 30
0.0
 11
456.2771771405195
 21
439.2221869828114
 31
0.0
  0
LINE
  5
1E8
330
1F
100
AcDbEntity
  8
D-A
  6
Continuous
 62
     2
370
     9
100
AcDbLine
 10
486.3025149783573
 20
430.8587209777438
 30
0.0
 11
488.4755315007391
 21
443.1825850639979
 31
0.0
  0
LINE
  5
1E9
330
1F
100
AcDbEntity
  8
D-A
  6
Continuous
 62
     2
370
     9
100
AcDbLine
 10
481.8978386956294
 20
431.4004286094477
 30
0.0
 11
483.8758726377745
 21
442.6168139095427
 31
0.0
  0
LINE
  5
1EA
330
1F
100
AcDbEntity
  8
D-A
  6
Continuous
 62
     2
370
     9
100
AcDbLine
 10
477.493409852724
 20
431.9421362411517
 30
0.0
 11
479.2759663349875
 21
442.0510427550875
 31
0.0
  0
LINE
  5
1EB
330
1F
100
AcDbEntity
  8
D-A
  6
Continuous
 62
     2
370
     9
100
AcDbLine
 10
473.0889810098185
 20
432.4840294527226
 30
0.0
 11
474.6760600322003
 21
441.4852716006322
 31
0.0
  0
LINE
  5
1EC
330
1F
100
AcDbEntity
  8
D-A
  6
Continuous
 62
     2
370
     9
100
AcDbLine
 10
468.684552166913
 20
433.0257989443822
 30
0.0
 11
470.0766486090583
 21
440.9193767262656
 31
0.0
  0
LINE
  5
1ED
330
1F
100
AcDbEntity
  8
D-A
  6
Continuous
 62
     2
370
     9
100
AcDbLine
 10
464.2801233240075
 20
433.5674447161305
 30
0.0
 11
465.4767423062711
 21
440.3537911516773
 31
0.0
  0
LINE
  5
1EE
330
1F
100
AcDbEntity
  8
D-A
  6
Continuous
 62
     2
370
     9
100
AcDbLine
 10
459.8756944811024
 20
434.1092142077901
 30
0.0
 11
460.8768360034841
 21
439.7878344173552
 31
0.0
  0
LINE
  5
1EF
330
1F
100
AcDbEntity
  8
D-0
  6
JWW_CENTER1
 62
     4
370
     9
100
AcDbLine
 10
445.3351407437711
 20
436.8869736566922
 30
0.0
 11
511.3570342192779
 21
436.8869736566922
 31
0.0
  0
LINE
  5
1F0
330
1F
100
AcDbEntity
  8
D-0
  6
Continuous
 62
     4
370
     9
100
AcDbLine
 10
510.0314990894216
 20
448.1370726326213
 30
0.0
 11
510.0314990894216
 21
401.8869819046864
 31
0.0
  0
LINE
  5
1F1
330
1F
100
AcDbEntity
  8
D-0
  6
Continuous
 62
     4
370
     9
100
AcDbLine
 10
512.5313836175044
 20
453.1370891286094
 30
0.0
 11
512.5313836175044
 21
449.387138616574
 31
0.0
  0
LINE
  5
1F2
330
1F
100
AcDbEntity
  8
D-0
  6
Continuous
 62
     4
370
     9
100
AcDbLine
 10
512.5313836175044
 20
449.387138616574
 30
0.0
 11
510.0314990894216
 21
448.1370726326213
 31
0.0
  0
LINE
  5
1F3
330
1F
100
AcDbEntity
  8
D-0
  6
Continuous
 62
     4
370
     9
100
AcDbLine
 10
482.5317795212206
 20
453.1370891286094
 30
0.0
 11
505.0314825934333
 21
453.1370891286094
 31
0.0
  0
LINE
  5
1F4
330
1F
100
AcDbEntity
  8
D-0
  6
Continuous
 62
     4
370
     9
100
AcDbLine
 10
505.0314825934333
 20
453.1370891286094
 30
0.0
 11
505.0314825934333
 21
442.886894475949
 31
0.0
  0
LINE
  5
1F5
330
1F
100
AcDbEntity
  8
D-0
  6
Continuous
 62
     4
370
     9
100
AcDbLine
 10
505.0314825934333
 20
430.8870528374354
 30
0.0
 11
505.0314825934333
 21
408.8871782069456
 31
0.0
  0
LINE
  5
1F6
330
1F
100
AcDbEntity
  8
D-6
  6
Continuous
 62
     6
370
     9
100
AcDbLine
 10
532.5314496014571
 20
353.1368829287572
 30
0.0
 11
535.0315815693625
 21
353.1368829287572
 31
0.0
  0
LINE
  5
1F7
330
1F
100
AcDbEntity
  8
D-6
  6
Continuous
 62
     6
370
     9
100
AcDbLine
 10
535.0315815693625
 20
326.1147222182421
 30
0.0
 11
508.0091734190245
 21
353.1368829287572
 31
0.0
  0
LINE
  5
1F8
330
1F
100
AcDbEntity
  8
D-6
  6
Continuous
 62
     6
370
     9
100
AcDbLine
 10
535.0315815693625
 20
306.2621303685798
 30
0.0
 11
669.3416698558912
 21
306.2621303685798
 31
0.0
  0
LINE
  5
1F9
330
1F
100
AcDbEntity
  8
D-6
  6
Continuous
 62
     6
370
     9
100
AcDbLine
 10
535.0315815693625
 20
290.759406880932
 30
0.0
 11
486.5155606656461
 21
339.275304064737
 31
0.0
  0
LINE
  5
1FA
330
1F
100
AcDbEntity
  8
D-6
  6
Continuous
 62
     6
370
     9
100
AcDbLine
 10
535.0315815693625
 20
281.262047888639
 30
0.0
 11
644.3415873759502
 21
281.262047888639
 31
0.0
  0
LINE
  5
1FB
330
1F
100
AcDbEntity
  8
D-6
  6
Continuous
 62
     6
370
     9
100
AcDbLine
 10
535.0315815693625
 20
255.4039678237108
 30
0.0
 11
482.6431274414062
 21
307.7924219516668
 31
0.0
  0
LINE
  5
1FC
330
1F
100
AcDbEntity
  8
D-6
  6
Continuous
 62
     6
370
     9
100
AcDbLine
 10
535.0315815693625
 20
256.2620891286094
 30
0.0
 11
619.3417523358321
 21
256.2620891286094
 31
0.0
  0
LINE
  5
1FD
330
1F
100
AcDbEntity
  8
D-4
  6
Continuous
 62
     7
370
     9
100
AcDbLine
 10
389.9976988096495
 20
480.4689207771525
 30
0.0
 11
317.9946899414062
 21
480.4689207771525
 31
0.0
  0
LINE
  5
1FE
330
1F
100
AcDbEntity
  8
D-4
  6
Continuous
 62
     7
370
     9
100
AcDbLine
 10
350.4563202729096
 20
415.6369035487425
 30
0.0
 11
355.5164646457982
 21
427.066953135683
 31
0.0
  0
LINE
  5
1FF
330
1F
100
AcDbEntity
  8
D-4
  6
Continuous
 62
     7
370
     9
100
AcDbLine
 10
350.4563202729096
 20
415.6369035487425
 30
0.0
 11
358.3021421690245
 21
425.3679075935588
 31
0.0
  0
LINE
  5
200
330
1F
100
AcDbEntity
  8
D-4
  6
Continuous
 62
     7
370
     9
100
AcDbLine
 10
384.9400288349875
 20
410.6369489127099
 30
0.0
 11
390.0001732078761
 21
422.0669366396947
 31
0.0
  0
LINE
  5
201
330
1F
100
AcDbEntity
  8
D-4
  6
Continuous
 62
     7
370
     9
100
AcDbLine
 10
384.9400288349875
 20
410.6369489127099
 30
0.0
 11
392.786098170925
 21
420.3678910975706
 31
0.0
  0
LINE
  5
202
330
1F
100
AcDbEntity
  8
D-4
  6
Continuous
 62
     7
370
     9
100
AcDbLine
 10
262.9784248970651
 20
458.1369819046864
 30
0.0
 11
368.4664752032307
 21
631.0956858478872
 31
0.0
  0
LINE
  5
203
330
1F
100
AcDbEntity
  8
D-4
  6
Continuous
 62
     7
370
     9
100
AcDbLine
 10
262.9784248970651
 20
458.1369819046864
 30
0.0
 11
268.0385692699537
 21
469.5669696316711
 31
0.0
  0
LINE
  5
204
330
1F
100
AcDbEntity
  8
D-4
  6
Continuous
 62
     7
370
     9
100
AcDbLine
 10
262.9784248970651
 20
458.1369819046864
 30
0.0
 11
270.82424679318
 21
467.8679240895469
 31
0.0
  0
LINE
  5
205
330
1F
100
AcDbEntity
  8
D-4
  6
Continuous
 62
     7
370
     9
100
AcDbLine
 10
131.3632037188556
 20
402.6370957270047
 30
0.0
 11
91.3979607659418
 21
402.6370957270047
 31
0.0
  0
LINE
  5
206
330
1F
100
AcDbEntity
  8
D-4
  6
Continuous
 62
     7
370
     9
100
AcDbLine
 10
131.3632037188556
 20
410.6370726326213
 30
0.0
 11
91.3979607659418
 21
410.6370726326213
 31
0.0
  0
LINE
  5
207
330
1F
100
AcDbEntity
  8
D-4
  6
Continuous
 62
     7
370
     9
100
AcDbLine
 10
92.89818841057865
 20
410.6370726326213
 30
0.0
 11
92.89818841057865
 21
415.5738682539262
 31
0.0
  0
LINE
  5
208
330
1F
100
AcDbEntity
  8
D-4
  6
Continuous
 62
     7
370
     9
100
AcDbLine
 10
131.3632037188556
 20
415.5738682539262
 30
0.0
 11
91.3979607659418
 21
415.5738682539262
 31
0.0
  0
LINE
  5
209
330
1F
100
AcDbEntity
  8
D-4
  6
Continuous
 62
     7
370
     9
100
AcDbLine
 10
92.89818841057865
 20
415.5738682539262
 30
0.0
 11
92.89818841057865
 21
453.1370891286094
 31
0.0
  0
LINE
  5
20A
330
1F
100
AcDbEntity
  8
D-4
  6
Continuous
 62
     7
370
     9
100
AcDbLine
 10
131.3632037188556
 20
453.1370891286094
 30
0.0
 11
91.3979607659418
 21
453.1370891286094
 31
0.0
  0
LINE
  5
20B
330
1F
100
AcDbEntity
  8
D-4
  6
Continuous
 62
     7
370
     9
100
AcDbLine
 10
92.89818841057865
 20
361.7304679688754
 30
0.0
 11
92.89818841057865
 21
410.6370726326213
 31
0.0
  0
LINE
  5
20C
330
1F
100
AcDbEntity
  8
D-4
  6
Continuous
 62
     7
370
     9
100
AcDbLine
 10
53.13460891311237
 20
398.3286735352818
 30
0.0
 11
53.13460891311237
 21
381.6323622031977
 31
0.0
  0
LINE
  5
20D
330
1F
100
AcDbEntity
  8
D-4
  6
Continuous
 62
     7
370
     9
100
AcDbLine
 10
91.11315753008881
 20
413.2068589105984
 30
0.0
 11
53.13460891311237
 21
398.3286735352818
 31
0.0
  0
LINE
  5
20E
330
1F
100
AcDbEntity
  8
D-4
  6
Continuous
 62
     7
370
     9
100
AcDbLine
 10
138.8631047429266
 20
129.2773330712826
 30
0.0
 11
450.0315485773859
 21
129.2773330712826
 31
0.0
  0
LINE
  5
20F
330
1F
100
AcDbEntity
  8
D-4
  6
Continuous
 62
     7
370
     9
100
AcDbLine
 10
450.0315485773859
 20
129.2773330712826
 30
0.0
 11
532.5314496014571
 21
129.2773330712826
 31
0.0
  0
LINE
  5
210
330
1F
100
AcDbEntity
  8
D-4
  6
Continuous
 62
     7
370
     9
100
AcDbLine
 10
532.5314496014571
 20
345.636858184775
 30
0.0
 11
532.5314496014571
 21
127.7773528664684
 31
0.0
  0
LINE
  5
211
330
1F
100
AcDbEntity
  8
D-6
  6
Continuous
 62
     6
370
     9
100
AcDbLine
 10
450.0315485773859
 20
353.1368829287572
 30
0.0
 11
450.0315485773859
 21
103.2428284128155
 31
0.0
  0
LINE
  5
212
330
1F
100
AcDbEntity
  8
D-4
  6
Continuous
 62
     7
370
     9
100
AcDbLine
 10
683.7990838128169
 20
353.1368829287572
 30
0.0
 11
683.7990838128169
 21
453.1370891286094
 31
0.0
  0
LINE
  5
213
330
1F
100
AcDbEntity
  8
D-4
  6
Continuous
 62
     7
370
     9
100
AcDbLine
 10
542.5314825934333
 20
353.1368829287572
 30
0.0
 11
727.287869840055
 21
353.1368829287572
 31
0.0
  0
LINE
  5
214
330
1F
100
AcDbEntity
  8
D-4
  6
Continuous
 62
     7
370
     9
100
AcDbLine
 10
691.2992322767104
 20
453.1370891286094
 30
0.0
 11
685.299064017631
 21
453.1370891286094
 31
0.0
  0
LINE
  5
215
330
1F
100
AcDbEntity
  8
D-6
  6
Continuous
 62
     6
370
     9
100
AcDbLine
 10
535.0315815693625
 20
453.1370891286094
 30
0.0
 11
535.0315815693625
 21
103.2428284128155
 31
0.0
  0
LINE
  5
216
330
1F
100
AcDbEntity
  8
D-6
  6
Continuous
 62
     6
370
     9
100
AcDbLine
 10
535.0315815693625
 20
220.0486524864008
 30
0.0
 11
450.0315485773859
 21
305.0486854783771
 31
0.0
  0
LINE
  5
217
330
1F
100
AcDbEntity
  8
D-6
  6
Continuous
 62
     6
370
     9
100
AcDbLine
 10
535.0315815693625
 20
184.6930897092682
 30
0.0
 11
450.0315485773859
 21
269.6934938609785
 31
0.0
  0
LINE
  5
218
330
1F
100
AcDbEntity
  8
D-6
  6
Continuous
 62
     6
370
     9
100
AcDbLine
 10
535.0315815693625
 20
149.3381455316922
 30
0.0
 11
450.0315485773859
 21
234.3381785236685
 31
0.0
  0
LINE
  5
219
330
1F
100
AcDbEntity
  8
D-6
  6
Continuous
 62
     6
370
     9
100
AcDbLine
 10
475.0610763962206
 20
103.2428284128155
 30
0.0
 11
450.0315485773859
 21
128.2724799515613
 31
0.0
  0
LINE
  5
21A
330
1F
100
AcDbEntity
  8
D-6
  6
Continuous
 62
     6
370
     9
100
AcDbLine
 10
535.0315815693625
 20
113.9825827545596
 30
0.0
 11
526.600811932538
 21
122.4132286714726
 31
0.0
  0
LINE
  5
21B
330
1F
100
AcDbEntity
  8
D-6
  6
Continuous
 62
     6
370
     9
100
AcDbLine
 10
492.8242863835516
 20
156.1898779403704
 30
0.0
 11
450.0315485773859
 21
198.9829869062699
 31
0.0
  0
LINE
  5
21C
330
1F
100
AcDbEntity
  8
D-6
  6
Continuous
 62
     6
370
     9
100
AcDbLine
 10
510.4162680136193
 20
103.2428284128155
 30
0.0
 11
491.245867754962
 21
122.4132286714726
 31
0.0
  0
LINE
  5
21D
330
1F
100
AcDbEntity
  8
D-6
  6
Continuous
 62
     6
370
     9
100
AcDbLine
 10
457.4690947661529
 20
156.1898779403704
 30
0.0
 11
450.0315485773859
 21
163.6276715689599
 31
0.0
  0
LINE
  5
21E
330
1F
100
AcDbEntity
  8
D-4
  6
Continuous
 62
     7
370
     9
100
AcDbLine
 10
308.5306116052575
 20
58.06068795937378
 30
0.0
 11
573.7945144240922
 21
58.06068795937378
 31
0.0
  0
LINE
  5
21F
330
1F
100
AcDbEntity
  8
D-4
  6
Continuous
 62
     7
370
     9
100
AcDbLine
 10
384.9400288349875
 20
410.6369489127099
 30
0.0
 11
520.6672049857477
 21
633.1749226774904
 31
0.0
  0
LINE
  5
220
330
1F
100
AcDbEntity
  8
D-4
  6
Continuous
 62
     7
370
     9
100
AcDbLine
 10
350.4563202729096
 20
415.6370891286094
 30
0.0
 11
389.9976988096495
 21
480.4689207771525
 31
0.0
  0
LINE
  5
221
330
1F
100
AcDbEntity
  8
D-4
  6
Continuous
 62
     7
370
     9
100
AcDbLine
 10
473.1085287558068
 20
378.0902611421757
 30
0.0
 11
468.0483843829182
 21
366.6602115552353
 31
0.0
  0
LINE
  5
222
330
1F
100
AcDbEntity
  8
D-4
  6
Continuous
 62
     7
370
     9
100
AcDbLine
 10
473.1085287558068
 20
378.0902611421757
 30
0.0
 11
465.2627068596919
 21
368.3592570973594
 31
0.0
  0
LINE
  5
223
330
1F
100
AcDbEntity
  8
D-4
  6
Continuous
 62
     7
370
     9
100
AcDbLine
 10
636.502198915224
 20
191.5529876320934
 30
0.0
 11
829.0024628510346
 21
191.5529876320934
 31
0.0
  0
LINE
  5
224
330
1F
100
AcDbEntity
  8
D-4
  6
Continuous
 62
     7
370
     9
100
AcDbLine
 10
486.9624369853253
 20
345.9612517922496
 30
0.0
 11
496.756105165224
 21
338.1939920398214
 31
0.0
  0
LINE
  5
225
330
1F
100
AcDbEntity
  8
D-4
  6
Continuous
 62
     7
370
     9
100
AcDbLine
 10
486.9624369853253
 20
345.9612517922496
 30
0.0
 11
494.4118602855787
 21
335.923731667144
 31
0.0
  0
LINE
  5
226
330
1F
100
AcDbEntity
  8
D-4
  6
Continuous
 62
     7
370
     9
100
AcDbLine
 10
636.502198915224
 20
191.5529876320934
 30
0.0
 11
486.9624369853253
 21
345.9612517922496
 31
0.0
  0
LINE
  5
227
330
1F
100
AcDbEntity
  8
D-6
  6
Continuous
 62
     6
370
     9
100
AcDbLine
 10
535.0315815693625
 20
445.6370643846271
 30
0.0
 11
677.5490013328761
 21
445.6370643846271
 31
0.0
  0
LINE
  5
228
330
1F
100
AcDbEntity
  8
D-6
  6
Continuous
 62
     6
370
     9
100
AcDbLine
 10
535.0315815693625
 20
438.137039640645
 30
0.0
 11
677.5490013328761
 21
438.137039640645
 31
0.0
  0
LINE
  5
229
330
1F
100
AcDbEntity
  8
D-6
  6
Continuous
 62
     6
370
     9
100
AcDbLine
 10
535.0315815693625
 20
430.637138616574
 30
0.0
 11
677.5490013328761
 21
430.637138616574
 31
0.0
  0
LINE
  5
22A
330
1F
100
AcDbEntity
  8
D-6
  6
Continuous
 62
     6
370
     9
100
AcDbLine
 10
535.0315815693625
 20
423.1369901526804
 30
0.0
 11
677.5490013328761
 21
423.1369901526804
 31
0.0
  0
LINE
  5
22B
330
1F
100
AcDbEntity
  8
D-6
  6
Continuous
 62
     6
370
     9
100
AcDbLine
 10
535.0315815693625
 20
415.6370891286094
 30
0.0
 11
677.5490013328761
 21
415.6370891286094
 31
0.0
  0
LINE
  5
22C
330
1F
100
AcDbEntity
  8
D-4
  6
Continuous
 62
     7
370
     9
100
AcDbLine
 10
546.281185665646
 20
458.1369819046864
 30
0.0
 11
727.287869840055
 21
458.1369819046864
 31
0.0
  0
LINE
  5
22D
330
1F
100
AcDbEntity
  8
D-4
  6
Continuous
 62
     7
370
     9
100
AcDbLine
 10
683.7990838128169
 20
453.1370891286094
 30
0.0
 11
683.7990838128169
 21
476.6806170926086
 31
0.0
  0
LINE
  5
22E
330
1F
100
AcDbEntity
  8
D-4
  6
Continuous
 62
     7
370
     9
100
AcDbLine
 10
725.7878896352408
 20
353.1368829287572
 30
0.0
 11
725.7878896352408
 21
458.1369819046864
 31
0.0
  0
LINE
  5
22F
330
1F
100
AcDbEntity
  8
D-6
  6
Continuous
 62
     6
370
     9
100
AcDbLine
 10
690.0491662927578
 20
445.6370643846271
 30
0.0
 11
719.5378071553
 21
445.6370643846271
 31
0.0
  0
LINE
  5
230
330
1F
100
AcDbEntity
  8
D-6
  6
Continuous
 62
     6
370
     9
100
AcDbLine
 10
732.0377246753592
 20
445.6370643846271
 30
0.0
 11
771.5897431244721
 21
445.6370643846271
 31
0.0
  0
LINE
  5
231
330
1F
100
AcDbEntity
  8
D-6
  6
Continuous
 62
     6
370
     9
100
AcDbLine
 10
690.0491662927578
 20
438.137039640645
 30
0.0
 11
719.5378071553
 21
438.137039640645
 31
0.0
  0
LINE
  5
232
330
1F
100
AcDbEntity
  8
D-6
  6
Continuous
 62
     6
370
     9
100
AcDbLine
 10
732.0377246753592
 20
438.137039640645
 30
0.0
 11
771.5897431244721
 21
438.137039640645
 31
0.0
  0
LINE
  5
233
330
1F
100
AcDbEntity
  8
D-6
  6
Continuous
 62
     6
370
     9
100
AcDbLine
 10
690.0491662927578
 20
430.637138616574
 30
0.0
 11
719.5378071553
 21
430.637138616574
 31
0.0
  0
LINE
  5
234
330
1F
100
AcDbEntity
  8
D-6
  6
Continuous
 62
     6
370
     9
100
AcDbLine
 10
732.0377246753592
 20
430.637138616574
 30
0.0
 11
771.5897431244721
 21
430.637138616574
 31
0.0
  0
LINE
  5
235
330
1F
100
AcDbEntity
  8
D-6
  6
Continuous
 62
     6
370
     9
100
AcDbLine
 10
690.0491662927578
 20
423.1369901526804
 30
0.0
 11
719.5378071553
 21
423.1369901526804
 31
0.0
  0
LINE
  5
236
330
1F
100
AcDbEntity
  8
D-6
  6
Continuous
 62
     6
370
     9
100
AcDbLine
 10
732.0377246753592
 20
423.1369901526804
 30
0.0
 11
771.5897431244721
 21
423.1369901526804
 31
0.0
  0
LINE
  5
237
330
1F
100
AcDbEntity
  8
D-6
  6
Continuous
 62
     6
370
     9
100
AcDbLine
 10
690.0491662927578
 20
415.6370891286094
 30
0.0
 11
719.5378071553
 21
415.6370891286094
 31
0.0
  0
LINE
  5
238
330
1F
100
AcDbEntity
  8
D-6
  6
Continuous
 62
     6
370
     9
100
AcDbLine
 10
732.0377246753592
 20
415.6370891286094
 30
0.0
 11
771.5897431244721
 21
415.6370891286094
 31
0.0
  0
LINE
  5
239
330
1F
100
AcDbEntity
  8
D-6
  6
Continuous
 62
     6
370
     9
100
AcDbLine
 10
545.0313671215162
 20
453.1370891286094
 30
0.0
 11
719.5378071553
 21
453.1370891286094
 31
0.0
  0
LINE
  5
23A
330
1F
100
AcDbEntity
  8
D-6
  6
Continuous
 62
     6
370
     9
100
AcDbLine
 10
732.0377246753592
 20
453.1370891286094
 30
0.0
 11
771.5897431244721
 21
453.1370891286094
 31
0.0
  0
LINE
  5
23B
330
1F
100
AcDbEntity
  8
D-4
  6
Continuous
 62
     7
370
     9
100
AcDbLine
 10
509.406466097445
 20
455.6369117967365
 30
0.0
 11
514.4666104703335
 21
467.0668995237214
 31
0.0
  0
LINE
  5
23C
330
1F
100
AcDbEntity
  8
D-4
  6
Continuous
 62
     7
370
     9
100
AcDbLine
 10
509.406466097445
 20
455.6369117967365
 30
0.0
 11
517.2525354333825
 21
465.3677921216416
 31
0.0
  0
LINE
  5
23D
330
1F
100
AcDbEntity
  8
D-5
  6
Continuous
 62
     7
370
     9
100
AcDbLine
 10
509.3079850480365
 20
388.1371839805414
 30
0.0
 11
511.8078695761193
 21
390.6370685086242
 31
0.0
  0
LINE
  5
23E
330
1F
100
AcDbEntity
  8
D-5
  6
Continuous
 62
     7
370
     9
100
AcDbLine
 10
495.3768755938557
 20
379.1558607383539
 30
0.0
 11
496.2815155854096
 21
380.0604388699523
 31
0.0
  0
LINE
  5
23F
330
1F
100
AcDbEntity
  8
D-5
  6
Continuous
 62
     7
370
     9
100
AcDbLine
 10
504.3581988360432
 20
388.1371839805414
 30
0.0
 11
506.8580833641261
 21
390.6370685086242
 31
0.0
  0
LINE
  5
240
330
1F
100
AcDbEntity
  8
D-5
  6
Continuous
 62
     7
370
     9
100
AcDbLine
 10
488.6630908862966
 20
377.3918003828325
 30
0.0
 11
493.1583301441091
 21
381.8871633605563
 31
0.0
  0
LINE
  5
241
330
1F
100
AcDbEntity
  8
D-5
  6
Continuous
 62
     7
370
     9
100
AcDbLine
 10
499.40841262405
 20
388.1371839805414
 30
0.0
 11
501.9082971521325
 21
390.6370685086242
 31
0.0
  0
LINE
  5
242
330
1F
100
AcDbEntity
  8
D-5
  6
Continuous
 62
     7
370
     9
100
AcDbLine
 10
483.2149608715162
 20
376.8933328601339
 30
0.0
 11
485.3181993639149
 21
378.9966950724439
 31
0.0
  0
LINE
  5
243
330
1F
100
AcDbEntity
  8
D-5
  6
Continuous
 62
     7
370
     9
100
AcDbLine
 10
490.0314331054688
 20
383.7099288139979
 30
0.0
 11
493.1563506255279
 21
386.8349081940128
 31
0.0
  0
LINE
  5
244
330
1F
100
AcDbEntity
  8
D-5
  6
Continuous
 62
     7
370
     9
100
AcDbLine
 10
494.4586264120568
 20
388.1371839805414
 30
0.0
 11
496.9585109401393
 21
390.6370685086242
 31
0.0
  0
LINE
  5
245
330
1F
100
AcDbEntity
  8
D-5
  6
Continuous
 62
     7
370
     9
100
AcDbLine
 10
478.478715226457
 20
377.1067497071567
 30
0.0
 11
480.3275855811867
 21
378.9556200618865
 31
0.0
  0
LINE
  5
246
330
1F
100
AcDbEntity
  8
D-5
  6
Continuous
 62
     7
370
     9
100
AcDbLine
 10
489.5090876398859
 20
388.1371839805414
 30
0.0
 11
492.0087247281461
 21
390.6370685086242
 31
0.0
  0
LINE
  5
247
330
1F
100
AcDbEntity
  8
D-5
  6
Continuous
 62
     7
370
     9
100
AcDbLine
 10
474.2380915461359
 20
377.8157885189177
 30
0.0
 11
475.9286004143794
 21
379.5065448269836
 31
0.0
  0
LINE
  5
248
330
1F
100
AcDbEntity
  8
D-5
  6
Continuous
 62
     7
370
     9
100
AcDbLine
 10
484.5593014278927
 20
388.1371839805414
 30
0.0
 11
487.0591859559755
 21
390.6370685086242
 31
0.0
  0
LINE
  5
249
330
1F
100
AcDbEntity
  8
D-5
  6
Continuous
 62
     7
370
     9
100
AcDbLine
 10
470.3822367900128
 20
378.909843694699
 30
0.0
 11
475.0313836175044
 21
383.5591142421018
 31
0.0
  0
LINE
  5
24A
330
1F
100
AcDbEntity
  8
D-5
  6
Continuous
 62
     7
370
     9
100
AcDbLine
 10
479.6095152158995
 20
388.1371839805414
 30
0.0
 11
482.1093997439823
 21
390.6370685086242
 31
0.0
  0
LINE
  5
24B
330
1F
100
AcDbEntity
  8
D-5
  6
Continuous
 62
     7
370
     9
100
AcDbLine
 10
471.9062186576227
 20
385.3837354942133
 30
0.0
 11
477.1596135319891
 21
390.6370685086242
 31
0.0
  0
LINE
  5
24C
330
1F
100
AcDbEntity
  8
D-5
  6
Continuous
 62
     7
370
     9
100
AcDbLine
 10
469.709942791913
 20
388.1371839805414
 30
0.0
 11
472.2098273199958
 21
390.6370685086242
 31
0.0
  0
LINE
  5
24D
330
1F
100
AcDbEntity
  8
D-5
  6
Continuous
 62
     7
370
     9
100
AcDbLine
 10
464.7601565799198
 20
388.1371839805414
 30
0.0
 11
467.2600411080026
 21
390.6370685086242
 31
0.0
  0
LINE
  5
24E
330
1F
100
AcDbEntity
  8
D-5
  6
Continuous
 62
     7
370
     9
100
AcDbLine
 10
459.8103703679266
 20
388.1371839805414
 30
0.0
 11
462.3102548960094
 21
390.6370685086242
 31
0.0
  0
LINE
  5
24F
330
1F
100
AcDbEntity
  8
D-5
  6
Continuous
 62
     7
370
     9
100
AcDbLine
 10
454.8605841559333
 20
388.1371839805414
 30
0.0
 11
457.3604686840162
 21
390.6370685086242
 31
0.0
  0
ARC
  5
250
330
1F
100
AcDbEntity
  8
D-5
  6
Continuous
 62
     7
370
     9
100
AcDbCircle
 10
482.5317795212206
 20
414.3870231446568
 30
0.0
 40
37.50000386624723
100
AcDbArc
 50
248.4898071289062
 51
291.5101928710938
  0
ARC
  5
251
330
1F
100
AcDbEntity
  8
D-5
  6
Continuous
 62
     7
370
     9
100
AcDbCircle
 10
482.5317795212206
 20
414.3870231446568
 30
0.0
 40
35.50000190734863
100
AcDbArc
 50
257.8034057617188
 51
282.1965942382812
  0
ARC
  5
252
330
1F
100
AcDbEntity
  8
D-1
  6
Continuous
 62
     2
370
     9
100
AcDbCircle
 10
496.2815155854096
 20
385.6372994524586
 30
0.0
 40
2.500003415185052
100
AcDbArc
 50
90.0
 51
270.0
  0
ARC
  5
253
330
1F
100
AcDbEntity
  8
D-1
  6
Continuous
 62
     2
370
     9
100
AcDbCircle
 10
468.7815485773859
 20
385.6372994524586
 30
0.0
 40
2.500003415185052
100
AcDbArc
 50
270.0
 51
90.0
  0
ARC
  5
254
330
1F
100
AcDbEntity
  8
D-1
  6
Continuous
 62
     2
370
     9
100
AcDbCircle
 10
504.406449601457
 20
380.6370973766035
 30
0.0
 40
2.500000032218727
100
AcDbArc
 50
90.0
 51
180.0
  0
ARC
  5
255
330
1F
100
AcDbEntity
  8
D-1
  6
Continuous
 62
     2
370
     9
100
AcDbCircle
 10
460.6561196816935
 20
380.6370973766035
 30
0.0
 40
2.500000032218727
100
AcDbArc
 50
0.0
 51
90.0
  0
ARC
  5
256
330
1F
100
AcDbEntity
  8
D-1
  6
Continuous
 62
     2
370
     9
100
AcDbCircle
 10
456.2811361776818
 20
380.6370973766035
 30
0.0
 40
2.500000032218727
100
AcDbArc
 50
90.0
 51
180.0
  0
ARC
  5
257
330
1F
100
AcDbEntity
  8
D-1
  6
Continuous
 62
     2
370
     9
100
AcDbCircle
 10
456.2811361776818
 20
359.3870891286094
 30
0.0
 40
2.500000032218727
100
AcDbArc
 50
180.0
 51
270.0
  0
ARC
  5
258
330
1F
100
AcDbEntity
  8
D-1
  6
Continuous
 62
     2
370
     9
100
AcDbCircle
 10
466.9066970412797
 20
359.3870891286094
 30
0.0
 40
2.500000032218727
100
AcDbArc
 50
270.0
 51
0.0
  0
ARC
  5
259
330
1F
100
AcDbEntity
  8
D-1
  6
Continuous
 62
     2
370
     9
100
AcDbCircle
 10
466.9066970412797
 20
361.8870973766035
 30
0.0
 40
2.500000032218727
100
AcDbArc
 50
0.0
 51
90.0
  0
ARC
  5
25A
330
1F
100
AcDbEntity
  8
D-1
  6
Continuous
 62
     2
370
     9
100
AcDbCircle
 10
465.6563836175044
 20
366.8869901526804
 30
0.0
 40
2.500000032218727
100
AcDbArc
 50
180.0
 51
270.0
  0
ARC
  5
25B
330
1F
100
AcDbEntity
  8
D-1
  6
Continuous
 62
     2
370
     9
100
AcDbCircle
 10
512.5313836175044
 20
380.6370973766035
 30
0.0
 40
2.500000032218727
100
AcDbArc
 50
0.0
 51
90.0
  0
ARC
  5
25C
330
1F
100
AcDbEntity
  8
D-1
  6
Continuous
 62
     2
370
     9
100
AcDbCircle
 10
498.1566145613388
 20
368.1371798565444
 30
0.0
 40
3.75000004832809
100
AcDbArc
 50
270.0
 51
0.0
  0
ARC
  5
25D
330
1F
100
AcDbEntity
  8
D-1
  6
Continuous
 62
     2
370
     9
100
AcDbCircle
 10
530.0313176335516
 20
360.6370313926508
 30
0.0
 40
2.500003415185052
100
AcDbArc
 50
0.0
 51
180.0
  0
ARC
  5
25E
330
1F
100
AcDbEntity
  8
D-1
  6
Continuous
 62
     2
370
     9
100
AcDbCircle
 10
512.5313836175044
 20
359.3870891286094
 30
0.0
 40
2.500000032218727
100
AcDbArc
 50
270.0
 51
0.0
  0
ARC
  5
25F
330
1F
100
AcDbEntity
  8
D-1
  6
Continuous
 62
     2
370
     9
100
AcDbCircle
 10
498.1566145613388
 20
359.3870891286094
 30
0.0
 40
2.500000032218727
100
AcDbArc
 50
180.0
 51
270.0
  0
ARC
  5
260
330
1F
100
AcDbEntity
  8
D-1
  6
Continuous
 62
     2
370
     9
100
AcDbCircle
 10
530.0313176335516
 20
400.6367922008223
 30
0.0
 40
2.500003415185052
100
AcDbArc
 50
180.0
 51
0.0
  0
ARC
  5
261
330
1F
100
AcDbEntity
  8
D-1
  6
Continuous
 62
     2
370
     9
100
AcDbCircle
 10
525.0315485773859
 20
448.1369489127099
 30
0.0
 40
5.000000064437454
100
AcDbArc
 50
90.0
 51
180.0
  0
ARC
  5
262
330
1F
100
AcDbEntity
  8
D-1
  6
Continuous
 62
     2
370
     9
100
AcDbCircle
 10
495.6564825934333
 20
371.8868829287572
 30
0.0
 40
2.500000032218727
100
AcDbArc
 50
270.0
 51
0.0
  0
ARC
  5
263
330
1F
100
AcDbEntity
  8
D-1
  6
Continuous
 62
     2
370
     9
100
AcDbCircle
 10
469.4065815693625
 20
371.8868829287572
 30
0.0
 40
2.500000032218727
100
AcDbArc
 50
180.0
 51
270.0
  0
ARC
  5
264
330
1F
100
AcDbEntity
  8
D-A
  6
Continuous
 62
     2
370
     9
100
AcDbCircle
 10
437.5313836175044
 20
395.5661934954273
 30
0.0
 40
3.75000004832809
100
AcDbArc
 50
180.0
 51
254.5338897705078
  0
ARC
  5
265
330
1F
100
AcDbEntity
  8
D-A
  6
Continuous
 62
     2
370
     9
100
AcDbCircle
 10
447.5314166094807
 20
395.5661934954273
 30
0.0
 40
3.75000004832809
100
AcDbArc
 50
285.4661102294922
 51
0.0
  0
ARC
  5
266
330
1F
100
AcDbEntity
  8
D-A
  6
Continuous
 62
     2
370
     9
100
AcDbCircle
 10
442.5314001134925
 20
413.636971182294
 30
0.0
 40
22.50000077324945
100
AcDbArc
 50
254.5339660644532
 51
266.6239776611328
  0
ARC
  5
267
330
1F
100
AcDbEntity
  8
D-A
  6
Continuous
 62
     2
370
     9
100
AcDbCircle
 10
442.5314001134925
 20
413.636971182294
 30
0.0
 40
22.50000077324945
100
AcDbArc
 50
273.3760375976562
 51
285.4660339355468
  0
ARC
  5
268
330
1F
100
AcDbEntity
  8
D-A
  6
Continuous
 62
     2
370
     9
100
AcDbCircle
 10
482.5317795212206
 20
366.7877667838036
 30
0.0
 40
9.849169125428071
100
AcDbArc
 50
15.30145263671878
 51
164.6985473632813
  0
TEXT
  5
269
330
1F
100
AcDbEntity
  8
D-4
  6
Continuous
 62
     7
370
     9
100
AcDbText
 10
319.0383787412901
 20
486.0949681404338
 30
0.0
 40
11.43
  1
接着シロ
 41
1.125
  7
ＭＳ ゴシック
100
AcDbText
  0
TEXT
  5
26A
330
1F
100
AcDbEntity
  8
D-4
  6
Continuous
 62
     2
370
     9
100
AcDbText
 10
87.57805644267319
 20
365.1912768001677
 30
0.0
 40
15.24
  1
3.2
 50
90.0
 41
1.083333333333333
  7
ＭＳ ゴシック
100
AcDbText
  0
TEXT
  5
26B
330
1F
100
AcDbEntity
  8
D-4
  6
Continuous
 62
     2
370
     9
100
AcDbText
 10
49.32583938186237
 20
385.093041128583
 30
0.0
 40
15.24
  1
2
 50
90.0
 41
0.9999999999999998
  7
ＭＳ ゴシック
100
AcDbText
  0
TEXT
  5
26C
330
1F
100
AcDbEntity
  8
D-4
  6
Continuous
 62
     2
370
     9
100
AcDbText
 10
87.07798056112762
 20
423.7304786912678
 30
0.0
 40
15.24
  1
15
 50
90.0
 41
1.0625
  7
ＭＳ ゴシック
100
AcDbText
  0
TEXT
  5
26D
330
1F
100
AcDbEntity
  8
D-4
  6
Continuous
 62
     2
370
     9
100
AcDbText
 10
480.6566846692886
 20
135.0972934809109
 30
0.0
 40
15.24
  1
33
 41
1.0625
  7
ＭＳ ゴシック
100
AcDbText
  0
TEXT
  5
26E
330
1F
100
AcDbEntity
  8
D-4
  6
Continuous
 62
     2
370
     9
100
AcDbText
 10
677.9791234031885
 20
383.9252674436432
 30
0.0
 40
15.24
  1
40
 50
90.0
 41
1.0625
  7
ＭＳ ゴシック
100
AcDbText
  0
TEXT
  5
26F
330
1F
100
AcDbEntity
  8
D-4
  6
Continuous
 62
     2
370
     9
100
AcDbText
 10
320.2543433936867
 20
64.24067331093627
 30
0.0
 40
15.24
  1
断面詳細図　Ｓ＝１：２
 41
1.113636363636364
  7
ＭＳ ゴシック
100
AcDbText
  0
TEXT
  5
270
330
1F
100
AcDbEntity
  8
D-4
  6
Continuous
 62
     7
370
     9
100
AcDbText
 10
241.1626248746306
 20
29.91503485020991
 30
0.0
 40
11.43
  1
処理：陽極酸化塗装複合皮膜処理（アルミ材のみ）
 41
1.159420289855073
  7
ＭＳ ゴシック
100
AcDbText
  0
TEXT
  5
271
330
1F
100
AcDbEntity
  8
D-4
  6
Continuous
 62
     7
370
     9
100
AcDbText
 10
639.1463449839
 20
197.9496863229718
 30
0.0
 40
11.43
  1
木ネジ　φ４．１×２５
 41
1.151515151515152
  7
ＭＳ ゴシック
100
AcDbText
  0
TEXT
  5
272
330
1F
100
AcDbEntity
  8
D-4
  6
Continuous
 62
     2
370
     9
100
AcDbText
 10
677.9791234031885
 20
463.5857779449893
 30
0.0
 40
15.24
  1
2
 50
90.0
 41
0.9999999999999998
  7
ＭＳ ゴシック
100
AcDbText
  0
TEXT
  5
273
330
1F
100
AcDbEntity
  8
D-4
  6
Continuous
 62
     2
370
     9
100
AcDbText
 10
719.9679292256125
 20
383.9252674436432
 30
0.0
 40
15.24
  1
42
 50
90.0
 41
1.0625
  7
ＭＳ ゴシック
100
AcDbText
  0
LWPOLYLINE
  5
274
330
1F
100
AcDbEntity
  8
D-4
  6
Continuous
 62
     7
370
     9
100
AcDbPolyline
 90
        4
 70
     1
 43
0.5
 10
93.14818841057865
 20
402.6370957270047
 42
0.4142135623731
 10
92.89818841057865
 20
402.8870957270047
 42
0.4142135623731
 10
92.64818841057865
 20
402.6370957270047
 42
0.4142135623731
 10
92.89818841057865
 20
402.3870957270047
 42
0.4142135623731
  0
LWPOLYLINE
  5
275
330
1F
100
AcDbEntity
  8
D-4
  6
Continuous
 62
     7
370
     9
100
AcDbPolyline
 90
        4
 70
     1
 43
0.5
 10
93.14818841057865
 20
410.6370726326213
 42
0.4142135623731
 10
92.89818841057865
 20
410.8870726326212
 42
0.4142135623731
 10
92.64818841057865
 20
410.6370726326213
 42
0.4142135623731
 10
92.89818841057865
 20
410.3870726326213
 42
0.4142135623731
  0
LWPOLYLINE
  5
276
330
1F
100
AcDbEntity
  8
D-4
  6
Continuous
 62
     7
370
     9
100
AcDbPolyline
 90
        4
 70
     1
 43
0.5
 10
93.14818841057865
 20
415.5738682539262
 42
0.4142135623731
 10
92.89818841057865
 20
415.8238682539262
 42
0.4142135623731
 10
92.64818841057865
 20
415.5738682539262
 42
0.4142135623731
 10
92.89818841057865
 20
415.3238682539262
 42
0.4142135623731
  0
LWPOLYLINE
  5
277
330
1F
100
AcDbEntity
  8
D-4
  6
Continuous
 62
     7
370
     9
100
AcDbPolyline
 90
        4
 70
     1
 43
0.5
 10
93.14818841057865
 20
453.1370891286094
 42
0.4142135623731
 10
92.89818841057865
 20
453.3870891286094
 42
0.4142135623731
 10
92.64818841057865
 20
453.1370891286094
 42
0.4142135623731
 10
92.89818841057865
 20
452.8870891286094
 42
0.4142135623731
  0
LWPOLYLINE
  5
278
330
1F
100
AcDbEntity
  8
D-4
  6
Continuous
 62
     7
370
     9
100
AcDbPolyline
 90
        4
 70
     1
 43
0.5
 10
450.2815485773859
 20
129.2773330712826
 42
0.4142135623731
 10
450.0315485773859
 20
129.5273330712826
 42
0.4142135623731
 10
449.7815485773859
 20
129.2773330712826
 42
0.4142135623731
 10
450.0315485773859
 20
129.0273330712826
 42
0.4142135623731
  0
LWPOLYLINE
  5
279
330
1F
100
AcDbEntity
  8
D-4
  6
Continuous
 62
     7
370
     9
100
AcDbPolyline
 90
        4
 70
     1
 43
0.5
 10
532.781449601457
 20
129.2773330712826
 42
0.4142135623731
 10
532.5314496014571
 20
129.5273330712826
 42
0.4142135623731
 10
532.2814496014571
 20
129.2773330712826
 42
0.4142135623731
 10
532.5314496014571
 20
129.0273330712826
 42
0.4142135623731
  0
LWPOLYLINE
  5
27A
330
1F
100
AcDbEntity
  8
D-4
  6
Continuous
 62
     7
370
     9
100
AcDbPolyline
 90
        4
 70
     1
 43
0.5
 10
684.049083812817
 20
353.1368829287572
 42
0.4142135623731
 10
683.7990838128169
 20
353.3868829287571
 42
0.4142135623731
 10
683.5490838128169
 20
353.1368829287572
 42
0.4142135623731
 10
683.7990838128169
 20
352.8868829287572
 42
0.4142135623731
  0
LWPOLYLINE
  5
27B
330
1F
100
AcDbEntity
  8
D-4
  6
Continuous
 62
     7
370
     9
100
AcDbPolyline
 90
        4
 70
     1
 43
0.5
 10
684.049083812817
 20
453.1370891286094
 42
0.4142135623731
 10
683.7990838128169
 20
453.3870891286094
 42
0.4142135623731
 10
683.5490838128169
 20
453.1370891286094
 42
0.4142135623731
 10
683.7990838128169
 20
452.8870891286094
 42
0.4142135623731
  0
LWPOLYLINE
  5
27C
330
1F
100
AcDbEntity
  8
D-4
  6
Continuous
 62
     7
370
     9
100
AcDbPolyline
 90
        4
 70
     1
 43
0.5
 10
684.049083812817
 20
458.1369819046864
 42
0.4142135623731
 10
683.7990838128169
 20
458.3869819046863
 42
0.4142135623731
 10
683.5490838128169
 20
458.1369819046864
 42
0.4142135623731
 10
683.7990838128169
 20
457.8869819046864
 42
0.4142135623731
  0
LWPOLYLINE
  5
27D
330
1F
100
AcDbEntity
  8
D-4
  6
Continuous
 62
     7
370
     9
100
AcDbPolyline
 90
        4
 70
     1
 43
0.5
 10
726.037889635241
 20
353.1368829287572
 42
0.4142135623731
 10
725.7878896352408
 20
353.3868829287571
 42
0.4142135623731
 10
725.5378896352408
 20
353.1368829287572
 42
0.4142135623731
 10
725.7878896352408
 20
352.8868829287572
 42
0.4142135623731
  0
LWPOLYLINE
  5
27E
330
1F
100
AcDbEntity
  8
D-4
  6
Continuous
 62
     7
370
     9
100
AcDbPolyline
 90
        4
 70
     1
 43
0.5
 10
726.037889635241
 20
458.1369819046864
 42
0.4142135623731
 10
725.7878896352408
 20
458.3869819046863
 42
0.4142135623731
 10
725.5378896352408
 20
458.1369819046864
 42
0.4142135623731
 10
725.7878896352408
 20
457.8869819046864
 42
0.4142135623731
  0
TEXT
  5
27F
330
1F
100
AcDbEntity
  8
D-4
  6
Continuous
 62
     2
370
     9
100
AcDbText
 10
139.8412261138092
 20
135.0972934809109
 30
0.0
 40
15.24
  1
□550
 41
1.1
  7
ＭＳ ゴシック
100
AcDbText
  0
TEXT
  5
280
330
1F
100
AcDbEntity
  8
D-4
  6
Continuous
 62
     7
370
     9
100
AcDbText
 10
587.963426444793
 20
581.0494404331189
 30
0.0
 40
11.43
  1
蓋フレーム（Ａ６０６３Ｓ－Ｔ５）
 50
0.0000255446035848
 41
1.15625
  7
ＭＳ ゴシック
100
AcDbText
  0
TEXT
  5
281
330
1F
100
AcDbEntity
  8
D-4
  6
Continuous
 62
     7
370
     9
100
AcDbText
 10
613.9493101210445
 20
542.1424357416489
 30
0.0
 40
11.43
  1
アルミ受枠（Ａ６０６３Ｓ－Ｔ５）
 41
1.15625
  7
ＭＳ ゴシック
100
AcDbText
  0
LINE
  5
282
330
1F
100
AcDbEntity
  8
D-4
  6
Continuous
 62
     7
370
     9
100
AcDbLine
 10
866.4034760178984
 20
577.1323362048563
 30
0.0
 11
583.506926281214
 21
577.1323362048563
 31
0.0
  0
LINE
  5
283
330
1F
100
AcDbEntity
  8
D-4
  6
Continuous
 62
     7
370
     9
100
AcDbLine
 10
526.4983718459672
 20
408.1369406647159
 30
0.0
 11
605.3620441453062
 21
537.4417514550673
 31
0.0
  0
LINE
  5
284
330
1F
100
AcDbEntity
  8
D-4
  6
Continuous
 62
     7
370
     9
100
AcDbLine
 10
878.7727453116063
 20
537.4417514550673
 30
0.0
 11
605.3620441453062
 21
537.4417514550673
 31
0.0
  0
LINE
  5
285
330
1F
100
AcDbEntity
  8
D-4
  6
Continuous
 62
     7
370
     9
100
AcDbLine
 10
509.406466097445
 20
455.6369117967365
 30
0.0
 11
583.506926281214
 21
577.1323362048563
 31
0.0
  0
LINE
  5
286
330
1F
100
AcDbEntity
  8
D-4
  6
Continuous
 62
     7
370
     9
100
AcDbLine
 10
138.8631047429266
 20
551.0717600050571
 30
0.0
 11
545.0316145613388
 21
551.0717600050571
 31
0.0
  0
LINE
  5
287
330
1F
100
AcDbEntity
  8
D-4
  6
Continuous
 62
     7
370
     9
100
AcDbLine
 10
512.5318784971495
 20
467.7226769136601
 30
0.0
 11
512.5318784971495
 21
552.5716783499157
 31
0.0
  0
LINE
  5
288
330
1F
100
AcDbEntity
  8
D-4
  6
Continuous
 62
     7
370
     9
100
AcDbLine
 10
515.0317630252323
 20
467.7226769136601
 30
0.0
 11
515.0317630252323
 21
552.5716783499157
 31
0.0
  0
LINE
  5
289
330
1F
100
AcDbEntity
  8
D-4
  6
Continuous
 62
     7
370
     9
100
AcDbLine
 10
545.0316145613388
 20
467.7226769136601
 30
0.0
 11
545.0316145613388
 21
593.5700444222867
 31
0.0
  0
LINE
  5
28A
330
1F
100
AcDbEntity
  8
D-4
  6
Continuous
 62
     7
370
     9
100
AcDbLine
 10
138.8631047429266
 20
592.0701260774283
 30
0.0
 11
545.0316145613388
 21
592.0701260774283
 31
0.0
  0
TEXT
  5
28B
330
1F
100
AcDbEntity
  8
D-4
  6
Continuous
 62
     2
370
     9
100
AcDbText
 10
497.7810174065668
 20
556.3917063930955
 30
0.0
 40
15.24
  1
1
 41
0.9999999999999998
  7
ＭＳ ゴシック
100
AcDbText
  0
TEXT
  5
28C
330
1F
100
AcDbEntity
  8
D-4
  6
Continuous
 62
     2
370
     9
100
AcDbText
 10
519.4067506532413
 20
556.3917063930955
 30
0.0
 40
15.24
  1
12
 41
1.0625
  7
ＭＳ ゴシック
100
AcDbText
  0
LWPOLYLINE
  5
28D
330
1F
100
AcDbEntity
  8
D-4
  6
Continuous
 62
     7
370
     9
100
AcDbPolyline
 90
        4
 70
     1
 43
0.5
 10
512.7818784971495
 20
551.0717600050571
 42
0.4142135623731
 10
512.5318784971495
 20
551.3217600050571
 42
0.4142135623731
 10
512.2818784971495
 20
551.0717600050571
 42
0.4142135623731
 10
512.5318784971495
 20
550.8217600050571
 42
0.4142135623731
  0
LWPOLYLINE
  5
28E
330
1F
100
AcDbEntity
  8
D-4
  6
Continuous
 62
     7
370
     9
100
AcDbPolyline
 90
        4
 70
     1
 43
0.5
 10
515.2817630252323
 20
551.0717600050571
 42
0.4142135623731
 10
515.0317630252323
 20
551.3217600050571
 42
0.4142135623731
 10
514.7817630252323
 20
551.0717600050571
 42
0.4142135623731
 10
515.0317630252323
 20
550.8217600050571
 42
0.4142135623731
  0
LWPOLYLINE
  5
28F
330
1F
100
AcDbEntity
  8
D-4
  6
Continuous
 62
     7
370
     9
100
AcDbPolyline
 90
        4
 70
     1
 43
0.5
 10
545.2816145613388
 20
551.0717600050571
 42
0.4142135623731
 10
545.0316145613388
 20
551.3217600050571
 42
0.4142135623731
 10
544.7816145613389
 20
551.0717600050571
 42
0.4142135623731
 10
545.0316145613388
 20
550.8217600050571
 42
0.4142135623731
  0
LWPOLYLINE
  5
290
330
1F
100
AcDbEntity
  8
D-4
  6
Continuous
 62
     7
370
     9
100
AcDbPolyline
 90
        4
 70
     1
 43
0.5
 10
545.2816145613388
 20
592.0701260774283
 42
0.4142135623731
 10
545.0316145613388
 20
592.3201260774283
 42
0.4142135623731
 10
544.7816145613389
 20
592.0701260774283
 42
0.4142135623731
 10
545.0316145613388
 20
591.8201260774283
 42
0.4142135623731
  0
TEXT
  5
291
330
1F
100
AcDbEntity
  8
D-4
  6
Continuous
 62
     2
370
     9
100
AcDbText
 10
139.8412261138092
 20
556.3917063930955
 30
0.0
 40
15.24
  1
□600
 41
1.1
  7
ＭＳ ゴシック
100
AcDbText
  0
TEXT
  5
292
330
1F
100
AcDbEntity
  8
D-4
  6
Continuous
 62
     2
370
     9
100
AcDbText
 10
139.0004148615257
 20
597.9993311686983
 30
0.0
 40
15.24
  1
□626
 50
0.0002181117649
 41
1.1
  7
ＭＳ ゴシック
100
AcDbText
  0
LINE
  5
293
330
1F
100
AcDbEntity
  8
D-4
  6
Continuous
 62
     7
370
     9
100
AcDbLine
 10
512.5318784971495
 20
516.5218257978246
 30
0.0
 11
275.0317135372677
 21
516.5218257978246
 31
0.0
  0
LWPOLYLINE
  5
294
330
1F
100
AcDbEntity
  8
D-4
  6
Continuous
 62
     7
370
     9
100
AcDbPolyline
 90
        4
 70
     1
 43
0.5
 10
512.7818784971495
 20
516.5218257978246
 42
0.4142135623731
 10
512.5318784971495
 20
516.7718257978245
 42
0.4142135623731
 10
512.2818784971495
 20
516.5218257978246
 42
0.4142135623731
 10
512.5318784971495
 20
516.2718257978246
 42
0.4142135623731
  0
LWPOLYLINE
  5
295
330
1F
100
AcDbEntity
  8
D-4
  6
Continuous
 62
     7
370
     9
100
AcDbPolyline
 90
        4
 70
     1
 43
0.5
 10
275.2817135372677
 20
516.5218257978246
 42
0.4142135623731
 10
275.0317135372677
 20
516.7718257978245
 42
0.4142135623731
 10
274.7817135372677
 20
516.5218257978246
 42
0.4142135623731
 10
275.0317135372677
 20
516.2718257978246
 42
0.4142135623731
  0
LINE
  5
296
330
1F
100
AcDbEntity
  8
D-4
  6
Continuous
 62
     7
370
     9
100
AcDbLine
 10
275.0317135372677
 20
518.0218257978245
 30
0.0
 11
275.0317135372677
 21
472.4079169632801
 31
0.0
  0
TEXT
  5
297
330
1F
100
AcDbEntity
  8
D-4
  6
Continuous
 62
     2
370
   211
100
AcDbText
 10
383.1567960172086
 20
522.3418257978245
 30
0.0
 40
15.24
  1
95
 41
1.0625
  7
ＭＳ ゴシック
100
AcDbText
  0
LINE
  5
298
330
1F
100
AcDbEntity
  8
D-2
  6
Continuous
 62
     3
370
     9
100
AcDbLine
 10
298.7816681733004
 20
359.3875840082553
 30
0.0
 11
251.2817589012353
 21
359.3875840082553
 31
0.0
  0
LINE
  5
299
330
1F
100
AcDbEntity
  8
D-2
  6
Continuous
 62
     3
370
     9
100
AcDbLine
 10
298.7816681733004
 20
359.3875840082553
 30
0.0
 11
298.7816681733004
 21
348.1372375925031
 31
0.0
  0
LINE
  5
29A
330
1F
100
AcDbEntity
  8
D-2
  6
Continuous
 62
     3
370
     9
100
AcDbLine
 10
298.7816681733004
 20
348.1372375925031
 30
0.0
 11
275.0314660974452
 21
348.1372375925031
 31
0.0
  0
LINE
  5
29B
330
1F
100
AcDbEntity
  8
D-2
  6
Continuous
 62
     3
370
     9
100
AcDbLine
 10
251.2817589012353
 20
359.3875840082553
 30
0.0
 11
251.2817589012353
 21
353.1375015283141
 31
0.0
  0
LINE
  5
29C
330
1F
100
AcDbEntity
  8
D-2
  6
Continuous
 62
     3
370
     9
100
AcDbLine
 10
298.7816681733004
 20
353.1375015283141
 30
0.0
 11
251.2817589012353
 21
353.1375015283141
 31
0.0
  0
LINE
  5
29D
330
1F
100
AcDbEntity
  8
D-2
  6
Continuous
 62
     3
370
     9
100
AcDbLine
 10
275.0314660974452
 20
348.1372375925031
 30
0.0
 11
275.0314660974452
 21
353.1375015283141
 31
0.0
  0
LINE
  5
29E
330
1F
100
AcDbEntity
  8
D-2
  6
Continuous
 62
     3
370
     9
100
AcDbLine
 10
280.031915613123
 20
333.1371881045386
 30
0.0
 11
270.0317589012353
 21
333.1371881045386
 31
0.0
  0
LINE
  5
29F
330
1F
100
AcDbEntity
  8
D-2
  6
Continuous
 62
     3
370
     9
100
AcDbLine
 10
267.5313176335517
 20
335.6375675122667
 30
0.0
 11
267.5313176335517
 21
353.1375015283141
 31
0.0
  0
LINE
  5
2A0
330
1F
100
AcDbEntity
  8
D-2
  6
Continuous
 62
     3
370
     9
100
AcDbLine
 10
282.5316145613386
 20
335.6375675122667
 30
0.0
 11
282.5316145613386
 21
348.1372375925031
 31
0.0
  0
LINE
  5
2A1
330
1F
100
AcDbEntity
  8
D-2
  6
JWW_CENTER1
 62
     3
370
     9
100
AcDbLine
 10
275.0314660974452
 20
326.7026392368235
 30
0.0
 11
275.0314660974452
 21
465.8978082217261
 31
0.0
  0
LINE
  5
2A2
330
1F
100
AcDbEntity
  8
D-0
  6
Continuous
 62
     4
370
     9
100
AcDbLine
 10
231.2816929172827
 20
459.3870478886391
 30
0.0
 11
207.4010900548988
 21
456.8803587654339
 31
0.0
  0
LINE
  5
2A3
330
1F
100
AcDbEntity
  8
D-0
  6
Continuous
 62
     4
370
     9
100
AcDbLine
 10
318.7812392776077
 20
459.3870478886391
 30
0.0
 11
342.6616565601246
 21
456.8803587654339
 31
0.0
  0
LINE
  5
2A4
330
1F
100
AcDbEntity
  8
D-0
  6
Continuous
 62
     4
370
     9
100
AcDbLine
 10
318.7812392776077
 20
459.3870478886391
 30
0.0
 11
231.2816929172827
 21
459.3870478886391
 31
0.0
  0
LINE
  5
2A5
330
1F
100
AcDbEntity
  8
D-0
  6
Continuous
 62
     4
370
     9
100
AcDbLine
 10
343.7811980376374
 20
455.6370973766037
 30
0.0
 11
343.7811980376374
 21
453.1370891286094
 31
0.0
  0
LINE
  5
2A6
330
1F
100
AcDbEntity
  8
D-0
  6
Continuous
 62
     4
370
     9
100
AcDbLine
 10
206.281734157253
 20
455.6370973766037
 30
0.0
 11
206.281734157253
 21
453.1370891286094
 31
0.0
  0
LINE
  5
2A7
330
1F
100
AcDbEntity
  8
D-0
  6
Continuous
 62
     4
370
     9
100
AcDbLine
 10
252.531453725454
 20
433.1371468645683
 30
0.0
 11
297.5314784694364
 21
433.1371468645683
 31
0.0
  0
LINE
  5
2A8
330
1F
100
AcDbEntity
  8
D-0
  6
Continuous
 62
     4
370
     9
100
AcDbLine
 10
313.7815939413535
 20
433.1371468645683
 30
0.0
 11
298.7810495737439
 21
433.1371468645683
 31
0.0
  0
LINE
  5
2A9
330
1F
100
AcDbEntity
  8
D-0
  6
Continuous
 62
     4
370
     9
100
AcDbLine
 10
236.2813382535369
 20
433.1371468645683
 30
0.0
 11
251.2818826211468
 21
433.1371468645683
 31
0.0
  0
LINE
  5
2AA
330
1F
100
AcDbEntity
  8
D-A
  6
Continuous
 62
     2
370
     9
100
AcDbLine
 10
315.0312887655723
 20
433.1371468645683
 30
0.0
 11
315.0312887655723
 21
426.8871881045386
 31
0.0
  0
LINE
  5
2AB
330
1F
100
AcDbEntity
  8
D-A
  6
Continuous
 62
     2
370
     9
100
AcDbLine
 10
297.5313547495251
 20
433.1371468645683
 30
0.0
 11
297.5313547495251
 21
426.8871881045386
 31
0.0
  0
LINE
  5
2AC
330
1F
100
AcDbEntity
  8
D-A
  6
Continuous
 62
     2
370
     9
100
AcDbLine
 10
310.6563052615605
 20
425.637122120586
 30
0.0
 11
301.9063382535369
 21
425.637122120586
 31
0.0
  0
LINE
  5
2AD
330
1F
100
AcDbEntity
  8
D-A
  6
JWW_CENTER1
 62
     2
370
     9
100
AcDbLine
 10
306.2813217575485
 20
454.859517733973
 30
0.0
 11
306.2813217575485
 21
434.1295042732464
 31
0.0
  0
LINE
  5
2AE
330
1F
100
AcDbEntity
  8
D-A
  6
Continuous
 62
     2
370
     9
100
AcDbLine
 10
315.0312887655723
 20
433.1371468645683
 30
0.0
 11
313.7815939413535
 21
433.1371468645683
 31
0.0
  0
LINE
  5
2AF
330
1F
100
AcDbEntity
  8
D-A
  6
Continuous
 62
     2
370
     9
100
AcDbLine
 10
306.2813217575485
 20
426.8871881045386
 30
0.0
 11
306.2813217575485
 21
433.1371468645683
 31
0.0
  0
LINE
  5
2B0
330
1F
100
AcDbEntity
  8
D-A
  6
Continuous
 62
     2
370
     9
100
AcDbLine
 10
235.0315815693624
 20
433.1371468645683
 30
0.0
 11
235.0315815693624
 21
426.8871881045386
 31
0.0
  0
LINE
  5
2B1
330
1F
100
AcDbEntity
  8
D-A
  6
Continuous
 62
     2
370
     9
100
AcDbLine
 10
252.5315774453655
 20
433.1371468645683
 30
0.0
 11
252.5315774453655
 21
426.8871881045386
 31
0.0
  0
LINE
  5
2B2
330
1F
100
AcDbEntity
  8
D-A
  6
Continuous
 62
     2
370
     9
100
AcDbLine
 10
239.4065650733744
 20
425.637122120586
 30
0.0
 11
248.1566558013093
 21
425.637122120586
 31
0.0
  0
LINE
  5
2B3
330
1F
100
AcDbEntity
  8
D-A
  6
Continuous
 62
     2
370
     9
100
AcDbLine
 10
235.0315815693624
 20
433.1371468645683
 30
0.0
 11
236.2813382535369
 21
433.1371468645683
 31
0.0
  0
LINE
  5
2B4
330
1F
100
AcDbEntity
  8
D-A
  6
Continuous
 62
     2
370
     9
100
AcDbLine
 10
243.7816104373418
 20
426.8871881045386
 30
0.0
 11
243.7816104373418
 21
433.1371468645683
 31
0.0
  0
LINE
  5
2B5
330
1F
100
AcDbEntity
  8
D-2
  6
Continuous
 62
     3
370
     9
100
AcDbLine
 10
282.5316145613386
 20
359.3875840082553
 30
0.0
 11
282.5316145613386
 21
433.1371468645683
 31
0.0
  0
LINE
  5
2B6
330
1F
100
AcDbEntity
  8
D-2
  6
Continuous
 62
     3
370
     9
100
AcDbLine
 10
267.5313176335517
 20
359.3875840082553
 30
0.0
 11
267.5313176335517
 21
433.1371468645683
 31
0.0
  0
LINE
  5
2B7
330
1F
100
AcDbEntity
  8
D-A
  6
Continuous
 62
     2
370
     9
100
AcDbLine
 10
308.7806495460306
 20
402.6370957270053
 30
0.0
 11
308.7806495460306
 21
400.1373967787891
 31
0.0
  0
LINE
  5
2B8
330
1F
100
AcDbEntity
  8
D-A
  6
Continuous
 62
     2
370
     9
100
AcDbLine
 10
310.0307155299832
 20
402.6370957270053
 30
0.0
 11
310.0307155299832
 21
400.1373967787891
 31
0.0
  0
LINE
  5
2B9
330
1F
100
AcDbEntity
  8
D-A
  6
Continuous
 62
     2
370
     9
100
AcDbLine
 10
315.7804746885558
 20
402.6367245672708
 30
0.0
 11
315.7804746885558
 21
400.137087479011
 31
0.0
  0
LINE
  5
2BA
330
1F
100
AcDbEntity
  8
D-A
  6
Continuous
 62
     2
370
     9
100
AcDbLine
 10
315.7804746885558
 20
400.137087479011
 30
0.0
 11
296.7809316274282
 21
400.137087479011
 31
0.0
  0
LINE
  5
2BB
330
1F
100
AcDbEntity
  8
D-A
  6
Continuous
 62
     2
370
     9
100
AcDbLine
 10
296.7809316274282
 20
402.6367245672708
 30
0.0
 11
296.7809316274282
 21
400.137087479011
 31
0.0
  0
LINE
  5
2BC
330
1F
100
AcDbEntity
  8
D-A
  6
Continuous
 62
     2
370
     9
100
AcDbLine
 10
315.0312887655723
 20
400.137087479011
 30
0.0
 11
315.0312887655723
 21
393.8871287189813
 31
0.0
  0
LINE
  5
2BD
330
1F
100
AcDbEntity
  8
D-A
  6
Continuous
 62
     2
370
     9
100
AcDbLine
 10
297.5313547495251
 20
400.137087479011
 30
0.0
 11
297.5313547495251
 21
393.8871287189813
 31
0.0
  0
LINE
  5
2BE
330
1F
100
AcDbEntity
  8
D-A
  6
Continuous
 62
     2
370
     9
100
AcDbLine
 10
314.630498112859
 20
392.6370627350287
 30
0.0
 11
297.9321454022385
 21
392.6370627350287
 31
0.0
  0
LINE
  5
2BF
330
1F
100
AcDbEntity
  8
D-A
  6
Continuous
 62
     2
370
     9
100
AcDbLine
 10
306.2813217575485
 20
393.8871287189813
 30
0.0
 11
306.2813217575485
 21
400.137087479011
 31
0.0
  0
LINE
  5
2C0
330
1F
100
AcDbEntity
  8
D-A
  6
Continuous
 62
     2
370
     9
100
AcDbLine
 10
246.2809382258236
 20
402.6370957270053
 30
0.0
 11
246.2809382258236
 21
400.1373967787891
 31
0.0
  0
LINE
  5
2C1
330
1F
100
AcDbEntity
  8
D-A
  6
Continuous
 62
     2
370
     9
100
AcDbLine
 10
247.5310042097762
 20
402.6370957270053
 30
0.0
 11
247.5310042097762
 21
400.1373967787891
 31
0.0
  0
LINE
  5
2C2
330
1F
100
AcDbEntity
  8
D-A
  6
Continuous
 62
     2
370
     9
100
AcDbLine
 10
253.2807633683488
 20
402.6367245672708
 30
0.0
 11
253.2807633683488
 21
400.137087479011
 31
0.0
  0
LINE
  5
2C3
330
1F
100
AcDbEntity
  8
D-A
  6
Continuous
 62
     2
370
     9
100
AcDbLine
 10
253.2807633683488
 20
400.137087479011
 30
0.0
 11
234.2812203072215
 21
400.137087479011
 31
0.0
  0
LINE
  5
2C4
330
1F
100
AcDbEntity
  8
D-A
  6
Continuous
 62
     2
370
     9
100
AcDbLine
 10
234.2812203072215
 20
402.6367245672708
 30
0.0
 11
234.2812203072215
 21
400.137087479011
 31
0.0
  0
LINE
  5
2C5
330
1F
100
AcDbEntity
  8
D-A
  6
Continuous
 62
     2
370
     9
100
AcDbLine
 10
252.5315774453655
 20
400.137087479011
 30
0.0
 11
252.5315774453655
 21
393.8871287189813
 31
0.0
  0
LINE
  5
2C6
330
1F
100
AcDbEntity
  8
D-A
  6
Continuous
 62
     2
370
     9
100
AcDbLine
 10
235.0316434293181
 20
400.137087479011
 30
0.0
 11
235.0316434293181
 21
393.8871287189813
 31
0.0
  0
LINE
  5
2C7
330
1F
100
AcDbEntity
  8
D-A
  6
Continuous
 62
     2
370
     9
100
AcDbLine
 10
243.7816104373418
 20
393.8871287189813
 30
0.0
 11
243.7816104373418
 21
400.137087479011
 31
0.0
  0
LINE
  5
2C8
330
1F
100
AcDbEntity
  8
D-A
  6
Continuous
 62
     2
370
     9
100
AcDbLine
 10
311.2810908137142
 20
425.637122120586
 30
0.0
 11
311.2810908137142
 21
415.6370891286094
 31
0.0
  0
LINE
  5
2C9
330
1F
100
AcDbEntity
  8
D-A
  6
Continuous
 62
     2
370
     9
100
AcDbLine
 10
309.7808631690775
 20
425.637122120586
 30
0.0
 11
309.7808631690775
 21
415.6370891286094
 31
0.0
  0
LINE
  5
2CA
330
1F
100
AcDbEntity
  8
D-A
  6
Continuous
 62
     2
370
     9
100
AcDbLine
 10
302.7811617464635
 20
425.637122120586
 30
0.0
 11
302.7811617464635
 21
415.6370891286094
 31
0.0
  0
LINE
  5
2CB
330
1F
100
AcDbEntity
  8
D-A
  6
Continuous
 62
     2
370
     9
100
AcDbLine
 10
301.2809341018265
 20
425.637122120586
 30
0.0
 11
301.2809341018265
 21
415.6370891286094
 31
0.0
  0
LINE
  5
2CC
330
1F
100
AcDbEntity
  8
D-A
  6
Continuous
 62
     2
370
     9
100
AcDbLine
 10
248.7819980930639
 20
425.637122120586
 30
0.0
 11
248.7819980930639
 21
415.6370891286094
 31
0.0
  0
LINE
  5
2CD
330
1F
100
AcDbEntity
  8
D-A
  6
Continuous
 62
     2
370
     9
100
AcDbLine
 10
247.281770448427
 20
425.637122120586
 30
0.0
 11
247.281770448427
 21
415.6370891286094
 31
0.0
  0
LINE
  5
2CE
330
1F
100
AcDbEntity
  8
D-A
  6
Continuous
 62
     2
370
     9
100
AcDbLine
 10
240.2820690258132
 20
425.637122120586
 30
0.0
 11
240.2820690258132
 21
415.6370891286094
 31
0.0
  0
LINE
  5
2CF
330
1F
100
AcDbEntity
  8
D-A
  6
Continuous
 62
     2
370
     9
100
AcDbLine
 10
238.7818413811762
 20
425.637122120586
 30
0.0
 11
238.7818413811762
 21
415.6370891286094
 31
0.0
  0
LINE
  5
2D0
330
1F
100
AcDbEntity
  8
D-3
  6
Continuous
 62
     3
370
     9
100
AcDbLine
 10
311.281461973448
 20
402.6370957270053
 30
0.0
 11
311.281461973448
 21
410.6370726326214
 31
0.0
  0
LINE
  5
2D1
330
1F
100
AcDbEntity
  8
D-3
  6
Continuous
 62
     3
370
     9
100
AcDbLine
 10
238.7814702214423
 20
402.6370957270053
 30
0.0
 11
238.7814702214423
 21
410.6370726326214
 31
0.0
  0
LINE
  5
2D2
330
1F
100
AcDbEntity
  8
D-0
  6
Continuous
 62
     4
370
     9
100
AcDbLine
 10
316.4275298247468
 20
435.4812061643464
 30
0.0
 11
317.3849982184335
 21
450.7931535487427
 31
0.0
  0
LINE
  5
2D3
330
1F
100
AcDbEntity
  8
D-0
  6
Continuous
 62
     4
370
     9
100
AcDbLine
 10
233.6354023701436
 20
435.4812061643464
 30
0.0
 11
232.6779339764572
 21
450.7931535487427
 31
0.0
  0
LINE
  5
2D4
330
1F
100
AcDbEntity
  8
D-A
  6
Continuous
 62
     2
370
     9
100
AcDbLine
 10
296.1776733398439
 20
385.6499188834136
 30
0.0
 11
296.1776733398439
 21
391.6241059611162
 31
0.0
  0
LINE
  5
2D5
330
1F
100
AcDbEntity
  8
D-A
  6
Continuous
 62
     2
370
     9
100
AcDbLine
 10
297.9321454022385
 20
392.6370627350287
 30
0.0
 11
296.1776733398439
 21
391.6241059611162
 31
0.0
  0
LINE
  5
2D6
330
1F
100
AcDbEntity
  8
D-A
  6
Continuous
 62
     2
370
     9
100
AcDbLine
 10
299.2813110351564
 20
383.1364251650854
 30
0.0
 11
299.2813110351564
 21
381.9445075394521
 31
0.0
  0
LINE
  5
2D7
330
1F
100
AcDbEntity
  8
D-A
  6
Continuous
 62
     2
370
     9
100
AcDbLine
 10
298.6562780431801
 20
384.2189743891146
 30
0.0
 11
296.1776733398439
 21
385.6499188834136
 31
0.0
  0
LINE
  5
2D8
330
1F
100
AcDbEntity
  8
D-A
  6
Continuous
 62
     2
370
     9
100
AcDbLine
 10
313.9063036119616
 20
384.2189743891146
 30
0.0
 11
316.3849083152978
 21
385.6499188834136
 31
0.0
  0
LINE
  5
2D9
330
1F
100
AcDbEntity
  8
D-A
  6
Continuous
 62
     2
370
     9
100
AcDbLine
 10
313.2813324799411
 20
381.9445075394521
 30
0.0
 11
313.2813324799411
 21
383.1364251650854
 31
0.0
  0
LINE
  5
2DA
330
1F
100
AcDbEntity
  8
D-A
  6
Continuous
 62
     2
370
     9
100
AcDbLine
 10
316.3849083152978
 20
385.6499188834136
 30
0.0
 11
316.3849083152978
 21
391.6241059611162
 31
0.0
  0
LINE
  5
2DB
330
1F
100
AcDbEntity
  8
D-A
  6
Continuous
 62
     2
370
     9
100
AcDbLine
 10
301.2295284786741
 20
385.6499188834136
 30
0.0
 11
301.2295284786741
 21
391.6241059611162
 31
0.0
  0
LINE
  5
2DC
330
1F
100
AcDbEntity
  8
D-A
  6
Continuous
 62
     2
370
     9
100
AcDbLine
 10
311.3331150364234
 20
385.6499188834136
 30
0.0
 11
311.3331150364234
 21
391.6241059611162
 31
0.0
  0
LINE
  5
2DD
330
1F
100
AcDbEntity
  8
D-A
  6
Continuous
 62
     2
370
     9
100
AcDbLine
 10
314.630498112859
 20
392.6370627350287
 30
0.0
 11
316.3849083152978
 21
391.6241059611162
 31
0.0
  0
LINE
  5
2DE
330
1F
100
AcDbEntity
  8
D-A
  6
Continuous
 62
     2
370
     9
100
AcDbLine
 10
297.9321454022385
 20
384.6370239694563
 30
0.0
 11
314.630498112859
 21
384.6370239694563
 31
0.0
  0
LINE
  5
2DF
330
1F
100
AcDbEntity
  8
D-A
  6
JWW_CENTER1
 62
     2
370
     9
100
AcDbLine
 10
306.2813217575485
 20
397.8451142618974
 30
0.0
 11
306.2813217575485
 21
373.9634597802672
 31
0.0
  0
LINE
  5
2E0
330
1F
100
AcDbEntity
  8
D-A
  6
Continuous
 62
     2
370
     9
100
AcDbLine
 10
253.8852588550465
 20
385.6499188834136
 30
0.0
 11
253.8852588550465
 21
391.6241059611162
 31
0.0
  0
LINE
  5
2E1
330
1F
100
AcDbEntity
  8
D-A
  6
Continuous
 62
     2
370
     9
100
AcDbLine
 10
252.1307867926522
 20
392.6370627350287
 30
0.0
 11
253.8852588550465
 21
391.6241059611162
 31
0.0
  0
LINE
  5
2E2
330
1F
100
AcDbEntity
  8
D-A
  6
Continuous
 62
     2
370
     9
100
AcDbLine
 10
250.781621159734
 20
383.1364251650854
 30
0.0
 11
250.781621159734
 21
381.9445075394521
 31
0.0
  0
LINE
  5
2E3
330
1F
100
AcDbEntity
  8
D-A
  6
Continuous
 62
     2
370
     9
100
AcDbLine
 10
251.4066541517106
 20
384.2189743891146
 30
0.0
 11
253.8852588550465
 21
385.6499188834136
 31
0.0
  0
LINE
  5
2E4
330
1F
100
AcDbEntity
  8
D-A
  6
Continuous
 62
     2
370
     9
100
AcDbLine
 10
236.1566285829288
 20
384.2189743891146
 30
0.0
 11
233.6780238795926
 21
385.6499188834136
 31
0.0
  0
LINE
  5
2E5
330
1F
100
AcDbEntity
  8
D-A
  6
Continuous
 62
     2
370
     9
100
AcDbLine
 10
236.7815997149494
 20
381.9445075394521
 30
0.0
 11
236.7815997149494
 21
383.1364251650854
 31
0.0
  0
LINE
  5
2E6
330
1F
100
AcDbEntity
  8
D-A
  6
Continuous
 62
     2
370
     9
100
AcDbLine
 10
233.6780238795926
 20
385.6499188834136
 30
0.0
 11
233.6780238795926
 21
391.6241059611162
 31
0.0
  0
LINE
  5
2E7
330
1F
100
AcDbEntity
  8
D-A
  6
Continuous
 62
     2
370
     9
100
AcDbLine
 10
248.8334037162163
 20
385.6499188834136
 30
0.0
 11
248.8334037162163
 21
391.6241059611162
 31
0.0
  0
LINE
  5
2E8
330
1F
100
AcDbEntity
  8
D-A
  6
Continuous
 62
     2
370
     9
100
AcDbLine
 10
238.7298171584671
 20
385.6499188834136
 30
0.0
 11
238.7298171584671
 21
391.6241059611162
 31
0.0
  0
LINE
  5
2E9
330
1F
100
AcDbEntity
  8
D-A
  6
Continuous
 62
     2
370
     9
100
AcDbLine
 10
252.1307867926522
 20
384.6370239694563
 30
0.0
 11
235.4324340820314
 21
384.6370239694563
 31
0.0
  0
LINE
  5
2EA
330
1F
100
AcDbEntity
  8
D-A
  6
JWW_CENTER1
 62
     2
370
     9
100
AcDbLine
 10
243.7816104373418
 20
398.0388596430209
 30
0.0
 11
243.7816104373418
 21
373.9634597802672
 31
0.0
  0
LINE
  5
2EB
330
1F
100
AcDbEntity
  8
D-3
  6
Continuous
 62
     3
370
     9
100
AcDbLine
 10
282.5316145613386
 20
410.6370726326214
 30
0.0
 11
374.6756682524812
 21
410.6370726326214
 31
0.0
  0
LINE
  5
2EC
330
1F
100
AcDbEntity
  8
D-A
  6
JWW_CENTER1
 62
     2
370
     9
100
AcDbLine
 10
306.2813217575485
 20
424.6336299198891
 30
0.0
 11
306.2813217575485
 21
402.6370957270053
 31
0.0
  0
LINE
  5
2ED
330
1F
100
AcDbEntity
  8
D-A
  6
Continuous
 62
     2
370
     9
100
AcDbLine
 10
252.1307867926522
 20
392.6370627350287
 30
0.0
 11
235.4324340820314
 21
392.6370627350287
 31
0.0
  0
LINE
  5
2EE
330
1F
100
AcDbEntity
  8
D-A
  6
Continuous
 62
     2
370
     9
100
AcDbLine
 10
235.4324340820314
 20
392.6370627350287
 30
0.0
 11
233.6780238795926
 21
391.6241059611162
 31
0.0
  0
LINE
  5
2EF
330
1F
100
AcDbEntity
  8
D-0
  6
Continuous
 62
     4
370
     9
100
AcDbLine
 10
206.281734157253
 20
453.1370891286094
 30
0.0
 11
343.7811980376374
 21
453.1370891286094
 31
0.0
  0
LINE
  5
2F0
330
1F
100
AcDbEntity
  8
D-0
  6
Continuous
 62
     4
370
     9
100
AcDbLine
 10
252.4923582334777
 20
433.4497870804677
 30
0.0
 11
252.531453725454
 21
433.1371468645683
 31
0.0
  0
LINE
  5
2F1
330
1F
100
AcDbEntity
  8
D-A
  6
JWW_CENTER1
 62
     2
370
     9
100
AcDbLine
 10
243.7816104373418
 20
454.859517733973
 30
0.0
 11
243.7816104373418
 21
434.1295042732464
 31
0.0
  0
LINE
  5
2F2
330
1F
100
AcDbEntity
  8
D-A
  6
JWW_CENTER1
 62
     2
370
     9
100
AcDbLine
 10
243.7816104373418
 20
424.6336299198891
 30
0.0
 11
243.7816104373418
 21
402.6370957270053
 31
0.0
  0
LINE
  5
2F3
330
1F
100
AcDbEntity
  8
D-0
  6
Continuous
 62
     4
370
     9
100
AcDbLine
 10
295.8522899730788
 20
439.0673515137974
 30
0.0
 11
296.2810413257496
 21
435.6371551125625
 31
0.0
  0
LINE
  5
2F4
330
1F
100
AcDbEntity
  8
D-0
  6
Continuous
 62
     4
370
     9
100
AcDbLine
 10
261.6527660472975
 20
445.6370643846271
 30
0.0
 11
288.4101661475931
 21
445.6370643846271
 31
0.0
  0
LINE
  5
2F5
330
1F
100
AcDbEntity
  8
D-0
  6
Continuous
 62
     4
370
     9
100
AcDbLine
 10
254.2106422218119
 20
439.0673515137974
 30
0.0
 11
253.7818908691408
 21
435.6371551125625
 31
0.0
  0
ARC
  5
2F6
330
1F
100
AcDbEntity
  8
D-2
  6
Continuous
 62
     3
370
     9
100
AcDbCircle
 10
270.0317589012353
 20
335.6375675122667
 30
0.0
 40
2.500000273859179
100
AcDbArc
 50
180.0
 51
270.0
  0
ARC
  5
2F7
330
1F
100
AcDbEntity
  8
D-2
  6
Continuous
 62
     3
370
     9
100
AcDbCircle
 10
280.031915613123
 20
335.6375675122667
 30
0.0
 40
2.500000273859179
100
AcDbArc
 50
270.0
 51
0.0
  0
ARC
  5
2F8
330
1F
100
AcDbEntity
  8
D-0
  6
Continuous
 62
     4
370
     9
100
AcDbCircle
 10
342.5312557735959
 20
455.6370973766037
 30
0.0
 40
1.250000016109364
100
AcDbArc
 50
0.0
 51
84.00610351562501
  0
ARC
  5
2F9
330
1F
100
AcDbEntity
  8
D-0
  6
Continuous
 62
     4
370
     9
100
AcDbCircle
 10
207.5317382812501
 20
455.6370973766037
 30
0.0
 40
1.250000016109364
100
AcDbArc
 50
95.993896484375
 51
180.0
  0
ARC
  5
2FA
330
1F
100
AcDbEntity
  8
D-A
  6
Continuous
 62
     2
370
     9
100
AcDbCircle
 10
310.6563052615605
 20
433.9184381045386
 30
0.0
 40
8.281277321480417
100
AcDbArc
 50
238.1089477539062
 51
301.8907012939453
  0
ARC
  5
2FB
330
1F
100
AcDbEntity
  8
D-A
  6
Continuous
 62
     2
370
     9
100
AcDbCircle
 10
301.9063382535369
 20
433.9184381045386
 30
0.0
 40
8.281277321480417
100
AcDbArc
 50
238.1092987060547
 51
301.8910522460938
  0
ARC
  5
2FC
330
1F
100
AcDbEntity
  8
D-A
  6
Continuous
 62
     2
370
     9
100
AcDbCircle
 10
239.4065650733744
 20
433.9184381045386
 30
0.0
 40
8.281277321480417
100
AcDbArc
 50
238.1092987060547
 51
301.8910522460938
  0
ARC
  5
2FD
330
1F
100
AcDbEntity
  8
D-A
  6
Continuous
 62
     2
370
     9
100
AcDbCircle
 10
248.1566558013093
 20
433.9184381045386
 30
0.0
 40
8.281277321480417
100
AcDbArc
 50
238.1089477539062
 51
301.8907012939453
  0
ARC
  5
2FE
330
1F
100
AcDbEntity
  8
D-A
  6
Continuous
 62
     2
370
     9
100
AcDbCircle
 10
310.6563052615605
 20
400.9183787189813
 30
0.0
 40
8.281277321480417
100
AcDbArc
 50
238.1089477539062
 51
301.8907012939453
  0
ARC
  5
2FF
330
1F
100
AcDbEntity
  8
D-A
  6
Continuous
 62
     2
370
     9
100
AcDbCircle
 10
301.9063382535369
 20
400.9183787189813
 30
0.0
 40
8.281277321480417
100
AcDbArc
 50
238.1092987060547
 51
301.8910522460938
  0
ARC
  5
300
330
1F
100
AcDbEntity
  8
D-A
  6
Continuous
 62
     2
370
     9
100
AcDbCircle
 10
248.1565939413535
 20
400.9183787189813
 30
0.0
 40
8.281277321480417
100
AcDbArc
 50
238.1089477539062
 51
301.8907012939453
  0
ARC
  5
301
330
1F
100
AcDbEntity
  8
D-A
  6
Continuous
 62
     2
370
     9
100
AcDbCircle
 10
239.4066269333298
 20
400.9183787189813
 30
0.0
 40
8.281277321480417
100
AcDbArc
 50
238.1092987060547
 51
301.8910522460938
  0
ARC
  5
302
330
1F
100
AcDbEntity
  8
D-0
  6
Continuous
 62
     4
370
     9
100
AcDbCircle
 10
319.8801195299303
 20
450.6371427405714
 30
0.0
 40
2.500000032218727
100
AcDbArc
 50
90.0
 51
176.4221649169922
  0
ARC
  5
303
330
1F
100
AcDbEntity
  8
D-0
  6
Continuous
 62
     4
370
     9
100
AcDbCircle
 10
313.9324085132496
 20
435.6372169725177
 30
0.0
 40
2.500000032218727
100
AcDbArc
 50
270.0
 51
356.4221649169922
  0
ARC
  5
304
330
1F
100
AcDbEntity
  8
D-0
  6
Continuous
 62
     4
370
     9
100
AcDbCircle
 10
230.18281266496
 20
450.6371427405714
 30
0.0
 40
2.500000032218727
100
AcDbArc
 50
3.577835083007803
 51
89.99999999999999
  0
ARC
  5
305
330
1F
100
AcDbEntity
  8
D-0
  6
Continuous
 62
     4
370
     9
100
AcDbCircle
 10
236.1305236816408
 20
435.6372169725177
 30
0.0
 40
2.500000032218727
100
AcDbArc
 50
183.5778350830078
 51
270.0
  0
ARC
  5
306
330
1F
100
AcDbEntity
  8
D-A
  6
Continuous
 62
     2
370
     9
100
AcDbCircle
 10
306.2813217575485
 20
397.7411276764349
 30
0.0
 40
13.10409210823678
100
AcDbArc
 50
247.3243103027343
 51
292.6756896972656
  0
ARC
  5
307
330
1F
100
AcDbEntity
  8
D-A
  6
Continuous
 62
     2
370
     9
100
AcDbCircle
 10
297.9321454022385
 20
390.510255599524
 30
0.0
 40
5.873256277393651
100
AcDbArc
 50
270.0
 51
304.1535186767578
  0
ARC
  5
308
330
1F
100
AcDbEntity
  8
D-A
  6
Continuous
 62
     2
370
     9
100
AcDbCircle
 10
306.2813217575485
 20
379.53295902805
 30
0.0
 40
13.10409210823678
100
AcDbArc
 50
67.32431030273439
 51
112.6756896972656
  0
ARC
  5
309
330
1F
100
AcDbEntity
  8
D-A
  6
Continuous
 62
     2
370
     9
100
AcDbCircle
 10
297.9321454022385
 20
386.763831104961
 30
0.0
 40
5.873256277393651
100
AcDbArc
 50
55.84648132324221
 51
90.00000000000003
  0
ARC
  5
30A
330
1F
100
AcDbEntity
  8
D-A
  6
Continuous
 62
     2
370
     9
100
AcDbCircle
 10
306.2813217575485
 20
384.6370239694563
 30
0.0
 40
7.500000096656181
100
AcDbArc
 50
201.0391845703125
 51
338.9608154296874
  0
ARC
  5
30B
330
1F
100
AcDbEntity
  8
D-A
  6
Continuous
 62
     2
370
     9
100
AcDbCircle
 10
298.0313069111593
 20
383.1364251650854
 30
0.0
 40
1.250000016109364
100
AcDbArc
 50
0.0
 51
59.99960327148438
  0
ARC
  5
30C
330
1F
100
AcDbEntity
  8
D-A
  6
Continuous
 62
     2
370
     9
100
AcDbCircle
 10
314.630498112859
 20
390.510255599524
 30
0.0
 40
5.873256277393651
100
AcDbArc
 50
235.8464813232422
 51
270.0
  0
ARC
  5
30D
330
1F
100
AcDbEntity
  8
D-A
  6
Continuous
 62
     2
370
     9
100
AcDbCircle
 10
314.630498112859
 20
386.763831104961
 30
0.0
 40
5.873256277393651
100
AcDbArc
 50
90.0
 51
124.1535186767578
  0
ARC
  5
30E
330
1F
100
AcDbEntity
  8
D-A
  6
Continuous
 62
     2
370
     9
100
AcDbCircle
 10
314.5312747439824
 20
383.1364251650854
 30
0.0
 40
1.250000016109364
100
AcDbArc
 50
120.0003967285157
 51
180.0000000000001
  0
ARC
  5
30F
330
1F
100
AcDbEntity
  8
D-A
  6
Continuous
 62
     2
370
     9
100
AcDbCircle
 10
243.7816104373418
 20
397.7411276764349
 30
0.0
 40
13.10409210823678
100
AcDbArc
 50
247.3243103027343
 51
292.6756896972656
  0
ARC
  5
310
330
1F
100
AcDbEntity
  8
D-A
  6
Continuous
 62
     2
370
     9
100
AcDbCircle
 10
252.1307867926522
 20
390.510255599524
 30
0.0
 40
5.873256277393651
100
AcDbArc
 50
235.8464813232422
 51
270.0
  0
ARC
  5
311
330
1F
100
AcDbEntity
  8
D-A
  6
Continuous
 62
     2
370
     9
100
AcDbCircle
 10
243.7816104373418
 20
379.53295902805
 30
0.0
 40
13.10409210823678
100
AcDbArc
 50
67.32431030273439
 51
112.6756896972656
  0
ARC
  5
312
330
1F
100
AcDbEntity
  8
D-A
  6
Continuous
 62
     2
370
     9
100
AcDbCircle
 10
243.7816104373418
 20
384.6370239694563
 30
0.0
 40
7.500000096656181
100
AcDbArc
 50
201.0391845703125
 51
338.9608154296874
  0
ARC
  5
313
330
1F
100
AcDbEntity
  8
D-A
  6
Continuous
 62
     2
370
     9
100
AcDbCircle
 10
252.0316252837311
 20
383.1364251650854
 30
0.0
 40
1.250000016109364
100
AcDbArc
 50
120.0003967285157
 51
180.0000000000001
  0
ARC
  5
314
330
1F
100
AcDbEntity
  8
D-A
  6
Continuous
 62
     2
370
     9
100
AcDbCircle
 10
235.4324340820314
 20
390.510255599524
 30
0.0
 40
5.873256277393651
100
AcDbArc
 50
270.0
 51
304.1535186767578
  0
ARC
  5
315
330
1F
100
AcDbEntity
  8
D-A
  6
Continuous
 62
     2
370
     9
100
AcDbCircle
 10
235.4324340820314
 20
386.763831104961
 30
0.0
 40
5.873256277393651
100
AcDbArc
 50
55.84648132324221
 51
90.00000000000003
  0
ARC
  5
316
330
1F
100
AcDbEntity
  8
D-A
  6
Continuous
 62
     2
370
     9
100
AcDbCircle
 10
235.5316574509079
 20
383.1364251650854
 30
0.0
 40
1.250000016109364
100
AcDbArc
 50
0.0
 51
59.99960327148438
  0
ARC
  5
317
330
1F
100
AcDbEntity
  8
D-A
  6
Continuous
 62
     2
370
     9
100
AcDbCircle
 10
252.1307867926522
 20
386.763831104961
 30
0.0
 40
5.873256277393651
100
AcDbArc
 50
90.0
 51
124.1535186767578
  0
ARC
  5
318
330
1F
100
AcDbEntity
  8
D-0
  6
Continuous
 62
     4
370
     9
100
AcDbCircle
 10
298.7810495737439
 20
435.6371551125625
 30
0.0
 40
2.500000032218727
100
AcDbArc
 50
180.0
 51
270.0
  0
ARC
  5
319
330
1F
100
AcDbEntity
  8
D-0
  6
Continuous
 62
     4
370
     9
100
AcDbCircle
 10
251.2818826211468
 20
435.6371551125625
 30
0.0
 40
2.500000032218727
100
AcDbArc
 50
270.0
 51
0.0
  0
ARC
  5
31A
330
1F
100
AcDbEntity
  8
D-0
  6
Continuous
 62
     4
370
     9
100
AcDbCircle
 10
288.4101661475931
 20
438.1370396406448
 30
0.0
 40
7.500000096656181
100
AcDbArc
 50
7.125366210937503
 51
90.00000000000001
  0
ARC
  5
31B
330
1F
100
AcDbEntity
  8
D-0
  6
Continuous
 62
     4
370
     9
100
AcDbCircle
 10
261.6527660472975
 20
438.1370396406448
 30
0.0
 40
7.500000096656181
100
AcDbArc
 50
90.0
 51
172.8746337890625
  0
LINE
  5
31C
330
1F
100
AcDbEntity
  8
D-3
  6
Continuous
 62
     3
370
     9
100
AcDbLine
 10
238.7812846415753
 20
410.6369489127099
 30
0.0
 11
138.8631047429266
 21
410.6369489127099
 31
0.0
  0
LINE
  5
31D
330
1F
100
AcDbEntity
  8
D-3
  6
Continuous
 62
     3
370
     9
100
AcDbLine
 10
267.5313176335517
 20
410.6370726326214
 30
0.0
 11
175.3872020824538
 21
410.6370726326214
 31
0.0
  0
LINE
  5
31E
330
1F
100
AcDbEntity
  8
D-B
  6
Continuous
 62
     7
370
     9
100
AcDbLine
 10
323.7815032134187
 20
410.6370726326214
 30
0.0
 11
323.7815032134187
 21
453.1370891286094
 31
0.0
  0
LINE
  5
31F
330
1F
100
AcDbEntity
  8
D-B
  6
Continuous
 62
     7
370
     9
100
AcDbLine
 10
226.2814289814717
 20
410.6370726326214
 30
0.0
 11
226.2814289814717
 21
453.1370891286094
 31
0.0
  0
LINE
  5
320
330
1F
100
AcDbEntity
  8
D-B
  6
Continuous
 62
     7
370
     9
100
AcDbLine
 10
226.2814289814717
 20
423.1371138725917
 30
0.0
 11
175.3872639424092
 21
423.1371138725917
 31
0.0
  0
LINE
  5
321
330
1F
100
AcDbEntity
  8
D-B
  6
Continuous
 62
     7
370
     9
100
AcDbLine
 10
226.2814289814717
 20
445.6371262445828
 30
0.0
 11
175.3872639424092
 21
445.6371262445828
 31
0.0
  0
LINE
  5
322
330
1F
100
AcDbEntity
  8
D-B
  6
Continuous
 62
     7
370
     9
100
AcDbLine
 10
267.5313176335517
 20
415.6370891286094
 30
0.0
 11
138.8631047429266
 21
415.6370891286094
 31
0.0
  0
LINE
  5
323
330
1F
100
AcDbEntity
  8
D-B
  6
Continuous
 62
     7
370
     9
100
AcDbLine
 10
138.8631047429266
 20
453.1370891286094
 30
0.0
 11
207.5316145613388
 21
453.1370891286094
 31
0.0
  0
LINE
  5
324
330
1F
100
AcDbEntity
  8
D-B
  6
Continuous
 62
     7
370
     9
100
AcDbLine
 10
226.2816145613388
 20
445.6370643846271
 30
0.0
 11
138.8631047429266
 21
445.6370643846271
 31
0.0
  0
LINE
  5
325
330
1F
100
AcDbEntity
  8
D-B
  6
Continuous
 62
     7
370
     9
100
AcDbLine
 10
226.2816145613388
 20
430.637138616574
 30
0.0
 11
138.8631047429266
 21
430.637138616574
 31
0.0
  0
LINE
  5
326
330
1F
100
AcDbEntity
  8
D-B
  6
Continuous
 62
     7
370
     9
100
AcDbLine
 10
226.2816145613388
 20
423.1369901526804
 30
0.0
 11
138.8631047429266
 21
423.1369901526804
 31
0.0
  0
TEXT
  5
327
330
1F
100
AcDbEntity
  8
D-0
  6
Continuous
 62
     7
370
     9
100
AcDbText
 10
262.1610505173362
 20
638.0941581874143
 30
0.0
 40
11.43
  1
把手カバー
 41
1.133333333333333
  7
ＭＳ ゴシック
100
AcDbText
  0
TEXT
  5
328
330
1F
100
AcDbEntity
  8
D-0
  6
Continuous
 62
     7
370
     9
100
AcDbText
 10
239.4393731634376
 20
616.2486860062666
 30
0.0
 40
11.43
  1
（ＳＣＳ１３）
 50
359.9999484463209
 41
1.142857142857143
  7
ＭＳ ゴシック
100
AcDbText
  0
LINE
  5
329
330
1F
100
AcDbEntity
  8
D-0
  6
Continuous
 62
     7
370
     9
100
AcDbLine
 10
237.1286920139317
 20
631.0956858478872
 30
0.0
 11
368.4664752032307
 21
631.0956858478872
 31
0.0
  0
LINE
  5
32A
330
1F
100
AcDbEntity
  8
D-B
  6
Continuous
 62
     7
370
     9
100
AcDbLine
 10
226.2814289814717
 20
438.1371015006005
 30
0.0
 11
138.8631047429266
 21
438.1371015006005
 31
0.0
  0
LINE
  5
32B
330
1F
100
AcDbEntity
  8
D-0
  6
Continuous
 62
     4
370
     9
100
AcDbLine
 10
294.9727249770692
 20
-362.9307170968087
 30
0.0
 11
524.9728342629908
 21
-362.9307170968087
 31
0.0
  0
LINE
  5
32C
330
1F
100
AcDbEntity
  8
D-0
  6
Continuous
 62
     4
370
     9
100
AcDbLine
 10
274.9728755029614
 20
-101.9459261802296
 30
0.0
 11
544.9727765270322
 21
-101.9459261802296
 31
0.0
  0
LINE
  5
32D
330
1F
100
AcDbEntity
  8
D-0
  6
Continuous
 62
     4
370
     9
100
AcDbLine
 10
269.9728590069731
 20
-234.4461777440493
 30
0.0
 11
269.9728590069731
 21
-106.9460663961291
 31
0.0
  0
LINE
  5
32E
330
1F
100
AcDbEntity
  8
D-0
  6
Continuous
 62
     4
370
     9
100
AcDbLine
 10
544.9727765270322
 20
-239.4463179599488
 30
0.0
 11
274.9728755029614
 21
-239.4463179599488
 31
0.0
  0
LINE
  5
32F
330
1F
100
AcDbEntity
  8
D-0
  6
Continuous
 62
     4
370
     9
100
AcDbLine
 10
549.9729167429316
 20
-234.4461777440493
 30
0.0
 11
549.9729167429316
 21
-106.9460663961291
 31
0.0
  0
LINE
  5
330
330
1F
100
AcDbEntity
  8
D-0
  6
Continuous
 62
     4
370
     9
100
AcDbLine
 10
271.4388162361749
 20
-103.4103987704957
 30
0.0
 11
296.4388987161158
 21
-128.4106049703478
 31
0.0
  0
LINE
  5
331
330
1F
100
AcDbEntity
  8
D-0
  6
Continuous
 62
     4
370
     9
100
AcDbLine
 10
548.5083204327543
 20
-237.9825876891506
 30
0.0
 11
523.5082379528135
 21
-212.9824433492541
 31
0.0
  0
LINE
  5
332
330
1F
100
AcDbEntity
  8
D-0
  6
Continuous
 62
     4
370
     9
100
AcDbLine
 10
271.4388162361749
 20
-237.9825876891506
 30
0.0
 11
296.4388987161158
 21
-212.9824433492541
 31
0.0
  0
LINE
  5
333
330
1F
100
AcDbEntity
  8
D-0
  6
Continuous
 62
     4
370
     9
100
AcDbLine
 10
524.9728342629908
 20
-209.4470231634432
 30
0.0
 11
524.9728342629908
 21
-131.9468911955379
 31
0.0
  0
LINE
  5
334
330
1F
100
AcDbEntity
  8
D-0
  6
Continuous
 62
     4
370
     9
100
AcDbLine
 10
299.9729270529244
 20
-214.4469777994758
 30
0.0
 11
519.9724466072687
 21
-214.4469777994758
 31
0.0
  0
LINE
  5
335
330
1F
100
AcDbEntity
  8
D-0
  6
Continuous
 62
     4
370
     9
100
AcDbLine
 10
299.9729270529244
 20
-126.9465035398157
 30
0.0
 11
519.9724466072687
 21
-126.9465035398157
 31
0.0
  0
LINE
  5
336
330
1F
100
AcDbEntity
  8
D-0
  6
Continuous
 62
     4
370
     9
100
AcDbLine
 10
294.9727249770692
 20
-131.9468911955379
 30
0.0
 11
294.9727249770692
 21
-209.4470231634432
 31
0.0
  0
LINE
  5
337
330
1F
100
AcDbEntity
  8
D-2
  6
Continuous
 62
     3
370
     9
100
AcDbLine
 10
328.347810343808
 20
-181.4461760944505
 30
0.0
 11
328.347810343808
 21
-159.9465629253732
 31
0.0
  0
LINE
  5
338
330
1F
100
AcDbEntity
  8
D-2
  6
Continuous
 62
     3
370
     9
100
AcDbLine
 10
332.5978058074114
 20
-185.6961406280759
 30
0.0
 11
487.3478462225822
 21
-185.6961406280759
 31
0.0
  0
LINE
  5
339
330
1F
100
AcDbEntity
  8
D-0
  6
Continuous
 62
     4
370
     9
100
AcDbLine
 10
327.0978062198108
 20
-181.9461282560847
 30
0.0
 11
327.0978062198108
 21
-159.4461777440493
 31
0.0
  0
LINE
  5
33A
330
1F
100
AcDbEntity
  8
D-0
  6
Continuous
 62
     4
370
     9
100
AcDbLine
 10
487.8478602441723
 20
-154.4461612480611
 30
0.0
 11
332.0977917858212
 21
-154.4461612480611
 31
0.0
  0
LINE
  5
33B
330
1F
100
AcDbEntity
  8
D-0
  6
Continuous
 62
     4
370
     9
100
AcDbLine
 10
492.8478458101824
 20
-181.9461282560847
 30
0.0
 11
492.8478458101824
 21
-159.4461777440493
 31
0.0
  0
LINE
  5
33C
330
1F
100
AcDbEntity
  8
D-0
  6
Continuous
 62
     4
370
     9
100
AcDbLine
 10
487.8478602441723
 20
-186.9461447520729
 30
0.0
 11
332.0977917858212
 21
-186.9461447520729
 31
0.0
  0
LINE
  5
33D
330
1F
100
AcDbEntity
  8
D-0
  6
JWW_CENTER1
 62
     4
370
     9
100
AcDbLine
 10
265.1111613718379
 20
-170.696153000067
 30
0.0
 11
558.3993561828601
 21
-170.696153000067
 31
0.0
  0
LINE
  5
33E
330
1F
100
AcDbEntity
  8
D-2
  6
Continuous
 62
     3
370
     9
100
AcDbLine
 10
487.3475059928262
 20
-155.6961653720582
 30
0.0
 11
332.5987027767684
 21
-155.6961653720582
 31
0.0
  0
LINE
  5
33F
330
1F
100
AcDbEntity
  8
D-2
  6
Continuous
 62
     3
370
     9
100
AcDbLine
 10
491.5975014564293
 20
-159.9461917656392
 30
0.0
 11
491.5975014564293
 21
-181.5046956125037
 31
0.0
  0
LINE
  5
340
330
1F
100
AcDbEntity
  8
D-0
  6
Continuous
 62
     4
370
     9
100
AcDbLine
 10
548.5083204327543
 20
-103.4103987704957
 30
0.0
 11
523.5082379528135
 21
-128.4106049703478
 31
0.0
  0
LINE
  5
341
330
1F
100
AcDbEntity
  8
D-0
  6
JWW_CENTER1
 62
     4
370
     9
100
AcDbLine
 10
409.9728260149968
 20
-94.79305950740446
 30
0.0
 11
409.9728260149968
 21
-248.9556468536618
 31
0.0
  0
ARC
  5
342
330
1F
100
AcDbEntity
  8
D-0
  6
Continuous
 62
     4
370
     9
100
AcDbCircle
 10
519.9724466072687
 20
-131.9468911955379
 30
0.0
 40
4.99999958115655
100
AcDbArc
 50
0.0
 51
90.0
  0
ARC
  5
343
330
1F
100
AcDbEntity
  8
D-0
  6
Continuous
 62
     4
370
     9
100
AcDbCircle
 10
519.9724466072687
 20
-209.4470231634432
 30
0.0
 40
4.99999958115655
100
AcDbArc
 50
270.0
 51
0.0
  0
ARC
  5
344
330
1F
100
AcDbEntity
  8
D-0
  6
Continuous
 62
     4
370
     9
100
AcDbCircle
 10
299.9729270529244
 20
-209.4470231634432
 30
0.0
 40
4.99999958115655
100
AcDbArc
 50
180.0
 51
270.0
  0
ARC
  5
345
330
1F
100
AcDbEntity
  8
D-0
  6
Continuous
 62
     4
370
     9
100
AcDbCircle
 10
299.9729270529244
 20
-131.9468911955379
 30
0.0
 40
4.99999958115655
100
AcDbArc
 50
90.0
 51
180.0
  0
ARC
  5
346
330
1F
100
AcDbEntity
  8
D-0
  6
Continuous
 62
     4
370
     9
100
AcDbCircle
 10
544.9727765270322
 20
-106.9460663961291
 30
0.0
 40
5.000000064437454
100
AcDbArc
 50
0.0
 51
90.0
  0
ARC
  5
347
330
1F
100
AcDbEntity
  8
D-0
  6
Continuous
 62
     4
370
     9
100
AcDbCircle
 10
274.9727517830499
 20
-106.9460663961291
 30
0.0
 40
5.000000064437454
100
AcDbArc
 50
90.0
 51
180.0
  0
ARC
  5
348
330
1F
100
AcDbEntity
  8
D-0
  6
Continuous
 62
     4
370
     9
100
AcDbCircle
 10
274.9727517830499
 20
-234.4461158840937
 30
0.0
 40
5.000000064437454
100
AcDbArc
 50
180.0
 51
270.0
  0
ARC
  5
349
330
1F
100
AcDbEntity
  8
D-0
  6
Continuous
 62
     4
370
     9
100
AcDbCircle
 10
544.9727765270322
 20
-234.4461158840937
 30
0.0
 40
5.000000064437454
100
AcDbArc
 50
270.0
 51
0.0
  0
ARC
  5
34A
330
1F
100
AcDbEntity
  8
D-2
  6
Continuous
 62
     3
370
     9
100
AcDbCircle
 10
332.5987027767684
 20
-159.9465629253732
 30
0.0
 40
4.250002229535902
100
AcDbArc
 50
90.0
 51
180.0
  0
ARC
  5
34B
330
1F
100
AcDbEntity
  8
D-2
  6
Continuous
 62
     3
370
     9
100
AcDbCircle
 10
487.3478462225822
 20
-181.4457430747609
 30
0.0
 40
4.250002229535902
100
AcDbArc
 50
270.0
 51
359.2052154541016
  0
ARC
  5
34C
330
1F
100
AcDbEntity
  8
D-2
  6
Continuous
 62
     3
370
     9
100
AcDbCircle
 10
332.5978058074114
 20
-181.4461760944505
 30
0.0
 40
4.250000296412288
100
AcDbArc
 50
180.0
 51
270.0
  0
ARC
  5
34D
330
1F
100
AcDbEntity
  8
D-0
  6
Continuous
 62
     4
370
     9
100
AcDbCircle
 10
409.9728260149968
 20
-170.696153000067
 30
0.0
 40
31.25000064437454
100
AcDbArc
 50
211.3322448730469
 51
328.6677551269532
  0
ARC
  5
34E
330
1F
100
AcDbEntity
  8
D-0
  6
Continuous
 62
     4
370
     9
100
AcDbCircle
 10
409.9728260149968
 20
-170.696153000067
 30
0.0
 40
31.25000064437454
100
AcDbArc
 50
31.33224487304688
 51
148.6677551269531
  0
ARC
  5
34F
330
1F
100
AcDbEntity
  8
D-0
  6
Continuous
 62
     4
370
     9
100
AcDbCircle
 10
332.0977917858212
 20
-159.4461777440493
 30
0.0
 40
5.000000064437454
100
AcDbArc
 50
90.0
 51
180.0
  0
ARC
  5
350
330
1F
100
AcDbEntity
  8
D-0
  6
Continuous
 62
     4
370
     9
100
AcDbCircle
 10
332.0977917858212
 20
-181.9461282560847
 30
0.0
 40
5.000000064437454
100
AcDbArc
 50
180.0
 51
270.0
  0
ARC
  5
351
330
1F
100
AcDbEntity
  8
D-0
  6
Continuous
 62
     4
370
     9
100
AcDbCircle
 10
487.8478602441723
 20
-159.4461777440493
 30
0.0
 40
5.000000064437454
100
AcDbArc
 50
0.0
 51
90.0
  0
ARC
  5
352
330
1F
100
AcDbEntity
  8
D-0
  6
Continuous
 62
     4
370
     9
100
AcDbCircle
 10
487.8478602441723
 20
-181.9461282560847
 30
0.0
 40
5.000000064437454
100
AcDbArc
 50
270.0
 51
0.0
  0
ARC
  5
353
330
1F
100
AcDbEntity
  8
D-2
  6
Continuous
 62
     3
370
     9
100
AcDbCircle
 10
487.3475059928262
 20
-159.9461917656392
 30
0.0
 40
4.250000296412288
100
AcDbArc
 50
0.0
 51
90.0
  0
LINE
  5
354
330
1F
100
AcDbEntity
  8
D-0
  6
Continuous
 62
     4
370
     9
100
AcDbLine
 10
272.1019549608371
 20
-366.3612227978223
 30
0.0
 11
294.9727249770692
 21
-362.9307170968087
 31
0.0
  0
LINE
  5
355
330
1F
100
AcDbEntity
  8
D-0
  6
Continuous
 62
     4
370
     9
100
AcDbLine
 10
269.9728590069731
 20
-368.8335796456369
 30
0.0
 11
269.9728590069731
 21
-369.1806139968826
 31
0.0
  0
LINE
  5
356
330
1F
100
AcDbEntity
  8
D-2
  6
Continuous
 62
     3
370
     9
100
AcDbLine
 10
329.9725620791858
 20
-462.9306139968826
 30
0.0
 11
489.9725950711624
 21
-462.9306139968826
 31
0.0
  0
LINE
  5
357
330
1F
100
AcDbEntity
  8
D-2
  6
Continuous
 62
     3
370
     9
100
AcDbLine
 10
329.9725620791858
 20
-469.1806964768235
 30
0.0
 11
489.9725950711624
 21
-469.1806964768235
 31
0.0
  0
LINE
  5
358
330
1F
100
AcDbEntity
  8
D-2
  6
Continuous
 62
     3
370
     9
100
AcDbLine
 10
372.4728260149968
 20
-459.4305777057087
 30
0.0
 11
379.9727270390676
 21
-462.1806238944756
 31
0.0
  0
LINE
  5
359
330
1F
100
AcDbEntity
  8
D-2
  6
Continuous
 62
     3
370
     9
100
AcDbLine
 10
447.4728260149968
 20
-459.4305777057087
 30
0.0
 11
439.9729249909257
 21
-462.1806238944756
 31
0.0
  0
LINE
  5
35A
330
1F
100
AcDbEntity
  8
D-2
  6
Continuous
 62
     3
370
     9
100
AcDbLine
 10
379.9727270390676
 20
-462.1806238944756
 30
0.0
 11
379.9727270390676
 21
-462.9306139968826
 31
0.0
  0
LINE
  5
35B
330
1F
100
AcDbEntity
  8
D-2
  6
Continuous
 62
     3
370
     9
100
AcDbLine
 10
439.9729249909257
 20
-462.1806238944756
 30
0.0
 11
439.9729249909257
 21
-462.9306139968826
 31
0.0
  0
LINE
  5
35C
330
1F
100
AcDbEntity
  8
D-2
  6
Continuous
 62
     3
370
     9
100
AcDbLine
 10
369.9726631171134
 20
-486.6806304928708
 30
0.0
 11
369.9726631171134
 21
-469.1806964768235
 31
0.0
  0
LINE
  5
35D
330
1F
100
AcDbEntity
  8
D-2
  6
Continuous
 62
     3
370
     9
100
AcDbLine
 10
447.4728260149968
 20
-489.1805150209536
 30
0.0
 11
372.4728260149968
 21
-489.1805150209536
 31
0.0
  0
LINE
  5
35E
330
1F
100
AcDbEntity
  8
D-2
  6
Continuous
 62
     3
370
     9
100
AcDbLine
 10
449.9727105430796
 20
-486.6806304928708
 30
0.0
 11
449.9727105430796
 21
-469.1806964768235
 31
0.0
  0
LINE
  5
35F
330
1F
100
AcDbEntity
  8
D-2
  6
Continuous
 62
     3
370
     9
100
AcDbLine
 10
329.9725620791858
 20
-462.9306139968826
 30
0.0
 11
329.9725620791858
 21
-474.1807129728116
 31
0.0
  0
LINE
  5
360
330
1F
100
AcDbEntity
  8
D-2
  6
Continuous
 62
     3
370
     9
100
AcDbLine
 10
489.9725950711624
 20
-462.9306139968826
 30
0.0
 11
489.9725950711624
 21
-474.1807129728116
 31
0.0
  0
LINE
  5
361
330
1F
100
AcDbEntity
  8
D-2
  6
Continuous
 62
     3
370
     9
100
AcDbLine
 10
329.9725620791858
 20
-474.1807129728116
 30
0.0
 11
369.347661055115
 21
-474.1807129728116
 31
0.0
  0
LINE
  5
362
330
1F
100
AcDbEntity
  8
D-2
  6
Continuous
 62
     3
370
     9
100
AcDbLine
 10
450.5977435350559
 20
-474.1807129728116
 30
0.0
 11
489.9725950711624
 21
-474.1807129728116
 31
0.0
  0
LINE
  5
363
330
1F
100
AcDbEntity
  8
D-2
  6
Continuous
 62
     3
370
     9
100
AcDbLine
 10
450.5977435350559
 20
-469.1806964768235
 30
0.0
 11
450.5977435350559
 21
-474.1807129728116
 31
0.0
  0
LINE
  5
364
330
1F
100
AcDbEntity
  8
D-2
  6
Continuous
 62
     3
370
     9
100
AcDbLine
 10
369.347661055115
 20
-469.1806964768235
 30
0.0
 11
369.347661055115
 21
-474.1807129728116
 31
0.0
  0
LINE
  5
365
330
1F
100
AcDbEntity
  8
D-2
  6
Continuous
 62
     3
370
     9
100
AcDbLine
 10
372.4728260149968
 20
-426.4305183201512
 30
0.0
 11
372.4728260149968
 21
-459.4305777057087
 31
0.0
  0
LINE
  5
366
330
1F
100
AcDbEntity
  8
D-2
  6
Continuous
 62
     3
370
     9
100
AcDbLine
 10
447.4728260149968
 20
-426.4710984510634
 30
0.0
 11
447.4728260149968
 21
-459.4305777057087
 31
0.0
  0
LINE
  5
367
330
1F
100
AcDbEntity
  8
D-0
  6
Continuous
 62
     4
370
     9
100
AcDbLine
 10
547.8436970691564
 20
-366.3612227978223
 30
0.0
 11
524.9729579829022
 21
-362.9307170968087
 31
0.0
  0
LINE
  5
368
330
1F
100
AcDbEntity
  8
D-0
  6
Continuous
 62
     4
370
     9
100
AcDbLine
 10
549.9727930230205
 20
-368.8335796456369
 30
0.0
 11
549.9727930230205
 21
-369.1806139968826
 31
0.0
  0
LINE
  5
369
330
1F
100
AcDbEntity
  8
D-D
  6
Continuous
 62
     7
370
     9
100
AcDbLine
 10
269.9728590069731
 20
-369.1806139968826
 30
0.0
 11
218.7024617175939
 21
-369.1806139968826
 31
0.0
  0
LINE
  5
36A
330
1F
100
AcDbEntity
  8
D-3
  6
Continuous
 62
     3
370
     9
100
AcDbLine
 10
314.9730074708665
 20
-419.6805764685096
 30
0.0
 11
314.9730074708665
 21
-411.6805995628931
 31
0.0
  0
LINE
  5
36B
330
1F
100
AcDbEntity
  8
D-3
  6
Continuous
 62
     3
370
     9
100
AcDbLine
 10
504.973139438772
 20
-411.6805995628931
 30
0.0
 11
504.973139438772
 21
-419.6805764685096
 31
0.0
  0
LINE
  5
36C
330
1F
100
AcDbEntity
  8
D-2
  6
Continuous
 62
     3
370
     9
100
AcDbLine
 10
384.9724960952332
 20
-390.4304985249655
 30
0.0
 11
384.9724960952332
 21
-408.0027468291778
 31
0.0
  0
LINE
  5
36D
330
1F
100
AcDbEntity
  8
D-2
  6
Continuous
 62
     3
370
     9
100
AcDbLine
 10
434.972661055115
 20
-390.4304985249655
 30
0.0
 11
434.972661055115
 21
-407.9306181208796
 31
0.0
  0
LINE
  5
36E
330
1F
100
AcDbEntity
  8
D-D
  6
Continuous
 62
     7
370
     9
100
AcDbLine
 10
549.9727930230205
 20
-369.1806139968826
 30
0.0
 11
601.2431903123996
 21
-369.1806139968826
 31
0.0
  0
LINE
  5
36F
330
1F
100
AcDbEntity
  8
D-0
  6
Continuous
 62
     4
370
     9
100
AcDbLine
 10
520.1241890784996
 20
-389.180556260924
 30
0.0
 11
504.8209020878957
 21
-389.180556260924
 31
0.0
  0
LINE
  5
370
330
1F
100
AcDbEntity
  8
D-A
  6
Continuous
 62
     2
370
     9
100
AcDbLine
 10
297.3694889590686
 20
-395.4305150209536
 30
0.0
 11
297.3694889590686
 21
-389.180556260924
 31
0.0
  0
LINE
  5
371
330
1F
100
AcDbEntity
  8
D-A
  6
Continuous
 62
     2
370
     9
100
AcDbLine
 10
317.5767239345228
 20
-395.4305150209536
 30
0.0
 11
317.5767239345228
 21
-389.180556260924
 31
0.0
  0
LINE
  5
372
330
1F
100
AcDbEntity
  8
D-A
  6
Continuous
 62
     2
370
     9
100
AcDbLine
 10
312.5249306556481
 20
-395.4305150209536
 30
0.0
 11
312.5249306556481
 21
-389.180556260924
 31
0.0
  0
LINE
  5
373
330
1F
100
AcDbEntity
  8
D-A
  6
Continuous
 62
     2
370
     9
100
AcDbLine
 10
302.4212822379434
 20
-395.4305150209536
 30
0.0
 11
302.4212822379434
 21
-389.180556260924
 31
0.0
  0
LINE
  5
374
330
1F
100
AcDbEntity
  8
D-A
  6
Continuous
 62
     2
370
     9
100
AcDbLine
 10
299.8953855985062
 20
-396.6805191449506
 30
0.0
 11
315.0508272950853
 21
-396.6805191449506
 31
0.0
  0
LINE
  5
375
330
1F
100
AcDbEntity
  8
D-A
  6
Continuous
 62
     2
370
     9
100
AcDbLine
 10
317.5767239345228
 20
-389.180556260924
 30
0.0
 11
314.9733477006228
 21
-389.180556260924
 31
0.0
  0
LINE
  5
376
330
1F
100
AcDbEntity
  8
D-A
  6
Continuous
 62
     2
370
     9
100
AcDbLine
 10
299.9728342629908
 20
-389.180556260924
 30
0.0
 11
297.3694889590686
 21
-389.180556260924
 31
0.0
  0
LINE
  5
377
330
1F
100
AcDbEntity
  8
D-0
  6
Continuous
 62
     4
370
     9
100
AcDbLine
 10
315.1247499420975
 20
-389.180556260924
 30
0.0
 11
299.8214629514939
 21
-389.180556260924
 31
0.0
  0
LINE
  5
378
330
1F
100
AcDbEntity
  8
D-0
  6
Continuous
 62
     4
370
     9
100
AcDbLine
 10
296.3693062659996
 20
-371.524673296661
 30
0.0
 11
297.3263416399968
 21
-386.83643510119
 31
0.0
  0
LINE
  5
379
330
1F
100
AcDbEntity
  8
D-0
  6
Continuous
 62
     4
370
     9
100
AcDbLine
 10
523.5763457639939
 20
-371.524673296661
 30
0.0
 11
522.6193103899968
 21
-386.83643510119
 31
0.0
  0
LINE
  5
37A
330
1F
100
AcDbEntity
  8
D-A
  6
Continuous
 62
     2
370
     9
100
AcDbLine
 10
297.3697673288692
 20
-428.4305434765332
 30
0.0
 11
297.3697673288692
 21
-422.1805847165036
 31
0.0
  0
LINE
  5
37B
330
1F
100
AcDbEntity
  8
D-A
  6
Continuous
 62
     2
370
     9
100
AcDbLine
 10
317.5769404443676
 20
-428.4305434765332
 30
0.0
 11
317.5769404443676
 21
-422.1805847165036
 31
0.0
  0
LINE
  5
37C
330
1F
100
AcDbEntity
  8
D-A
  6
Continuous
 62
     2
370
     9
100
AcDbLine
 10
312.5252090254486
 20
-428.4305434765332
 30
0.0
 11
312.5252090254486
 21
-422.1805847165036
 31
0.0
  0
LINE
  5
37D
330
1F
100
AcDbEntity
  8
D-A
  6
Continuous
 62
     2
370
     9
100
AcDbLine
 10
302.4214987477882
 20
-428.4305434765332
 30
0.0
 11
302.4214987477882
 21
-422.1805847165036
 31
0.0
  0
LINE
  5
37E
330
1F
100
AcDbEntity
  8
D-A
  6
Continuous
 62
     2
370
     9
100
AcDbLine
 10
299.1238991615074
 20
-429.6805476005303
 30
0.0
 11
315.822313732084
 21
-429.6805476005303
 31
0.0
  0
LINE
  5
37F
330
1F
100
AcDbEntity
  8
D-A
  6
Continuous
 62
     2
370
     9
100
AcDbLine
 10
297.9736442160103
 20
-419.6809476282436
 30
0.0
 11
297.9736442160103
 21
-422.1806465764593
 31
0.0
  0
LINE
  5
380
330
1F
100
AcDbEntity
  8
D-A
  6
Continuous
 62
     2
370
     9
100
AcDbLine
 10
316.9731872771379
 20
-419.6809476282436
 30
0.0
 11
316.9731872771379
 21
-422.1806465764593
 31
0.0
  0
LINE
  5
381
330
1F
100
AcDbEntity
  8
D-A
  6
Continuous
 62
     2
370
     9
100
AcDbLine
 10
304.9734693585356
 20
-419.6805764685096
 30
0.0
 11
304.9734693585356
 21
-422.1802754167254
 31
0.0
  0
LINE
  5
382
330
1F
100
AcDbEntity
  8
D-A
  6
Continuous
 62
     2
370
     9
100
AcDbLine
 10
303.723403374583
 20
-419.6805764685096
 30
0.0
 11
303.723403374583
 21
-422.1802754167254
 31
0.0
  0
LINE
  5
383
330
1F
100
AcDbEntity
  8
D-A
  6
Continuous
 62
     2
370
     9
100
AcDbLine
 10
297.3697673288692
 20
-422.1805847165036
 30
0.0
 11
317.5769404443676
 21
-422.1805847165036
 31
0.0
  0
LINE
  5
384
330
1F
100
AcDbEntity
  8
D-A
  6
Continuous
 62
     2
370
     9
100
AcDbLine
 10
522.576132140947
 20
-395.4305150209536
 30
0.0
 11
522.576132140947
 21
-389.180556260924
 31
0.0
  0
LINE
  5
385
330
1F
100
AcDbEntity
  8
D-A
  6
Continuous
 62
     2
370
     9
100
AcDbLine
 10
502.3689590254486
 20
-395.4305150209536
 30
0.0
 11
502.3689590254486
 21
-389.180556260924
 31
0.0
  0
LINE
  5
386
330
1F
100
AcDbEntity
  8
D-A
  6
Continuous
 62
     2
370
     9
100
AcDbLine
 10
507.4206904443676
 20
-395.4305150209536
 30
0.0
 11
507.4206904443676
 21
-389.180556260924
 31
0.0
  0
LINE
  5
387
330
1F
100
AcDbEntity
  8
D-A
  6
Continuous
 62
     2
370
     9
100
AcDbLine
 10
517.5244007220281
 20
-395.4305150209536
 30
0.0
 11
517.5244007220281
 21
-389.180556260924
 31
0.0
  0
LINE
  5
388
330
1F
100
AcDbEntity
  8
D-A
  6
Continuous
 62
     2
370
     9
100
AcDbLine
 10
520.0502664314874
 20
-396.6805191449506
 30
0.0
 11
504.894824734908
 21
-396.6805191449506
 31
0.0
  0
LINE
  5
389
330
1F
100
AcDbEntity
  8
D-A
  6
Continuous
 62
     2
370
     9
100
AcDbLine
 10
502.3689590254486
 20
-389.180556260924
 30
0.0
 11
504.9722733993929
 21
-389.180556260924
 31
0.0
  0
LINE
  5
38A
330
1F
100
AcDbEntity
  8
D-A
  6
Continuous
 62
     2
370
     9
100
AcDbLine
 10
519.9728177670028
 20
-389.180556260924
 30
0.0
 11
522.576132140947
 21
-389.180556260924
 31
0.0
  0
LINE
  5
38B
330
1F
100
AcDbEntity
  8
D-A
  6
Continuous
 62
     2
370
     9
100
AcDbLine
 10
521.9720078139833
 20
-419.6809476282436
 30
0.0
 11
521.9720078139833
 21
-422.1806465764593
 31
0.0
  0
LINE
  5
38C
330
1F
100
AcDbEntity
  8
D-A
  6
Continuous
 62
     2
370
     9
100
AcDbLine
 10
502.9724647528556
 20
-419.6809476282436
 30
0.0
 11
502.9724647528556
 21
-422.1806465764593
 31
0.0
  0
LINE
  5
38D
330
1F
100
AcDbEntity
  8
D-A
  6
Continuous
 62
     2
370
     9
100
AcDbLine
 10
509.9729084949377
 20
-419.6805764685096
 30
0.0
 11
509.9729084949377
 21
-422.1802754167254
 31
0.0
  0
LINE
  5
38E
330
1F
100
AcDbEntity
  8
D-A
  6
Continuous
 62
     2
370
     9
100
AcDbLine
 10
508.7228425109851
 20
-419.6805764685096
 30
0.0
 11
508.7228425109851
 21
-422.1802754167254
 31
0.0
  0
LINE
  5
38F
330
1F
100
AcDbEntity
  8
D-D
  6
Continuous
 62
     7
370
     9
100
AcDbLine
 10
218.7024617175939
 20
-399.1806201828782
 30
0.0
 11
289.9728012710145
 21
-399.1806201828782
 31
0.0
  0
LINE
  5
390
330
1F
100
AcDbEntity
  8
D-D
  6
Continuous
 62
     7
370
     9
100
AcDbLine
 10
218.7024617175939
 20
-391.6806263688738
 30
0.0
 11
289.9728012710145
 21
-391.6806263688738
 31
0.0
  0
LINE
  5
391
330
1F
100
AcDbEntity
  8
D-D
  6
Continuous
 62
     7
370
     9
100
AcDbLine
 10
218.7024617175939
 20
-384.1806325548694
 30
0.0
 11
289.9728012710145
 21
-384.1806325548694
 31
0.0
  0
LINE
  5
392
330
1F
100
AcDbEntity
  8
D-D
  6
Continuous
 62
     7
370
     9
100
AcDbLine
 10
601.2431903123996
 20
-399.1806201828782
 30
0.0
 11
529.9728507589791
 21
-399.1806201828782
 31
0.0
  0
LINE
  5
393
330
1F
100
AcDbEntity
  8
D-D
  6
Continuous
 62
     7
370
     9
100
AcDbLine
 10
601.2431903123996
 20
-391.6806263688738
 30
0.0
 11
529.9728507589791
 21
-391.6806263688738
 31
0.0
  0
LINE
  5
394
330
1F
100
AcDbEntity
  8
D-D
  6
Continuous
 62
     7
370
     9
100
AcDbLine
 10
601.2431903123996
 20
-384.1806325548694
 30
0.0
 11
529.9728507589791
 21
-384.1806325548694
 31
0.0
  0
LINE
  5
395
330
1F
100
AcDbEntity
  8
D-D
  6
Continuous
 62
     7
370
     9
100
AcDbLine
 10
601.2431903123996
 20
-376.6806078108871
 30
0.0
 11
529.9728507589791
 21
-376.6806078108871
 31
0.0
  0
LINE
  5
396
330
1F
100
AcDbEntity
  8
D-2
  6
JWW_CENTER1
 62
     3
370
     9
100
AcDbLine
 10
409.9728260149968
 20
-358.0926499647352
 30
0.0
 11
409.9728260149968
 21
-492.5055494975688
 31
0.0
  0
LINE
  5
397
330
1F
100
AcDbEntity
  8
D-5
  6
JWW_PHANTOM2
 62
     7
370
     9
100
AcDbLine
 10
489.0978334381916
 20
-290.4304160450245
 30
0.0
 11
330.8477876618241
 21
-290.4304160450245
 31
0.0
  0
LINE
  5
398
330
1F
100
AcDbEntity
  8
D-5
  6
JWW_PHANTOM2
 62
     7
370
     9
100
AcDbLine
 10
384.9724960952332
 20
-316.6804407890068
 30
0.0
 11
384.9724960952332
 21
-334.2526890932192
 31
0.0
  0
LINE
  5
399
330
1F
100
AcDbEntity
  8
D-5
  6
JWW_PHANTOM2
 62
     7
370
     9
100
AcDbLine
 10
434.972661055115
 20
-316.6804407890068
 30
0.0
 11
434.972661055115
 21
-334.180560384921
 31
0.0
  0
LINE
  5
39A
330
1F
100
AcDbEntity
  8
D-5
  6
JWW_PHANTOM2
 62
     7
370
     9
100
AcDbLine
 10
328.347810343808
 20
-301.6804531609979
 30
0.0
 11
328.347810343808
 21
-292.9304861529743
 31
0.0
  0
LINE
  5
39B
330
1F
100
AcDbEntity
  8
D-5
  6
JWW_PHANTOM2
 62
     7
370
     9
100
AcDbLine
 10
377.4724713512509
 20
-309.1804160450246
 30
0.0
 11
333.0978198290012
 21
-309.1804160450246
 31
0.0
  0
LINE
  5
39C
330
1F
100
AcDbEntity
  8
D-5
  6
JWW_PHANTOM2
 62
     7
370
     9
100
AcDbLine
 10
333.0978198290012
 20
-304.180461408992
 30
0.0
 11
333.0978198290012
 21
-309.1804160450246
 31
0.0
  0
LINE
  5
39D
330
1F
100
AcDbEntity
  8
D-5
  6
JWW_PHANTOM2
 62
     7
370
     9
100
AcDbLine
 10
491.5978416861856
 20
-301.6804531609979
 30
0.0
 11
491.5978416861856
 21
-292.9304861529743
 31
0.0
  0
LINE
  5
39E
330
1F
100
AcDbEntity
  8
D-5
  6
JWW_PHANTOM2
 62
     7
370
     9
100
AcDbLine
 10
442.4726548691194
 20
-309.1804160450246
 30
0.0
 11
486.8478322009923
 21
-309.1804160450246
 31
0.0
  0
LINE
  5
39F
330
1F
100
AcDbEntity
  8
D-5
  6
JWW_PHANTOM2
 62
     7
370
     9
100
AcDbLine
 10
486.8478322009923
 20
-304.180461408992
 30
0.0
 11
486.8478322009923
 21
-309.1804160450246
 31
0.0
  0
LINE
  5
3A0
330
1F
100
AcDbEntity
  8
D-A
  6
Continuous
 62
     2
370
     9
100
AcDbLine
 10
297.3694889590686
 20
-436.6676605221676
 30
0.0
 11
297.3694889590686
 21
-430.693473444465
 31
0.0
  0
LINE
  5
3A1
330
1F
100
AcDbEntity
  8
D-A
  6
Continuous
 62
     2
370
     9
100
AcDbLine
 10
299.1238991615074
 20
-429.6805476005303
 30
0.0
 11
297.3694889590686
 21
-430.693473444465
 31
0.0
  0
LINE
  5
3A2
330
1F
100
AcDbEntity
  8
D-A
  6
Continuous
 62
     2
370
     9
100
AcDbLine
 10
300.4730647944257
 20
-439.1811542404954
 30
0.0
 11
300.4730647944257
 21
-440.3731337260845
 31
0.0
  0
LINE
  5
3A3
330
1F
100
AcDbEntity
  8
D-A
  6
Continuous
 62
     2
370
     9
100
AcDbLine
 10
299.8480936624048
 20
-438.0986668764223
 30
0.0
 11
297.3694889590686
 21
-436.6676605221676
 31
0.0
  0
LINE
  5
3A4
330
1F
100
AcDbEntity
  8
D-A
  6
Continuous
 62
     2
370
     9
100
AcDbLine
 10
315.0980883012087
 20
-438.0986668764223
 30
0.0
 11
317.5766930045449
 21
-436.6676605221676
 31
0.0
  0
LINE
  5
3A5
330
1F
100
AcDbEntity
  8
D-A
  6
Continuous
 62
     2
370
     9
100
AcDbLine
 10
314.4730862392103
 20
-440.3731337260845
 30
0.0
 11
314.4730862392103
 21
-439.1811542404954
 31
0.0
  0
LINE
  5
3A6
330
1F
100
AcDbEntity
  8
D-A
  6
Continuous
 62
     2
370
     9
100
AcDbLine
 10
317.5766930045449
 20
-436.6676605221676
 30
0.0
 11
317.5766930045449
 21
-430.693473444465
 31
0.0
  0
LINE
  5
3A7
330
1F
100
AcDbEntity
  8
D-A
  6
Continuous
 62
     2
370
     9
100
AcDbLine
 10
302.4212822379434
 20
-436.6676605221676
 30
0.0
 11
302.4212822379434
 21
-430.693473444465
 31
0.0
  0
LINE
  5
3A8
330
1F
100
AcDbEntity
  8
D-A
  6
Continuous
 62
     2
370
     9
100
AcDbLine
 10
312.5248997256702
 20
-436.6676605221676
 30
0.0
 11
312.5248997256702
 21
-430.693473444465
 31
0.0
  0
LINE
  5
3A9
330
1F
100
AcDbEntity
  8
D-A
  6
Continuous
 62
     2
370
     9
100
AcDbLine
 10
315.822313732084
 20
-429.6805476005303
 30
0.0
 11
317.5766930045449
 21
-430.693473444465
 31
0.0
  0
LINE
  5
3AA
330
1F
100
AcDbEntity
  8
D-A
  6
Continuous
 62
     2
370
     9
100
AcDbLine
 10
299.1239610214632
 20
-437.6805554361247
 30
0.0
 11
315.8222518721283
 21
-437.6805554361247
 31
0.0
  0
LINE
  5
3AB
330
1F
100
AcDbEntity
  8
D-A
  6
JWW_CENTER1
 62
     2
370
     9
100
AcDbLine
 10
307.4731064467957
 20
-370.6328383159283
 30
0.0
 11
307.4731064467957
 21
-448.8003773454363
 31
0.0
  0
LINE
  5
3AC
330
1F
100
AcDbEntity
  8
D-A
  6
JWW_CENTER1
 62
     2
370
     9
100
AcDbLine
 10
512.4725455831979
 20
-370.6328383159283
 30
0.0
 11
512.4725455831979
 21
-448.8003773454363
 31
0.0
  0
LINE
  5
3AD
330
1F
100
AcDbEntity
  8
D-A
  6
Continuous
 62
     2
370
     9
100
AcDbLine
 10
302.4733064606522
 20
-396.6805191449506
 30
0.0
 11
302.4733064606522
 21
-411.6805686329152
 31
0.0
  0
LINE
  5
3AE
330
1F
100
AcDbEntity
  8
D-A
  6
Continuous
 62
     2
370
     9
100
AcDbLine
 10
310.9732664578812
 20
-396.6805191449506
 30
0.0
 11
310.9732664578812
 21
-411.6805686329152
 31
0.0
  0
LINE
  5
3AF
330
1F
100
AcDbEntity
  8
D-A
  6
Continuous
 62
     2
370
     9
100
AcDbLine
 10
312.47346317254
 20
-396.6805191449506
 30
0.0
 11
312.47346317254
 21
-411.6805686329152
 31
0.0
  0
LINE
  5
3B0
330
1F
100
AcDbEntity
  8
D-A
  6
Continuous
 62
     2
370
     9
100
AcDbLine
 10
303.9735650352671
 20
-396.6805191449506
 30
0.0
 11
303.9735650352671
 21
-411.6805686329152
 31
0.0
  0
LINE
  5
3B1
330
1F
100
AcDbEntity
  8
D-D
  6
Continuous
 62
     7
370
     9
100
AcDbLine
 10
218.7024617175939
 20
-406.6806139968826
 30
0.0
 11
302.4733064606522
 21
-406.6806139968826
 31
0.0
  0
LINE
  5
3B2
330
1F
100
AcDbEntity
  8
D-D
  6
Continuous
 62
     7
370
     9
100
AcDbLine
 10
312.47346317254
 20
-406.6806139968826
 30
0.0
 11
384.9724960952332
 21
-406.6806139968826
 31
0.0
  0
LINE
  5
3B3
330
1F
100
AcDbEntity
  8
D-A
  6
Continuous
 62
     2
370
     9
100
AcDbLine
 10
508.9723855721124
 20
-396.6805191449506
 30
0.0
 11
508.9723855721124
 21
-411.6805686329152
 31
0.0
  0
LINE
  5
3B4
330
1F
100
AcDbEntity
  8
D-A
  6
Continuous
 62
     2
370
     9
100
AcDbLine
 10
507.4721579274757
 20
-396.6805191449506
 30
0.0
 11
507.4721579274757
 21
-411.6805686329152
 31
0.0
  0
LINE
  5
3B5
330
1F
100
AcDbEntity
  8
D-A
  6
Continuous
 62
     2
370
     9
100
AcDbLine
 10
515.9720869947264
 20
-396.6805191449506
 30
0.0
 11
515.9720869947264
 21
-411.6805686329152
 31
0.0
  0
LINE
  5
3B6
330
1F
100
AcDbEntity
  8
D-A
  6
Continuous
 62
     2
370
     9
100
AcDbLine
 10
517.4723146393635
 20
-396.6805191449506
 30
0.0
 11
517.4723146393635
 21
-411.6805686329152
 31
0.0
  0
LINE
  5
3B7
330
1F
100
AcDbEntity
  8
D-D
  6
Continuous
 62
     7
370
     9
100
AcDbLine
 10
434.972661055115
 20
-406.6806139968826
 30
0.0
 11
507.4721579274757
 21
-406.6806139968826
 31
0.0
  0
LINE
  5
3B8
330
1F
100
AcDbEntity
  8
D-D
  6
Continuous
 62
     7
370
     9
100
AcDbLine
 10
517.4723146393635
 20
-406.6806139968826
 30
0.0
 11
601.2431903123996
 21
-406.6806139968826
 31
0.0
  0
LINE
  5
3B9
330
1F
100
AcDbEntity
  8
D-D
  6
Continuous
 62
     7
370
     9
100
AcDbLine
 10
289.9728012710145
 20
-369.1806139968826
 30
0.0
 11
289.9728012710145
 21
-411.6805686329152
 31
0.0
  0
LINE
  5
3BA
330
1F
100
AcDbEntity
  8
D-D
  6
Continuous
 62
     7
370
     9
100
AcDbLine
 10
529.9728507589791
 20
-369.1806139968826
 30
0.0
 11
529.9728507589791
 21
-411.6805686329152
 31
0.0
  0
LINE
  5
3BB
330
1F
100
AcDbEntity
  8
D-D
  6
Continuous
 62
     7
370
     9
100
AcDbLine
 10
601.0158549753535
 20
-411.6805686329152
 30
0.0
 11
601.2431903123996
 21
-411.453264225847
 31
0.0
  0
LINE
  5
3BC
330
1F
100
AcDbEntity
  8
D-A
  6
Continuous
 62
     2
370
     9
100
AcDbLine
 10
522.5758847011243
 20
-428.4305434765332
 30
0.0
 11
522.5758847011243
 21
-422.1805847165036
 31
0.0
  0
LINE
  5
3BD
330
1F
100
AcDbEntity
  8
D-A
  6
Continuous
 62
     2
370
     9
100
AcDbLine
 10
502.3687115856259
 20
-428.4305434765332
 30
0.0
 11
502.3687115856259
 21
-422.1805847165036
 31
0.0
  0
LINE
  5
3BE
330
1F
100
AcDbEntity
  8
D-A
  6
Continuous
 62
     2
370
     9
100
AcDbLine
 10
507.4204430045449
 20
-428.4305434765332
 30
0.0
 11
507.4204430045449
 21
-422.1805847165036
 31
0.0
  0
LINE
  5
3BF
330
1F
100
AcDbEntity
  8
D-A
  6
Continuous
 62
     2
370
     9
100
AcDbLine
 10
517.5241532822054
 20
-428.4305434765332
 30
0.0
 11
517.5241532822054
 21
-422.1805847165036
 31
0.0
  0
LINE
  5
3C0
330
1F
100
AcDbEntity
  8
D-A
  6
Continuous
 62
     2
370
     9
100
AcDbLine
 10
520.8217837984637
 20
-429.6805476005303
 30
0.0
 11
504.1233073679317
 21
-429.6805476005303
 31
0.0
  0
LINE
  5
3C1
330
1F
100
AcDbEntity
  8
D-A
  6
Continuous
 62
     2
370
     9
100
AcDbLine
 10
522.5758847011243
 20
-422.1805847165036
 30
0.0
 11
502.3687115856259
 21
-422.1805847165036
 31
0.0
  0
LINE
  5
3C2
330
1F
100
AcDbEntity
  8
D-A
  6
Continuous
 62
     2
370
     9
100
AcDbLine
 10
522.576132140947
 20
-436.6676605221676
 30
0.0
 11
522.576132140947
 21
-430.693473444465
 31
0.0
  0
LINE
  5
3C3
330
1F
100
AcDbEntity
  8
D-A
  6
Continuous
 62
     2
370
     9
100
AcDbLine
 10
520.8217837984637
 20
-429.6805476005303
 30
0.0
 11
522.576132140947
 21
-430.693473444465
 31
0.0
  0
LINE
  5
3C4
330
1F
100
AcDbEntity
  8
D-A
  6
Continuous
 62
     2
370
     9
100
AcDbLine
 10
519.4726181655458
 20
-439.1811542404954
 30
0.0
 11
519.4726181655458
 21
-440.3731337260845
 31
0.0
  0
LINE
  5
3C5
330
1F
100
AcDbEntity
  8
D-A
  6
Continuous
 62
     2
370
     9
100
AcDbLine
 10
520.0975274376108
 20
-438.0986668764223
 30
0.0
 11
522.576132140947
 21
-436.6676605221676
 31
0.0
  0
LINE
  5
3C6
330
1F
100
AcDbEntity
  8
D-A
  6
Continuous
 62
     2
370
     9
100
AcDbLine
 10
504.8475637287848
 20
-438.0986668764223
 30
0.0
 11
502.3689590254486
 21
-436.6676605221676
 31
0.0
  0
LINE
  5
3C7
330
1F
100
AcDbEntity
  8
D-A
  6
Continuous
 62
     2
370
     9
100
AcDbLine
 10
505.4725967207611
 20
-440.3731337260845
 30
0.0
 11
505.4725967207611
 21
-439.1811542404954
 31
0.0
  0
LINE
  5
3C8
330
1F
100
AcDbEntity
  8
D-A
  6
Continuous
 62
     2
370
     9
100
AcDbLine
 10
502.3689590254486
 20
-436.6676605221676
 30
0.0
 11
502.3689590254486
 21
-430.693473444465
 31
0.0
  0
LINE
  5
3C9
330
1F
100
AcDbEntity
  8
D-A
  6
Continuous
 62
     2
370
     9
100
AcDbLine
 10
517.5244007220281
 20
-436.6676605221676
 30
0.0
 11
517.5244007220281
 21
-430.693473444465
 31
0.0
  0
LINE
  5
3CA
330
1F
100
AcDbEntity
  8
D-A
  6
Continuous
 62
     2
370
     9
100
AcDbLine
 10
507.4207523043231
 20
-436.6676605221676
 30
0.0
 11
507.4207523043231
 21
-430.693473444465
 31
0.0
  0
LINE
  5
3CB
330
1F
100
AcDbEntity
  8
D-A
  6
Continuous
 62
     2
370
     9
100
AcDbLine
 10
504.1233073679317
 20
-429.6805476005303
 30
0.0
 11
502.3689590254486
 21
-430.693473444465
 31
0.0
  0
LINE
  5
3CC
330
1F
100
AcDbEntity
  8
D-A
  6
Continuous
 62
     2
370
     9
100
AcDbLine
 10
520.8216600785524
 20
-437.6805554361247
 30
0.0
 11
504.1234310878431
 21
-437.6805554361247
 31
0.0
  0
LINE
  5
3CD
330
1F
100
AcDbEntity
  8
D-5
  6
JWW_PHANTOM2
 62
     7
370
     9
100
AcDbLine
 10
489.0978334381916
 20
-304.180461408992
 30
0.0
 11
330.8477876618241
 21
-304.180461408992
 31
0.0
  0
LINE
  5
3CE
330
1F
100
AcDbEntity
  8
D-0
  6
Continuous
 62
     4
370
     9
100
AcDbLine
 10
326.8867400511033
 20
-389.180556260924
 30
0.0
 11
493.0589119788903
 21
-389.180556260924
 31
0.0
  0
LINE
  5
3CF
330
1F
100
AcDbEntity
  8
D-0
  6
Continuous
 62
     4
370
     9
100
AcDbLine
 10
549.9727930230205
 20
-369.1806139968826
 30
0.0
 11
269.9728590069731
 21
-369.1806139968826
 31
0.0
  0
LINE
  5
3D0
330
1F
100
AcDbEntity
  8
D-D
  6
Continuous
 62
     7
370
     9
100
AcDbLine
 10
218.7024617175939
 20
-376.6806078108871
 30
0.0
 11
289.9728012710145
 21
-376.6806078108871
 31
0.0
  0
LINE
  5
3D1
330
1F
100
AcDbEntity
  8
D-5
  6
JWW_PHANTOM2
 62
     7
370
     9
100
AcDbLine
 10
372.4728260149968
 20
-361.2290115765912
 30
0.0
 11
372.4728260149968
 21
-352.7210407151048
 31
0.0
  0
LINE
  5
3D2
330
1F
100
AcDbEntity
  8
D-5
  6
JWW_PHANTOM2
 62
     7
370
     9
100
AcDbLine
 10
447.4728260149968
 20
-361.2290115765912
 30
0.0
 11
447.4728260149968
 21
-352.7210407151048
 31
0.0
  0
LINE
  5
3D3
330
1F
100
AcDbEntity
  8
D-0
  6
Continuous
 62
     4
370
     9
100
AcDbLine
 10
317.8151012736538
 20
-383.7127547802442
 30
0.0
 11
317.6198712535947
 21
-386.83643510119
 31
0.0
  0
LINE
  5
3D4
330
1F
100
AcDbEntity
  8
D-0
  6
Continuous
 62
     4
370
     9
100
AcDbLine
 10
494.6451249618929
 20
-376.6806078108871
 30
0.0
 11
325.3004961381228
 21
-376.6806078108871
 31
0.0
  0
LINE
  5
3D5
330
1F
100
AcDbEntity
  8
D-0
  6
Continuous
 62
     4
370
     9
100
AcDbLine
 10
502.1305507563397
 20
-383.7127547802442
 30
0.0
 11
502.3257807763989
 21
-386.83643510119
 31
0.0
  0
LINE
  5
3D6
330
1F
100
AcDbEntity
  8
D-0
  6
Continuous
 62
     4
370
     9
100
AcDbLine
 10
498.8722631718801
 20
-377.9852961356866
 30
0.0
 11
498.0203278625476
 21
-384.8006858204152
 31
0.0
  0
LINE
  5
3D7
330
1F
100
AcDbEntity
  8
D-0
  6
Continuous
 62
     4
370
     9
100
AcDbLine
 10
321.073419788091
 20
-377.9852961356866
 30
0.0
 11
321.9253550974238
 21
-384.8006858204152
 31
0.0
  0
ARC
  5
3D8
330
1F
100
AcDbEntity
  8
D-0
  6
Continuous
 62
     4
370
     9
100
AcDbCircle
 10
272.4727435350559
 20
-368.8335796456369
 30
0.0
 40
2.500000032218727
100
AcDbArc
 50
98.53070068359375
 51
180.0
  0
ARC
  5
3D9
330
1F
100
AcDbEntity
  8
D-2
  6
Continuous
 62
     3
370
     9
100
AcDbCircle
 10
372.4728260149968
 20
-486.6806304928708
 30
0.0
 40
2.500000032218727
100
AcDbArc
 50
180.0
 51
270.0
  0
ARC
  5
3DA
330
1F
100
AcDbEntity
  8
D-2
  6
Continuous
 62
     3
370
     9
100
AcDbCircle
 10
447.4728260149968
 20
-486.6806304928708
 30
0.0
 40
2.500000032218727
100
AcDbArc
 50
270.0
 51
0.0
  0
ARC
  5
3DB
330
1F
100
AcDbEntity
  8
D-2
  6
Continuous
 62
     3
370
     9
100
AcDbCircle
 10
384.9727435350559
 20
-426.4710984510634
 30
0.0
 40
12.50000064437454
100
AcDbArc
 50
112.0243377685547
 51
180.0
  0
ARC
  5
3DC
330
1F
100
AcDbEntity
  8
D-2
  6
Continuous
 62
     3
370
     9
100
AcDbCircle
 10
434.972661055115
 20
-426.4710984510634
 30
0.0
 40
12.50000064437454
100
AcDbArc
 50
0.0
 51
67.9756622314453
  0
ARC
  5
3DD
330
1F
100
AcDbEntity
  8
D-2
  6
Continuous
 62
     3
370
     9
100
AcDbCircle
 10
377.4728115810072
 20
-407.9306181208796
 30
0.0
 40
7.500000096656181
100
AcDbArc
 50
292.0240478515625
 51
359.4492034912109
  0
ARC
  5
3DE
330
1F
100
AcDbEntity
  8
D-2
  6
Continuous
 62
     3
370
     9
100
AcDbCircle
 10
442.4725620791858
 20
-407.9306181208796
 30
0.0
 40
7.500000096656181
100
AcDbArc
 50
180.0
 51
247.9759521484375
  0
ARC
  5
3DF
330
1F
100
AcDbEntity
  8
D-0
  6
Continuous
 62
     4
370
     9
100
AcDbCircle
 10
547.4729084949377
 20
-368.8335796456369
 30
0.0
 40
2.500000032218727
100
AcDbArc
 50
0.0
 51
81.46929931640625
  0
ARC
  5
3E0
330
1F
100
AcDbEntity
  8
D-A
  6
Continuous
 62
     2
370
     9
100
AcDbCircle
 10
307.4731064467957
 20
-385.8471706902949
 30
0.0
 40
10.83333975559956
100
AcDbArc
 50
242.2042083740235
 51
297.7957916259766
  0
ARC
  5
3E1
330
1F
100
AcDbEntity
  8
D-A
  6
Continuous
 62
     2
370
     9
100
AcDbCircle
 10
315.0508272950853
 20
-393.5034536822712
 30
0.0
 40
3.177055072140049
100
AcDbArc
 50
217.3407897949219
 51
322.6592102050781
  0
ARC
  5
3E2
330
1F
100
AcDbEntity
  8
D-A
  6
Continuous
 62
     2
370
     9
100
AcDbCircle
 10
299.8953855985062
 20
-393.5034536822712
 30
0.0
 40
3.177055072140049
100
AcDbArc
 50
217.3407897949219
 51
322.6592102050781
  0
ARC
  5
3E3
330
1F
100
AcDbEntity
  8
D-0
  6
Continuous
 62
     4
370
     9
100
AcDbCircle
 10
299.8214629514939
 20
-386.68054801293
 30
0.0
 40
2.500000032218727
100
AcDbArc
 50
183.576416015625
 51
270.0
  0
ARC
  5
3E4
330
1F
100
AcDbEntity
  8
D-0
  6
Continuous
 62
     4
370
     9
100
AcDbCircle
 10
315.1247499420975
 20
-386.68054801293
 30
0.0
 40
2.500000032218727
100
AcDbArc
 50
270.0
 51
356.423583984375
  0
ARC
  5
3E5
330
1F
100
AcDbEntity
  8
D-0
  6
Continuous
 62
     4
370
     9
100
AcDbCircle
 10
293.8741849545028
 20
-371.6806222448768
 30
0.0
 40
2.500000032218727
100
AcDbArc
 50
3.576416015625
 51
90.00000000000001
  0
ARC
  5
3E6
330
1F
100
AcDbEntity
  8
D-0
  6
Continuous
 62
     4
370
     9
100
AcDbCircle
 10
520.1241890784996
 20
-386.68054801293
 30
0.0
 40
2.500000032218727
100
AcDbArc
 50
270.0
 51
356.423583984375
  0
ARC
  5
3E7
330
1F
100
AcDbEntity
  8
D-0
  6
Continuous
 62
     4
370
     9
100
AcDbCircle
 10
504.8209020878957
 20
-386.68054801293
 30
0.0
 40
2.500000032218727
100
AcDbArc
 50
183.576416015625
 51
270.0
  0
ARC
  5
3E8
330
1F
100
AcDbEntity
  8
D-0
  6
Continuous
 62
     4
370
     9
100
AcDbCircle
 10
526.0714670754908
 20
-371.6806222448768
 30
0.0
 40
2.500000032218727
100
AcDbArc
 50
90.0
 51
176.423583984375
  0
ARC
  5
3E9
330
1F
100
AcDbEntity
  8
D-0
  6
Continuous
 62
     4
370
     9
100
AcDbCircle
 10
493.0589119788903
 20
-384.1805397649359
 30
0.0
 40
5.000000064437454
100
AcDbArc
 50
270.0
 51
352.8752899169922
  0
ARC
  5
3EA
330
1F
100
AcDbEntity
  8
D-0
  6
Continuous
 62
     4
370
     9
100
AcDbCircle
 10
326.8867400511033
 20
-384.1805397649359
 30
0.0
 40
5.000000064437454
100
AcDbArc
 50
187.1247100830078
 51
270.0
  0
ARC
  5
3EB
330
1F
100
AcDbEntity
  8
D-A
  6
Continuous
 62
     2
370
     9
100
AcDbCircle
 10
307.4733538866184
 20
-418.8471991458744
 30
0.0
 40
10.83333975559956
100
AcDbArc
 50
242.2042083740235
 51
297.7957916259766
  0
ARC
  5
3EC
330
1F
100
AcDbEntity
  8
D-A
  6
Continuous
 62
     2
370
     9
100
AcDbCircle
 10
315.051074734908
 20
-426.5034821378507
 30
0.0
 40
3.177055072140049
100
AcDbArc
 50
217.3407897949219
 51
322.6592102050781
  0
ARC
  5
3ED
330
1F
100
AcDbEntity
  8
D-A
  6
Continuous
 62
     2
370
     9
100
AcDbCircle
 10
299.8956330383285
 20
-426.5034821378507
 30
0.0
 40
3.177055072140049
100
AcDbArc
 50
217.3407897949219
 51
322.6592102050781
  0
ARC
  5
3EE
330
1F
100
AcDbEntity
  8
D-A
  6
Continuous
 62
     2
370
     9
100
AcDbCircle
 10
512.4725455831979
 20
-385.8471706902949
 30
0.0
 40
10.83333975559956
100
AcDbArc
 50
242.2042083740235
 51
297.7957916259766
  0
ARC
  5
3EF
330
1F
100
AcDbEntity
  8
D-A
  6
Continuous
 62
     2
370
     9
100
AcDbCircle
 10
504.894824734908
 20
-393.5034536822712
 30
0.0
 40
3.177055072140049
100
AcDbArc
 50
217.3407897949219
 51
322.6592102050781
  0
ARC
  5
3F0
330
1F
100
AcDbEntity
  8
D-A
  6
Continuous
 62
     2
370
     9
100
AcDbCircle
 10
520.0502664314874
 20
-393.5034536822712
 30
0.0
 40
3.177055072140049
100
AcDbArc
 50
217.3407897949219
 51
322.6592102050781
  0
ARC
  5
3F1
330
1F
100
AcDbEntity
  8
D-5
  6
JWW_PHANTOM2
 62
     7
370
     9
100
AcDbCircle
 10
330.8477876618241
 20
-292.9304861529743
 30
0.0
 40
2.500000032218727
100
AcDbArc
 50
90.0
 51
180.0
  0
ARC
  5
3F2
330
1F
100
AcDbEntity
  8
D-5
  6
JWW_PHANTOM2
 62
     7
370
     9
100
AcDbCircle
 10
489.0978334381916
 20
-292.9304861529743
 30
0.0
 40
2.500000032218727
100
AcDbArc
 50
0.0
 51
90.0
  0
ARC
  5
3F3
330
1F
100
AcDbEntity
  8
D-5
  6
JWW_PHANTOM2
 62
     7
370
     9
100
AcDbCircle
 10
377.4724713512509
 20
-316.6804407890068
 30
0.0
 40
7.500000096656181
100
AcDbArc
 50
0.0
 51
90.0
  0
ARC
  5
3F4
330
1F
100
AcDbEntity
  8
D-5
  6
JWW_PHANTOM2
 62
     7
370
     9
100
AcDbCircle
 10
442.4726548691194
 20
-316.6804407890068
 30
0.0
 40
7.500000096656181
100
AcDbArc
 50
90.0
 51
180.0
  0
ARC
  5
3F5
330
1F
100
AcDbEntity
  8
D-5
  6
JWW_PHANTOM2
 62
     7
370
     9
100
AcDbCircle
 10
330.8477876618241
 20
-301.6804531609979
 30
0.0
 40
2.500000032218727
100
AcDbArc
 50
180.0
 51
270.0
  0
ARC
  5
3F6
330
1F
100
AcDbEntity
  8
D-5
  6
JWW_PHANTOM2
 62
     7
370
     9
100
AcDbCircle
 10
489.0978334381916
 20
-301.6804531609979
 30
0.0
 40
2.500000032218727
100
AcDbArc
 50
270.0
 51
0.0
  0
ARC
  5
3F7
330
1F
100
AcDbEntity
  8
D-5
  6
JWW_PHANTOM2
 62
     7
370
     9
100
AcDbCircle
 10
384.9727435350559
 20
-352.7210407151048
 30
0.0
 40
12.50000064437454
100
AcDbArc
 50
112.0243377685547
 51
180.0
  0
ARC
  5
3F8
330
1F
100
AcDbEntity
  8
D-5
  6
JWW_PHANTOM2
 62
     7
370
     9
100
AcDbCircle
 10
377.4728115810072
 20
-334.180560384921
 30
0.0
 40
7.500000096656181
100
AcDbArc
 50
292.0240478515625
 51
359.4492034912109
  0
ARC
  5
3F9
330
1F
100
AcDbEntity
  8
D-5
  6
JWW_PHANTOM2
 62
     7
370
     9
100
AcDbCircle
 10
434.9729084949377
 20
-352.7210407151048
 30
0.0
 40
12.50000064437454
100
AcDbArc
 50
0.0
 51
67.9756622314453
  0
ARC
  5
3FA
330
1F
100
AcDbEntity
  8
D-5
  6
JWW_PHANTOM2
 62
     7
370
     9
100
AcDbCircle
 10
442.4728404489863
 20
-334.180560384921
 30
0.0
 40
7.500000096656181
100
AcDbArc
 50
180.5507965087891
 51
247.9759521484375
  0
ARC
  5
3FB
330
1F
100
AcDbEntity
  8
D-A
  6
Continuous
 62
     2
370
     9
100
AcDbCircle
 10
307.4731064467957
 20
-424.5764826591241
 30
0.0
 40
13.10409210823678
100
AcDbArc
 50
247.3243103027344
 51
292.6756896972656
  0
ARC
  5
3FC
330
1F
100
AcDbEntity
  8
D-A
  6
Continuous
 62
     2
370
     9
100
AcDbCircle
 10
299.1239610214632
 20
-431.8073238060571
 30
0.0
 40
5.873256277393651
100
AcDbArc
 50
270.0
 51
304.1535186767578
  0
ARC
  5
3FD
330
1F
100
AcDbEntity
  8
D-A
  6
Continuous
 62
     2
370
     9
100
AcDbCircle
 10
307.4731064467957
 20
-442.7846513075087
 30
0.0
 40
13.10409210823678
100
AcDbArc
 50
67.32431030273438
 51
112.6756896972656
  0
ARC
  5
3FE
330
1F
100
AcDbEntity
  8
D-A
  6
Continuous
 62
     2
370
     9
100
AcDbCircle
 10
299.1239610214632
 20
-435.5537792305979
 30
0.0
 40
5.873256277393651
100
AcDbArc
 50
55.84648132324219
 51
90.0
  0
ARC
  5
3FF
330
1F
100
AcDbEntity
  8
D-A
  6
Continuous
 62
     2
370
     9
100
AcDbCircle
 10
307.4731064467957
 20
-437.6805554361247
 30
0.0
 40
7.500000096656181
100
AcDbArc
 50
201.0391845703125
 51
338.9608154296875
  0
ARC
  5
400
330
1F
100
AcDbEntity
  8
D-A
  6
Continuous
 62
     2
370
     9
100
AcDbCircle
 10
299.2230916004064
 20
-439.1811542404954
 30
0.0
 40
1.250000016109364
100
AcDbArc
 50
0.0
 51
59.99960327148438
  0
ARC
  5
401
330
1F
100
AcDbEntity
  8
D-A
  6
Continuous
 62
     2
370
     9
100
AcDbCircle
 10
315.8222518721283
 20
-431.8073238060571
 30
0.0
 40
5.873256277393651
100
AcDbArc
 50
235.8464813232422
 51
270.0
  0
ARC
  5
402
330
1F
100
AcDbEntity
  8
D-A
  6
Continuous
 62
     2
370
     9
100
AcDbCircle
 10
315.8222518721283
 20
-435.5537792305979
 30
0.0
 40
5.873256277393651
100
AcDbArc
 50
90.0
 51
124.1535186767578
  0
ARC
  5
403
330
1F
100
AcDbEntity
  8
D-A
  6
Continuous
 62
     2
370
     9
100
AcDbCircle
 10
315.7230903632072
 20
-439.1811542404954
 30
0.0
 40
1.250000016109364
100
AcDbArc
 50
120.0003967285156
 51
180.0
  0
ARC
  5
404
330
1F
100
AcDbEntity
  8
D-A
  6
Continuous
 62
     2
370
     9
100
AcDbCircle
 10
512.4722981433752
 20
-418.8471991458744
 30
0.0
 40
10.83333975559956
100
AcDbArc
 50
242.2042083740235
 51
297.7957916259766
  0
ARC
  5
405
330
1F
100
AcDbEntity
  8
D-A
  6
Continuous
 62
     2
370
     9
100
AcDbCircle
 10
504.8945772950853
 20
-426.5034821378507
 30
0.0
 40
3.177055072140049
100
AcDbArc
 50
217.3407897949219
 51
322.6592102050781
  0
ARC
  5
406
330
1F
100
AcDbEntity
  8
D-A
  6
Continuous
 62
     2
370
     9
100
AcDbCircle
 10
520.0500189916647
 20
-426.5034821378507
 30
0.0
 40
3.177055072140049
100
AcDbArc
 50
217.3407897949219
 51
322.6592102050781
  0
ARC
  5
407
330
1F
100
AcDbEntity
  8
D-A
  6
Continuous
 62
     2
370
     9
100
AcDbCircle
 10
512.4725455831979
 20
-424.5764826591241
 30
0.0
 40
13.10409210823678
100
AcDbArc
 50
247.3243103027344
 51
292.6756896972656
  0
ARC
  5
408
330
1F
100
AcDbEntity
  8
D-A
  6
Continuous
 62
     2
370
     9
100
AcDbCircle
 10
520.8216600785524
 20
-431.8073238060571
 30
0.0
 40
5.873256277393651
100
AcDbArc
 50
235.8464813232422
 51
270.0
  0
ARC
  5
409
330
1F
100
AcDbEntity
  8
D-A
  6
Continuous
 62
     2
370
     9
100
AcDbCircle
 10
512.4725455831979
 20
-442.7846513075087
 30
0.0
 40
13.10409210823678
100
AcDbArc
 50
67.32431030273438
 51
112.6756896972656
  0
ARC
  5
40A
330
1F
100
AcDbEntity
  8
D-A
  6
Continuous
 62
     2
370
     9
100
AcDbCircle
 10
520.8216600785524
 20
-435.5537792305979
 30
0.0
 40
5.873256277393651
100
AcDbArc
 50
90.0
 51
124.1535186767578
  0
ARC
  5
40B
330
1F
100
AcDbEntity
  8
D-A
  6
Continuous
 62
     2
370
     9
100
AcDbCircle
 10
512.4725455831979
 20
-437.6805554361247
 30
0.0
 40
7.500000096656181
100
AcDbArc
 50
201.0391845703125
 51
338.9608154296875
  0
ARC
  5
40C
330
1F
100
AcDbEntity
  8
D-A
  6
Continuous
 62
     2
370
     9
100
AcDbCircle
 10
520.7225604295871
 20
-439.1811542404954
 30
0.0
 40
1.250000016109364
100
AcDbArc
 50
120.0003967285156
 51
180.0
  0
ARC
  5
40D
330
1F
100
AcDbEntity
  8
D-A
  6
Continuous
 62
     2
370
     9
100
AcDbCircle
 10
504.1234310878431
 20
-431.8073238060571
 30
0.0
 40
5.873256277393651
100
AcDbArc
 50
270.0
 51
304.1535186767578
  0
ARC
  5
40E
330
1F
100
AcDbEntity
  8
D-A
  6
Continuous
 62
     2
370
     9
100
AcDbCircle
 10
504.1234310878431
 20
-435.5537792305979
 30
0.0
 40
5.873256277393651
100
AcDbArc
 50
55.84648132324219
 51
90.0
  0
ARC
  5
40F
330
1F
100
AcDbEntity
  8
D-A
  6
Continuous
 62
     2
370
     9
100
AcDbCircle
 10
504.2225307368085
 20
-439.1811542404954
 30
0.0
 40
1.250000016109364
100
AcDbArc
 50
0.0
 51
59.99960327148438
  0
ARC
  5
410
330
1F
100
AcDbEntity
  8
D-2
  6
Continuous
 62
     3
370
     9
100
AcDbCircle
 10
377.4724713512509
 20
-390.4304985249655
 30
0.0
 40
7.500000096656181
100
AcDbArc
 50
0.0
 51
9.593612670898438
  0
ARC
  5
411
330
1F
100
AcDbEntity
  8
D-2
  6
Continuous
 62
     3
370
     9
100
AcDbCircle
 10
442.4726548691194
 20
-390.4304985249655
 30
0.0
 40
7.500000096656181
100
AcDbArc
 50
170.4063873291016
 51
180.0
  0
ARC
  5
412
330
1F
100
AcDbEntity
  8
D-0
  6
Continuous
 62
     4
370
     9
100
AcDbCircle
 10
325.3004961381228
 20
-384.1806016248915
 30
0.0
 40
7.500000096656181
100
AcDbArc
 50
90.0
 51
176.423583984375
  0
ARC
  5
413
330
1F
100
AcDbEntity
  8
D-0
  6
Continuous
 62
     4
370
     9
100
AcDbCircle
 10
494.6451249618929
 20
-384.1806016248915
 30
0.0
 40
7.500000096656181
100
AcDbArc
 50
3.576400756835938
 51
89.99999999999999
  0
TEXT
  5
414
330
1F
100
AcDbEntity
  8
D-F
  6
Continuous
 62
     7
370
     9
100
AcDbText
 10
172.030160804909
 20
-334.0781977884494
 30
0.0
 40
11.43
  1
ＳＣＳ１３
 41
1.133333333333333
  7
ＭＳ ゴシック
100
AcDbText
  0
TEXT
  5
415
330
1F
100
AcDbEntity
  8
D-F
  6
Continuous
 62
     7
370
     9
100
AcDbText
 10
172.5300039379913
 20
-311.0125379819144
 30
0.0
 40
11.43
  1
把手カバ－
 41
1.133333333333333
  7
ＭＳ ゴシック
100
AcDbText
  0
LINE
  5
416
330
1F
100
AcDbEntity
  8
D-F
  6
Continuous
 62
     7
370
     9
100
AcDbLine
 10
168.5312588733329
 20
-318.1125843686332
 30
0.0
 11
260.4218510286632
 21
-318.1125843686332
 31
0.0
  0
LINE
  5
417
330
1F
100
AcDbEntity
  8
D-F
  6
Continuous
 62
     7
370
     9
100
AcDbLine
 10
260.4218510286632
 20
-318.1125843686332
 30
0.0
 11
305.2785521552863
 21
-362.9307170968087
 31
0.0
  0
LINE
  5
418
330
1F
100
AcDbEntity
  8
D-F
  6
Continuous
 62
     7
370
     9
100
AcDbLine
 10
305.2785521552863
 20
-362.9307170968087
 30
0.0
 11
295.3583635289638
 21
-355.3254651208263
 31
0.0
  0
LINE
  5
419
330
1F
100
AcDbEntity
  8
D-F
  6
Continuous
 62
     7
370
     9
100
AcDbLine
 10
305.2785521552863
 20
-362.9307170968087
 30
0.0
 11
297.6647698136503
 21
-353.0170740502696
 31
0.0
  0
LINE
  5
41A
330
1F
100
AcDbEntity
  8
D-F
  6
Continuous
 62
     7
370
     9
100
AcDbLine
 10
300.6293010339243
 20
-468.7778020678135
 30
0.0
 11
372.4728260149968
 21
-441.2854078111752
 31
0.0
  0
LINE
  5
41B
330
1F
100
AcDbEntity
  8
D-F
  6
Continuous
 62
     7
370
     9
100
AcDbLine
 10
372.4728260149968
 20
-441.2854078111752
 30
0.0
 11
361.4814107682074
 21
-447.2384566831942
 31
0.0
  0
LINE
  5
41C
330
1F
100
AcDbEntity
  8
D-F
  6
Continuous
 62
     7
370
     9
100
AcDbLine
 10
372.4728260149968
 20
-441.2854078111752
 30
0.0
 11
360.3151717361507
 21
-444.1908238633198
 31
0.0
  0
LINE
  5
41D
330
1F
100
AcDbEntity
  8
D-4
  6
Continuous
 62
     7
370
     9
100
AcDbLine
 10
269.9727517186125
 20
-69.37870090441666
 30
0.0
 11
549.9729167429316
 21
-69.37870090441666
 31
0.0
  0
LINE
  5
41E
330
1F
100
AcDbEntity
  8
D-4
  6
Continuous
 62
     7
370
     9
100
AcDbLine
 10
269.9727517186125
 20
-69.37870090441666
 30
0.0
 11
282.3658124857852
 21
-67.74712350166602
 31
0.0
  0
LINE
  5
41F
330
1F
100
AcDbEntity
  8
D-4
  6
Continuous
 62
     7
370
     9
100
AcDbLine
 10
269.9727517186125
 20
-69.37870090441666
 30
0.0
 11
282.3658124857852
 21
-71.01027830716731
 31
0.0
  0
LINE
  5
420
330
1F
100
AcDbEntity
  8
D-4
  6
Continuous
 62
     7
370
     9
100
AcDbLine
 10
549.9729167429316
 20
-69.37870090441666
 30
0.0
 11
537.579855975759
 21
-67.74712350166602
 31
0.0
  0
LINE
  5
421
330
1F
100
AcDbEntity
  8
D-4
  6
Continuous
 62
     7
370
     9
100
AcDbLine
 10
549.9729167429316
 20
-69.37870090441666
 30
0.0
 11
537.579855975759
 21
-71.01027830716731
 31
0.0
  0
LINE
  5
422
330
1F
100
AcDbEntity
  8
D-4
  6
Continuous
 62
     7
370
     9
100
AcDbLine
 10
269.9727517186125
 20
-67.87870090441666
 30
0.0
 11
269.9727517186125
 21
-96.94606639612907
 31
0.0
  0
LINE
  5
423
330
1F
100
AcDbEntity
  8
D-4
  6
Continuous
 62
     7
370
     9
100
AcDbLine
 10
549.9729167429316
 20
-67.87870090441666
 30
0.0
 11
549.9729167429316
 21
-96.94606639612907
 31
0.0
  0
TEXT
  5
424
330
1F
100
AcDbEntity
  8
D-4
  6
Continuous
 62
     2
370
   211
100
AcDbText
 10
393.7228342307722
 20
-63.55870090441667
 30
0.0
 40
15.24
  1
112
 41
1.083333333333333
  7
ＭＳ ゴシック
100
AcDbText
  0
LINE
  5
425
330
1F
100
AcDbEntity
  8
D-4
  6
Continuous
 62
     7
370
     9
100
AcDbLine
 10
592.7949419985587
 20
-239.4461159485311
 30
0.0
 11
592.7949419985587
 21
-101.9459261802296
 31
0.0
  0
LINE
  5
426
330
1F
100
AcDbEntity
  8
D-4
  6
Continuous
 62
     7
370
     9
100
AcDbLine
 10
592.7949419985587
 20
-239.4461159485311
 30
0.0
 11
591.1633645958079
 21
-227.0530551813585
 31
0.0
  0
LINE
  5
427
330
1F
100
AcDbEntity
  8
D-4
  6
Continuous
 62
     7
370
     9
100
AcDbLine
 10
592.7949419985587
 20
-239.4461159485311
 30
0.0
 11
594.4265194013093
 21
-227.0530551813585
 31
0.0
  0
LINE
  5
428
330
1F
100
AcDbEntity
  8
D-4
  6
Continuous
 62
     7
370
     9
100
AcDbLine
 10
592.7949419985587
 20
-101.9459261802296
 30
0.0
 11
591.1633645958079
 21
-114.3389869474022
 31
0.0
  0
LINE
  5
429
330
1F
100
AcDbEntity
  8
D-4
  6
Continuous
 62
     7
370
     9
100
AcDbLine
 10
592.7949419985587
 20
-101.9459261802296
 30
0.0
 11
594.4265194013093
 21
-114.3389869474022
 31
0.0
  0
LINE
  5
42A
330
1F
100
AcDbEntity
  8
D-4
  6
Continuous
 62
     7
370
     9
100
AcDbLine
 10
594.2949419985587
 20
-239.4461159485311
 30
0.0
 11
554.9727765270322
 21
-239.4461159485311
 31
0.0
  0
LINE
  5
42B
330
1F
100
AcDbEntity
  8
D-4
  6
Continuous
 62
     7
370
     9
100
AcDbLine
 10
594.2949419985587
 20
-101.9459261802296
 30
0.0
 11
554.9727765270322
 21
-101.9459261802296
 31
0.0
  0
TEXT
  5
42C
330
1F
100
AcDbEntity
  8
D-4
  6
Continuous
 62
     2
370
   211
100
AcDbText
 10
586.9749419985584
 20
-181.3210210643803
 30
0.0
 40
15.24
  1
55
 50
90.0
 41
1.0625
  7
ＭＳ ゴシック
100
AcDbText
  0
TEXT
  5
42D
330
1F
100
AcDbEntity
  8
D-F
  6
Continuous
 62
     2
370
     9
100
AcDbText
 10
303.6392301518317
 20
-548.914754295943
 30
0.0
 40
15.24
  1
把手詳細図　Ｓ＝１：２
 41
1.113636363636364
  7
ＭＳ ゴシック
100
AcDbText
  0
LINE
  5
42E
330
1F
100
AcDbEntity
  8
D-F
  6
Continuous
 62
     7
370
     9
100
AcDbLine
 10
298.9783182011497
 20
-558.9331189661552
 30
0.0
 11
553.0318299978724
 21
-558.9331189661552
 31
0.0
  0
LINE
  5
42F
330
1F
100
AcDbEntity
  8
D-B
  6
Continuous
 62
     7
370
     9
100
AcDbLine
 10
482.5317795212206
 20
453.1370891286094
 30
0.0
 11
416.0508224799498
 21
453.1370891286094
 31
0.0
  0
LINE
  5
430
330
1F
100
AcDbEntity
  8
D-B
  6
Continuous
 62
     7
370
     9
100
AcDbLine
 10
501.2812846415753
 20
445.6370643846271
 30
0.0
 11
411.4765147232093
 21
445.6370643846271
 31
0.0
  0
LINE
  5
431
330
1F
100
AcDbEntity
  8
D-B
  6
Continuous
 62
     7
370
     9
100
AcDbLine
 10
439.6321477116766
 20
430.637138616574
 30
0.0
 11
402.3279746672062
 21
430.637138616574
 31
0.0
  0
LINE
  5
432
330
1F
100
AcDbEntity
  8
D-B
  6
Continuous
 62
     7
370
     9
100
AcDbLine
 10
457.6950073242188
 20
438.137039640645
 30
0.0
 11
406.902206966469
 21
438.137039640645
 31
0.0
  0
LINE
  5
433
330
1F
100
AcDbEntity
  8
D-B
  6
Continuous
 62
     7
370
     9
100
AcDbLine
 10
437.5313836175044
 20
423.1369901526804
 30
0.0
 11
397.753591452988
 21
423.1369901526804
 31
0.0
  0
LINE
  5
434
330
1F
100
AcDbEntity
  8
D-B
  6
Continuous
 62
     7
370
     9
100
AcDbLine
 10
393.1793591537252
 20
415.6370891286094
 30
0.0
 11
437.5313836175044
 21
415.6370891286094
 31
0.0
  0
LINE
  5
435
330
1F
100
AcDbEntity
  8
D-B
  6
Continuous
 62
     7
370
     9
100
AcDbLine
 10
395.369122479413
 20
410.6369489127099
 30
0.0
 11
392.114660230825
 21
413.8914111612982
 31
0.0
  0
LINE
  5
436
330
1F
100
AcDbEntity
  8
D-B
  6
Continuous
 62
     7
370
     9
100
AcDbLine
 10
368.4842340293202
 20
453.1370891286094
 30
0.0
 11
342.5313176335516
 21
453.1370891286094
 31
0.0
  0
LINE
  5
437
330
1F
100
AcDbEntity
  8
D-B
  6
Continuous
 62
     7
370
     9
100
AcDbLine
 10
405.924894122582
 20
453.1370891286094
 30
0.0
 11
378.1517087926102
 21
453.1370891286094
 31
0.0
  0
LINE
  5
438
330
1F
100
AcDbEntity
  8
D-B
  6
Continuous
 62
     7
370
     9
100
AcDbLine
 10
363.9099262725797
 20
445.6370643846271
 30
0.0
 11
323.7818125131969
 21
445.6370643846271
 31
0.0
  0
LINE
  5
439
330
1F
100
AcDbEntity
  8
D-B
  6
Continuous
 62
     7
370
     9
100
AcDbLine
 10
401.3505863658415
 20
445.6370643846271
 30
0.0
 11
373.5774010358698
 21
445.6370643846271
 31
0.0
  0
LINE
  5
43A
330
1F
100
AcDbEntity
  8
D-B
  6
Continuous
 62
     7
370
     9
100
AcDbLine
 10
354.7613862165765
 20
430.637138616574
 30
0.0
 11
323.7815032134187
 21
430.637138616574
 31
0.0
  0
LINE
  5
43B
330
1F
100
AcDbEntity
  8
D-B
  6
Continuous
 62
     7
370
     9
100
AcDbLine
 10
392.2020463098383
 20
430.637138616574
 30
0.0
 11
364.4288609798667
 21
430.637138616574
 31
0.0
  0
LINE
  5
43C
330
1F
100
AcDbEntity
  8
D-B
  6
Continuous
 62
     7
370
     9
100
AcDbLine
 10
359.3356185158393
 20
438.137039640645
 30
0.0
 11
323.7815032134187
 21
438.137039640645
 31
0.0
  0
LINE
  5
43D
330
1F
100
AcDbEntity
  8
D-B
  6
Continuous
 62
     7
370
     9
100
AcDbLine
 10
396.776278609101
 20
438.137039640645
 30
0.0
 11
369.0030932791294
 21
438.137039640645
 31
0.0
  0
LINE
  5
43E
330
1F
100
AcDbEntity
  8
D-B
  6
Continuous
 62
     7
370
     9
100
AcDbLine
 10
350.1870030023583
 20
423.1369901526804
 30
0.0
 11
323.7818125131969
 21
423.1369901526804
 31
0.0
  0
LINE
  5
43F
330
1F
100
AcDbEntity
  8
D-B
  6
Continuous
 62
     7
370
     9
100
AcDbLine
 10
387.6276630956201
 20
423.1369901526804
 30
0.0
 11
359.8544777656484
 21
423.1369901526804
 31
0.0
  0
LINE
  5
440
330
1F
100
AcDbEntity
  8
D-B
  6
Continuous
 62
     7
370
     9
100
AcDbLine
 10
379.459236763619
 20
410.6369489127099
 30
0.0
 11
374.4589728278081
 21
415.6370891286094
 31
0.0
  0
LINE
  5
441
330
1F
100
AcDbEntity
  8
D-B
  6
Continuous
 62
     7
370
     9
100
AcDbLine
 10
381.8066557749862
 20
413.5928795983951
 30
0.0
 11
379.7625979861698
 21
415.6370891286094
 31
0.0
  0
LINE
  5
442
330
1F
100
AcDbEntity
  8
D-B
  6
Continuous
 62
     7
370
     9
100
AcDbLine
 10
374.1556116052573
 20
410.6369489127099
 30
0.0
 11
369.1553476694463
 21
415.6370891286094
 31
0.0
  0
LINE
  5
443
330
1F
100
AcDbEntity
  8
D-B
  6
Continuous
 62
     7
370
     9
100
AcDbLine
 10
368.8519864468955
 20
410.6369489127099
 30
0.0
 11
363.8517225110846
 21
415.6370891286094
 31
0.0
  0
LINE
  5
444
330
1F
100
AcDbEntity
  8
D-B
  6
Continuous
 62
     7
370
     9
100
AcDbLine
 10
363.5483612885338
 20
410.6369489127099
 30
0.0
 11
358.5480973527228
 21
415.6370891286094
 31
0.0
  0
LINE
  5
445
330
1F
100
AcDbEntity
  8
D-B
  6
Continuous
 62
     7
370
     9
100
AcDbLine
 10
358.244736130172
 20
410.6369489127099
 30
0.0
 11
353.2444721943611
 21
415.6370891286094
 31
0.0
  0
LINE
  5
446
330
1F
100
AcDbEntity
  8
D-B
  6
Continuous
 62
     7
370
     9
100
AcDbLine
 10
352.9411109718103
 20
410.6369489127099
 30
0.0
 11
347.9408470359994
 21
415.6370891286094
 31
0.0
  0
LINE
  5
447
330
1F
100
AcDbEntity
  8
D-B
  6
Continuous
 62
     7
370
     9
100
AcDbLine
 10
347.6374858134486
 20
410.6369489127099
 30
0.0
 11
342.6372218776376
 21
415.6370891286094
 31
0.0
  0
LINE
  5
448
330
1F
100
AcDbEntity
  8
D-B
  6
Continuous
 62
     7
370
     9
100
AcDbLine
 10
342.3338606550868
 20
410.6369489127099
 30
0.0
 11
337.3335967192759
 21
415.6370891286094
 31
0.0
  0
LINE
  5
449
330
1F
100
AcDbEntity
  8
D-B
  6
Continuous
 62
     7
370
     9
100
AcDbLine
 10
337.0302354967251
 20
410.6369489127099
 30
0.0
 11
332.0299715609141
 21
415.6370891286094
 31
0.0
  0
LINE
  5
44A
330
1F
100
AcDbEntity
  8
D-B
  6
Continuous
 62
     7
370
     9
100
AcDbLine
 10
331.7266103383633
 20
410.6369489127099
 30
0.0
 11
326.7263464025524
 21
415.6370891286094
 31
0.0
  0
LINE
  5
44B
330
1F
100
AcDbEntity
  8
D-B
  6
Continuous
 62
     7
370
     9
100
AcDbLine
 10
282.5316145613386
 20
415.6370891286094
 30
0.0
 11
383.0534307963574
 21
415.6370891286094
 31
0.0
  0
LINE
  5
44C
330
1F
100
AcDbEntity
  8
D-B
  6
Continuous
 62
     7
370
     9
100
AcDbLine
 10
326.4229851800016
 20
410.6369489127099
 30
0.0
 11
323.7815032134187
 21
413.2783655219599
 31
0.0
  0
LINE
  5
44D
330
1F
100
AcDbEntity
  8
D-B
  6
Continuous
 62
     7
370
     9
100
AcDbLine
 10
225.8041692851444
 20
410.6369489127099
 30
0.0
 11
220.8039053493335
 21
415.6370891286094
 31
0.0
  0
LINE
  5
44E
330
1F
100
AcDbEntity
  8
D-B
  6
Continuous
 62
     7
370
     9
100
AcDbLine
 10
220.5005441267827
 20
410.6369489127099
 30
0.0
 11
215.5002801909718
 21
415.6370891286094
 31
0.0
  0
LINE
  5
44F
330
1F
100
AcDbEntity
  8
D-B
  6
Continuous
 62
     7
370
     9
100
AcDbLine
 10
215.196918968421
 20
410.6369489127099
 30
0.0
 11
210.19665503261
 21
415.6370891286094
 31
0.0
  0
LINE
  5
450
330
1F
100
AcDbEntity
  8
D-B
  6
Continuous
 62
     7
370
     9
100
AcDbLine
 10
209.8932938100592
 20
410.6369489127099
 30
0.0
 11
204.8930298742483
 21
415.6370891286094
 31
0.0
  0
LINE
  5
451
330
1F
100
AcDbEntity
  8
D-B
  6
Continuous
 62
     7
370
     9
100
AcDbLine
 10
204.5896686516975
 20
410.6369489127099
 30
0.0
 11
199.5894047158865
 21
415.6370891286094
 31
0.0
  0
LINE
  5
452
330
1F
100
AcDbEntity
  8
D-B
  6
Continuous
 62
     7
370
     9
100
AcDbLine
 10
199.2860434933357
 20
410.6369489127099
 30
0.0
 11
194.2857795575248
 21
415.6370891286094
 31
0.0
  0
LINE
  5
453
330
1F
100
AcDbEntity
  8
D-B
  6
Continuous
 62
     7
370
     9
100
AcDbLine
 10
193.982418334974
 20
410.6369489127099
 30
0.0
 11
188.9821543991631
 21
415.6370891286094
 31
0.0
  0
LINE
  5
454
330
1F
100
AcDbEntity
  8
D-B
  6
Continuous
 62
     7
370
     9
100
AcDbLine
 10
188.6787931766123
 20
410.6369489127099
 30
0.0
 11
183.6785292408013
 21
415.6370891286094
 31
0.0
  0
LINE
  5
455
330
1F
100
AcDbEntity
  8
D-B
  6
Continuous
 62
     7
370
     9
100
AcDbLine
 10
183.3751680182505
 20
410.6369489127099
 30
0.0
 11
178.3749040824396
 21
415.6370891286094
 31
0.0
  0
LINE
  5
456
330
1F
100
AcDbEntity
  8
D-B
  6
Continuous
 62
     7
370
     9
100
AcDbLine
 10
178.0715428598888
 20
410.6369489127099
 30
0.0
 11
173.0712789240778
 21
415.6370891286094
 31
0.0
  0
LINE
  5
457
330
1F
100
AcDbEntity
  8
D-B
  6
Continuous
 62
     7
370
     9
100
AcDbLine
 10
172.767917701527
 20
410.6369489127099
 30
0.0
 11
167.7676537657161
 21
415.6370891286094
 31
0.0
  0
LINE
  5
458
330
1F
100
AcDbEntity
  8
D-B
  6
Continuous
 62
     7
370
     9
100
AcDbLine
 10
167.4642925431653
 20
410.6369489127099
 30
0.0
 11
162.4640286073544
 21
415.6370891286094
 31
0.0
  0
LINE
  5
459
330
1F
100
AcDbEntity
  8
D-B
  6
Continuous
 62
     7
370
     9
100
AcDbLine
 10
162.1606673848036
 20
410.6369489127099
 30
0.0
 11
157.1604034489926
 21
415.6370891286094
 31
0.0
  0
LINE
  5
45A
330
1F
100
AcDbEntity
  8
D-B
  6
Continuous
 62
     7
370
     9
100
AcDbLine
 10
156.8570422264418
 20
410.6369489127099
 30
0.0
 11
151.8567782906309
 21
415.6370891286094
 31
0.0
  0
LINE
  5
45B
330
1F
100
AcDbEntity
  8
D-B
  6
Continuous
 62
     7
370
     9
100
AcDbLine
 10
151.5534170680801
 20
410.6369489127099
 30
0.0
 11
146.5531531322691
 21
415.6370891286094
 31
0.0
  0
LINE
  5
45C
330
1F
100
AcDbEntity
  8
D-B
  6
Continuous
 62
     7
370
     9
100
AcDbLine
 10
146.2497919097183
 20
410.6369489127099
 30
0.0
 11
141.2495279739074
 21
415.6370891286094
 31
0.0
  0
LINE
  5
45D
330
1F
100
AcDbEntity
  8
D-B
  6
Continuous
 62
     7
370
     9
100
AcDbLine
 10
140.9461667513566
 20
410.6369489127099
 30
0.0
 11
138.8631047429266
 21
412.7199593806112
 31
0.0
  0
LINE
  5
45E
330
1F
100
AcDbEntity
  8
通り芯
  6
Continuous
 62
     4
370
     9
100
AcDbLine
 10
-662.2261437964715
 20
-37.40345826020118
 30
0.0
 11
-662.2261437964714
 21
70.59650214942724
 31
0.0
  0
LINE
  5
45F
330
1F
100
AcDbEntity
  8
通り芯
  6
Continuous
 62
     4
370
     9
100
AcDbLine
 10
-609.2260431709436
 20
-39.40346485859635
 30
0.0
 11
-660.2260877101118
 21
-39.40346485859635
 31
0.0
  0
LINE
  5
460
330
1F
100
AcDbEntity
  8
通り芯
  6
Continuous
 62
     4
370
     9
100
AcDbLine
 10
-607.2259870845837
 20
70.59650214942724
 30
0.0
 11
-607.2259870845838
 21
-37.40345826020118
 31
0.0
  0
LINE
  5
461
330
1F
100
AcDbEntity
  8
通り芯
  6
Continuous
 62
     4
370
     9
100
AcDbLine
 10
-609.2260431709436
 20
72.59655823578709
 30
0.0
 11
-660.2260877101116
 21
72.59655823578709
 31
0.0
  0
LINE
  5
462
330
1F
100
AcDbEntity
  8
通り芯
  6
Continuous
 62
     4
370
     9
100
AcDbLine
 10
-661.640354760365
 20
-38.81708196691562
 30
0.0
 11
-651.6402722804243
 21
-28.81704897493933
 31
0.0
  0
LINE
  5
463
330
1F
100
AcDbEntity
  8
通り芯
  6
Continuous
 62
     4
370
     9
100
AcDbLine
 10
-607.8114791929031
 20
72.01071971171612
 30
0.0
 11
-617.8115369288616
 21
62.01068671973974
 31
0.0
  0
LINE
  5
464
330
1F
100
AcDbEntity
  8
通り芯
  6
Continuous
 62
     4
370
     9
100
AcDbLine
 10
-607.8114791929031
 20
-38.81708196691562
 30
0.0
 11
-617.8115369288618
 21
-28.81704897493933
 31
0.0
  0
LINE
  5
465
330
1F
100
AcDbEntity
  8
通り芯
  6
Continuous
 62
     4
370
     9
100
AcDbLine
 10
-619.225705003186
 20
62.59652524381071
 30
0.0
 11
-650.2257577903481
 21
62.59652524381071
 31
0.0
  0
LINE
  5
466
330
1F
100
AcDbEntity
  8
通り芯
  6
Continuous
 62
     4
370
     9
100
AcDbLine
 10
-617.225723148773
 20
-27.40343764021588
 30
0.0
 11
-617.225723148773
 21
60.59637018152184
 31
0.0
  0
LINE
  5
467
330
1F
100
AcDbEntity
  8
通り芯
  6
Continuous
 62
     4
370
     9
100
AcDbLine
 10
-652.2259128526371
 20
-27.40343764021588
 30
0.0
 11
-652.2259128526371
 21
60.59637018152184
 31
0.0
  0
LINE
  5
468
330
1F
100
AcDbEntity
  8
通り芯
  6
Continuous
 62
     4
370
     9
100
AcDbLine
 10
-650.2257577903482
 20
-29.40351847055794
 30
0.0
 11
-619.225705003186
 21
-29.40351847055794
 31
0.0
  0
LINE
  5
469
330
1F
100
AcDbEntity
  8
仕上
  6
Continuous
 62
     3
370
     9
100
AcDbLine
 10
-630.4260438307831
 20
-16.05348432386251
 30
0.0
 11
-639.025889098414
 21
-16.05348432386251
 31
0.0
  0
LINE
  5
46A
330
1F
100
AcDbEntity
  8
仕上
  6
Continuous
 62
     3
370
     9
100
AcDbLine
 10
-628.726058017333
 20
-14.35348613842109
 30
0.0
 11
-628.7260580173329
 21
47.5465300276473
 31
0.0
  0
LINE
  5
46B
330
1F
100
AcDbEntity
  8
通り芯
  6
Continuous
 62
     4
370
     9
100
AcDbLine
 10
-630.2260629661295
 20
-16.55348597346133
 30
0.0
 11
-639.2260431709436
 21
-16.55348597346133
 31
0.0
  0
LINE
  5
46C
330
1F
100
AcDbEntity
  8
通り芯
  6
Continuous
 62
     4
370
     9
100
AcDbLine
 10
-641.2260497693388
 20
47.74653563628323
 30
0.0
 11
-641.2260497693388
 21
-14.55349174705717
 31
0.0
  0
LINE
  5
46D
330
1F
100
AcDbEntity
  8
通り芯
  6
Continuous
 62
     4
370
     9
100
AcDbLine
 10
-630.2260629661295
 20
49.7465298626874
 30
0.0
 11
-639.2260431709436
 21
49.7465298626874
 31
0.0
  0
LINE
  5
46E
330
1F
100
AcDbEntity
  8
通り芯
  6
Continuous
 62
     4
370
     9
100
AcDbLine
 10
-628.2260563677341
 20
47.74653563628323
 30
0.0
 11
-628.2260563677341
 21
-14.55349174705717
 31
0.0
  0
LINE
  5
46F
330
1F
100
AcDbEntity
  8
仕上
  6
Continuous
 62
     3
370
     9
100
AcDbLine
 10
-640.72604811974
 20
47.54639393574482
 30
0.0
 11
-640.72604811974
 21
-14.35312735067839
 31
0.0
  0
LINE
  5
470
330
1F
100
AcDbEntity
  8
仕上
  6
Continuous
 62
     3
370
     9
100
AcDbLine
 10
-639.0260375623076
 20
49.24639212118617
 30
0.0
 11
-630.4026360235619
 21
49.24639212118617
 31
0.0
  0
LINE
  5
471
330
1F
100
AcDbEntity
  8
通り芯
  6
Continuous
 62
     4
370
     9
100
AcDbLine
 10
-661.640354760365
 20
72.01071971171612
 30
0.0
 11
-651.6402722804241
 21
62.01068671973974
 31
0.0
  0
ARC
  5
472
330
1F
100
AcDbEntity
  8
通り芯
  6
Continuous
 62
     4
370
     9
100
AcDbCircle
 10
-650.2257577903481
 20
60.59637018152184
 30
0.0
 40
1.99999983246262
100
AcDbArc
 50
90.0
 51
180.0
  0
ARC
  5
473
330
1F
100
AcDbEntity
  8
通り芯
  6
Continuous
 62
     4
370
     9
100
AcDbCircle
 10
-619.225705003186
 20
60.59637018152184
 30
0.0
 40
1.99999983246262
100
AcDbArc
 50
0.0
 51
90.0
  0
ARC
  5
474
330
1F
100
AcDbEntity
  8
通り芯
  6
Continuous
 62
     4
370
     9
100
AcDbCircle
 10
-619.225705003186
 20
-27.40343764021588
 30
0.0
 40
1.99999983246262
100
AcDbArc
 50
270.0
 51
0.0
  0
ARC
  5
475
330
1F
100
AcDbEntity
  8
通り芯
  6
Continuous
 62
     4
370
     9
100
AcDbCircle
 10
-650.2257577903482
 20
-27.40343764021588
 30
0.0
 40
1.99999983246262
100
AcDbArc
 50
180.0
 51
270.0
  0
ARC
  5
476
330
1F
100
AcDbEntity
  8
通り芯
  6
Continuous
 62
     4
370
     9
100
AcDbCircle
 10
-660.2260877101116
 20
70.59650214942724
 30
0.0
 40
2.000000025774982
100
AcDbArc
 50
90.0
 51
180.0
  0
ARC
  5
477
330
1F
100
AcDbEntity
  8
通り芯
  6
Continuous
 62
     4
370
     9
100
AcDbCircle
 10
-660.2260877101118
 20
-37.40350774816562
 30
0.0
 40
2.000000025774982
100
AcDbArc
 50
180.0
 51
270.0
  0
ARC
  5
478
330
1F
100
AcDbEntity
  8
通り芯
  6
Continuous
 62
     4
370
     9
100
AcDbCircle
 10
-609.2260679149259
 20
-37.40350774816562
 30
0.0
 40
2.000000025774982
100
AcDbArc
 50
270.0
 51
0.0
  0
ARC
  5
479
330
1F
100
AcDbEntity
  8
通り芯
  6
Continuous
 62
     4
370
     9
100
AcDbCircle
 10
-609.2260679149258
 20
70.59650214942724
 30
0.0
 40
2.000000025774982
100
AcDbArc
 50
0.0
 51
90.0
  0
ARC
  5
47A
330
1F
100
AcDbEntity
  8
仕上
  6
Continuous
 62
     3
370
     9
100
AcDbCircle
 10
-639.025889098414
 20
-14.35312735067839
 30
0.0
 40
1.700000891814361
100
AcDbArc
 50
180.0
 51
270.0
  0
ARC
  5
47B
330
1F
100
AcDbEntity
  8
仕上
  6
Continuous
 62
     3
370
     9
100
AcDbCircle
 10
-630.4262170386589
 20
47.5465300276473
 30
0.0
 40
1.700000891814361
100
AcDbArc
 50
0.0
 51
89.20521545410156
  0
ARC
  5
47C
330
1F
100
AcDbEntity
  8
仕上
  6
Continuous
 62
     3
370
     9
100
AcDbCircle
 10
-630.4260438307831
 20
-14.35348613842109
 30
0.0
 40
1.700000118564915
100
AcDbArc
 50
270.0
 51
0.0
  0
ARC
  5
47D
330
1F
100
AcDbEntity
  8
通り芯
  6
Continuous
 62
     4
370
     9
100
AcDbCircle
 10
-634.7260530685365
 20
16.59652194461302
 30
0.0
 40
12.50000025774982
100
AcDbArc
 50
301.3322448730469
 51
58.66775512695313
  0
ARC
  5
47E
330
1F
100
AcDbEntity
  8
通り芯
  6
Continuous
 62
     4
370
     9
100
AcDbCircle
 10
-634.7260530685365
 20
16.59652194461302
 30
0.0
 40
12.50000025774982
100
AcDbArc
 50
121.3322448730469
 51
238.6677551269532
  0
ARC
  5
47F
330
1F
100
AcDbEntity
  8
通り芯
  6
Continuous
 62
     4
370
     9
100
AcDbCircle
 10
-639.2260431709436
 20
-14.55349174705717
 30
0.0
 40
2.000000025774982
100
AcDbArc
 50
180.0
 51
270.0
  0
ARC
  5
480
330
1F
100
AcDbEntity
  8
通り芯
  6
Continuous
 62
     4
370
     9
100
AcDbCircle
 10
-630.2260629661295
 20
-14.55349174705717
 30
0.0
 40
2.000000025774982
100
AcDbArc
 50
270.0
 51
0.0
  0
ARC
  5
481
330
1F
100
AcDbEntity
  8
通り芯
  6
Continuous
 62
     4
370
     9
100
AcDbCircle
 10
-639.2260431709436
 20
47.74653563628323
 30
0.0
 40
2.000000025774982
100
AcDbArc
 50
90.0
 51
180.0
  0
ARC
  5
482
330
1F
100
AcDbEntity
  8
通り芯
  6
Continuous
 62
     4
370
     9
100
AcDbCircle
 10
-630.2260629661295
 20
47.74653563628323
 30
0.0
 40
2.000000025774982
100
AcDbArc
 50
0.0
 51
90.0
  0
ARC
  5
483
330
1F
100
AcDbEntity
  8
仕上
  6
Continuous
 62
     3
370
     9
100
AcDbCircle
 10
-639.0260375623076
 20
47.54639393574482
 30
0.0
 40
1.700000118564915
100
AcDbArc
 50
90.0
 51
180.0
  0
LINE
  5
484
330
1F
100
AcDbEntity
  8
通り芯
  6
Continuous
 62
     4
370
     9
100
AcDbLine
 10
-252.2335496114487
 20
-37.40345826020118
 30
0.0
 11
-252.2335496114487
 21
70.59650214942724
 31
0.0
  0
LINE
  5
485
330
1F
100
AcDbEntity
  8
通り芯
  6
Continuous
 62
     4
370
     9
100
AcDbLine
 10
-199.2334489859209
 20
-39.40346485859635
 30
0.0
 11
-250.2334935250889
 21
-39.40346485859635
 31
0.0
  0
LINE
  5
486
330
1F
100
AcDbEntity
  8
通り芯
  6
Continuous
 62
     4
370
     9
100
AcDbLine
 10
-197.233392899561
 20
70.59650214942724
 30
0.0
 11
-197.233392899561
 21
-37.40345826020118
 31
0.0
  0
LINE
  5
487
330
1F
100
AcDbEntity
  8
通り芯
  6
Continuous
 62
     4
370
     9
100
AcDbLine
 10
-199.2334489859209
 20
72.59655823578709
 30
0.0
 11
-250.2334935250889
 21
72.59655823578709
 31
0.0
  0
LINE
  5
488
330
1F
100
AcDbEntity
  8
通り芯
  6
Continuous
 62
     4
370
     9
100
AcDbLine
 10
-251.6477605753423
 20
-38.81708196691562
 30
0.0
 11
-241.6476780954014
 21
-28.81704897493933
 31
0.0
  0
LINE
  5
489
330
1F
100
AcDbEntity
  8
通り芯
  6
Continuous
 62
     4
370
     9
100
AcDbLine
 10
-197.8188850078803
 20
72.01071971171612
 30
0.0
 11
-207.8189427438389
 21
62.01068671973974
 31
0.0
  0
LINE
  5
48A
330
1F
100
AcDbEntity
  8
通り芯
  6
Continuous
 62
     4
370
     9
100
AcDbLine
 10
-197.8188850078803
 20
-38.81708196691562
 30
0.0
 11
-207.8189427438389
 21
-28.81704897493933
 31
0.0
  0
LINE
  5
48B
330
1F
100
AcDbEntity
  8
通り芯
  6
Continuous
 62
     4
370
     9
100
AcDbLine
 10
-209.2331108181633
 20
62.59652524381071
 30
0.0
 11
-240.2331636053254
 21
62.59652524381071
 31
0.0
  0
LINE
  5
48C
330
1F
100
AcDbEntity
  8
通り芯
  6
Continuous
 62
     4
370
     9
100
AcDbLine
 10
-207.2331289637502
 20
-27.40343764021588
 30
0.0
 11
-207.2331289637502
 21
60.59637018152184
 31
0.0
  0
LINE
  5
48D
330
1F
100
AcDbEntity
  8
通り芯
  6
Continuous
 62
     4
370
     9
100
AcDbLine
 10
-242.2333186676143
 20
-27.40343764021588
 30
0.0
 11
-242.2333186676143
 21
60.59637018152184
 31
0.0
  0
LINE
  5
48E
330
1F
100
AcDbEntity
  8
通り芯
  6
Continuous
 62
     4
370
     9
100
AcDbLine
 10
-240.2331636053254
 20
-29.40351847055794
 30
0.0
 11
-209.2331108181633
 21
-29.40351847055794
 31
0.0
  0
LINE
  5
48F
330
1F
100
AcDbEntity
  8
仕上
  6
Continuous
 62
     3
370
     9
100
AcDbLine
 10
-220.4334496457604
 20
-16.05348432386251
 30
0.0
 11
-229.0332949133913
 21
-16.05348432386251
 31
0.0
  0
LINE
  5
490
330
1F
100
AcDbEntity
  8
仕上
  6
Continuous
 62
     3
370
     9
100
AcDbLine
 10
-218.7334638323102
 20
-14.35348613842109
 30
0.0
 11
-218.7334638323102
 21
47.5465300276473
 31
0.0
  0
LINE
  5
491
330
1F
100
AcDbEntity
  8
通り芯
  6
Continuous
 62
     4
370
     9
100
AcDbLine
 10
-220.2334687811066
 20
-16.55348597346133
 30
0.0
 11
-229.2334489859209
 21
-16.55348597346133
 31
0.0
  0
LINE
  5
492
330
1F
100
AcDbEntity
  8
通り芯
  6
Continuous
 62
     4
370
     9
100
AcDbLine
 10
-231.2334555843161
 20
47.74653563628323
 30
0.0
 11
-231.2334555843161
 21
-14.55349174705717
 31
0.0
  0
LINE
  5
493
330
1F
100
AcDbEntity
  8
通り芯
  6
Continuous
 62
     4
370
     9
100
AcDbLine
 10
-220.2334687811066
 20
49.7465298626874
 30
0.0
 11
-229.2334489859209
 21
49.7465298626874
 31
0.0
  0
LINE
  5
494
330
1F
100
AcDbEntity
  8
通り芯
  6
Continuous
 62
     4
370
     9
100
AcDbLine
 10
-218.2334621827114
 20
47.74653563628323
 30
0.0
 11
-218.2334621827114
 21
-14.55349174705717
 31
0.0
  0
LINE
  5
495
330
1F
100
AcDbEntity
  8
仕上
  6
Continuous
 62
     3
370
     9
100
AcDbLine
 10
-230.7334539347173
 20
47.54639393574482
 30
0.0
 11
-230.7334539347173
 21
-14.35312735067839
 31
0.0
  0
LINE
  5
496
330
1F
100
AcDbEntity
  8
仕上
  6
Continuous
 62
     3
370
     9
100
AcDbLine
 10
-229.0334433772849
 20
49.24639212118617
 30
0.0
 11
-220.4100418385391
 21
49.24639212118617
 31
0.0
  0
LINE
  5
497
330
1F
100
AcDbEntity
  8
通り芯
  6
Continuous
 62
     4
370
     9
100
AcDbLine
 10
-251.6477605753423
 20
72.01071971171612
 30
0.0
 11
-241.6476780954014
 21
62.01068671973974
 31
0.0
  0
ARC
  5
498
330
1F
100
AcDbEntity
  8
通り芯
  6
Continuous
 62
     4
370
     9
100
AcDbCircle
 10
-240.2331636053254
 20
60.59637018152184
 30
0.0
 40
1.99999983246262
100
AcDbArc
 50
90.0
 51
180.0
  0
ARC
  5
499
330
1F
100
AcDbEntity
  8
通り芯
  6
Continuous
 62
     4
370
     9
100
AcDbCircle
 10
-209.2331108181633
 20
60.59637018152184
 30
0.0
 40
1.99999983246262
100
AcDbArc
 50
0.0
 51
90.0
  0
ARC
  5
49A
330
1F
100
AcDbEntity
  8
通り芯
  6
Continuous
 62
     4
370
     9
100
AcDbCircle
 10
-209.2331108181633
 20
-27.40343764021588
 30
0.0
 40
1.99999983246262
100
AcDbArc
 50
270.0
 51
0.0
  0
ARC
  5
49B
330
1F
100
AcDbEntity
  8
通り芯
  6
Continuous
 62
     4
370
     9
100
AcDbCircle
 10
-240.2331636053254
 20
-27.40343764021588
 30
0.0
 40
1.99999983246262
100
AcDbArc
 50
180.0
 51
270.0
  0
ARC
  5
49C
330
1F
100
AcDbEntity
  8
通り芯
  6
Continuous
 62
     4
370
     9
100
AcDbCircle
 10
-250.2334935250889
 20
70.59650214942724
 30
0.0
 40
2.000000025774982
100
AcDbArc
 50
90.0
 51
180.0
  0
ARC
  5
49D
330
1F
100
AcDbEntity
  8
通り芯
  6
Continuous
 62
     4
370
     9
100
AcDbCircle
 10
-250.2334935250889
 20
-37.40350774816562
 30
0.0
 40
2.000000025774982
100
AcDbArc
 50
180.0
 51
270.0
  0
ARC
  5
49E
330
1F
100
AcDbEntity
  8
通り芯
  6
Continuous
 62
     4
370
     9
100
AcDbCircle
 10
-199.2334737299031
 20
-37.40350774816562
 30
0.0
 40
2.000000025774982
100
AcDbArc
 50
270.0
 51
0.0
  0
ARC
  5
49F
330
1F
100
AcDbEntity
  8
通り芯
  6
Continuous
 62
     4
370
     9
100
AcDbCircle
 10
-199.2334737299031
 20
70.59650214942724
 30
0.0
 40
2.000000025774982
100
AcDbArc
 50
0.0
 51
90.0
  0
ARC
  5
4A0
330
1F
100
AcDbEntity
  8
仕上
  6
Continuous
 62
     3
370
     9
100
AcDbCircle
 10
-229.0332949133913
 20
-14.35312735067839
 30
0.0
 40
1.700000891814361
100
AcDbArc
 50
180.0
 51
270.0
  0
ARC
  5
4A1
330
1F
100
AcDbEntity
  8
仕上
  6
Continuous
 62
     3
370
     9
100
AcDbCircle
 10
-220.4336228536362
 20
47.5465300276473
 30
0.0
 40
1.700000891814361
100
AcDbArc
 50
0.0
 51
89.20521545410156
  0
ARC
  5
4A2
330
1F
100
AcDbEntity
  8
仕上
  6
Continuous
 62
     3
370
     9
100
AcDbCircle
 10
-220.4334496457604
 20
-14.35348613842109
 30
0.0
 40
1.700000118564915
100
AcDbArc
 50
270.0
 51
0.0
  0
ARC
  5
4A3
330
1F
100
AcDbEntity
  8
通り芯
  6
Continuous
 62
     4
370
     9
100
AcDbCircle
 10
-224.7334588835137
 20
16.59652194461302
 30
0.0
 40
12.50000025774982
100
AcDbArc
 50
301.3322448730469
 51
58.66775512695313
  0
ARC
  5
4A4
330
1F
100
AcDbEntity
  8
通り芯
  6
Continuous
 62
     4
370
     9
100
AcDbCircle
 10
-224.7334588835137
 20
16.59652194461302
 30
0.0
 40
12.50000025774982
100
AcDbArc
 50
121.3322448730469
 51
238.6677551269532
  0
ARC
  5
4A5
330
1F
100
AcDbEntity
  8
通り芯
  6
Continuous
 62
     4
370
     9
100
AcDbCircle
 10
-229.2334489859209
 20
-14.55349174705717
 30
0.0
 40
2.000000025774982
100
AcDbArc
 50
180.0
 51
270.0
  0
ARC
  5
4A6
330
1F
100
AcDbEntity
  8
通り芯
  6
Continuous
 62
     4
370
     9
100
AcDbCircle
 10
-220.2334687811066
 20
-14.55349174705717
 30
0.0
 40
2.000000025774982
100
AcDbArc
 50
270.0
 51
0.0
  0
ARC
  5
4A7
330
1F
100
AcDbEntity
  8
通り芯
  6
Continuous
 62
     4
370
     9
100
AcDbCircle
 10
-229.2334489859209
 20
47.74653563628323
 30
0.0
 40
2.000000025774982
100
AcDbArc
 50
90.0
 51
180.0
  0
ARC
  5
4A8
330
1F
100
AcDbEntity
  8
通り芯
  6
Continuous
 62
     4
370
     9
100
AcDbCircle
 10
-220.2334687811066
 20
47.74653563628323
 30
0.0
 40
2.000000025774982
100
AcDbArc
 50
0.0
 51
90.0
  0
ARC
  5
4A9
330
1F
100
AcDbEntity
  8
仕上
  6
Continuous
 62
     3
370
     9
100
AcDbCircle
 10
-229.0334433772849
 20
47.54639393574482
 30
0.0
 40
1.700000118564915
100
AcDbArc
 50
90.0
 51
180.0
  0
LINE
  5
4AA
330
1F
100
AcDbEntity
  8
D-3
  6
Continuous
 62
     3
370
     9
100
AcDbLine
 10
218.7024617175939
 20
-411.6805686329152
 30
0.0
 11
383.9680307926372
 21
-411.6805686329152
 31
0.0
  0
LINE
  5
4AB
330
1F
100
AcDbEntity
  8
D-3
  6
Continuous
 62
     3
370
     9
100
AcDbLine
 10
218.7024617175939
 20
-419.6805764685096
 30
0.0
 11
374.4780388077271
 21
-419.6805764685096
 31
0.0
  0
LINE
  5
4AC
330
1F
100
AcDbEntity
  8
D-3
  6
Continuous
 62
     3
370
     9
100
AcDbLine
 10
435.9773428675558
 20
-411.6805686329152
 30
0.0
 11
601.2431903123996
 21
-411.6805686329152
 31
0.0
  0
LINE
  5
4AD
330
1F
100
AcDbEntity
  8
D-3
  6
Continuous
 62
     3
370
     9
100
AcDbLine
 10
445.4673657824438
 20
-419.6805764685096
 30
0.0
 11
601.2431903123996
 21
-419.6805764685096
 31
0.0
  0
LINE
  5
4AE
330
1F
100
AcDbEntity
  8
D-F
  6
Continuous
 62
     7
370
     9
100
AcDbLine
 10
191.0660391017713
 20
-468.7778020678135
 30
0.0
 11
300.6293010339243
 21
-468.7778020678135
 31
0.0
  0
TEXT
  5
4AF
330
1F
100
AcDbEntity
  8
D-F
  6
Continuous
 62
     7
370
     9
100
AcDbText
 10
212.0976700678478
 20
-462.8115249484089
 30
0.0
 40
11.43
  1
把手本体
 41
1.125
  7
ＭＳ ゴシック
100
AcDbText
  0
TEXT
  5
4B0
330
1F
100
AcDbEntity
  8
D-F
  6
Continuous
 62
     7
370
     9
100
AcDbText
 10
194.5976700678478
 20
-487.2364724155162
 30
0.0
 40
11.43
  1
強化ナイロン
 41
1.138888888888889
  7
ＭＳ ゴシック
100
AcDbText
  0
LINE
  5
4B1
330
1F
100
AcDbEntity
  8
D-D
  6
Continuous
 62
     7
370
     9
100
AcDbLine
 10
219.996007114398
 20
-406.6806139968811
 30
0.0
 11
224.9959617504305
 21
-411.6805686329137
 31
0.0
  0
LINE
  5
4B2
330
1F
100
AcDbEntity
  8
D-D
  6
Continuous
 62
     7
370
     9
100
AcDbLine
 10
225.2993079732998
 20
-406.6806139968784
 30
0.0
 11
230.2992626093323
 21
-411.6805686329109
 31
0.0
  0
LINE
  5
4B3
330
1F
100
AcDbEntity
  8
D-D
  6
Continuous
 62
     7
370
     9
100
AcDbLine
 10
230.6026088321975
 20
-406.6806139968807
 30
0.0
 11
235.6025634682302
 21
-411.6805686329134
 31
0.0
  0
LINE
  5
4B4
330
1F
100
AcDbEntity
  8
D-D
  6
Continuous
 62
     7
370
     9
100
AcDbLine
 10
235.9059096910944
 20
-406.6806139968821
 30
0.0
 11
240.905864327127
 21
-411.6805686329147
 31
0.0
  0
LINE
  5
4B5
330
1F
100
AcDbEntity
  8
D-D
  6
Continuous
 62
     7
370
     9
100
AcDbLine
 10
241.2092105499963
 20
-406.6806139968794
 30
0.0
 11
246.2091651860288
 21
-411.680568632912
 31
0.0
  0
LINE
  5
4B6
330
1F
100
AcDbEntity
  8
D-D
  6
Continuous
 62
     7
370
     9
100
AcDbLine
 10
246.5125114088946
 20
-406.6806139968824
 30
0.0
 11
251.5124660449274
 21
-411.680568632915
 31
0.0
  0
LINE
  5
4B7
330
1F
100
AcDbEntity
  8
D-D
  6
Continuous
 62
     7
370
     9
100
AcDbLine
 10
251.8158122677966
 20
-406.6806139968798
 30
0.0
 11
256.8157669038293
 21
-411.6805686329125
 31
0.0
  0
LINE
  5
4B8
330
1F
100
AcDbEntity
  8
D-D
  6
Continuous
 62
     7
370
     9
100
AcDbLine
 10
257.1191131266927
 20
-406.6806139968804
 30
0.0
 11
262.1190677627252
 21
-411.6805686329129
 31
0.0
  0
LINE
  5
4B9
330
1F
100
AcDbEntity
  8
D-D
  6
Continuous
 62
     7
370
     9
100
AcDbLine
 10
262.4224139855916
 20
-406.6806139968838
 30
0.0
 11
267.4223686216243
 21
-411.6805686329166
 31
0.0
  0
LINE
  5
4BA
330
1F
100
AcDbEntity
  8
D-D
  6
Continuous
 62
     7
370
     9
100
AcDbLine
 10
267.7257148444937
 20
-406.6806139968814
 30
0.0
 11
272.7256694805263
 21
-411.6805686329141
 31
0.0
  0
LINE
  5
4BB
330
1F
100
AcDbEntity
  8
D-D
  6
Continuous
 62
     7
370
     9
100
AcDbLine
 10
273.0290157033892
 20
-406.6806139968814
 30
0.0
 11
278.0289703394217
 21
-411.6805686329139
 31
0.0
  0
LINE
  5
4BC
330
1F
100
AcDbEntity
  8
D-D
  6
Continuous
 62
     7
370
     9
100
AcDbLine
 10
278.3323165622909
 20
-406.6806139968787
 30
0.0
 11
283.3322711983235
 21
-411.6805686329112
 31
0.0
  0
LINE
  5
4BD
330
1F
100
AcDbEntity
  8
D-D
  6
Continuous
 62
     7
370
     9
100
AcDbLine
 10
283.6356174211908
 20
-406.680613996883
 30
0.0
 11
288.6355720572234
 21
-411.6805686329157
 31
0.0
  0
LINE
  5
4BE
330
1F
100
AcDbEntity
  8
D-D
  6
Continuous
 62
     7
370
     9
100
AcDbLine
 10
288.9389182800857
 20
-406.6806139968824
 30
0.0
 11
289.9728012710145
 21
-407.7144969878113
 31
0.0
  0
LINE
  5
4BF
330
1F
100
AcDbEntity
  8
D-D
  6
Continuous
 62
     7
370
     9
100
AcDbLine
 10
529.97285075898
 20
-409.0660078253176
 30
0.0
 11
532.5874115665764
 21
-411.6805686329141
 31
0.0
  0
LINE
  5
4C0
330
1F
100
AcDbEntity
  8
D-D
  6
Continuous
 62
     7
370
     9
100
AcDbLine
 10
532.8907577894485
 20
-406.6806139968815
 30
0.0
 11
537.8907124254808
 21
-411.6805686329139
 31
0.0
  0
LINE
  5
4C1
330
1F
100
AcDbEntity
  8
D-D
  6
Continuous
 62
     7
370
     9
100
AcDbLine
 10
538.1940586483456
 20
-406.6806139968832
 30
0.0
 11
543.1940132843781
 21
-411.6805686329158
 31
0.0
  0
LINE
  5
4C2
330
1F
100
AcDbEntity
  8
D-D
  6
Continuous
 62
     7
370
     9
100
AcDbLine
 10
543.4973595072477
 20
-406.6806139968807
 30
0.0
 11
548.4973141432799
 21
-411.680568632913
 31
0.0
  0
LINE
  5
4C3
330
1F
100
AcDbEntity
  8
D-D
  6
Continuous
 62
     7
370
     9
100
AcDbLine
 10
548.8006603661448
 20
-406.6806139968824
 30
0.0
 11
553.8006150021773
 21
-411.6805686329149
 31
0.0
  0
LINE
  5
4C4
330
1F
100
AcDbEntity
  8
D-D
  6
Continuous
 62
     7
370
     9
100
AcDbLine
 10
554.1039612250395
 20
-406.6806139968816
 30
0.0
 11
559.103915861072
 21
-411.6805686329141
 31
0.0
  0
LINE
  5
4C5
330
1F
100
AcDbEntity
  8
D-D
  6
Continuous
 62
     7
370
     9
100
AcDbLine
 10
559.4072620839439
 20
-406.6806139968815
 30
0.0
 11
564.4072167199763
 21
-411.6805686329139
 31
0.0
  0
LINE
  5
4C6
330
1F
100
AcDbEntity
  8
D-D
  6
Continuous
 62
     7
370
     9
100
AcDbLine
 10
564.7105629428412
 20
-406.6806139968833
 30
0.0
 11
569.7105175788737
 21
-411.6805686329158
 31
0.0
  0
LINE
  5
4C7
330
1F
100
AcDbEntity
  8
D-D
  6
Continuous
 62
     7
370
     9
100
AcDbLine
 10
570.013863801743
 20
-406.6806139968807
 30
0.0
 11
575.0138184377755
 21
-411.6805686329132
 31
0.0
  0
LINE
  5
4C8
330
1F
100
AcDbEntity
  8
D-D
  6
Continuous
 62
     7
370
     9
100
AcDbLine
 10
575.3171646606404
 20
-406.6806139968826
 30
0.0
 11
580.3171192966728
 21
-411.6805686329149
 31
0.0
  0
LINE
  5
4C9
330
1F
100
AcDbEntity
  8
D-D
  6
Continuous
 62
     7
370
     9
100
AcDbLine
 10
580.620465519535
 20
-406.6806139968816
 30
0.0
 11
585.6204201555674
 21
-411.6805686329141
 31
0.0
  0
LINE
  5
4CA
330
1F
100
AcDbEntity
  8
D-D
  6
Continuous
 62
     7
370
     9
100
AcDbLine
 10
585.9237663784395
 20
-406.6806139968816
 30
0.0
 11
590.9237210144719
 21
-411.6805686329141
 31
0.0
  0
LINE
  5
4CB
330
1F
100
AcDbEntity
  8
D-D
  6
Continuous
 62
     7
370
     9
100
AcDbLine
 10
591.2270672373368
 20
-406.6806139968835
 30
0.0
 11
596.2270218733692
 21
-411.6805686329158
 31
0.0
  0
LINE
  5
4CC
330
1F
100
AcDbEntity
  8
D-D
  6
Continuous
 62
     7
370
     9
100
AcDbLine
 10
596.5303680962386
 20
-406.6806139968808
 30
0.0
 11
601.2431903124012
 21
-411.3934362130433
 31
0.0
  0
LINE
  5
4CD
330
1F
100
AcDbEntity
  8
D-4
  6
Continuous
 62
     7
370
     9
100
AcDbLine
 10
275.0314660974452
 20
333.1371881045386
 30
0.0
 11
269.9713217245567
 21
321.7072003775538
 31
0.0
  0
LINE
  5
4CE
330
1F
100
AcDbEntity
  8
D-4
  6
Continuous
 62
     7
370
     9
100
AcDbLine
 10
275.0314660974452
 20
333.1371881045386
 30
0.0
 11
267.1853967615077
 21
323.4063696395892
 31
0.0
  0
LINE
  5
4CF
330
1F
100
AcDbEntity
  8
D-4
  6
Continuous
 62
     7
370
     9
100
AcDbLine
 10
252.1461038735763
 20
295.6142639110217
 30
0.0
 11
275.0314660974452
 21
333.1371881045386
 31
0.0
  0
LINE
  5
4D0
330
1F
100
AcDbEntity
  8
D-0
  6
Continuous
 62
     7
370
     9
100
AcDbLine
 10
124.2227648967729
 20
295.6142639110217
 30
0.0
 11
252.1461038735763
 21
295.6142639110217
 31
0.0
  0
TEXT
  5
4D1
330
1F
100
AcDbEntity
  8
D-0
  6
Continuous
 62
     7
370
     9
100
AcDbText
 10
154.4344343851745
 20
301.0023978848393
 30
0.0
 40
11.43
  1
把手本体
 41
1.125
  7
ＭＳ ゴシック
100
AcDbText
  0
TEXT
  5
4D2
330
1F
100
AcDbEntity
  8
D-0
  6
Continuous
 62
     7
370
     9
100
AcDbText
 10
119.4344343851746
 20
278.3920892119086
 30
0.0
 40
11.43
  1
（強化ナイロン）
 41
1.145833333333333
  7
ＭＳ ゴシック
100
AcDbText
  0
LINE
  5
4D3
330
1F
100
AcDbEntity
  8
D-4
  6
Continuous
 62
     7
370
     9
100
AcDbLine
 10
389.2150699469765
 20
240.538045512723
 30
0.0
 11
473.1085287558068
 21
378.0902611421757
 31
0.0
  0
TEXT
  5
4D4
330
1F
100
AcDbEntity
  8
D-4
  6
Continuous
 62
     7
370
     9
100
AcDbText
 10
253.6265688124517
 20
246.5855482427186
 30
0.0
 40
11.43
  1
クッション
 41
1.133333333333333
  7
ＭＳ ゴシック
100
AcDbText
  0
TEXT
  5
4D5
330
1F
100
AcDbEntity
  8
D-4
  6
Continuous
 62
     7
370
     9
100
AcDbText
 10
201.2191482309965
 20
222.8758008291801
 30
0.0
 40
11.43
  1
（軟質ポリ塩化ビニル）
 41
1.151515151515152
  7
ＭＳ ゴシック
100
AcDbText
  0
LINE
  5
4D6
330
1F
100
AcDbEntity
  8
D-4
  6
Continuous
 62
     7
370
     9
100
AcDbLine
 10
204.2660300654754
 20
240.538045512723
 30
0.0
 11
389.2150699469765
 21
240.538045512723
 31
0.0
  0
LINE
  5
4D7
330
1F
100
AcDbEntity
  8
その他
  6
Continuous
 62
     7
370
     9
100
AcDbLine
 10
-634.7260530685365
 20
-89.10149750415974
 30
0.0
 11
-224.7334588835137
 21
-89.10149750415974
 31
0.0
  0
LWPOLYLINE
  5
4D8
330
1F
100
AcDbEntity
  8
その他
  6
Continuous
 62
     7
370
     9
100
AcDbPolyline
 90
        4
 70
     1
 43
0.5
 10
-634.4760530685365
 20
-89.10149750415974
 42
0.4142135623731
 10
-634.7260530685365
 20
-88.85149750415974
 42
0.4142135623731
 10
-634.9760530685365
 20
-89.10149750415974
 42
0.4142135623731
 10
-634.7260530685365
 20
-89.35149750415974
 42
0.4142135623731
  0
LWPOLYLINE
  5
4D9
330
1F
100
AcDbEntity
  8
その他
  6
Continuous
 62
     7
370
     9
100
AcDbPolyline
 90
        4
 70
     1
 43
0.5
 10
-224.4834588835138
 20
-89.10149750415974
 42
0.4142135623731
 10
-224.7334588835137
 20
-88.85149750415974
 42
0.4142135623731
 10
-224.9834588835137
 20
-89.10149750415974
 42
0.4142135623731
 10
-224.7334588835137
 20
-89.35149750415974
 42
0.4142135623731
  0
LINE
  5
4DA
330
1F
100
AcDbEntity
  8
その他
  6
Continuous
 62
     7
370
     9
100
AcDbLine
 10
-634.7260530685365
 20
-90.60149750415974
 30
0.0
 11
-634.7260530685365
 21
-52.80283414627135
 31
0.0
  0
LINE
  5
4DB
330
1F
100
AcDbEntity
  8
その他
  6
Continuous
 62
     7
370
     9
100
AcDbLine
 10
-224.7334588835137
 20
-90.60149750415974
 30
0.0
 11
-224.7334588835137
 21
-52.08132348373596
 31
0.0
  0
TEXT
  5
4DC
330
1F
100
AcDbEntity
  8
その他
  6
Continuous
 62
     2
370
   211
100
AcDbText
 10
-445.9797559760251
 20
-83.28149750415972
 30
0.0
 40
15.24
  1
410
 41
1.083333333333333
  7
ＭＳ ゴシック
100
AcDbText
  0
TEXT
  5
4DD
330
1F
100
AcDbEntity
  8
D-4
  6
Continuous
 62
     7
370
     9
100
AcDbText
 10
529.4285830935918
 20
638.2720674198891
 30
0.0
 40
11.43
  1
底板　ｔ＝３．２
 41
1.145833333333333
  7
ＭＳ ゴシック
100
AcDbText
  0
TEXT
  5
4DE
330
1F
100
AcDbEntity
  8
D-4
  6
Continuous
 62
     7
370
     9
100
AcDbText
 10
529.4285830935918
 20
616.9489150039026
 30
0.0
 40
11.43
  1
溶融亜鉛めっき鋼板
 41
1.148148148148148
  7
ＭＳ ゴシック
100
AcDbText
  0
LINE
  5
4DF
330
1F
100
AcDbEntity
  8
D-4
  6
Continuous
 62
     7
370
     9
100
AcDbLine
 10
685.3383504194655
 20
633.1749226774904
 30
0.0
 11
520.6672049857477
 21
633.1749226774904
 31
0.0
  0
TEXT
  5
4E0
330
1F
100
AcDbEntity
  8
F-0ﾚｲﾔ
  6
Continuous
 62
     2
370
     9
100
AcDbText
 10
-415.883482559337
 20
-662.0152600305663
 30
0.0
 40
15.24
  1
アルミ＋スチール製　アルミ目地　一般型　フロアハッチ
 41
0.8990384615384615
  7
ＭＳ ゴシック
100
AcDbText
  0
TEXT
  5
4E1
330
1F
100
AcDbEntity
  8
F-0ﾚｲﾔ
  6
Continuous
 62
     2
370
     9
100
AcDbText
 10
-37.0196829473881
 20
-686.3866155611596
 30
0.0
 40
15.24
  1
ＭＯＦＥ－６００－１５－Ｍ
 41
0.8980769230769229
  7
ＭＳ ゴシック
100
AcDbText
  0
ENDSEC
  0
SECTION
  2
OBJECTS
  0
DICTIONARY
  5
C
330
0
100
AcDbDictionary
281
     1
  3
ACAD_GROUP
350
D
  3
ACAD_LAYOUT
350
1A
  3
ACAD_MLEADERSTYLE
350
4E3
  3
ACAD_MLINESTYLE
350
17
  3
ACAD_PLOTSETTINGS
350
19
  3
ACAD_PLOTSTYLENAME
350
E
  3
ACAD_TABLESTYLE
350
4E2
  3
ACAD_VISUALSTYLE
350
2A
  0
DICTIONARY
  5
D
102
{ACAD_REACTORS
330
C
102
}
330
C
100
AcDbDictionary
281
     1
  0
DICTIONARY
  5
1A
102
{ACAD_REACTORS
330
C
102
}
330
C
100
AcDbDictionary
281
     1
  3
Layout1
350
1E
  3
Layout2
350
26
  3
Model
350
22
  0
DICTIONARY
  5
4E3
102
{ACAD_REACTORS
330
C
102
}
330
C
100
AcDbDictionary
281
     1
  0
DICTIONARY
  5
17
102
{ACAD_REACTORS
330
C
102
}
330
C
100
AcDbDictionary
281
     1
  3
Standard
350
18
  0
DICTIONARY
  5
19
102
{ACAD_REACTORS
330
C
102
}
330
C
100
AcDbDictionary
281
     1
  0
ACDBDICTIONARYWDFLT
  5
E
102
{ACAD_REACTORS
330
C
102
}
330
C
100
AcDbDictionary
281
     1
  3
Normal
350
F
100
AcDbDictionaryWithDefault
340
F
  0
DICTIONARY
  5
4E2
102
{ACAD_REACTORS
330
C
102
}
330
C
100
AcDbDictionary
281
     1
  0
DICTIONARY
  5
2A
102
{ACAD_REACTORS
330
C
102
}
330
C
100
AcDbDictionary
281
     1
  3
2dWireframe
350
2F
  3
3D Hidden
350
31
  3
3dWireframe
350
30
  3
Basic
350
32
  3
Brighten
350
36
  3
ColorChange
350
3A
  3
Conceptual
350
34
  3
Dim
350
35
  3
Facepattern
350
39
  3
Flat
350
2B
  3
FlatWithEdges
350
2C
  3
Gouraud
350
2D
  3
GouraudWithEdges
350
2E
  3
Linepattern
350
38
  3
Realistic
350
33
  3
Thicken
350
37
  0
LAYOUT
  5
1E
102
{ACAD_REACTORS
330
1A
102
}
330
1A
100
AcDbPlotSettings
  1

  2
none_device
  4

  6

 40
0.0
 41
0.0
 42
0.0
 43
0.0
 44
0.0
 45
0.0
 46
0.0
 47
0.0
 48
0.0
 49
0.0
140
0.0
141
0.0
142
1.0
143
1.0
 70
   688
 72
     0
 73
     0
 74
     5
  7

 75
    16
 76
     0
 77
     5
 78
   300
147
1.0
148
0.0
149
0.0
100
AcDbLayout
  1
Layout1
 70
     1
 71
     1
 10
0.0
 20
0.0
 11
420.0
 21
297.0
 12
0.0
 22
0.0
 32
0.0
 14
1.000000000000000E+20
 24
1.000000000000000E+20
 34
1.000000000000000E+20
 15
-1.000000000000000E+20
 25
-1.000000000000000E+20
 35
-1.000000000000000E+20
146
0.0
 13
0.0
 23
0.0
 33
0.0
 16
1.0
 26
0.0
 36
0.0
 17
0.0
 27
1.0
 37
0.0
 76
     0
330
1B
  0
LAYOUT
  5
26
102
{ACAD_REACTORS
330
1A
102
}
330
1A
100
AcDbPlotSettings
  1

  2
none_device
  4

  6

 40
0.0
 41
0.0
 42
0.0
 43
0.0
 44
0.0
 45
0.0
 46
0.0
 47
0.0
 48
0.0
 49
0.0
140
0.0
141
0.0
142
1.0
143
1.0
 70
   688
 72
     0
 73
     0
 74
     5
  7

 75
    16
 76
     0
 77
     5
 78
   300
147
1.0
148
0.0
149
0.0
100
AcDbLayout
  1
Layout2
 70
     1
 71
     2
 10
0.0
 20
0.0
 11
0.0
 21
0.0
 12
0.0
 22
0.0
 32
0.0
 14
0.0
 24
0.0
 34
0.0
 15
0.0
 25
0.0
 35
0.0
146
0.0
 13
0.0
 23
0.0
 33
0.0
 16
1.0
 26
0.0
 36
0.0
 17
0.0
 27
1.0
 37
0.0
 76
     0
330
23
  0
LAYOUT
  5
22
102
{ACAD_REACTORS
330
1A
102
}
330
1A
100
AcDbPlotSettings
  1

  2
none_device
  4

  6

 40
0.0
 41
0.0
 42
0.0
 43
0.0
 44
0.0
 45
0.0
 46
0.0
 47
0.0
 48
0.0
 49
0.0
140
0.0
141
0.0
142
1.0
143
1.0
 70
  1712
 72
     0
 73
     0
 74
     0
  7

 75
     0
 76
     0
 77
     5
 78
   300
147
1.0
148
0.0
149
0.0
100
AcDbLayout
  1
Model
 70
     1
 71
     0
 10
-1050.0
 20
-742.5
 11
1050.0
 21
742.5
 12
0.0
 22
0.0
 32
0.0
 14
-1050.0
 24
-742.5
 34
0.0
 15
1050.0
 25
742.5
 35
0.0
146
0.0
 13
0.0
 23
0.0
 33
0.0
 16
1.0
 26
0.0
 36
0.0
 17
0.0
 27
1.0
 37
0.0
 76
     0
330
1F
331
29
  0
MLINESTYLE
  5
18
102
{ACAD_REACTORS
330
17
102
}
330
17
100
AcDbMlineStyle
  2
Standard
 70
     0
  3

 62
   256
 51
90.0
 52
90.0
 71
     2
 49
0.5
 62
   256
  6
BYLAYER
 49
-0.5
 62
   256
  6
BYLAYER
  0
ACDBPLACEHOLDER
  5
F
102
{ACAD_REACTORS
330
E
102
}
330
E
  0
VISUALSTYLE
  5
2F
102
{ACAD_REACTORS
330
2A
102
}
330
2A
100
AcDbVisualStyle
  2
2dWireframe
 70
     4
 71
     0
 72
     2
 73
     0
 90
        0
 40
-0.6
 41
-30.0
 62
     5
 63
     7
421
 16777215
 74
     1
 91
        4
 64
     7
 65
   257
 75
     1
175
     1
 42
1.0
 92
        0
 66
   257
 43
1.0
 76
     1
 77
     6
 78
     2
 67
     7
 79
     5
170
     0
171
     0
290
     0
174
     0
 93
        1
 44
0.0
173
     0
291
     0
 45
0.0
1001
ACAD
1000
AcDbSavedByObjectVersion
1070
     0
  0
VISUALSTYLE
  5
31
102
{ACAD_REACTORS
330
2A
102
}
330
2A
100
AcDbVisualStyle
  2
3D Hidden
 70
     6
 71
     1
 72
     2
 73
     2
 90
        0
 40
-0.6
 41
-30.0
 62
     5
 63
     7
421
 16777215
 74
     2
 91
        2
 64
     7
 65
   257
 75
     2
175
     1
 42
40.0
 92
        0
 66
   257
 43
1.0
 76
     1
 77
     6
 78
     2
 67
     7
 79
     3
170
     0
171
     0
290
     0
174
     0
 93
        1
 44
0.0
173
     0
291
     0
 45
0.0
1001
ACAD
1000
AcDbSavedByObjectVersion
1070
     0
  0
VISUALSTYLE
  5
30
102
{ACAD_REACTORS
330
2A
102
}
330
2A
100
AcDbVisualStyle
  2
3dWireframe
 70
     5
 71
     0
 72
     2
 73
     0
 90
        0
 40
-0.6
 41
-30.0
 62
     5
 63
     7
421
 16777215
 74
     1
 91
        4
 64
     7
 65
   257
 75
     1
175
     1
 42
1.0
 92
        0
 66
   257
 43
1.0
 76
     1
 77
     6
 78
     2
 67
     7
 79
     5
170
     0
171
     0
290
     0
174
     0
 93
        1
 44
0.0
173
     0
291
     0
 45
0.0
1001
ACAD
1000
AcDbSavedByObjectVersion
1070
     0
  0
VISUALSTYLE
  5
32
102
{ACAD_REACTORS
330
2A
102
}
330
2A
100
AcDbVisualStyle
  2
Basic
 70
     7
 71
     1
 72
     0
 73
     1
 90
        0
 40
-0.6
 41
-30.0
 62
     5
 63
     7
421
 16777215
 74
     0
 91
        4
 64
     7
 65
   257
 75
     1
175
     1
 42
1.0
 92
        8
 66
     7
 43
1.0
 76
     1
 77
     6
 78
     2
 67
     7
 79
     5
170
     0
171
     0
290
     0
174
     0
 93
        1
 44
0.0
173
     0
291
     1
 45
0.0
1001
ACAD
1000
AcDbSavedByObjectVersion
1070
     0
  0
VISUALSTYLE
  5
36
102
{ACAD_REACTORS
330
2A
102
}
330
2A
100
AcDbVisualStyle
  2
Brighten
 70
    12
 71
     2
 72
     2
 73
     0
 90
        0
 40
-0.6
 41
-30.0
 62
     5
 63
     7
421
 16777215
 74
     1
 91
        4
 64
     7
 65
   257
 75
     1
175
     1
 42
1.0
 92
        8
 66
     7
 43
1.0
 76
     1
 77
     6
 78
     2
 67
     7
 79
     5
170
     0
171
     0
290
     0
174
     0
 93
        1
 44
50.0
173
     0
291
     1
 45
0.0
1001
ACAD
1000
AcDbSavedByObjectVersion
1070
     0
  0
VISUALSTYLE
  5
3A
102
{ACAD_REACTORS
330
2A
102
}
330
2A
100
AcDbVisualStyle
  2
ColorChange
 70
    16
 71
     2
 72
     2
 73
     3
 90
        0
 40
-0.6
 41
-30.0
 62
     5
 63
     8
421
  8421504
 74
     1
 91
        4
 64
     7
 65
   257
 75
     1
175
     1
 42
1.0
 92
        8
 66
     8
424
  8421504
 43
1.0
 76
     1
 77
     6
 78
     2
 67
     7
 79
     5
170
     0
171
     0
290
     0
174
     0
 93
        1
 44
0.0
173
     0
291
     1
 45
0.0
1001
ACAD
1000
AcDbSavedByObjectVersion
1070
     0
  0
VISUALSTYLE
  5
34
102
{ACAD_REACTORS
330
2A
102
}
330
2A
100
AcDbVisualStyle
  2
Conceptual
 70
     9
 71
     3
 72
     2
 73
     0
 90
        0
 40
-0.6
 41
-30.0
 62
     5
 63
     7
421
 16777215
 74
     2
 91
        2
 64
     7
 65
   257
 75
     1
175
     1
 42
40.0
 92
        8
 66
     7
 43
1.0
 76
     1
 77
     6
 78
     2
 67
     7
 79
     3
170
     0
171
     0
290
     0
174
     0
 93
        1
 44
0.0
173
     0
291
     0
 45
0.0
1001
ACAD
1000
AcDbSavedByObjectVersion
1070
     0
  0
VISUALSTYLE
  5
35
102
{ACAD_REACTORS
330
2A
102
}
330
2A
100
AcDbVisualStyle
  2
Dim
 70
    11
 71
     2
 72
     2
 73
     0
 90
        0
 40
-0.6
 41
-30.0
 62
     5
 63
     7
421
 16777215
 74
     1
 91
        4
 64
     7
 65
   257
 75
     1
175
     1
 42
1.0
 92
        8
 66
     7
 43
1.0
 76
     1
 77
     6
 78
     2
 67
     7
 79
     5
170
     0
171
     0
290
     0
174
     0
 93
        1
 44
-50.0
173
     0
291
     1
 45
0.0
1001
ACAD
1000
AcDbSavedByObjectVersion
1070
     0
  0
VISUALSTYLE
  5
39
102
{ACAD_REACTORS
330
2A
102
}
330
2A
100
AcDbVisualStyle
  2
Facepattern
 70
    15
 71
     2
 72
     2
 73
     0
 90
        0
 40
-0.6
 41
-30.0
 62
     5
 63
     7
421
 16777215
 74
     1
 91
        4
 64
     7
 65
   257
 75
     1
175
     1
 42
1.0
 92
        8
 66
     7
 43
1.0
 76
     1
 77
     6
 78
     2
 67
     7
 79
     5
170
     0
171
     0
290
     0
174
     0
 93
        1
 44
0.0
173
     0
291
     1
 45
0.0
1001
ACAD
1000
AcDbSavedByObjectVersion
1070
     0
  0
VISUALSTYLE
  5
2B
102
{ACAD_REACTORS
330
2A
102
}
330
2A
100
AcDbVisualStyle
  2
Flat
 70
     0
 71
     2
 72
     1
 73
     1
 90
        2
 40
-0.6
 41
30.0
 62
     5
 63
     7
421
 16777215
 74
     0
 91
        4
 64
     7
 65
   257
 75
     1
175
     1
 42
1.0
 92
        8
 66
     7
 43
1.0
 76
     1
 77
     6
 78
     2
 67
     7
 79
     5
170
     0
171
     0
290
     0
174
     0
 93
       13
 44
0.0
173
     0
291
     1
 45
0.0
1001
ACAD
1000
AcDbSavedByObjectVersion
1070
     0
  0
VISUALSTYLE
  5
2C
102
{ACAD_REACTORS
330
2A
102
}
330
2A
100
AcDbVisualStyle
  2
FlatWithEdges
 70
     1
 71
     2
 72
     1
 73
     1
 90
        2
 40
-0.6
 41
30.0
 62
     5
 63
     7
421
 16777215
 74
     1
 91
        4
 64
     7
 65
   257
 75
     1
175
     1
 42
1.0
 92
        0
 66
   257
 43
1.0
 76
     1
 77
     6
 78
     2
 67
     7
 79
     5
170
     0
171
     0
290
     0
174
     0
 93
       13
 44
0.0
173
     0
291
     1
 45
0.0
1001
ACAD
1000
AcDbSavedByObjectVersion
1070
     0
  0
VISUALSTYLE
  5
2D
102
{ACAD_REACTORS
330
2A
102
}
330
2A
100
AcDbVisualStyle
  2
Gouraud
 70
     2
 71
     2
 72
     2
 73
     1
 90
        2
 40
-0.6
 41
30.0
 62
     5
 63
     7
421
 16777215
 74
     0
 91
        4
 64
     7
 65
   257
 75
     1
175
     1
 42
1.0
 92
        0
 66
     7
 43
1.0
 76
     1
 77
     6
 78
     2
 67
     7
 79
     5
170
     0
171
     0
290
     0
174
     0
 93
       13
 44
0.0
173
     0
291
     1
 45
0.0
1001
ACAD
1000
AcDbSavedByObjectVersion
1070
     0
  0
VISUALSTYLE
  5
2E
102
{ACAD_REACTORS
330
2A
102
}
330
2A
100
AcDbVisualStyle
  2
GouraudWithEdges
 70
     3
 71
     2
 72
     2
 73
     1
 90
        2
 40
-0.6
 41
30.0
 62
     5
 63
     7
421
 16777215
 74
     1
 91
        4
 64
     7
 65
   257
 75
     1
175
     1
 42
1.0
 92
        0
 66
   257
 43
1.0
 76
     1
 77
     6
 78
     2
 67
     7
 79
     5
170
     0
171
     0
290
     0
174
     0
 93
       13
 44
0.0
173
     0
291
     1
 45
0.0
1001
ACAD
1000
AcDbSavedByObjectVersion
1070
     0
  0
VISUALSTYLE
  5
38
102
{ACAD_REACTORS
330
2A
102
}
330
2A
100
AcDbVisualStyle
  2
Linepattern
 70
    14
 71
     2
 72
     2
 73
     0
 90
        0
 40
-0.6
 41
-30.0
 62
     5
 63
     7
421
 16777215
 74
     1
 91
        4
 64
     7
 65
   257
 75
     7
175
     7
 42
1.0
 92
        8
 66
     7
 43
1.0
 76
     1
 77
     6
 78
     2
 67
     7
 79
     5
170
     0
171
     0
290
     0
174
     0
 93
        1
 44
0.0
173
     0
291
     1
 45
0.0
1001
ACAD
1000
AcDbSavedByObjectVersion
1070
     0
  0
VISUALSTYLE
  5
33
102
{ACAD_REACTORS
330
2A
102
}
330
2A
100
AcDbVisualStyle
  2
Realistic
 70
     8
 71
     2
 72
     2
 73
     0
 90
        0
 40
-0.6
 41
-30.0
 62
     5
 63
     7
421
 16777215
 74
     1
 91
        0
 64
     7
 65
   257
 75
     1
175
     1
 42
1.0
 92
        8
 66
     8
424
  7895160
 43
1.0
 76
     1
 77
     6
 78
     2
 67
     7
 79
     5
170
     0
171
     0
290
     0
174
     0
 93
       13
 44
0.0
173
     0
291
     0
 45
0.0
1001
ACAD
1000
AcDbSavedByObjectVersion
1070
     0
  0
VISUALSTYLE
  5
37
102
{ACAD_REACTORS
330
2A
102
}
330
2A
100
AcDbVisualStyle
  2
Thicken
 70
    13
 71
     2
 72
     2
 73
     0
 90
        0
 40
-0.6
 41
-30.0
 62
     5
 63
     7
421
 16777215
 74
     1
 91
        4
 64
     7
 65
   257
 75
     1
175
     1
 42
1.0
 92
       12
 66
     7
 43
1.0
 76
     1
 77
     6
 78
     2
 67
     7
 79
     5
170
     0
171
     0
290
     0
174
     0
 93
        1
 44
0.0
173
     0
291
     1
 45
0.0
1001
ACAD
1000
AcDbSavedByObjectVersion
1070
     0
  0
ENDSEC
  0
EOF
