  0
SECTION
  2
HEADER
  9
$ACADVER
  1
AC1018
  9
$ACADMAINTVER
 70
     0
  9
$DWGCODEPAGE
  3
ANSI_932
  9
$INSBASE
 10
0.0
 20
0.0
 30
0.0
  9
$EXTMIN
 10
-2100.0
 20
-1485.0
 30
0.0
  9
$EXTMAX
 10
2100.0
 20
1485.0
 30
0.0
  9
$LIMMIN
 10
-2100.0
 20
-1485.0
  9
$LIMMAX
 10
2100.0
 20
1485.0
  9
$ORTHOMODE
 70
     0
  9
$REGENMODE
 70
     1
  9
$FILLMODE
 70
     1
  9
$QTEXTMODE
 70
     0
  9
$MIRRTEXT
 70
     1
  9
$LTSCALE
 40
10.0
  9
$ATTMODE
 70
     1
  9
$TEXTSIZE
 40
2.5
  9
$TRACEWID
 40
1.0
  9
$TEXTSTYLE
  7
Standard
  9
$CLAYER
  8
0
  9
$CELTYPE
  6
ByLayer
  9
$CECOLOR
 62
   256
  9
$CELTSCALE
 40
1.0
  9
$DISPSILH
 70
     0
  9
$DIMSCALE
 40
1.0
  9
$DIMASZ
 40
2.5
  9
$DIMEXO
 40
0.625
  9
$DIMDLI
 40
3.75
  9
$DIMRND
 40
0.0
  9
$DIMDLE
 40
0.0
  9
$DIMEXE
 40
1.25
  9
$DIMTP
 40
0.0
  9
$DIMTM
 40
0.0
  9
$DIMTXT
 40
2.5
  9
$DIMCEN
 40
2.5
  9
$DIMTSZ
 40
0.0
  9
$DIMTOL
 70
     0
  9
$DIMLIM
 70
     0
  9
$DIMTIH
 70
     0
  9
$DIMTOH
 70
     0
  9
$DIMSE1
 70
     0
  9
$DIMSE2
 70
     0
  9
$DIMTAD
 70
     1
  9
$DIMZIN
 70
     8
  9
$DIMBLK
  1

  9
$DIMASO
 70
     1
  9
$DIMSHO
 70
     1
  9
$DIMPOST
  1

  9
$DIMAPOST
  1

  9
$DIMALT
 70
     0
  9
$DIMALTD
 70
     3
  9
$DIMALTF
 40
0.03937007874016
  9
$DIMLFAC
 40
1.0
  9
$DIMTOFL
 70
     1
  9
$DIMTVP
 40
0.0
  9
$DIMTIX
 70
     0
  9
$DIMSOXD
 70
     0
  9
$DIMSAH
 70
     0
  9
$DIMBLK1
  1

  9
$DIMBLK2
  1

  9
$DIMSTYLE
  2
ISO-25
  9
$DIMCLRD
 70
     0
  9
$DIMCLRE
 70
     0
  9
$DIMCLRT
 70
     0
  9
$DIMTFAC
 40
1.0
  9
$DIMGAP
 40
0.625
  9
$DIMJUST
 70
     0
  9
$DIMSD1
 70
     0
  9
$DIMSD2
 70
     0
  9
$DIMTOLJ
 70
     0
  9
$DIMTZIN
 70
     8
  9
$DIMALTZ
 70
     0
  9
$DIMALTTZ
 70
     0
  9
$DIMUPT
 70
     0
  9
$DIMDEC
 70
     2
  9
$DIMTDEC
 70
     2
  9
$DIMALTU
 70
     2
  9
$DIMALTTD
 70
     3
  9
$DIMTXSTY
  7
Standard
  9
$DIMAUNIT
 70
     0
  9
$DIMADEC
 70
     0
  9
$DIMALTRND
 40
0.0
  9
$DIMAZIN
 70
     0
  9
$DIMDSEP
 70
    44
  9
$DIMATFIT
 70
     3
  9
$DIMFRAC
 70
     0
  9
$DIMLDRBLK
  1

  9
$DIMLUNIT
 70
     2
  9
$DIMLWD
 70
    -2
  9
$DIMLWE
 70
    -2
  9
$DIMTMOVE
 70
     0
  9
$LUNITS
 70
     2
  9
$LUPREC
 70
     4
  9
$SKETCHINC
 40
1.0
  9
$FILLETRAD
 40
10.0
  9
$AUNITS
 70
     0
  9
$AUPREC
 70
     0
  9
$MENU
  1
.
  9
$ELEVATION
 40
0.0
  9
$PELEVATION
 40
0.0
  9
$THICKNESS
 40
0.0
  9
$LIMCHECK
 70
     0
  9
$CHAMFERA
 40
10.0
  9
$CHAMFERB
 40
10.0
  9
$CHAMFERC
 40
20.0
  9
$CHAMFERD
 40
0.0
  9
$SKPOLY
 70
     0
  9
$TDCREATE
 40
2456498.829626192
  9
$TDUCREATE
 40
2456498.454626192
  9
$TDUPDATE
 40
2456498.829626204
  9
$TDUUPDATE
 40
2456498.454626204
  9
$TDINDWG
 40
0.0000000116
  9
$TDUSRTIMER
 40
0.0000000116
  9
$USRTIMER
 70
     1
  9
$ANGBASE
 50
0.0
  9
$ANGDIR
 70
     0
  9
$PDMODE
 70
     0
  9
$PDSIZE
 40
0.0
  9
$PLINEWID
 40
0.0
  9
$SPLFRAME
 70
     0
  9
$SPLINETYPE
 70
     6
  9
$SPLINESEGS
 70
     8
  9
$HANDSEED
  5
3D6
  9
$SURFTAB1
 70
     6
  9
$SURFTAB2
 70
     6
  9
$SURFTYPE
 70
     6
  9
$SURFU
 70
     6
  9
$SURFV
 70
     6
  9
$UCSBASE
  2

  9
$UCSNAME
  2

  9
$UCSORG
 10
0.0
 20
0.0
 30
0.0
  9
$UCSXDIR
 10
1.0
 20
0.0
 30
0.0
  9
$UCSYDIR
 10
0.0
 20
1.0
 30
0.0
  9
$UCSORTHOREF
  2

  9
$UCSORTHOVIEW
 70
     0
  9
$UCSORGTOP
 10
0.0
 20
0.0
 30
0.0
  9
$UCSORGBOTTOM
 10
0.0
 20
0.0
 30
0.0
  9
$UCSORGLEFT
 10
0.0
 20
0.0
 30
0.0
  9
$UCSORGRIGHT
 10
0.0
 20
0.0
 30
0.0
  9
$UCSORGFRONT
 10
0.0
 20
0.0
 30
0.0
  9
$UCSORGBACK
 10
0.0
 20
0.0
 30
0.0
  9
$PUCSBASE
  2

  9
$PUCSNAME
  2

  9
$PUCSORG
 10
0.0
 20
0.0
 30
0.0
  9
$PUCSXDIR
 10
1.0
 20
0.0
 30
0.0
  9
$PUCSYDIR
 10
0.0
 20
1.0
 30
0.0
  9
$PUCSORTHOREF
  2

  9
$PUCSORTHOVIEW
 70
     0
  9
$PUCSORGTOP
 10
0.0
 20
0.0
 30
0.0
  9
$PUCSORGBOTTOM
 10
0.0
 20
0.0
 30
0.0
  9
$PUCSORGLEFT
 10
0.0
 20
0.0
 30
0.0
  9
$PUCSORGRIGHT
 10
0.0
 20
0.0
 30
0.0
  9
$PUCSORGFRONT
 10
0.0
 20
0.0
 30
0.0
  9
$PUCSORGBACK
 10
0.0
 20
0.0
 30
0.0
  9
$USERI1
 70
     0
  9
$USERI2
 70
     0
  9
$USERI3
 70
     0
  9
$USERI4
 70
     0
  9
$USERI5
 70
     0
  9
$USERR1
 40
0.0
  9
$USERR2
 40
0.0
  9
$USERR3
 40
0.0
  9
$USERR4
 40
0.0
  9
$USERR5
 40
0.0
  9
$WORLDVIEW
 70
     1
  9
$SHADEDGE
 70
     3
  9
$SHADEDIF
 70
    70
  9
$TILEMODE
 70
     1
  9
$MAXACTVP
 70
    64
  9
$PINSBASE
 10
0.0
 20
0.0
 30
0.0
  9
$PLIMCHECK
 70
     0
  9
$PEXTMIN
 10
1.000000000000000E+20
 20
1.000000000000000E+20
 30
1.000000000000000E+20
  9
$PEXTMAX
 10
-1.000000000000000E+20
 20
-1.000000000000000E+20
 30
-1.000000000000000E+20
  9
$PLIMMIN
 10
0.0
 20
0.0
  9
$PLIMMAX
 10
420.0
 20
297.0
  9
$UNITMODE
 70
     0
  9
$VISRETAIN
 70
     1
  9
$PLINEGEN
 70
     0
  9
$PSLTSCALE
 70
     1
  9
$TREEDEPTH
 70
  3020
  9
$CMLSTYLE
  2
Standard
  9
$CMLJUST
 70
     0
  9
$CMLSCALE
 40
20.0
  9
$PROXYGRAPHICS
 70
     1
  9
$MEASUREMENT
 70
     1
  9
$CELWEIGHT
370
    -1
  9
$ENDCAPS
280
     0
  9
$JOINSTYLE
280
     0
  9
$LWDISPLAY
290
     0
  9
$INSUNITS
 70
     4
  9
$HYPERLINKBASE
  1

  9
$STYLESHEET
  1

  9
$XEDIT
290
     1
  9
$CEPSNTYPE
380
     0
  9
$PSTYLEMODE
290
     1
  9
$FINGERPRINTGUID
  2
{8A4BA137-1354-41E8-B511-CF384713C8DD}
  9
$VERSIONGUID
  2
{FAEB1C32-E019-11D5-929B-00C0DF256EC4}
  9
$EXTNAMES
290
     1
  9
$PSVPSCALE
 40
0.0
  9
$OLESTARTUP
290
     0
  9
$SORTENTS
280
   127
  9
$INDEXCTL
280
     0
  9
$HIDETEXT
280
     1
  9
$XCLIPFRAME
290
     0
  9
$HALOGAP
280
     0
  9
$OBSCOLOR
 70
   257
  9
$OBSLTYPE
280
     0
  9
$INTERSECTIONDISPLAY
280
     0
  9
$INTERSECTIONCOLOR
 70
   257
  9
$DIMASSOC
280
     2
  9
$PROJECTNAME
  1

  0
ENDSEC
  0
SECTION
  2
CLASSES
  0
CLASS
  1
ACDBDICTIONARYWDFLT
  2
AcDbDictionaryWithDefault
  3
ObjectDBX Classes
 90
        0
 91
        4
280
     0
281
     0
  0
CLASS
  1
VISUALSTYLE
  2
AcDbVisualStyle
  3
ObjectDBX Classes
 90
     4095
 91
        4
280
     0
281
     0
  0
ENDSEC
  0
SECTION
  2
TABLES
  0
TABLE
  2
VPORT
  5
8
330
0
100
AcDbSymbolTable
 70
     1
  0
VPORT
  5
29
330
8
100
AcDbSymbolTableRecord
100
AcDbViewportTableRecord
  2
*Active
 70
     0
 10
0.0
 20
0.0
 11
1.0
 21
1.0
 12
0.0
 22
0.0
 13
0.0
 23
0.0
 14
10.0
 24
10.0
 15
10.0
 25
10.0
 16
0.0
 26
0.0
 36
1.0
 17
0.0
 27
0.0
 37
0.0
 40
3267.0
 41
1.414141414141414
 42
50.0
 43
0.0
 44
0.0
 50
0.0
 51
0.0
 71
     0
 72
 10000
 73
     1
 74
     3
 75
     0
 76
     0
 77
     0
 78
     0
281
     0
 65
     1
110
0.0
120
0.0
130
0.0
111
1.0
121
0.0
131
0.0
112
0.0
122
1.0
132
0.0
 79
     0
146
0.0
  0
ENDTAB
  0
TABLE
  2
LTYPE
  5
5
330
0
100
AcDbSymbolTable
 70
     4
  0
LTYPE
  5
14
330
5
100
AcDbSymbolTableRecord
100
AcDbLinetypeTableRecord
  2
ByBlock
 70
     0
  3

 72
    65
 73
     0
 40
0.0
  0
LTYPE
  5
15
330
5
100
AcDbSymbolTableRecord
100
AcDbLinetypeTableRecord
  2
ByLayer
 70
     0
  3

 72
    65
 73
     0
 40
0.0
  0
LTYPE
  5
16
330
5
100
AcDbSymbolTableRecord
100
AcDbLinetypeTableRecord
  2
Continuous
 70
     0
  3
Solid line
 72
    65
 73
     0
 40
0.0
  0
LTYPE
  5
3C
330
5
100
AcDbSymbolTableRecord
100
AcDbLinetypeTableRecord
  2
JWW_CENTER1
 70
     0
  3
-----  --  ----------  --  -----
 72
    65
 73
     4
 40
6.773333333333333
 49
4.233333333333333
 74
     0
 49
-0.8466666666666667
 74
     0
 49
0.8466666666666667
 74
     0
 49
-0.8466666666666667
 74
     0
  0
LTYPE
  5
3D
330
5
100
AcDbSymbolTableRecord
100
AcDbLinetypeTableRecord
  2
JWW_DASHED3
 70
     0
  3
---  ------  ------  ------  ---
 72
    65
 73
     2
 40
3.386666666666667
 49
2.54
 74
     0
 49
-0.8466666666666667
 74
     0
  0
LTYPE
  5
3E
330
5
100
AcDbSymbolTableRecord
100
AcDbLinetypeTableRecord
  2
JWW_DASHED1
 70
     0
  3
-  --  --  --  --  --  --  --  -
 72
    65
 73
     2
 40
1.693333333333333
 49
0.8466666666666667
 74
     0
 49
-0.8466666666666667
 74
     0
  0
ENDTAB
  0
TABLE
  2
LAYER
  5
2
330
0
100
AcDbSymbolTable
 70
     6
  0
LAYER
  5
10
330
2
100
AcDbSymbolTableRecord
100
AcDbLayerTableRecord
  2
0
 70
     0
 62
     7
  6
Continuous
370
    -3
390
F
  0
LAYER
  5
3F
330
2
100
AcDbSymbolTableRecord
100
AcDbLayerTableRecord
  2
F-5ﾚｲﾔ
 70
     0
 62
     7
  6
Continuous
370
    -3
390
F
  0
LAYER
  5
40
330
2
100
AcDbSymbolTableRecord
100
AcDbLayerTableRecord
  2
0-1_ピット
 70
     0
 62
     7
  6
Continuous
370
    -3
390
F
  0
LAYER
  5
41
330
2
100
AcDbSymbolTableRecord
100
AcDbLayerTableRecord
  2
0-0_通り芯
 70
     0
 62
     7
  6
Continuous
370
    -3
390
F
  0
LAYER
  5
42
330
2
100
AcDbSymbolTableRecord
100
AcDbLayerTableRecord
  2
0-4_寸法
 70
     0
 62
     7
  6
Continuous
370
    -3
390
F
  0
LAYER
  5
43
330
2
100
AcDbSymbolTableRecord
100
AcDbLayerTableRecord
  2
0-2_本体（蓋）
 70
     0
 62
     7
  6
Continuous
370
    -3
390
F
  0
ENDTAB
  0
TABLE
  2
STYLE
  5
3
330
0
100
AcDbSymbolTable
 70
     2
  0
STYLE
  5
11
330
3
100
AcDbSymbolTableRecord
100
AcDbTextStyleTableRecord
  2
Standard
 70
     0
 40
0.0
 41
1.0
 50
0.0
 71
     0
 42
2.5
  3
txt
  4

1001
ACAD
1000

1071
        0
  0
STYLE
  5
3B
330
3
100
AcDbSymbolTableRecord
100
AcDbTextStyleTableRecord
  2
ＭＳ ゴシック
 70
     0
 40
1.0
 41
1.0
 50
0.0
 71
     0
 42
10.0
  3

  4

1001
ACAD
1000
MS Gothic
1071
    32817
  0
ENDTAB
  0
TABLE
  2
VIEW
  5
6
330
0
100
AcDbSymbolTable
 70
     0
  0
ENDTAB
  0
TABLE
  2
UCS
  5
7
330
0
100
AcDbSymbolTable
 70
     0
  0
ENDTAB
  0
TABLE
  2
APPID
  5
9
330
0
100
AcDbSymbolTable
 70
     1
  0
APPID
  5
12
330
9
100
AcDbSymbolTableRecord
100
AcDbRegAppTableRecord
  2
ACAD
 70
     0
  0
ENDTAB
  0
TABLE
  2
DIMSTYLE
  5
A
330
0
100
AcDbSymbolTable
 70
     1
100
AcDbDimStyleTable
  0
DIMSTYLE
105
27
330
A
100
AcDbSymbolTableRecord
100
AcDbDimStyleTableRecord
  2
ISO-25
 70
     0
 41
2.5
 42
0.625
 43
3.75
 44
1.25
 73
     0
 74
     0
 77
     1
 78
     8
140
2.5
141
2.5
143
0.03937007874016
147
0.625
171
     3
172
     1
271
     2
272
     2
274
     3
278
    44
283
     0
284
     8
340
11
  0
ENDTAB
  0
TABLE
  2
BLOCK_RECORD
  5
1
330
0
100
AcDbSymbolTable
 70
     1
  0
BLOCK_RECORD
  5
1F
330
1
100
AcDbSymbolTableRecord
100
AcDbBlockTableRecord
  2
*Model_Space
340
22
  0
BLOCK_RECORD
  5
1B
330
1
100
AcDbSymbolTableRecord
100
AcDbBlockTableRecord
  2
*Paper_Space
340
1E
  0
BLOCK_RECORD
  5
23
330
1
100
AcDbSymbolTableRecord
100
AcDbBlockTableRecord
  2
*Paper_Space0
340
26
  0
ENDTAB
  0
ENDSEC
  0
SECTION
  2
BLOCKS
  0
BLOCK
  5
20
330
1F
100
AcDbEntity
  8
0
100
AcDbBlockBegin
  2
*Model_Space
 70
     0
 10
0.0
 20
0.0
 30
0.0
  3
*Model_Space
  1

  0
ENDBLK
  5
21
330
1F
100
AcDbEntity
  8
0
100
AcDbBlockEnd
  0
BLOCK
  5
1C
330
1B
100
AcDbEntity
 67
     1
  8
0
100
AcDbBlockBegin
  2
*Paper_Space
 70
     0
 10
0.0
 20
0.0
 30
0.0
  3
*Paper_Space
  1

  0
ENDBLK
  5
1D
330
1B
100
AcDbEntity
 67
     1
  8
0
100
AcDbBlockEnd
  0
BLOCK
  5
24
330
23
100
AcDbEntity
  8
0
100
AcDbBlockBegin
  2
*Paper_Space0
 70
     0
 10
0.0
 20
0.0
 30
0.0
  3
*Paper_Space0
  1

  0
ENDBLK
  5
25
330
23
100
AcDbEntity
  8
0
100
AcDbBlockEnd
  0
ENDSEC
  0
SECTION
  2
ENTITIES
  0
TEXT
  5
44
330
1F
100
AcDbEntity
  8
F-5ﾚｲﾔ
  6
Continuous
 62
     7
370
    13
100
AcDbText
 10
-806.8619515624999
 20
-1323.293737398041
 30
0.0
 40
22.86
  1
インターロッキングブロック用　鋳鉄目地
 41
1.157894736842105
  7
ＭＳ ゴシック
100
AcDbText
  0
LINE
  5
45
330
1F
100
AcDbEntity
  8
0-1_ピット
  6
Continuous
 62
     2
370
    13
100
AcDbLine
 10
-1215.980881198072
 20
-373.6083805833374
 30
0.0
 11
-1215.980881198072
 21
93.58003965714659
 31
0.0
  0
LINE
  5
46
330
1F
100
AcDbEntity
  8
0-1_ピット
  6
Continuous
 62
     2
370
    13
100
AcDbLine
 10
-1215.980881198072
 20
379.9857723900885
 30
0.0
 11
-1215.980881198072
 21
306.3908205395211
 31
0.0
  0
LINE
  5
47
330
1F
100
AcDbEntity
  8
0-1_ピット
  6
Continuous
 62
     2
370
    13
100
AcDbLine
 10
-1155.981097413346
 20
439.9855561748149
 30
0.0
 11
-1082.386393297173
 21
439.9855561748149
 31
0.0
  0
LINE
  5
48
330
1F
100
AcDbEntity
  8
0-1_ピット
  6
Continuous
 62
     2
370
    13
100
AcDbLine
 10
-1165.981143955598
 20
379.9862678588767
 30
0.0
 11
-1165.981143955598
 21
-660.0146087850663
 31
0.0
  0
LINE
  5
49
330
1F
100
AcDbEntity
  8
0-1_ピット
  6
Continuous
 62
     2
370
    13
100
AcDbLine
 10
-402.3866967055266
 20
-720.0138971010057
 30
0.0
 11
-869.5756124147977
 21
-720.0138971010057
 31
0.0
  0
LINE
  5
4A
330
1F
100
AcDbEntity
  8
0-1_ピット
  6
Continuous
 62
     2
370
    13
100
AcDbLine
 10
-1215.980881198072
 20
-660.0141133162793
 30
0.0
 11
-1215.980881198072
 21
-586.4191614657119
 31
0.0
  0
LINE
  5
4B
330
1F
100
AcDbEntity
  8
0-1_ピット
  6
Continuous
 62
     2
370
    13
100
AcDbLine
 10
-1155.981097413346
 20
-720.0138971010057
 30
0.0
 11
-1082.386393297173
 21
-720.0138971010057
 31
0.0
  0
LINE
  5
4C
330
1F
100
AcDbEntity
  8
0-1_ピット
  6
Continuous
 62
     2
370
    13
100
AcDbLine
 10
-285.9812597220871
 20
430.9858611149394
 30
0.0
 11
-305.9813528065916
 21
430.9858611149394
 31
0.0
  0
LINE
  5
4D
330
1F
100
AcDbEntity
  8
0-1_ピット
  6
Continuous
 62
     2
370
    13
100
AcDbLine
 10
-285.9812597220871
 20
460.9860007416961
 30
0.0
 11
-305.9813528065915
 21
460.9860007416961
 31
0.0
  0
LINE
  5
4E
330
1F
100
AcDbEntity
  8
0-1_ピット
  6
Continuous
 62
     2
370
    13
100
AcDbLine
 10
-285.9812597220871
 20
462.9862082376616
 30
0.0
 11
-305.9813528065915
 21
462.9862082376616
 31
0.0
  0
LINE
  5
4F
330
1F
100
AcDbEntity
  8
0-1_ピット
  6
Continuous
 62
     2
370
    13
100
AcDbLine
 10
-285.9812597220871
 20
428.985653618974
 30
0.0
 11
-305.9813528065916
 21
428.985653618974
 31
0.0
  0
LINE
  5
50
330
1F
100
AcDbEntity
  8
0-1_ピット
  6
JWW_CENTER1
 62
     2
370
    13
100
AcDbLine
 10
-295.9813062643394
 20
416.629157522396
 30
0.0
 11
-295.9813062643393
 21
474.3631625409461
 31
0.0
  0
LINE
  5
51
330
1F
100
AcDbEntity
  8
0-1_ピット
  6
JWW_CENTER1
 62
     2
370
    13
100
AcDbLine
 10
-256.9703235299829
 20
445.9856831939243
 30
0.0
 11
-333.8311578947087
 21
445.9856831939243
 31
0.0
  0
LINE
  5
52
330
1F
100
AcDbEntity
  8
0-1_ピット
  6
Continuous
 62
     2
370
    13
100
AcDbLine
 10
-55.98118018785826
 20
-373.6083805833374
 30
0.0
 11
-55.98118018785826
 21
93.58003965714659
 31
0.0
  0
LINE
  5
53
330
1F
100
AcDbEntity
  8
0-1_ピット
  6
Continuous
 62
     2
370
    13
100
AcDbLine
 10
-55.98118018785826
 20
379.9857723900885
 30
0.0
 11
-55.98118018785826
 21
306.3908205395211
 31
0.0
  0
LINE
  5
54
330
1F
100
AcDbEntity
  8
0-1_ピット
  6
Continuous
 62
     2
370
    13
100
AcDbLine
 10
-55.98118018785826
 20
-660.0141133162793
 30
0.0
 11
-55.98118018785826
 21
-586.4191614657119
 31
0.0
  0
LINE
  5
55
330
1F
100
AcDbEntity
  8
0-1_ピット
  6
Continuous
 62
     2
370
    13
100
AcDbLine
 10
-115.9812117069787
 20
-720.0138971010057
 30
0.0
 11
-189.5759158231515
 21
-720.0138971010057
 31
0.0
  0
LINE
  5
56
330
1F
100
AcDbEntity
  8
0-0_通り芯
  6
JWW_CENTER1
 62
     3
370
    13
100
AcDbLine
 10
-1005.498803617912
 20
284.9860734418729
 30
0.0
 11
-1119.177180393822
 21
284.9860734418729
 31
0.0
  0
LINE
  5
57
330
1F
100
AcDbEntity
  8
0-0_通り芯
  6
JWW_CENTER1
 62
     3
370
    13
100
AcDbLine
 10
-1060.98139846513
 20
227.0063159046202
 30
0.0
 11
-1060.98139846513
 21
344.6043462600659
 31
0.0
  0
LINE
  5
58
330
1F
100
AcDbEntity
  8
0-0_通り芯
  6
Continuous
 62
     3
370
    13
100
AcDbLine
 10
-1160.980872950078
 20
370.985581861425
 30
0.0
 11
-1160.980872950078
 21
-651.0139227876158
 31
0.0
  0
LINE
  5
59
330
1F
100
AcDbEntity
  8
0-0_通り芯
  6
Continuous
 62
     3
370
    13
100
AcDbLine
 10
-1146.980906884682
 20
384.9855479268211
 30
0.0
 11
-124.9811545012481
 21
384.9855479268211
 31
0.0
  0
LINE
  5
5A
330
1F
100
AcDbEntity
  8
0-0_通り芯
  6
Continuous
 62
     3
370
    13
100
AcDbLine
 10
-924.010538510414
 20
336.9855227115244
 30
0.0
 11
-347.9517706099101
 21
336.9855227115244
 31
0.0
  0
LINE
  5
5B
330
1F
100
AcDbEntity
  8
0-0_通り芯
  6
Continuous
 62
     3
370
    13
100
AcDbLine
 10
-1109.46648762359
 20
156.5006119453943
 30
0.0
 11
-932.4959369686518
 21
333.4711626003326
 31
0.0
  0
LINE
  5
5C
330
1F
100
AcDbEntity
  8
0-0_通り芯
  6
Continuous
 62
     3
370
    13
100
AcDbLine
 10
-901.3398686601788
 20
125.3445436369208
 30
0.0
 11
-975.9807551215913
 21
199.9854300983333
 31
0.0
  0
LINE
  5
5D
330
1F
100
AcDbEntity
  8
0-0_通り芯
  6
Continuous
 62
     3
370
    13
100
AcDbLine
 10
-813.9812893559513
 20
125.3445436369208
 30
0.0
 11
-811.9810818599858
 21
199.9854300983333
 31
0.0
  0
LINE
  5
5E
330
1F
100
AcDbEntity
  8
0-0_通り芯
  6
Continuous
 62
     3
370
    13
100
AcDbLine
 10
-797.9816112633778
 20
125.3445436369208
 30
0.0
 11
-799.9813232905557
 21
199.9854300983333
 31
0.0
  0
LINE
  5
5F
330
1F
100
AcDbEntity
  8
0-0_通り芯
  6
Continuous
 62
     3
370
    13
100
AcDbLine
 10
-813.9812893559513
 20
125.3445436369208
 30
0.0
 11
-901.3398686601788
 21
125.3445436369208
 31
0.0
  0
LINE
  5
60
330
1F
100
AcDbEntity
  8
0-0_通り芯
  6
Continuous
 62
     3
370
    13
100
AcDbLine
 10
-643.9809936064489
 20
125.3445436369208
 30
0.0
 11
-641.9812815792716
 21
199.9854300983333
 31
0.0
  0
LINE
  5
61
330
1F
100
AcDbEntity
  8
0-0_通り芯
  6
Continuous
 62
     3
370
    13
100
AcDbLine
 10
-643.9809936064489
 20
125.3445436369208
 30
0.0
 11
-797.9816112633778
 21
125.3445436369208
 31
0.0
  0
LINE
  5
62
330
1F
100
AcDbEntity
  8
0-0_通り芯
  6
Continuous
 62
     3
370
    13
100
AcDbLine
 10
-901.3398686601788
 20
37.98596433269324
 30
0.0
 11
-975.9807551215913
 21
35.98575683672777
 31
0.0
  0
LINE
  5
63
330
1F
100
AcDbEntity
  8
0-0_通り芯
  6
Continuous
 62
     3
370
    13
100
AcDbLine
 10
-975.9807551215913
 20
23.98599826729821
 30
0.0
 11
-901.3398686601788
 21
21.98628624011974
 31
0.0
  0
LINE
  5
64
330
1F
100
AcDbEntity
  8
0-0_通り芯
  6
Continuous
 62
     3
370
    13
100
AcDbLine
 10
-901.3398686601788
 20
37.98596433269324
 30
0.0
 11
-901.3398686601788
 21
125.3445436369208
 31
0.0
  0
LINE
  5
65
330
1F
100
AcDbEntity
  8
0-0_通り芯
  6
Continuous
 62
     3
370
    13
100
AcDbLine
 10
-901.3398686601788
 20
-132.0143314168087
 30
0.0
 11
-975.9807551215913
 21
-134.014043443986
 31
0.0
  0
LINE
  5
66
330
1F
100
AcDbEntity
  8
0-0_通り芯
  6
Continuous
 62
     3
370
    13
100
AcDbLine
 10
-901.3398686601788
 20
-132.0143314168087
 30
0.0
 11
-901.3398686601788
 21
21.98628624011974
 31
0.0
  0
LINE
  5
67
330
1F
100
AcDbEntity
  8
0-0_通り芯
  6
Continuous
 62
     3
370
    13
100
AcDbLine
 10
-821.981128402238
 20
37.98596433269324
 30
0.0
 11
-901.3398686601788
 21
37.98596433269324
 31
0.0
  0
LINE
  5
68
330
1F
100
AcDbEntity
  8
0-0_通り芯
  6
Continuous
 62
     3
370
    13
100
AcDbLine
 10
-813.9812893559513
 20
45.98580337897999
 30
0.0
 11
-813.9812893559513
 21
125.3445436369208
 31
0.0
  0
LINE
  5
69
330
1F
100
AcDbEntity
  8
0-0_通り芯
  6
Continuous
 62
     3
370
    13
100
AcDbLine
 10
-797.9816112633778
 20
45.98580337897999
 30
0.0
 11
-797.9816112633778
 21
125.3445436369208
 31
0.0
  0
LINE
  5
6A
330
1F
100
AcDbEntity
  8
0-0_通り芯
  6
Continuous
 62
     3
370
    13
100
AcDbLine
 10
-821.981128402238
 20
21.98628624011974
 30
0.0
 11
-901.3398686601788
 21
21.98628624011974
 31
0.0
  0
LINE
  5
6B
330
1F
100
AcDbEntity
  8
0-0_通り芯
  6
Continuous
 62
     3
370
    13
100
AcDbLine
 10
-799.9813232905557
 20
45.98580337897999
 30
0.0
 11
-799.9813232905557
 21
199.9854300983333
 31
0.0
  0
LINE
  5
6C
330
1F
100
AcDbEntity
  8
0-0_通り芯
  6
Continuous
 62
     3
370
    13
100
AcDbLine
 10
-821.981128402238
 20
23.98599826729821
 30
0.0
 11
-975.9807551215913
 21
23.98599826729821
 31
0.0
  0
LINE
  5
6D
330
1F
100
AcDbEntity
  8
0-0_通り芯
  6
Continuous
 62
     3
370
    13
100
AcDbLine
 10
-821.981128402238
 20
35.98575683672777
 30
0.0
 11
-975.9807551215913
 21
35.98575683672777
 31
0.0
  0
LINE
  5
6E
330
1F
100
AcDbEntity
  8
0-0_通り芯
  6
Continuous
 62
     3
370
    13
100
AcDbLine
 10
-811.9810818599858
 20
45.98580337897999
 30
0.0
 11
-811.9810818599858
 21
199.9854300983333
 31
0.0
  0
LINE
  5
6F
330
1F
100
AcDbEntity
  8
0-0_通り芯
  6
Continuous
 62
     3
370
    13
100
AcDbLine
 10
-651.9808326527356
 20
23.98599826729821
 30
0.0
 11
-789.9812767483035
 21
23.98599826729821
 31
0.0
  0
LINE
  5
70
330
1F
100
AcDbEntity
  8
0-0_通り芯
  6
Continuous
 62
     3
370
    13
100
AcDbLine
 10
-651.9808326527356
 20
35.98575683672777
 30
0.0
 11
-789.9812767483035
 21
35.98575683672777
 31
0.0
  0
LINE
  5
71
330
1F
100
AcDbEntity
  8
0-0_通り芯
  6
Continuous
 62
     3
370
    13
100
AcDbLine
 10
-641.9812815792716
 20
45.98580337897999
 30
0.0
 11
-641.9812815792716
 21
199.9854300983333
 31
0.0
  0
LINE
  5
72
330
1F
100
AcDbEntity
  8
0-0_通り芯
  6
Continuous
 62
     3
370
    13
100
AcDbLine
 10
-651.9808326527356
 20
37.98596433269324
 30
0.0
 11
-789.9812767483035
 21
37.98596433269324
 31
0.0
  0
LINE
  5
73
330
1F
100
AcDbEntity
  8
0-0_通り芯
  6
Continuous
 62
     3
370
    13
100
AcDbLine
 10
-643.9809936064489
 20
45.98580337897999
 30
0.0
 11
-643.9809936064489
 21
125.3445436369208
 31
0.0
  0
LINE
  5
74
330
1F
100
AcDbEntity
  8
0-0_通り芯
  6
Continuous
 62
     3
370
    13
100
AcDbLine
 10
-651.9808326527356
 20
21.98628624011974
 30
0.0
 11
-789.9812767483035
 21
21.98628624011974
 31
0.0
  0
LINE
  5
75
330
1F
100
AcDbEntity
  8
0-0_通り芯
  6
Continuous
 62
     3
370
    13
100
AcDbLine
 10
-643.9809936064489
 20
-124.0144923705219
 30
0.0
 11
-643.9809936064489
 21
13.98595172504599
 31
0.0
  0
LINE
  5
76
330
1F
100
AcDbEntity
  8
0-0_通り芯
  6
Continuous
 62
     3
370
    13
100
AcDbLine
 10
-641.9812815792716
 20
-124.0144923705219
 30
0.0
 11
-641.9812815792716
 21
13.98595172504599
 31
0.0
  0
LINE
  5
77
330
1F
100
AcDbEntity
  8
0-0_通り芯
  6
Continuous
 62
     3
370
    13
100
AcDbLine
 10
-789.9812767483035
 20
-134.014043443986
 30
0.0
 11
-651.9808326527356
 21
-134.014043443986
 31
0.0
  0
LINE
  5
78
330
1F
100
AcDbEntity
  8
0-0_通り芯
  6
Continuous
 62
     3
370
    13
100
AcDbLine
 10
-799.9813232905557
 20
-124.0144923705219
 30
0.0
 11
-799.9813232905557
 21
13.98595172504599
 31
0.0
  0
LINE
  5
79
330
1F
100
AcDbEntity
  8
0-0_通り芯
  6
Continuous
 62
     3
370
    13
100
AcDbLine
 10
-811.9810818599858
 20
-124.0144923705219
 30
0.0
 11
-811.9810818599858
 21
13.98595172504599
 31
0.0
  0
LINE
  5
7A
330
1F
100
AcDbEntity
  8
0-0_通り芯
  6
Continuous
 62
     3
370
    13
100
AcDbLine
 10
-821.981128402238
 20
-134.014043443986
 30
0.0
 11
-975.9807551215913
 21
-134.014043443986
 31
0.0
  0
LINE
  5
7B
330
1F
100
AcDbEntity
  8
0-0_通り芯
  6
Continuous
 62
     3
370
    13
100
AcDbLine
 10
-821.981128402238
 20
-132.0143314168087
 30
0.0
 11
-901.3398686601788
 21
-132.0143314168087
 31
0.0
  0
LINE
  5
7C
330
1F
100
AcDbEntity
  8
0-0_通り芯
  6
Continuous
 62
     3
370
    13
100
AcDbLine
 10
-813.9812893559513
 20
-124.0144923705219
 30
0.0
 11
-813.9812893559513
 21
13.98595172504599
 31
0.0
  0
LINE
  5
7D
330
1F
100
AcDbEntity
  8
0-0_通り芯
  6
Continuous
 62
     3
370
    13
100
AcDbLine
 10
-789.9812767483035
 20
-132.0143314168087
 30
0.0
 11
-651.9808326527356
 21
-132.0143314168087
 31
0.0
  0
LINE
  5
7E
330
1F
100
AcDbEntity
  8
0-0_通り芯
  6
Continuous
 62
     3
370
    13
100
AcDbLine
 10
-797.9816112633778
 20
-124.0144923705219
 30
0.0
 11
-797.9816112633778
 21
13.98595172504599
 31
0.0
  0
LINE
  5
7F
330
1F
100
AcDbEntity
  8
0-0_通り芯
  6
JWW_CENTER1
 62
     3
370
    13
100
AcDbLine
 10
-266.4637532368072
 20
284.9860734418729
 30
0.0
 11
-152.7853764608959
 21
284.9860734418729
 31
0.0
  0
LINE
  5
80
330
1F
100
AcDbEntity
  8
0-0_通り芯
  6
JWW_CENTER1
 62
     3
370
    13
100
AcDbLine
 10
-210.9811583895878
 20
227.0063159046202
 30
0.0
 11
-210.9811583895878
 21
344.6043462600659
 31
0.0
  0
LINE
  5
81
330
1F
100
AcDbEntity
  8
0-0_通り芯
  6
Continuous
 62
     3
370
    13
100
AcDbLine
 10
-110.981188435852
 20
370.985581861425
 30
0.0
 11
-110.981188435852
 21
-651.0139227876158
 31
0.0
  0
LINE
  5
82
330
1F
100
AcDbEntity
  8
0-0_通り芯
  6
Continuous
 62
     3
370
    13
100
AcDbLine
 10
-162.4958214967346
 20
156.5006119453943
 30
0.0
 11
-339.4663721516723
 21
333.4711626003326
 31
0.0
  0
LINE
  5
83
330
1F
100
AcDbEntity
  8
0-0_通り芯
  6
Continuous
 62
     3
370
    13
100
AcDbLine
 10
-370.6224404601459
 20
125.3445436369208
 30
0.0
 11
-295.9813062643394
 21
199.9854300983333
 31
0.0
  0
LINE
  5
84
330
1F
100
AcDbEntity
  8
0-0_通り芯
  6
Continuous
 62
     3
370
    13
100
AcDbLine
 10
-457.9810197643734
 20
125.3445436369208
 30
0.0
 11
-459.9812272603389
 21
199.9854300983333
 31
0.0
  0
LINE
  5
85
330
1F
100
AcDbEntity
  8
0-0_通り芯
  6
Continuous
 62
     3
370
    13
100
AcDbLine
 10
-473.9806978569469
 20
125.3445436369208
 30
0.0
 11
-471.980985829769
 21
199.9854300983333
 31
0.0
  0
LINE
  5
86
330
1F
100
AcDbEntity
  8
0-0_通り芯
  6
Continuous
 62
     3
370
    13
100
AcDbLine
 10
-457.9810197643734
 20
125.3445436369208
 30
0.0
 11
-370.6224404601459
 21
125.3445436369208
 31
0.0
  0
LINE
  5
87
330
1F
100
AcDbEntity
  8
0-0_通り芯
  6
Continuous
 62
     3
370
    13
100
AcDbLine
 10
-627.9813155138753
 20
125.3445436369208
 30
0.0
 11
-629.9810275410532
 21
199.9854300983333
 31
0.0
  0
LINE
  5
88
330
1F
100
AcDbEntity
  8
0-0_通り芯
  6
Continuous
 62
     3
370
    13
100
AcDbLine
 10
-627.9813155138753
 20
125.3445436369208
 30
0.0
 11
-473.9806978569469
 21
125.3445436369208
 31
0.0
  0
LINE
  5
89
330
1F
100
AcDbEntity
  8
0-0_通り芯
  6
Continuous
 62
     3
370
    13
100
AcDbLine
 10
-370.6224404601459
 20
37.98596433269324
 30
0.0
 11
-295.9813062643394
 21
35.98575683672777
 31
0.0
  0
LINE
  5
8A
330
1F
100
AcDbEntity
  8
0-0_通り芯
  6
Continuous
 62
     3
370
    13
100
AcDbLine
 10
-295.9813062643394
 20
23.98599826729821
 30
0.0
 11
-370.6224404601459
 21
21.98628624011974
 31
0.0
  0
LINE
  5
8B
330
1F
100
AcDbEntity
  8
0-0_通り芯
  6
Continuous
 62
     3
370
    13
100
AcDbLine
 10
-370.6224404601459
 20
37.98596433269324
 30
0.0
 11
-370.6224404601459
 21
125.3445436369208
 31
0.0
  0
LINE
  5
8C
330
1F
100
AcDbEntity
  8
0-0_通り芯
  6
Continuous
 62
     3
370
    13
100
AcDbLine
 10
-370.6224404601459
 20
-132.0143314168087
 30
0.0
 11
-295.9813062643394
 21
-134.014043443986
 31
0.0
  0
LINE
  5
8D
330
1F
100
AcDbEntity
  8
0-0_通り芯
  6
Continuous
 62
     3
370
    13
100
AcDbLine
 10
-370.6224404601459
 20
-132.0143314168087
 30
0.0
 11
-370.6224404601459
 21
21.98628624011974
 31
0.0
  0
LINE
  5
8E
330
1F
100
AcDbEntity
  8
0-0_通り芯
  6
Continuous
 62
     3
370
    13
100
AcDbLine
 10
-449.9811807180861
 20
37.98596433269324
 30
0.0
 11
-370.6224404601459
 21
37.98596433269324
 31
0.0
  0
LINE
  5
8F
330
1F
100
AcDbEntity
  8
0-0_通り芯
  6
Continuous
 62
     3
370
    13
100
AcDbLine
 10
-457.9810197643734
 20
45.98580337897999
 30
0.0
 11
-457.9810197643734
 21
125.3445436369208
 31
0.0
  0
LINE
  5
90
330
1F
100
AcDbEntity
  8
0-0_通り芯
  6
Continuous
 62
     3
370
    13
100
AcDbLine
 10
-473.9806978569469
 20
45.98580337897999
 30
0.0
 11
-473.9806978569469
 21
125.3445436369208
 31
0.0
  0
LINE
  5
91
330
1F
100
AcDbEntity
  8
0-0_通り芯
  6
Continuous
 62
     3
370
    13
100
AcDbLine
 10
-449.9811807180861
 20
21.98628624011974
 30
0.0
 11
-370.6224404601459
 21
21.98628624011974
 31
0.0
  0
LINE
  5
92
330
1F
100
AcDbEntity
  8
0-0_通り芯
  6
Continuous
 62
     3
370
    13
100
AcDbLine
 10
-471.980985829769
 20
45.98580337897999
 30
0.0
 11
-471.980985829769
 21
199.9854300983333
 31
0.0
  0
LINE
  5
93
330
1F
100
AcDbEntity
  8
0-0_通り芯
  6
Continuous
 62
     3
370
    13
100
AcDbLine
 10
-449.9811807180861
 20
23.98599826729821
 30
0.0
 11
-295.9813062643394
 21
23.98599826729821
 31
0.0
  0
LINE
  5
94
330
1F
100
AcDbEntity
  8
0-0_通り芯
  6
Continuous
 62
     3
370
    13
100
AcDbLine
 10
-449.9811807180861
 20
35.98575683672777
 30
0.0
 11
-295.9813062643394
 21
35.98575683672777
 31
0.0
  0
LINE
  5
95
330
1F
100
AcDbEntity
  8
0-0_通り芯
  6
Continuous
 62
     3
370
    13
100
AcDbLine
 10
-459.9812272603389
 20
45.98580337897999
 30
0.0
 11
-459.9812272603389
 21
199.9854300983333
 31
0.0
  0
LINE
  5
96
330
1F
100
AcDbEntity
  8
0-0_通り芯
  6
Continuous
 62
     3
370
    13
100
AcDbLine
 10
-619.9814764675885
 20
23.98599826729821
 30
0.0
 11
-481.9810323720212
 21
23.98599826729821
 31
0.0
  0
LINE
  5
97
330
1F
100
AcDbEntity
  8
0-0_通り芯
  6
Continuous
 62
     3
370
    13
100
AcDbLine
 10
-619.9814764675885
 20
35.98575683672777
 30
0.0
 11
-481.9810323720212
 21
35.98575683672777
 31
0.0
  0
LINE
  5
98
330
1F
100
AcDbEntity
  8
0-0_通り芯
  6
Continuous
 62
     3
370
    13
100
AcDbLine
 10
-629.9810275410532
 20
45.98580337897999
 30
0.0
 11
-629.9810275410532
 21
199.9854300983333
 31
0.0
  0
LINE
  5
99
330
1F
100
AcDbEntity
  8
0-0_通り芯
  6
Continuous
 62
     3
370
    13
100
AcDbLine
 10
-619.9814764675885
 20
37.98596433269324
 30
0.0
 11
-481.9810323720212
 21
37.98596433269324
 31
0.0
  0
LINE
  5
9A
330
1F
100
AcDbEntity
  8
0-0_通り芯
  6
Continuous
 62
     3
370
    13
100
AcDbLine
 10
-627.9813155138753
 20
45.98580337897999
 30
0.0
 11
-627.9813155138753
 21
125.3445436369208
 31
0.0
  0
LINE
  5
9B
330
1F
100
AcDbEntity
  8
0-0_通り芯
  6
Continuous
 62
     3
370
    13
100
AcDbLine
 10
-619.9814764675885
 20
21.98628624011974
 30
0.0
 11
-481.9810323720212
 21
21.98628624011974
 31
0.0
  0
LINE
  5
9C
330
1F
100
AcDbEntity
  8
0-0_通り芯
  6
Continuous
 62
     3
370
    13
100
AcDbLine
 10
-627.9813155138753
 20
-124.0144923705219
 30
0.0
 11
-627.9813155138753
 21
13.98595172504599
 31
0.0
  0
LINE
  5
9D
330
1F
100
AcDbEntity
  8
0-0_通り芯
  6
Continuous
 62
     3
370
    13
100
AcDbLine
 10
-629.9810275410532
 20
-124.0144923705219
 30
0.0
 11
-629.9810275410532
 21
13.98595172504599
 31
0.0
  0
LINE
  5
9E
330
1F
100
AcDbEntity
  8
0-0_通り芯
  6
Continuous
 62
     3
370
    13
100
AcDbLine
 10
-481.9810323720213
 20
-134.014043443986
 30
0.0
 11
-619.9814764675885
 21
-134.014043443986
 31
0.0
  0
LINE
  5
9F
330
1F
100
AcDbEntity
  8
0-0_通り芯
  6
Continuous
 62
     3
370
    13
100
AcDbLine
 10
-471.980985829769
 20
-124.0144923705219
 30
0.0
 11
-471.980985829769
 21
13.98595172504599
 31
0.0
  0
LINE
  5
A0
330
1F
100
AcDbEntity
  8
0-0_通り芯
  6
Continuous
 62
     3
370
    13
100
AcDbLine
 10
-459.9812272603389
 20
-124.0144923705219
 30
0.0
 11
-459.9812272603389
 21
13.98595172504599
 31
0.0
  0
LINE
  5
A1
330
1F
100
AcDbEntity
  8
0-0_通り芯
  6
Continuous
 62
     3
370
    13
100
AcDbLine
 10
-449.9811807180861
 20
-134.014043443986
 30
0.0
 11
-295.9813062643394
 21
-134.014043443986
 31
0.0
  0
LINE
  5
A2
330
1F
100
AcDbEntity
  8
0-0_通り芯
  6
Continuous
 62
     3
370
    13
100
AcDbLine
 10
-449.9811807180861
 20
-132.0143314168087
 30
0.0
 11
-370.6224404601459
 21
-132.0143314168087
 31
0.0
  0
LINE
  5
A3
330
1F
100
AcDbEntity
  8
0-0_通り芯
  6
Continuous
 62
     3
370
    13
100
AcDbLine
 10
-457.9810197643734
 20
-124.0144923705219
 30
0.0
 11
-457.9810197643734
 21
13.98595172504599
 31
0.0
  0
LINE
  5
A4
330
1F
100
AcDbEntity
  8
0-0_通り芯
  6
Continuous
 62
     3
370
    13
100
AcDbLine
 10
-481.9810323720213
 20
-132.0143314168087
 30
0.0
 11
-619.9814764675885
 21
-132.0143314168087
 31
0.0
  0
LINE
  5
A5
330
1F
100
AcDbEntity
  8
0-0_通り芯
  6
Continuous
 62
     3
370
    13
100
AcDbLine
 10
-473.9806978569469
 20
-124.0144923705219
 30
0.0
 11
-473.9806978569469
 21
13.98595172504599
 31
0.0
  0
LINE
  5
A6
330
1F
100
AcDbEntity
  8
0-0_通り芯
  6
Continuous
 62
     3
370
    13
100
AcDbLine
 10
-901.3398686601788
 20
-405.3728845631116
 30
0.0
 11
-975.9807551215913
 21
-480.0142664933122
 31
0.0
  0
LINE
  5
A7
330
1F
100
AcDbEntity
  8
0-0_通り芯
  6
Continuous
 62
     3
370
    13
100
AcDbLine
 10
-813.9812893559513
 20
-405.3728845631116
 30
0.0
 11
-811.9810818599859
 21
-480.0142664933122
 31
0.0
  0
LINE
  5
A8
330
1F
100
AcDbEntity
  8
0-0_通り芯
  6
Continuous
 62
     3
370
    13
100
AcDbLine
 10
-797.9816112633778
 20
-405.3728845631116
 30
0.0
 11
-799.9813232905558
 21
-480.0142664933122
 31
0.0
  0
LINE
  5
A9
330
1F
100
AcDbEntity
  8
0-0_通り芯
  6
Continuous
 62
     3
370
    13
100
AcDbLine
 10
-813.9812893559513
 20
-405.3728845631116
 30
0.0
 11
-901.3398686601788
 21
-405.3728845631116
 31
0.0
  0
LINE
  5
AA
330
1F
100
AcDbEntity
  8
0-0_通り芯
  6
Continuous
 62
     3
370
    13
100
AcDbLine
 10
-643.9809936064489
 20
-405.3728845631116
 30
0.0
 11
-641.9812815792716
 21
-480.0142664933122
 31
0.0
  0
LINE
  5
AB
330
1F
100
AcDbEntity
  8
0-0_通り芯
  6
Continuous
 62
     3
370
    13
100
AcDbLine
 10
-643.9809936064489
 20
-405.3728845631116
 30
0.0
 11
-797.9816112633778
 21
-405.3728845631116
 31
0.0
  0
LINE
  5
AC
330
1F
100
AcDbEntity
  8
0-0_通り芯
  6
Continuous
 62
     3
370
    13
100
AcDbLine
 10
-901.3398686601788
 20
-318.0143052588841
 30
0.0
 11
-975.9807551215913
 21
-316.0140977629186
 31
0.0
  0
LINE
  5
AD
330
1F
100
AcDbEntity
  8
0-0_通り芯
  6
Continuous
 62
     3
370
    13
100
AcDbLine
 10
-975.9807551215913
 20
-304.014339193489
 30
0.0
 11
-901.3398686601788
 21
-302.0146271663106
 31
0.0
  0
LINE
  5
AE
330
1F
100
AcDbEntity
  8
0-0_通り芯
  6
Continuous
 62
     3
370
    13
100
AcDbLine
 10
-901.3398686601788
 20
-318.0143052588841
 30
0.0
 11
-901.3398686601788
 21
-405.3728845631116
 31
0.0
  0
LINE
  5
AF
330
1F
100
AcDbEntity
  8
0-0_通り芯
  6
Continuous
 62
     3
370
    13
100
AcDbLine
 10
-901.3398686601788
 20
-148.0140095093822
 30
0.0
 11
-975.9807551215913
 21
-146.0142974822048
 31
0.0
  0
LINE
  5
B0
330
1F
100
AcDbEntity
  8
0-0_通り芯
  6
Continuous
 62
     3
370
    13
100
AcDbLine
 10
-901.3398686601788
 20
-148.0140095093822
 30
0.0
 11
-901.3398686601788
 21
-302.0146271663106
 31
0.0
  0
LINE
  5
B1
330
1F
100
AcDbEntity
  8
0-0_通り芯
  6
Continuous
 62
     3
370
    13
100
AcDbLine
 10
-821.981128402238
 20
-318.0143052588841
 30
0.0
 11
-901.3398686601788
 21
-318.0143052588841
 31
0.0
  0
LINE
  5
B2
330
1F
100
AcDbEntity
  8
0-0_通り芯
  6
Continuous
 62
     3
370
    13
100
AcDbLine
 10
-813.9812893559513
 20
-326.0141443051708
 30
0.0
 11
-813.9812893559513
 21
-405.3728845631116
 31
0.0
  0
LINE
  5
B3
330
1F
100
AcDbEntity
  8
0-0_通り芯
  6
Continuous
 62
     3
370
    13
100
AcDbLine
 10
-797.9816112633778
 20
-326.0141443051708
 30
0.0
 11
-797.9816112633778
 21
-405.3728845631116
 31
0.0
  0
LINE
  5
B4
330
1F
100
AcDbEntity
  8
0-0_通り芯
  6
Continuous
 62
     3
370
    13
100
AcDbLine
 10
-821.981128402238
 20
-302.0146271663106
 30
0.0
 11
-901.3398686601788
 21
-302.0146271663106
 31
0.0
  0
LINE
  5
B5
330
1F
100
AcDbEntity
  8
0-0_通り芯
  6
Continuous
 62
     3
370
    13
100
AcDbLine
 10
-799.9813232905557
 20
-326.0141443051708
 30
0.0
 11
-799.9813232905558
 21
-480.0142664933122
 31
0.0
  0
LINE
  5
B6
330
1F
100
AcDbEntity
  8
0-0_通り芯
  6
Continuous
 62
     3
370
    13
100
AcDbLine
 10
-821.981128402238
 20
-304.014339193489
 30
0.0
 11
-975.9807551215913
 21
-304.014339193489
 31
0.0
  0
LINE
  5
B7
330
1F
100
AcDbEntity
  8
0-0_通り芯
  6
Continuous
 62
     3
370
    13
100
AcDbLine
 10
-821.981128402238
 20
-316.0140977629186
 30
0.0
 11
-975.9807551215913
 21
-316.0140977629186
 31
0.0
  0
LINE
  5
B8
330
1F
100
AcDbEntity
  8
0-0_通り芯
  6
Continuous
 62
     3
370
    13
100
AcDbLine
 10
-811.9810818599858
 20
-326.0141443051708
 30
0.0
 11
-811.9810818599859
 21
-480.0142664933122
 31
0.0
  0
LINE
  5
B9
330
1F
100
AcDbEntity
  8
0-0_通り芯
  6
Continuous
 62
     3
370
    13
100
AcDbLine
 10
-651.9808326527357
 20
-304.014339193489
 30
0.0
 11
-789.9812767483036
 21
-304.014339193489
 31
0.0
  0
LINE
  5
BA
330
1F
100
AcDbEntity
  8
0-0_通り芯
  6
Continuous
 62
     3
370
    13
100
AcDbLine
 10
-651.9808326527357
 20
-316.0140977629186
 30
0.0
 11
-789.9812767483036
 21
-316.0140977629186
 31
0.0
  0
LINE
  5
BB
330
1F
100
AcDbEntity
  8
0-0_通り芯
  6
Continuous
 62
     3
370
    13
100
AcDbLine
 10
-641.9812815792716
 20
-326.0141443051708
 30
0.0
 11
-641.9812815792716
 21
-480.0142664933122
 31
0.0
  0
LINE
  5
BC
330
1F
100
AcDbEntity
  8
0-0_通り芯
  6
Continuous
 62
     3
370
    13
100
AcDbLine
 10
-651.9808326527357
 20
-318.0143052588841
 30
0.0
 11
-789.9812767483036
 21
-318.0143052588841
 31
0.0
  0
LINE
  5
BD
330
1F
100
AcDbEntity
  8
0-0_通り芯
  6
Continuous
 62
     3
370
    13
100
AcDbLine
 10
-643.9809936064489
 20
-326.0141443051708
 30
0.0
 11
-643.9809936064489
 21
-405.3728845631116
 31
0.0
  0
LINE
  5
BE
330
1F
100
AcDbEntity
  8
0-0_通り芯
  6
Continuous
 62
     3
370
    13
100
AcDbLine
 10
-651.9808326527357
 20
-302.0146271663106
 30
0.0
 11
-789.9812767483036
 21
-302.0146271663106
 31
0.0
  0
LINE
  5
BF
330
1F
100
AcDbEntity
  8
0-0_通り芯
  6
Continuous
 62
     3
370
    13
100
AcDbLine
 10
-643.9809936064489
 20
-156.0138485556689
 30
0.0
 11
-643.9809936064489
 21
-294.0142926512368
 31
0.0
  0
LINE
  5
C0
330
1F
100
AcDbEntity
  8
0-0_通り芯
  6
Continuous
 62
     3
370
    13
100
AcDbLine
 10
-641.9812815792716
 20
-156.0138485556689
 30
0.0
 11
-641.9812815792716
 21
-294.0142926512368
 31
0.0
  0
LINE
  5
C1
330
1F
100
AcDbEntity
  8
0-0_通り芯
  6
Continuous
 62
     3
370
    13
100
AcDbLine
 10
-789.9812767483035
 20
-146.0142974822048
 30
0.0
 11
-651.9808326527356
 21
-146.0142974822048
 31
0.0
  0
LINE
  5
C2
330
1F
100
AcDbEntity
  8
0-0_通り芯
  6
Continuous
 62
     3
370
    13
100
AcDbLine
 10
-799.9813232905557
 20
-156.0138485556689
 30
0.0
 11
-799.9813232905557
 21
-294.0142926512368
 31
0.0
  0
LINE
  5
C3
330
1F
100
AcDbEntity
  8
0-0_通り芯
  6
Continuous
 62
     3
370
    13
100
AcDbLine
 10
-811.9810818599858
 20
-156.0138485556689
 30
0.0
 11
-811.9810818599858
 21
-294.0142926512368
 31
0.0
  0
LINE
  5
C4
330
1F
100
AcDbEntity
  8
0-0_通り芯
  6
Continuous
 62
     3
370
    13
100
AcDbLine
 10
-821.981128402238
 20
-146.0142974822048
 30
0.0
 11
-975.9807551215913
 21
-146.0142974822048
 31
0.0
  0
LINE
  5
C5
330
1F
100
AcDbEntity
  8
0-0_通り芯
  6
Continuous
 62
     3
370
    13
100
AcDbLine
 10
-821.981128402238
 20
-148.0140095093822
 30
0.0
 11
-901.3398686601788
 21
-148.0140095093822
 31
0.0
  0
LINE
  5
C6
330
1F
100
AcDbEntity
  8
0-0_通り芯
  6
Continuous
 62
     3
370
    13
100
AcDbLine
 10
-813.9812893559513
 20
-156.0138485556689
 30
0.0
 11
-813.9812893559513
 21
-294.0142926512368
 31
0.0
  0
LINE
  5
C7
330
1F
100
AcDbEntity
  8
0-0_通り芯
  6
Continuous
 62
     3
370
    13
100
AcDbLine
 10
-789.9812767483035
 20
-148.0140095093822
 30
0.0
 11
-651.9808326527356
 21
-148.0140095093822
 31
0.0
  0
LINE
  5
C8
330
1F
100
AcDbEntity
  8
0-0_通り芯
  6
Continuous
 62
     3
370
    13
100
AcDbLine
 10
-797.9816112633778
 20
-156.0138485556689
 30
0.0
 11
-797.9816112633778
 21
-294.0142926512368
 31
0.0
  0
LINE
  5
C9
330
1F
100
AcDbEntity
  8
0-0_通り芯
  6
Continuous
 62
     3
370
    13
100
AcDbLine
 10
-370.6224404601459
 20
-405.3728845631116
 30
0.0
 11
-295.9813062643394
 21
-480.0142664933122
 31
0.0
  0
LINE
  5
CA
330
1F
100
AcDbEntity
  8
0-0_通り芯
  6
Continuous
 62
     3
370
    13
100
AcDbLine
 10
-457.9810197643734
 20
-405.3728845631116
 30
0.0
 11
-459.9812272603389
 21
-480.0142664933122
 31
0.0
  0
LINE
  5
CB
330
1F
100
AcDbEntity
  8
0-0_通り芯
  6
Continuous
 62
     3
370
    13
100
AcDbLine
 10
-473.9806978569469
 20
-405.3728845631116
 30
0.0
 11
-471.9809858297691
 21
-480.0142664933122
 31
0.0
  0
LINE
  5
CC
330
1F
100
AcDbEntity
  8
0-0_通り芯
  6
Continuous
 62
     3
370
    13
100
AcDbLine
 10
-457.9810197643734
 20
-405.3728845631116
 30
0.0
 11
-370.6224404601459
 21
-405.3728845631116
 31
0.0
  0
LINE
  5
CD
330
1F
100
AcDbEntity
  8
0-0_通り芯
  6
Continuous
 62
     3
370
    13
100
AcDbLine
 10
-627.9813155138753
 20
-405.3728845631116
 30
0.0
 11
-629.9810275410532
 21
-480.0142664933122
 31
0.0
  0
LINE
  5
CE
330
1F
100
AcDbEntity
  8
0-0_通り芯
  6
Continuous
 62
     3
370
    13
100
AcDbLine
 10
-627.9813155138753
 20
-405.3728845631116
 30
0.0
 11
-473.9806978569469
 21
-405.3728845631116
 31
0.0
  0
LINE
  5
CF
330
1F
100
AcDbEntity
  8
0-0_通り芯
  6
Continuous
 62
     3
370
    13
100
AcDbLine
 10
-370.6224404601459
 20
-318.0143052588841
 30
0.0
 11
-295.9813062643394
 21
-316.0140977629186
 31
0.0
  0
LINE
  5
D0
330
1F
100
AcDbEntity
  8
0-0_通り芯
  6
Continuous
 62
     3
370
    13
100
AcDbLine
 10
-295.9813062643394
 20
-304.014339193489
 30
0.0
 11
-370.6224404601459
 21
-302.0146271663106
 31
0.0
  0
LINE
  5
D1
330
1F
100
AcDbEntity
  8
0-0_通り芯
  6
Continuous
 62
     3
370
    13
100
AcDbLine
 10
-370.6224404601459
 20
-318.0143052588841
 30
0.0
 11
-370.6224404601459
 21
-405.3728845631116
 31
0.0
  0
LINE
  5
D2
330
1F
100
AcDbEntity
  8
0-0_通り芯
  6
Continuous
 62
     3
370
    13
100
AcDbLine
 10
-370.6224404601459
 20
-148.0140095093822
 30
0.0
 11
-295.9813062643394
 21
-146.0142974822048
 31
0.0
  0
LINE
  5
D3
330
1F
100
AcDbEntity
  8
0-0_通り芯
  6
Continuous
 62
     3
370
    13
100
AcDbLine
 10
-370.6224404601459
 20
-148.0140095093822
 30
0.0
 11
-370.6224404601459
 21
-302.0146271663106
 31
0.0
  0
LINE
  5
D4
330
1F
100
AcDbEntity
  8
0-0_通り芯
  6
Continuous
 62
     3
370
    13
100
AcDbLine
 10
-449.9811807180861
 20
-318.0143052588841
 30
0.0
 11
-370.6224404601459
 21
-318.0143052588841
 31
0.0
  0
LINE
  5
D5
330
1F
100
AcDbEntity
  8
0-0_通り芯
  6
Continuous
 62
     3
370
    13
100
AcDbLine
 10
-457.9810197643734
 20
-326.0141443051708
 30
0.0
 11
-457.9810197643734
 21
-405.3728845631116
 31
0.0
  0
LINE
  5
D6
330
1F
100
AcDbEntity
  8
0-0_通り芯
  6
Continuous
 62
     3
370
    13
100
AcDbLine
 10
-473.9806978569469
 20
-326.0141443051708
 30
0.0
 11
-473.9806978569469
 21
-405.3728845631116
 31
0.0
  0
LINE
  5
D7
330
1F
100
AcDbEntity
  8
0-0_通り芯
  6
Continuous
 62
     3
370
    13
100
AcDbLine
 10
-449.9811807180861
 20
-302.0146271663106
 30
0.0
 11
-370.6224404601459
 21
-302.0146271663106
 31
0.0
  0
LINE
  5
D8
330
1F
100
AcDbEntity
  8
0-0_通り芯
  6
Continuous
 62
     3
370
    13
100
AcDbLine
 10
-471.980985829769
 20
-326.0141443051708
 30
0.0
 11
-471.9809858297691
 21
-480.0142664933122
 31
0.0
  0
LINE
  5
D9
330
1F
100
AcDbEntity
  8
0-0_通り芯
  6
Continuous
 62
     3
370
    13
100
AcDbLine
 10
-449.9811807180861
 20
-304.014339193489
 30
0.0
 11
-295.9813062643394
 21
-304.014339193489
 31
0.0
  0
LINE
  5
DA
330
1F
100
AcDbEntity
  8
0-0_通り芯
  6
Continuous
 62
     3
370
    13
100
AcDbLine
 10
-449.9811807180861
 20
-316.0140977629186
 30
0.0
 11
-295.9813062643394
 21
-316.0140977629186
 31
0.0
  0
LINE
  5
DB
330
1F
100
AcDbEntity
  8
0-0_通り芯
  6
Continuous
 62
     3
370
    13
100
AcDbLine
 10
-459.9812272603389
 20
-326.0141443051708
 30
0.0
 11
-459.9812272603389
 21
-480.0142664933122
 31
0.0
  0
LINE
  5
DC
330
1F
100
AcDbEntity
  8
0-0_通り芯
  6
Continuous
 62
     3
370
    13
100
AcDbLine
 10
-619.9814764675885
 20
-304.014339193489
 30
0.0
 11
-481.9810323720213
 21
-304.014339193489
 31
0.0
  0
LINE
  5
DD
330
1F
100
AcDbEntity
  8
0-0_通り芯
  6
Continuous
 62
     3
370
    13
100
AcDbLine
 10
-619.9814764675885
 20
-316.0140977629186
 30
0.0
 11
-481.9810323720213
 21
-316.0140977629186
 31
0.0
  0
LINE
  5
DE
330
1F
100
AcDbEntity
  8
0-0_通り芯
  6
Continuous
 62
     3
370
    13
100
AcDbLine
 10
-629.9810275410532
 20
-326.0141443051708
 30
0.0
 11
-629.9810275410532
 21
-480.0142664933122
 31
0.0
  0
LINE
  5
DF
330
1F
100
AcDbEntity
  8
0-0_通り芯
  6
Continuous
 62
     3
370
    13
100
AcDbLine
 10
-619.9814764675885
 20
-318.0143052588841
 30
0.0
 11
-481.9810323720213
 21
-318.0143052588841
 31
0.0
  0
LINE
  5
E0
330
1F
100
AcDbEntity
  8
0-0_通り芯
  6
Continuous
 62
     3
370
    13
100
AcDbLine
 10
-627.9813155138753
 20
-326.0141443051708
 30
0.0
 11
-627.9813155138753
 21
-405.3728845631116
 31
0.0
  0
LINE
  5
E1
330
1F
100
AcDbEntity
  8
0-0_通り芯
  6
Continuous
 62
     3
370
    13
100
AcDbLine
 10
-619.9814764675885
 20
-302.0146271663106
 30
0.0
 11
-481.9810323720213
 21
-302.0146271663106
 31
0.0
  0
LINE
  5
E2
330
1F
100
AcDbEntity
  8
0-0_通り芯
  6
Continuous
 62
     3
370
    13
100
AcDbLine
 10
-627.9813155138753
 20
-156.0138485556689
 30
0.0
 11
-627.9813155138753
 21
-294.0142926512368
 31
0.0
  0
LINE
  5
E3
330
1F
100
AcDbEntity
  8
0-0_通り芯
  6
Continuous
 62
     3
370
    13
100
AcDbLine
 10
-629.9810275410532
 20
-156.0138485556689
 30
0.0
 11
-629.9810275410532
 21
-294.0142926512368
 31
0.0
  0
LINE
  5
E4
330
1F
100
AcDbEntity
  8
0-0_通り芯
  6
Continuous
 62
     3
370
    13
100
AcDbLine
 10
-481.9810323720213
 20
-146.0142974822048
 30
0.0
 11
-619.9814764675885
 21
-146.0142974822048
 31
0.0
  0
LINE
  5
E5
330
1F
100
AcDbEntity
  8
0-0_通り芯
  6
Continuous
 62
     3
370
    13
100
AcDbLine
 10
-471.980985829769
 20
-156.0138485556689
 30
0.0
 11
-471.980985829769
 21
-294.0142926512368
 31
0.0
  0
LINE
  5
E6
330
1F
100
AcDbEntity
  8
0-0_通り芯
  6
Continuous
 62
     3
370
    13
100
AcDbLine
 10
-459.9812272603389
 20
-156.0138485556689
 30
0.0
 11
-459.9812272603389
 21
-294.0142926512368
 31
0.0
  0
LINE
  5
E7
330
1F
100
AcDbEntity
  8
0-0_通り芯
  6
Continuous
 62
     3
370
    13
100
AcDbLine
 10
-449.9811807180861
 20
-146.0142974822048
 30
0.0
 11
-295.9813062643394
 21
-146.0142974822048
 31
0.0
  0
LINE
  5
E8
330
1F
100
AcDbEntity
  8
0-0_通り芯
  6
Continuous
 62
     3
370
    13
100
AcDbLine
 10
-449.9811807180861
 20
-148.0140095093822
 30
0.0
 11
-370.6224404601459
 21
-148.0140095093822
 31
0.0
  0
LINE
  5
E9
330
1F
100
AcDbEntity
  8
0-0_通り芯
  6
Continuous
 62
     3
370
    13
100
AcDbLine
 10
-457.9810197643734
 20
-156.0138485556689
 30
0.0
 11
-457.9810197643734
 21
-294.0142926512368
 31
0.0
  0
LINE
  5
EA
330
1F
100
AcDbEntity
  8
0-0_通り芯
  6
Continuous
 62
     3
370
    13
100
AcDbLine
 10
-481.9810323720213
 20
-148.0140095093822
 30
0.0
 11
-619.9814764675885
 21
-148.0140095093822
 31
0.0
  0
LINE
  5
EB
330
1F
100
AcDbEntity
  8
0-0_通り芯
  6
Continuous
 62
     3
370
    13
100
AcDbLine
 10
-473.9806978569469
 20
-156.0138485556689
 30
0.0
 11
-473.9806978569469
 21
-294.0142926512368
 31
0.0
  0
LINE
  5
EC
330
1F
100
AcDbEntity
  8
0-0_通り芯
  6
JWW_CENTER1
 62
     3
370
    13
100
AcDbLine
 10
-1288.954515188857
 20
-140.0141704630954
 30
0.0
 11
14.82948481020031
 21
-140.0141704630954
 31
0.0
  0
LINE
  5
ED
330
1F
100
AcDbEntity
  8
0-0_通り芯
  6
JWW_CENTER1
 62
     3
370
    13
100
AcDbLine
 10
-635.9811545601622
 20
-795.1492614125476
 30
0.0
 11
-635.981154560162
 21
508.6347385865093
 31
0.0
  0
LINE
  5
EE
330
1F
100
AcDbEntity
  8
0-0_通り芯
  6
Continuous
 62
     3
370
    13
100
AcDbLine
 10
-1112.980847734782
 20
-605.0141050682856
 30
0.0
 11
-1112.980847734782
 21
148.0152134871565
 31
0.0
  0
LINE
  5
EF
330
1F
100
AcDbEntity
  8
0-0_通り芯
  6
Continuous
 62
     3
370
    13
100
AcDbLine
 10
-158.9812136511482
 20
148.0152134871565
 30
0.0
 11
-158.9812136511482
 21
-605.0141050682856
 31
0.0
  0
LINE
  5
F0
330
1F
100
AcDbEntity
  8
0-0_通り芯
  6
Continuous
 62
     3
370
    13
100
AcDbLine
 10
-1100.981089165352
 20
-617.0143591065033
 30
0.0
 11
-170.9812199549724
 21
-617.0143591065033
 31
0.0
  0
LINE
  5
F1
330
1F
100
AcDbEntity
  8
0-1_ピット
  6
Continuous
 62
     2
370
    13
100
AcDbLine
 10
-105.9811651647259
 20
379.9862678588767
 30
0.0
 11
-105.9811651647259
 21
-660.0146087850663
 31
0.0
  0
LINE
  5
F2
330
1F
100
AcDbEntity
  8
0-1_ピット
  6
Continuous
 62
     2
370
    13
100
AcDbLine
 10
-115.9812117069787
 20
389.9858189323407
 30
0.0
 11
-1155.981592882134
 21
389.9858189323407
 31
0.0
  0
LINE
  5
F3
330
1F
100
AcDbEntity
  8
0-0_通り芯
  6
Continuous
 62
     3
370
    13
100
AcDbLine
 10
-167.4316815598529
 20
154.3656369391732
 30
0.0
 11
-341.601347157894
 21
328.5353025372143
 31
0.0
  0
LINE
  5
F4
330
1F
100
AcDbEntity
  8
0-1_ピット
  6
Continuous
 62
     2
370
    13
100
AcDbLine
 10
-1177.981397993816
 20
-612.0140881009826
 30
0.0
 11
-1177.981397993816
 21
379.9862678588767
 31
0.0
  0
LINE
  5
F5
330
1F
100
AcDbEntity
  8
0-1_ピット
  6
Continuous
 62
     2
370
    13
100
AcDbLine
 10
-1183.981029544138
 20
-618.014215120092
 30
0.0
 11
-1177.981397993816
 21
-612.0140881009826
 31
0.0
  0
LINE
  5
F6
330
1F
100
AcDbEntity
  8
0-1_ピット
  6
Continuous
 62
     2
370
    13
100
AcDbLine
 10
-87.98127957618689
 20
-660.0146087850663
 30
0.0
 11
-87.98127957618689
 21
-618.014215120092
 31
0.0
  0
LINE
  5
F7
330
1F
100
AcDbEntity
  8
0-1_ピット
  6
Continuous
 62
     2
370
    13
100
AcDbLine
 10
-87.98127957618689
 20
-618.014215120092
 30
0.0
 11
-93.98115886090224
 21
-612.0140881009826
 31
0.0
  0
LINE
  5
F8
330
1F
100
AcDbEntity
  8
0-1_ピット
  6
Continuous
 62
     2
370
    13
100
AcDbLine
 10
-93.98115886090224
 20
-612.0140881009826
 30
0.0
 11
-93.98115886090224
 21
379.9862678588767
 31
0.0
  0
LINE
  5
F9
330
1F
100
AcDbEntity
  8
0-1_ピット
  6
Continuous
 62
     2
370
    13
100
AcDbLine
 10
-189.5759158231515
 20
439.9855561748149
 30
0.0
 11
-115.9812117069787
 21
439.9855561748149
 31
0.0
  0
LINE
  5
FA
330
1F
100
AcDbEntity
  8
0-1_ピット
  6
Continuous
 62
     2
370
    13
100
AcDbLine
 10
-191.8159302123665
 20
437.9858441476375
 30
0.0
 11
-115.9812117069787
 21
437.9858441476375
 31
0.0
  0
LINE
  5
FB
330
1F
100
AcDbEntity
  8
0-1_ピット
  6
Continuous
 62
     2
370
    13
100
AcDbLine
 10
-240.0993635742296
 20
482.9813466342893
 30
0.0
 11
-203.8630060510222
 21
445.9901424130129
 31
0.0
  0
LINE
  5
FC
330
1F
100
AcDbEntity
  8
0-1_ピット
  6
Continuous
 62
     2
370
    13
100
AcDbLine
 10
-247.1548391111506
 20
471.4151232541013
 30
0.0
 11
-236.4973054876138
 21
416.5087586069836
 31
0.0
  0
LINE
  5
FD
330
1F
100
AcDbEntity
  8
0-1_ピット
  6
Continuous
 62
     2
370
    13
100
AcDbLine
 10
-233.5522390134945
 20
417.0805295879956
 30
0.0
 11
-244.2097726370313
 21
471.9868942351133
 31
0.0
  0
LINE
  5
FE
330
1F
100
AcDbEntity
  8
0-1_ピット
  6
Continuous
 62
     2
370
    13
100
AcDbLine
 10
-206.1032681746313
 20
443.9899349170474
 30
0.0
 11
-242.2425138154487
 21
480.8820453807829
 31
0.0
  0
LINE
  5
FF
330
1F
100
AcDbEntity
  8
0-1_ピット
  6
Continuous
 62
     2
370
    13
100
AcDbLine
 10
-351.8627534856607
 20
482.9813466342893
 30
0.0
 11
-388.0993587432623
 21
445.9901424130129
 31
0.0
  0
LINE
  5
100
330
1F
100
AcDbEntity
  8
0-1_ピット
  6
Continuous
 62
     2
370
    13
100
AcDbLine
 10
-344.8072779487397
 20
471.4151232541013
 30
0.0
 11
-355.4648115722766
 21
416.5087586069836
 31
0.0
  0
LINE
  5
101
330
1F
100
AcDbEntity
  8
0-1_ピット
  6
Continuous
 62
     2
370
    13
100
AcDbLine
 10
-358.409878046396
 20
417.0805295879956
 30
0.0
 11
-347.7523444228591
 21
471.9868942351133
 31
0.0
  0
LINE
  5
102
330
1F
100
AcDbEntity
  8
0-1_ピット
  6
Continuous
 62
     2
370
    13
100
AcDbLine
 10
-385.8588488852597
 20
443.9899349170474
 30
0.0
 11
-349.7198509788363
 21
480.8820453807829
 31
0.0
  0
LINE
  5
103
330
1F
100
AcDbEntity
  8
0-1_ピット
  6
Continuous
 62
     2
370
    13
100
AcDbLine
 10
-264.8249902214723
 20
485.9858693629332
 30
0.0
 11
-327.1373745728123
 21
485.9858693629332
 31
0.0
  0
LINE
  5
104
330
1F
100
AcDbEntity
  8
0-1_ピット
  6
Continuous
 62
     2
370
    13
100
AcDbLine
 10
-254.386453802101
 20
488.9859328724873
 30
0.0
 11
-337.5759109921835
 21
488.9859328724873
 31
0.0
  0
LINE
  5
105
330
1F
100
AcDbEntity
  8
0-1_ピット
  6
Continuous
 62
     2
370
    13
100
AcDbLine
 10
-231.6967084035387
 20
408.708593482142
 30
0.0
 11
-360.2659041251393
 21
408.708593482142
 31
0.0
  0
LINE
  5
106
330
1F
100
AcDbEntity
  8
0-1_ピット
  6
Continuous
 62
     2
370
    13
100
AcDbLine
 10
-985.9810493982376
 20
430.9858611149394
 30
0.0
 11
-965.9809563137331
 21
430.9858611149394
 31
0.0
  0
LINE
  5
107
330
1F
100
AcDbEntity
  8
0-1_ピット
  6
Continuous
 62
     2
370
    13
100
AcDbLine
 10
-985.9810493982376
 20
460.9860007416961
 30
0.0
 11
-965.9809563137331
 21
460.9860007416961
 31
0.0
  0
LINE
  5
108
330
1F
100
AcDbEntity
  8
0-1_ピット
  6
Continuous
 62
     2
370
    13
100
AcDbLine
 10
-985.9810493982376
 20
462.9862082376616
 30
0.0
 11
-965.9809563137331
 21
462.9862082376616
 31
0.0
  0
LINE
  5
109
330
1F
100
AcDbEntity
  8
0-1_ピット
  6
Continuous
 62
     2
370
    13
100
AcDbLine
 10
-985.9810493982376
 20
428.985653618974
 30
0.0
 11
-965.9809563137331
 21
428.985653618974
 31
0.0
  0
LINE
  5
10A
330
1F
100
AcDbEntity
  8
0-1_ピット
  6
JWW_CENTER1
 62
     2
370
    13
100
AcDbLine
 10
-975.9810028559854
 20
416.629157522396
 30
0.0
 11
-975.9810028559854
 21
474.3631625409461
 31
0.0
  0
LINE
  5
10B
330
1F
100
AcDbEntity
  8
0-1_ピット
  6
JWW_CENTER1
 62
     2
370
    13
100
AcDbLine
 10
-1014.991737855948
 20
445.9856831939243
 30
0.0
 11
-938.131151225616
 21
445.9856831939243
 31
0.0
  0
LINE
  5
10C
330
1F
100
AcDbEntity
  8
0-1_ピット
  6
Continuous
 62
     2
370
    13
100
AcDbLine
 10
-1031.862945546094
 20
482.9813466342893
 30
0.0
 11
-1068.099550803696
 21
445.9901424130129
 31
0.0
  0
LINE
  5
10D
330
1F
100
AcDbEntity
  8
0-1_ピット
  6
Continuous
 62
     2
370
    13
100
AcDbLine
 10
-1024.807470009173
 20
471.4151232541013
 30
0.0
 11
-1035.465003632711
 21
416.5087586069836
 31
0.0
  0
LINE
  5
10E
330
1F
100
AcDbEntity
  8
0-1_ピット
  6
Continuous
 62
     2
370
    13
100
AcDbLine
 10
-1038.41007010683
 20
417.0805295879956
 30
0.0
 11
-1027.752536483293
 21
471.9868942351133
 31
0.0
  0
LINE
  5
10F
330
1F
100
AcDbEntity
  8
0-1_ピット
  6
Continuous
 62
     2
370
    13
100
AcDbLine
 10
-1065.859040945693
 20
443.9899349170474
 30
0.0
 11
-1029.72004303927
 21
480.8820453807829
 31
0.0
  0
LINE
  5
110
330
1F
100
AcDbEntity
  8
0-1_ピット
  6
Continuous
 62
     2
370
    13
100
AcDbLine
 10
-920.099555634664
 20
482.9813466342893
 30
0.0
 11
-883.8629503770624
 21
445.9901424130129
 31
0.0
  0
LINE
  5
111
330
1F
100
AcDbEntity
  8
0-1_ピット
  6
Continuous
 62
     2
370
    13
100
AcDbLine
 10
-927.1550311715844
 20
471.4151232541013
 30
0.0
 11
-916.4974975480475
 21
416.5087586069836
 31
0.0
  0
LINE
  5
112
330
1F
100
AcDbEntity
  8
0-1_ピット
  6
Continuous
 62
     2
370
    13
100
AcDbLine
 10
-913.5524310739281
 20
417.0805295879956
 30
0.0
 11
-924.2099646974656
 21
471.9868942351133
 31
0.0
  0
LINE
  5
113
330
1F
100
AcDbEntity
  8
0-1_ピット
  6
Continuous
 62
     2
370
    13
100
AcDbLine
 10
-886.103460235065
 20
443.9899349170474
 30
0.0
 11
-922.2424581414883
 21
480.8820453807829
 31
0.0
  0
LINE
  5
114
330
1F
100
AcDbEntity
  8
0-1_ピット
  6
Continuous
 62
     2
370
    13
100
AcDbLine
 10
-1007.137566633246
 20
485.9858693629332
 30
0.0
 11
-944.8249345475124
 21
485.9858693629332
 31
0.0
  0
LINE
  5
115
330
1F
100
AcDbEntity
  8
0-1_ピット
  6
Continuous
 62
     2
370
    13
100
AcDbLine
 10
-1017.576103052618
 20
488.9859328724873
 30
0.0
 11
-934.3863981281406
 21
488.9859328724873
 31
0.0
  0
LINE
  5
116
330
1F
100
AcDbEntity
  8
0-1_ピット
  6
Continuous
 62
     2
370
    13
100
AcDbLine
 10
-1040.265600716785
 20
408.708593482142
 30
0.0
 11
-911.6964049951848
 21
408.708593482142
 31
0.0
  0
LINE
  5
117
330
1F
100
AcDbEntity
  8
0-1_ピット
  6
Continuous
 62
     2
370
    13
100
AcDbLine
 10
-115.9812117069787
 20
401.9860729705584
 30
0.0
 11
-1155.981592882134
 21
401.9860729705584
 31
0.0
  0
LINE
  5
118
330
1F
100
AcDbEntity
  8
0-1_ピット
  6
Continuous
 62
     2
370
    13
100
AcDbLine
 10
-402.3866967055266
 20
439.9855561748149
 30
0.0
 11
-869.5756124147975
 21
439.9855561748149
 31
0.0
  0
LINE
  5
119
330
1F
100
AcDbEntity
  8
0-1_ピット
  6
Continuous
 62
     2
370
    13
100
AcDbLine
 10
-368.2270966059854
 20
408.9860560032565
 30
0.0
 11
-903.7357079831269
 21
408.9860560032565
 31
0.0
  0
LINE
  5
11A
330
1F
100
AcDbEntity
  8
0-1_ピット
  6
Continuous
 62
     2
370
    13
100
AcDbLine
 10
-1183.981029544138
 20
-660.0146087850663
 30
0.0
 11
-1183.981029544138
 21
-618.014215120092
 31
0.0
  0
LINE
  5
11B
330
1F
100
AcDbEntity
  8
0-1_ピット
  6
Continuous
 62
     2
370
    13
100
AcDbLine
 10
-1206.981186138197
 20
209.9854766405866
 30
0.0
 11
-1206.981186138197
 21
189.985383556081
 31
0.0
  0
LINE
  5
11C
330
1F
100
AcDbEntity
  8
0-1_ピット
  6
Continuous
 62
     2
370
    13
100
AcDbLine
 10
-1236.981325764953
 20
209.9854766405866
 30
0.0
 11
-1236.981325764953
 21
189.985383556081
 31
0.0
  0
LINE
  5
11D
330
1F
100
AcDbEntity
  8
0-1_ピット
  6
Continuous
 62
     2
370
    13
100
AcDbLine
 10
-1238.98153326092
 20
209.9854766405866
 30
0.0
 11
-1238.98153326092
 21
189.985383556081
 31
0.0
  0
LINE
  5
11E
330
1F
100
AcDbEntity
  8
0-1_ピット
  6
Continuous
 62
     2
370
    13
100
AcDbLine
 10
-1204.980978642231
 20
209.9854766405866
 30
0.0
 11
-1204.980978642231
 21
189.985383556081
 31
0.0
  0
LINE
  5
11F
330
1F
100
AcDbEntity
  8
0-1_ピット
  6
JWW_CENTER1
 62
     2
370
    13
100
AcDbLine
 10
-1192.624482545653
 20
199.9854300983333
 30
0.0
 11
-1250.358487564204
 21
199.9854300983333
 31
0.0
  0
LINE
  5
120
330
1F
100
AcDbEntity
  8
0-1_ピット
  6
JWW_CENTER1
 62
     2
370
    13
100
AcDbLine
 10
-1221.981008217181
 20
238.9961650982963
 30
0.0
 11
-1221.981008217181
 21
162.135578467965
 31
0.0
  0
LINE
  5
121
330
1F
100
AcDbEntity
  8
0-1_ピット
  6
Continuous
 62
     2
370
    13
100
AcDbLine
 10
-1258.976671657547
 20
255.8673727884428
 30
0.0
 11
-1221.985467436271
 21
292.1039780460438
 31
0.0
  0
LINE
  5
122
330
1F
100
AcDbEntity
  8
0-1_ピット
  6
Continuous
 62
     2
370
    13
100
AcDbLine
 10
-1247.410448277359
 20
248.8118972515218
 30
0.0
 11
-1192.504083630241
 21
259.4694308750587
 31
0.0
  0
LINE
  5
123
330
1F
100
AcDbEntity
  8
0-1_ピット
  6
Continuous
 62
     2
370
    13
100
AcDbLine
 10
-1193.075854611252
 20
262.4144973491781
 30
0.0
 11
-1247.982219258371
 21
251.7569637256412
 31
0.0
  0
LINE
  5
124
330
1F
100
AcDbEntity
  8
0-1_ピット
  6
Continuous
 62
     2
370
    13
100
AcDbLine
 10
-1219.985259940305
 20
289.8634681880418
 30
0.0
 11
-1256.87737040404
 21
253.7244702816184
 31
0.0
  0
LINE
  5
125
330
1F
100
AcDbEntity
  8
0-1_ピット
  6
Continuous
 62
     2
370
    13
100
AcDbLine
 10
-1258.976671657547
 20
144.1039828770118
 30
0.0
 11
-1221.985467436271
 21
107.8673776194108
 31
0.0
  0
LINE
  5
126
330
1F
100
AcDbEntity
  8
0-1_ピット
  6
Continuous
 62
     2
370
    13
100
AcDbLine
 10
-1247.410448277359
 20
151.1594584139328
 30
0.0
 11
-1192.504083630241
 21
140.5019247903959
 31
0.0
  0
LINE
  5
127
330
1F
100
AcDbEntity
  8
0-1_ピット
  6
Continuous
 62
     2
370
    13
100
AcDbLine
 10
-1193.075854611252
 20
137.5568583162766
 30
0.0
 11
-1247.982219258371
 21
148.2143919398135
 31
0.0
  0
LINE
  5
128
330
1F
100
AcDbEntity
  8
0-1_ピット
  6
Continuous
 62
     2
370
    13
100
AcDbLine
 10
-1219.985259940305
 20
110.107887477414
 30
0.0
 11
-1256.87737040404
 21
146.2468853838374
 31
0.0
  0
LINE
  5
129
330
1F
100
AcDbEntity
  8
0-1_ピット
  6
Continuous
 62
     2
370
    13
100
AcDbLine
 10
-1261.981194386191
 20
231.1419938755949
 30
0.0
 11
-1261.981194386191
 21
168.8293617898609
 31
0.0
  0
LINE
  5
12A
330
1F
100
AcDbEntity
  8
0-1_ピット
  6
Continuous
 62
     2
370
    13
100
AcDbLine
 10
-1264.981257895745
 20
241.5805302949656
 30
0.0
 11
-1264.981257895745
 21
158.3908253704891
 31
0.0
  0
LINE
  5
12B
330
1F
100
AcDbEntity
  8
0-1_ピット
  6
Continuous
 62
     2
370
    13
100
AcDbLine
 10
-1184.703918505399
 20
264.2700279591344
 30
0.0
 11
-1184.703918505399
 21
135.7008322375333
 31
0.0
  0
LINE
  5
12C
330
1F
100
AcDbEntity
  8
0-1_ピット
  6
Continuous
 62
     2
370
    13
100
AcDbLine
 10
-1206.981186138197
 20
-490.0138175667774
 30
0.0
 11
-1206.981186138197
 21
-470.0137244822719
 31
0.0
  0
LINE
  5
12D
330
1F
100
AcDbEntity
  8
0-1_ピット
  6
Continuous
 62
     2
370
    13
100
AcDbLine
 10
-1236.981325764953
 20
-490.0138175667774
 30
0.0
 11
-1236.981325764953
 21
-470.0137244822719
 31
0.0
  0
LINE
  5
12E
330
1F
100
AcDbEntity
  8
0-1_ピット
  6
Continuous
 62
     2
370
    13
100
AcDbLine
 10
-1238.98153326092
 20
-490.0138175667774
 30
0.0
 11
-1238.98153326092
 21
-470.0137244822719
 31
0.0
  0
LINE
  5
12F
330
1F
100
AcDbEntity
  8
0-1_ピット
  6
Continuous
 62
     2
370
    13
100
AcDbLine
 10
-1204.980978642231
 20
-490.0138175667774
 30
0.0
 11
-1204.980978642231
 21
-470.0137244822719
 31
0.0
  0
LINE
  5
130
330
1F
100
AcDbEntity
  8
0-1_ピット
  6
JWW_CENTER1
 62
     2
370
    13
100
AcDbLine
 10
-1192.624482545653
 20
-480.0137710245241
 30
0.0
 11
-1250.358487564204
 21
-480.0137710245241
 31
0.0
  0
LINE
  5
131
330
1F
100
AcDbEntity
  8
0-1_ピット
  6
JWW_CENTER1
 62
     2
370
    13
100
AcDbLine
 10
-1221.981008217181
 20
-519.0250014932741
 30
0.0
 11
-1221.981008217181
 21
-442.1639193941559
 31
0.0
  0
LINE
  5
132
330
1F
100
AcDbEntity
  8
0-1_ピット
  6
Continuous
 62
     2
370
    13
100
AcDbLine
 10
-1258.976671657547
 20
-535.8957137146336
 30
0.0
 11
-1221.985467436271
 21
-572.1323189722347
 31
0.0
  0
LINE
  5
133
330
1F
100
AcDbEntity
  8
0-1_ピット
  6
Continuous
 62
     2
370
    13
100
AcDbLine
 10
-1247.410448277359
 20
-528.8402381777126
 30
0.0
 11
-1192.504083630241
 21
-539.4977718012495
 31
0.0
  0
LINE
  5
134
330
1F
100
AcDbEntity
  8
0-1_ピット
  6
Continuous
 62
     2
370
    13
100
AcDbLine
 10
-1193.075854611252
 20
-542.4428382753689
 30
0.0
 11
-1247.982219258371
 21
-531.785304651832
 31
0.0
  0
LINE
  5
135
330
1F
100
AcDbEntity
  8
0-1_ピット
  6
Continuous
 62
     2
370
    13
100
AcDbLine
 10
-1219.985259940305
 20
-569.8918091142326
 30
0.0
 11
-1256.87737040404
 21
-533.7528112078093
 31
0.0
  0
LINE
  5
136
330
1F
100
AcDbEntity
  8
0-1_ピット
  6
Continuous
 62
     2
370
    13
100
AcDbLine
 10
-1258.976671657547
 20
-424.1323238032027
 30
0.0
 11
-1221.985467436271
 21
-387.8957185456017
 31
0.0
  0
LINE
  5
137
330
1F
100
AcDbEntity
  8
0-1_ピット
  6
Continuous
 62
     2
370
    13
100
AcDbLine
 10
-1247.410448277359
 20
-431.1877993401237
 30
0.0
 11
-1192.504083630241
 21
-420.5302657165868
 31
0.0
  0
LINE
  5
138
330
1F
100
AcDbEntity
  8
0-1_ピット
  6
Continuous
 62
     2
370
    13
100
AcDbLine
 10
-1193.075854611252
 20
-417.5851992424674
 30
0.0
 11
-1247.982219258371
 21
-428.2427328660043
 31
0.0
  0
LINE
  5
139
330
1F
100
AcDbEntity
  8
0-1_ピット
  6
Continuous
 62
     2
370
    13
100
AcDbLine
 10
-1219.985259940305
 20
-390.1362284036037
 30
0.0
 11
-1256.87737040404
 21
-426.2752263100282
 31
0.0
  0
LINE
  5
13A
330
1F
100
AcDbEntity
  8
0-1_ピット
  6
Continuous
 62
     2
370
    13
100
AcDbLine
 10
-1261.981194386191
 20
-511.1703348017858
 30
0.0
 11
-1261.981194386191
 21
-448.8577027160517
 31
0.0
  0
LINE
  5
13B
330
1F
100
AcDbEntity
  8
0-1_ピット
  6
Continuous
 62
     2
370
    13
100
AcDbLine
 10
-1264.981257895745
 20
-521.6083757523694
 30
0.0
 11
-1264.981257895745
 21
-438.4191662966799
 31
0.0
  0
LINE
  5
13C
330
1F
100
AcDbEntity
  8
0-1_ピット
  6
Continuous
 62
     2
370
    13
100
AcDbLine
 10
-1184.703918505399
 20
-544.2983688853252
 30
0.0
 11
-1184.703918505399
 21
-415.7291731637241
 31
0.0
  0
LINE
  5
13D
330
1F
100
AcDbEntity
  8
0-1_ピット
  6
Continuous
 62
     2
370
    13
100
AcDbLine
 10
-1184.981381026514
 20
127.7401352254759
 30
0.0
 11
-1184.981381026514
 21
-407.7684761516667
 31
0.0
  0
LINE
  5
13E
330
1F
100
AcDbEntity
  8
0-1_ピット
  6
Continuous
 62
     2
370
    13
100
AcDbLine
 10
-64.98112298212774
 20
-490.0138175667774
 30
0.0
 11
-64.98112298212774
 21
-470.0137244822719
 31
0.0
  0
LINE
  5
13F
330
1F
100
AcDbEntity
  8
0-1_ピット
  6
Continuous
 62
     2
370
    13
100
AcDbLine
 10
-34.98098335537051
 20
-490.0138175667774
 30
0.0
 11
-34.98098335537051
 21
-470.0137244822719
 31
0.0
  0
LINE
  5
140
330
1F
100
AcDbEntity
  8
0-1_ピット
  6
Continuous
 62
     2
370
    13
100
AcDbLine
 10
-32.98102359379911
 20
-490.0138175667774
 30
0.0
 11
-32.98102359379911
 21
-470.0137244822719
 31
0.0
  0
LINE
  5
141
330
1F
100
AcDbEntity
  8
0-1_ピット
  6
Continuous
 62
     2
370
    13
100
AcDbLine
 10
-66.98133047809321
 20
-490.0138175667774
 30
0.0
 11
-66.98133047809321
 21
-470.0137244822719
 31
0.0
  0
LINE
  5
142
330
1F
100
AcDbEntity
  8
0-1_ピット
  6
JWW_CENTER1
 62
     2
370
    13
100
AcDbLine
 10
-79.3378265746712
 20
-480.0137710245241
 30
0.0
 11
-21.60357382172648
 21
-480.0137710245241
 31
0.0
  0
LINE
  5
143
330
1F
100
AcDbEntity
  8
0-1_ピット
  6
JWW_CENTER1
 62
     2
370
    13
100
AcDbLine
 10
-49.98105316874941
 20
-519.0250014932741
 30
0.0
 11
-49.98105316874941
 21
-442.1639193941559
 31
0.0
  0
LINE
  5
144
330
1F
100
AcDbEntity
  8
0-1_ピット
  6
Continuous
 62
     2
370
    13
100
AcDbLine
 10
-12.98563746277736
 20
-535.8957137146336
 30
0.0
 11
-49.97684168405371
 21
-572.1318235034477
 31
0.0
  0
LINE
  5
145
330
1F
100
AcDbEntity
  8
0-1_ピット
  6
Continuous
 62
     2
370
    13
100
AcDbLine
 10
-24.55161310857179
 20
-528.8402381777126
 30
0.0
 11
-79.45822549008355
 21
-539.4977718012495
 31
0.0
  0
LINE
  5
146
330
1F
100
AcDbEntity
  8
0-1_ピット
  6
Continuous
 62
     2
370
    13
100
AcDbLine
 10
-78.88645450907163
 20
-542.4428382753689
 30
0.0
 11
-23.97984212755986
 21
-531.785304651832
 31
0.0
  0
LINE
  5
147
330
1F
100
AcDbEntity
  8
0-1_ピット
  6
Continuous
 62
     2
370
    13
100
AcDbLine
 10
-51.97680144562511
 20
-569.8918091142326
 30
0.0
 11
-15.08493871628374
 21
-533.7528112078093
 31
0.0
  0
LINE
  5
148
330
1F
100
AcDbEntity
  8
0-1_ピット
  6
Continuous
 62
     2
370
    13
100
AcDbLine
 10
-12.98563746277736
 20
-424.1323238032027
 30
0.0
 11
-49.97684168405371
 21
-387.8957185456017
 31
0.0
  0
LINE
  5
149
330
1F
100
AcDbEntity
  8
0-1_ピット
  6
Continuous
 62
     2
370
    13
100
AcDbLine
 10
-24.55161310857179
 20
-431.1877993401237
 30
0.0
 11
-79.45822549008355
 21
-420.5302657165868
 31
0.0
  0
LINE
  5
14A
330
1F
100
AcDbEntity
  8
0-1_ピット
  6
Continuous
 62
     2
370
    13
100
AcDbLine
 10
-78.88645450907163
 20
-417.5851992424674
 30
0.0
 11
-23.97984212755986
 21
-428.2427328660043
 31
0.0
  0
LINE
  5
14B
330
1F
100
AcDbEntity
  8
0-1_ピット
  6
Continuous
 62
     2
370
    13
100
AcDbLine
 10
-51.97680144562511
 20
-390.1362284036037
 30
0.0
 11
-15.08493871628374
 21
-426.2752263100282
 31
0.0
  0
LINE
  5
14C
330
1F
100
AcDbEntity
  8
0-1_ピット
  6
Continuous
 62
     2
370
    13
100
AcDbLine
 10
-9.981362468527522
 20
-511.1703348017858
 30
0.0
 11
-9.981362468527522
 21
-448.8577027160517
 31
0.0
  0
LINE
  5
14D
330
1F
100
AcDbEntity
  8
0-1_ピット
  6
Continuous
 62
     2
370
    13
100
AcDbLine
 10
-6.981051224579318
 20
-521.6083757523694
 30
0.0
 11
-6.981051224579318
 21
-438.4191662966799
 31
0.0
  0
LINE
  5
14E
330
1F
100
AcDbEntity
  8
0-1_ピット
  6
Continuous
 62
     2
370
    13
100
AcDbLine
 10
-87.25839061492522
 20
-544.2983688853252
 30
0.0
 11
-87.25839061492522
 21
-415.7291731637241
 31
0.0
  0
LINE
  5
14F
330
1F
100
AcDbEntity
  8
0-1_ピット
  6
Continuous
 62
     2
370
    13
100
AcDbLine
 10
-64.98112298212774
 20
209.9854766405866
 30
0.0
 11
-64.98112298212774
 21
189.985383556081
 31
0.0
  0
LINE
  5
150
330
1F
100
AcDbEntity
  8
0-1_ピット
  6
Continuous
 62
     2
370
    13
100
AcDbLine
 10
-34.98098335537051
 20
209.9854766405866
 30
0.0
 11
-34.98098335537051
 21
189.985383556081
 31
0.0
  0
LINE
  5
151
330
1F
100
AcDbEntity
  8
0-1_ピット
  6
Continuous
 62
     2
370
    13
100
AcDbLine
 10
-32.98102359379911
 20
209.9854766405866
 30
0.0
 11
-32.98102359379911
 21
189.985383556081
 31
0.0
  0
LINE
  5
152
330
1F
100
AcDbEntity
  8
0-1_ピット
  6
Continuous
 62
     2
370
    13
100
AcDbLine
 10
-66.98133047809321
 20
209.9854766405866
 30
0.0
 11
-66.98133047809321
 21
189.985383556081
 31
0.0
  0
LINE
  5
153
330
1F
100
AcDbEntity
  8
0-1_ピット
  6
JWW_CENTER1
 62
     2
370
    13
100
AcDbLine
 10
-79.3378265746712
 20
199.9854300983333
 30
0.0
 11
-21.60357382172648
 21
199.9854300983333
 31
0.0
  0
LINE
  5
154
330
1F
100
AcDbEntity
  8
0-1_ピット
  6
JWW_CENTER1
 62
     2
370
    13
100
AcDbLine
 10
-49.98105316874941
 20
238.9961650982963
 30
0.0
 11
-49.98105316874941
 21
162.135578467965
 31
0.0
  0
LINE
  5
155
330
1F
100
AcDbEntity
  8
0-1_ピット
  6
Continuous
 62
     2
370
    13
100
AcDbLine
 10
-12.98563746277736
 20
255.8673727884428
 30
0.0
 11
-49.97684168405371
 21
292.1039780460438
 31
0.0
  0
LINE
  5
156
330
1F
100
AcDbEntity
  8
0-1_ピット
  6
Continuous
 62
     2
370
    13
100
AcDbLine
 10
-24.55161310857179
 20
248.8118972515218
 30
0.0
 11
-79.45822549008355
 21
259.4694308750587
 31
0.0
  0
LINE
  5
157
330
1F
100
AcDbEntity
  8
0-1_ピット
  6
Continuous
 62
     2
370
    13
100
AcDbLine
 10
-78.88645450907163
 20
262.4144973491781
 30
0.0
 11
-23.97984212755986
 21
251.7569637256412
 31
0.0
  0
LINE
  5
158
330
1F
100
AcDbEntity
  8
0-1_ピット
  6
Continuous
 62
     2
370
    13
100
AcDbLine
 10
-51.97680144562511
 20
289.8634681880418
 30
0.0
 11
-15.08493871628374
 21
253.7244702816184
 31
0.0
  0
LINE
  5
159
330
1F
100
AcDbEntity
  8
0-1_ピット
  6
Continuous
 62
     2
370
    13
100
AcDbLine
 10
-12.98563746277736
 20
144.1039828770118
 30
0.0
 11
-49.97684168405371
 21
107.8673776194108
 31
0.0
  0
LINE
  5
15A
330
1F
100
AcDbEntity
  8
0-1_ピット
  6
Continuous
 62
     2
370
    13
100
AcDbLine
 10
-24.55161310857179
 20
151.1594584139328
 30
0.0
 11
-79.45822549008355
 21
140.5019247903959
 31
0.0
  0
LINE
  5
15B
330
1F
100
AcDbEntity
  8
0-1_ピット
  6
Continuous
 62
     2
370
    13
100
AcDbLine
 10
-78.88645450907163
 20
137.5568583162766
 30
0.0
 11
-23.97984212755986
 21
148.2143919398135
 31
0.0
  0
LINE
  5
15C
330
1F
100
AcDbEntity
  8
0-1_ピット
  6
Continuous
 62
     2
370
    13
100
AcDbLine
 10
-51.97680144562511
 20
110.107887477414
 30
0.0
 11
-15.08493871628374
 21
146.2468853838374
 31
0.0
  0
LINE
  5
15D
330
1F
100
AcDbEntity
  8
0-1_ピット
  6
Continuous
 62
     2
370
    13
100
AcDbLine
 10
-9.981362468527522
 20
231.1419938755949
 30
0.0
 11
-9.981362468527522
 21
168.8293617898609
 31
0.0
  0
LINE
  5
15E
330
1F
100
AcDbEntity
  8
0-1_ピット
  6
Continuous
 62
     2
370
    13
100
AcDbLine
 10
-6.981051224579318
 20
241.5805302949656
 30
0.0
 11
-6.981051224579318
 21
158.3908253704891
 31
0.0
  0
LINE
  5
15F
330
1F
100
AcDbEntity
  8
0-1_ピット
  6
Continuous
 62
     2
370
    13
100
AcDbLine
 10
-87.25839061492522
 20
264.2700279591344
 30
0.0
 11
-87.25839061492522
 21
135.7008322375333
 31
0.0
  0
LINE
  5
160
330
1F
100
AcDbEntity
  8
0-1_ピット
  6
Continuous
 62
     2
370
    13
100
AcDbLine
 10
-86.98092809381009
 20
-407.7679806828786
 30
0.0
 11
-86.98092809381009
 21
127.7401352254759
 31
0.0
  0
LINE
  5
161
330
1F
100
AcDbEntity
  8
0-1_ピット
  6
Continuous
 62
     2
370
    13
100
AcDbLine
 10
-86.98092809381009
 20
272.2312204399799
 30
0.0
 11
-86.98092809381009
 21
379.9862678588767
 31
0.0
  0
LINE
  5
162
330
1F
100
AcDbEntity
  8
0-1_ピット
  6
Continuous
 62
     2
370
    13
100
AcDbLine
 10
-223.7355159226932
 20
408.9860560032565
 30
0.0
 11
-115.9812117069787
 21
408.9860560032565
 31
0.0
  0
LINE
  5
163
330
1F
100
AcDbEntity
  8
0-1_ピット
  6
Continuous
 62
     2
370
    13
100
AcDbLine
 10
-1048.226793197631
 20
408.9860560032565
 30
0.0
 11
-1155.981592882134
 21
408.9860560032565
 31
0.0
  0
LINE
  5
164
330
1F
100
AcDbEntity
  8
0-1_ピット
  6
Continuous
 62
     2
370
    13
100
AcDbLine
 10
-1184.981381026514
 20
272.2312204399799
 30
0.0
 11
-1184.981381026514
 21
379.9862678588767
 31
0.0
  0
LINE
  5
165
330
1F
100
AcDbEntity
  8
0-1_ピット
  6
Continuous
 62
     2
370
    13
100
AcDbLine
 10
-285.9812597220871
 20
-711.0142020411303
 30
0.0
 11
-305.9813528065916
 21
-711.0142020411303
 31
0.0
  0
LINE
  5
166
330
1F
100
AcDbEntity
  8
0-1_ピット
  6
Continuous
 62
     2
370
    13
100
AcDbLine
 10
-285.9812597220872
 20
-741.0143416678869
 30
0.0
 11
-305.9813528065916
 21
-741.0143416678869
 31
0.0
  0
LINE
  5
167
330
1F
100
AcDbEntity
  8
0-1_ピット
  6
Continuous
 62
     2
370
    13
100
AcDbLine
 10
-285.9812597220872
 20
-743.0145491638524
 30
0.0
 11
-305.9813528065916
 21
-743.0145491638524
 31
0.0
  0
LINE
  5
168
330
1F
100
AcDbEntity
  8
0-1_ピット
  6
Continuous
 62
     2
370
    13
100
AcDbLine
 10
-285.9812597220871
 20
-709.0139945451648
 30
0.0
 11
-305.9813528065916
 21
-709.0139945451648
 31
0.0
  0
LINE
  5
169
330
1F
100
AcDbEntity
  8
0-1_ピット
  6
JWW_CENTER1
 62
     2
370
    13
100
AcDbLine
 10
-295.9813062643394
 20
-696.6574984485868
 30
0.0
 11
-295.9813062643394
 21
-754.3915034671369
 31
0.0
  0
LINE
  5
16A
330
1F
100
AcDbEntity
  8
0-1_ピット
  6
JWW_CENTER1
 62
     2
370
    13
100
AcDbLine
 10
-256.9703235299829
 20
-726.0140241201151
 30
0.0
 11
-333.8311578947087
 21
-726.0140241201151
 31
0.0
  0
LINE
  5
16B
330
1F
100
AcDbEntity
  8
0-1_ピット
  6
Continuous
 62
     2
370
    13
100
AcDbLine
 10
-240.0993635742298
 20
-763.0096875604801
 30
0.0
 11
-203.8630060510223
 21
-726.0184833392037
 31
0.0
  0
LINE
  5
16C
330
1F
100
AcDbEntity
  8
0-1_ピット
  6
Continuous
 62
     2
370
    13
100
AcDbLine
 10
-206.1032681746314
 20
-724.0182758432383
 30
0.0
 11
-242.2425138154488
 21
-760.9103863069737
 31
0.0
  0
LINE
  5
16D
330
1F
100
AcDbEntity
  8
0-1_ピット
  6
Continuous
 62
     2
370
    13
100
AcDbLine
 10
-351.8627534856608
 20
-763.0096875604801
 30
0.0
 11
-388.0993587432624
 21
-726.0184833392037
 31
0.0
  0
LINE
  5
16E
330
1F
100
AcDbEntity
  8
0-1_ピット
  6
Continuous
 62
     2
370
    13
100
AcDbLine
 10
-385.8588488852598
 20
-724.0182758432383
 30
0.0
 11
-349.7198509788364
 21
-760.9103863069737
 31
0.0
  0
LINE
  5
16F
330
1F
100
AcDbEntity
  8
0-1_ピット
  6
Continuous
 62
     2
370
    13
100
AcDbLine
 10
-264.8249902214724
 20
-766.014210289124
 30
0.0
 11
-327.1373745728123
 21
-766.014210289124
 31
0.0
  0
LINE
  5
170
330
1F
100
AcDbEntity
  8
0-1_ピット
  6
Continuous
 62
     2
370
    13
100
AcDbLine
 10
-254.3864538021012
 20
-769.0142737986781
 30
0.0
 11
-337.5759109921835
 21
-769.0142737986781
 31
0.0
  0
LINE
  5
171
330
1F
100
AcDbEntity
  8
0-1_ピット
  6
Continuous
 62
     2
370
    13
100
AcDbLine
 10
-234.7175816021768
 20
-703.1124658148082
 30
0.0
 11
-244.2097726370314
 21
-752.0152351613041
 31
0.0
  0
LINE
  5
172
330
1F
100
AcDbEntity
  8
0-1_ピット
  6
Continuous
 62
     2
370
    13
100
AcDbLine
 10
-357.2445354577138
 20
-703.1124658148082
 30
0.0
 11
-347.7523444228592
 21
-752.0152351613041
 31
0.0
  0
LINE
  5
173
330
1F
100
AcDbEntity
  8
0-1_ピット
  6
Continuous
 62
     2
370
    13
100
AcDbLine
 10
-344.8072779487398
 20
-751.4434641802922
 30
0.0
 11
-354.2994689835944
 21
-702.5406948337974
 31
0.0
  0
LINE
  5
174
330
1F
100
AcDbEntity
  8
0-1_ピット
  6
Continuous
 62
     2
370
    13
100
AcDbLine
 10
-247.1548391111508
 20
-751.4434641802922
 30
0.0
 11
-237.6626480762961
 21
-702.5406948337974
 31
0.0
  0
LINE
  5
175
330
1F
100
AcDbEntity
  8
0-1_ピット
  6
Continuous
 62
     2
370
    13
100
AcDbLine
 10
-232.8618032578275
 20
-694.7405297089557
 30
0.0
 11
-359.1005615364571
 21
-694.7405297089557
 31
0.0
  0
LINE
  5
176
330
1F
100
AcDbEntity
  8
0-1_ピット
  6
Continuous
 62
     2
370
    13
100
AcDbLine
 10
-985.9810493982376
 20
-711.0142020411303
 30
0.0
 11
-965.9809563137331
 21
-711.0142020411303
 31
0.0
  0
LINE
  5
177
330
1F
100
AcDbEntity
  8
0-1_ピット
  6
Continuous
 62
     2
370
    13
100
AcDbLine
 10
-985.9810493982377
 20
-741.0143416678869
 30
0.0
 11
-965.9809563137333
 21
-741.0143416678869
 31
0.0
  0
LINE
  5
178
330
1F
100
AcDbEntity
  8
0-1_ピット
  6
Continuous
 62
     2
370
    13
100
AcDbLine
 10
-985.9810493982377
 20
-743.0145491638524
 30
0.0
 11
-965.9809563137333
 21
-743.0145491638524
 31
0.0
  0
LINE
  5
179
330
1F
100
AcDbEntity
  8
0-1_ピット
  6
Continuous
 62
     2
370
    13
100
AcDbLine
 10
-985.9810493982376
 20
-709.0139945451648
 30
0.0
 11
-965.9809563137331
 21
-709.0139945451648
 31
0.0
  0
LINE
  5
17A
330
1F
100
AcDbEntity
  8
0-1_ピット
  6
JWW_CENTER1
 62
     2
370
    13
100
AcDbLine
 10
-975.9810028559854
 20
-696.6574984485868
 30
0.0
 11
-975.9810028559855
 21
-754.3915034671369
 31
0.0
  0
LINE
  5
17B
330
1F
100
AcDbEntity
  8
0-1_ピット
  6
Continuous
 62
     2
370
    13
100
AcDbLine
 10
-1031.862945546095
 20
-763.0096875604801
 30
0.0
 11
-1068.099550803696
 21
-726.0184833392037
 31
0.0
  0
LINE
  5
17C
330
1F
100
AcDbEntity
  8
0-1_ピット
  6
Continuous
 62
     2
370
    13
100
AcDbLine
 10
-1065.859040945693
 20
-724.0182758432383
 30
0.0
 11
-1029.72004303927
 21
-760.9103863069737
 31
0.0
  0
LINE
  5
17D
330
1F
100
AcDbEntity
  8
0-1_ピット
  6
Continuous
 62
     2
370
    13
100
AcDbLine
 10
-920.0995556346641
 20
-763.0096875604801
 30
0.0
 11
-883.8629503770625
 21
-726.0184833392037
 31
0.0
  0
LINE
  5
17E
330
1F
100
AcDbEntity
  8
0-1_ピット
  6
Continuous
 62
     2
370
    13
100
AcDbLine
 10
-886.1034602350651
 20
-724.0182758432383
 30
0.0
 11
-922.2424581414884
 21
-760.9103863069737
 31
0.0
  0
LINE
  5
17F
330
1F
100
AcDbEntity
  8
0-1_ピット
  6
Continuous
 62
     2
370
    13
100
AcDbLine
 10
-1007.137566633246
 20
-766.014210289124
 30
0.0
 11
-944.8249345475125
 21
-766.014210289124
 31
0.0
  0
LINE
  5
180
330
1F
100
AcDbEntity
  8
0-1_ピット
  6
Continuous
 62
     2
370
    13
100
AcDbLine
 10
-1017.576103052618
 20
-769.0142737986781
 30
0.0
 11
-934.3863981281407
 21
-769.0142737986781
 31
0.0
  0
LINE
  5
181
330
1F
100
AcDbEntity
  8
0-1_ピット
  6
Continuous
 62
     2
370
    13
100
AcDbLine
 10
-1037.244727518147
 20
-703.1124658148082
 30
0.0
 11
-1027.752536483293
 21
-752.0152351613041
 31
0.0
  0
LINE
  5
182
330
1F
100
AcDbEntity
  8
0-1_ピット
  6
Continuous
 62
     2
370
    13
100
AcDbLine
 10
-914.7177736626111
 20
-703.1124658148082
 30
0.0
 11
-924.2099646974657
 21
-752.0152351613041
 31
0.0
  0
LINE
  5
183
330
1F
100
AcDbEntity
  8
0-1_ピット
  6
Continuous
 62
     2
370
    13
100
AcDbLine
 10
-927.1550311715845
 20
-751.4434641802922
 30
0.0
 11
-917.6628401367299
 21
-702.5406948337974
 31
0.0
  0
LINE
  5
184
330
1F
100
AcDbEntity
  8
0-1_ピット
  6
Continuous
 62
     2
370
    13
100
AcDbLine
 10
-1024.807470009173
 20
-751.4434641802922
 30
0.0
 11
-1034.299661044028
 21
-702.5406948337974
 31
0.0
  0
LINE
  5
185
330
1F
100
AcDbEntity
  8
0-1_ピット
  6
Continuous
 62
     2
370
    13
100
AcDbLine
 10
-1039.100258128103
 20
-694.7405297089557
 30
0.0
 11
-912.8617475838678
 21
-694.7405297089557
 31
0.0
  0
LINE
  5
186
330
1F
100
AcDbEntity
  8
0-1_ピット
  6
Continuous
 62
     2
370
    13
100
AcDbLine
 10
-1155.981592882134
 20
-670.0141598585316
 30
0.0
 11
-115.9809639725846
 21
-670.0141598585316
 31
0.0
  0
LINE
  5
187
330
1F
100
AcDbEntity
  8
0-1_ピット
  6
Continuous
 62
     2
370
    13
100
AcDbLine
 10
-1155.981592882134
 20
-688.0140454470705
 30
0.0
 11
-115.9809639725846
 21
-688.0140454470705
 31
0.0
  0
LINE
  5
188
330
1F
100
AcDbEntity
  8
0-1_ピット
  6
Continuous
 62
     2
370
    13
100
AcDbLine
 10
-367.0617540173031
 20
-695.0174967612821
 30
0.0
 11
-904.9005551030217
 21
-695.0174967612821
 31
0.0
  0
LINE
  5
189
330
1F
100
AcDbEntity
  8
0-0_通り芯
  6
Continuous
 62
     3
370
    13
100
AcDbLine
 10
-1146.980906884682
 20
-665.013888853012
 30
0.0
 11
-124.9811545012481
 21
-665.013888853012
 31
0.0
  0
LINE
  5
18A
330
1F
100
AcDbEntity
  8
0-1_ピット
  6
Continuous
 62
     2
370
    13
100
AcDbLine
 10
-1155.981097413346
 20
-718.0141850738272
 30
0.0
 11
-1080.146378907958
 21
-718.0141850738272
 31
0.0
  0
LINE
  5
18B
330
1F
100
AcDbEntity
  8
0-1_ピット
  6
Continuous
 62
     2
370
    13
100
AcDbLine
 10
-115.9812117069787
 20
-718.0141850738272
 30
0.0
 11
-191.8159302123666
 21
-718.0141850738272
 31
0.0
  0
LINE
  5
18C
330
1F
100
AcDbEntity
  8
0-1_ピット
  6
Continuous
 62
     2
370
    13
100
AcDbLine
 10
-400.1461868475246
 20
-718.0141850738272
 30
0.0
 11
-871.8161222728003
 21
-718.0141850738272
 31
0.0
  0
LINE
  5
18D
330
1F
100
AcDbEntity
  8
0-1_ピット
  6
Continuous
 62
     2
370
    13
100
AcDbLine
 10
-57.98113994942966
 20
-660.0141133162793
 30
0.0
 11
-57.98113994942966
 21
-584.1791470764969
 31
0.0
  0
LINE
  5
18E
330
1F
100
AcDbEntity
  8
0-1_ピット
  6
Continuous
 62
     2
370
    13
100
AcDbLine
 10
-57.98113994942966
 20
-375.8488904413394
 30
0.0
 11
-57.98113994942966
 21
95.82054951514863
 31
0.0
  0
LINE
  5
18F
330
1F
100
AcDbEntity
  8
0-1_ピット
  6
Continuous
 62
     2
370
    13
100
AcDbLine
 10
-57.98113994942966
 20
379.9857723900885
 30
0.0
 11
-57.98113994942966
 21
304.150806150306
 31
0.0
  0
LINE
  5
190
330
1F
100
AcDbEntity
  8
0-1_ピット
  6
Continuous
 62
     2
370
    13
100
AcDbLine
 10
-400.1461868475245
 20
437.9858441476375
 30
0.0
 11
-871.8161222728002
 21
437.9858441476375
 31
0.0
  0
LINE
  5
191
330
1F
100
AcDbEntity
  8
0-1_ピット
  6
Continuous
 62
     2
370
    13
100
AcDbLine
 10
-1155.981097413346
 20
437.9858441476375
 30
0.0
 11
-1080.146378907958
 21
437.9858441476375
 31
0.0
  0
LINE
  5
192
330
1F
100
AcDbEntity
  8
0-1_ピット
  6
Continuous
 62
     2
370
    13
100
AcDbLine
 10
-1213.981169170894
 20
379.9857723900885
 30
0.0
 11
-1213.981169170894
 21
304.150806150306
 31
0.0
  0
LINE
  5
193
330
1F
100
AcDbEntity
  8
0-1_ピット
  6
Continuous
 62
     2
370
    13
100
AcDbLine
 10
-1213.981169170894
 20
-375.8488904413394
 30
0.0
 11
-1213.981169170894
 21
95.82054951514863
 31
0.0
  0
LINE
  5
194
330
1F
100
AcDbEntity
  8
0-1_ピット
  6
Continuous
 62
     2
370
    13
100
AcDbLine
 10
-1213.981169170894
 20
-660.0141133162793
 30
0.0
 11
-1213.981169170894
 21
-584.1791470764969
 31
0.0
  0
LINE
  5
195
330
1F
100
AcDbEntity
  8
0-1_ピット
  6
JWW_CENTER1
 62
     2
370
    13
100
AcDbLine
 10
-1014.991737855948
 20
-726.0140241201151
 30
0.0
 11
-938.1311512256161
 21
-726.0140241201151
 31
0.0
  0
LINE
  5
196
330
1F
100
AcDbEntity
  8
0-1_ピット
  6
Continuous
 62
     2
370
    13
100
AcDbLine
 10
-108.9809809398865
 20
-695.0174967612821
 30
0.0
 11
-224.9008585113755
 21
-695.0174967612821
 31
0.0
  0
LINE
  5
197
330
1F
100
AcDbEntity
  8
0-1_ピット
  6
Continuous
 62
     2
370
    13
100
AcDbLine
 10
-86.98092809381009
 20
-673.0176916496004
 30
0.0
 11
-86.98092809381009
 21
-552.2595613661707
 31
0.0
  0
LINE
  5
198
330
1F
100
AcDbEntity
  8
0-1_ピット
  6
Continuous
 62
     2
370
    13
100
AcDbLine
 10
-1162.981575914832
 20
-695.0174967612821
 30
0.0
 11
-1047.061450608949
 21
-695.0174967612821
 31
0.0
  0
LINE
  5
199
330
1F
100
AcDbEntity
  8
0-1_ピット
  6
Continuous
 62
     2
370
    13
100
AcDbLine
 10
-1184.981381026514
 20
-673.0176916496004
 30
0.0
 11
-1184.981381026514
 21
-552.2595613661707
 31
0.0
  0
LINE
  5
19A
330
1F
100
AcDbEntity
  8
0-0_通り芯
  6
Continuous
 62
     3
370
    13
100
AcDbLine
 10
-1104.530627560471
 20
154.3651414703851
 30
0.0
 11
-930.3604664936431
 21
328.5353025372143
 31
0.0
  0
LINE
  5
19B
330
1F
100
AcDbEntity
  8
0-0_通り芯
  6
Continuous
 62
     3
370
    13
100
AcDbLine
 10
-163.917073714267
 20
-600.0782450051662
 30
0.0
 11
-163.917073714267
 21
145.8802384809354
 31
0.0
  0
LINE
  5
19C
330
1F
100
AcDbEntity
  8
0-0_通り芯
  6
Continuous
 62
     3
370
    13
100
AcDbLine
 10
-1096.045229102233
 20
-612.0780035745969
 30
0.0
 11
-175.9170800180907
 21
-612.0780035745969
 31
0.0
  0
LINE
  5
19D
330
1F
100
AcDbEntity
  8
0-0_通り芯
  6
Continuous
 62
     3
370
    13
100
AcDbLine
 10
-811.9810818599858
 20
199.9854300983333
 30
0.0
 11
-975.9807551215913
 21
199.9854300983333
 31
0.0
  0
LINE
  5
19E
330
1F
100
AcDbEntity
  8
0-0_通り芯
  6
Continuous
 62
     3
370
    13
100
AcDbLine
 10
-975.9807551215913
 20
35.98575683672777
 30
0.0
 11
-975.9807551215913
 21
199.9854300983333
 31
0.0
  0
LINE
  5
19F
330
1F
100
AcDbEntity
  8
0-0_通り芯
  6
Continuous
 62
     3
370
    13
100
AcDbLine
 10
-975.9807551215913
 20
-134.014043443986
 30
0.0
 11
-975.9807551215913
 21
23.98599826729821
 31
0.0
  0
LINE
  5
1A0
330
1F
100
AcDbEntity
  8
0-0_通り芯
  6
Continuous
 62
     3
370
    13
100
AcDbLine
 10
-975.9807551215913
 20
-480.0142664933122
 30
0.0
 11
-975.9807551215913
 21
-316.0140977629186
 31
0.0
  0
LINE
  5
1A1
330
1F
100
AcDbEntity
  8
0-0_通り芯
  6
Continuous
 62
     3
370
    13
100
AcDbLine
 10
-975.9807551215913
 20
-304.014339193489
 30
0.0
 11
-975.9807551215913
 21
-146.0142974822048
 31
0.0
  0
LINE
  5
1A2
330
1F
100
AcDbEntity
  8
0-0_通り芯
  6
Continuous
 62
     3
370
    13
100
AcDbLine
 10
-811.9810818599859
 20
-480.0142664933122
 30
0.0
 11
-975.9807551215913
 21
-480.0142664933122
 31
0.0
  0
LINE
  5
1A3
330
1F
100
AcDbEntity
  8
0-0_通り芯
  6
Continuous
 62
     3
370
    13
100
AcDbLine
 10
-641.9812815792716
 20
-480.0142664933122
 30
0.0
 11
-799.9813232905558
 21
-480.0142664933122
 31
0.0
  0
LINE
  5
1A4
330
1F
100
AcDbEntity
  8
0-0_通り芯
  6
Continuous
 62
     3
370
    13
100
AcDbLine
 10
-295.9813062643394
 20
-480.0142664933122
 30
0.0
 11
-459.9812272603389
 21
-480.0142664933122
 31
0.0
  0
LINE
  5
1A5
330
1F
100
AcDbEntity
  8
0-0_通り芯
  6
Continuous
 62
     3
370
    13
100
AcDbLine
 10
-471.9809858297691
 20
-480.0142664933122
 30
0.0
 11
-629.9810275410532
 21
-480.0142664933122
 31
0.0
  0
LINE
  5
1A6
330
1F
100
AcDbEntity
  8
0-0_通り芯
  6
Continuous
 62
     3
370
    13
100
AcDbLine
 10
-295.9813062643394
 20
-480.0142664933122
 30
0.0
 11
-295.9813062643394
 21
-316.0140977629186
 31
0.0
  0
LINE
  5
1A7
330
1F
100
AcDbEntity
  8
0-0_通り芯
  6
Continuous
 62
     3
370
    13
100
AcDbLine
 10
-295.9813062643394
 20
-304.014339193489
 30
0.0
 11
-295.9813062643394
 21
-146.0142974822048
 31
0.0
  0
LINE
  5
1A8
330
1F
100
AcDbEntity
  8
0-0_通り芯
  6
Continuous
 62
     3
370
    13
100
AcDbLine
 10
-295.9813062643394
 20
-134.014043443986
 30
0.0
 11
-295.9813062643394
 21
23.98599826729821
 31
0.0
  0
LINE
  5
1A9
330
1F
100
AcDbEntity
  8
0-0_通り芯
  6
Continuous
 62
     3
370
    13
100
AcDbLine
 10
-295.9813062643394
 20
35.98575683672777
 30
0.0
 11
-295.9813062643394
 21
199.9854300983333
 31
0.0
  0
LINE
  5
1AA
330
1F
100
AcDbEntity
  8
0-0_通り芯
  6
Continuous
 62
     3
370
    13
100
AcDbLine
 10
-295.9813062643394
 20
199.9854300983333
 30
0.0
 11
-459.9812272603389
 21
199.9854300983333
 31
0.0
  0
LINE
  5
1AB
330
1F
100
AcDbEntity
  8
0-0_通り芯
  6
Continuous
 62
     3
370
    13
100
AcDbLine
 10
-471.980985829769
 20
199.9854300983333
 30
0.0
 11
-629.9810275410532
 21
199.9854300983333
 31
0.0
  0
LINE
  5
1AC
330
1F
100
AcDbEntity
  8
0-0_通り芯
  6
Continuous
 62
     3
370
    13
100
AcDbLine
 10
-641.9812815792716
 20
199.9854300983333
 30
0.0
 11
-799.9813232905557
 21
199.9854300983333
 31
0.0
  0
ARC
  5
1AD
330
1F
100
AcDbEntity
  8
0-1_ピット
  6
Continuous
 62
     2
370
    13
100
AcDbCircle
 10
-1155.981097413346
 20
379.9857723900885
 30
0.0
 40
58.00000208225029
100
AcDbArc
 50
90.0
 51
180.0
  0
ARC
  5
1AE
330
1F
100
AcDbEntity
  8
0-1_ピット
  6
Continuous
 62
     2
370
    13
100
AcDbCircle
 10
-1155.981097413346
 20
379.9857723900885
 30
0.0
 40
60.00000055232103
100
AcDbArc
 50
90.0
 51
180.0
  0
ARC
  5
1AF
330
1F
100
AcDbEntity
  8
0-1_ピット
  6
Continuous
 62
     2
370
    13
100
AcDbCircle
 10
-1155.981592882134
 20
379.9862678588767
 30
0.0
 40
10.0000000920535
100
AcDbArc
 50
90.0
 51
180.0
  0
ARC
  5
1B0
330
1F
100
AcDbEntity
  8
0-1_ピット
  6
Continuous
 62
     2
370
    13
100
AcDbCircle
 10
-1155.981097413346
 20
-660.0141133162793
 30
0.0
 40
58.00000208225029
100
AcDbArc
 50
180.0
 51
270.0
  0
ARC
  5
1B1
330
1F
100
AcDbEntity
  8
0-1_ピット
  6
Continuous
 62
     2
370
    13
100
AcDbCircle
 10
-1155.981097413346
 20
-660.0141133162793
 30
0.0
 40
60.00000055232103
100
AcDbArc
 50
180.0
 51
270.0
  0
ARC
  5
1B2
330
1F
100
AcDbEntity
  8
0-1_ピット
  6
Continuous
 62
     2
370
    13
100
AcDbCircle
 10
-1155.981592882134
 20
-660.0146087850663
 30
0.0
 40
10.0000000920535
100
AcDbArc
 50
180.0
 51
270.0
  0
ARC
  5
1B3
330
1F
100
AcDbEntity
  8
0-1_ピット
  6
Continuous
 62
     2
370
    13
100
AcDbCircle
 10
-285.9812597220871
 20
445.9856831939243
 30
0.0
 40
15.00000013808026
100
AcDbArc
 50
270.0
 51
90.0
  0
ARC
  5
1B4
330
1F
100
AcDbEntity
  8
0-1_ピット
  6
Continuous
 62
     2
370
    13
100
AcDbCircle
 10
-285.9812597220871
 20
445.9856831939243
 30
0.0
 40
17.00000054357595
100
AcDbArc
 50
270.0
 51
90.0
  0
ARC
  5
1B5
330
1F
100
AcDbEntity
  8
0-1_ピット
  6
Continuous
 62
     2
370
    13
100
AcDbCircle
 10
-305.9813528065916
 20
445.9856831939243
 30
0.0
 40
15.00000013808026
100
AcDbArc
 50
90.0
 51
270.0
  0
ARC
  5
1B6
330
1F
100
AcDbEntity
  8
0-1_ピット
  6
Continuous
 62
     2
370
    13
100
AcDbCircle
 10
-305.9813528065916
 20
445.9856831939243
 30
0.0
 40
17.00000054357595
100
AcDbArc
 50
90.0
 51
270.0
  0
ARC
  5
1B7
330
1F
100
AcDbEntity
  8
0-1_ピット
  6
Continuous
 62
     2
370
    13
100
AcDbCircle
 10
-115.9812117069787
 20
379.9857723900885
 30
0.0
 40
58.00000208225029
100
AcDbArc
 50
0.0
 51
90.0
  0
ARC
  5
1B8
330
1F
100
AcDbEntity
  8
0-1_ピット
  6
Continuous
 62
     2
370
    13
100
AcDbCircle
 10
-115.9812117069787
 20
379.9857723900885
 30
0.0
 40
60.00000055232103
100
AcDbArc
 50
0.0
 51
90.0
  0
ARC
  5
1B9
330
1F
100
AcDbEntity
  8
0-1_ピット
  6
Continuous
 62
     2
370
    13
100
AcDbCircle
 10
-115.9812117069787
 20
-660.0141133162793
 30
0.0
 40
58.00000208225029
100
AcDbArc
 50
270.0
 51
0.0
  0
ARC
  5
1BA
330
1F
100
AcDbEntity
  8
0-1_ピット
  6
Continuous
 62
     2
370
    13
100
AcDbCircle
 10
-115.9812117069787
 20
-660.0141133162793
 30
0.0
 40
60.00000055232103
100
AcDbArc
 50
270.0
 51
0.0
  0
ARC
  5
1BB
330
1F
100
AcDbEntity
  8
0-1_ピット
  6
Continuous
 62
     2
370
    13
100
AcDbCircle
 10
-115.9809639725846
 20
-660.0146087850663
 30
0.0
 40
10.0000000920535
100
AcDbArc
 50
270.0
 51
0.0
  0
CIRCLE
  5
1BC
330
1F
100
AcDbEntity
  8
0-0_通り芯
  6
Continuous
 62
     3
370
    13
100
AcDbCircle
 10
-1060.98139846513
 20
284.9860734418729
 30
0.0
 40
42.00000270913466
  0
CIRCLE
  5
1BD
330
1F
100
AcDbEntity
  8
0-0_通り芯
  6
Continuous
 62
     3
370
    13
100
AcDbCircle
 10
-1060.98139846513
 20
284.9860734418729
 30
0.0
 40
44.00000117920541
  0
CIRCLE
  5
1BE
330
1F
100
AcDbEntity
  8
0-0_通り芯
  6
Continuous
 62
     3
370
    13
100
AcDbCircle
 10
-1060.98139846513
 20
284.9860734418729
 30
0.0
 40
39.00000113317865
  0
ARC
  5
1BF
330
1F
100
AcDbEntity
  8
0-0_通り芯
  6
Continuous
 62
     3
370
    13
100
AcDbCircle
 10
-1146.980906884682
 20
370.985581861425
 30
0.0
 40
13.99999993533241
100
AcDbArc
 50
90.0
 51
180.0
  0
ARC
  5
1C0
330
1F
100
AcDbEntity
  8
0-0_通り芯
  6
Continuous
 62
     3
370
    13
100
AcDbCircle
 10
-924.010538510414
 20
324.9857641420948
 30
0.0
 40
12.0000004975492
100
AcDbArc
 50
90.0
 51
134.9993286132812
  0
ARC
  5
1C1
330
1F
100
AcDbEntity
  8
0-0_通り芯
  6
Continuous
 62
     3
370
    13
100
AcDbCircle
 10
-1100.981089165352
 20
148.0152134871565
 30
0.0
 40
12.0000004975492
100
AcDbArc
 50
135.0006713867188
 51
180.0
  0
ARC
  5
1C2
330
1F
100
AcDbEntity
  8
0-0_通り芯
  6
Continuous
 62
     3
370
    13
100
AcDbCircle
 10
-821.981128402238
 20
45.98580337897999
 30
0.0
 40
8.000000170414053
100
AcDbArc
 50
270.0
 51
0.0
  0
ARC
  5
1C3
330
1F
100
AcDbEntity
  8
0-0_通り芯
  6
Continuous
 62
     3
370
    13
100
AcDbCircle
 10
-789.9812767483035
 20
45.98580337897999
 30
0.0
 40
8.000000170414053
100
AcDbArc
 50
180.0
 51
270.0
  0
ARC
  5
1C4
330
1F
100
AcDbEntity
  8
0-0_通り芯
  6
Continuous
 62
     3
370
    13
100
AcDbCircle
 10
-789.9812767483035
 20
13.98595172504599
 30
0.0
 40
8.000000170414053
100
AcDbArc
 50
90.0
 51
180.0
  0
ARC
  5
1C5
330
1F
100
AcDbEntity
  8
0-0_通り芯
  6
Continuous
 62
     3
370
    13
100
AcDbCircle
 10
-821.981128402238
 20
13.98595172504599
 30
0.0
 40
8.000000170414053
100
AcDbArc
 50
0.0
 51
90.0
  0
ARC
  5
1C6
330
1F
100
AcDbEntity
  8
0-0_通り芯
  6
Continuous
 62
     3
370
    13
100
AcDbCircle
 10
-789.9812767483035
 20
45.98580337897999
 30
0.0
 40
10.0000000920535
100
AcDbArc
 50
180.0
 51
270.0
  0
ARC
  5
1C7
330
1F
100
AcDbEntity
  8
0-0_通り芯
  6
Continuous
 62
     3
370
    13
100
AcDbCircle
 10
-789.9812767483035
 20
13.98595172504599
 30
0.0
 40
10.0000000920535
100
AcDbArc
 50
90.0
 51
180.0
  0
ARC
  5
1C8
330
1F
100
AcDbEntity
  8
0-0_通り芯
  6
Continuous
 62
     3
370
    13
100
AcDbCircle
 10
-821.981128402238
 20
13.98595172504599
 30
0.0
 40
10.0000000920535
100
AcDbArc
 50
0.0
 51
90.0
  0
ARC
  5
1C9
330
1F
100
AcDbEntity
  8
0-0_通り芯
  6
Continuous
 62
     3
370
    13
100
AcDbCircle
 10
-821.981128402238
 20
45.98580337897999
 30
0.0
 40
10.0000000920535
100
AcDbArc
 50
270.0
 51
0.0
  0
ARC
  5
1CA
330
1F
100
AcDbEntity
  8
0-0_通り芯
  6
Continuous
 62
     3
370
    13
100
AcDbCircle
 10
-651.9808326527356
 20
13.98595172504599
 30
0.0
 40
10.0000000920535
100
AcDbArc
 50
0.0
 51
90.0
  0
ARC
  5
1CB
330
1F
100
AcDbEntity
  8
0-0_通り芯
  6
Continuous
 62
     3
370
    13
100
AcDbCircle
 10
-651.9808326527356
 20
45.98580337897999
 30
0.0
 40
10.0000000920535
100
AcDbArc
 50
270.0
 51
0.0
  0
ARC
  5
1CC
330
1F
100
AcDbEntity
  8
0-0_通り芯
  6
Continuous
 62
     3
370
    13
100
AcDbCircle
 10
-651.9808326527356
 20
45.98580337897999
 30
0.0
 40
8.000000170414053
100
AcDbArc
 50
270.0
 51
0.0
  0
ARC
  5
1CD
330
1F
100
AcDbEntity
  8
0-0_通り芯
  6
Continuous
 62
     3
370
    13
100
AcDbCircle
 10
-651.9808326527356
 20
13.98595172504599
 30
0.0
 40
8.000000170414053
100
AcDbArc
 50
0.0
 51
90.0
  0
ARC
  5
1CE
330
1F
100
AcDbEntity
  8
0-0_通り芯
  6
Continuous
 62
     3
370
    13
100
AcDbCircle
 10
-651.9808326527356
 20
-124.0144923705219
 30
0.0
 40
8.000000170414053
100
AcDbArc
 50
270.0
 51
0.0
  0
ARC
  5
1CF
330
1F
100
AcDbEntity
  8
0-0_通り芯
  6
Continuous
 62
     3
370
    13
100
AcDbCircle
 10
-651.9808326527356
 20
-124.0144923705219
 30
0.0
 40
10.0000000920535
100
AcDbArc
 50
270.0
 51
0.0
  0
ARC
  5
1D0
330
1F
100
AcDbEntity
  8
0-0_通り芯
  6
Continuous
 62
     3
370
    13
100
AcDbCircle
 10
-789.9812767483035
 20
-124.0144923705219
 30
0.0
 40
10.0000000920535
100
AcDbArc
 50
180.0
 51
270.0
  0
ARC
  5
1D1
330
1F
100
AcDbEntity
  8
0-0_通り芯
  6
Continuous
 62
     3
370
    13
100
AcDbCircle
 10
-821.981128402238
 20
-124.0144923705219
 30
0.0
 40
10.0000000920535
100
AcDbArc
 50
270.0
 51
0.0
  0
ARC
  5
1D2
330
1F
100
AcDbEntity
  8
0-0_通り芯
  6
Continuous
 62
     3
370
    13
100
AcDbCircle
 10
-821.981128402238
 20
-124.0144923705219
 30
0.0
 40
8.000000170414053
100
AcDbArc
 50
270.0
 51
0.0
  0
ARC
  5
1D3
330
1F
100
AcDbEntity
  8
0-0_通り芯
  6
Continuous
 62
     3
370
    13
100
AcDbCircle
 10
-789.9812767483035
 20
-124.0144923705219
 30
0.0
 40
8.000000170414053
100
AcDbArc
 50
180.0
 51
270.0
  0
CIRCLE
  5
1D4
330
1F
100
AcDbEntity
  8
0-0_通り芯
  6
Continuous
 62
     3
370
    13
100
AcDbCircle
 10
-210.9811583895878
 20
284.9860734418729
 30
0.0
 40
42.00000270913466
  0
CIRCLE
  5
1D5
330
1F
100
AcDbEntity
  8
0-0_通り芯
  6
Continuous
 62
     3
370
    13
100
AcDbCircle
 10
-210.9811583895878
 20
284.9860734418729
 30
0.0
 40
44.00000117920541
  0
CIRCLE
  5
1D6
330
1F
100
AcDbEntity
  8
0-0_通り芯
  6
Continuous
 62
     3
370
    13
100
AcDbCircle
 10
-210.9811583895878
 20
284.9860734418729
 30
0.0
 40
39.00000113317865
  0
ARC
  5
1D7
330
1F
100
AcDbEntity
  8
0-0_通り芯
  6
Continuous
 62
     3
370
    13
100
AcDbCircle
 10
-124.9811545012481
 20
370.985581861425
 30
0.0
 40
13.99999993533241
100
AcDbArc
 50
0.0
 51
90.0
  0
ARC
  5
1D8
330
1F
100
AcDbEntity
  8
0-0_通り芯
  6
Continuous
 62
     3
370
    13
100
AcDbCircle
 10
-347.9517706099101
 20
324.9857641420948
 30
0.0
 40
12.0000004975492
100
AcDbArc
 50
45.00067138671874
 51
90.0
  0
ARC
  5
1D9
330
1F
100
AcDbEntity
  8
0-0_通り芯
  6
Continuous
 62
     3
370
    13
100
AcDbCircle
 10
-170.9812199549724
 20
148.0152134871565
 30
0.0
 40
12.0000004975492
100
AcDbArc
 50
0.0
 51
44.99932861328126
  0
ARC
  5
1DA
330
1F
100
AcDbEntity
  8
0-0_通り芯
  6
Continuous
 62
     3
370
    13
100
AcDbCircle
 10
-449.9811807180861
 20
45.98580337897999
 30
0.0
 40
8.000000170414053
100
AcDbArc
 50
180.0
 51
270.0
  0
ARC
  5
1DB
330
1F
100
AcDbEntity
  8
0-0_通り芯
  6
Continuous
 62
     3
370
    13
100
AcDbCircle
 10
-481.9810323720212
 20
45.98580337897999
 30
0.0
 40
8.000000170414053
100
AcDbArc
 50
270.0
 51
0.0
  0
ARC
  5
1DC
330
1F
100
AcDbEntity
  8
0-0_通り芯
  6
Continuous
 62
     3
370
    13
100
AcDbCircle
 10
-481.9810323720212
 20
13.98595172504599
 30
0.0
 40
8.000000170414053
100
AcDbArc
 50
0.0
 51
90.0
  0
ARC
  5
1DD
330
1F
100
AcDbEntity
  8
0-0_通り芯
  6
Continuous
 62
     3
370
    13
100
AcDbCircle
 10
-449.9811807180861
 20
13.98595172504599
 30
0.0
 40
8.000000170414053
100
AcDbArc
 50
90.0
 51
180.0
  0
ARC
  5
1DE
330
1F
100
AcDbEntity
  8
0-0_通り芯
  6
Continuous
 62
     3
370
    13
100
AcDbCircle
 10
-481.9810323720212
 20
45.98580337897999
 30
0.0
 40
10.0000000920535
100
AcDbArc
 50
270.0
 51
0.0
  0
ARC
  5
1DF
330
1F
100
AcDbEntity
  8
0-0_通り芯
  6
Continuous
 62
     3
370
    13
100
AcDbCircle
 10
-481.9810323720212
 20
13.98595172504599
 30
0.0
 40
10.0000000920535
100
AcDbArc
 50
0.0
 51
90.0
  0
ARC
  5
1E0
330
1F
100
AcDbEntity
  8
0-0_通り芯
  6
Continuous
 62
     3
370
    13
100
AcDbCircle
 10
-449.9811807180861
 20
13.98595172504599
 30
0.0
 40
10.0000000920535
100
AcDbArc
 50
90.0
 51
180.0
  0
ARC
  5
1E1
330
1F
100
AcDbEntity
  8
0-0_通り芯
  6
Continuous
 62
     3
370
    13
100
AcDbCircle
 10
-449.9811807180861
 20
45.98580337897999
 30
0.0
 40
10.0000000920535
100
AcDbArc
 50
180.0
 51
270.0
  0
ARC
  5
1E2
330
1F
100
AcDbEntity
  8
0-0_通り芯
  6
Continuous
 62
     3
370
    13
100
AcDbCircle
 10
-619.9814764675885
 20
13.98595172504599
 30
0.0
 40
10.0000000920535
100
AcDbArc
 50
90.0
 51
180.0
  0
ARC
  5
1E3
330
1F
100
AcDbEntity
  8
0-0_通り芯
  6
Continuous
 62
     3
370
    13
100
AcDbCircle
 10
-619.9814764675885
 20
45.98580337897999
 30
0.0
 40
10.0000000920535
100
AcDbArc
 50
180.0
 51
270.0
  0
ARC
  5
1E4
330
1F
100
AcDbEntity
  8
0-0_通り芯
  6
Continuous
 62
     3
370
    13
100
AcDbCircle
 10
-619.9814764675885
 20
45.98580337897999
 30
0.0
 40
8.000000170414053
100
AcDbArc
 50
180.0
 51
270.0
  0
ARC
  5
1E5
330
1F
100
AcDbEntity
  8
0-0_通り芯
  6
Continuous
 62
     3
370
    13
100
AcDbCircle
 10
-619.9814764675885
 20
13.98595172504599
 30
0.0
 40
8.000000170414053
100
AcDbArc
 50
90.0
 51
180.0
  0
ARC
  5
1E6
330
1F
100
AcDbEntity
  8
0-0_通り芯
  6
Continuous
 62
     3
370
    13
100
AcDbCircle
 10
-619.9814764675885
 20
-124.0144923705219
 30
0.0
 40
8.000000170414053
100
AcDbArc
 50
180.0
 51
270.0
  0
ARC
  5
1E7
330
1F
100
AcDbEntity
  8
0-0_通り芯
  6
Continuous
 62
     3
370
    13
100
AcDbCircle
 10
-619.9814764675885
 20
-124.0144923705219
 30
0.0
 40
10.0000000920535
100
AcDbArc
 50
180.0
 51
270.0
  0
ARC
  5
1E8
330
1F
100
AcDbEntity
  8
0-0_通り芯
  6
Continuous
 62
     3
370
    13
100
AcDbCircle
 10
-481.9810323720213
 20
-124.0144923705219
 30
0.0
 40
10.0000000920535
100
AcDbArc
 50
270.0
 51
0.0
  0
ARC
  5
1E9
330
1F
100
AcDbEntity
  8
0-0_通り芯
  6
Continuous
 62
     3
370
    13
100
AcDbCircle
 10
-449.9811807180861
 20
-124.0144923705219
 30
0.0
 40
10.0000000920535
100
AcDbArc
 50
180.0
 51
270.0
  0
ARC
  5
1EA
330
1F
100
AcDbEntity
  8
0-0_通り芯
  6
Continuous
 62
     3
370
    13
100
AcDbCircle
 10
-449.9811807180861
 20
-124.0144923705219
 30
0.0
 40
8.000000170414053
100
AcDbArc
 50
180.0
 51
270.0
  0
ARC
  5
1EB
330
1F
100
AcDbEntity
  8
0-0_通り芯
  6
Continuous
 62
     3
370
    13
100
AcDbCircle
 10
-481.9810323720213
 20
-124.0144923705219
 30
0.0
 40
8.000000170414053
100
AcDbArc
 50
270.0
 51
0.0
  0
ARC
  5
1EC
330
1F
100
AcDbEntity
  8
0-0_通り芯
  6
Continuous
 62
     3
370
    13
100
AcDbCircle
 10
-1146.980906884682
 20
-651.0139227876158
 30
0.0
 40
13.99999993533241
100
AcDbArc
 50
180.0
 51
270.0
  0
ARC
  5
1ED
330
1F
100
AcDbEntity
  8
0-0_通り芯
  6
Continuous
 62
     3
370
    13
100
AcDbCircle
 10
-821.981128402238
 20
-326.0141443051708
 30
0.0
 40
8.000000170414053
100
AcDbArc
 50
0.0
 51
90.0
  0
ARC
  5
1EE
330
1F
100
AcDbEntity
  8
0-0_通り芯
  6
Continuous
 62
     3
370
    13
100
AcDbCircle
 10
-789.9812767483036
 20
-326.0141443051708
 30
0.0
 40
8.000000170414053
100
AcDbArc
 50
90.0
 51
180.0
  0
ARC
  5
1EF
330
1F
100
AcDbEntity
  8
0-0_通り芯
  6
Continuous
 62
     3
370
    13
100
AcDbCircle
 10
-789.9812767483036
 20
-294.0142926512368
 30
0.0
 40
8.000000170414053
100
AcDbArc
 50
180.0
 51
270.0
  0
ARC
  5
1F0
330
1F
100
AcDbEntity
  8
0-0_通り芯
  6
Continuous
 62
     3
370
    13
100
AcDbCircle
 10
-821.981128402238
 20
-294.0142926512368
 30
0.0
 40
8.000000170414053
100
AcDbArc
 50
270.0
 51
0.0
  0
ARC
  5
1F1
330
1F
100
AcDbEntity
  8
0-0_通り芯
  6
Continuous
 62
     3
370
    13
100
AcDbCircle
 10
-789.9812767483036
 20
-326.0141443051708
 30
0.0
 40
10.0000000920535
100
AcDbArc
 50
90.0
 51
180.0
  0
ARC
  5
1F2
330
1F
100
AcDbEntity
  8
0-0_通り芯
  6
Continuous
 62
     3
370
    13
100
AcDbCircle
 10
-789.9812767483036
 20
-294.0142926512368
 30
0.0
 40
10.0000000920535
100
AcDbArc
 50
180.0
 51
270.0
  0
ARC
  5
1F3
330
1F
100
AcDbEntity
  8
0-0_通り芯
  6
Continuous
 62
     3
370
    13
100
AcDbCircle
 10
-821.981128402238
 20
-294.0142926512368
 30
0.0
 40
10.0000000920535
100
AcDbArc
 50
270.0
 51
0.0
  0
ARC
  5
1F4
330
1F
100
AcDbEntity
  8
0-0_通り芯
  6
Continuous
 62
     3
370
    13
100
AcDbCircle
 10
-821.981128402238
 20
-326.0141443051708
 30
0.0
 40
10.0000000920535
100
AcDbArc
 50
0.0
 51
90.0
  0
ARC
  5
1F5
330
1F
100
AcDbEntity
  8
0-0_通り芯
  6
Continuous
 62
     3
370
    13
100
AcDbCircle
 10
-651.9808326527357
 20
-294.0142926512368
 30
0.0
 40
10.0000000920535
100
AcDbArc
 50
270.0
 51
0.0
  0
ARC
  5
1F6
330
1F
100
AcDbEntity
  8
0-0_通り芯
  6
Continuous
 62
     3
370
    13
100
AcDbCircle
 10
-651.9808326527357
 20
-326.0141443051708
 30
0.0
 40
10.0000000920535
100
AcDbArc
 50
0.0
 51
90.0
  0
ARC
  5
1F7
330
1F
100
AcDbEntity
  8
0-0_通り芯
  6
Continuous
 62
     3
370
    13
100
AcDbCircle
 10
-651.9808326527357
 20
-326.0141443051708
 30
0.0
 40
8.000000170414053
100
AcDbArc
 50
0.0
 51
90.0
  0
ARC
  5
1F8
330
1F
100
AcDbEntity
  8
0-0_通り芯
  6
Continuous
 62
     3
370
    13
100
AcDbCircle
 10
-651.9808326527357
 20
-294.0142926512368
 30
0.0
 40
8.000000170414053
100
AcDbArc
 50
270.0
 51
0.0
  0
ARC
  5
1F9
330
1F
100
AcDbEntity
  8
0-0_通り芯
  6
Continuous
 62
     3
370
    13
100
AcDbCircle
 10
-651.9808326527357
 20
-156.0138485556689
 30
0.0
 40
8.000000170414053
100
AcDbArc
 50
0.0
 51
90.0
  0
ARC
  5
1FA
330
1F
100
AcDbEntity
  8
0-0_通り芯
  6
Continuous
 62
     3
370
    13
100
AcDbCircle
 10
-651.9808326527357
 20
-156.0138485556689
 30
0.0
 40
10.0000000920535
100
AcDbArc
 50
0.0
 51
90.0
  0
ARC
  5
1FB
330
1F
100
AcDbEntity
  8
0-0_通り芯
  6
Continuous
 62
     3
370
    13
100
AcDbCircle
 10
-789.9812767483035
 20
-156.0138485556689
 30
0.0
 40
10.0000000920535
100
AcDbArc
 50
90.0
 51
180.0
  0
ARC
  5
1FC
330
1F
100
AcDbEntity
  8
0-0_通り芯
  6
Continuous
 62
     3
370
    13
100
AcDbCircle
 10
-821.981128402238
 20
-156.0138485556689
 30
0.0
 40
10.0000000920535
100
AcDbArc
 50
0.0
 51
90.0
  0
ARC
  5
1FD
330
1F
100
AcDbEntity
  8
0-0_通り芯
  6
Continuous
 62
     3
370
    13
100
AcDbCircle
 10
-821.981128402238
 20
-156.0138485556689
 30
0.0
 40
8.000000170414053
100
AcDbArc
 50
0.0
 51
90.0
  0
ARC
  5
1FE
330
1F
100
AcDbEntity
  8
0-0_通り芯
  6
Continuous
 62
     3
370
    13
100
AcDbCircle
 10
-789.9812767483035
 20
-156.0138485556689
 30
0.0
 40
8.000000170414053
100
AcDbArc
 50
90.0
 51
180.0
  0
ARC
  5
1FF
330
1F
100
AcDbEntity
  8
0-0_通り芯
  6
Continuous
 62
     3
370
    13
100
AcDbCircle
 10
-124.9811545012481
 20
-651.0139227876158
 30
0.0
 40
13.99999993533241
100
AcDbArc
 50
270.0
 51
0.0
  0
ARC
  5
200
330
1F
100
AcDbEntity
  8
0-0_通り芯
  6
Continuous
 62
     3
370
    13
100
AcDbCircle
 10
-449.9811807180861
 20
-326.0141443051708
 30
0.0
 40
8.000000170414053
100
AcDbArc
 50
90.0
 51
180.0
  0
ARC
  5
201
330
1F
100
AcDbEntity
  8
0-0_通り芯
  6
Continuous
 62
     3
370
    13
100
AcDbCircle
 10
-481.9810323720213
 20
-326.0141443051708
 30
0.0
 40
8.000000170414053
100
AcDbArc
 50
0.0
 51
90.0
  0
ARC
  5
202
330
1F
100
AcDbEntity
  8
0-0_通り芯
  6
Continuous
 62
     3
370
    13
100
AcDbCircle
 10
-481.9810323720213
 20
-294.0142926512368
 30
0.0
 40
8.000000170414053
100
AcDbArc
 50
270.0
 51
0.0
  0
ARC
  5
203
330
1F
100
AcDbEntity
  8
0-0_通り芯
  6
Continuous
 62
     3
370
    13
100
AcDbCircle
 10
-449.9811807180861
 20
-294.0142926512368
 30
0.0
 40
8.000000170414053
100
AcDbArc
 50
180.0
 51
270.0
  0
ARC
  5
204
330
1F
100
AcDbEntity
  8
0-0_通り芯
  6
Continuous
 62
     3
370
    13
100
AcDbCircle
 10
-481.9810323720213
 20
-326.0141443051708
 30
0.0
 40
10.0000000920535
100
AcDbArc
 50
0.0
 51
90.0
  0
ARC
  5
205
330
1F
100
AcDbEntity
  8
0-0_通り芯
  6
Continuous
 62
     3
370
    13
100
AcDbCircle
 10
-481.9810323720213
 20
-294.0142926512368
 30
0.0
 40
10.0000000920535
100
AcDbArc
 50
270.0
 51
0.0
  0
ARC
  5
206
330
1F
100
AcDbEntity
  8
0-0_通り芯
  6
Continuous
 62
     3
370
    13
100
AcDbCircle
 10
-449.9811807180861
 20
-294.0142926512368
 30
0.0
 40
10.0000000920535
100
AcDbArc
 50
180.0
 51
270.0
  0
ARC
  5
207
330
1F
100
AcDbEntity
  8
0-0_通り芯
  6
Continuous
 62
     3
370
    13
100
AcDbCircle
 10
-449.9811807180861
 20
-326.0141443051708
 30
0.0
 40
10.0000000920535
100
AcDbArc
 50
90.0
 51
180.0
  0
ARC
  5
208
330
1F
100
AcDbEntity
  8
0-0_通り芯
  6
Continuous
 62
     3
370
    13
100
AcDbCircle
 10
-619.9814764675885
 20
-294.0142926512368
 30
0.0
 40
10.0000000920535
100
AcDbArc
 50
180.0
 51
270.0
  0
ARC
  5
209
330
1F
100
AcDbEntity
  8
0-0_通り芯
  6
Continuous
 62
     3
370
    13
100
AcDbCircle
 10
-619.9814764675885
 20
-326.0141443051708
 30
0.0
 40
10.0000000920535
100
AcDbArc
 50
90.0
 51
180.0
  0
ARC
  5
20A
330
1F
100
AcDbEntity
  8
0-0_通り芯
  6
Continuous
 62
     3
370
    13
100
AcDbCircle
 10
-619.9814764675885
 20
-326.0141443051708
 30
0.0
 40
8.000000170414053
100
AcDbArc
 50
90.0
 51
180.0
  0
ARC
  5
20B
330
1F
100
AcDbEntity
  8
0-0_通り芯
  6
Continuous
 62
     3
370
    13
100
AcDbCircle
 10
-619.9814764675885
 20
-294.0142926512368
 30
0.0
 40
8.000000170414053
100
AcDbArc
 50
180.0
 51
270.0
  0
ARC
  5
20C
330
1F
100
AcDbEntity
  8
0-0_通り芯
  6
Continuous
 62
     3
370
    13
100
AcDbCircle
 10
-619.9814764675885
 20
-156.0138485556689
 30
0.0
 40
8.000000170414053
100
AcDbArc
 50
90.0
 51
180.0
  0
ARC
  5
20D
330
1F
100
AcDbEntity
  8
0-0_通り芯
  6
Continuous
 62
     3
370
    13
100
AcDbCircle
 10
-619.9814764675885
 20
-156.0138485556689
 30
0.0
 40
10.0000000920535
100
AcDbArc
 50
90.0
 51
180.0
  0
ARC
  5
20E
330
1F
100
AcDbEntity
  8
0-0_通り芯
  6
Continuous
 62
     3
370
    13
100
AcDbCircle
 10
-481.9810323720213
 20
-156.0138485556689
 30
0.0
 40
10.0000000920535
100
AcDbArc
 50
0.0
 51
90.0
  0
ARC
  5
20F
330
1F
100
AcDbEntity
  8
0-0_通り芯
  6
Continuous
 62
     3
370
    13
100
AcDbCircle
 10
-449.9811807180861
 20
-156.0138485556689
 30
0.0
 40
10.0000000920535
100
AcDbArc
 50
90.0
 51
180.0
  0
ARC
  5
210
330
1F
100
AcDbEntity
  8
0-0_通り芯
  6
Continuous
 62
     3
370
    13
100
AcDbCircle
 10
-449.9811807180861
 20
-156.0138485556689
 30
0.0
 40
8.000000170414053
100
AcDbArc
 50
90.0
 51
180.0
  0
ARC
  5
211
330
1F
100
AcDbEntity
  8
0-0_通り芯
  6
Continuous
 62
     3
370
    13
100
AcDbCircle
 10
-481.9810323720213
 20
-156.0138485556689
 30
0.0
 40
8.000000170414053
100
AcDbArc
 50
0.0
 51
90.0
  0
ARC
  5
212
330
1F
100
AcDbEntity
  8
0-0_通り芯
  6
Continuous
 62
     3
370
    13
100
AcDbCircle
 10
-1100.981089165352
 20
-605.0141050682856
 30
0.0
 40
12.0000004975492
100
AcDbArc
 50
180.0
 51
270.0
  0
ARC
  5
213
330
1F
100
AcDbEntity
  8
0-0_通り芯
  6
Continuous
 62
     3
370
    13
100
AcDbCircle
 10
-170.9812199549724
 20
-605.0141050682856
 30
0.0
 40
12.0000004975492
100
AcDbArc
 50
270.0
 51
0.0
  0
ARC
  5
214
330
1F
100
AcDbEntity
  8
0-1_ピット
  6
Continuous
 62
     2
370
    13
100
AcDbCircle
 10
-115.9812117069787
 20
379.9862678588767
 30
0.0
 40
10.0000000920535
100
AcDbArc
 50
0.0
 51
90.0
  0
ARC
  5
215
330
1F
100
AcDbEntity
  8
0-1_ピット
  6
Continuous
 62
     2
370
    13
100
AcDbCircle
 10
-1155.981592882134
 20
-660.0146087850663
 30
0.0
 40
27.99996116216578
100
AcDbArc
 50
180.0
 51
270.0
  0
ARC
  5
216
330
1F
100
AcDbEntity
  8
0-1_ピット
  6
Continuous
 62
     2
370
    13
100
AcDbCircle
 10
-115.9809639725846
 20
-660.0146087850663
 30
0.0
 40
27.99996116216578
100
AcDbArc
 50
270.0
 51
0.0
  0
ARC
  5
217
330
1F
100
AcDbEntity
  8
0-0_通り芯
  6
Continuous
 62
     3
370
    13
100
AcDbCircle
 10
-350.0867456161318
 20
320.0499040789765
 30
0.0
 40
12.0000004975492
100
AcDbArc
 50
45.00033569335937
 51
90.0
  0
ARC
  5
218
330
1F
100
AcDbEntity
  8
0-0_通り芯
  6
Continuous
 62
     3
370
    13
100
AcDbCircle
 10
-175.9170800180907
 20
145.8802384809354
 30
0.0
 40
12.0000004975492
100
AcDbArc
 50
0.0
 51
44.99966430664062
  0
ARC
  5
219
330
1F
100
AcDbEntity
  8
0-1_ピット
  6
Continuous
 62
     2
370
    13
100
AcDbCircle
 10
-115.9812117069787
 20
379.9862678588767
 30
0.0
 40
22.0000005896027
100
AcDbArc
 50
0.0
 51
90.0
  0
ARC
  5
21A
330
1F
100
AcDbEntity
  8
0-1_ピット
  6
Continuous
 62
     2
370
    13
100
AcDbCircle
 10
-1155.981592882134
 20
379.9862678588767
 30
0.0
 40
22.0000005896027
100
AcDbArc
 50
90.0
 51
180.0
  0
ARC
  5
21B
330
1F
100
AcDbEntity
  8
0-1_ピット
  6
Continuous
 62
     2
370
    13
100
AcDbCircle
 10
-223.7355159226932
 20
418.9856070767217
 30
0.0
 40
10.0000000920535
100
AcDbArc
 50
190.9848480224609
 51
270.0
  0
ARC
  5
21C
330
1F
100
AcDbEntity
  8
0-1_ピット
  6
Continuous
 62
     2
370
    13
100
AcDbCircle
 10
-189.5759158231514
 20
459.9856492593193
 30
0.0
 40
20.00000018410701
100
AcDbArc
 50
224.4093322753906
 51
270.0
  0
ARC
  5
21D
330
1F
100
AcDbEntity
  8
0-1_ピット
  6
Continuous
 62
     2
370
    13
100
AcDbCircle
 10
-191.8159302123664
 20
457.985937232142
 30
0.0
 40
20.00000018410701
100
AcDbArc
 50
224.4097290039062
 51
270.0
  0
ARC
  5
21E
330
1F
100
AcDbEntity
  8
0-1_ピット
  6
Continuous
 62
     2
370
    13
100
AcDbCircle
 10
-254.386453802101
 20
468.9858397879829
 30
0.0
 40
20.00000018410701
100
AcDbArc
 50
44.40933227539063
 51
90.00000000000001
  0
ARC
  5
21F
330
1F
100
AcDbEntity
  8
0-1_ピット
  6
Continuous
 62
     2
370
    13
100
AcDbCircle
 10
-223.7355159226932
 20
418.9856070767217
 30
0.0
 40
12.99999973258457
100
AcDbArc
 50
190.9848480224609
 51
232.2377319335938
  0
ARC
  5
220
330
1F
100
AcDbEntity
  8
0-1_ピット
  6
Continuous
 62
     2
370
    13
100
AcDbCircle
 10
-264.8249902214723
 20
467.9854883056061
 30
0.0
 40
17.99999977861132
100
AcDbArc
 50
10.98431396484377
 51
90.00000000000003
  0
ARC
  5
221
330
1F
100
AcDbEntity
  8
0-1_ピット
  6
Continuous
 62
     2
370
    13
100
AcDbCircle
 10
-264.8249902214723
 20
467.9854883056061
 30
0.0
 40
21.00000328999229
100
AcDbArc
 50
10.98431396484377
 51
58.97436523437501
  0
ARC
  5
222
330
1F
100
AcDbEntity
  8
0-1_ピット
  6
Continuous
 62
     2
370
    13
100
AcDbCircle
 10
-254.386453802101
 20
468.9858397879829
 30
0.0
 40
16.999998608151
100
AcDbArc
 50
44.40933227539063
 51
88.70124816894531
  0
ARC
  5
223
330
1F
100
AcDbEntity
  8
0-1_ピット
  6
Continuous
 62
     2
370
    13
100
AcDbCircle
 10
-368.2270966059854
 20
418.9856070767217
 30
0.0
 40
10.0000000920535
100
AcDbArc
 50
270.0
 51
349.0151519775391
  0
ARC
  5
224
330
1F
100
AcDbEntity
  8
0-1_ピット
  6
Continuous
 62
     2
370
    13
100
AcDbCircle
 10
-402.3866967055266
 20
459.9856492593193
 30
0.0
 40
20.00000018410701
100
AcDbArc
 50
270.0
 51
315.5906677246094
  0
ARC
  5
225
330
1F
100
AcDbEntity
  8
0-1_ピット
  6
Continuous
 62
     2
370
    13
100
AcDbCircle
 10
-400.1461868475245
 20
457.985937232142
 30
0.0
 40
20.00000018410701
100
AcDbArc
 50
270.0
 51
315.5902709960938
  0
ARC
  5
226
330
1F
100
AcDbEntity
  8
0-1_ピット
  6
Continuous
 62
     2
370
    13
100
AcDbCircle
 10
-337.5759109921835
 20
468.9858397879829
 30
0.0
 40
20.00000018410701
100
AcDbArc
 50
90.0
 51
135.5906677246094
  0
ARC
  5
227
330
1F
100
AcDbEntity
  8
0-1_ピット
  6
Continuous
 62
     2
370
    13
100
AcDbCircle
 10
-368.2270966059854
 20
418.9856070767217
 30
0.0
 40
12.99999973258457
100
AcDbArc
 50
307.7622680664062
 51
349.0151519775391
  0
ARC
  5
228
330
1F
100
AcDbEntity
  8
0-1_ピット
  6
Continuous
 62
     2
370
    13
100
AcDbCircle
 10
-327.1373745728123
 20
467.9854883056061
 30
0.0
 40
17.99999977861132
100
AcDbArc
 50
90.0
 51
169.0156860351562
  0
ARC
  5
229
330
1F
100
AcDbEntity
  8
0-1_ピット
  6
Continuous
 62
     2
370
    13
100
AcDbCircle
 10
-327.1373745728123
 20
467.9854883056061
 30
0.0
 40
21.00000328999229
100
AcDbArc
 50
121.025634765625
 51
169.0156860351562
  0
ARC
  5
22A
330
1F
100
AcDbEntity
  8
0-1_ピット
  6
Continuous
 62
     2
370
    13
100
AcDbCircle
 10
-337.5759109921835
 20
468.9858397879829
 30
0.0
 40
16.999998608151
100
AcDbArc
 50
91.29875183105469
 51
135.5906677246094
  0
ARC
  5
22B
330
1F
100
AcDbEntity
  8
0-1_ピット
  6
Continuous
 62
     2
370
    13
100
AcDbCircle
 10
-985.9810493982376
 20
445.9856831939243
 30
0.0
 40
15.00000013808026
100
AcDbArc
 50
90.0
 51
270.0
  0
ARC
  5
22C
330
1F
100
AcDbEntity
  8
0-1_ピット
  6
Continuous
 62
     2
370
    13
100
AcDbCircle
 10
-985.9810493982376
 20
445.9856831939243
 30
0.0
 40
17.00000054357595
100
AcDbArc
 50
90.0
 51
270.0
  0
ARC
  5
22D
330
1F
100
AcDbEntity
  8
0-1_ピット
  6
Continuous
 62
     2
370
    13
100
AcDbCircle
 10
-965.9809563137331
 20
445.9856831939243
 30
0.0
 40
15.00000013808026
100
AcDbArc
 50
270.0
 51
90.0
  0
ARC
  5
22E
330
1F
100
AcDbEntity
  8
0-1_ピット
  6
Continuous
 62
     2
370
    13
100
AcDbCircle
 10
-965.9809563137331
 20
445.9856831939243
 30
0.0
 40
17.00000054357595
100
AcDbArc
 50
270.0
 51
90.0
  0
ARC
  5
22F
330
1F
100
AcDbEntity
  8
0-1_ピット
  6
Continuous
 62
     2
370
    13
100
AcDbCircle
 10
-1048.226793197631
 20
418.9856070767217
 30
0.0
 40
10.0000000920535
100
AcDbArc
 50
270.0
 51
349.0151519775391
  0
ARC
  5
230
330
1F
100
AcDbEntity
  8
0-1_ピット
  6
Continuous
 62
     2
370
    13
100
AcDbCircle
 10
-1082.386393297173
 20
459.9856492593193
 30
0.0
 40
20.00000018410701
100
AcDbArc
 50
270.0
 51
315.5906677246094
  0
ARC
  5
231
330
1F
100
AcDbEntity
  8
0-1_ピット
  6
Continuous
 62
     2
370
    13
100
AcDbCircle
 10
-1080.146378907958
 20
457.985937232142
 30
0.0
 40
20.00000018410701
100
AcDbArc
 50
270.0
 51
315.5902709960938
  0
ARC
  5
232
330
1F
100
AcDbEntity
  8
0-1_ピット
  6
Continuous
 62
     2
370
    13
100
AcDbCircle
 10
-1017.576103052618
 20
468.9858397879829
 30
0.0
 40
20.00000018410701
100
AcDbArc
 50
90.0
 51
135.5906677246094
  0
ARC
  5
233
330
1F
100
AcDbEntity
  8
0-1_ピット
  6
Continuous
 62
     2
370
    13
100
AcDbCircle
 10
-1048.226793197631
 20
418.9856070767217
 30
0.0
 40
12.99999973258457
100
AcDbArc
 50
307.7622680664062
 51
349.0151519775391
  0
ARC
  5
234
330
1F
100
AcDbEntity
  8
0-1_ピット
  6
Continuous
 62
     2
370
    13
100
AcDbCircle
 10
-1007.137566633246
 20
467.9854883056061
 30
0.0
 40
17.99999977861132
100
AcDbArc
 50
90.0
 51
169.0156860351562
  0
ARC
  5
235
330
1F
100
AcDbEntity
  8
0-1_ピット
  6
Continuous
 62
     2
370
    13
100
AcDbCircle
 10
-1007.137566633246
 20
467.9854883056061
 30
0.0
 40
21.00000328999229
100
AcDbArc
 50
121.025634765625
 51
169.0156860351562
  0
ARC
  5
236
330
1F
100
AcDbEntity
  8
0-1_ピット
  6
Continuous
 62
     2
370
    13
100
AcDbCircle
 10
-1017.576103052618
 20
468.9858397879829
 30
0.0
 40
16.999998608151
100
AcDbArc
 50
91.29875183105469
 51
135.5906677246094
  0
ARC
  5
237
330
1F
100
AcDbEntity
  8
0-1_ピット
  6
Continuous
 62
     2
370
    13
100
AcDbCircle
 10
-903.7357079831269
 20
418.9856070767217
 30
0.0
 40
10.0000000920535
100
AcDbArc
 50
190.9848480224609
 51
270.0
  0
ARC
  5
238
330
1F
100
AcDbEntity
  8
0-1_ピット
  6
Continuous
 62
     2
370
    13
100
AcDbCircle
 10
-869.5756124147975
 20
459.9856492593193
 30
0.0
 40
20.00000018410701
100
AcDbArc
 50
224.4093322753906
 51
270.0
  0
ARC
  5
239
330
1F
100
AcDbEntity
  8
0-1_ピット
  6
Continuous
 62
     2
370
    13
100
AcDbCircle
 10
-871.8161222728002
 20
457.985937232142
 30
0.0
 40
20.00000018410701
100
AcDbArc
 50
224.4097290039062
 51
270.0
  0
ARC
  5
23A
330
1F
100
AcDbEntity
  8
0-1_ピット
  6
Continuous
 62
     2
370
    13
100
AcDbCircle
 10
-934.3863981281406
 20
468.9858397879829
 30
0.0
 40
20.00000018410701
100
AcDbArc
 50
44.40933227539063
 51
90.00000000000001
  0
ARC
  5
23B
330
1F
100
AcDbEntity
  8
0-1_ピット
  6
Continuous
 62
     2
370
    13
100
AcDbCircle
 10
-903.7357079831269
 20
418.9856070767217
 30
0.0
 40
12.99999973258457
100
AcDbArc
 50
190.9848480224609
 51
232.2377319335938
  0
ARC
  5
23C
330
1F
100
AcDbEntity
  8
0-1_ピット
  6
Continuous
 62
     2
370
    13
100
AcDbCircle
 10
-944.8249345475124
 20
467.9854883056061
 30
0.0
 40
17.99999977861132
100
AcDbArc
 50
10.98431396484377
 51
90.00000000000003
  0
ARC
  5
23D
330
1F
100
AcDbEntity
  8
0-1_ピット
  6
Continuous
 62
     2
370
    13
100
AcDbCircle
 10
-944.8249345475124
 20
467.9854883056061
 30
0.0
 40
21.00000328999229
100
AcDbArc
 50
10.98431396484377
 51
58.97436523437501
  0
ARC
  5
23E
330
1F
100
AcDbEntity
  8
0-1_ピット
  6
Continuous
 62
     2
370
    13
100
AcDbCircle
 10
-934.3863981281406
 20
468.9858397879829
 30
0.0
 40
16.999998608151
100
AcDbArc
 50
44.40933227539063
 51
88.70124816894531
  0
ARC
  5
23F
330
1F
100
AcDbEntity
  8
0-1_ピット
  6
Continuous
 62
     2
370
    13
100
AcDbCircle
 10
-1221.981008217181
 20
209.9854766405866
 30
0.0
 40
15.00000013808026
100
AcDbArc
 50
0.0
 51
180.0
  0
ARC
  5
240
330
1F
100
AcDbEntity
  8
0-1_ピット
  6
Continuous
 62
     2
370
    13
100
AcDbCircle
 10
-1221.981008217181
 20
209.9854766405866
 30
0.0
 40
17.00000054357595
100
AcDbArc
 50
0.0
 51
180.0
  0
ARC
  5
241
330
1F
100
AcDbEntity
  8
0-1_ピット
  6
Continuous
 62
     2
370
    13
100
AcDbCircle
 10
-1221.981008217181
 20
189.985383556081
 30
0.0
 40
15.00000013808026
100
AcDbArc
 50
180.0
 51
0.0
  0
ARC
  5
242
330
1F
100
AcDbEntity
  8
0-1_ピット
  6
Continuous
 62
     2
370
    13
100
AcDbCircle
 10
-1221.981008217181
 20
189.985383556081
 30
0.0
 40
17.00000054357595
100
AcDbArc
 50
180.0
 51
0.0
  0
ARC
  5
243
330
1F
100
AcDbEntity
  8
0-1_ピット
  6
Continuous
 62
     2
370
    13
100
AcDbCircle
 10
-1194.980932099979
 20
272.2312204399799
 30
0.0
 40
10.0000000920535
100
AcDbArc
 50
280.9848480224609
 51
0.0
  0
ARC
  5
244
330
1F
100
AcDbEntity
  8
0-1_ピット
  6
Continuous
 62
     2
370
    13
100
AcDbCircle
 10
-1235.980974282577
 20
306.3908205395211
 30
0.0
 40
20.00000018410701
100
AcDbArc
 50
314.4093322753906
 51
0.0
  0
ARC
  5
245
330
1F
100
AcDbEntity
  8
0-1_ピット
  6
Continuous
 62
     2
370
    13
100
AcDbCircle
 10
-1233.981262255399
 20
304.150806150306
 30
0.0
 40
20.00000018410701
100
AcDbArc
 50
314.4097290039063
 51
0.0000000000000568
  0
ARC
  5
246
330
1F
100
AcDbEntity
  8
0-1_ピット
  6
Continuous
 62
     2
370
    13
100
AcDbCircle
 10
-1244.98116481124
 20
241.5805302949656
 30
0.0
 40
20.00000018410701
100
AcDbArc
 50
134.4093322753906
 51
180.0
  0
ARC
  5
247
330
1F
100
AcDbEntity
  8
0-1_ピット
  6
Continuous
 62
     2
370
    13
100
AcDbCircle
 10
-1194.980932099979
 20
272.2312204399799
 30
0.0
 40
12.99999973258457
100
AcDbArc
 50
280.9848480224609
 51
322.2377319335938
  0
ARC
  5
248
330
1F
100
AcDbEntity
  8
0-1_ピット
  6
Continuous
 62
     2
370
    13
100
AcDbCircle
 10
-1243.980813328864
 20
231.1419938755949
 30
0.0
 40
17.99999977861132
100
AcDbArc
 50
100.9843139648438
 51
180.0
  0
ARC
  5
249
330
1F
100
AcDbEntity
  8
0-1_ピット
  6
Continuous
 62
     2
370
    13
100
AcDbCircle
 10
-1243.980813328864
 20
231.1419938755949
 30
0.0
 40
21.00000328999229
100
AcDbArc
 50
100.9843139648438
 51
148.974365234375
  0
ARC
  5
24A
330
1F
100
AcDbEntity
  8
0-1_ピット
  6
Continuous
 62
     2
370
    13
100
AcDbCircle
 10
-1244.98116481124
 20
241.5805302949656
 30
0.0
 40
16.999998608151
100
AcDbArc
 50
134.4093322753906
 51
178.7012481689453
  0
ARC
  5
24B
330
1F
100
AcDbEntity
  8
0-1_ピット
  6
Continuous
 62
     2
370
    13
100
AcDbCircle
 10
-1194.980932099979
 20
127.7401352254759
 30
0.0
 40
10.0000000920535
100
AcDbArc
 50
0.0
 51
79.01515197753906
  0
ARC
  5
24C
330
1F
100
AcDbEntity
  8
0-1_ピット
  6
Continuous
 62
     2
370
    13
100
AcDbCircle
 10
-1235.980974282577
 20
93.58003965714659
 30
0.0
 40
20.00000018410701
100
AcDbArc
 50
0.0
 51
45.59066772460938
  0
ARC
  5
24D
330
1F
100
AcDbEntity
  8
0-1_ピット
  6
Continuous
 62
     2
370
    13
100
AcDbCircle
 10
-1233.981262255399
 20
95.82054951514863
 30
0.0
 40
20.00000018410701
100
AcDbArc
 50
0.0
 51
45.59027099609375
  0
ARC
  5
24E
330
1F
100
AcDbEntity
  8
0-1_ピット
  6
Continuous
 62
     2
370
    13
100
AcDbCircle
 10
-1244.98116481124
 20
158.3908253704891
 30
0.0
 40
20.00000018410701
100
AcDbArc
 50
180.0
 51
225.5906677246094
  0
ARC
  5
24F
330
1F
100
AcDbEntity
  8
0-1_ピット
  6
Continuous
 62
     2
370
    13
100
AcDbCircle
 10
-1194.980932099979
 20
127.7401352254759
 30
0.0
 40
12.99999973258457
100
AcDbArc
 50
37.76226806640624
 51
79.01515197753906
  0
ARC
  5
250
330
1F
100
AcDbEntity
  8
0-1_ピット
  6
Continuous
 62
     2
370
    13
100
AcDbCircle
 10
-1243.980813328864
 20
168.8293617898609
 30
0.0
 40
17.99999977861132
100
AcDbArc
 50
180.0
 51
259.0156860351562
  0
ARC
  5
251
330
1F
100
AcDbEntity
  8
0-1_ピット
  6
Continuous
 62
     2
370
    13
100
AcDbCircle
 10
-1243.980813328864
 20
168.8293617898609
 30
0.0
 40
21.00000328999229
100
AcDbArc
 50
211.025634765625
 51
259.0156860351562
  0
ARC
  5
252
330
1F
100
AcDbEntity
  8
0-1_ピット
  6
Continuous
 62
     2
370
    13
100
AcDbCircle
 10
-1244.98116481124
 20
158.3908253704891
 30
0.0
 40
16.999998608151
100
AcDbArc
 50
181.2987518310547
 51
225.5906677246094
  0
ARC
  5
253
330
1F
100
AcDbEntity
  8
0-1_ピット
  6
Continuous
 62
     2
370
    13
100
AcDbCircle
 10
-1221.981008217181
 20
-490.0138175667774
 30
0.0
 40
15.00000013808026
100
AcDbArc
 50
180.0
 51
0.0
  0
ARC
  5
254
330
1F
100
AcDbEntity
  8
0-1_ピット
  6
Continuous
 62
     2
370
    13
100
AcDbCircle
 10
-1221.981008217181
 20
-490.0138175667774
 30
0.0
 40
17.00000054357595
100
AcDbArc
 50
180.0
 51
0.0
  0
ARC
  5
255
330
1F
100
AcDbEntity
  8
0-1_ピット
  6
Continuous
 62
     2
370
    13
100
AcDbCircle
 10
-1221.981008217181
 20
-470.0137244822719
 30
0.0
 40
15.00000013808026
100
AcDbArc
 50
0.0
 51
180.0
  0
ARC
  5
256
330
1F
100
AcDbEntity
  8
0-1_ピット
  6
Continuous
 62
     2
370
    13
100
AcDbCircle
 10
-1221.981008217181
 20
-470.0137244822719
 30
0.0
 40
17.00000054357595
100
AcDbArc
 50
0.0
 51
180.0
  0
ARC
  5
257
330
1F
100
AcDbEntity
  8
0-1_ピット
  6
Continuous
 62
     2
370
    13
100
AcDbCircle
 10
-1194.980932099979
 20
-552.2595613661707
 30
0.0
 40
10.0000000920535
100
AcDbArc
 50
0.0
 51
79.01515197753906
  0
ARC
  5
258
330
1F
100
AcDbEntity
  8
0-1_ピット
  6
Continuous
 62
     2
370
    13
100
AcDbCircle
 10
-1235.980974282577
 20
-586.4191614657119
 30
0.0
 40
20.00000018410701
100
AcDbArc
 50
0.0
 51
45.59066772460938
  0
ARC
  5
259
330
1F
100
AcDbEntity
  8
0-1_ピット
  6
Continuous
 62
     2
370
    13
100
AcDbCircle
 10
-1233.981262255399
 20
-584.1791470764969
 30
0.0
 40
20.00000018410701
100
AcDbArc
 50
0.0
 51
45.59027099609375
  0
ARC
  5
25A
330
1F
100
AcDbEntity
  8
0-1_ピット
  6
Continuous
 62
     2
370
    13
100
AcDbCircle
 10
-1244.98116481124
 20
-521.6083757523694
 30
0.0
 40
20.00000018410701
100
AcDbArc
 50
180.0
 51
225.5906677246094
  0
ARC
  5
25B
330
1F
100
AcDbEntity
  8
0-1_ピット
  6
Continuous
 62
     2
370
    13
100
AcDbCircle
 10
-1194.980932099979
 20
-552.2595613661707
 30
0.0
 40
12.99999973258457
100
AcDbArc
 50
37.76226806640624
 51
79.01515197753906
  0
ARC
  5
25C
330
1F
100
AcDbEntity
  8
0-1_ピット
  6
Continuous
 62
     2
370
    13
100
AcDbCircle
 10
-1243.980813328864
 20
-511.1703348017858
 30
0.0
 40
17.99999977861132
100
AcDbArc
 50
180.0
 51
259.0156860351562
  0
ARC
  5
25D
330
1F
100
AcDbEntity
  8
0-1_ピット
  6
Continuous
 62
     2
370
    13
100
AcDbCircle
 10
-1243.980813328864
 20
-511.1703348017858
 30
0.0
 40
21.00000328999229
100
AcDbArc
 50
211.025634765625
 51
259.0156860351562
  0
ARC
  5
25E
330
1F
100
AcDbEntity
  8
0-1_ピット
  6
Continuous
 62
     2
370
    13
100
AcDbCircle
 10
-1244.98116481124
 20
-521.6083757523694
 30
0.0
 40
16.999998608151
100
AcDbArc
 50
181.2987518310547
 51
225.5906677246094
  0
ARC
  5
25F
330
1F
100
AcDbEntity
  8
0-1_ピット
  6
Continuous
 62
     2
370
    13
100
AcDbCircle
 10
-1194.980932099979
 20
-407.7684761516667
 30
0.0
 40
10.0000000920535
100
AcDbArc
 50
280.9848480224609
 51
0.0
  0
ARC
  5
260
330
1F
100
AcDbEntity
  8
0-1_ピット
  6
Continuous
 62
     2
370
    13
100
AcDbCircle
 10
-1235.980974282577
 20
-373.6083805833374
 30
0.0
 40
20.00000018410701
100
AcDbArc
 50
314.4093322753906
 51
0.0
  0
ARC
  5
261
330
1F
100
AcDbEntity
  8
0-1_ピット
  6
Continuous
 62
     2
370
    13
100
AcDbCircle
 10
-1233.981262255399
 20
-375.8488904413394
 30
0.0
 40
20.00000018410701
100
AcDbArc
 50
314.4097290039063
 51
0.0000000000000568
  0
ARC
  5
262
330
1F
100
AcDbEntity
  8
0-1_ピット
  6
Continuous
 62
     2
370
    13
100
AcDbCircle
 10
-1244.98116481124
 20
-438.4191662966799
 30
0.0
 40
20.00000018410701
100
AcDbArc
 50
134.4093322753906
 51
180.0
  0
ARC
  5
263
330
1F
100
AcDbEntity
  8
0-1_ピット
  6
Continuous
 62
     2
370
    13
100
AcDbCircle
 10
-1194.980932099979
 20
-407.7684761516667
 30
0.0
 40
12.99999973258457
100
AcDbArc
 50
280.9848480224609
 51
322.2377319335938
  0
ARC
  5
264
330
1F
100
AcDbEntity
  8
0-1_ピット
  6
Continuous
 62
     2
370
    13
100
AcDbCircle
 10
-1243.980813328864
 20
-448.8577027160517
 30
0.0
 40
17.99999977861132
100
AcDbArc
 50
100.9843139648438
 51
180.0
  0
ARC
  5
265
330
1F
100
AcDbEntity
  8
0-1_ピット
  6
Continuous
 62
     2
370
    13
100
AcDbCircle
 10
-1243.980813328864
 20
-448.8577027160517
 30
0.0
 40
21.00000328999229
100
AcDbArc
 50
100.9843139648438
 51
148.974365234375
  0
ARC
  5
266
330
1F
100
AcDbEntity
  8
0-1_ピット
  6
Continuous
 62
     2
370
    13
100
AcDbCircle
 10
-1244.98116481124
 20
-438.4191662966799
 30
0.0
 40
16.999998608151
100
AcDbArc
 50
134.4093322753906
 51
178.7012481689453
  0
ARC
  5
267
330
1F
100
AcDbEntity
  8
0-1_ピット
  6
Continuous
 62
     2
370
    13
100
AcDbCircle
 10
-49.98105316874941
 20
-490.0138175667774
 30
0.0
 40
15.00000013808026
100
AcDbArc
 50
180.0
 51
0.0
  0
ARC
  5
268
330
1F
100
AcDbEntity
  8
0-1_ピット
  6
Continuous
 62
     2
370
    13
100
AcDbCircle
 10
-49.98105316874941
 20
-490.0138175667774
 30
0.0
 40
17.00000054357595
100
AcDbArc
 50
180.0
 51
0.0
  0
ARC
  5
269
330
1F
100
AcDbEntity
  8
0-1_ピット
  6
Continuous
 62
     2
370
    13
100
AcDbCircle
 10
-49.98105316874941
 20
-470.0137244822719
 30
0.0
 40
15.00000013808026
100
AcDbArc
 50
0.0
 51
180.0
  0
ARC
  5
26A
330
1F
100
AcDbEntity
  8
0-1_ピット
  6
Continuous
 62
     2
370
    13
100
AcDbCircle
 10
-49.98105316874941
 20
-470.0137244822719
 30
0.0
 40
17.00000054357595
100
AcDbArc
 50
0.0
 51
180.0
  0
ARC
  5
26B
330
1F
100
AcDbEntity
  8
0-1_ピット
  6
Continuous
 62
     2
370
    13
100
AcDbCircle
 10
-76.98112928595194
 20
-552.2595613661707
 30
0.0
 40
10.0000000920535
100
AcDbArc
 50
100.9848480224609
 51
180.0
  0
ARC
  5
26C
330
1F
100
AcDbEntity
  8
0-1_ピット
  6
Continuous
 62
     2
370
    13
100
AcDbCircle
 10
-35.98108710335325
 20
-586.4191614657119
 30
0.0
 40
20.00000018410701
100
AcDbArc
 50
134.4093322753906
 51
180.0
  0
ARC
  5
26D
330
1F
100
AcDbEntity
  8
0-1_ピット
  6
Continuous
 62
     2
370
    13
100
AcDbCircle
 10
-37.98104686492522
 20
-584.1791470764969
 30
0.0
 40
20.00000018410701
100
AcDbArc
 50
134.4097290039062
 51
180.0
  0
ARC
  5
26E
330
1F
100
AcDbEntity
  8
0-1_ピット
  6
Continuous
 62
     2
370
    13
100
AcDbCircle
 10
-26.98114430908376
 20
-521.6083757523694
 30
0.0
 40
20.00000018410701
100
AcDbArc
 50
314.4093322753906
 51
0.0000000000000127
  0
ARC
  5
26F
330
1F
100
AcDbEntity
  8
0-1_ピット
  6
Continuous
 62
     2
370
    13
100
AcDbCircle
 10
-76.98112928595194
 20
-552.2595613661707
 30
0.0
 40
12.99999973258457
100
AcDbArc
 50
100.9848480224609
 51
142.2377319335938
  0
ARC
  5
270
330
1F
100
AcDbEntity
  8
0-1_ピット
  6
Continuous
 62
     2
370
    13
100
AcDbCircle
 10
-27.98124805706649
 20
-511.1703348017858
 30
0.0
 40
17.99999977861132
100
AcDbArc
 50
280.9843139648438
 51
0.0000000000000254
  0
ARC
  5
271
330
1F
100
AcDbEntity
  8
0-1_ピット
  6
Continuous
 62
     2
370
    13
100
AcDbCircle
 10
-27.98124805706649
 20
-511.1703348017858
 30
0.0
 40
21.00000328999229
100
AcDbArc
 50
280.9843139648438
 51
328.974365234375
  0
ARC
  5
272
330
1F
100
AcDbEntity
  8
0-1_ピット
  6
Continuous
 62
     2
370
    13
100
AcDbCircle
 10
-26.98114430908376
 20
-521.6083757523694
 30
0.0
 40
16.999998608151
100
AcDbArc
 50
314.4093322753906
 51
358.7012481689454
  0
ARC
  5
273
330
1F
100
AcDbEntity
  8
0-1_ピット
  6
Continuous
 62
     2
370
    13
100
AcDbCircle
 10
-76.98112928595194
 20
-407.7679806828786
 30
0.0
 40
10.0000000920535
100
AcDbArc
 50
180.0
 51
259.0151519775391
  0
ARC
  5
274
330
1F
100
AcDbEntity
  8
0-1_ピット
  6
Continuous
 62
     2
370
    13
100
AcDbCircle
 10
-35.98108710335325
 20
-373.6083805833374
 30
0.0
 40
20.00000018410701
100
AcDbArc
 50
180.0
 51
225.5906677246094
  0
ARC
  5
275
330
1F
100
AcDbEntity
  8
0-1_ピット
  6
Continuous
 62
     2
370
    13
100
AcDbCircle
 10
-37.98104686492522
 20
-375.8488904413394
 30
0.0
 40
20.00000018410701
100
AcDbArc
 50
180.0
 51
225.5902709960938
  0
ARC
  5
276
330
1F
100
AcDbEntity
  8
0-1_ピット
  6
Continuous
 62
     2
370
    13
100
AcDbCircle
 10
-26.98114430908376
 20
-438.4191662966799
 30
0.0
 40
20.00000018410701
100
AcDbArc
 50
0.0
 51
45.59066772460938
  0
ARC
  5
277
330
1F
100
AcDbEntity
  8
0-1_ピット
  6
Continuous
 62
     2
370
    13
100
AcDbCircle
 10
-76.98112928595194
 20
-407.7679806828786
 30
0.0
 40
12.99999973258457
100
AcDbArc
 50
217.7622680664062
 51
259.0151519775391
  0
ARC
  5
278
330
1F
100
AcDbEntity
  8
0-1_ピット
  6
Continuous
 62
     2
370
    13
100
AcDbCircle
 10
-27.98124805706649
 20
-448.8577027160517
 30
0.0
 40
17.99999977861132
100
AcDbArc
 50
0.0
 51
79.01568603515626
  0
ARC
  5
279
330
1F
100
AcDbEntity
  8
0-1_ピット
  6
Continuous
 62
     2
370
    13
100
AcDbCircle
 10
-27.98124805706649
 20
-448.8577027160517
 30
0.0
 40
21.00000328999229
100
AcDbArc
 50
31.025634765625
 51
79.01568603515625
  0
ARC
  5
27A
330
1F
100
AcDbEntity
  8
0-1_ピット
  6
Continuous
 62
     2
370
    13
100
AcDbCircle
 10
-26.98114430908376
 20
-438.4191662966799
 30
0.0
 40
16.999998608151
100
AcDbArc
 50
1.298751831054688
 51
45.59066772460938
  0
ARC
  5
27B
330
1F
100
AcDbEntity
  8
0-1_ピット
  6
Continuous
 62
     2
370
    13
100
AcDbCircle
 10
-49.98105316874941
 20
209.9854766405866
 30
0.0
 40
15.00000013808026
100
AcDbArc
 50
0.0
 51
180.0
  0
ARC
  5
27C
330
1F
100
AcDbEntity
  8
0-1_ピット
  6
Continuous
 62
     2
370
    13
100
AcDbCircle
 10
-49.98105316874941
 20
209.9854766405866
 30
0.0
 40
17.00000054357595
100
AcDbArc
 50
0.0
 51
180.0
  0
ARC
  5
27D
330
1F
100
AcDbEntity
  8
0-1_ピット
  6
Continuous
 62
     2
370
    13
100
AcDbCircle
 10
-49.98105316874941
 20
189.985383556081
 30
0.0
 40
15.00000013808026
100
AcDbArc
 50
180.0
 51
0.0
  0
ARC
  5
27E
330
1F
100
AcDbEntity
  8
0-1_ピット
  6
Continuous
 62
     2
370
    13
100
AcDbCircle
 10
-49.98105316874941
 20
189.985383556081
 30
0.0
 40
17.00000054357595
100
AcDbArc
 50
180.0
 51
0.0
  0
ARC
  5
27F
330
1F
100
AcDbEntity
  8
0-1_ピット
  6
Continuous
 62
     2
370
    13
100
AcDbCircle
 10
-76.98112928595194
 20
272.2312204399799
 30
0.0
 40
10.0000000920535
100
AcDbArc
 50
180.0
 51
259.0151519775391
  0
ARC
  5
280
330
1F
100
AcDbEntity
  8
0-1_ピット
  6
Continuous
 62
     2
370
    13
100
AcDbCircle
 10
-35.98108710335325
 20
306.3908205395211
 30
0.0
 40
20.00000018410701
100
AcDbArc
 50
180.0
 51
225.5906677246094
  0
ARC
  5
281
330
1F
100
AcDbEntity
  8
0-1_ピット
  6
Continuous
 62
     2
370
    13
100
AcDbCircle
 10
-37.98104686492522
 20
304.150806150306
 30
0.0
 40
20.00000018410701
100
AcDbArc
 50
180.0
 51
225.5902709960938
  0
ARC
  5
282
330
1F
100
AcDbEntity
  8
0-1_ピット
  6
Continuous
 62
     2
370
    13
100
AcDbCircle
 10
-26.98114430908376
 20
241.5805302949656
 30
0.0
 40
20.00000018410701
100
AcDbArc
 50
0.0
 51
45.59066772460938
  0
ARC
  5
283
330
1F
100
AcDbEntity
  8
0-1_ピット
  6
Continuous
 62
     2
370
    13
100
AcDbCircle
 10
-76.98112928595194
 20
272.2312204399799
 30
0.0
 40
12.99999973258457
100
AcDbArc
 50
217.7622680664062
 51
259.0151519775391
  0
ARC
  5
284
330
1F
100
AcDbEntity
  8
0-1_ピット
  6
Continuous
 62
     2
370
    13
100
AcDbCircle
 10
-27.98124805706649
 20
231.1419938755949
 30
0.0
 40
17.99999977861132
100
AcDbArc
 50
0.0
 51
79.01568603515626
  0
ARC
  5
285
330
1F
100
AcDbEntity
  8
0-1_ピット
  6
Continuous
 62
     2
370
    13
100
AcDbCircle
 10
-27.98124805706649
 20
231.1419938755949
 30
0.0
 40
21.00000328999229
100
AcDbArc
 50
31.025634765625
 51
79.01568603515625
  0
ARC
  5
286
330
1F
100
AcDbEntity
  8
0-1_ピット
  6
Continuous
 62
     2
370
    13
100
AcDbCircle
 10
-26.98114430908376
 20
241.5805302949656
 30
0.0
 40
16.999998608151
100
AcDbArc
 50
1.298751831054688
 51
45.59066772460938
  0
ARC
  5
287
330
1F
100
AcDbEntity
  8
0-1_ピット
  6
Continuous
 62
     2
370
    13
100
AcDbCircle
 10
-76.98112928595194
 20
127.7401352254759
 30
0.0
 40
10.0000000920535
100
AcDbArc
 50
100.9848480224609
 51
180.0
  0
ARC
  5
288
330
1F
100
AcDbEntity
  8
0-1_ピット
  6
Continuous
 62
     2
370
    13
100
AcDbCircle
 10
-35.98108710335325
 20
93.58003965714659
 30
0.0
 40
20.00000018410701
100
AcDbArc
 50
134.4093322753906
 51
180.0
  0
ARC
  5
289
330
1F
100
AcDbEntity
  8
0-1_ピット
  6
Continuous
 62
     2
370
    13
100
AcDbCircle
 10
-37.98104686492522
 20
95.82054951514863
 30
0.0
 40
20.00000018410701
100
AcDbArc
 50
134.4097290039062
 51
180.0
  0
ARC
  5
28A
330
1F
100
AcDbEntity
  8
0-1_ピット
  6
Continuous
 62
     2
370
    13
100
AcDbCircle
 10
-26.98114430908376
 20
158.3908253704891
 30
0.0
 40
20.00000018410701
100
AcDbArc
 50
314.4093322753906
 51
0.0000000000000127
  0
ARC
  5
28B
330
1F
100
AcDbEntity
  8
0-1_ピット
  6
Continuous
 62
     2
370
    13
100
AcDbCircle
 10
-76.98112928595194
 20
127.7401352254759
 30
0.0
 40
12.99999973258457
100
AcDbArc
 50
100.9848480224609
 51
142.2377319335938
  0
ARC
  5
28C
330
1F
100
AcDbEntity
  8
0-1_ピット
  6
Continuous
 62
     2
370
    13
100
AcDbCircle
 10
-27.98124805706649
 20
168.8293617898609
 30
0.0
 40
17.99999977861132
100
AcDbArc
 50
280.9843139648438
 51
0.0000000000000254
  0
ARC
  5
28D
330
1F
100
AcDbEntity
  8
0-1_ピット
  6
Continuous
 62
     2
370
    13
100
AcDbCircle
 10
-27.98124805706649
 20
168.8293617898609
 30
0.0
 40
21.00000328999229
100
AcDbArc
 50
280.9843139648438
 51
328.974365234375
  0
ARC
  5
28E
330
1F
100
AcDbEntity
  8
0-1_ピット
  6
Continuous
 62
     2
370
    13
100
AcDbCircle
 10
-26.98114430908376
 20
158.3908253704891
 30
0.0
 40
16.999998608151
100
AcDbArc
 50
314.4093322753906
 51
358.7012481689454
  0
ARC
  5
28F
330
1F
100
AcDbEntity
  8
0-1_ピット
  6
Continuous
 62
     2
370
    13
100
AcDbCircle
 10
-115.9812117069787
 20
379.9862678588767
 30
0.0
 40
29.00000104112515
100
AcDbArc
 50
0.0
 51
90.0
  0
ARC
  5
290
330
1F
100
AcDbEntity
  8
0-1_ピット
  6
Continuous
 62
     2
370
    13
100
AcDbCircle
 10
-1155.981592882134
 20
379.9862678588767
 30
0.0
 40
29.00000104112515
100
AcDbArc
 50
90.0
 51
180.0
  0
ARC
  5
291
330
1F
100
AcDbEntity
  8
0-1_ピット
  6
Continuous
 62
     2
370
    13
100
AcDbCircle
 10
-285.9812597220872
 20
-726.0140241201151
 30
0.0
 40
15.00000013808026
100
AcDbArc
 50
270.0
 51
90.0
  0
ARC
  5
292
330
1F
100
AcDbEntity
  8
0-1_ピット
  6
Continuous
 62
     2
370
    13
100
AcDbCircle
 10
-285.9812597220872
 20
-726.0140241201151
 30
0.0
 40
17.00000054357595
100
AcDbArc
 50
270.0
 51
90.0
  0
ARC
  5
293
330
1F
100
AcDbEntity
  8
0-1_ピット
  6
Continuous
 62
     2
370
    13
100
AcDbCircle
 10
-305.9813528065916
 20
-726.0140241201151
 30
0.0
 40
15.00000013808026
100
AcDbArc
 50
90.0
 51
270.0
  0
ARC
  5
294
330
1F
100
AcDbEntity
  8
0-1_ピット
  6
Continuous
 62
     2
370
    13
100
AcDbCircle
 10
-305.9813528065916
 20
-726.0140241201151
 30
0.0
 40
17.00000054357595
100
AcDbArc
 50
90.0
 51
270.0
  0
ARC
  5
295
330
1F
100
AcDbEntity
  8
0-1_ピット
  6
Continuous
 62
     2
370
    13
100
AcDbCircle
 10
-189.5759158231515
 20
-740.0139901855101
 30
0.0
 40
20.00000018410701
100
AcDbArc
 50
90.0
 51
135.5906677246094
  0
ARC
  5
296
330
1F
100
AcDbEntity
  8
0-1_ピット
  6
Continuous
 62
     2
370
    13
100
AcDbCircle
 10
-191.8159302123666
 20
-738.0142781583328
 30
0.0
 40
20.00000018410701
100
AcDbArc
 50
90.0
 51
135.5902709960938
  0
ARC
  5
297
330
1F
100
AcDbEntity
  8
0-1_ピット
  6
Continuous
 62
     2
370
    13
100
AcDbCircle
 10
-254.3864538021012
 20
-749.0141807141737
 30
0.0
 40
20.00000018410701
100
AcDbArc
 50
270.0
 51
315.5906677246094
  0
ARC
  5
298
330
1F
100
AcDbEntity
  8
0-1_ピット
  6
Continuous
 62
     2
370
    13
100
AcDbCircle
 10
-264.8249902214724
 20
-748.0138292317969
 30
0.0
 40
17.99999977861132
100
AcDbArc
 50
270.0
 51
349.0156860351562
  0
ARC
  5
299
330
1F
100
AcDbEntity
  8
0-1_ピット
  6
Continuous
 62
     2
370
    13
100
AcDbCircle
 10
-264.8249902214724
 20
-748.0138292317969
 30
0.0
 40
21.00000328999229
100
AcDbArc
 50
301.025634765625
 51
349.0156860351562
  0
ARC
  5
29A
330
1F
100
AcDbEntity
  8
0-1_ピット
  6
Continuous
 62
     2
370
    13
100
AcDbCircle
 10
-254.3864538021012
 20
-749.0141807141737
 30
0.0
 40
16.999998608151
100
AcDbArc
 50
271.2987518310547
 51
315.5906677246094
  0
ARC
  5
29B
330
1F
100
AcDbEntity
  8
0-1_ピット
  6
Continuous
 62
     2
370
    13
100
AcDbCircle
 10
-402.3866967055266
 20
-740.0139901855101
 30
0.0
 40
20.00000018410701
100
AcDbArc
 50
44.40933227539063
 51
90.00000000000001
  0
ARC
  5
29C
330
1F
100
AcDbEntity
  8
0-1_ピット
  6
Continuous
 62
     2
370
    13
100
AcDbCircle
 10
-400.1461868475246
 20
-738.0142781583328
 30
0.0
 40
20.00000018410701
100
AcDbArc
 50
44.40972900390626
 51
90.00000000000001
  0
ARC
  5
29D
330
1F
100
AcDbEntity
  8
0-1_ピット
  6
Continuous
 62
     2
370
    13
100
AcDbCircle
 10
-337.5759109921835
 20
-749.0141807141737
 30
0.0
 40
20.00000018410701
100
AcDbArc
 50
224.4093322753906
 51
270.0
  0
ARC
  5
29E
330
1F
100
AcDbEntity
  8
0-1_ピット
  6
Continuous
 62
     2
370
    13
100
AcDbCircle
 10
-327.1373745728123
 20
-748.0138292317969
 30
0.0
 40
17.99999977861132
100
AcDbArc
 50
190.9843139648438
 51
270.0
  0
ARC
  5
29F
330
1F
100
AcDbEntity
  8
0-1_ピット
  6
Continuous
 62
     2
370
    13
100
AcDbCircle
 10
-327.1373745728123
 20
-748.0138292317969
 30
0.0
 40
21.00000328999229
100
AcDbArc
 50
190.9843139648438
 51
238.974365234375
  0
ARC
  5
2A0
330
1F
100
AcDbEntity
  8
0-1_ピット
  6
Continuous
 62
     2
370
    13
100
AcDbCircle
 10
-337.5759109921835
 20
-749.0141807141737
 30
0.0
 40
16.999998608151
100
AcDbArc
 50
224.4093322753906
 51
268.7012481689454
  0
ARC
  5
2A1
330
1F
100
AcDbEntity
  8
0-1_ピット
  6
Continuous
 62
     2
370
    13
100
AcDbCircle
 10
-224.9008585113755
 20
-705.0180387723225
 30
0.0
 40
10.0000000920535
100
AcDbArc
 50
90.0
 51
169.0152587890625
  0
ARC
  5
2A2
330
1F
100
AcDbEntity
  8
0-1_ピット
  6
Continuous
 62
     2
370
    13
100
AcDbCircle
 10
-367.0617540173031
 20
-705.0180387723225
 30
0.0
 40
10.0000000920535
100
AcDbArc
 50
10.98474121093751
 51
90.00000000000001
  0
ARC
  5
2A3
330
1F
100
AcDbEntity
  8
0-1_ピット
  6
Continuous
 62
     2
370
    13
100
AcDbCircle
 10
-367.0617540173031
 20
-705.0180387723225
 30
0.0
 40
12.99999973258457
100
AcDbArc
 50
10.98449707031252
 51
52.23773193359376
  0
ARC
  5
2A4
330
1F
100
AcDbEntity
  8
0-1_ピット
  6
Continuous
 62
     2
370
    13
100
AcDbCircle
 10
-224.9008585113755
 20
-705.0180387723225
 30
0.0
 40
12.99999973258457
100
AcDbArc
 50
127.7622680664062
 51
169.0155029296875
  0
ARC
  5
2A5
330
1F
100
AcDbEntity
  8
0-1_ピット
  6
Continuous
 62
     2
370
    13
100
AcDbCircle
 10
-985.9810493982377
 20
-726.0140241201151
 30
0.0
 40
15.00000013808026
100
AcDbArc
 50
90.0
 51
270.0
  0
ARC
  5
2A6
330
1F
100
AcDbEntity
  8
0-1_ピット
  6
Continuous
 62
     2
370
    13
100
AcDbCircle
 10
-985.9810493982377
 20
-726.0140241201151
 30
0.0
 40
17.00000054357595
100
AcDbArc
 50
90.0
 51
270.0
  0
ARC
  5
2A7
330
1F
100
AcDbEntity
  8
0-1_ピット
  6
Continuous
 62
     2
370
    13
100
AcDbCircle
 10
-965.9809563137333
 20
-726.0140241201151
 30
0.0
 40
15.00000013808026
100
AcDbArc
 50
270.0
 51
90.0
  0
ARC
  5
2A8
330
1F
100
AcDbEntity
  8
0-1_ピット
  6
Continuous
 62
     2
370
    13
100
AcDbCircle
 10
-965.9809563137333
 20
-726.0140241201151
 30
0.0
 40
17.00000054357595
100
AcDbArc
 50
270.0
 51
90.0
  0
ARC
  5
2A9
330
1F
100
AcDbEntity
  8
0-1_ピット
  6
Continuous
 62
     2
370
    13
100
AcDbCircle
 10
-1082.386393297173
 20
-740.0139901855101
 30
0.0
 40
20.00000018410701
100
AcDbArc
 50
44.40933227539063
 51
90.00000000000001
  0
ARC
  5
2AA
330
1F
100
AcDbEntity
  8
0-1_ピット
  6
Continuous
 62
     2
370
    13
100
AcDbCircle
 10
-1080.146378907958
 20
-738.0142781583328
 30
0.0
 40
20.00000018410701
100
AcDbArc
 50
44.40972900390626
 51
90.00000000000001
  0
ARC
  5
2AB
330
1F
100
AcDbEntity
  8
0-1_ピット
  6
Continuous
 62
     2
370
    13
100
AcDbCircle
 10
-1017.576103052618
 20
-749.0141807141737
 30
0.0
 40
20.00000018410701
100
AcDbArc
 50
224.4093322753906
 51
270.0
  0
ARC
  5
2AC
330
1F
100
AcDbEntity
  8
0-1_ピット
  6
Continuous
 62
     2
370
    13
100
AcDbCircle
 10
-1007.137566633246
 20
-748.0138292317969
 30
0.0
 40
17.99999977861132
100
AcDbArc
 50
190.9843139648438
 51
270.0
  0
ARC
  5
2AD
330
1F
100
AcDbEntity
  8
0-1_ピット
  6
Continuous
 62
     2
370
    13
100
AcDbCircle
 10
-1007.137566633246
 20
-748.0138292317969
 30
0.0
 40
21.00000328999229
100
AcDbArc
 50
190.9843139648438
 51
238.974365234375
  0
ARC
  5
2AE
330
1F
100
AcDbEntity
  8
0-1_ピット
  6
Continuous
 62
     2
370
    13
100
AcDbCircle
 10
-1017.576103052618
 20
-749.0141807141737
 30
0.0
 40
16.999998608151
100
AcDbArc
 50
224.4093322753906
 51
268.7012481689454
  0
ARC
  5
2AF
330
1F
100
AcDbEntity
  8
0-1_ピット
  6
Continuous
 62
     2
370
    13
100
AcDbCircle
 10
-869.5756124147977
 20
-740.0139901855101
 30
0.0
 40
20.00000018410701
100
AcDbArc
 50
90.0
 51
135.5906677246094
  0
ARC
  5
2B0
330
1F
100
AcDbEntity
  8
0-1_ピット
  6
Continuous
 62
     2
370
    13
100
AcDbCircle
 10
-871.8161222728003
 20
-738.0142781583328
 30
0.0
 40
20.00000018410701
100
AcDbArc
 50
90.0
 51
135.5902709960938
  0
ARC
  5
2B1
330
1F
100
AcDbEntity
  8
0-1_ピット
  6
Continuous
 62
     2
370
    13
100
AcDbCircle
 10
-934.3863981281407
 20
-749.0141807141737
 30
0.0
 40
20.00000018410701
100
AcDbArc
 50
270.0
 51
315.5906677246094
  0
ARC
  5
2B2
330
1F
100
AcDbEntity
  8
0-1_ピット
  6
Continuous
 62
     2
370
    13
100
AcDbCircle
 10
-944.8249345475125
 20
-748.0138292317969
 30
0.0
 40
17.99999977861132
100
AcDbArc
 50
270.0
 51
349.0156860351562
  0
ARC
  5
2B3
330
1F
100
AcDbEntity
  8
0-1_ピット
  6
Continuous
 62
     2
370
    13
100
AcDbCircle
 10
-944.8249345475125
 20
-748.0138292317969
 30
0.0
 40
21.00000328999229
100
AcDbArc
 50
301.025634765625
 51
349.0156860351562
  0
ARC
  5
2B4
330
1F
100
AcDbEntity
  8
0-1_ピット
  6
Continuous
 62
     2
370
    13
100
AcDbCircle
 10
-934.3863981281407
 20
-749.0141807141737
 30
0.0
 40
16.999998608151
100
AcDbArc
 50
271.2987518310547
 51
315.5906677246094
  0
ARC
  5
2B5
330
1F
100
AcDbEntity
  8
0-1_ピット
  6
Continuous
 62
     2
370
    13
100
AcDbCircle
 10
-1047.061450608949
 20
-705.0180387723225
 30
0.0
 40
10.0000000920535
100
AcDbArc
 50
10.98474121093751
 51
90.00000000000001
  0
ARC
  5
2B6
330
1F
100
AcDbEntity
  8
0-1_ピット
  6
Continuous
 62
     2
370
    13
100
AcDbCircle
 10
-904.9005551030217
 20
-705.0180387723225
 30
0.0
 40
10.0000000920535
100
AcDbArc
 50
90.0
 51
169.0152587890625
  0
ARC
  5
2B7
330
1F
100
AcDbEntity
  8
0-1_ピット
  6
Continuous
 62
     2
370
    13
100
AcDbCircle
 10
-904.9005551030217
 20
-705.0180387723225
 30
0.0
 40
12.99999973258457
100
AcDbArc
 50
127.7622680664062
 51
169.0155029296875
  0
ARC
  5
2B8
330
1F
100
AcDbEntity
  8
0-1_ピット
  6
Continuous
 62
     2
370
    13
100
AcDbCircle
 10
-1047.061450608949
 20
-705.0180387723225
 30
0.0
 40
12.99999973258457
100
AcDbArc
 50
10.98449707031252
 51
52.23773193359376
  0
ARC
  5
2B9
330
1F
100
AcDbEntity
  8
0-1_ピット
  6
Continuous
 62
     2
370
    13
100
AcDbCircle
 10
-108.9809809398865
 20
-673.0176916496004
 30
0.0
 40
22.0000005896027
100
AcDbArc
 50
270.0
 51
0.0
  0
ARC
  5
2BA
330
1F
100
AcDbEntity
  8
0-1_ピット
  6
Continuous
 62
     2
370
    13
100
AcDbCircle
 10
-1162.981575914832
 20
-673.0176916496004
 30
0.0
 40
22.0000005896027
100
AcDbArc
 50
180.0
 51
270.0
  0
ARC
  5
2BB
330
1F
100
AcDbEntity
  8
0-0_通り芯
  6
Continuous
 62
     3
370
    13
100
AcDbCircle
 10
-921.8755635041929
 20
320.0499040789765
 30
0.0
 40
12.0000004975492
100
AcDbArc
 50
90.0
 51
134.9993286132812
  0
ARC
  5
2BC
330
1F
100
AcDbEntity
  8
0-0_通り芯
  6
Continuous
 62
     3
370
    13
100
AcDbCircle
 10
-1096.045229102233
 20
145.8802384809354
 30
0.0
 40
12.0000004975492
100
AcDbArc
 50
135.0006713867188
 51
180.0
  0
ARC
  5
2BD
330
1F
100
AcDbEntity
  8
0-0_通り芯
  6
Continuous
 62
     3
370
    13
100
AcDbCircle
 10
-175.9170800180907
 20
-600.0782450051662
 30
0.0
 40
12.0000004975492
100
AcDbArc
 50
270.0
 51
0.0
  0
ARC
  5
2BE
330
1F
100
AcDbEntity
  8
0-0_通り芯
  6
Continuous
 62
     3
370
    13
100
AcDbCircle
 10
-1096.045229102233
 20
-600.0782450051662
 30
0.0
 40
12.0000004975492
100
AcDbArc
 50
180.0
 51
270.0
  0
LINE
  5
2BF
330
1F
100
AcDbEntity
  8
0-1_ピット
  6
Continuous
 62
     2
370
    13
100
AcDbLine
 10
1013.954702827425
 20
309.98594206311
 30
0.0
 11
965.9546776121293
 21
311.9450256496958
 31
0.0
  0
LINE
  5
2C0
330
1F
100
AcDbEntity
  8
0-1_ピット
  6
Continuous
 62
     2
370
    13
100
AcDbLine
 10
965.9546776121293
 20
311.9450256496958
 30
0.0
 11
965.9546776121293
 21
322.0263290731322
 31
0.0
  0
LINE
  5
2C1
330
1F
100
AcDbEntity
  8
0-1_ピット
  6
Continuous
 62
     2
370
    13
100
AcDbLine
 10
997.733550186748
 20
438.1835361939312
 30
0.0
 11
1013.954702827425
 21
439.9855561748149
 31
0.0
  0
LINE
  5
2C2
330
1F
100
AcDbEntity
  8
0-1_ピット
  6
Continuous
 62
     2
370
    13
100
AcDbLine
 10
995.9545695044922
 20
420.5770528228305
 30
0.0
 11
995.9545695044922
 21
436.1957154176588
 31
0.0
  0
LINE
  5
2C3
330
1F
100
AcDbEntity
  8
0-1_ピット
  6
JWW_CENTER1
 62
     2
370
    13
100
AcDbLine
 10
1040.052530282217
 20
445.9856831939243
 30
0.0
 11
967.5240749971853
 21
445.9856831939243
 31
0.0
  0
LINE
  5
2C4
330
1F
100
AcDbEntity
  8
0-1_ピット
  6
Continuous
 62
     2
370
    13
100
AcDbLine
 10
987.9544827238117
 20
483.3123197844765
 30
0.0
 11
987.9544827238117
 21
420.300085770503
 31
0.0
  0
LINE
  5
2C5
330
1F
100
AcDbEntity
  8
0-1_ピット
  6
Continuous
 62
     2
370
    13
100
AcDbLine
 10
990.6106908946991
 20
486.2925645425224
 30
0.0
 11
1013.954702827425
 21
488.9859328724873
 31
0.0
  0
LINE
  5
2C6
330
1F
100
AcDbEntity
  8
0-1_ピット
  6
JWW_DASHED3
 62
     2
370
    13
100
AcDbLine
 10
1013.954702827425
 20
460.9860007416961
 30
0.0
 11
987.9544827238117
 21
462.9857127688746
 31
0.0
  0
LINE
  5
2C7
330
1F
100
AcDbEntity
  8
0-1_ピット
  6
Continuous
 62
     2
370
    13
100
AcDbLine
 10
990.3582495473632
 20
383.3762653043544
 30
0.0
 11
793.954669835449
 21
389.9858189323407
 31
0.0
  0
LINE
  5
2C8
330
1F
100
AcDbEntity
  8
0-1_ピット
  6
Continuous
 62
     2
370
    13
100
AcDbLine
 10
1001.954448789208
 20
329.2562096233252
 30
0.0
 11
1001.954448789208
 21
371.3829478291649
 31
0.0
  0
LINE
  5
2C9
330
1F
100
AcDbEntity
  8
0-1_ピット
  6
Continuous
 62
     2
370
    13
100
AcDbLine
 10
996.1993310856188
 20
323.2610372920925
 30
0.0
 11
965.9546776121293
 21
322.0263290731322
 31
0.0
  0
LINE
  5
2CA
330
1F
100
AcDbEntity
  8
0-1_ピット
  6
Continuous
 62
     2
370
    13
100
AcDbLine
 10
951.9547115467334
 20
353.54607147178
 30
0.0
 11
951.9547115467334
 21
376.9331891890369
 31
0.0
  0
LINE
  5
2CB
330
1F
100
AcDbEntity
  8
0-1_ピット
  6
Continuous
 62
     2
370
    13
100
AcDbLine
 10
954.8435423134482
 20
350.5479898373761
 30
0.0
 11
990.3986302535612
 21
349.2310337996565
 31
0.0
  0
LINE
  5
2CC
330
1F
100
AcDbEntity
  8
0-1_ピット
  6
Continuous
 62
     2
370
    13
100
AcDbLine
 10
984.3702615135531
 20
408.584726285215
 30
0.0
 11
793.954669835449
 21
401.9860729705584
 31
0.0
  0
LINE
  5
2CD
330
1F
100
AcDbEntity
  8
0-1_ピット
  6
Continuous
 62
     2
370
    13
100
AcDbLine
 10
1013.954702827425
 20
-590.0142829893008
 30
0.0
 11
965.9546776121293
 21
-591.9733665758866
 31
0.0
  0
LINE
  5
2CE
330
1F
100
AcDbEntity
  8
0-1_ピット
  6
Continuous
 62
     2
370
    13
100
AcDbLine
 10
965.9546776121293
 20
-591.9733665758866
 30
0.0
 11
965.9546776121293
 21
-602.054669999323
 31
0.0
  0
LINE
  5
2CF
330
1F
100
AcDbEntity
  8
0-1_ピット
  6
Continuous
 62
     2
370
    13
100
AcDbLine
 10
997.733550186748
 20
-718.211877120122
 30
0.0
 11
1013.954702827425
 21
-720.0138971010057
 31
0.0
  0
LINE
  5
2D0
330
1F
100
AcDbEntity
  8
0-1_ピット
  6
Continuous
 62
     2
370
    13
100
AcDbLine
 10
995.9545695044922
 20
-706.6089890496443
 30
0.0
 11
995.9545695044922
 21
-716.2240563438496
 31
0.0
  0
LINE
  5
2D1
330
1F
100
AcDbEntity
  8
0-1_ピット
  6
JWW_CENTER1
 62
     2
370
    13
100
AcDbLine
 10
1040.052530282217
 20
-726.0140241201151
 30
0.0
 11
967.5240749971853
 21
-726.0140241201151
 31
0.0
  0
LINE
  5
2D2
330
1F
100
AcDbEntity
  8
0-1_ピット
  6
Continuous
 62
     2
370
    13
100
AcDbLine
 10
987.9544827238117
 20
-763.3406607106673
 30
0.0
 11
987.9544827238117
 21
-706.3320219973167
 31
0.0
  0
LINE
  5
2D3
330
1F
100
AcDbEntity
  8
0-1_ピット
  6
Continuous
 62
     2
370
    13
100
AcDbLine
 10
990.6106908946991
 20
-766.3209054687132
 30
0.0
 11
1013.954702827425
 21
-769.0142737986781
 31
0.0
  0
LINE
  5
2D4
330
1F
100
AcDbEntity
  8
0-1_ピット
  6
Continuous
 62
     2
370
    13
100
AcDbLine
 10
990.3582495473632
 20
-663.4046062305453
 30
0.0
 11
793.954669835449
 21
-670.0141598585316
 31
0.0
  0
LINE
  5
2D5
330
1F
100
AcDbEntity
  8
0-1_ピット
  6
Continuous
 62
     2
370
    13
100
AcDbLine
 10
1001.954448789208
 20
-609.284550549516
 30
0.0
 11
1001.954448789208
 21
-651.4112887553557
 31
0.0
  0
LINE
  5
2D6
330
1F
100
AcDbEntity
  8
0-1_ピット
  6
Continuous
 62
     2
370
    13
100
AcDbLine
 10
996.1993310856188
 20
-603.2893782182833
 30
0.0
 11
965.9546776121293
 21
-602.054669999323
 31
0.0
  0
LINE
  5
2D7
330
1F
100
AcDbEntity
  8
0-1_ピット
  6
Continuous
 62
     2
370
    13
100
AcDbLine
 10
951.9547115467334
 20
-633.5744123979708
 30
0.0
 11
951.9547115467334
 21
-656.9615301152277
 31
0.0
  0
LINE
  5
2D8
330
1F
100
AcDbEntity
  8
0-1_ピット
  6
Continuous
 62
     2
370
    13
100
AcDbLine
 10
954.8435423134482
 20
-630.576330763567
 30
0.0
 11
990.3986302535612
 21
-629.2593747258474
 31
0.0
  0
LINE
  5
2D9
330
1F
100
AcDbEntity
  8
0-1_ピット
  6
Continuous
 62
     2
370
    13
100
AcDbLine
 10
984.3702615135531
 20
-694.6161670432417
 30
0.0
 11
793.954669835449
 21
-688.0175137285852
 31
0.0
  0
LINE
  5
2DA
330
1F
100
AcDbEntity
  8
0-1_ピット
  6
Continuous
 62
     2
370
    13
100
AcDbLine
 10
1013.954702827425
 20
-769.0142737986781
 30
0.0
 11
1013.954702827425
 21
488.9859328724873
 31
0.0
  0
LINE
  5
2DB
330
1F
100
AcDbEntity
  8
0-1_ピット
  6
Continuous
 62
     2
370
    13
100
AcDbLine
 10
793.954669835449
 20
-688.0175137285852
 30
0.0
 11
793.954669835449
 21
401.9860729705584
 31
0.0
  0
LINE
  5
2DC
330
1F
100
AcDbEntity
  8
0-1_ピット
  6
JWW_DASHED3
 62
     2
370
    13
100
AcDbLine
 10
986.8079679490621
 20
-588.7701608633728
 30
0.0
 11
1001.954448789208
 21
-614.014295596948
 31
0.0
  0
LINE
  5
2DD
330
1F
100
AcDbEntity
  8
0-1_ピット
  6
JWW_DASHED3
 62
     2
370
    13
100
AcDbLine
 10
829.9544410125271
 20
287.9856414826389
 30
0.0
 11
829.9544410125271
 21
382.9729537111626
 31
0.0
  0
LINE
  5
2DE
330
1F
100
AcDbEntity
  8
0-0_通り芯
  6
JWW_DASHED3
 62
     3
370
    13
100
AcDbLine
 10
811.2475214639328
 20
363.1799665799184
 30
0.0
 11
809.9543479280225
 21
382.9858358996427
 31
0.0
  0
LINE
  5
2DF
330
1F
100
AcDbEntity
  8
0-0_通り芯
  6
JWW_DASHED3
 62
     3
370
    13
100
AcDbLine
 10
944.1659422040088
 20
347.6896304011058
 30
0.0
 11
822.799376249278
 21
351.9684988517275
 31
0.0
  0
LINE
  5
2E0
330
1F
100
AcDbEntity
  8
0-0_通り芯
  6
JWW_DASHED3
 62
     3
370
    13
100
AcDbLine
 10
922.3772067958886
 20
332.4579289294746
 30
0.0
 11
793.954669835449
 21
336.9855227115244
 31
0.0
  0
LINE
  5
2E1
330
1F
100
AcDbEntity
  8
0-0_通り芯
  6
Continuous
 62
     3
370
    13
100
AcDbLine
 10
809.9543479280225
 20
382.9858358996427
 30
0.0
 11
793.954669835449
 21
384.9855479268211
 31
0.0
  0
LINE
  5
2E2
330
1F
100
AcDbEntity
  8
0-0_通り芯
  6
Continuous
 62
     3
370
    13
100
AcDbLine
 10
946.7503074006789
 20
-132.7347430341314
 30
0.0
 11
933.9545782238007
 21
-134.014043443986
 31
0.0
  0
LINE
  5
2E3
330
1F
100
AcDbEntity
  8
0-0_通り芯
  6
Continuous
 62
     3
370
    13
100
AcDbLine
 10
946.7503074006789
 20
37.26555271537052
 30
0.0
 11
933.9545782238007
 21
35.98575683672777
 31
0.0
  0
LINE
  5
2E4
330
1F
100
AcDbEntity
  8
0-0_通り芯
  6
Continuous
 62
     3
370
    13
100
AcDbLine
 10
946.7503074006789
 20
22.7066978574436
 30
0.0
 11
933.9545782238007
 21
23.98599826729821
 31
0.0
  0
LINE
  5
2E5
330
1F
100
AcDbEntity
  8
0-0_通り芯
  6
Continuous
 62
     3
370
    13
100
AcDbLine
 10
953.9544235739111
 20
45.2257542586409
 30
0.0
 11
953.9544235739111
 21
125.3445436369208
 31
0.0
  0
LINE
  5
2E6
330
1F
100
AcDbEntity
  8
0-0_通り芯
  6
Continuous
 62
     3
370
    13
100
AcDbLine
 10
933.9545782238007
 20
199.9854300983333
 30
0.0
 11
953.9544235739111
 21
125.3445436369208
 31
0.0
  0
LINE
  5
2E7
330
1F
100
AcDbEntity
  8
0-0_通り芯
  6
Continuous
 62
     3
370
    13
100
AcDbLine
 10
949.9545040507679
 20
202.0921633836559
 30
0.0
 11
969.9545971352724
 21
127.4507814534553
 31
0.0
  0
LINE
  5
2E8
330
1F
100
AcDbEntity
  8
0-0_通り芯
  6
Continuous
 62
     3
370
    13
100
AcDbLine
 10
804.9545723912901
 20
326.9859716380603
 30
0.0
 11
793.954669835449
 21
328.9856836652376
 31
0.0
  0
LINE
  5
2E9
330
1F
100
AcDbEntity
  8
0-0_通り芯
  6
Continuous
 62
     3
370
    13
100
AcDbLine
 10
804.9545723912901
 20
326.9859716380603
 30
0.0
 11
804.9545723912901
 21
242.9861752456856
 31
0.0
  0
LINE
  5
2EA
330
1F
100
AcDbEntity
  8
0-0_通り芯
  6
Continuous
 62
     3
370
    13
100
AcDbLine
 10
804.9545723912901
 20
242.9861752456856
 30
0.0
 11
793.954669835449
 21
240.9859677497201
 31
0.0
  0
LINE
  5
2EB
330
1F
100
AcDbEntity
  8
0-0_通り芯
  6
Continuous
 62
     3
370
    13
100
AcDbLine
 10
804.9545723912901
 20
300.9857515344464
 30
0.0
 11
824.9546654757949
 21
300.9857515344464
 31
0.0
  0
LINE
  5
2EC
330
1F
100
AcDbEntity
  8
0-0_通り芯
  6
Continuous
 62
     3
370
    13
100
AcDbLine
 10
804.9545723912901
 20
268.9858998805113
 30
0.0
 11
824.9546654757949
 21
268.9858998805113
 31
0.0
  0
LINE
  5
2ED
330
1F
100
AcDbEntity
  8
0-0_通り芯
  6
Continuous
 62
     3
370
    13
100
AcDbLine
 10
824.9546654757949
 20
331.9862426435799
 30
0.0
 11
824.9546654757949
 21
300.6691469791025
 31
0.0
  0
LINE
  5
2EE
330
1F
100
AcDbEntity
  8
0-0_通り芯
  6
Continuous
 62
     3
370
    13
100
AcDbLine
 10
824.9546654757949
 20
269.3025044358552
 30
0.0
 11
824.9546654757949
 21
248.3877759692467
 31
0.0
  0
LINE
  5
2EF
330
1F
100
AcDbEntity
  8
0-0_通り芯
  6
Continuous
 62
     3
370
    13
100
AcDbLine
 10
933.9545782238007
 20
264.9859803573685
 30
0.0
 11
949.9545040507679
 21
264.9859803573685
 31
0.0
  0
LINE
  5
2F0
330
1F
100
AcDbEntity
  8
0-0_通り芯
  6
Continuous
 62
     3
370
    13
100
AcDbLine
 10
930.954514714246
 20
245.3882079284796
 30
0.0
 11
827.9544812509555
 21
245.3882079284796
 31
0.0
  0
LINE
  5
2F1
330
1F
100
AcDbEntity
  8
0-0_通り芯
  6
Continuous
 62
     3
370
    13
100
AcDbLine
 10
930.954514714246
 20
334.985810684347
 30
0.0
 11
827.9544812509555
 21
334.985810684347
 31
0.0
  0
LINE
  5
2F2
330
1F
100
AcDbEntity
  8
0-0_通り芯
  6
Continuous
 62
     3
370
    13
100
AcDbLine
 10
933.9545782238007
 20
304.9861665263774
 30
0.0
 11
949.9545040507679
 21
304.9861665263774
 31
0.0
  0
LINE
  5
2F3
330
1F
100
AcDbEntity
  8
0-0_通り芯
  6
Continuous
 62
     3
370
    13
100
AcDbLine
 10
803.9544686433073
 20
323.985908128505
 30
0.0
 11
804.9545723912901
 21
323.985908128505
 31
0.0
  0
LINE
  5
2F4
330
1F
100
AcDbEntity
  8
0-0_通り芯
  6
Continuous
 62
     3
370
    13
100
AcDbLine
 10
831.9546485084929
 20
300.4858235276521
 30
0.0
 11
812.8610155710946
 21
300.9857515344464
 31
0.0
  0
LINE
  5
2F5
330
1F
100
AcDbEntity
  8
0-0_通り芯
  6
Continuous
 62
     3
370
    13
100
AcDbLine
 10
803.9544686433073
 20
245.9857432864527
 30
0.0
 11
804.9545723912901
 21
245.9857432864527
 31
0.0
  0
LINE
  5
2F6
330
1F
100
AcDbEntity
  8
0-0_通り芯
  6
Continuous
 62
     3
370
    13
100
AcDbLine
 10
831.9546485084929
 20
269.4858278873056
 30
0.0
 11
812.8610155710946
 21
268.9858998805113
 31
0.0
  0
LINE
  5
2F7
330
1F
100
AcDbEntity
  8
0-0_通り芯
  6
Continuous
 62
     3
370
    13
100
AcDbLine
 10
831.9546485084929
 20
269.4858278873056
 30
0.0
 11
831.9546485084929
 21
300.4858235276521
 31
0.0
  0
LINE
  5
2F8
330
1F
100
AcDbEntity
  8
0-0_通り芯
  6
Continuous
 62
     3
370
    13
100
AcDbLine
 10
797.9545893585923
 20
317.9862765781837
 30
0.0
 11
797.9545893585923
 21
251.985870305561
 31
0.0
  0
LINE
  5
2F9
330
1F
100
AcDbEntity
  8
0-0_通り芯
  6
Continuous
 62
     3
370
    13
100
AcDbLine
 10
933.9545782238007
 20
331.9862426435799
 30
0.0
 11
933.9545782238007
 21
248.3877759692467
 31
0.0
  0
LINE
  5
2FA
330
1F
100
AcDbEntity
  8
0-0_通り芯
  6
Continuous
 62
     3
370
    13
100
AcDbLine
 10
922.3772067958886
 20
223.8893217611673
 30
0.0
 11
793.954669835449
 21
228.417411012004
 31
0.0
  0
LINE
  5
2FB
330
1F
100
AcDbEntity
  8
0-0_通り芯
  6
Continuous
 62
     3
370
    13
100
AcDbLine
 10
949.9545040507679
 20
341.693467132298
 30
0.0
 11
949.9545040507679
 21
202.0921633836559
 31
0.0
  0
LINE
  5
2FC
330
1F
100
AcDbEntity
  8
0-0_通り芯
  6
Continuous
 62
     3
370
    13
100
AcDbLine
 10
812.0340781644147
 20
378.3725260173202
 30
0.0
 11
809.9543479280225
 21
382.9858358996427
 31
0.0
  0
LINE
  5
2FD
330
1F
100
AcDbEntity
  8
0-0_通り芯
  6
JWW_DASHED3
 62
     3
370
    13
100
AcDbLine
 10
823.9545617278121
 20
351.928365879923
 30
0.0
 11
812.0340781644147
 21
378.3725260173202
 31
0.0
  0
LINE
  5
2FE
330
1F
100
AcDbEntity
  8
0-0_通り芯
  6
JWW_CENTER1
 62
     3
370
    13
100
AcDbLine
 10
771.9920248828442
 20
284.9860734418729
 30
0.0
 11
971.8742909532363
 21
284.9860734418729
 31
0.0
  0
LINE
  5
2FF
330
1F
100
AcDbEntity
  8
0-0_通り芯
  6
Continuous
 62
     3
370
    13
100
AcDbLine
 10
811.2475214639328
 20
-643.2083075061092
 30
0.0
 11
809.9543479280225
 21
-663.0141768258335
 31
0.0
  0
LINE
  5
300
330
1F
100
AcDbEntity
  8
0-0_通り芯
  6
Continuous
 62
     3
370
    13
100
AcDbLine
 10
922.3772067958886
 20
-612.4862698556655
 30
0.0
 11
793.954669835449
 21
-617.0143591065033
 31
0.0
  0
LINE
  5
301
330
1F
100
AcDbEntity
  8
0-0_通り芯
  6
Continuous
 62
     3
370
    13
100
AcDbLine
 10
809.9543479280225
 20
-663.0141768258335
 30
0.0
 11
793.954669835449
 21
-665.013888853012
 31
0.0
  0
LINE
  5
302
330
1F
100
AcDbEntity
  8
0-0_通り芯
  6
Continuous
 62
     3
370
    13
100
AcDbLine
 10
946.7503074006789
 20
-147.2935978920594
 30
0.0
 11
933.9545782238007
 21
-146.0142974822048
 31
0.0
  0
LINE
  5
303
330
1F
100
AcDbEntity
  8
0-0_通り芯
  6
Continuous
 62
     3
370
    13
100
AcDbLine
 10
946.7503074006789
 20
-317.2938936415613
 30
0.0
 11
933.9545782238007
 21
-316.0140977629186
 31
0.0
  0
LINE
  5
304
330
1F
100
AcDbEntity
  8
0-0_通り芯
  6
Continuous
 62
     3
370
    13
100
AcDbLine
 10
946.7503074006789
 20
-302.7350387836344
 30
0.0
 11
933.9545782238007
 21
-304.014339193489
 31
0.0
  0
LINE
  5
305
330
1F
100
AcDbEntity
  8
0-0_通り芯
  6
Continuous
 62
     3
370
    13
100
AcDbLine
 10
953.9544235739111
 20
-155.2537994353298
 30
0.0
 11
953.9544235739111
 21
-294.7743417715759
 31
0.0
  0
LINE
  5
306
330
1F
100
AcDbEntity
  8
0-0_通り芯
  6
Continuous
 62
     3
370
    13
100
AcDbLine
 10
953.9544235739111
 20
-325.2540951848317
 30
0.0
 11
953.9544235739111
 21
-405.3728845631116
 31
0.0
  0
LINE
  5
307
330
1F
100
AcDbEntity
  8
0-0_通り芯
  6
Continuous
 62
     3
370
    13
100
AcDbLine
 10
933.9545782238007
 20
-480.0142664933122
 30
0.0
 11
953.9544235739111
 21
-405.3728845631116
 31
0.0
  0
LINE
  5
308
330
1F
100
AcDbEntity
  8
0-0_通り芯
  6
Continuous
 62
     3
370
    13
100
AcDbLine
 10
949.9545040507679
 20
-482.1205043098468
 30
0.0
 11
969.9545971352724
 21
-407.4791223796461
 31
0.0
  0
LINE
  5
309
330
1F
100
AcDbEntity
  8
0-0_通り芯
  6
Continuous
 62
     3
370
    13
100
AcDbLine
 10
949.9545040507679
 20
-621.7218080584888
 30
0.0
 11
949.9545040507679
 21
-482.1205043098468
 31
0.0
  0
LINE
  5
30A
330
1F
100
AcDbEntity
  8
0-0_通り芯
  6
Continuous
 62
     3
370
    13
100
AcDbLine
 10
793.954669835449
 20
-665.013888853012
 30
0.0
 11
793.954669835449
 21
384.9855479268211
 31
0.0
  0
LINE
  5
30B
330
1F
100
AcDbEntity
  8
0-0_通り芯
  6
Continuous
 62
     3
370
    13
100
AcDbLine
 10
823.9545617278121
 20
-631.9562113373257
 30
0.0
 11
809.9543479280225
 21
-663.0141768258335
 31
0.0
  0
LINE
  5
30C
330
1F
100
AcDbEntity
  8
0-0_通り芯
  6
JWW_CENTER1
 62
     3
370
    13
100
AcDbLine
 10
765.1114498279834
 20
-140.0141704630954
 30
0.0
 11
1038.962994418054
 21
-140.0141704630954
 31
0.0
  0
LINE
  5
30D
330
1F
100
AcDbEntity
  8
0-0_通り芯
  6
Continuous
 62
     3
370
    13
100
AcDbLine
 10
944.1659422040088
 20
-627.7179713272966
 30
0.0
 11
822.799376249278
 21
-631.9973352467053
 31
0.0
  0
LINE
  5
30E
330
1F
100
AcDbEntity
  8
0-0_通り芯
  6
JWW_DASHED3
 62
     3
370
    13
100
AcDbLine
 10
981.6689656829844
 20
-595.0517141538984
 30
0.0
 11
992.4397139245126
 21
-605.8227101298195
 31
0.0
  0
LINE
  5
30F
330
1F
100
AcDbEntity
  8
0-0_通り芯
  6
JWW_DASHED3
 62
     3
370
    13
100
AcDbLine
 10
962.285235770385
 20
-586.3210586457461
 30
0.0
 11
960.2944421813858
 21
-586.1996687927586
 31
0.0
  0
LINE
  5
310
330
1F
100
AcDbEntity
  8
0-0_通り芯
  6
Continuous
 62
     3
370
    13
100
AcDbLine
 10
960.2944421813858
 20
-586.1996687927586
 30
0.0
 11
949.9545040507679
 21
-585.567450619647
 31
0.0
  0
LINE
  5
311
330
1F
100
AcDbEntity
  8
0-0_通り芯
  6
Continuous
 62
     3
370
    13
100
AcDbLine
 10
951.9542160779456
 20
302.3190580421607
 30
0.0
 11
949.9545040507679
 21
300.9857515344464
 31
0.0
  0
LINE
  5
312
330
1F
100
AcDbEntity
  8
0-0_通り芯
  6
Continuous
 62
     3
370
    13
100
AcDbLine
 10
951.9542160779456
 20
331.6522966806662
 30
0.0
 11
949.9545040507679
 21
332.9860986571686
 31
0.0
  0
LINE
  5
313
330
1F
100
AcDbEntity
  8
0-0_通り芯
  6
Continuous
 62
     3
370
    13
100
AcDbLine
 10
951.9542160779456
 20
302.3190580421607
 30
0.0
 11
951.9542160779456
 21
331.6522966806662
 31
0.0
  0
LINE
  5
314
330
1F
100
AcDbEntity
  8
0-0_通り芯
  6
Continuous
 62
     3
370
    13
100
AcDbLine
 10
951.2902879024209
 20
344.3764306177212
 30
0.0
 11
951.9542160779456
 21
344.8188842451424
 31
0.0
  0
LINE
  5
315
330
1F
100
AcDbEntity
  8
0-0_通り芯
  6
Continuous
 62
     3
370
    13
100
AcDbLine
 10
951.9542160779456
 20
344.8188842451424
 30
0.0
 11
951.9542160779456
 21
369.6398886340177
 31
0.0
  0
LINE
  5
316
330
1F
100
AcDbEntity
  8
0-0_通り芯
  6
Continuous
 62
     3
370
    13
100
AcDbLine
 10
951.9542160779456
 20
369.6398886340177
 30
0.0
 11
817.2724219224272
 21
374.8423109049219
 31
0.0
  0
LINE
  5
317
330
1F
100
AcDbEntity
  8
0-0_通り芯
  6
Continuous
 62
     3
370
    13
100
AcDbLine
 10
951.9542160779456
 20
-649.6682295602085
 30
0.0
 11
817.2724219224272
 21
-654.8706518311127
 31
0.0
  0
LINE
  5
318
330
1F
100
AcDbEntity
  8
0-0_通り芯
  6
Continuous
 62
     3
370
    13
100
AcDbLine
 10
951.9542160779456
 20
-624.8472251713332
 30
0.0
 11
951.9542160779456
 21
-649.6682295602085
 31
0.0
  0
LINE
  5
319
330
1F
100
AcDbEntity
  8
0-0_通り芯
  6
Continuous
 62
     3
370
    13
100
AcDbLine
 10
951.2902879024209
 20
-624.404771543912
 30
0.0
 11
951.9542160779456
 21
-624.8472251713332
 31
0.0
  0
LINE
  5
31A
330
1F
100
AcDbEntity
  8
0-0_通り芯
  6
Continuous
 62
     3
370
    13
100
AcDbLine
 10
984.3771980765807
 20
-626.3004351256728
 30
0.0
 11
951.9542160779456
 21
-627.4434816189085
 31
0.0
  0
LINE
  5
31B
330
1F
100
AcDbEntity
  8
0-0_通り芯
  6
Continuous
 62
     3
370
    13
100
AcDbLine
 10
953.9544235739111
 20
-124.774541490861
 30
0.0
 11
953.9544235739111
 21
14.74649631417321
 31
0.0
  0
LINE
  5
31C
330
1F
100
AcDbEntity
  8
0-0_通り芯
  6
Continuous
 62
     3
370
    13
100
AcDbLine
 10
933.9545782238007
 20
-600.493943318051
 30
0.0
 11
933.9545782238007
 21
211.8969952235528
 31
0.0
  0
ARC
  5
31D
330
1F
100
AcDbEntity
  8
0-1_ピット
  6
Continuous
 62
     2
370
    13
100
AcDbCircle
 10
997.9545292660639
 20
436.1957154176588
 30
0.0
 40
2.000000042603513
100
AcDbArc
 50
96.34004211425781
 51
180.0
  0
ARC
  5
31E
330
1F
100
AcDbEntity
  8
0-1_ピット
  6
Continuous
 62
     2
370
    13
100
AcDbCircle
 10
983.9545632006685
 20
420.5770528228305
 30
0.0
 40
12.0000004975492
100
AcDbArc
 50
271.9847564697266
 51
0.0000000000000127
  0
ARC
  5
31F
330
1F
100
AcDbEntity
  8
0-1_ピット
  6
Continuous
 62
     2
370
    13
100
AcDbCircle
 10
975.9544764199875
 20
420.300085770503
 30
0.0
 40
12.0000004975492
100
AcDbArc
 50
271.9847564697266
 51
0.0000000000000127
  0
ARC
  5
320
330
1F
100
AcDbEntity
  8
0-1_ピット
  6
Continuous
 62
     2
370
    13
100
AcDbCircle
 10
990.9545462333664
 20
483.3123197844765
 30
0.0
 40
3.000000124387299
100
AcDbArc
 50
96.58244323730469
 51
180.0
  0
ARC
  5
321
330
1F
100
AcDbEntity
  8
0-1_ピット
  6
Continuous
 62
     2
370
    13
100
AcDbCircle
 10
989.9546902197771
 20
371.3829478291649
 30
0.0
 40
12.0000004975492
100
AcDbArc
 50
0.0
 51
88.07246398925781
  0
ARC
  5
322
330
1F
100
AcDbEntity
  8
0-1_ピット
  6
Continuous
 62
     2
370
    13
100
AcDbCircle
 10
995.9545695044922
 20
329.2562096233252
 30
0.0
 40
6.000000248774598
100
AcDbArc
 50
272.3374633789062
 51
0.0000000000000254
  0
ARC
  5
323
330
1F
100
AcDbEntity
  8
0-1_ピット
  6
Continuous
 62
     2
370
    13
100
AcDbCircle
 10
943.9546247660529
 20
376.9331891890369
 30
0.0
 40
8.000000170414053
100
AcDbArc
 50
0.0
 51
88.07258605957031
  0
ARC
  5
324
330
1F
100
AcDbEntity
  8
0-1_ピット
  6
Continuous
 62
     2
370
    13
100
AcDbCircle
 10
954.9547750562879
 20
353.54607147178
 30
0.0
 40
3.000000124387299
100
AcDbArc
 50
180.0
 51
267.8786163330078
  0
ARC
  5
325
330
1F
100
AcDbEntity
  8
0-1_ピット
  6
Continuous
 62
     2
370
    13
100
AcDbCircle
 10
989.9546902197771
 20
337.2392027308291
 30
0.0
 40
12.0000004975492
100
AcDbArc
 50
0.0
 51
87.87905883789062
  0
ARC
  5
326
330
1F
100
AcDbEntity
  8
0-1_ピット
  6
Continuous
 62
     2
370
    13
100
AcDbCircle
 10
997.9545292660639
 20
-716.2240563438496
 30
0.0
 40
2.000000042603513
100
AcDbArc
 50
180.0
 51
263.6599578857422
  0
ARC
  5
327
330
1F
100
AcDbEntity
  8
0-1_ピット
  6
Continuous
 62
     2
370
    13
100
AcDbCircle
 10
983.9545632006685
 20
-706.6089890496443
 30
0.0
 40
12.0000004975492
100
AcDbArc
 50
0.0
 51
88.01524353027345
  0
ARC
  5
328
330
1F
100
AcDbEntity
  8
0-1_ピット
  6
Continuous
 62
     2
370
    13
100
AcDbCircle
 10
975.9544764199875
 20
-706.3320219973167
 30
0.0
 40
12.0000004975492
100
AcDbArc
 50
0.0
 51
88.01524353027345
  0
ARC
  5
329
330
1F
100
AcDbEntity
  8
0-1_ピット
  6
Continuous
 62
     2
370
    13
100
AcDbCircle
 10
990.9545462333664
 20
-763.3406607106673
 30
0.0
 40
3.000000124387299
100
AcDbArc
 50
180.0
 51
263.4175567626953
  0
ARC
  5
32A
330
1F
100
AcDbEntity
  8
0-1_ピット
  6
Continuous
 62
     2
370
    13
100
AcDbCircle
 10
989.9546902197771
 20
-651.4112887553557
 30
0.0
 40
12.0000004975492
100
AcDbArc
 50
271.9275360107422
 51
0.0000000000000127
  0
ARC
  5
32B
330
1F
100
AcDbEntity
  8
0-1_ピット
  6
Continuous
 62
     2
370
    13
100
AcDbCircle
 10
995.9545695044922
 20
-609.284550549516
 30
0.0
 40
6.000000248774598
100
AcDbArc
 50
0.0
 51
87.66253662109375
  0
ARC
  5
32C
330
1F
100
AcDbEntity
  8
0-1_ピット
  6
Continuous
 62
     2
370
    13
100
AcDbCircle
 10
943.9546247660529
 20
-656.9615301152277
 30
0.0
 40
8.000000170414053
100
AcDbArc
 50
271.9274139404297
 51
0.0000000000000127
  0
ARC
  5
32D
330
1F
100
AcDbEntity
  8
0-1_ピット
  6
Continuous
 62
     2
370
    13
100
AcDbCircle
 10
954.9547750562879
 20
-633.5744123979708
 30
0.0
 40
3.000000124387299
100
AcDbArc
 50
92.12138366699219
 51
180.0
  0
ARC
  5
32E
330
1F
100
AcDbEntity
  8
0-1_ピット
  6
Continuous
 62
     2
370
    13
100
AcDbCircle
 10
989.9546902197771
 20
-617.2675436570199
 30
0.0
 40
12.0000004975492
100
AcDbArc
 50
272.1209411621094
 51
0.0000000000000127
  0
ARC
  5
32F
330
1F
100
AcDbEntity
  8
0-1_ピット
  6
JWW_DASHED3
 62
     2
370
    13
100
AcDbCircle
 10
1012.532707406712
 20
-573.335317188783
 30
0.0
 40
30.00000027616052
100
AcDbArc
 50
190.0154571533203
 51
210.9638061523438
  0
ARC
  5
330
330
1F
100
AcDbEntity
  8
0-1_ピット
  6
JWW_DASHED3
 62
     2
370
    13
100
AcDbCircle
 10
823.9545617278121
 20
382.9729537111626
 30
0.0
 40
6.000000248774598
100
AcDbArc
 50
0.0
 51
88.0723876953125
  0
ARC
  5
331
330
1F
100
AcDbEntity
  8
0-0_通り芯
  6
JWW_DASHED3
 62
     3
370
    13
100
AcDbCircle
 10
823.2220111251901
 20
363.9618163269171
 30
0.0
 40
12.0000004975492
100
AcDbArc
 50
183.7359924316406
 51
267.9807739257812
  0
ARC
  5
332
330
1F
100
AcDbEntity
  8
0-0_通り芯
  6
JWW_DASHED3
 62
     3
370
    13
100
AcDbCircle
 10
943.9543770316589
 20
341.693467132298
 30
0.0
 40
6.000000248774598
100
AcDbArc
 50
0.0
 51
87.98077392578124
  0
ARC
  5
333
330
1F
100
AcDbEntity
  8
0-0_通り芯
  6
JWW_DASHED3
 62
     3
370
    13
100
AcDbCircle
 10
921.9545719199765
 20
320.4656023918602
 30
0.0
 40
12.0000004975492
100
AcDbArc
 50
0.0
 51
87.98072814941406
  0
ARC
  5
334
330
1F
100
AcDbEntity
  8
0-0_通り芯
  6
Continuous
 62
     3
370
    13
100
AcDbCircle
 10
945.9545845276243
 20
-124.774541490861
 30
0.0
 40
8.000000170414053
100
AcDbArc
 50
275.7101745605469
 51
0.0000000000000127
  0
ARC
  5
335
330
1F
100
AcDbEntity
  8
0-0_通り芯
  6
Continuous
 62
     3
370
    13
100
AcDbCircle
 10
945.9545845276243
 20
45.2257542586409
 30
0.0
 40
8.000000170414053
100
AcDbArc
 50
275.7101745605469
 51
0.0000000000000127
  0
ARC
  5
336
330
1F
100
AcDbEntity
  8
0-0_通り芯
  6
Continuous
 62
     3
370
    13
100
AcDbCircle
 10
945.9545845276243
 20
14.74649631417321
 30
0.0
 40
8.000000170414053
100
AcDbArc
 50
0.0
 51
84.28982543945312
  0
ARC
  5
337
330
1F
100
AcDbEntity
  8
0-0_通り芯
  6
Continuous
 62
     3
370
    13
100
AcDbCircle
 10
827.9544812509555
 20
248.3877759692467
 30
0.0
 40
3.000000124387299
100
AcDbArc
 50
180.0
 51
270.0
  0
ARC
  5
338
330
1F
100
AcDbEntity
  8
0-0_通り芯
  6
Continuous
 62
     3
370
    13
100
AcDbCircle
 10
827.9544812509555
 20
331.9862426435799
 30
0.0
 40
3.000000124387299
100
AcDbArc
 50
90.0
 51
180.0
  0
ARC
  5
339
330
1F
100
AcDbEntity
  8
0-0_通り芯
  6
Continuous
 62
     3
370
    13
100
AcDbCircle
 10
930.954514714246
 20
248.3877759692467
 30
0.0
 40
3.000000124387299
100
AcDbArc
 50
270.0
 51
0.0
  0
ARC
  5
33A
330
1F
100
AcDbEntity
  8
0-0_通り芯
  6
Continuous
 62
     3
370
    13
100
AcDbCircle
 10
930.954514714246
 20
331.9862426435799
 30
0.0
 40
3.000000124387299
100
AcDbArc
 50
0.0
 51
90.0
  0
ARC
  5
33B
330
1F
100
AcDbEntity
  8
0-0_通り芯
  6
Continuous
 62
     3
370
    13
100
AcDbCircle
 10
803.9544686433073
 20
317.9862765781837
 30
0.0
 40
6.000000248774598
100
AcDbArc
 50
90.0
 51
180.0
  0
ARC
  5
33C
330
1F
100
AcDbEntity
  8
0-0_通り芯
  6
Continuous
 62
     3
370
    13
100
AcDbCircle
 10
803.9544686433073
 20
251.985870305561
 30
0.0
 40
6.000000248774598
100
AcDbArc
 50
180.0
 51
270.0
  0
ARC
  5
33D
330
1F
100
AcDbEntity
  8
0-0_通り芯
  6
Continuous
 62
     3
370
    13
100
AcDbCircle
 10
921.9545719199765
 20
211.8969952235528
 30
0.0
 40
12.0000004975492
100
AcDbArc
 50
0.0
 51
87.98072814941406
  0
ARC
  5
33E
330
1F
100
AcDbEntity
  8
0-0_通り芯
  6
Continuous
 62
     3
370
    13
100
AcDbCircle
 10
952.9545675603224
 20
341.880258865263
 30
0.0
 40
3.000000124387299
100
AcDbArc
 50
123.6903228759766
 51
180.0
  0
ARC
  5
33F
330
1F
100
AcDbEntity
  8
0-0_通り芯
  6
Continuous
 62
     3
370
    13
100
AcDbCircle
 10
817.5040535806794
 20
380.8384741737285
 30
0.0
 40
6.000000248774598
100
AcDbArc
 50
204.264404296875
 51
267.7878112792969
  0
ARC
  5
340
330
1F
100
AcDbEntity
  8
0-0_通り芯
  6
Continuous
 62
     3
370
    13
100
AcDbCircle
 10
823.2220111251901
 20
-643.9901572531079
 30
0.0
 40
12.0000004975492
100
AcDbArc
 50
92.01922607421875
 51
176.2640075683594
  0
ARC
  5
341
330
1F
100
AcDbEntity
  8
0-0_通り芯
  6
Continuous
 62
     3
370
    13
100
AcDbCircle
 10
943.9543770316589
 20
-621.7218080584888
 30
0.0
 40
6.000000248774598
100
AcDbArc
 50
272.0192260742188
 51
0.0000000000000127
  0
ARC
  5
342
330
1F
100
AcDbEntity
  8
0-0_通り芯
  6
Continuous
 62
     3
370
    13
100
AcDbCircle
 10
921.9545719199765
 20
-600.493943318051
 30
0.0
 40
12.0000004975492
100
AcDbArc
 50
272.0192718505859
 51
0.0
  0
ARC
  5
343
330
1F
100
AcDbEntity
  8
0-0_通り芯
  6
Continuous
 62
     3
370
    13
100
AcDbCircle
 10
945.9545845276243
 20
-155.2537994353298
 30
0.0
 40
8.000000170414053
100
AcDbArc
 50
0.0
 51
84.28982543945312
  0
ARC
  5
344
330
1F
100
AcDbEntity
  8
0-0_通り芯
  6
Continuous
 62
     3
370
    13
100
AcDbCircle
 10
945.9545845276243
 20
-325.2540951848317
 30
0.0
 40
8.000000170414053
100
AcDbArc
 50
0.0
 51
84.28982543945312
  0
ARC
  5
345
330
1F
100
AcDbEntity
  8
0-0_通り芯
  6
Continuous
 62
     3
370
    13
100
AcDbCircle
 10
945.9545845276243
 20
-294.7743417715759
 30
0.0
 40
8.000000170414053
100
AcDbArc
 50
275.7101745605469
 51
0.0000000000000127
  0
ARC
  5
346
330
1F
100
AcDbEntity
  8
0-0_通り芯
  6
Continuous
 62
     3
370
    13
100
AcDbCircle
 10
952.9545675603224
 20
-621.9085997914539
 30
0.0
 40
3.000000124387299
100
AcDbArc
 50
180.0
 51
236.3096771240234
  0
ARC
  5
347
330
1F
100
AcDbEntity
  8
0-0_通り芯
  6
Continuous
 62
     3
370
    13
100
AcDbCircle
 10
817.5040535806794
 20
-660.8668150999193
 30
0.0
 40
6.000000248774598
100
AcDbArc
 50
92.21218872070312
 51
155.735595703125
  0
ARC
  5
348
330
1F
100
AcDbEntity
  8
0-0_通り芯
  6
JWW_DASHED3
 62
     3
370
    13
100
AcDbCircle
 10
960.4559650061777
 20
-616.2652102994929
 30
0.0
 40
30.00000027616052
100
AcDbArc
 50
45.00000000000005
 51
86.5037994384766
  0
ARC
  5
349
330
1F
100
AcDbEntity
  8
0-0_通り芯
  6
Continuous
 62
     3
370
    13
100
AcDbCircle
 10
983.9545632006685
 20
-614.3081085880573
 30
0.0
 40
12.0000004975492
100
AcDbArc
 50
272.0190277099609
 51
24.99067687988283
  0
ARC
  5
34A
330
1F
100
AcDbEntity
  8
0-0_通り芯
  6
JWW_DASHED3
 62
     3
370
    13
100
AcDbCircle
 10
983.9545632006685
 20
-614.3081085880573
 30
0.0
 40
12.0000004975492
100
AcDbArc
 50
24.99067687988284
 51
45.00016784667972
  0
LINE
  5
34B
330
1F
100
AcDbEntity
  8
0-4_寸法
  6
Continuous
 62
     7
370
    13
100
AcDbLine
 10
-1221.981256835289
 20
630.166398487496
 30
0.0
 11
-49.98105228503544
 21
630.166398487496
 31
0.0
  0
LINE
  5
34C
330
1F
100
AcDbEntity
  8
0-4_寸法
  6
Continuous
 62
     7
370
    13
100
AcDbLine
 10
-1221.981256835289
 20
630.166398487496
 30
0.0
 11
-1197.195135300944
 21
633.4295532929974
 31
0.0
  0
LINE
  5
34D
330
1F
100
AcDbEntity
  8
0-4_寸法
  6
Continuous
 62
     7
370
    13
100
AcDbLine
 10
-1221.981256835289
 20
630.166398487496
 30
0.0
 11
-1197.195135300944
 21
626.9032436819947
 31
0.0
  0
LINE
  5
34E
330
1F
100
AcDbEntity
  8
0-4_寸法
  6
Continuous
 62
     7
370
    13
100
AcDbLine
 10
-49.98105228503544
 20
630.166398487496
 30
0.0
 11
-74.7671738193807
 21
633.4295532929974
 31
0.0
  0
LINE
  5
34F
330
1F
100
AcDbEntity
  8
0-4_寸法
  6
Continuous
 62
     7
370
    13
100
AcDbLine
 10
-49.98105228503544
 20
630.166398487496
 30
0.0
 11
-74.7671738193807
 21
626.9032436819947
 31
0.0
  0
LINE
  5
350
330
1F
100
AcDbEntity
  8
0-4_寸法
  6
Continuous
 62
     7
370
    13
100
AcDbLine
 10
-1221.981256835289
 20
633.1663984874962
 30
0.0
 11
-1221.981256835289
 21
258.9965816219978
 31
0.0
  0
LINE
  5
351
330
1F
100
AcDbEntity
  8
0-4_寸法
  6
Continuous
 62
     7
370
    13
100
AcDbLine
 10
-49.98105228503544
 20
633.1663984874962
 30
0.0
 11
-49.98105228503544
 21
258.9965816219978
 31
0.0
  0
TEXT
  5
352
330
1F
100
AcDbEntity
  8
0-4_寸法
  6
Continuous
 62
     2
370
   211
100
AcDbText
 10
-668.4811545601623
 20
641.8063984874963
 30
0.0
 40
30.48
  1
586
 41
1.083333333333333
  7
ＭＳ ゴシック
100
AcDbText
  0
LINE
  5
353
330
1F
100
AcDbEntity
  8
0-4_寸法
  6
Continuous
 62
     7
370
    13
100
AcDbLine
 10
-1406.161723510754
 20
-726.0142727382222
 30
0.0
 11
-1406.161723510754
 21
445.9859318120311
 31
0.0
  0
LINE
  5
354
330
1F
100
AcDbEntity
  8
0-4_寸法
  6
Continuous
 62
     7
370
    13
100
AcDbLine
 10
-1406.161723510754
 20
-726.0142727382222
 30
0.0
 11
-1409.424878316255
 21
-701.2281512038769
 31
0.0
  0
LINE
  5
355
330
1F
100
AcDbEntity
  8
0-4_寸法
  6
Continuous
 62
     7
370
    13
100
AcDbLine
 10
-1406.161723510754
 20
-726.0142727382222
 30
0.0
 11
-1402.898568705252
 21
-701.2281512038769
 31
0.0
  0
LINE
  5
356
330
1F
100
AcDbEntity
  8
0-4_寸法
  6
Continuous
 62
     7
370
    13
100
AcDbLine
 10
-1406.161723510754
 20
445.9859318120311
 30
0.0
 11
-1409.424878316255
 21
421.1998102776863
 31
0.0
  0
LINE
  5
357
330
1F
100
AcDbEntity
  8
0-4_寸法
  6
Continuous
 62
     7
370
    13
100
AcDbLine
 10
-1406.161723510754
 20
445.9859318120311
 30
0.0
 11
-1402.898568705252
 21
421.1998102776863
 31
0.0
  0
LINE
  5
358
330
1F
100
AcDbEntity
  8
0-4_寸法
  6
Continuous
 62
     7
370
    13
100
AcDbLine
 10
-1409.161723510754
 20
-726.0142727382222
 30
0.0
 11
-1034.991906645255
 21
-726.0142727382222
 31
0.0
  0
LINE
  5
359
330
1F
100
AcDbEntity
  8
0-4_寸法
  6
Continuous
 62
     7
370
    13
100
AcDbLine
 10
-1409.161723510754
 20
445.9859318120311
 30
0.0
 11
-1034.991906645255
 21
445.9859318120311
 31
0.0
  0
TEXT
  5
35A
330
1F
100
AcDbEntity
  8
0-4_寸法
  6
Continuous
 62
     2
370
   211
100
AcDbText
 10
-1417.801723510754
 20
-172.5141704630954
 30
0.0
 40
30.48
  1
586
 50
90.0
 41
1.083333333333333
  7
ＭＳ ゴシック
100
AcDbText
  0
LINE
  5
35B
330
1F
100
AcDbEntity
  8
0-4_寸法
  6
Continuous
 62
     7
370
    13
100
AcDbLine
 10
-1340.233667859736
 20
-480.0140549911782
 30
0.0
 11
-1340.233667859736
 21
199.9857140649874
 31
0.0
  0
LINE
  5
35C
330
1F
100
AcDbEntity
  8
0-4_寸法
  6
Continuous
 62
     7
370
    13
100
AcDbLine
 10
-1340.233667859736
 20
-480.0140549911782
 30
0.0
 11
-1343.496822665238
 21
-455.2279334568328
 31
0.0
  0
LINE
  5
35D
330
1F
100
AcDbEntity
  8
0-4_寸法
  6
Continuous
 62
     7
370
    13
100
AcDbLine
 10
-1340.233667859736
 20
-480.0140549911782
 30
0.0
 11
-1336.970513054235
 21
-455.2279334568328
 31
0.0
  0
LINE
  5
35E
330
1F
100
AcDbEntity
  8
0-4_寸法
  6
Continuous
 62
     7
370
    13
100
AcDbLine
 10
-1340.233667859736
 20
199.9857140649874
 30
0.0
 11
-1343.496822665238
 21
175.199592530642
 31
0.0
  0
LINE
  5
35F
330
1F
100
AcDbEntity
  8
0-4_寸法
  6
Continuous
 62
     7
370
    13
100
AcDbLine
 10
-1340.233667859736
 20
199.9857140649874
 30
0.0
 11
-1336.970513054235
 21
175.199592530642
 31
0.0
  0
LINE
  5
360
330
1F
100
AcDbEntity
  8
0-4_寸法
  6
Continuous
 62
     7
370
    13
100
AcDbLine
 10
-1343.233667859736
 20
-480.0140549911782
 30
0.0
 11
-1270.358645454376
 21
-480.0140549911782
 31
0.0
  0
LINE
  5
361
330
1F
100
AcDbEntity
  8
0-4_寸法
  6
Continuous
 62
     7
370
    13
100
AcDbLine
 10
-1343.233667859736
 20
199.9857140649874
 30
0.0
 11
-1270.358645454376
 21
199.9857140649874
 31
0.0
  0
TEXT
  5
362
330
1F
100
AcDbEntity
  8
0-4_寸法
  6
Continuous
 62
     2
370
   211
100
AcDbText
 10
-1351.873667859736
 20
-172.5141704630954
 30
0.0
 40
30.48
  1
340
 50
90.0
 41
1.083333333333333
  7
ＭＳ ゴシック
100
AcDbText
  0
LINE
  5
363
330
1F
100
AcDbEntity
  8
0-4_寸法
  6
Continuous
 62
     7
370
    13
100
AcDbLine
 10
-1112.98104568664
 20
71.63706242870035
 30
0.0
 11
-928.9810844348887
 21
71.63706242870035
 31
0.0
  0
LINE
  5
364
330
1F
100
AcDbEntity
  8
0-4_寸法
  6
Continuous
 62
     7
370
    13
100
AcDbLine
 10
-928.9810844348887
 20
71.63706242870035
 30
0.0
 11
-953.7672059692339
 21
74.9002172342017
 31
0.0
  0
LINE
  5
365
330
1F
100
AcDbEntity
  8
0-4_寸法
  6
Continuous
 62
     7
370
    13
100
AcDbLine
 10
-928.9810844348887
 20
71.63706242870035
 30
0.0
 11
-953.7672059692339
 21
68.37390762319899
 31
0.0
  0
LINE
  5
366
330
1F
100
AcDbEntity
  8
0-4_寸法
  6
Continuous
 62
     7
370
    13
100
AcDbLine
 10
-928.9810844348887
 20
68.63706242870023
 30
0.0
 11
-928.9810844348887
 21
316.9858443832942
 31
0.0
  0
LINE
  5
367
330
1F
100
AcDbEntity
  8
0-4_寸法
  6
Continuous
 62
     7
370
    13
100
AcDbLine
 10
-840.9158410423463
 20
152.9857544974817
 30
0.0
 11
-840.9158410423463
 21
336.9858443832942
 31
0.0
  0
LINE
  5
368
330
1F
100
AcDbEntity
  8
0-4_寸法
  6
Continuous
 62
     7
370
    13
100
AcDbLine
 10
-840.9158410423463
 20
152.9857544974817
 30
0.0
 11
-844.1789958478477
 21
177.7718760318271
 31
0.0
  0
LINE
  5
369
330
1F
100
AcDbEntity
  8
0-4_寸法
  6
Continuous
 62
     7
370
    13
100
AcDbLine
 10
-840.9158410423463
 20
152.9857544974817
 30
0.0
 11
-837.6526862368449
 21
177.7718760318271
 31
0.0
  0
LINE
  5
36A
330
1F
100
AcDbEntity
  8
0-4_寸法
  6
Continuous
 62
     7
370
    13
100
AcDbLine
 10
-840.9158410423463
 20
336.9858443832942
 30
0.0
 11
-844.1789958478477
 21
312.1997228489488
 31
0.0
  0
LINE
  5
36B
330
1F
100
AcDbEntity
  8
0-4_寸法
  6
Continuous
 62
     7
370
    13
100
AcDbLine
 10
-840.9158410423463
 20
336.9858443832942
 30
0.0
 11
-837.6526862368449
 21
312.1997228489488
 31
0.0
  0
LINE
  5
36C
330
1F
100
AcDbEntity
  8
0-4_寸法
  6
Continuous
 62
     7
370
    13
100
AcDbLine
 10
-837.9158410423463
 20
152.9857544974817
 30
0.0
 11
-1092.98104568664
 21
152.9857544974817
 31
0.0
  0
TEXT
  5
36D
330
1F
100
AcDbEntity
  8
0-4_寸法
  6
Continuous
 62
     2
370
   211
100
AcDbText
 10
-852.5558410423462
 20
223.735799440388
 30
0.0
 40
30.48
  1
92
 50
90.0
 41
1.0625
  7
ＭＳ ゴシック
100
AcDbText
  0
LINE
  5
36E
330
1F
100
AcDbEntity
  8
0-4_寸法
  6
Continuous
 62
     7
370
    13
100
AcDbLine
 10
-975.9811545601622
 20
564.2383428364786
 30
0.0
 11
-951.1950330258169
 21
567.50149764198
 31
0.0
  0
LINE
  5
36F
330
1F
100
AcDbEntity
  8
0-4_寸法
  6
Continuous
 62
     7
370
    13
100
AcDbLine
 10
-975.9811545601622
 20
564.2383428364786
 30
0.0
 11
-951.1950330258169
 21
560.9751880309773
 31
0.0
  0
LINE
  5
370
330
1F
100
AcDbEntity
  8
0-4_寸法
  6
Continuous
 62
     7
370
    13
100
AcDbLine
 10
-975.9811545601622
 20
567.2383428364788
 30
0.0
 11
-975.9811545601622
 21
494.3635678709416
 31
0.0
  0
LINE
  5
371
330
1F
100
AcDbEntity
  8
0-4_寸法
  6
Continuous
 62
     7
370
    13
100
AcDbLine
 10
-295.9811545601622
 20
564.2383428364786
 30
0.0
 11
-320.7672760945075
 21
567.50149764198
 31
0.0
  0
LINE
  5
372
330
1F
100
AcDbEntity
  8
0-4_寸法
  6
Continuous
 62
     7
370
    13
100
AcDbLine
 10
-295.9811545601622
 20
564.2383428364786
 30
0.0
 11
-320.7672760945075
 21
560.9751880309773
 31
0.0
  0
LINE
  5
373
330
1F
100
AcDbEntity
  8
0-4_寸法
  6
Continuous
 62
     7
370
    13
100
AcDbLine
 10
-295.9811545601622
 20
567.2383428364788
 30
0.0
 11
-295.9811545601622
 21
494.3635678709416
 31
0.0
  0
LINE
  5
374
330
1F
100
AcDbEntity
  8
0-4_寸法
  6
Continuous
 62
     7
370
    13
100
AcDbLine
 10
-975.9811545601622
 20
564.2383428364786
 30
0.0
 11
-295.9811545601622
 21
564.2383428364786
 31
0.0
  0
TEXT
  5
375
330
1F
100
AcDbEntity
  8
0-4_寸法
  6
Continuous
 62
     2
370
   211
100
AcDbText
 10
-668.481154560162
 20
575.8783428364789
 30
0.0
 40
30.48
  1
340
 41
1.083333333333333
  7
ＭＳ ゴシック
100
AcDbText
  0
LINE
  5
376
330
1F
100
AcDbEntity
  8
0-4_寸法
  6
Continuous
 62
     7
370
    13
100
AcDbLine
 10
-994.4809447209443
 20
460.7081127126412
 30
0.0
 11
-1136.033411036136
 21
705.8839846905767
 31
0.0
  0
LINE
  5
377
330
1F
100
AcDbEntity
  8
0-4_寸法
  6
Continuous
 62
     7
370
    13
100
AcDbLine
 10
-1439.40947997617
 20
705.8839846905767
 30
0.0
 11
-1136.033411036136
 21
705.8839846905767
 31
0.0
  0
TEXT
  5
378
330
1F
100
AcDbEntity
  8
0-4_寸法
  6
Continuous
 62
     2
370
    13
100
AcDbText
 10
-1439.140125233243
 20
718.7794151698839
 30
0.0
 40
30.48
  1
８－１５×２５
 41
1.107142857142857
  7
ＭＳ ゴシック
100
AcDbText
  0
LINE
  5
379
330
1F
100
AcDbEntity
  8
0-4_寸法
  6
Continuous
 62
     7
370
    13
100
AcDbLine
 10
-994.4809447209443
 20
460.7081127126412
 30
0.0
 11
-1009.699978451941
 21
480.5418991357834
 31
0.0
  0
LINE
  5
37A
330
1F
100
AcDbEntity
  8
0-4_寸法
  6
Continuous
 62
     7
370
    13
100
AcDbLine
 10
-994.4809447209443
 20
460.7081127126412
 30
0.0
 11
-1004.048019883265
 21
483.8051355166954
 31
0.0
  0
TEXT
  5
37B
330
1F
100
AcDbEntity
  8
0-4_寸法
  6
Continuous
 62
     2
370
   211
100
AcDbText
 10
-1042.231065060764
 20
83.2770624287
 30
0.0
 40
30.48
  1
92
 41
1.0625
  7
ＭＳ ゴシック
100
AcDbText
  0
LINE
  5
37C
330
1F
100
AcDbEntity
  8
0-4_寸法
  6
Continuous
 62
     7
370
    13
100
AcDbLine
 10
-1112.98104568664
 20
71.63706242870035
 30
0.0
 11
-1088.194924152295
 21
74.9002172342017
 31
0.0
  0
LINE
  5
37D
330
1F
100
AcDbEntity
  8
0-4_寸法
  6
Continuous
 62
     7
370
    13
100
AcDbLine
 10
-1112.98104568664
 20
71.63706242870035
 30
0.0
 11
-1088.194924152295
 21
68.37390762319899
 31
0.0
  0
LINE
  5
37E
330
1F
100
AcDbEntity
  8
0-2_本体（蓋）
  6
Continuous
 62
     7
370
    13
100
AcDbLine
 10
778.9546203474844
 20
384.9859673962345
 30
0.0
 11
650.9547094258207
 21
384.9859673962345
 31
0.0
  0
LINE
  5
37F
330
1F
100
AcDbEntity
  8
0-2_本体（蓋）
  6
Continuous
 62
     7
370
    13
100
AcDbLine
 10
653.9546698354488
 20
384.9859673962345
 30
0.0
 11
650.6916808943597
 21
360.1999203628731
 31
0.0
  0
LINE
  5
380
330
1F
100
AcDbEntity
  8
0-2_本体（蓋）
  6
Continuous
 62
     7
370
    13
100
AcDbLine
 10
653.9546698354488
 20
384.9859673962345
 30
0.0
 11
657.2179062163614
 21
360.1999203628731
 31
0.0
  0
LINE
  5
381
330
1F
100
AcDbEntity
  8
0-2_本体（蓋）
  6
Continuous
 62
     7
370
    13
100
AcDbLine
 10
778.9546203474844
 20
-665.0139088838548
 30
0.0
 11
650.9547094258207
 21
-665.0139088838548
 31
0.0
  0
LINE
  5
382
330
1F
100
AcDbEntity
  8
0-2_本体（蓋）
  6
Continuous
 62
     7
370
    13
100
AcDbLine
 10
653.9546698354488
 20
-665.0139088838548
 30
0.0
 11
650.6916808943597
 21
-640.2278618504934
 31
0.0
  0
LINE
  5
383
330
1F
100
AcDbEntity
  8
0-2_本体（蓋）
  6
Continuous
 62
     7
370
    13
100
AcDbLine
 10
653.9546698354488
 20
-665.0139088838548
 30
0.0
 11
657.2179062163614
 21
-640.2278618504934
 31
0.0
  0
LINE
  5
384
330
1F
100
AcDbEntity
  8
0-2_本体（蓋）
  6
Continuous
 62
     7
370
    13
100
AcDbLine
 10
653.9546698354488
 20
-662.0141959140485
 30
0.0
 11
653.9546698354488
 21
384.9859673962345
 31
0.0
  0
LINE
  5
385
330
1F
100
AcDbEntity
  8
0-2_本体（蓋）
  6
Continuous
 62
     7
370
    13
100
AcDbLine
 10
778.9546203474844
 20
401.9860729705584
 30
0.0
 11
550.9547094258204
 21
401.9860729705584
 31
0.0
  0
LINE
  5
386
330
1F
100
AcDbEntity
  8
0-2_本体（蓋）
  6
Continuous
 62
     7
370
    13
100
AcDbLine
 10
553.9546698354488
 20
401.9860729705584
 30
0.0
 11
550.6914334545365
 21
377.200025937197
 31
0.0
  0
LINE
  5
387
330
1F
100
AcDbEntity
  8
0-2_本体（蓋）
  6
Continuous
 62
     7
370
    13
100
AcDbLine
 10
553.9546698354488
 20
401.9860729705584
 30
0.0
 11
557.217906216361
 21
377.200025937197
 31
0.0
  0
LINE
  5
388
330
1F
100
AcDbEntity
  8
0-2_本体（蓋）
  6
Continuous
 62
     7
370
    13
100
AcDbLine
 10
553.9546698354488
 20
-688.0175231548637
 30
0.0
 11
553.9546698354488
 21
401.9860729705584
 31
0.0
  0
LINE
  5
389
330
1F
100
AcDbEntity
  8
0-2_本体（蓋）
  6
Continuous
 62
     7
370
    13
100
AcDbLine
 10
778.9546203474844
 20
-688.0175231548637
 30
0.0
 11
550.9547094258204
 21
-688.0175231548637
 31
0.0
  0
LINE
  5
38A
330
1F
100
AcDbEntity
  8
0-2_本体（蓋）
  6
Continuous
 62
     7
370
    13
100
AcDbLine
 10
553.9546698354488
 20
-688.0175231548637
 30
0.0
 11
550.6914334545365
 21
-663.2314761215023
 31
0.0
  0
LINE
  5
38B
330
1F
100
AcDbEntity
  8
0-2_本体（蓋）
  6
Continuous
 62
     7
370
    13
100
AcDbLine
 10
553.9546698354488
 20
-688.0175231548637
 30
0.0
 11
557.217906216361
 21
-663.2314761215023
 31
0.0
  0
LINE
  5
38C
330
1F
100
AcDbEntity
  8
0-2_本体（蓋）
  6
Continuous
 62
     7
370
    13
100
AcDbLine
 10
1153.954777059372
 20
309.9860911161454
 30
0.0
 11
1150.69154067846
 21
285.1997966429616
 31
0.0
  0
LINE
  5
38D
330
1F
100
AcDbEntity
  8
0-2_本体（蓋）
  6
Continuous
 62
     7
370
    13
100
AcDbLine
 10
1153.954777059372
 20
309.9860911161454
 30
0.0
 11
1157.218013440284
 21
285.1997966429616
 31
0.0
  0
LINE
  5
38E
330
1F
100
AcDbEntity
  8
0-2_本体（蓋）
  6
Continuous
 62
     7
370
    13
100
AcDbLine
 10
1157.95662131085
 20
309.9860911161454
 30
0.0
 11
1026.729352782556
 21
309.9860911161454
 31
0.0
  0
LINE
  5
38F
330
1F
100
AcDbEntity
  8
0-2_本体（蓋）
  6
Continuous
 62
     7
370
    13
100
AcDbLine
 10
1153.954777059372
 20
-590.0139088838548
 30
0.0
 11
1153.954777059372
 21
309.9860911161454
 31
0.0
  0
LINE
  5
390
330
1F
100
AcDbEntity
  8
0-2_本体（蓋）
  6
Continuous
 62
     7
370
    13
100
AcDbLine
 10
1153.954777059372
 20
-590.0139088838548
 30
0.0
 11
1150.69154067846
 21
-565.2278618504934
 31
0.0
  0
LINE
  5
391
330
1F
100
AcDbEntity
  8
0-2_本体（蓋）
  6
Continuous
 62
     7
370
    13
100
AcDbLine
 10
1153.954777059372
 20
-590.0139088838548
 30
0.0
 11
1157.218013440284
 21
-565.2278618504934
 31
0.0
  0
LINE
  5
392
330
1F
100
AcDbEntity
  8
0-2_本体（蓋）
  6
Continuous
 62
     7
370
    13
100
AcDbLine
 10
1157.95662131085
 20
-590.0139088838548
 30
0.0
 11
1026.729352782556
 21
-590.0139088838548
 31
0.0
  0
LINE
  5
393
330
1F
100
AcDbEntity
  8
0-2_本体（蓋）
  6
Continuous
 62
     7
370
    13
100
AcDbLine
 10
1028.954826547336
 20
439.9860251321928
 30
0.0
 11
1256.954984908823
 21
439.9860251321928
 31
0.0
  0
LINE
  5
394
330
1F
100
AcDbEntity
  8
0-2_本体（蓋）
  6
Continuous
 62
     7
370
    13
100
AcDbLine
 10
1253.954777059372
 20
439.9860251321928
 30
0.0
 11
1250.691788118282
 21
415.1999780988314
 31
0.0
  0
LINE
  5
395
330
1F
100
AcDbEntity
  8
0-2_本体（蓋）
  6
Continuous
 62
     7
370
    13
100
AcDbLine
 10
1253.954777059372
 20
439.9860251321928
 30
0.0
 11
1257.218013440284
 21
415.1999780988314
 31
0.0
  0
LINE
  5
396
330
1F
100
AcDbEntity
  8
0-2_本体（蓋）
  6
Continuous
 62
     7
370
    13
100
AcDbLine
 10
1253.954777059372
 20
-720.0140903397246
 30
0.0
 11
1253.954777059372
 21
439.9860251321928
 31
0.0
  0
LINE
  5
397
330
1F
100
AcDbEntity
  8
0-2_本体（蓋）
  6
Continuous
 62
     7
370
    13
100
AcDbLine
 10
1028.954826547336
 20
-720.0140903397246
 30
0.0
 11
1256.954984908823
 21
-720.0140903397246
 31
0.0
  0
LINE
  5
398
330
1F
100
AcDbEntity
  8
0-2_本体（蓋）
  6
Continuous
 62
     7
370
    13
100
AcDbLine
 10
1253.954777059372
 20
-720.0140903397246
 30
0.0
 11
1250.691788118282
 21
-695.2279195864523
 31
0.0
  0
LINE
  5
399
330
1F
100
AcDbEntity
  8
0-2_本体（蓋）
  6
Continuous
 62
     7
370
    13
100
AcDbLine
 10
1253.954777059372
 20
-720.0140903397246
 30
0.0
 11
1257.218013440284
 21
-695.2279195864523
 31
0.0
  0
TEXT
  5
39A
330
1F
100
AcDbEntity
  8
0-2_本体（蓋）
  6
Continuous
 62
     2
370
    13
100
AcDbText
 10
146.3784800299478
 20
560.0101697335695
 30
0.0
 40
30.48
  1
キャップ：クロロプレン
 41
1.113636363636364
  7
ＭＳ ゴシック
100
AcDbText
  0
LINE
  5
39B
330
1F
100
AcDbEntity
  8
0-2_本体（蓋）
  6
Continuous
 62
     7
370
    13
100
AcDbLine
 10
142.4181396847198
 20
541.0559277572185
 30
0.0
 11
652.4799164232106
 21
541.0559277572185
 31
0.0
  0
LINE
  5
39C
330
1F
100
AcDbEntity
  8
0-4_寸法
  6
Continuous
 62
     7
370
    13
100
AcDbLine
 10
652.4799164232106
 20
541.0559277572185
 30
0.0
 11
797.954658288257
 21
284.9860086362054
 31
0.0
  0
LINE
  5
39D
330
1F
100
AcDbEntity
  8
0-4_寸法
  6
Continuous
 62
     7
370
    13
100
AcDbLine
 10
793.954669835449
 20
615.0707412516283
 30
0.0
 11
1013.954777059372
 21
615.0707412516283
 31
0.0
  0
LINE
  5
39E
330
1F
100
AcDbEntity
  8
0-4_寸法
  6
Continuous
 62
     7
370
    13
100
AcDbLine
 10
793.954669835449
 20
615.0707412516283
 30
0.0
 11
818.7407913697941
 21
618.3338960571297
 31
0.0
  0
LINE
  5
39F
330
1F
100
AcDbEntity
  8
0-4_寸法
  6
Continuous
 62
     7
370
    13
100
AcDbLine
 10
793.954669835449
 20
615.0707412516283
 30
0.0
 11
818.7407913697941
 21
611.807586446127
 31
0.0
  0
LINE
  5
3A0
330
1F
100
AcDbEntity
  8
0-4_寸法
  6
Continuous
 62
     7
370
    13
100
AcDbLine
 10
1013.954777059372
 20
615.0707412516283
 30
0.0
 11
989.1686555250266
 21
618.3338960571297
 31
0.0
  0
LINE
  5
3A1
330
1F
100
AcDbEntity
  8
0-4_寸法
  6
Continuous
 62
     7
370
    13
100
AcDbLine
 10
1013.954777059372
 20
615.0707412516283
 30
0.0
 11
989.1686555250266
 21
611.807586446127
 31
0.0
  0
LINE
  5
3A2
330
1F
100
AcDbEntity
  8
0-4_寸法
  6
Continuous
 62
     7
370
    13
100
AcDbLine
 10
793.954669835449
 20
618.0707412516284
 30
0.0
 11
793.954669835449
 21
421.9860729705584
 31
0.0
  0
LINE
  5
3A3
330
1F
100
AcDbEntity
  8
0-4_寸法
  6
Continuous
 62
     7
370
    13
100
AcDbLine
 10
1013.954777059372
 20
618.0707412516284
 30
0.0
 11
1013.954777059372
 21
508.9860383289835
 31
0.0
  0
TEXT
  5
3A4
330
1F
100
AcDbEntity
  8
0-4_寸法
  6
Continuous
 62
     2
370
   211
100
AcDbText
 10
871.4547234474104
 20
626.7107412516285
 30
0.0
 40
30.48
  1
110
 41
1.083333333333333
  7
ＭＳ ゴシック
100
AcDbText
  0
LINE
  5
3A5
330
1F
100
AcDbEntity
  8
0-4_寸法
  6
Continuous
 62
     7
370
    13
100
AcDbLine
 10
793.9546698354486
 20
-546.756495177516
 30
0.0
 11
1001.575328114216
 21
-546.756495177516
 31
0.0
  0
LINE
  5
3A6
330
1F
100
AcDbEntity
  8
0-4_寸法
  6
Continuous
 62
     7
370
    13
100
AcDbLine
 10
793.9546698354486
 20
-546.756495177516
 30
0.0
 11
818.7407913697939
 21
-543.4933403720146
 31
0.0
  0
LINE
  5
3A7
330
1F
100
AcDbEntity
  8
0-4_寸法
  6
Continuous
 62
     7
370
    13
100
AcDbLine
 10
793.9546698354486
 20
-546.756495177516
 30
0.0
 11
818.7407913697939
 21
-550.0196499830173
 31
0.0
  0
LINE
  5
3A8
330
1F
100
AcDbEntity
  8
0-4_寸法
  6
Continuous
 62
     7
370
    13
100
AcDbLine
 10
933.9546368434726
 20
-546.756495177516
 30
0.0
 11
909.1685153091273
 21
-543.4933403720146
 31
0.0
  0
LINE
  5
3A9
330
1F
100
AcDbEntity
  8
0-4_寸法
  6
Continuous
 62
     7
370
    13
100
AcDbLine
 10
933.9546368434726
 20
-546.756495177516
 30
0.0
 11
909.1685153091273
 21
-550.0196499830173
 31
0.0
  0
TEXT
  5
3AA
330
1F
100
AcDbEntity
  8
0-4_寸法
  6
Continuous
 62
     2
370
   211
100
AcDbText
 10
842.7046533394606
 20
-535.1164951775157
 30
0.0
 40
30.48
  1
70
 41
1.0625
  7
ＭＳ ゴシック
100
AcDbText
  0
LINE
  5
3AB
330
1F
100
AcDbEntity
  8
0-4_寸法
  6
Continuous
 62
     7
370
    13
100
AcDbLine
 10
949.9547143746166
 20
-546.756495177516
 30
0.0
 11
974.7408359089618
 21
-543.4933403720146
 31
0.0
  0
LINE
  5
3AC
330
1F
100
AcDbEntity
  8
0-4_寸法
  6
Continuous
 62
     7
370
    13
100
AcDbLine
 10
949.9547143746166
 20
-546.756495177516
 30
0.0
 11
974.7408359089618
 21
-550.0196499830173
 31
0.0
  0
LINE
  5
3AD
330
1F
100
AcDbEntity
  8
0-4_寸法
  6
Continuous
 62
     7
370
    13
100
AcDbLine
 10
933.9546182993295
 20
-546.756495177516
 30
0.0
 11
909.1684967649842
 21
-543.4933403720146
 31
0.0
  0
LINE
  5
3AE
330
1F
100
AcDbEntity
  8
0-4_寸法
  6
Continuous
 62
     7
370
    13
100
AcDbLine
 10
933.9546182993295
 20
-546.756495177516
 30
0.0
 11
909.1684967649842
 21
-550.0196499830173
 31
0.0
  0
TEXT
  5
3AF
330
1F
100
AcDbEntity
  8
0-4_寸法
  6
Continuous
 62
     2
370
   211
100
AcDbText
 10
977.3643450634706
 20
-535.1164951775157
 30
0.0
 40
30.48
  1
8
 41
0.9999999999999998
  7
ＭＳ ゴシック
100
AcDbText
  0
LINE
  5
3B0
330
1F
100
AcDbEntity
  8
0-4_寸法
  6
Continuous
 62
     7
370
    13
100
AcDbLine
 10
953.954702827425
 20
66.87721101857392
 30
0.0
 11
978.7408243617701
 21
70.14036582407527
 31
0.0
  0
LINE
  5
3B1
330
1F
100
AcDbEntity
  8
0-4_寸法
  6
Continuous
 62
     7
370
    13
100
AcDbLine
 10
953.954702827425
 20
66.87721101857392
 30
0.0
 11
978.7408243617701
 21
63.61405621307313
 31
0.0
  0
LINE
  5
3B2
330
1F
100
AcDbEntity
  8
0-4_寸法
  6
Continuous
 62
     7
370
    13
100
AcDbLine
 10
933.9546368434726
 20
66.87721101857392
 30
0.0
 11
909.1685153091273
 21
70.14036582407527
 31
0.0
  0
LINE
  5
3B3
330
1F
100
AcDbEntity
  8
0-4_寸法
  6
Continuous
 62
     7
370
    13
100
AcDbLine
 10
933.9546368434726
 20
66.87721101857392
 30
0.0
 11
909.1685153091273
 21
63.61405621307313
 31
0.0
  0
TEXT
  5
3B4
330
1F
100
AcDbEntity
  8
0-4_寸法
  6
Continuous
 62
     2
370
   211
100
AcDbText
 10
876.9751296995075
 20
78.51721101857414
 30
0.0
 40
30.48
  1
10
 41
1.0625
  7
ＭＳ ゴシック
100
AcDbText
  0
LINE
  5
3B5
330
1F
100
AcDbEntity
  8
0-4_寸法
  6
Continuous
 62
     7
370
    13
100
AcDbLine
 10
985.7104669747007
 20
66.87721101857392
 30
0.0
 11
875.9866266333694
 21
66.87721101857392
 31
0.0
  0
LINE
  5
3B6
330
1F
100
AcDbEntity
  8
0-4_寸法
  6
Continuous
 62
     7
370
    13
100
AcDbLine
 10
589.8706231226242
 20
734.0927423952803
 30
0.0
 11
793.954669835449
 21
374.8565982670971
 31
0.0
  0
LINE
  5
3B7
330
1F
100
AcDbEntity
  8
0-4_寸法
  6
Continuous
 62
     7
370
    13
100
AcDbLine
 10
1112.536912996123
 20
733.4979196147987
 30
0.0
 11
912.6785826411516
 21
406.1002966095987
 31
0.0
  0
LINE
  5
3B8
330
1F
100
AcDbEntity
  8
0-2_本体（蓋）
  6
Continuous
 62
     7
370
    13
100
AcDbLine
 10
1444.631342630836
 20
733.4979196147987
 30
0.0
 11
1112.536912996123
 21
733.4979196147987
 31
0.0
  0
TEXT
  5
3B9
330
1F
100
AcDbEntity
  8
0-2_本体（蓋）
  6
Continuous
 62
     2
370
    13
100
AcDbText
 10
1168.584004093568
 20
690.9740055786924
 30
0.0
 40
30.48
  1
樹脂系塗装
 41
1.1
  7
ＭＳ ゴシック
100
AcDbText
  0
TEXT
  5
3BA
330
1F
100
AcDbEntity
  8
0-2_本体（蓋）
  6
Continuous
 62
     2
370
    13
100
AcDbText
 10
1125.724977158918
 20
752.4521615911497
 30
0.0
 40
30.48
  1
枠：ＦＣ２００
 41
1.107142857142857
  7
ＭＳ ゴシック
100
AcDbText
  0
LINE
  5
3BB
330
1F
100
AcDbEntity
  8
0-4_寸法
  6
Continuous
 62
     7
370
    13
100
AcDbLine
 10
793.954669835449
 20
374.8565982670971
 30
0.0
 11
778.8739549653058
 21
394.7959177745929
 31
0.0
  0
LINE
  5
3BC
330
1F
100
AcDbEntity
  8
0-4_寸法
  6
Continuous
 62
     7
370
    13
100
AcDbLine
 10
793.954669835449
 20
374.8565982670971
 30
0.0
 11
784.5484924177969
 21
398.0195637838835
 31
0.0
  0
LINE
  5
3BD
330
1F
100
AcDbEntity
  8
0-4_寸法
  6
Continuous
 62
     7
370
    13
100
AcDbLine
 10
797.954658288257
 20
284.9860086362054
 30
0.0
 11
782.8740593693391
 21
304.9253049188411
 31
0.0
  0
LINE
  5
3BE
330
1F
100
AcDbEntity
  8
0-4_寸法
  6
Continuous
 62
     7
370
    13
100
AcDbLine
 10
797.954658288257
 20
284.9860086362054
 30
0.0
 11
788.5485879404553
 21
308.1490360854013
 31
0.0
  0
LINE
  5
3BF
330
1F
100
AcDbEntity
  8
0-4_寸法
  6
Continuous
 62
     7
370
    13
100
AcDbLine
 10
912.6785826411514
 20
406.1002966095981
 30
0.0
 11
922.807779220543
 21
428.9563130264054
 31
0.0
  0
LINE
  5
3C0
330
1F
100
AcDbEntity
  8
0-4_寸法
  6
Continuous
 62
     7
370
    13
100
AcDbLine
 10
912.6785826411514
 20
406.1002966095981
 30
0.0
 11
928.378144507705
 21
425.5558712638418
 31
0.0
  0
LINE
  5
3C1
330
1F
100
AcDbEntity
  8
0-0_通り芯
  6
Continuous
 62
     3
370
    13
100
AcDbLine
 10
-1108.044987671663
 20
-600.0782450051662
 30
0.0
 11
-1108.044987671663
 21
63.41530800970943
 31
0.0
  0
LINE
  5
3C2
330
1F
100
AcDbEntity
  8
0-0_通り芯
  6
Continuous
 62
     3
370
    13
100
AcDbLine
 10
-1108.044987671663
 20
79.82916512968316
 30
0.0
 11
-1108.044987671663
 21
145.8802384809354
 31
0.0
  0
LINE
  5
3C3
330
1F
100
AcDbEntity
  8
0-0_通り芯
  6
Continuous
 62
     3
370
    13
100
AcDbLine
 10
-921.8755635041929
 20
332.0496626484061
 30
0.0
 11
-850.0337639372415
 21
332.0496626484061
 31
0.0
  0
LINE
  5
3C4
330
1F
100
AcDbEntity
  8
0-0_通り芯
  6
Continuous
 62
     3
370
    13
100
AcDbLine
 10
-834.1343274134961
 20
332.0496626484061
 30
0.0
 11
-350.0867456161318
 21
332.0496626484061
 31
0.0
  0
LINE
  5
3C5
330
1F
100
AcDbEntity
  8
0-2_本体（蓋）
  6
Continuous
 62
     7
370
    13
100
AcDbLine
 10
589.8706231226242
 20
734.0927423952803
 30
0.0
 11
257.7761934879112
 21
734.0927423952803
 31
0.0
  0
TEXT
  5
3C6
330
1F
100
AcDbEntity
  8
0-2_本体（蓋）
  6
Continuous
 62
     2
370
    13
100
AcDbText
 10
313.823284585356
 20
691.5688283591741
 30
0.0
 40
30.48
  1
樹脂系塗装
 41
1.1
  7
ＭＳ ゴシック
100
AcDbText
  0
TEXT
  5
3C7
330
1F
100
AcDbEntity
  8
0-2_本体（蓋）
  6
Continuous
 62
     2
370
    13
100
AcDbText
 10
270.9642576507065
 20
753.0469843716313
 30
0.0
 40
30.48
  1
蓋：ＦＣ２００
 41
1.107142857142857
  7
ＭＳ ゴシック
100
AcDbText
  0
LINE
  5
3C8
330
1F
100
AcDbEntity
  8
0-0_通り芯
  6
Continuous
 62
     3
370
    13
100
AcDbLine
 10
969.9545971352724
 20
127.4507814534553
 30
0.0
 11
969.9545971352724
 21
78.07907882608305
 31
0.0
  0
LINE
  5
3C9
330
1F
100
AcDbEntity
  8
0-0_通り芯
  6
Continuous
 62
     3
370
    13
100
AcDbLine
 10
969.9545971352724
 20
57.12358222170346
 30
0.0
 11
969.9545971352724
 21
-407.4791223796461
 31
0.0
  0
LINE
  5
3CA
330
1F
100
AcDbEntity
  8
0-1_ピット
  6
JWW_DASHED3
 62
     2
370
    13
100
AcDbLine
 10
982.9898854710065
 20
-578.5526035233175
 30
0.0
 11
980.0087113970143
 21
-561.6721915424492
 31
0.0
  0
LINE
  5
3CB
330
1F
100
AcDbEntity
  8
0-1_ピット
  6
JWW_DASHED3
 62
     2
370
    13
100
AcDbLine
 10
970.3416330055361
 20
-506.9339367980771
 30
0.0
 11
829.9544410125271
 21
287.9856414826389
 31
0.0
  0
LINE
  5
3CC
330
1F
100
AcDbEntity
  8
0-1_ピット
  6
JWW_DASHED1
 62
     2
370
    13
100
AcDbLine
 10
1013.954702827425
 20
430.9858611149394
 30
0.0
 11
987.9544827238117
 21
428.986149087761
 31
0.0
  0
LINE
  5
3CD
330
1F
100
AcDbEntity
  8
0-1_ピット
  6
JWW_DASHED1
 62
     2
370
    13
100
AcDbLine
 10
1013.954702827425
 20
-711.0142020411303
 30
0.0
 11
987.9544827238117
 21
-709.0144900139518
 31
0.0
  0
LINE
  5
3CE
330
1F
100
AcDbEntity
  8
0-1_ピット
  6
JWW_DASHED1
 62
     2
370
    13
100
AcDbLine
 10
1013.954702827425
 20
-741.0143416678869
 30
0.0
 11
987.9544827238117
 21
-743.0140536950643
 31
0.0
  0
TEXT
  5
3CF
330
1F
100
AcDbEntity
  8
0-2_本体（蓋）
  6
Continuous
 62
     2
370
    13
100
AcDbText
 10
1143.314760563384
 20
-195.0139088838546
 30
0.0
 40
30.48
  1
□450
 50
90.0
 41
1.1
  7
ＭＳ ゴシック
100
AcDbText
  0
TEXT
  5
3D0
330
1F
100
AcDbEntity
  8
0-2_本体（蓋）
  6
Continuous
 62
     2
370
    13
100
AcDbText
 10
1243.315008003206
 20
-195.0139088838546
 30
0.0
 40
30.48
  1
□580
 50
90.0
 41
1.1
  7
ＭＳ ゴシック
100
AcDbText
  0
TEXT
  5
3D1
330
1F
100
AcDbEntity
  8
0-2_本体（蓋）
  6
Continuous
 62
     2
370
    13
100
AcDbText
 10
643.3149007792837
 20
-195.0139088838546
 30
0.0
 40
30.48
  1
□525
 50
90.0
 41
1.1
  7
ＭＳ ゴシック
100
AcDbText
  0
TEXT
  5
3D2
330
1F
100
AcDbEntity
  8
0-2_本体（蓋）
  6
Continuous
 62
     2
370
    13
100
AcDbText
 10
543.3149007792832
 20
-195.0139088838546
 30
0.0
 40
30.48
  1
□545
 50
90.0
 41
1.1
  7
ＭＳ ゴシック
100
AcDbText
  0
TEXT
  5
3D3
330
1F
100
AcDbEntity
  8
F-5ﾚｲﾔ
  6
Continuous
 62
     7
370
    13
100
AcDbText
 10
-806.8619515624999
 20
-1365.204005208993
 30
0.0
 40
22.86
  1
一般型　充填深さ70mm　カラー舗装用鉄蓋　　ＭＲＨ－６－４５５５
 41
1.161290322580645
  7
ＭＳ ゴシック
100
AcDbText
  0
ENDSEC
  0
SECTION
  2
OBJECTS
  0
DICTIONARY
  5
C
330
0
100
AcDbDictionary
281
     1
  3
ACAD_GROUP
350
D
  3
ACAD_LAYOUT
350
1A
  3
ACAD_MLEADERSTYLE
350
3D5
  3
ACAD_MLINESTYLE
350
17
  3
ACAD_PLOTSETTINGS
350
19
  3
ACAD_PLOTSTYLENAME
350
E
  3
ACAD_TABLESTYLE
350
3D4
  3
ACAD_VISUALSTYLE
350
2A
  0
DICTIONARY
  5
D
102
{ACAD_REACTORS
330
C
102
}
330
C
100
AcDbDictionary
281
     1
  0
DICTIONARY
  5
1A
102
{ACAD_REACTORS
330
C
102
}
330
C
100
AcDbDictionary
281
     1
  3
Layout1
350
1E
  3
Layout2
350
26
  3
Model
350
22
  0
DICTIONARY
  5
3D5
102
{ACAD_REACTORS
330
C
102
}
330
C
100
AcDbDictionary
281
     1
  0
DICTIONARY
  5
17
102
{ACAD_REACTORS
330
C
102
}
330
C
100
AcDbDictionary
281
     1
  3
Standard
350
18
  0
DICTIONARY
  5
19
102
{ACAD_REACTORS
330
C
102
}
330
C
100
AcDbDictionary
281
     1
  0
ACDBDICTIONARYWDFLT
  5
E
102
{ACAD_REACTORS
330
C
102
}
330
C
100
AcDbDictionary
281
     1
  3
Normal
350
F
100
AcDbDictionaryWithDefault
340
F
  0
DICTIONARY
  5
3D4
102
{ACAD_REACTORS
330
C
102
}
330
C
100
AcDbDictionary
281
     1
  0
DICTIONARY
  5
2A
102
{ACAD_REACTORS
330
C
102
}
330
C
100
AcDbDictionary
281
     1
  3
2dWireframe
350
2F
  3
3D Hidden
350
31
  3
3dWireframe
350
30
  3
Basic
350
32
  3
Brighten
350
36
  3
ColorChange
350
3A
  3
Conceptual
350
34
  3
Dim
350
35
  3
Facepattern
350
39
  3
Flat
350
2B
  3
FlatWithEdges
350
2C
  3
Gouraud
350
2D
  3
GouraudWithEdges
350
2E
  3
Linepattern
350
38
  3
Realistic
350
33
  3
Thicken
350
37
  0
LAYOUT
  5
1E
102
{ACAD_REACTORS
330
1A
102
}
330
1A
100
AcDbPlotSettings
  1

  2
none_device
  4

  6

 40
0.0
 41
0.0
 42
0.0
 43
0.0
 44
0.0
 45
0.0
 46
0.0
 47
0.0
 48
0.0
 49
0.0
140
0.0
141
0.0
142
1.0
143
1.0
 70
   688
 72
     0
 73
     0
 74
     5
  7

 75
    16
 76
     0
 77
     5
 78
   300
147
1.0
148
0.0
149
0.0
100
AcDbLayout
  1
Layout1
 70
     1
 71
     1
 10
0.0
 20
0.0
 11
420.0
 21
297.0
 12
0.0
 22
0.0
 32
0.0
 14
1.000000000000000E+20
 24
1.000000000000000E+20
 34
1.000000000000000E+20
 15
-1.000000000000000E+20
 25
-1.000000000000000E+20
 35
-1.000000000000000E+20
146
0.0
 13
0.0
 23
0.0
 33
0.0
 16
1.0
 26
0.0
 36
0.0
 17
0.0
 27
1.0
 37
0.0
 76
     0
330
1B
  0
LAYOUT
  5
26
102
{ACAD_REACTORS
330
1A
102
}
330
1A
100
AcDbPlotSettings
  1

  2
none_device
  4

  6

 40
0.0
 41
0.0
 42
0.0
 43
0.0
 44
0.0
 45
0.0
 46
0.0
 47
0.0
 48
0.0
 49
0.0
140
0.0
141
0.0
142
1.0
143
1.0
 70
   688
 72
     0
 73
     0
 74
     5
  7

 75
    16
 76
     0
 77
     5
 78
   300
147
1.0
148
0.0
149
0.0
100
AcDbLayout
  1
Layout2
 70
     1
 71
     2
 10
0.0
 20
0.0
 11
0.0
 21
0.0
 12
0.0
 22
0.0
 32
0.0
 14
0.0
 24
0.0
 34
0.0
 15
0.0
 25
0.0
 35
0.0
146
0.0
 13
0.0
 23
0.0
 33
0.0
 16
1.0
 26
0.0
 36
0.0
 17
0.0
 27
1.0
 37
0.0
 76
     0
330
23
  0
LAYOUT
  5
22
102
{ACAD_REACTORS
330
1A
102
}
330
1A
100
AcDbPlotSettings
  1

  2
none_device
  4

  6

 40
0.0
 41
0.0
 42
0.0
 43
0.0
 44
0.0
 45
0.0
 46
0.0
 47
0.0
 48
0.0
 49
0.0
140
0.0
141
0.0
142
1.0
143
1.0
 70
  1712
 72
     0
 73
     0
 74
     0
  7

 75
     0
 76
     0
 77
     5
 78
   300
147
1.0
148
0.0
149
0.0
100
AcDbLayout
  1
Model
 70
     1
 71
     0
 10
-2100.0
 20
-1485.0
 11
2100.0
 21
1485.0
 12
0.0
 22
0.0
 32
0.0
 14
-2100.0
 24
-1485.0
 34
0.0
 15
2100.0
 25
1485.0
 35
0.0
146
0.0
 13
0.0
 23
0.0
 33
0.0
 16
1.0
 26
0.0
 36
0.0
 17
0.0
 27
1.0
 37
0.0
 76
     0
330
1F
331
29
  0
MLINESTYLE
  5
18
102
{ACAD_REACTORS
330
17
102
}
330
17
100
AcDbMlineStyle
  2
Standard
 70
     0
  3

 62
   256
 51
90.0
 52
90.0
 71
     2
 49
0.5
 62
   256
  6
BYLAYER
 49
-0.5
 62
   256
  6
BYLAYER
  0
ACDBPLACEHOLDER
  5
F
102
{ACAD_REACTORS
330
E
102
}
330
E
  0
VISUALSTYLE
  5
2F
102
{ACAD_REACTORS
330
2A
102
}
330
2A
100
AcDbVisualStyle
  2
2dWireframe
 70
     4
 71
     0
 72
     2
 73
     0
 90
        0
 40
-0.6
 41
-30.0
 62
     5
 63
     7
421
 16777215
 74
     1
 91
        4
 64
     7
 65
   257
 75
     1
175
     1
 42
1.0
 92
        0
 66
   257
 43
1.0
 76
     1
 77
     6
 78
     2
 67
     7
 79
     5
170
     0
171
     0
290
     0
174
     0
 93
        1
 44
0.0
173
     0
291
     0
 45
0.0
1001
ACAD
1000
AcDbSavedByObjectVersion
1070
     0
  0
VISUALSTYLE
  5
31
102
{ACAD_REACTORS
330
2A
102
}
330
2A
100
AcDbVisualStyle
  2
3D Hidden
 70
     6
 71
     1
 72
     2
 73
     2
 90
        0
 40
-0.6
 41
-30.0
 62
     5
 63
     7
421
 16777215
 74
     2
 91
        2
 64
     7
 65
   257
 75
     2
175
     1
 42
40.0
 92
        0
 66
   257
 43
1.0
 76
     1
 77
     6
 78
     2
 67
     7
 79
     3
170
     0
171
     0
290
     0
174
     0
 93
        1
 44
0.0
173
     0
291
     0
 45
0.0
1001
ACAD
1000
AcDbSavedByObjectVersion
1070
     0
  0
VISUALSTYLE
  5
30
102
{ACAD_REACTORS
330
2A
102
}
330
2A
100
AcDbVisualStyle
  2
3dWireframe
 70
     5
 71
     0
 72
     2
 73
     0
 90
        0
 40
-0.6
 41
-30.0
 62
     5
 63
     7
421
 16777215
 74
     1
 91
        4
 64
     7
 65
   257
 75
     1
175
     1
 42
1.0
 92
        0
 66
   257
 43
1.0
 76
     1
 77
     6
 78
     2
 67
     7
 79
     5
170
     0
171
     0
290
     0
174
     0
 93
        1
 44
0.0
173
     0
291
     0
 45
0.0
1001
ACAD
1000
AcDbSavedByObjectVersion
1070
     0
  0
VISUALSTYLE
  5
32
102
{ACAD_REACTORS
330
2A
102
}
330
2A
100
AcDbVisualStyle
  2
Basic
 70
     7
 71
     1
 72
     0
 73
     1
 90
        0
 40
-0.6
 41
-30.0
 62
     5
 63
     7
421
 16777215
 74
     0
 91
        4
 64
     7
 65
   257
 75
     1
175
     1
 42
1.0
 92
        8
 66
     7
 43
1.0
 76
     1
 77
     6
 78
     2
 67
     7
 79
     5
170
     0
171
     0
290
     0
174
     0
 93
        1
 44
0.0
173
     0
291
     1
 45
0.0
1001
ACAD
1000
AcDbSavedByObjectVersion
1070
     0
  0
VISUALSTYLE
  5
36
102
{ACAD_REACTORS
330
2A
102
}
330
2A
100
AcDbVisualStyle
  2
Brighten
 70
    12
 71
     2
 72
     2
 73
     0
 90
        0
 40
-0.6
 41
-30.0
 62
     5
 63
     7
421
 16777215
 74
     1
 91
        4
 64
     7
 65
   257
 75
     1
175
     1
 42
1.0
 92
        8
 66
     7
 43
1.0
 76
     1
 77
     6
 78
     2
 67
     7
 79
     5
170
     0
171
     0
290
     0
174
     0
 93
        1
 44
50.0
173
     0
291
     1
 45
0.0
1001
ACAD
1000
AcDbSavedByObjectVersion
1070
     0
  0
VISUALSTYLE
  5
3A
102
{ACAD_REACTORS
330
2A
102
}
330
2A
100
AcDbVisualStyle
  2
ColorChange
 70
    16
 71
     2
 72
     2
 73
     3
 90
        0
 40
-0.6
 41
-30.0
 62
     5
 63
     8
421
  8421504
 74
     1
 91
        4
 64
     7
 65
   257
 75
     1
175
     1
 42
1.0
 92
        8
 66
     8
424
  8421504
 43
1.0
 76
     1
 77
     6
 78
     2
 67
     7
 79
     5
170
     0
171
     0
290
     0
174
     0
 93
        1
 44
0.0
173
     0
291
     1
 45
0.0
1001
ACAD
1000
AcDbSavedByObjectVersion
1070
     0
  0
VISUALSTYLE
  5
34
102
{ACAD_REACTORS
330
2A
102
}
330
2A
100
AcDbVisualStyle
  2
Conceptual
 70
     9
 71
     3
 72
     2
 73
     0
 90
        0
 40
-0.6
 41
-30.0
 62
     5
 63
     7
421
 16777215
 74
     2
 91
        2
 64
     7
 65
   257
 75
     1
175
     1
 42
40.0
 92
        8
 66
     7
 43
1.0
 76
     1
 77
     6
 78
     2
 67
     7
 79
     3
170
     0
171
     0
290
     0
174
     0
 93
        1
 44
0.0
173
     0
291
     0
 45
0.0
1001
ACAD
1000
AcDbSavedByObjectVersion
1070
     0
  0
VISUALSTYLE
  5
35
102
{ACAD_REACTORS
330
2A
102
}
330
2A
100
AcDbVisualStyle
  2
Dim
 70
    11
 71
     2
 72
     2
 73
     0
 90
        0
 40
-0.6
 41
-30.0
 62
     5
 63
     7
421
 16777215
 74
     1
 91
        4
 64
     7
 65
   257
 75
     1
175
     1
 42
1.0
 92
        8
 66
     7
 43
1.0
 76
     1
 77
     6
 78
     2
 67
     7
 79
     5
170
     0
171
     0
290
     0
174
     0
 93
        1
 44
-50.0
173
     0
291
     1
 45
0.0
1001
ACAD
1000
AcDbSavedByObjectVersion
1070
     0
  0
VISUALSTYLE
  5
39
102
{ACAD_REACTORS
330
2A
102
}
330
2A
100
AcDbVisualStyle
  2
Facepattern
 70
    15
 71
     2
 72
     2
 73
     0
 90
        0
 40
-0.6
 41
-30.0
 62
     5
 63
     7
421
 16777215
 74
     1
 91
        4
 64
     7
 65
   257
 75
     1
175
     1
 42
1.0
 92
        8
 66
     7
 43
1.0
 76
     1
 77
     6
 78
     2
 67
     7
 79
     5
170
     0
171
     0
290
     0
174
     0
 93
        1
 44
0.0
173
     0
291
     1
 45
0.0
1001
ACAD
1000
AcDbSavedByObjectVersion
1070
     0
  0
VISUALSTYLE
  5
2B
102
{ACAD_REACTORS
330
2A
102
}
330
2A
100
AcDbVisualStyle
  2
Flat
 70
     0
 71
     2
 72
     1
 73
     1
 90
        2
 40
-0.6
 41
30.0
 62
     5
 63
     7
421
 16777215
 74
     0
 91
        4
 64
     7
 65
   257
 75
     1
175
     1
 42
1.0
 92
        8
 66
     7
 43
1.0
 76
     1
 77
     6
 78
     2
 67
     7
 79
     5
170
     0
171
     0
290
     0
174
     0
 93
       13
 44
0.0
173
     0
291
     1
 45
0.0
1001
ACAD
1000
AcDbSavedByObjectVersion
1070
     0
  0
VISUALSTYLE
  5
2C
102
{ACAD_REACTORS
330
2A
102
}
330
2A
100
AcDbVisualStyle
  2
FlatWithEdges
 70
     1
 71
     2
 72
     1
 73
     1
 90
        2
 40
-0.6
 41
30.0
 62
     5
 63
     7
421
 16777215
 74
     1
 91
        4
 64
     7
 65
   257
 75
     1
175
     1
 42
1.0
 92
        0
 66
   257
 43
1.0
 76
     1
 77
     6
 78
     2
 67
     7
 79
     5
170
     0
171
     0
290
     0
174
     0
 93
       13
 44
0.0
173
     0
291
     1
 45
0.0
1001
ACAD
1000
AcDbSavedByObjectVersion
1070
     0
  0
VISUALSTYLE
  5
2D
102
{ACAD_REACTORS
330
2A
102
}
330
2A
100
AcDbVisualStyle
  2
Gouraud
 70
     2
 71
     2
 72
     2
 73
     1
 90
        2
 40
-0.6
 41
30.0
 62
     5
 63
     7
421
 16777215
 74
     0
 91
        4
 64
     7
 65
   257
 75
     1
175
     1
 42
1.0
 92
        0
 66
     7
 43
1.0
 76
     1
 77
     6
 78
     2
 67
     7
 79
     5
170
     0
171
     0
290
     0
174
     0
 93
       13
 44
0.0
173
     0
291
     1
 45
0.0
1001
ACAD
1000
AcDbSavedByObjectVersion
1070
     0
  0
VISUALSTYLE
  5
2E
102
{ACAD_REACTORS
330
2A
102
}
330
2A
100
AcDbVisualStyle
  2
GouraudWithEdges
 70
     3
 71
     2
 72
     2
 73
     1
 90
        2
 40
-0.6
 41
30.0
 62
     5
 63
     7
421
 16777215
 74
     1
 91
        4
 64
     7
 65
   257
 75
     1
175
     1
 42
1.0
 92
        0
 66
   257
 43
1.0
 76
     1
 77
     6
 78
     2
 67
     7
 79
     5
170
     0
171
     0
290
     0
174
     0
 93
       13
 44
0.0
173
     0
291
     1
 45
0.0
1001
ACAD
1000
AcDbSavedByObjectVersion
1070
     0
  0
VISUALSTYLE
  5
38
102
{ACAD_REACTORS
330
2A
102
}
330
2A
100
AcDbVisualStyle
  2
Linepattern
 70
    14
 71
     2
 72
     2
 73
     0
 90
        0
 40
-0.6
 41
-30.0
 62
     5
 63
     7
421
 16777215
 74
     1
 91
        4
 64
     7
 65
   257
 75
     7
175
     7
 42
1.0
 92
        8
 66
     7
 43
1.0
 76
     1
 77
     6
 78
     2
 67
     7
 79
     5
170
     0
171
     0
290
     0
174
     0
 93
        1
 44
0.0
173
     0
291
     1
 45
0.0
1001
ACAD
1000
AcDbSavedByObjectVersion
1070
     0
  0
VISUALSTYLE
  5
33
102
{ACAD_REACTORS
330
2A
102
}
330
2A
100
AcDbVisualStyle
  2
Realistic
 70
     8
 71
     2
 72
     2
 73
     0
 90
        0
 40
-0.6
 41
-30.0
 62
     5
 63
     7
421
 16777215
 74
     1
 91
        0
 64
     7
 65
   257
 75
     1
175
     1
 42
1.0
 92
        8
 66
     8
424
  7895160
 43
1.0
 76
     1
 77
     6
 78
     2
 67
     7
 79
     5
170
     0
171
     0
290
     0
174
     0
 93
       13
 44
0.0
173
     0
291
     0
 45
0.0
1001
ACAD
1000
AcDbSavedByObjectVersion
1070
     0
  0
VISUALSTYLE
  5
37
102
{ACAD_REACTORS
330
2A
102
}
330
2A
100
AcDbVisualStyle
  2
Thicken
 70
    13
 71
     2
 72
     2
 73
     0
 90
        0
 40
-0.6
 41
-30.0
 62
     5
 63
     7
421
 16777215
 74
     1
 91
        4
 64
     7
 65
   257
 75
     1
175
     1
 42
1.0
 92
       12
 66
     7
 43
1.0
 76
     1
 77
     6
 78
     2
 67
     7
 79
     5
170
     0
171
     0
290
     0
174
     0
 93
        1
 44
0.0
173
     0
291
     1
 45
0.0
1001
ACAD
1000
AcDbSavedByObjectVersion
1070
     0
  0
ENDSEC
  0
EOF
