  0
SECTION
  2
HEADER
  9
$ACADVER
  1
AC1018
  9
$ACADMAINTVER
 70
     0
  9
$DWGCODEPAGE
  3
ANSI_932
  9
$INSBASE
 10
0.0
 20
0.0
 30
0.0
  9
$EXTMIN
 10
-2100.0
 20
-1485.0
 30
0.0
  9
$EXTMAX
 10
2100.0
 20
1485.0
 30
0.0
  9
$LIMMIN
 10
-2100.0
 20
-1485.0
  9
$LIMMAX
 10
2100.0
 20
1485.0
  9
$ORTHOMODE
 70
     0
  9
$REGENMODE
 70
     1
  9
$FILLMODE
 70
     1
  9
$QTEXTMODE
 70
     0
  9
$MIRRTEXT
 70
     1
  9
$LTSCALE
 40
10.0
  9
$ATTMODE
 70
     1
  9
$TEXTSIZE
 40
2.5
  9
$TRACEWID
 40
1.0
  9
$TEXTSTYLE
  7
Standard
  9
$CLAYER
  8
0
  9
$CELTYPE
  6
ByLayer
  9
$CECOLOR
 62
   256
  9
$CELTSCALE
 40
1.0
  9
$DISPSILH
 70
     0
  9
$DIMSCALE
 40
1.0
  9
$DIMASZ
 40
2.5
  9
$DIMEXO
 40
0.625
  9
$DIMDLI
 40
3.75
  9
$DIMRND
 40
0.0
  9
$DIMDLE
 40
0.0
  9
$DIMEXE
 40
1.25
  9
$DIMTP
 40
0.0
  9
$DIMTM
 40
0.0
  9
$DIMTXT
 40
2.5
  9
$DIMCEN
 40
2.5
  9
$DIMTSZ
 40
0.0
  9
$DIMTOL
 70
     0
  9
$DIMLIM
 70
     0
  9
$DIMTIH
 70
     0
  9
$DIMTOH
 70
     0
  9
$DIMSE1
 70
     0
  9
$DIMSE2
 70
     0
  9
$DIMTAD
 70
     1
  9
$DIMZIN
 70
     8
  9
$DIMBLK
  1

  9
$DIMASO
 70
     1
  9
$DIMSHO
 70
     1
  9
$DIMPOST
  1

  9
$DIMAPOST
  1

  9
$DIMALT
 70
     0
  9
$DIMALTD
 70
     3
  9
$DIMALTF
 40
0.03937007874016
  9
$DIMLFAC
 40
1.0
  9
$DIMTOFL
 70
     1
  9
$DIMTVP
 40
0.0
  9
$DIMTIX
 70
     0
  9
$DIMSOXD
 70
     0
  9
$DIMSAH
 70
     0
  9
$DIMBLK1
  1

  9
$DIMBLK2
  1

  9
$DIMSTYLE
  2
ISO-25
  9
$DIMCLRD
 70
     0
  9
$DIMCLRE
 70
     0
  9
$DIMCLRT
 70
     0
  9
$DIMTFAC
 40
1.0
  9
$DIMGAP
 40
0.625
  9
$DIMJUST
 70
     0
  9
$DIMSD1
 70
     0
  9
$DIMSD2
 70
     0
  9
$DIMTOLJ
 70
     0
  9
$DIMTZIN
 70
     8
  9
$DIMALTZ
 70
     0
  9
$DIMALTTZ
 70
     0
  9
$DIMUPT
 70
     0
  9
$DIMDEC
 70
     2
  9
$DIMTDEC
 70
     2
  9
$DIMALTU
 70
     2
  9
$DIMALTTD
 70
     3
  9
$DIMTXSTY
  7
Standard
  9
$DIMAUNIT
 70
     0
  9
$DIMADEC
 70
     0
  9
$DIMALTRND
 40
0.0
  9
$DIMAZIN
 70
     0
  9
$DIMDSEP
 70
    44
  9
$DIMATFIT
 70
     3
  9
$DIMFRAC
 70
     0
  9
$DIMLDRBLK
  1

  9
$DIMLUNIT
 70
     2
  9
$DIMLWD
 70
    -2
  9
$DIMLWE
 70
    -2
  9
$DIMTMOVE
 70
     0
  9
$LUNITS
 70
     2
  9
$LUPREC
 70
     4
  9
$SKETCHINC
 40
1.0
  9
$FILLETRAD
 40
10.0
  9
$AUNITS
 70
     0
  9
$AUPREC
 70
     0
  9
$MENU
  1
.
  9
$ELEVATION
 40
0.0
  9
$PELEVATION
 40
0.0
  9
$THICKNESS
 40
0.0
  9
$LIMCHECK
 70
     0
  9
$CHAMFERA
 40
10.0
  9
$CHAMFERB
 40
10.0
  9
$CHAMFERC
 40
20.0
  9
$CHAMFERD
 40
0.0
  9
$SKPOLY
 70
     0
  9
$TDCREATE
 40
2456498.829633414
  9
$TDUCREATE
 40
2456498.454633414
  9
$TDUPDATE
 40
2456498.829633426
  9
$TDUUPDATE
 40
2456498.454633426
  9
$TDINDWG
 40
0.0000000116
  9
$TDUSRTIMER
 40
0.0000000116
  9
$USRTIMER
 70
     1
  9
$ANGBASE
 50
0.0
  9
$ANGDIR
 70
     0
  9
$PDMODE
 70
     0
  9
$PDSIZE
 40
0.0
  9
$PLINEWID
 40
0.0
  9
$SPLFRAME
 70
     0
  9
$SPLINETYPE
 70
     6
  9
$SPLINESEGS
 70
     8
  9
$HANDSEED
  5
477
  9
$SURFTAB1
 70
     6
  9
$SURFTAB2
 70
     6
  9
$SURFTYPE
 70
     6
  9
$SURFU
 70
     6
  9
$SURFV
 70
     6
  9
$UCSBASE
  2

  9
$UCSNAME
  2

  9
$UCSORG
 10
0.0
 20
0.0
 30
0.0
  9
$UCSXDIR
 10
1.0
 20
0.0
 30
0.0
  9
$UCSYDIR
 10
0.0
 20
1.0
 30
0.0
  9
$UCSORTHOREF
  2

  9
$UCSORTHOVIEW
 70
     0
  9
$UCSORGTOP
 10
0.0
 20
0.0
 30
0.0
  9
$UCSORGBOTTOM
 10
0.0
 20
0.0
 30
0.0
  9
$UCSORGLEFT
 10
0.0
 20
0.0
 30
0.0
  9
$UCSORGRIGHT
 10
0.0
 20
0.0
 30
0.0
  9
$UCSORGFRONT
 10
0.0
 20
0.0
 30
0.0
  9
$UCSORGBACK
 10
0.0
 20
0.0
 30
0.0
  9
$PUCSBASE
  2

  9
$PUCSNAME
  2

  9
$PUCSORG
 10
0.0
 20
0.0
 30
0.0
  9
$PUCSXDIR
 10
1.0
 20
0.0
 30
0.0
  9
$PUCSYDIR
 10
0.0
 20
1.0
 30
0.0
  9
$PUCSORTHOREF
  2

  9
$PUCSORTHOVIEW
 70
     0
  9
$PUCSORGTOP
 10
0.0
 20
0.0
 30
0.0
  9
$PUCSORGBOTTOM
 10
0.0
 20
0.0
 30
0.0
  9
$PUCSORGLEFT
 10
0.0
 20
0.0
 30
0.0
  9
$PUCSORGRIGHT
 10
0.0
 20
0.0
 30
0.0
  9
$PUCSORGFRONT
 10
0.0
 20
0.0
 30
0.0
  9
$PUCSORGBACK
 10
0.0
 20
0.0
 30
0.0
  9
$USERI1
 70
     0
  9
$USERI2
 70
     0
  9
$USERI3
 70
     0
  9
$USERI4
 70
     0
  9
$USERI5
 70
     0
  9
$USERR1
 40
0.0
  9
$USERR2
 40
0.0
  9
$USERR3
 40
0.0
  9
$USERR4
 40
0.0
  9
$USERR5
 40
0.0
  9
$WORLDVIEW
 70
     1
  9
$SHADEDGE
 70
     3
  9
$SHADEDIF
 70
    70
  9
$TILEMODE
 70
     1
  9
$MAXACTVP
 70
    64
  9
$PINSBASE
 10
0.0
 20
0.0
 30
0.0
  9
$PLIMCHECK
 70
     0
  9
$PEXTMIN
 10
1.000000000000000E+20
 20
1.000000000000000E+20
 30
1.000000000000000E+20
  9
$PEXTMAX
 10
-1.000000000000000E+20
 20
-1.000000000000000E+20
 30
-1.000000000000000E+20
  9
$PLIMMIN
 10
0.0
 20
0.0
  9
$PLIMMAX
 10
420.0
 20
297.0
  9
$UNITMODE
 70
     0
  9
$VISRETAIN
 70
     1
  9
$PLINEGEN
 70
     0
  9
$PSLTSCALE
 70
     1
  9
$TREEDEPTH
 70
  3020
  9
$CMLSTYLE
  2
Standard
  9
$CMLJUST
 70
     0
  9
$CMLSCALE
 40
20.0
  9
$PROXYGRAPHICS
 70
     1
  9
$MEASUREMENT
 70
     1
  9
$CELWEIGHT
370
    -1
  9
$ENDCAPS
280
     0
  9
$JOINSTYLE
280
     0
  9
$LWDISPLAY
290
     0
  9
$INSUNITS
 70
     4
  9
$HYPERLINKBASE
  1

  9
$STYLESHEET
  1

  9
$XEDIT
290
     1
  9
$CEPSNTYPE
380
     0
  9
$PSTYLEMODE
290
     1
  9
$FINGERPRINTGUID
  2
{1A895EA4-F1A7-4E60-A41B-CE1DBEF9085B}
  9
$VERSIONGUID
  2
{FAEB1C32-E019-11D5-929B-00C0DF256EC4}
  9
$EXTNAMES
290
     1
  9
$PSVPSCALE
 40
0.0
  9
$OLESTARTUP
290
     0
  9
$SORTENTS
280
   127
  9
$INDEXCTL
280
     0
  9
$HIDETEXT
280
     1
  9
$XCLIPFRAME
290
     0
  9
$HALOGAP
280
     0
  9
$OBSCOLOR
 70
   257
  9
$OBSLTYPE
280
     0
  9
$INTERSECTIONDISPLAY
280
     0
  9
$INTERSECTIONCOLOR
 70
   257
  9
$DIMASSOC
280
     2
  9
$PROJECTNAME
  1

  0
ENDSEC
  0
SECTION
  2
CLASSES
  0
CLASS
  1
ACDBDICTIONARYWDFLT
  2
AcDbDictionaryWithDefault
  3
ObjectDBX Classes
 90
        0
 91
        4
280
     0
281
     0
  0
CLASS
  1
VISUALSTYLE
  2
AcDbVisualStyle
  3
ObjectDBX Classes
 90
     4095
 91
        4
280
     0
281
     0
  0
ENDSEC
  0
SECTION
  2
TABLES
  0
TABLE
  2
VPORT
  5
8
330
0
100
AcDbSymbolTable
 70
     1
  0
VPORT
  5
29
330
8
100
AcDbSymbolTableRecord
100
AcDbViewportTableRecord
  2
*Active
 70
     0
 10
0.0
 20
0.0
 11
1.0
 21
1.0
 12
0.0
 22
0.0
 13
0.0
 23
0.0
 14
10.0
 24
10.0
 15
10.0
 25
10.0
 16
0.0
 26
0.0
 36
1.0
 17
0.0
 27
0.0
 37
0.0
 40
3267.0
 41
1.414141414141414
 42
50.0
 43
0.0
 44
0.0
 50
0.0
 51
0.0
 71
     0
 72
 10000
 73
     1
 74
     3
 75
     0
 76
     0
 77
     0
 78
     0
281
     0
 65
     1
110
0.0
120
0.0
130
0.0
111
1.0
121
0.0
131
0.0
112
0.0
122
1.0
132
0.0
 79
     0
146
0.0
  0
ENDTAB
  0
TABLE
  2
LTYPE
  5
5
330
0
100
AcDbSymbolTable
 70
     4
  0
LTYPE
  5
14
330
5
100
AcDbSymbolTableRecord
100
AcDbLinetypeTableRecord
  2
ByBlock
 70
     0
  3

 72
    65
 73
     0
 40
0.0
  0
LTYPE
  5
15
330
5
100
AcDbSymbolTableRecord
100
AcDbLinetypeTableRecord
  2
ByLayer
 70
     0
  3

 72
    65
 73
     0
 40
0.0
  0
LTYPE
  5
16
330
5
100
AcDbSymbolTableRecord
100
AcDbLinetypeTableRecord
  2
Continuous
 70
     0
  3
Solid line
 72
    65
 73
     0
 40
0.0
  0
LTYPE
  5
3C
330
5
100
AcDbSymbolTableRecord
100
AcDbLinetypeTableRecord
  2
JWW_CENTER1
 70
     0
  3
-----  --  ----------  --  -----
 72
    65
 73
     4
 40
6.773333333333333
 49
4.233333333333333
 74
     0
 49
-0.8466666666666667
 74
     0
 49
0.8466666666666667
 74
     0
 49
-0.8466666666666667
 74
     0
  0
LTYPE
  5
3D
330
5
100
AcDbSymbolTableRecord
100
AcDbLinetypeTableRecord
  2
JWW_CENTER2
 70
     0
  3
-------------  --  -------------
 72
    65
 73
     4
 40
13.54666666666667
 49
11.00666666666667
 74
     0
 49
-0.8466666666666667
 74
     0
 49
0.8466666666666667
 74
     0
 49
-0.8466666666666667
 74
     0
  0
LTYPE
  5
3E
330
5
100
AcDbSymbolTableRecord
100
AcDbLinetypeTableRecord
  2
JWW_DASHED3
 70
     0
  3
---  ------  ------  ------  ---
 72
    65
 73
     2
 40
3.386666666666667
 49
2.54
 74
     0
 49
-0.8466666666666667
 74
     0
  0
ENDTAB
  0
TABLE
  2
LAYER
  5
2
330
0
100
AcDbSymbolTable
 70
     6
  0
LAYER
  5
10
330
2
100
AcDbSymbolTableRecord
100
AcDbLayerTableRecord
  2
0
 70
     0
 62
     7
  6
Continuous
370
    -3
390
F
  0
LAYER
  5
3F
330
2
100
AcDbSymbolTableRecord
100
AcDbLayerTableRecord
  2
F-5ﾚｲﾔ
 70
     0
 62
     7
  6
Continuous
370
    -3
390
F
  0
LAYER
  5
40
330
2
100
AcDbSymbolTableRecord
100
AcDbLayerTableRecord
  2
0-0_通り芯
 70
     0
 62
     7
  6
Continuous
370
    -3
390
F
  0
LAYER
  5
41
330
2
100
AcDbSymbolTableRecord
100
AcDbLayerTableRecord
  2
0-2_本体（蓋）
 70
     0
 62
     7
  6
Continuous
370
    -3
390
F
  0
LAYER
  5
42
330
2
100
AcDbSymbolTableRecord
100
AcDbLayerTableRecord
  2
0-1_ピット
 70
     0
 62
     7
  6
Continuous
370
    -3
390
F
  0
LAYER
  5
43
330
2
100
AcDbSymbolTableRecord
100
AcDbLayerTableRecord
  2
0-4_寸法
 70
     0
 62
     7
  6
Continuous
370
    -3
390
F
  0
ENDTAB
  0
TABLE
  2
STYLE
  5
3
330
0
100
AcDbSymbolTable
 70
     2
  0
STYLE
  5
11
330
3
100
AcDbSymbolTableRecord
100
AcDbTextStyleTableRecord
  2
Standard
 70
     0
 40
0.0
 41
1.0
 50
0.0
 71
     0
 42
2.5
  3
txt
  4

1001
ACAD
1000

1071
        0
  0
STYLE
  5
3B
330
3
100
AcDbSymbolTableRecord
100
AcDbTextStyleTableRecord
  2
ＭＳ ゴシック
 70
     0
 40
1.0
 41
1.0
 50
0.0
 71
     0
 42
10.0
  3

  4

1001
ACAD
1000
MS Gothic
1071
    32817
  0
ENDTAB
  0
TABLE
  2
VIEW
  5
6
330
0
100
AcDbSymbolTable
 70
     0
  0
ENDTAB
  0
TABLE
  2
UCS
  5
7
330
0
100
AcDbSymbolTable
 70
     0
  0
ENDTAB
  0
TABLE
  2
APPID
  5
9
330
0
100
AcDbSymbolTable
 70
     1
  0
APPID
  5
12
330
9
100
AcDbSymbolTableRecord
100
AcDbRegAppTableRecord
  2
ACAD
 70
     0
  0
ENDTAB
  0
TABLE
  2
DIMSTYLE
  5
A
330
0
100
AcDbSymbolTable
 70
     1
100
AcDbDimStyleTable
  0
DIMSTYLE
105
27
330
A
100
AcDbSymbolTableRecord
100
AcDbDimStyleTableRecord
  2
ISO-25
 70
     0
 41
2.5
 42
0.625
 43
3.75
 44
1.25
 73
     0
 74
     0
 77
     1
 78
     8
140
2.5
141
2.5
143
0.03937007874016
147
0.625
171
     3
172
     1
271
     2
272
     2
274
     3
278
    44
283
     0
284
     8
340
11
  0
ENDTAB
  0
TABLE
  2
BLOCK_RECORD
  5
1
330
0
100
AcDbSymbolTable
 70
     1
  0
BLOCK_RECORD
  5
1F
330
1
100
AcDbSymbolTableRecord
100
AcDbBlockTableRecord
  2
*Model_Space
340
22
  0
BLOCK_RECORD
  5
1B
330
1
100
AcDbSymbolTableRecord
100
AcDbBlockTableRecord
  2
*Paper_Space
340
1E
  0
BLOCK_RECORD
  5
23
330
1
100
AcDbSymbolTableRecord
100
AcDbBlockTableRecord
  2
*Paper_Space0
340
26
  0
ENDTAB
  0
ENDSEC
  0
SECTION
  2
BLOCKS
  0
BLOCK
  5
20
330
1F
100
AcDbEntity
  8
0
100
AcDbBlockBegin
  2
*Model_Space
 70
     0
 10
0.0
 20
0.0
 30
0.0
  3
*Model_Space
  1

  0
ENDBLK
  5
21
330
1F
100
AcDbEntity
  8
0
100
AcDbBlockEnd
  0
BLOCK
  5
1C
330
1B
100
AcDbEntity
 67
     1
  8
0
100
AcDbBlockBegin
  2
*Paper_Space
 70
     0
 10
0.0
 20
0.0
 30
0.0
  3
*Paper_Space
  1

  0
ENDBLK
  5
1D
330
1B
100
AcDbEntity
 67
     1
  8
0
100
AcDbBlockEnd
  0
BLOCK
  5
24
330
23
100
AcDbEntity
  8
0
100
AcDbBlockBegin
  2
*Paper_Space0
 70
     0
 10
0.0
 20
0.0
 30
0.0
  3
*Paper_Space0
  1

  0
ENDBLK
  5
25
330
23
100
AcDbEntity
  8
0
100
AcDbBlockEnd
  0
ENDSEC
  0
SECTION
  2
ENTITIES
  0
TEXT
  5
44
330
1F
100
AcDbEntity
  8
F-5ﾚｲﾔ
  6
Continuous
 62
     7
370
    13
100
AcDbText
 10
-809.2673316768133
 20
-1323.293737398041
 30
0.0
 40
22.86
  1
インターロッキングブロック用　鋳鉄目地
 41
1.157894736842105
  7
ＭＳ ゴシック
100
AcDbText
  0
ARC
  5
45
330
1F
100
AcDbEntity
  8
0-0_通り芯
  6
Continuous
 62
     3
370
    13
100
AcDbCircle
 10
-1246.981190851336
 20
267.6465219245162
 30
0.0
 40
12.00000131452406
100
AcDbArc
 50
134.999984741211
 51
179.999984741211
  0
LINE
  5
46
330
1F
100
AcDbEntity
  8
0-2_本体（蓋）
  6
JWW_CENTER1
 62
     3
370
    13
100
AcDbLine
 10
130.0188982270001
 20
-174.3830454846901
 30
0.0
 11
-1401.981207347324
 21
-174.3830454846901
 31
0.0
  0
LINE
  5
47
330
1F
100
AcDbEntity
  8
0-2_本体（蓋）
  6
JWW_CENTER1
 62
     3
370
    13
100
AcDbLine
 10
-635.9811545601622
 20
-940.3829498079583
 30
0.0
 11
-635.9811545601622
 21
591.6168588385788
 31
0.0
  0
LINE
  5
48
330
1F
100
AcDbEntity
  8
0-0_通り芯
  6
Continuous
 62
     3
370
    13
100
AcDbLine
 10
-193.9515871509558
 20
448.6174757885365
 30
0.0
 11
-1078.010721969368
 21
448.6174757885365
 31
0.0
  0
LINE
  5
49
330
1F
100
AcDbEntity
  8
0-0_通り芯
  6
Continuous
 62
     3
370
    13
100
AcDbLine
 10
-344.9812337409053
 20
300.6167895554287
 30
0.0
 11
-160.980874128363
 21
300.6167895554287
 31
0.0
  0
LINE
  5
4A
330
1F
100
AcDbEntity
  8
0-0_通り芯
  6
Continuous
 62
     3
370
    13
100
AcDbLine
 10
-1255.466273529229
 20
276.1321242260365
 30
0.0
 11
-1086.495730415314
 21
445.1018507885365
 31
0.0
  0
LINE
  5
4B
330
1F
100
AcDbEntity
  8
0-1_ピット
  6
Continuous
 62
     2
370
    13
100
AcDbLine
 10
-292.3864148008715
 20
555.6165916035704
 30
0.0
 11
-979.5758943194526
 21
555.6165916035704
 31
0.0
  0
LINE
  5
4C
330
1F
100
AcDbEntity
  8
0-1_ピット
  6
Continuous
 62
     2
370
    13
100
AcDbLine
 10
-1365.981088576209
 20
-517.9777852439802
 30
0.0
 11
-1365.981088576209
 21
169.2116942746011
 31
0.0
  0
LINE
  5
4D
330
1F
100
AcDbEntity
  8
0-1_ピット
  6
Continuous
 62
     2
370
    13
100
AcDbLine
 10
34.01887843181449
 20
505.6169215233339
 30
0.0
 11
-1305.981039088245
 21
505.6169215233339
 31
0.0
  0
LINE
  5
4E
330
1F
100
AcDbEntity
  8
0-1_ピット
  6
Continuous
 62
     2
370
    13
100
AcDbLine
 10
-1315.981121568186
 20
-844.3830784766664
 30
0.0
 11
-1315.981121568186
 21
495.6169875072865
 31
0.0
  0
LINE
  5
4F
330
1F
100
AcDbEntity
  8
0-1_ピット
  6
Continuous
 62
     2
370
    13
100
AcDbLine
 10
34.01887843181449
 20
517.6169611137052
 30
0.0
 11
-1305.981039088245
 21
517.6169611137052
 31
0.0
  0
LINE
  5
50
330
1F
100
AcDbEntity
  8
0-1_ピット
  6
Continuous
 62
     2
370
    13
100
AcDbLine
 10
-1334.981382204799
 20
-551.9813615742166
 30
0.0
 11
-1334.981382204799
 21
203.2152706048376
 31
0.0
  0
LINE
  5
51
330
1F
100
AcDbEntity
  8
0-1_ピット
  6
Continuous
 62
     2
370
    13
100
AcDbLine
 10
-258.3831353984221
 20
524.6167367682663
 30
0.0
 11
-1013.579173721902
 21
524.6167367682663
 31
0.0
  0
LINE
  5
52
330
1F
100
AcDbEntity
  8
0-1_ピット
  6
Continuous
 62
     2
370
    13
100
AcDbLine
 10
-1363.981131465779
 20
-519.3775028326627
 30
0.0
 11
-1363.981131465779
 21
170.6114118632834
 31
0.0
  0
LINE
  5
53
330
1F
100
AcDbEntity
  8
0-1_ピット
  6
Continuous
 62
     2
370
    13
100
AcDbLine
 10
-290.9864002844018
 20
553.6170798848204
 30
0.0
 11
-980.9756119081351
 21
553.6170798848204
 31
0.0
  0
LINE
  5
54
330
1F
100
AcDbEntity
  8
0-0_通り芯
  6
Continuous
 62
     3
370
    13
100
AcDbLine
 10
25.01870027514197
 20
500.616657587523
 30
0.0
 11
-1296.981083627413
 21
500.616657587523
 31
0.0
  0
LINE
  5
55
330
1F
100
AcDbEntity
  8
0-0_通り芯
  6
Continuous
 62
     3
370
    13
100
AcDbLine
 10
-1310.981377256003
 20
-835.3829003199937
 30
0.0
 11
-1310.981377256003
 21
486.6171062784011
 31
0.0
  0
LINE
  5
56
330
1F
100
AcDbEntity
  8
0-1_ピット
  6
JWW_CENTER2
 62
     2
370
    13
100
AcDbLine
 10
-1348.694917822937
 20
275.6172514430975
 30
0.0
 11
-1394.387056494812
 21
275.6172514430975
 31
0.0
  0
LINE
  5
57
330
1F
100
AcDbEntity
  8
0-0_通り芯
  6
Continuous
 62
     3
370
    13
100
AcDbLine
 10
-1110.980841136387
 20
-263.3829926975281
 30
0.0
 11
-1110.980841136387
 21
-85.38309827185202
 31
0.0
  0
LINE
  5
58
330
1F
100
AcDbEntity
  8
0-0_通り芯
  6
Continuous
 62
     3
370
    13
100
AcDbLine
 10
-546.9810588834307
 20
300.6167895554287
 30
0.0
 11
-724.9812502368934
 21
300.6167895554287
 31
0.0
  0
LINE
  5
59
330
1F
100
AcDbEntity
  8
0-0_通り芯
  6
Continuous
 62
     3
370
    13
100
AcDbLine
 10
-936.9808609315726
 20
-87.38320384617595
 30
0.0
 11
-1035.981336016032
 21
-87.38320384617595
 31
0.0
  0
LINE
  5
5A
330
1F
100
AcDbEntity
  8
0-0_通り芯
  6
Continuous
 62
     3
370
    13
100
AcDbLine
 10
-936.9808609315726
 20
-85.38309827185202
 30
0.0
 11
-1110.980841136387
 21
-85.38309827185202
 31
0.0
  0
LINE
  5
5B
330
1F
100
AcDbEntity
  8
0-0_通り芯
  6
Continuous
 62
     3
370
    13
100
AcDbLine
 10
-936.9808609315726
 20
-73.38276175369259
 30
0.0
 11
-1110.980841136387
 21
-73.38276175369259
 31
0.0
  0
LINE
  5
5C
330
1F
100
AcDbEntity
  8
0-0_通り芯
  6
Continuous
 62
     3
370
    13
100
AcDbLine
 10
-936.9808609315726
 20
-71.3829531071562
 30
0.0
 11
-1035.981336016032
 21
-71.3829531071562
 31
0.0
  0
LINE
  5
5D
330
1F
100
AcDbEntity
  8
0-0_通り芯
  6
Continuous
 62
     3
370
    13
100
AcDbLine
 10
-936.9808609315726
 20
104.6168357441954
 30
0.0
 11
-1110.980841136387
 21
104.6168357441954
 31
0.0
  0
LINE
  5
5E
330
1F
100
AcDbEntity
  8
0-0_通り芯
  6
Continuous
 62
     3
370
    13
100
AcDbLine
 10
-936.9808609315726
 20
102.6173240254454
 30
0.0
 11
-1035.981336016032
 21
102.6173240254454
 31
0.0
  0
LINE
  5
5F
330
1F
100
AcDbEntity
  8
0-0_通り芯
  6
Continuous
 62
     3
370
    13
100
AcDbLine
 10
-936.9808609315726
 20
118.6169809088912
 30
0.0
 11
-1035.981336016032
 21
118.6169809088912
 31
0.0
  0
LINE
  5
60
330
1F
100
AcDbEntity
  8
0-0_通り芯
  6
Continuous
 62
     3
370
    13
100
AcDbLine
 10
-936.9808609315726
 20
116.6171722623542
 30
0.0
 11
-1110.980841136387
 21
116.6171722623542
 31
0.0
  0
LINE
  5
61
330
1F
100
AcDbEntity
  8
0-0_通り芯
  6
Continuous
 62
     3
370
    13
100
AcDbLine
 10
-746.9810753794189
 20
-87.38320384617595
 30
0.0
 11
-904.9811017729999
 21
-87.38320384617595
 31
0.0
  0
LINE
  5
62
330
1F
100
AcDbEntity
  8
0-0_通り芯
  6
Continuous
 62
     3
370
    13
100
AcDbLine
 10
-746.9810753794189
 20
-71.3829531071562
 30
0.0
 11
-904.9811017729999
 21
-71.3829531071562
 31
0.0
  0
LINE
  5
63
330
1F
100
AcDbEntity
  8
0-0_通り芯
  6
Continuous
 62
     3
370
    13
100
AcDbLine
 10
-746.9810753794189
 20
-73.38276175369259
 30
0.0
 11
-904.9811017729999
 21
-73.38276175369259
 31
0.0
  0
LINE
  5
64
330
1F
100
AcDbEntity
  8
0-0_通り芯
  6
Continuous
 62
     3
370
    13
100
AcDbLine
 10
-746.9810753794189
 20
-85.38309827185202
 30
0.0
 11
-904.9811017729999
 21
-85.38309827185202
 31
0.0
  0
LINE
  5
65
330
1F
100
AcDbEntity
  8
0-0_通り芯
  6
Continuous
 62
     3
370
    13
100
AcDbLine
 10
-746.9810753794189
 20
104.6168357441954
 30
0.0
 11
-904.9811017729999
 21
104.6168357441954
 31
0.0
  0
LINE
  5
66
330
1F
100
AcDbEntity
  8
0-0_通り芯
  6
Continuous
 62
     3
370
    13
100
AcDbLine
 10
-746.9810753794189
 20
102.6173240254454
 30
0.0
 11
-904.9811017729999
 21
102.6173240254454
 31
0.0
  0
LINE
  5
67
330
1F
100
AcDbEntity
  8
0-0_通り芯
  6
Continuous
 62
     3
370
    13
100
AcDbLine
 10
-746.9810753794189
 20
118.6169809088912
 30
0.0
 11
-904.9811017729999
 21
118.6169809088912
 31
0.0
  0
LINE
  5
68
330
1F
100
AcDbEntity
  8
0-0_通り芯
  6
Continuous
 62
     3
370
    13
100
AcDbLine
 10
-746.9810753794189
 20
116.6171722623542
 30
0.0
 11
-904.9811017729999
 21
116.6171722623542
 31
0.0
  0
LINE
  5
69
330
1F
100
AcDbEntity
  8
0-0_通り芯
  6
Continuous
 62
     3
370
    13
100
AcDbLine
 10
-928.981329417637
 20
-63.38312466543329
 30
0.0
 11
-928.981329417637
 21
94.61690172814798
 31
0.0
  0
LINE
  5
6A
330
1F
100
AcDbEntity
  8
0-0_通り芯
  6
Continuous
 62
     3
370
    13
100
AcDbLine
 10
-926.9810753794188
 20
-63.38312466543329
 30
0.0
 11
-926.9810753794188
 21
94.61690172814798
 31
0.0
  0
LINE
  5
6B
330
1F
100
AcDbEntity
  8
0-0_通り芯
  6
Continuous
 62
     3
370
    13
100
AcDbLine
 10
-912.98122714251
 20
-63.38312466543329
 30
0.0
 11
-912.98122714251
 21
94.61690172814798
 31
0.0
  0
LINE
  5
6C
330
1F
100
AcDbEntity
  8
0-0_通り芯
  6
Continuous
 62
     3
370
    13
100
AcDbLine
 10
-914.9811842529409
 20
-63.38312466543329
 30
0.0
 11
-914.9811842529409
 21
94.61690172814798
 31
0.0
  0
LINE
  5
6D
330
1F
100
AcDbEntity
  8
0-0_通り芯
  6
Continuous
 62
     3
370
    13
100
AcDbLine
 10
-738.9812469376959
 20
-63.38312466543329
 30
0.0
 11
-738.9812469376959
 21
94.61690172814798
 31
0.0
  0
LINE
  5
6E
330
1F
100
AcDbEntity
  8
0-0_通り芯
  6
Continuous
 62
     3
370
    13
100
AcDbLine
 10
-736.9812898272653
 20
-63.38312466543329
 30
0.0
 11
-736.9812898272653
 21
94.61690172814798
 31
0.0
  0
LINE
  5
6F
330
1F
100
AcDbEntity
  8
0-0_通り芯
  6
Continuous
 62
     3
370
    13
100
AcDbLine
 10
-724.9812502368934
 20
-63.38312466543329
 30
0.0
 11
-724.9812502368934
 21
94.61690172814798
 31
0.0
  0
LINE
  5
70
330
1F
100
AcDbEntity
  8
0-0_通り芯
  6
Continuous
 62
     3
370
    13
100
AcDbLine
 10
-722.9812931264627
 20
-63.38312466543329
 30
0.0
 11
-722.9812931264627
 21
94.61690172814798
 31
0.0
  0
LINE
  5
71
330
1F
100
AcDbEntity
  8
0-0_通り芯
  6
Continuous
 62
     3
370
    13
100
AcDbLine
 10
-928.981329417637
 20
126.6171062784011
 30
0.0
 11
-928.981329417637
 21
225.6169875072865
 31
0.0
  0
LINE
  5
72
330
1F
100
AcDbEntity
  8
0-0_通り芯
  6
Continuous
 62
     3
370
    13
100
AcDbLine
 10
-926.9810753794188
 20
126.6171062784011
 30
0.0
 11
-926.9810753794188
 21
300.6167895554287
 31
0.0
  0
LINE
  5
73
330
1F
100
AcDbEntity
  8
0-0_通り芯
  6
Continuous
 62
     3
370
    13
100
AcDbLine
 10
-912.98122714251
 20
126.6171062784011
 30
0.0
 11
-912.98122714251
 21
225.6169875072865
 31
0.0
  0
LINE
  5
74
330
1F
100
AcDbEntity
  8
0-0_通り芯
  6
Continuous
 62
     3
370
    13
100
AcDbLine
 10
-914.9811842529409
 20
126.6171062784011
 30
0.0
 11
-914.9811842529409
 21
300.6167895554287
 31
0.0
  0
LINE
  5
75
330
1F
100
AcDbEntity
  8
0-1_ピット
  6
JWW_CENTER2
 62
     2
370
    13
100
AcDbLine
 10
-1371.980959907502
 20
242.5181171525568
 30
0.0
 11
-1371.980959907502
 21
308.5293212277256
 31
0.0
  0
LINE
  5
76
330
1F
100
AcDbEntity
  8
0-1_ピット
  6
Continuous
 62
     2
370
    13
100
AcDbLine
 10
-1414.980705869284
 20
234.022419306273
 30
0.0
 11
-1414.980705869284
 21
317.2114897243475
 31
0.0
  0
LINE
  5
77
330
1F
100
AcDbEntity
  8
0-1_ピット
  6
Continuous
 62
     2
370
    13
100
AcDbLine
 10
-1403.7048731518
 20
225.6737007146344
 30
0.0
 11
-1342.912546095741
 21
215.0356688839756
 31
0.0
  0
LINE
  5
78
330
1F
100
AcDbEntity
  8
0-1_ピット
  6
Continuous
 62
     2
370
    13
100
AcDbLine
 10
-1403.7048731518
 20
325.5599113881991
 30
0.0
 11
-1342.912546095741
 21
336.1988340022194
 31
0.0
  0
LINE
  5
79
330
1F
100
AcDbEntity
  8
0-1_ピット
  6
Continuous
 62
     2
370
    13
100
AcDbLine
 10
-1386.980786699626
 20
265.6167235714756
 30
0.0
 11
-1386.980786699626
 21
285.6165916035704
 31
0.0
  0
LINE
  5
7A
330
1F
100
AcDbEntity
  8
0-1_ピット
  6
Continuous
 62
     2
370
    13
100
AcDbLine
 10
-1356.981133115378
 20
265.6167235714756
 30
0.0
 11
-1356.981133115378
 21
285.6165916035704
 31
0.0
  0
LINE
  5
7B
330
1F
100
AcDbEntity
  8
0-1_ピット
  6
Continuous
 62
     2
370
    13
100
AcDbLine
 10
-1388.980966505897
 20
265.6167235714756
 30
0.0
 11
-1388.980966505897
 21
285.6165916035704
 31
0.0
  0
LINE
  5
7C
330
1F
100
AcDbEntity
  8
0-1_ピット
  6
Continuous
 62
     2
370
    13
100
AcDbLine
 10
-1408.976677548971
 20
219.7351449713912
 30
0.0
 11
-1371.985413824309
 21
183.4989686094823
 31
0.0
  0
LINE
  5
7D
330
1F
100
AcDbEntity
  8
0-1_ピット
  6
Continuous
 62
     2
370
    13
100
AcDbLine
 10
-1404.049680544643
 20
223.7038817746006
 30
0.0
 11
-1343.257130792742
 21
213.0652560883678
 31
0.0
  0
LINE
  5
7E
330
1F
100
AcDbEntity
  8
0-1_ピット
  6
Continuous
 62
     2
370
    13
100
AcDbLine
 10
-1404.049680544643
 20
327.5297303282323
 30
0.0
 11
-1343.257130792742
 21
338.1686529422532
 31
0.0
  0
LINE
  5
7F
330
1F
100
AcDbEntity
  8
0-1_ピット
  6
Continuous
 62
     2
370
    13
100
AcDbLine
 10
-1408.976677548971
 20
331.4984671314417
 30
0.0
 11
-1371.985413824309
 21
367.7349404211381
 31
0.0
  0
LINE
  5
80
330
1F
100
AcDbEntity
  8
0-1_ピット
  6
Continuous
 62
     2
370
    13
100
AcDbLine
 10
-1354.981176004947
 20
265.6167235714756
 30
0.0
 11
-1354.981176004947
 21
285.6165916035704
 31
0.0
  0
LINE
  5
81
330
1F
100
AcDbEntity
  8
0-1_ピット
  6
Continuous
 62
     2
370
    13
100
AcDbLine
 10
-1365.981088576209
 20
382.0225116838068
 30
0.0
 11
-1365.981088576209
 21
495.6169875072865
 31
0.0
  0
LINE
  5
82
330
1F
100
AcDbEntity
  8
0-1_ピット
  6
Continuous
 62
     2
370
    13
100
AcDbLine
 10
-1363.981131465779
 20
380.6222002395501
 30
0.0
 11
-1363.981131465779
 21
495.6169875072865
 31
0.0
  0
LINE
  5
83
330
1F
100
AcDbEntity
  8
0-1_ピット
  6
Continuous
 62
     2
370
    13
100
AcDbLine
 10
-1334.981382204799
 20
348.0189353535704
 30
0.0
 11
-1334.981382204799
 21
495.6169875072865
 31
0.0
  0
LINE
  5
84
330
1F
100
AcDbEntity
  8
0-1_ピット
  6
Continuous
 62
     2
370
    13
100
AcDbLine
 10
-1406.877323861788
 20
221.8780728113407
 30
0.0
 11
-1370.585696235627
 21
186.3272057822022
 31
0.0
  0
LINE
  5
85
330
1F
100
AcDbEntity
  8
0-1_ピット
  6
Continuous
 62
     2
370
    13
100
AcDbLine
 10
-1411.981141363372
 20
235.5242800537391
 30
0.0
 11
-1411.981141363372
 21
315.7096289768813
 31
0.0
  0
LINE
  5
86
330
1F
100
AcDbEntity
  8
0-1_ピット
  6
Continuous
 62
     2
370
    13
100
AcDbLine
 10
-1406.877323861788
 20
329.3564300748542
 30
0.0
 11
-1370.585696235627
 21
364.9064063206313
 31
0.0
  0
LINE
  5
87
330
1F
100
AcDbEntity
  8
0-1_ピット
  6
Continuous
 62
     2
370
    13
100
AcDbLine
 10
-1334.703903187696
 20
209.4100750284011
 30
0.0
 11
-1334.703903187696
 21
341.8238340022194
 31
0.0
  0
LINE
  5
88
330
1F
100
AcDbEntity
  8
0-1_ピット
  6
Continuous
 62
     2
370
    13
100
AcDbLine
 10
-1019.773978145466
 20
524.3400000706313
 30
0.0
 11
-1152.188034047071
 21
524.3400000706313
 31
0.0
  0
LINE
  5
89
330
1F
100
AcDbEntity
  8
0-1_ピット
  6
Continuous
 62
     2
370
    13
100
AcDbLine
 10
-1139.719739336344
 20
596.5136434405636
 30
0.0
 11
-1175.270457901589
 21
560.2219415824552
 31
0.0
  0
LINE
  5
8A
330
1F
100
AcDbEntity
  8
0-1_ピット
  6
Continuous
 62
     2
370
    13
100
AcDbLine
 10
-1045.888480098591
 20
601.6172382463069
 30
0.0
 11
-1126.073680557839
 21
601.6172382463069
 31
0.0
  0
LINE
  5
8B
330
1F
100
AcDbEntity
  8
0-1_ピット
  6
Continuous
 62
     2
370
    13
100
AcDbLine
 10
-1032.242272856193
 20
596.5136434405636
 30
0.0
 11
-996.691405827054
 21
560.2219415824552
 31
0.0
  0
LINE
  5
8C
330
1F
100
AcDbEntity
  8
0-1_ピット
  6
Continuous
 62
     2
370
    13
100
AcDbLine
 10
-1075.981220544115
 20
544.617198655935
 30
0.0
 11
-1095.980791648422
 21
544.617198655935
 31
0.0
  0
LINE
  5
8D
330
1F
100
AcDbEntity
  8
0-1_ピット
  6
Continuous
 62
     2
370
    13
100
AcDbLine
 10
-1141.862964104081
 20
598.6129228958
 30
0.0
 11
-1178.09914046599
 21
561.6216591711382
 31
0.0
  0
LINE
  5
8E
330
1F
100
AcDbEntity
  8
0-1_ピット
  6
Continuous
 62
     2
370
    13
100
AcDbLine
 10
-1137.894227300872
 20
593.6851093400569
 30
0.0
 11
-1148.533001450998
 21
532.8933019076246
 31
0.0
  0
LINE
  5
8F
330
1F
100
AcDbEntity
  8
0-1_ピット
  6
Continuous
 62
     2
370
    13
100
AcDbLine
 10
-1034.068081819453
 20
593.6851093400569
 30
0.0
 11
-1023.429604597113
 21
532.8933019076246
 31
0.0
  0
LINE
  5
90
330
1F
100
AcDbEntity
  8
0-1_ピット
  6
Continuous
 62
     2
370
    13
100
AcDbLine
 10
-1030.099345016243
 20
598.6129228958
 30
0.0
 11
-993.8630201904409
 21
561.6216591711382
 31
0.0
  0
LINE
  5
91
330
1F
100
AcDbEntity
  8
0-1_ピット
  6
Continuous
 62
     2
370
    13
100
AcDbLine
 10
-1075.981220544115
 20
578.6172118527256
 30
0.0
 11
-1095.980791648422
 21
578.6172118527256
 31
0.0
  0
LINE
  5
92
330
1F
100
AcDbEntity
  8
0-1_ピット
  6
Continuous
 62
     2
370
    13
100
AcDbLine
 10
-1075.981220544115
 20
546.6173042302594
 30
0.0
 11
-1095.980791648422
 21
546.6173042302594
 31
0.0
  0
LINE
  5
93
330
1F
100
AcDbEntity
  8
0-1_ピット
  6
Continuous
 62
     2
370
    13
100
AcDbLine
 10
-1075.981220544115
 20
576.6165124228271
 30
0.0
 11
-1095.980791648422
 21
576.6165124228271
 31
0.0
  0
LINE
  5
94
330
1F
100
AcDbEntity
  8
0-1_ピット
  6
Continuous
 62
     2
370
    13
100
AcDbLine
 10
-1135.92411143305
 20
593.340673106949
 30
0.0
 11
-1146.562737119284
 21
532.5482718189417
 31
0.0
  0
LINE
  5
95
330
1F
100
AcDbEntity
  8
0-1_ピット
  6
Continuous
 62
     2
370
    13
100
AcDbLine
 10
-1036.038197687274
 20
593.340673106949
 30
0.0
 11
-1025.39957200104
 21
532.5482718189417
 31
0.0
  0
LINE
  5
96
330
1F
100
AcDbEntity
  8
0-1_ピット
  6
Continuous
 62
     2
370
    13
100
AcDbLine
 10
-1044.386470887231
 20
604.6173966077934
 30
0.0
 11
-1127.575689769199
 21
604.6173966077934
 31
0.0
  0
LINE
  5
97
330
1F
100
AcDbEntity
  8
0-1_ピット
  6
JWW_CENTER2
 62
     2
370
    13
100
AcDbLine
 10
-1052.882168733515
 20
561.6169083265434
 30
0.0
 11
-1118.893818200365
 21
561.6169083265434
 31
0.0
  0
LINE
  5
98
330
1F
100
AcDbEntity
  8
0-1_ピット
  6
JWW_CENTER2
 62
     2
370
    13
100
AcDbLine
 10
-1085.981303024056
 20
538.3306435461382
 30
0.0
 11
-1085.981303024056
 21
584.0224852902256
 31
0.0
  0
LINE
  5
99
330
1F
100
AcDbEntity
  8
0-1_ピット
  6
Continuous
 62
     2
370
    13
100
AcDbLine
 10
-1158.382838470635
 20
524.6167367682663
 30
0.0
 11
-1305.981039088245
 21
524.6167367682663
 31
0.0
  0
LINE
  5
9A
330
1F
100
AcDbEntity
  8
0-1_ピット
  6
Continuous
 62
     2
370
    13
100
AcDbLine
 10
-1192.386414800872
 20
555.6165916035704
 30
0.0
 11
-1305.999671306889
 21
555.6165916035704
 31
0.0
  0
LINE
  5
9B
330
1F
100
AcDbEntity
  8
0-1_ピット
  6
Continuous
 62
     2
370
    13
100
AcDbLine
 10
-1190.986400284402
 20
553.6170798848204
 30
0.0
 11
-1306.016002335183
 21
553.6170798848204
 31
0.0
  0
LINE
  5
9C
330
1F
100
AcDbEntity
  8
0-0_通り芯
  6
Continuous
 62
     3
370
    13
100
AcDbLine
 10
-736.9812898272653
 20
-253.3830586814801
 30
0.0
 11
-736.9812898272653
 21
-95.38303228789886
 31
0.0
  0
LINE
  5
9D
330
1F
100
AcDbEntity
  8
0-0_通り芯
  6
Continuous
 62
     3
370
    13
100
AcDbLine
 10
-556.9811413633715
 20
-73.38276175369259
 30
0.0
 11
-714.9811677569528
 21
-73.38276175369259
 31
0.0
  0
LINE
  5
9E
330
1F
100
AcDbEntity
  8
0-0_通り芯
  6
Continuous
 62
     3
370
    13
100
AcDbLine
 10
-724.9812502368934
 20
-253.3830586814801
 30
0.0
 11
-724.9812502368934
 21
-95.38303228789886
 31
0.0
  0
LINE
  5
9F
330
1F
100
AcDbEntity
  8
0-0_通り芯
  6
Continuous
 62
     3
370
    13
100
AcDbLine
 10
-556.9811413633715
 20
-85.38309827185202
 30
0.0
 11
-714.9811677569528
 21
-85.38309827185202
 31
0.0
  0
LINE
  5
A0
330
1F
100
AcDbEntity
  8
0-0_通り芯
  6
Continuous
 62
     3
370
    13
100
AcDbLine
 10
-722.9812931264627
 20
-253.3830586814801
 30
0.0
 11
-722.9812931264627
 21
-95.38303228789886
 31
0.0
  0
LINE
  5
A1
330
1F
100
AcDbEntity
  8
0-0_通り芯
  6
Continuous
 62
     3
370
    13
100
AcDbLine
 10
-556.9811413633715
 20
-87.38320384617595
 30
0.0
 11
-714.9811677569528
 21
-87.38320384617595
 31
0.0
  0
LINE
  5
A2
330
1F
100
AcDbEntity
  8
0-0_通り芯
  6
Continuous
 62
     3
370
    13
100
AcDbLine
 10
-556.9811413633715
 20
-71.3829531071562
 30
0.0
 11
-714.9811677569528
 21
-71.3829531071562
 31
0.0
  0
LINE
  5
A3
330
1F
100
AcDbEntity
  8
0-0_通り芯
  6
Continuous
 62
     3
370
    13
100
AcDbLine
 10
-738.9812469376959
 20
-253.3830586814801
 30
0.0
 11
-738.9812469376959
 21
-95.38303228789886
 31
0.0
  0
LINE
  5
A4
330
1F
100
AcDbEntity
  8
0-0_通り芯
  6
Continuous
 62
     3
370
    13
100
AcDbLine
 10
-556.9811413633715
 20
118.6169809088912
 30
0.0
 11
-714.9811677569528
 21
118.6169809088912
 31
0.0
  0
LINE
  5
A5
330
1F
100
AcDbEntity
  8
0-0_通り芯
  6
Continuous
 62
     3
370
    13
100
AcDbLine
 10
-556.9811413633715
 20
116.6171722623542
 30
0.0
 11
-714.9811677569528
 21
116.6171722623542
 31
0.0
  0
LINE
  5
A6
330
1F
100
AcDbEntity
  8
0-0_通り芯
  6
Continuous
 62
     3
370
    13
100
AcDbLine
 10
-556.9811413633715
 20
104.6168357441954
 30
0.0
 11
-714.9811677569528
 21
104.6168357441954
 31
0.0
  0
LINE
  5
A7
330
1F
100
AcDbEntity
  8
0-0_通り芯
  6
Continuous
 62
     3
370
    13
100
AcDbLine
 10
-556.9811413633715
 20
102.6173240254454
 30
0.0
 11
-714.9811677569528
 21
102.6173240254454
 31
0.0
  0
LINE
  5
A8
330
1F
100
AcDbEntity
  8
0-0_通り芯
  6
Continuous
 62
     3
370
    13
100
AcDbLine
 10
-928.981329417637
 20
-253.3830586814801
 30
0.0
 11
-928.981329417637
 21
-95.38303228789886
 31
0.0
  0
LINE
  5
A9
330
1F
100
AcDbEntity
  8
0-0_通り芯
  6
Continuous
 62
     3
370
    13
100
AcDbLine
 10
-926.9810753794188
 20
-253.3830586814801
 30
0.0
 11
-926.9810753794188
 21
-95.38303228789886
 31
0.0
  0
LINE
  5
AA
330
1F
100
AcDbEntity
  8
0-0_通り芯
  6
Continuous
 62
     3
370
    13
100
AcDbLine
 10
-914.9811842529409
 20
-253.3830586814801
 30
0.0
 11
-914.9811842529409
 21
-95.38303228789886
 31
0.0
  0
LINE
  5
AB
330
1F
100
AcDbEntity
  8
0-0_通り芯
  6
Continuous
 62
     3
370
    13
100
AcDbLine
 10
-912.98122714251
 20
-253.3830586814801
 30
0.0
 11
-912.98122714251
 21
-95.38303228789886
 31
0.0
  0
LINE
  5
AC
330
1F
100
AcDbEntity
  8
0-0_通り芯
  6
Continuous
 62
     3
370
    13
100
AcDbLine
 10
-1035.981336016032
 20
-261.382887123203
 30
0.0
 11
-1035.981336016032
 21
-87.38320384617595
 31
0.0
  0
LINE
  5
AD
330
1F
100
AcDbEntity
  8
0-0_通り芯
  6
Continuous
 62
     3
370
    13
100
AcDbLine
 10
-548.9810159938615
 20
225.6169875072865
 30
0.0
 11
-722.9812931264627
 21
225.6169875072865
 31
0.0
  0
LINE
  5
AE
330
1F
100
AcDbEntity
  8
0-0_通り芯
  6
Continuous
 62
     3
370
    13
100
AcDbLine
 10
-1035.981336016032
 20
225.6169875072865
 30
0.0
 11
-1110.980841136387
 21
300.6167895554287
 31
0.0
  0
LINE
  5
AF
330
1F
100
AcDbEntity
  8
0-0_通り芯
  6
Continuous
 62
     3
370
    13
100
AcDbLine
 10
-1035.981336016032
 20
-71.3829531071562
 30
0.0
 11
-1035.981336016032
 21
102.6173240254454
 31
0.0
  0
LINE
  5
B0
330
1F
100
AcDbEntity
  8
0-0_通り芯
  6
Continuous
 62
     3
370
    13
100
AcDbLine
 10
-1035.981336016032
 20
118.6169809088912
 30
0.0
 11
-1035.981336016032
 21
225.6169875072865
 31
0.0
  0
LINE
  5
B1
330
1F
100
AcDbEntity
  8
0-0_通り芯
  6
Continuous
 62
     3
370
    13
100
AcDbLine
 10
-928.981329417637
 20
225.6169875072865
 30
0.0
 11
-1035.981336016032
 21
225.6169875072865
 31
0.0
  0
LINE
  5
B2
330
1F
100
AcDbEntity
  8
0-0_通り芯
  6
Continuous
 62
     3
370
    13
100
AcDbLine
 10
-738.9812469376959
 20
225.6169875072865
 30
0.0
 11
-912.98122714251
 21
225.6169875072865
 31
0.0
  0
LINE
  5
B3
330
1F
100
AcDbEntity
  8
0-0_通り芯
  6
Continuous
 62
     3
370
    13
100
AcDbLine
 10
-738.9812469376959
 20
126.6171062784011
 30
0.0
 11
-738.9812469376959
 21
225.6169875072865
 31
0.0
  0
LINE
  5
B4
330
1F
100
AcDbEntity
  8
0-0_通り芯
  6
Continuous
 62
     3
370
    13
100
AcDbLine
 10
-736.9812898272653
 20
126.6171062784011
 30
0.0
 11
-736.9812898272653
 21
300.6167895554287
 31
0.0
  0
LINE
  5
B5
330
1F
100
AcDbEntity
  8
0-0_通り芯
  6
Continuous
 62
     3
370
    13
100
AcDbLine
 10
-724.9812502368934
 20
126.6171062784011
 30
0.0
 11
-724.9812502368934
 21
300.6167895554287
 31
0.0
  0
LINE
  5
B6
330
1F
100
AcDbEntity
  8
0-0_通り芯
  6
Continuous
 62
     3
370
    13
100
AcDbLine
 10
-722.9812931264627
 20
126.6171062784011
 30
0.0
 11
-722.9812931264627
 21
225.6169875072865
 31
0.0
  0
LINE
  5
B7
330
1F
100
AcDbEntity
  8
0-0_通り芯
  6
Continuous
 62
     3
370
    13
100
AcDbLine
 10
-736.9812898272653
 20
300.6167895554287
 30
0.0
 11
-914.9811842529409
 21
300.6167895554287
 31
0.0
  0
LINE
  5
B8
330
1F
100
AcDbEntity
  8
0-0_通り芯
  6
Continuous
 62
     3
370
    13
100
AcDbLine
 10
-926.9810753794188
 20
300.6167895554287
 30
0.0
 11
-1110.980841136387
 21
300.6167895554287
 31
0.0
  0
LINE
  5
B9
330
1F
100
AcDbEntity
  8
0-0_通り芯
  6
Continuous
 62
     3
370
    13
100
AcDbLine
 10
-1110.980841136387
 20
116.6171722623542
 30
0.0
 11
-1110.980841136387
 21
300.6167895554287
 31
0.0
  0
LINE
  5
BA
330
1F
100
AcDbEntity
  8
0-0_通り芯
  6
Continuous
 62
     3
370
    13
100
AcDbLine
 10
-1110.980841136387
 20
-73.38276175369259
 30
0.0
 11
-1110.980841136387
 21
104.6168357441954
 31
0.0
  0
LINE
  5
BB
330
1F
100
AcDbEntity
  8
0-0_通り芯
  6
Continuous
 62
     3
370
    13
100
AcDbLine
 10
-1110.980841136387
 20
-85.38309827185202
 30
0.0
 11
-1035.981336016032
 21
-87.38320384617595
 31
0.0
  0
LINE
  5
BC
330
1F
100
AcDbEntity
  8
0-0_通り芯
  6
Continuous
 62
     3
370
    13
100
AcDbLine
 10
-1035.981336016032
 20
-71.3829531071562
 30
0.0
 11
-1110.980841136387
 21
-73.38276175369259
 31
0.0
  0
LINE
  5
BD
330
1F
100
AcDbEntity
  8
0-0_通り芯
  6
Continuous
 62
     3
370
    13
100
AcDbLine
 10
-1110.980841136387
 20
104.6168357441954
 30
0.0
 11
-1035.981336016032
 21
102.6173240254454
 31
0.0
  0
LINE
  5
BE
330
1F
100
AcDbEntity
  8
0-0_通り芯
  6
Continuous
 62
     3
370
    13
100
AcDbLine
 10
-1110.980841136387
 20
116.6171722623542
 30
0.0
 11
-1035.981336016032
 21
118.6169809088912
 31
0.0
  0
LINE
  5
BF
330
1F
100
AcDbEntity
  8
0-0_通り芯
  6
Continuous
 62
     3
370
    13
100
AcDbLine
 10
-928.981329417637
 20
225.6169875072865
 30
0.0
 11
-926.9810753794188
 21
300.6167895554287
 31
0.0
  0
LINE
  5
C0
330
1F
100
AcDbEntity
  8
0-0_通り芯
  6
Continuous
 62
     3
370
    13
100
AcDbLine
 10
-914.9811842529409
 20
300.6167895554287
 30
0.0
 11
-912.98122714251
 21
225.6169875072865
 31
0.0
  0
LINE
  5
C1
330
1F
100
AcDbEntity
  8
0-0_通り芯
  6
Continuous
 62
     3
370
    13
100
AcDbLine
 10
-738.9812469376959
 20
225.6169875072865
 30
0.0
 11
-736.9812898272653
 21
300.6167895554287
 31
0.0
  0
LINE
  5
C2
330
1F
100
AcDbEntity
  8
0-0_通り芯
  6
Continuous
 62
     3
370
    13
100
AcDbLine
 10
-724.9812502368934
 20
300.6167895554287
 30
0.0
 11
-722.9812931264627
 21
225.6169875072865
 31
0.0
  0
LINE
  5
C3
330
1F
100
AcDbEntity
  8
0-0_通り芯
  6
Continuous
 62
     3
370
    13
100
AcDbLine
 10
-546.9810588834307
 20
300.6167895554287
 30
0.0
 11
-548.9810159938615
 21
225.6169875072865
 31
0.0
  0
LINE
  5
C4
330
1F
100
AcDbEntity
  8
0-0_通り芯
  6
Continuous
 62
     3
370
    13
100
AcDbLine
 10
-532.9810621826283
 20
225.6169875072865
 30
0.0
 11
-534.981019293059
 21
300.6167895554287
 31
0.0
  0
LINE
  5
C5
330
1F
100
AcDbEntity
  8
0-0_通り芯
  6
Continuous
 62
     3
370
    13
100
AcDbLine
 10
-356.9811248673834
 20
300.6167895554287
 30
0.0
 11
-358.981081977814
 21
225.6169875072865
 31
0.0
  0
LINE
  5
C6
330
1F
100
AcDbEntity
  8
0-0_通り芯
  6
Continuous
 62
     3
370
    13
100
AcDbLine
 10
-342.9809797026874
 20
225.6169875072865
 30
0.0
 11
-344.9812337409053
 21
300.6167895554287
 31
0.0
  0
LINE
  5
C7
330
1F
100
AcDbEntity
  8
0-0_通り芯
  6
Continuous
 62
     3
370
    13
100
AcDbLine
 10
-160.980874128363
 20
116.6171722623542
 30
0.0
 11
-235.9809731042921
 21
118.6169809088912
 31
0.0
  0
LINE
  5
C8
330
1F
100
AcDbEntity
  8
0-0_通り芯
  6
Continuous
 62
     3
370
    13
100
AcDbLine
 10
-160.980874128363
 20
104.6168357441954
 30
0.0
 11
-235.9809731042921
 21
102.6173240254454
 31
0.0
  0
LINE
  5
C9
330
1F
100
AcDbEntity
  8
0-0_通り芯
  6
Continuous
 62
     3
370
    13
100
AcDbLine
 10
-235.9809731042921
 20
-71.3829531071562
 30
0.0
 11
-160.980874128363
 21
-73.38276175369259
 31
0.0
  0
LINE
  5
CA
330
1F
100
AcDbEntity
  8
0-0_通り芯
  6
Continuous
 62
     3
370
    13
100
AcDbLine
 10
-160.980874128363
 20
-85.38309827185202
 30
0.0
 11
-235.9809731042921
 21
-87.38320384617595
 31
0.0
  0
LINE
  5
CB
330
1F
100
AcDbEntity
  8
0-0_通り芯
  6
Continuous
 62
     3
370
    13
100
AcDbLine
 10
-160.980874128363
 20
-73.38276175369259
 30
0.0
 11
-160.980874128363
 21
104.6168357441954
 31
0.0
  0
LINE
  5
CC
330
1F
100
AcDbEntity
  8
0-0_通り芯
  6
Continuous
 62
     3
370
    13
100
AcDbLine
 10
-160.980874128363
 20
116.6171722623542
 30
0.0
 11
-160.980874128363
 21
300.6167895554287
 31
0.0
  0
LINE
  5
CD
330
1F
100
AcDbEntity
  8
0-0_通り芯
  6
Continuous
 62
     3
370
    13
100
AcDbLine
 10
-534.981019293059
 20
300.6167895554287
 30
0.0
 11
-356.9811248673834
 21
300.6167895554287
 31
0.0
  0
LINE
  5
CE
330
1F
100
AcDbEntity
  8
0-0_通り芯
  6
Continuous
 62
     3
370
    13
100
AcDbLine
 10
-548.9810159938615
 20
126.6171062784011
 30
0.0
 11
-548.9810159938615
 21
225.6169875072865
 31
0.0
  0
LINE
  5
CF
330
1F
100
AcDbEntity
  8
0-0_通り芯
  6
Continuous
 62
     3
370
    13
100
AcDbLine
 10
-546.9810588834307
 20
126.6171062784011
 30
0.0
 11
-546.9810588834307
 21
300.6167895554287
 31
0.0
  0
LINE
  5
D0
330
1F
100
AcDbEntity
  8
0-0_通り芯
  6
Continuous
 62
     3
370
    13
100
AcDbLine
 10
-534.981019293059
 20
126.6171062784011
 30
0.0
 11
-534.981019293059
 21
300.6167895554287
 31
0.0
  0
LINE
  5
D1
330
1F
100
AcDbEntity
  8
0-0_通り芯
  6
Continuous
 62
     3
370
    13
100
AcDbLine
 10
-532.9810621826283
 20
126.6171062784011
 30
0.0
 11
-532.9810621826283
 21
225.6169875072865
 31
0.0
  0
LINE
  5
D2
330
1F
100
AcDbEntity
  8
0-0_通り芯
  6
Continuous
 62
     3
370
    13
100
AcDbLine
 10
-532.9810621826283
 20
225.6169875072865
 30
0.0
 11
-358.981081977814
 21
225.6169875072865
 31
0.0
  0
LINE
  5
D3
330
1F
100
AcDbEntity
  8
0-0_通り芯
  6
Continuous
 62
     3
370
    13
100
AcDbLine
 10
-342.9809797026874
 20
225.6169875072865
 30
0.0
 11
-235.9809731042921
 21
225.6169875072865
 31
0.0
  0
LINE
  5
D4
330
1F
100
AcDbEntity
  8
0-0_通り芯
  6
Continuous
 62
     3
370
    13
100
AcDbLine
 10
-235.9809731042921
 20
118.6169809088912
 30
0.0
 11
-235.9809731042921
 21
225.6169875072865
 31
0.0
  0
LINE
  5
D5
330
1F
100
AcDbEntity
  8
0-0_通り芯
  6
Continuous
 62
     3
370
    13
100
AcDbLine
 10
-235.9809731042921
 20
-71.3829531071562
 30
0.0
 11
-235.9809731042921
 21
102.6173240254454
 31
0.0
  0
LINE
  5
D6
330
1F
100
AcDbEntity
  8
0-0_通り芯
  6
Continuous
 62
     3
370
    13
100
AcDbLine
 10
-235.9809731042921
 20
225.6169875072865
 30
0.0
 11
-160.980874128363
 21
300.6167895554287
 31
0.0
  0
LINE
  5
D7
330
1F
100
AcDbEntity
  8
0-0_通り芯
  6
Continuous
 62
     3
370
    13
100
AcDbLine
 10
-235.9809731042921
 20
-261.382887123203
 30
0.0
 11
-235.9809731042921
 21
-87.38320384617595
 31
0.0
  0
LINE
  5
D8
330
1F
100
AcDbEntity
  8
0-0_通り芯
  6
Continuous
 62
     3
370
    13
100
AcDbLine
 10
-358.981081977814
 20
-253.3830586814801
 30
0.0
 11
-358.981081977814
 21
-95.38303228789886
 31
0.0
  0
LINE
  5
D9
330
1F
100
AcDbEntity
  8
0-0_通り芯
  6
Continuous
 62
     3
370
    13
100
AcDbLine
 10
-356.9811248673834
 20
-253.3830586814801
 30
0.0
 11
-356.9811248673834
 21
-95.38303228789886
 31
0.0
  0
LINE
  5
DA
330
1F
100
AcDbEntity
  8
0-0_通り芯
  6
Continuous
 62
     3
370
    13
100
AcDbLine
 10
-344.9812337409053
 20
-253.3830586814801
 30
0.0
 11
-344.9812337409053
 21
-95.38303228789886
 31
0.0
  0
LINE
  5
DB
330
1F
100
AcDbEntity
  8
0-0_通り芯
  6
Continuous
 62
     3
370
    13
100
AcDbLine
 10
-342.9809797026874
 20
-253.3830586814801
 30
0.0
 11
-342.9809797026874
 21
-95.38303228789886
 31
0.0
  0
LINE
  5
DC
330
1F
100
AcDbEntity
  8
0-0_通り芯
  6
Continuous
 62
     3
370
    13
100
AcDbLine
 10
-532.9810621826283
 20
-253.3830586814801
 30
0.0
 11
-532.9810621826283
 21
-95.38303228789886
 31
0.0
  0
LINE
  5
DD
330
1F
100
AcDbEntity
  8
0-0_通り芯
  6
Continuous
 62
     3
370
    13
100
AcDbLine
 10
-548.9810159938615
 20
-253.3830586814801
 30
0.0
 11
-548.9810159938615
 21
-95.38303228789886
 31
0.0
  0
LINE
  5
DE
330
1F
100
AcDbEntity
  8
0-0_通り芯
  6
Continuous
 62
     3
370
    13
100
AcDbLine
 10
-546.9810588834307
 20
-253.3830586814801
 30
0.0
 11
-546.9810588834307
 21
-95.38303228789886
 31
0.0
  0
LINE
  5
DF
330
1F
100
AcDbEntity
  8
0-0_通り芯
  6
Continuous
 62
     3
370
    13
100
AcDbLine
 10
-534.981019293059
 20
-253.3830586814801
 30
0.0
 11
-534.981019293059
 21
-95.38303228789886
 31
0.0
  0
LINE
  5
E0
330
1F
100
AcDbEntity
  8
0-1_ピット
  6
Continuous
 62
     2
370
    13
100
AcDbLine
 10
-80.97561190813491
 20
553.6170798848204
 30
0.0
 11
34.05391591069947
 21
553.6170798848204
 31
0.0
  0
LINE
  5
E1
330
1F
100
AcDbEntity
  8
0-1_ピット
  6
Continuous
 62
     2
370
    13
100
AcDbLine
 10
-79.57589431945273
 20
555.6165916035704
 30
0.0
 11
34.03758488240538
 21
555.6165916035704
 31
0.0
  0
LINE
  5
E2
330
1F
100
AcDbEntity
  8
0-1_ピット
  6
Continuous
 62
     2
370
    13
100
AcDbLine
 10
-113.5791737219018
 20
524.6167367682663
 30
0.0
 11
34.01887843181449
 21
524.6167367682663
 31
0.0
  0
LINE
  5
E3
330
1F
100
AcDbEntity
  8
0-1_ピット
  6
JWW_CENTER2
 62
     2
370
    13
100
AcDbLine
 10
-185.9810060962683
 20
538.3306435461382
 30
0.0
 11
-185.9810060962683
 21
584.0224852902256
 31
0.0
  0
LINE
  5
E4
330
1F
100
AcDbEntity
  8
0-1_ピット
  6
JWW_CENTER2
 62
     2
370
    13
100
AcDbLine
 10
-219.0795465312346
 20
561.6169083265434
 30
0.0
 11
-153.0684909199593
 21
561.6169083265434
 31
0.0
  0
LINE
  5
E5
330
1F
100
AcDbEntity
  8
0-1_ピット
  6
Continuous
 62
     2
370
    13
100
AcDbLine
 10
-227.5758382330928
 20
604.6173966077934
 30
0.0
 11
-144.386173959444
 21
604.6173966077934
 31
0.0
  0
LINE
  5
E6
330
1F
100
AcDbEntity
  8
0-1_ピット
  6
Continuous
 62
     2
370
    13
100
AcDbLine
 10
-235.9241114330506
 20
593.340673106949
 30
0.0
 11
-246.5627371192836
 21
532.5482718189417
 31
0.0
  0
LINE
  5
E7
330
1F
100
AcDbEntity
  8
0-1_ピット
  6
Continuous
 62
     2
370
    13
100
AcDbLine
 10
-136.0380492233799
 20
593.340673106949
 30
0.0
 11
-125.3995720010406
 21
532.5482718189417
 31
0.0
  0
LINE
  5
E8
330
1F
100
AcDbEntity
  8
0-1_ピット
  6
Continuous
 62
     2
370
    13
100
AcDbLine
 10
-195.9810885762093
 20
576.6165124228271
 30
0.0
 11
-175.9815174719018
 21
576.6165124228271
 31
0.0
  0
LINE
  5
E9
330
1F
100
AcDbEntity
  8
0-1_ピット
  6
Continuous
 62
     2
370
    13
100
AcDbLine
 10
-195.9810885762093
 20
546.6173042302594
 30
0.0
 11
-175.9815174719018
 21
546.6173042302594
 31
0.0
  0
LINE
  5
EA
330
1F
100
AcDbEntity
  8
0-1_ピット
  6
Continuous
 62
     2
370
    13
100
AcDbLine
 10
-195.9810885762093
 20
578.6172118527256
 30
0.0
 11
-175.9815174719018
 21
578.6172118527256
 31
0.0
  0
LINE
  5
EB
330
1F
100
AcDbEntity
  8
0-1_ピット
  6
Continuous
 62
     2
370
    13
100
AcDbLine
 10
-241.8629641040808
 20
598.6129228958
 30
0.0
 11
-278.0992889298834
 21
561.6216591711382
 31
0.0
  0
LINE
  5
EC
330
1F
100
AcDbEntity
  8
0-1_ピット
  6
Continuous
 62
     2
370
    13
100
AcDbLine
 10
-237.8939303730843
 20
593.6851093400569
 30
0.0
 11
-248.5327045232112
 21
532.8933019076246
 31
0.0
  0
LINE
  5
ED
330
1F
100
AcDbEntity
  8
0-1_ピット
  6
Continuous
 62
     2
370
    13
100
AcDbLine
 10
-134.0680818194527
 20
593.6851093400569
 30
0.0
 11
-123.4293076693259
 21
532.8933019076246
 31
0.0
  0
LINE
  5
EE
330
1F
100
AcDbEntity
  8
0-1_ピット
  6
Continuous
 62
     2
370
    13
100
AcDbLine
 10
-130.0990480884558
 20
598.6129228958
 30
0.0
 11
-93.86272326265367
 21
561.6216591711382
 31
0.0
  0
LINE
  5
EF
330
1F
100
AcDbEntity
  8
0-1_ピット
  6
Continuous
 62
     2
370
    13
100
AcDbLine
 10
-195.9810885762093
 20
544.617198655935
 30
0.0
 11
-175.9815174719018
 21
544.617198655935
 31
0.0
  0
LINE
  5
F0
330
1F
100
AcDbEntity
  8
0-1_ピット
  6
Continuous
 62
     2
370
    13
100
AcDbLine
 10
-239.7197393363446
 20
596.5136434405636
 30
0.0
 11
-275.2707548293765
 21
560.2219415824552
 31
0.0
  0
LINE
  5
F1
330
1F
100
AcDbEntity
  8
0-1_ピット
  6
Continuous
 62
     2
370
    13
100
AcDbLine
 10
-226.0735320939459
 20
601.6172382463069
 30
0.0
 11
-145.8884800985912
 21
601.6172382463069
 31
0.0
  0
LINE
  5
F2
330
1F
100
AcDbEntity
  8
0-1_ピット
  6
Continuous
 62
     2
370
    13
100
AcDbLine
 10
-132.2422728561924
 20
596.5136434405636
 30
0.0
 11
-96.69155429094741
 21
560.2219415824552
 31
0.0
  0
LINE
  5
F3
330
1F
100
AcDbEntity
  8
0-1_ピット
  6
Continuous
 62
     2
370
    13
100
AcDbLine
 10
-252.1880340470709
 20
524.3400000706313
 30
0.0
 11
-119.7739781454662
 21
524.3400000706313
 31
0.0
  0
LINE
  5
F4
330
1F
100
AcDbEntity
  8
0-1_ピット
  6
Continuous
 62
     2
370
    13
100
AcDbLine
 10
62.74189099515883
 20
209.4100750284011
 30
0.0
 11
62.74189099515883
 21
341.8238340022194
 31
0.0
  0
LINE
  5
F5
330
1F
100
AcDbEntity
  8
0-1_ピット
  6
Continuous
 62
     2
370
    13
100
AcDbLine
 10
134.914940509517
 20
329.3564300748542
 30
0.0
 11
98.62383250698322
 21
364.9064063206313
 31
0.0
  0
LINE
  5
F6
330
1F
100
AcDbEntity
  8
0-1_ピット
  6
Continuous
 62
     2
370
    13
100
AcDbLine
 10
140.0188322430476
 20
235.5242800537391
 30
0.0
 11
140.0188322430476
 21
315.7096289768813
 31
0.0
  0
LINE
  5
F7
330
1F
100
AcDbEntity
  8
0-1_ピット
  6
Continuous
 62
     2
370
    13
100
AcDbLine
 10
134.914940509517
 20
221.8780728113407
 30
0.0
 11
98.62383250698322
 21
186.3272057822022
 31
0.0
  0
LINE
  5
F8
330
1F
100
AcDbEntity
  8
0-1_ピット
  6
Continuous
 62
     2
370
    13
100
AcDbLine
 10
63.01922154836856
 20
348.0189353535704
 30
0.0
 11
63.01922154836856
 21
495.6169875072865
 31
0.0
  0
LINE
  5
F9
330
1F
100
AcDbEntity
  8
0-1_ピット
  6
Continuous
 62
     2
370
    13
100
AcDbLine
 10
92.01926773713541
 20
380.6222002395501
 30
0.0
 11
92.01926773713541
 21
495.6169875072865
 31
0.0
  0
LINE
  5
FA
330
1F
100
AcDbEntity
  8
0-1_ピット
  6
Continuous
 62
     2
370
    13
100
AcDbLine
 10
94.01907638367263
 20
382.0225116838068
 30
0.0
 11
94.01907638367263
 21
495.6169875072865
 31
0.0
  0
LINE
  5
FB
330
1F
100
AcDbEntity
  8
0-1_ピット
  6
Continuous
 62
     2
370
    13
100
AcDbLine
 10
83.01879265267573
 20
265.6167235714756
 30
0.0
 11
83.01879265267573
 21
285.6165916035704
 31
0.0
  0
LINE
  5
FC
330
1F
100
AcDbEntity
  8
0-1_ピット
  6
Continuous
 62
     2
370
    13
100
AcDbLine
 10
137.0145168925407
 20
331.4984671314417
 30
0.0
 11
100.0232531678785
 21
367.7349404211381
 31
0.0
  0
LINE
  5
FD
330
1F
100
AcDbEntity
  8
0-1_ピット
  6
Continuous
 62
     2
370
    13
100
AcDbLine
 10
132.0872971923717
 20
327.5297303282323
 30
0.0
 11
71.29519283215231
 21
338.1686529422532
 31
0.0
  0
LINE
  5
FE
330
1F
100
AcDbEntity
  8
0-1_ピット
  6
Continuous
 62
     2
370
    13
100
AcDbLine
 10
132.0872971923717
 20
223.7038817746006
 30
0.0
 11
71.29519283215231
 21
213.0652560883678
 31
0.0
  0
LINE
  5
FF
330
1F
100
AcDbEntity
  8
0-1_ピット
  6
Continuous
 62
     2
370
    13
100
AcDbLine
 10
137.0145168925407
 20
219.7351449713912
 30
0.0
 11
100.0232531678785
 21
183.4989686094823
 31
0.0
  0
LINE
  5
100
330
1F
100
AcDbEntity
  8
0-1_ピット
  6
Continuous
 62
     2
370
    13
100
AcDbLine
 10
117.0188058494664
 20
265.6167235714756
 30
0.0
 11
117.0188058494664
 21
285.6165916035704
 31
0.0
  0
LINE
  5
101
330
1F
100
AcDbEntity
  8
0-1_ピット
  6
Continuous
 62
     2
370
    13
100
AcDbLine
 10
85.01889822700008
 20
265.6167235714756
 30
0.0
 11
85.01889822700008
 21
285.6165916035704
 31
0.0
  0
LINE
  5
102
330
1F
100
AcDbEntity
  8
0-1_ピット
  6
Continuous
 62
     2
370
    13
100
AcDbLine
 10
115.0189972029291
 20
265.6167235714756
 30
0.0
 11
115.0189972029291
 21
285.6165916035704
 31
0.0
  0
LINE
  5
103
330
1F
100
AcDbEntity
  8
0-1_ピット
  6
Continuous
 62
     2
370
    13
100
AcDbLine
 10
131.7428609592635
 20
325.5599113881991
 30
0.0
 11
70.95016274346978
 21
336.1988340022194
 31
0.0
  0
LINE
  5
104
330
1F
100
AcDbEntity
  8
0-1_ピット
  6
Continuous
 62
     2
370
    13
100
AcDbLine
 10
131.7428609592635
 20
225.6737007146344
 30
0.0
 11
70.95016274346978
 21
215.0356688839756
 31
0.0
  0
LINE
  5
105
330
1F
100
AcDbEntity
  8
0-1_ピット
  6
Continuous
 62
     2
370
    13
100
AcDbLine
 10
143.0189906045338
 20
234.022419306273
 30
0.0
 11
143.0189906045338
 21
317.2114897243475
 31
0.0
  0
LINE
  5
106
330
1F
100
AcDbEntity
  8
0-1_ピット
  6
JWW_CENTER2
 62
     2
370
    13
100
AcDbLine
 10
100.0190961788582
 20
242.5181171525568
 30
0.0
 11
100.0190961788582
 21
308.5293212277256
 31
0.0
  0
LINE
  5
107
330
1F
100
AcDbEntity
  8
0-0_通り芯
  6
Continuous
 62
     3
370
    13
100
AcDbLine
 10
-356.9811248673834
 20
126.6171062784011
 30
0.0
 11
-356.9811248673834
 21
300.6167895554287
 31
0.0
  0
LINE
  5
108
330
1F
100
AcDbEntity
  8
0-0_通り芯
  6
Continuous
 62
     3
370
    13
100
AcDbLine
 10
-358.981081977814
 20
126.6171062784011
 30
0.0
 11
-358.981081977814
 21
225.6169875072865
 31
0.0
  0
LINE
  5
109
330
1F
100
AcDbEntity
  8
0-0_通り芯
  6
Continuous
 62
     3
370
    13
100
AcDbLine
 10
-344.9812337409053
 20
126.6171062784011
 30
0.0
 11
-344.9812337409053
 21
300.6167895554287
 31
0.0
  0
LINE
  5
10A
330
1F
100
AcDbEntity
  8
0-0_通り芯
  6
Continuous
 62
     3
370
    13
100
AcDbLine
 10
-342.9809797026874
 20
126.6171062784011
 30
0.0
 11
-342.9809797026874
 21
225.6169875072865
 31
0.0
  0
LINE
  5
10B
330
1F
100
AcDbEntity
  8
0-0_通り芯
  6
Continuous
 62
     3
370
    13
100
AcDbLine
 10
-548.9810159938615
 20
-63.38312466543329
 30
0.0
 11
-548.9810159938615
 21
94.61690172814798
 31
0.0
  0
LINE
  5
10C
330
1F
100
AcDbEntity
  8
0-0_通り芯
  6
Continuous
 62
     3
370
    13
100
AcDbLine
 10
-546.9810588834307
 20
-63.38312466543329
 30
0.0
 11
-546.9810588834307
 21
94.61690172814798
 31
0.0
  0
LINE
  5
10D
330
1F
100
AcDbEntity
  8
0-0_通り芯
  6
Continuous
 62
     3
370
    13
100
AcDbLine
 10
-534.981019293059
 20
-63.38312466543329
 30
0.0
 11
-534.981019293059
 21
94.61690172814798
 31
0.0
  0
LINE
  5
10E
330
1F
100
AcDbEntity
  8
0-0_通り芯
  6
Continuous
 62
     3
370
    13
100
AcDbLine
 10
-532.9810621826283
 20
-63.38312466543329
 30
0.0
 11
-532.9810621826283
 21
94.61690172814798
 31
0.0
  0
LINE
  5
10F
330
1F
100
AcDbEntity
  8
0-0_通り芯
  6
Continuous
 62
     3
370
    13
100
AcDbLine
 10
-356.9811248673834
 20
-63.38312466543329
 30
0.0
 11
-356.9811248673834
 21
94.61690172814798
 31
0.0
  0
LINE
  5
110
330
1F
100
AcDbEntity
  8
0-0_通り芯
  6
Continuous
 62
     3
370
    13
100
AcDbLine
 10
-358.981081977814
 20
-63.38312466543329
 30
0.0
 11
-358.981081977814
 21
94.61690172814798
 31
0.0
  0
LINE
  5
111
330
1F
100
AcDbEntity
  8
0-0_通り芯
  6
Continuous
 62
     3
370
    13
100
AcDbLine
 10
-344.9812337409053
 20
-63.38312466543329
 30
0.0
 11
-344.9812337409053
 21
94.61690172814798
 31
0.0
  0
LINE
  5
112
330
1F
100
AcDbEntity
  8
0-0_通り芯
  6
Continuous
 62
     3
370
    13
100
AcDbLine
 10
-342.9809797026874
 20
-63.38312466543329
 30
0.0
 11
-342.9809797026874
 21
94.61690172814798
 31
0.0
  0
LINE
  5
113
330
1F
100
AcDbEntity
  8
0-0_通り芯
  6
Continuous
 62
     3
370
    13
100
AcDbLine
 10
-524.981085277012
 20
116.6171722623542
 30
0.0
 11
-366.9810588834305
 21
116.6171722623542
 31
0.0
  0
LINE
  5
114
330
1F
100
AcDbEntity
  8
0-0_通り芯
  6
Continuous
 62
     3
370
    13
100
AcDbLine
 10
-524.981085277012
 20
118.6169809088912
 30
0.0
 11
-366.9810588834305
 21
118.6169809088912
 31
0.0
  0
LINE
  5
115
330
1F
100
AcDbEntity
  8
0-0_通り芯
  6
Continuous
 62
     3
370
    13
100
AcDbLine
 10
-524.981085277012
 20
102.6173240254454
 30
0.0
 11
-366.9810588834305
 21
102.6173240254454
 31
0.0
  0
LINE
  5
116
330
1F
100
AcDbEntity
  8
0-0_通り芯
  6
Continuous
 62
     3
370
    13
100
AcDbLine
 10
-524.981085277012
 20
104.6168357441954
 30
0.0
 11
-366.9810588834305
 21
104.6168357441954
 31
0.0
  0
LINE
  5
117
330
1F
100
AcDbEntity
  8
0-0_通り芯
  6
Continuous
 62
     3
370
    13
100
AcDbLine
 10
-524.981085277012
 20
-85.38309827185202
 30
0.0
 11
-366.9810588834305
 21
-85.38309827185202
 31
0.0
  0
LINE
  5
118
330
1F
100
AcDbEntity
  8
0-0_通り芯
  6
Continuous
 62
     3
370
    13
100
AcDbLine
 10
-524.981085277012
 20
-73.38276175369259
 30
0.0
 11
-366.9810588834305
 21
-73.38276175369259
 31
0.0
  0
LINE
  5
119
330
1F
100
AcDbEntity
  8
0-0_通り芯
  6
Continuous
 62
     3
370
    13
100
AcDbLine
 10
-524.981085277012
 20
-71.3829531071562
 30
0.0
 11
-366.9810588834305
 21
-71.3829531071562
 31
0.0
  0
LINE
  5
11A
330
1F
100
AcDbEntity
  8
0-0_通り芯
  6
Continuous
 62
     3
370
    13
100
AcDbLine
 10
-524.981085277012
 20
-87.38320384617595
 30
0.0
 11
-366.9810588834305
 21
-87.38320384617595
 31
0.0
  0
LINE
  5
11B
330
1F
100
AcDbEntity
  8
0-0_通り芯
  6
Continuous
 62
     3
370
    13
100
AcDbLine
 10
-334.9811512609643
 20
116.6171722623542
 30
0.0
 11
-160.980874128363
 21
116.6171722623542
 31
0.0
  0
LINE
  5
11C
330
1F
100
AcDbEntity
  8
0-0_通り芯
  6
Continuous
 62
     3
370
    13
100
AcDbLine
 10
-334.9811512609643
 20
118.6169809088912
 30
0.0
 11
-235.9809731042921
 21
118.6169809088912
 31
0.0
  0
LINE
  5
11D
330
1F
100
AcDbEntity
  8
0-0_通り芯
  6
Continuous
 62
     3
370
    13
100
AcDbLine
 10
-334.9811512609643
 20
102.6173240254454
 30
0.0
 11
-235.9809731042921
 21
102.6173240254454
 31
0.0
  0
LINE
  5
11E
330
1F
100
AcDbEntity
  8
0-0_通り芯
  6
Continuous
 62
     3
370
    13
100
AcDbLine
 10
-334.9811512609643
 20
104.6168357441954
 30
0.0
 11
-160.980874128363
 21
104.6168357441954
 31
0.0
  0
LINE
  5
11F
330
1F
100
AcDbEntity
  8
0-0_通り芯
  6
Continuous
 62
     3
370
    13
100
AcDbLine
 10
-334.9811512609643
 20
-71.3829531071562
 30
0.0
 11
-235.9809731042921
 21
-71.3829531071562
 31
0.0
  0
LINE
  5
120
330
1F
100
AcDbEntity
  8
0-0_通り芯
  6
Continuous
 62
     3
370
    13
100
AcDbLine
 10
-334.9811512609643
 20
-73.38276175369259
 30
0.0
 11
-160.980874128363
 21
-73.38276175369259
 31
0.0
  0
LINE
  5
121
330
1F
100
AcDbEntity
  8
0-0_通り芯
  6
Continuous
 62
     3
370
    13
100
AcDbLine
 10
-334.9811512609643
 20
-85.38309827185202
 30
0.0
 11
-160.980874128363
 21
-85.38309827185202
 31
0.0
  0
LINE
  5
122
330
1F
100
AcDbEntity
  8
0-0_通り芯
  6
Continuous
 62
     3
370
    13
100
AcDbLine
 10
-334.9811512609643
 20
-87.38320384617595
 30
0.0
 11
-235.9809731042921
 21
-87.38320384617595
 31
0.0
  0
LINE
  5
123
330
1F
100
AcDbEntity
  8
0-0_通り芯
  6
Continuous
 62
     3
370
    13
100
AcDbLine
 10
-160.980874128363
 20
-263.3829926975281
 30
0.0
 11
-160.980874128363
 21
-85.38309827185202
 31
0.0
  0
LINE
  5
124
330
1F
100
AcDbEntity
  8
0-1_ピット
  6
JWW_CENTER2
 62
     2
370
    13
100
AcDbLine
 10
76.73253447066571
 20
275.6172514430975
 30
0.0
 11
122.4246731425407
 21
275.6172514430975
 31
0.0
  0
LINE
  5
125
330
1F
100
AcDbEntity
  8
0-0_通り芯
  6
Continuous
 62
     3
370
    13
100
AcDbLine
 10
39.01914236762508
 20
-835.3829003199937
 30
0.0
 11
39.01914236762508
 21
486.6171062784011
 31
0.0
  0
LINE
  5
126
330
1F
100
AcDbEntity
  8
0-1_ピット
  6
Continuous
 62
     2
370
    13
100
AcDbLine
 10
92.01926773713541
 20
-519.3775028326627
 30
0.0
 11
92.01926773713541
 21
170.6114118632834
 31
0.0
  0
LINE
  5
127
330
1F
100
AcDbEntity
  8
0-1_ピット
  6
Continuous
 62
     2
370
    13
100
AcDbLine
 10
63.01922154836856
 20
-551.9813615742166
 30
0.0
 11
63.01922154836856
 21
203.2152706048376
 31
0.0
  0
LINE
  5
128
330
1F
100
AcDbEntity
  8
0-1_ピット
  6
Continuous
 62
     2
370
    13
100
AcDbLine
 10
44.01910937564885
 20
-844.3830784766664
 30
0.0
 11
44.01910937564885
 21
495.6169875072865
 31
0.0
  0
LINE
  5
129
330
1F
100
AcDbEntity
  8
0-1_ピット
  6
Continuous
 62
     2
370
    13
100
AcDbLine
 10
94.01907638367263
 20
-517.9777852439802
 30
0.0
 11
94.01907638367263
 21
169.2116942746011
 31
0.0
  0
LINE
  5
12A
330
1F
100
AcDbEntity
  8
0-1_ピット
  6
Continuous
 62
     2
370
    13
100
AcDbLine
 10
-979.5758943194526
 20
-904.3829795007372
 30
0.0
 11
-292.3864148008715
 21
-904.3829795007372
 31
0.0
  0
LINE
  5
12B
330
1F
100
AcDbEntity
  8
0-1_ピット
  6
Continuous
 62
     2
370
    13
100
AcDbLine
 10
-1305.981039088245
 20
-854.3833094205011
 30
0.0
 11
34.01887843181449
 21
-854.3833094205011
 31
0.0
  0
LINE
  5
12C
330
1F
100
AcDbEntity
  8
0-1_ピット
  6
Continuous
 62
     2
370
    13
100
AcDbLine
 10
-1014.629110377307
 20
-879.3831444606187
 30
0.0
 11
-257.3329018152296
 21
-879.3831444606187
 31
0.0
  0
LINE
  5
12D
330
1F
100
AcDbEntity
  8
0-1_ピット
  6
Continuous
 62
     2
370
    13
100
AcDbLine
 10
-980.9756119081351
 20
-902.3831708542
 30
0.0
 11
-290.9864002844018
 21
-902.3831708542
 31
0.0
  0
LINE
  5
12E
330
1F
100
AcDbEntity
  8
0-0_通り芯
  6
Continuous
 62
     3
370
    13
100
AcDbLine
 10
-1296.981083627413
 20
-849.38304548469
 30
0.0
 11
25.01870027514197
 21
-849.38304548469
 31
0.0
  0
LINE
  5
12F
330
1F
100
AcDbEntity
  8
0-1_ピット
  6
JWW_CENTER2
 62
     2
370
    13
100
AcDbLine
 10
76.73253447066571
 20
-624.3830454846895
 30
0.0
 11
122.4246731425407
 21
-624.3830454846895
 31
0.0
  0
LINE
  5
130
330
1F
100
AcDbEntity
  8
0-0_通り芯
  6
Continuous
 62
     3
370
    13
100
AcDbLine
 10
-724.9812502368934
 20
-649.382880524808
 30
0.0
 11
-546.9810588834307
 21
-649.382880524808
 31
0.0
  0
LINE
  5
131
330
1F
100
AcDbEntity
  8
0-0_通り芯
  6
Continuous
 62
     3
370
    13
100
AcDbLine
 10
-334.9811512609643
 20
-261.382887123203
 30
0.0
 11
-235.9809731042921
 21
-261.382887123203
 31
0.0
  0
LINE
  5
132
330
1F
100
AcDbEntity
  8
0-0_通り芯
  6
Continuous
 62
     3
370
    13
100
AcDbLine
 10
-334.9811512609643
 20
-263.3829926975281
 30
0.0
 11
-160.980874128363
 21
-263.3829926975281
 31
0.0
  0
LINE
  5
133
330
1F
100
AcDbEntity
  8
0-0_通り芯
  6
Continuous
 62
     3
370
    13
100
AcDbLine
 10
-334.9811512609643
 20
-275.3827353601125
 30
0.0
 11
-160.980874128363
 21
-275.3827353601125
 31
0.0
  0
LINE
  5
134
330
1F
100
AcDbEntity
  8
0-0_通り芯
  6
Continuous
 62
     3
370
    13
100
AcDbLine
 10
-334.9811512609643
 20
-277.3831378622239
 30
0.0
 11
-235.9809731042921
 21
-277.3831378622239
 31
0.0
  0
LINE
  5
135
330
1F
100
AcDbEntity
  8
0-0_通り芯
  6
Continuous
 62
     3
370
    13
100
AcDbLine
 10
-334.9811512609643
 20
-453.3829267135749
 30
0.0
 11
-160.980874128363
 21
-453.3829267135749
 31
0.0
  0
LINE
  5
136
330
1F
100
AcDbEntity
  8
0-0_通り芯
  6
Continuous
 62
     3
370
    13
100
AcDbLine
 10
-334.9811512609643
 20
-451.382821139251
 30
0.0
 11
-235.9809731042921
 21
-451.382821139251
 31
0.0
  0
LINE
  5
137
330
1F
100
AcDbEntity
  8
0-0_通り芯
  6
Continuous
 62
     3
370
    13
100
AcDbLine
 10
-334.9811512609643
 20
-467.3830718782708
 30
0.0
 11
-235.9809731042921
 21
-467.3830718782708
 31
0.0
  0
LINE
  5
138
330
1F
100
AcDbEntity
  8
0-0_通り芯
  6
Continuous
 62
     3
370
    13
100
AcDbLine
 10
-334.9811512609643
 20
-465.3826693761596
 30
0.0
 11
-160.980874128363
 21
-465.3826693761596
 31
0.0
  0
LINE
  5
139
330
1F
100
AcDbEntity
  8
0-0_通り芯
  6
Continuous
 62
     3
370
    13
100
AcDbLine
 10
-524.981085277012
 20
-261.382887123203
 30
0.0
 11
-366.9810588834305
 21
-261.382887123203
 31
0.0
  0
LINE
  5
13A
330
1F
100
AcDbEntity
  8
0-0_通り芯
  6
Continuous
 62
     3
370
    13
100
AcDbLine
 10
-524.981085277012
 20
-277.3831378622239
 30
0.0
 11
-366.9810588834305
 21
-277.3831378622239
 31
0.0
  0
LINE
  5
13B
330
1F
100
AcDbEntity
  8
0-0_通り芯
  6
Continuous
 62
     3
370
    13
100
AcDbLine
 10
-524.981085277012
 20
-275.3827353601125
 30
0.0
 11
-366.9810588834305
 21
-275.3827353601125
 31
0.0
  0
LINE
  5
13C
330
1F
100
AcDbEntity
  8
0-0_通り芯
  6
Continuous
 62
     3
370
    13
100
AcDbLine
 10
-524.981085277012
 20
-263.3829926975281
 30
0.0
 11
-366.9810588834305
 21
-263.3829926975281
 31
0.0
  0
LINE
  5
13D
330
1F
100
AcDbEntity
  8
0-0_通り芯
  6
Continuous
 62
     3
370
    13
100
AcDbLine
 10
-524.981085277012
 20
-453.3829267135749
 30
0.0
 11
-366.9810588834305
 21
-453.3829267135749
 31
0.0
  0
LINE
  5
13E
330
1F
100
AcDbEntity
  8
0-0_通り芯
  6
Continuous
 62
     3
370
    13
100
AcDbLine
 10
-524.981085277012
 20
-451.382821139251
 30
0.0
 11
-366.9810588834305
 21
-451.382821139251
 31
0.0
  0
LINE
  5
13F
330
1F
100
AcDbEntity
  8
0-0_通り芯
  6
Continuous
 62
     3
370
    13
100
AcDbLine
 10
-524.981085277012
 20
-467.3830718782708
 30
0.0
 11
-366.9810588834305
 21
-467.3830718782708
 31
0.0
  0
LINE
  5
140
330
1F
100
AcDbEntity
  8
0-0_通り芯
  6
Continuous
 62
     3
370
    13
100
AcDbLine
 10
-524.981085277012
 20
-465.3826693761596
 30
0.0
 11
-366.9810588834305
 21
-465.3826693761596
 31
0.0
  0
LINE
  5
141
330
1F
100
AcDbEntity
  8
0-0_通り芯
  6
Continuous
 62
     3
370
    13
100
AcDbLine
 10
-342.9809797026874
 20
-285.3829663039468
 30
0.0
 11
-342.9809797026874
 21
-443.3829926975278
 31
0.0
  0
LINE
  5
142
330
1F
100
AcDbEntity
  8
0-0_通り芯
  6
Continuous
 62
     3
370
    13
100
AcDbLine
 10
-344.9812337409053
 20
-285.3829663039468
 30
0.0
 11
-344.9812337409053
 21
-443.3829926975278
 31
0.0
  0
LINE
  5
143
330
1F
100
AcDbEntity
  8
0-0_通り芯
  6
Continuous
 62
     3
370
    13
100
AcDbLine
 10
-358.981081977814
 20
-285.3829663039468
 30
0.0
 11
-358.981081977814
 21
-443.3829926975278
 31
0.0
  0
LINE
  5
144
330
1F
100
AcDbEntity
  8
0-0_通り芯
  6
Continuous
 62
     3
370
    13
100
AcDbLine
 10
-356.9811248673834
 20
-285.3829663039468
 30
0.0
 11
-356.9811248673834
 21
-443.3829926975278
 31
0.0
  0
LINE
  5
145
330
1F
100
AcDbEntity
  8
0-0_通り芯
  6
Continuous
 62
     3
370
    13
100
AcDbLine
 10
-532.9810621826283
 20
-285.3829663039468
 30
0.0
 11
-532.9810621826283
 21
-443.3829926975278
 31
0.0
  0
LINE
  5
146
330
1F
100
AcDbEntity
  8
0-0_通り芯
  6
Continuous
 62
     3
370
    13
100
AcDbLine
 10
-534.981019293059
 20
-285.3829663039468
 30
0.0
 11
-534.981019293059
 21
-443.3829926975278
 31
0.0
  0
LINE
  5
147
330
1F
100
AcDbEntity
  8
0-0_通り芯
  6
Continuous
 62
     3
370
    13
100
AcDbLine
 10
-546.9810588834307
 20
-285.3829663039468
 30
0.0
 11
-546.9810588834307
 21
-443.3829926975278
 31
0.0
  0
LINE
  5
148
330
1F
100
AcDbEntity
  8
0-0_通り芯
  6
Continuous
 62
     3
370
    13
100
AcDbLine
 10
-548.9810159938615
 20
-285.3829663039468
 30
0.0
 11
-548.9810159938615
 21
-443.3829926975278
 31
0.0
  0
LINE
  5
149
330
1F
100
AcDbEntity
  8
0-0_通り芯
  6
Continuous
 62
     3
370
    13
100
AcDbLine
 10
-342.9809797026874
 20
-475.382900319994
 30
0.0
 11
-342.9809797026874
 21
-574.3830784766664
 31
0.0
  0
LINE
  5
14A
330
1F
100
AcDbEntity
  8
0-0_通り芯
  6
Continuous
 62
     3
370
    13
100
AcDbLine
 10
-344.9812337409053
 20
-475.382900319994
 30
0.0
 11
-344.9812337409053
 21
-649.382880524808
 31
0.0
  0
LINE
  5
14B
330
1F
100
AcDbEntity
  8
0-0_通り芯
  6
Continuous
 62
     3
370
    13
100
AcDbLine
 10
-358.981081977814
 20
-475.382900319994
 30
0.0
 11
-358.981081977814
 21
-574.3830784766664
 31
0.0
  0
LINE
  5
14C
330
1F
100
AcDbEntity
  8
0-0_通り芯
  6
Continuous
 62
     3
370
    13
100
AcDbLine
 10
-356.9811248673834
 20
-475.382900319994
 30
0.0
 11
-356.9811248673834
 21
-649.382880524808
 31
0.0
  0
LINE
  5
14D
330
1F
100
AcDbEntity
  8
0-1_ピット
  6
JWW_CENTER2
 62
     2
370
    13
100
AcDbLine
 10
100.0190961788582
 20
-591.2842081219364
 30
0.0
 11
100.0190961788582
 21
-657.2957091248927
 31
0.0
  0
LINE
  5
14E
330
1F
100
AcDbEntity
  8
0-1_ピット
  6
Continuous
 62
     2
370
    13
100
AcDbLine
 10
143.0189906045338
 20
-582.7885102756528
 30
0.0
 11
143.0189906045338
 21
-665.9778776215139
 31
0.0
  0
LINE
  5
14F
330
1F
100
AcDbEntity
  8
0-1_ピット
  6
Continuous
 62
     2
370
    13
100
AcDbLine
 10
131.7428609592635
 20
-574.4397916840139
 30
0.0
 11
70.95016274346978
 21
-563.8017598533552
 31
0.0
  0
LINE
  5
150
330
1F
100
AcDbEntity
  8
0-1_ピット
  6
Continuous
 62
     2
370
    13
100
AcDbLine
 10
131.7428609592635
 20
-674.3260023575783
 30
0.0
 11
70.95016274346978
 21
-684.9646280438114
 31
0.0
  0
LINE
  5
151
330
1F
100
AcDbEntity
  8
0-1_ピット
  6
Continuous
 62
     2
370
    13
100
AcDbLine
 10
115.0189972029291
 20
-614.3831114686427
 30
0.0
 11
115.0189972029291
 21
-634.38268257295
 31
0.0
  0
LINE
  5
152
330
1F
100
AcDbEntity
  8
0-1_ピット
  6
Continuous
 62
     2
370
    13
100
AcDbLine
 10
85.01889822700008
 20
-614.3831114686427
 30
0.0
 11
85.01889822700008
 21
-634.38268257295
 31
0.0
  0
LINE
  5
153
330
1F
100
AcDbEntity
  8
0-1_ピット
  6
Continuous
 62
     2
370
    13
100
AcDbLine
 10
117.0188058494664
 20
-614.3831114686427
 30
0.0
 11
117.0188058494664
 21
-634.38268257295
 31
0.0
  0
LINE
  5
154
330
1F
100
AcDbEntity
  8
0-1_ピット
  6
Continuous
 62
     2
370
    13
100
AcDbLine
 10
137.0145168925407
 20
-568.5012359407708
 30
0.0
 11
100.0232531678785
 21
-532.2650595788622
 31
0.0
  0
LINE
  5
155
330
1F
100
AcDbEntity
  8
0-1_ピット
  6
Continuous
 62
     2
370
    13
100
AcDbLine
 10
132.0872971923717
 20
-572.4699727439802
 30
0.0
 11
71.29519283215231
 21
-561.831347057747
 31
0.0
  0
LINE
  5
156
330
1F
100
AcDbEntity
  8
0-1_ピット
  6
Continuous
 62
     2
370
    13
100
AcDbLine
 10
132.0872971923717
 20
-676.2958212976122
 30
0.0
 11
71.29519283215231
 21
-686.9347439116325
 31
0.0
  0
LINE
  5
157
330
1F
100
AcDbEntity
  8
0-1_ピット
  6
Continuous
 62
     2
370
    13
100
AcDbLine
 10
137.0145168925407
 20
-680.2645581008215
 30
0.0
 11
100.0232531678785
 21
-716.5013283183046
 31
0.0
  0
LINE
  5
158
330
1F
100
AcDbEntity
  8
0-1_ピット
  6
Continuous
 62
     2
370
    13
100
AcDbLine
 10
83.01879265267573
 20
-614.3831114686427
 30
0.0
 11
83.01879265267573
 21
-634.38268257295
 31
0.0
  0
LINE
  5
159
330
1F
100
AcDbEntity
  8
0-1_ピット
  6
Continuous
 62
     2
370
    13
100
AcDbLine
 10
94.01907638367263
 20
-730.7886026531864
 30
0.0
 11
94.01907638367263
 21
-844.3830784766664
 31
0.0
  0
LINE
  5
15A
330
1F
100
AcDbEntity
  8
0-1_ピット
  6
Continuous
 62
     2
370
    13
100
AcDbLine
 10
92.01926773713541
 20
-729.3882912089296
 30
0.0
 11
92.01926773713541
 21
-844.3830784766664
 31
0.0
  0
LINE
  5
15B
330
1F
100
AcDbEntity
  8
0-1_ピット
  6
Continuous
 62
     2
370
    13
100
AcDbLine
 10
63.01922154836856
 20
-696.78502632295
 30
0.0
 11
63.01922154836856
 21
-850.3833951996387
 31
0.0
  0
LINE
  5
15C
330
1F
100
AcDbEntity
  8
0-1_ピット
  6
Continuous
 62
     2
370
    13
100
AcDbLine
 10
134.914940509517
 20
-570.6441637807202
 30
0.0
 11
98.62383250698322
 21
-535.0932967515816
 31
0.0
  0
LINE
  5
15D
330
1F
100
AcDbEntity
  8
0-1_ピット
  6
Continuous
 62
     2
370
    13
100
AcDbLine
 10
140.0188322430476
 20
-584.290371023119
 30
0.0
 11
140.0188322430476
 21
-664.4760168740479
 31
0.0
  0
LINE
  5
15E
330
1F
100
AcDbEntity
  8
0-1_ピット
  6
Continuous
 62
     2
370
    13
100
AcDbLine
 10
134.914940509517
 20
-678.1222241164465
 30
0.0
 11
98.62383250698322
 21
-713.6724972900108
 31
0.0
  0
LINE
  5
15F
330
1F
100
AcDbEntity
  8
0-1_ピット
  6
Continuous
 62
     2
370
    13
100
AcDbLine
 10
62.74189099515883
 20
-558.1761659977809
 30
0.0
 11
62.74189099515883
 21
-690.5896280438114
 31
0.0
  0
LINE
  5
160
330
1F
100
AcDbEntity
  8
0-1_ピット
  6
Continuous
 62
     2
370
    13
100
AcDbLine
 10
-252.1880340470709
 20
-879.1058139074096
 30
0.0
 11
-119.7739781454662
 21
-879.1058139074096
 31
0.0
  0
LINE
  5
161
330
1F
100
AcDbEntity
  8
0-1_ピット
  6
Continuous
 62
     2
370
    13
100
AcDbLine
 10
-132.2422728561924
 20
-945.2794374821559
 30
0.0
 11
-96.69155429094741
 21
-908.9880325518354
 31
0.0
  0
LINE
  5
162
330
1F
100
AcDbEntity
  8
0-1_ピット
  6
Continuous
 62
     2
370
    13
100
AcDbLine
 10
-226.0735320939459
 20
-950.3833292156864
 30
0.0
 11
-145.8884800985912
 21
-950.3833292156864
 31
0.0
  0
LINE
  5
163
330
1F
100
AcDbEntity
  8
0-1_ピット
  6
Continuous
 62
     2
370
    13
100
AcDbLine
 10
-239.7197393363446
 20
-945.2794374821559
 30
0.0
 11
-275.2707548293765
 21
-908.9880325518354
 31
0.0
  0
LINE
  5
164
330
1F
100
AcDbEntity
  8
0-1_ピット
  6
Continuous
 62
     2
370
    13
100
AcDbLine
 10
-195.9810885762093
 20
-893.3829926975282
 30
0.0
 11
-175.9815174719018
 21
-893.3829926975282
 31
0.0
  0
LINE
  5
165
330
1F
100
AcDbEntity
  8
0-1_ピット
  6
Continuous
 62
     2
370
    13
100
AcDbLine
 10
-130.0990480884558
 20
-947.3787169373929
 30
0.0
 11
-93.86272326265367
 21
-910.3877501405179
 31
0.0
  0
LINE
  5
166
330
1F
100
AcDbEntity
  8
0-1_ピット
  6
Continuous
 62
     2
370
    13
100
AcDbLine
 10
-134.0680818194527
 20
-942.4512003094364
 30
0.0
 11
-124.4792443247312
 21
-887.65941267219
 31
0.0
  0
LINE
  5
167
330
1F
100
AcDbEntity
  8
0-1_ピット
  6
Continuous
 62
     2
370
    13
100
AcDbLine
 10
-237.8939303730843
 20
-942.4512003094364
 30
0.0
 11
-247.4829163316993
 21
-887.65941267219
 31
0.0
  0
LINE
  5
168
330
1F
100
AcDbEntity
  8
0-1_ピット
  6
Continuous
 62
     2
370
    13
100
AcDbLine
 10
-241.8629641040808
 20
-947.3787169373929
 30
0.0
 11
-278.0992889298834
 21
-910.3877501405179
 31
0.0
  0
LINE
  5
169
330
1F
100
AcDbEntity
  8
0-1_ピット
  6
Continuous
 62
     2
370
    13
100
AcDbLine
 10
-195.9810885762093
 20
-927.3830058943184
 30
0.0
 11
-175.9815174719018
 21
-927.3830058943184
 31
0.0
  0
LINE
  5
16A
330
1F
100
AcDbEntity
  8
0-1_ピット
  6
Continuous
 62
     2
370
    13
100
AcDbLine
 10
-195.9810885762093
 20
-895.3833951996387
 30
0.0
 11
-175.9815174719018
 21
-895.3833951996387
 31
0.0
  0
LINE
  5
16B
330
1F
100
AcDbEntity
  8
0-1_ピット
  6
Continuous
 62
     2
370
    13
100
AcDbLine
 10
-195.9810885762093
 20
-925.3829003199937
 30
0.0
 11
-175.9815174719018
 21
-925.3829003199937
 31
0.0
  0
LINE
  5
16C
330
1F
100
AcDbEntity
  8
0-1_ピット
  6
Continuous
 62
     2
370
    13
100
AcDbLine
 10
-136.0380492233799
 20
-942.1070610041156
 30
0.0
 11
-126.4495086564459
 21
-887.3146795112948
 31
0.0
  0
LINE
  5
16D
330
1F
100
AcDbEntity
  8
0-1_ピット
  6
Continuous
 62
     2
370
    13
100
AcDbLine
 10
-235.9241114330506
 20
-942.1070610041156
 30
0.0
 11
-245.5126519999846
 21
-887.3146795112948
 31
0.0
  0
LINE
  5
16E
330
1F
100
AcDbEntity
  8
0-1_ピット
  6
Continuous
 62
     2
370
    13
100
AcDbLine
 10
-227.5758382330928
 20
-953.382893721599
 30
0.0
 11
-144.386173959444
 21
-953.382893721599
 31
0.0
  0
LINE
  5
16F
330
1F
100
AcDbEntity
  8
0-1_ピット
  6
JWW_CENTER2
 62
     2
370
    13
100
AcDbLine
 10
-219.0795465312346
 20
-910.3829992959229
 30
0.0
 11
-153.0684909199593
 21
-910.3829992959229
 31
0.0
  0
LINE
  5
170
330
1F
100
AcDbEntity
  8
0-1_ピット
  6
JWW_CENTER2
 62
     2
370
    13
100
AcDbLine
 10
-185.9810060962683
 20
-887.0967345155179
 30
0.0
 11
-185.9810060962683
 21
-932.7885762596054
 31
0.0
  0
LINE
  5
171
330
1F
100
AcDbEntity
  8
0-1_ピット
  6
Continuous
 62
     2
370
    13
100
AcDbLine
 10
-114.6291103773074
 20
-879.3831444606187
 30
0.0
 11
34.01887843181449
 21
-879.3831444606187
 31
0.0
  0
LINE
  5
172
330
1F
100
AcDbEntity
  8
0-1_ピット
  6
Continuous
 62
     2
370
    13
100
AcDbLine
 10
-79.57589431945273
 20
-904.3829795007372
 30
0.0
 11
34.03758488240538
 21
-904.3829795007372
 31
0.0
  0
LINE
  5
173
330
1F
100
AcDbEntity
  8
0-1_ピット
  6
Continuous
 62
     2
370
    13
100
AcDbLine
 10
-80.97561190813491
 20
-902.3831708542
 30
0.0
 11
34.05391591069947
 21
-902.3831708542
 31
0.0
  0
LINE
  5
174
330
1F
100
AcDbEntity
  8
0-0_通り芯
  6
Continuous
 62
     3
370
    13
100
AcDbLine
 10
-714.9811677569528
 20
-275.3827353601125
 30
0.0
 11
-556.9811413633715
 21
-275.3827353601125
 31
0.0
  0
LINE
  5
175
330
1F
100
AcDbEntity
  8
0-0_通り芯
  6
Continuous
 62
     3
370
    13
100
AcDbLine
 10
-714.9811677569528
 20
-263.3829926975281
 30
0.0
 11
-556.9811413633715
 21
-263.3829926975281
 31
0.0
  0
LINE
  5
176
330
1F
100
AcDbEntity
  8
0-0_通り芯
  6
Continuous
 62
     3
370
    13
100
AcDbLine
 10
-714.9811677569528
 20
-261.382887123203
 30
0.0
 11
-556.9811413633715
 21
-261.382887123203
 31
0.0
  0
LINE
  5
177
330
1F
100
AcDbEntity
  8
0-0_通り芯
  6
Continuous
 62
     3
370
    13
100
AcDbLine
 10
-714.9811677569528
 20
-277.3831378622239
 30
0.0
 11
-556.9811413633715
 21
-277.3831378622239
 31
0.0
  0
LINE
  5
178
330
1F
100
AcDbEntity
  8
0-0_通り芯
  6
Continuous
 62
     3
370
    13
100
AcDbLine
 10
-714.9811677569528
 20
-467.3830718782708
 30
0.0
 11
-556.9811413633715
 21
-467.3830718782708
 31
0.0
  0
LINE
  5
179
330
1F
100
AcDbEntity
  8
0-0_通り芯
  6
Continuous
 62
     3
370
    13
100
AcDbLine
 10
-714.9811677569528
 20
-465.3826693761596
 30
0.0
 11
-556.9811413633715
 21
-465.3826693761596
 31
0.0
  0
LINE
  5
17A
330
1F
100
AcDbEntity
  8
0-0_通り芯
  6
Continuous
 62
     3
370
    13
100
AcDbLine
 10
-714.9811677569528
 20
-453.3829267135749
 30
0.0
 11
-556.9811413633715
 21
-453.3829267135749
 31
0.0
  0
LINE
  5
17B
330
1F
100
AcDbEntity
  8
0-0_通り芯
  6
Continuous
 62
     3
370
    13
100
AcDbLine
 10
-714.9811677569528
 20
-451.382821139251
 30
0.0
 11
-556.9811413633715
 21
-451.382821139251
 31
0.0
  0
LINE
  5
17C
330
1F
100
AcDbEntity
  8
0-0_通り芯
  6
Continuous
 62
     3
370
    13
100
AcDbLine
 10
-722.9812931264627
 20
-574.3830784766664
 30
0.0
 11
-548.9810159938615
 21
-574.3830784766664
 31
0.0
  0
LINE
  5
17D
330
1F
100
AcDbEntity
  8
0-0_通り芯
  6
Continuous
 62
     3
370
    13
100
AcDbLine
 10
-235.9809731042921
 20
-574.3830784766664
 30
0.0
 11
-160.980874128363
 21
-649.382880524808
 31
0.0
  0
LINE
  5
17E
330
1F
100
AcDbEntity
  8
0-0_通り芯
  6
Continuous
 62
     3
370
    13
100
AcDbLine
 10
-235.9809731042921
 20
-277.3831378622239
 30
0.0
 11
-235.9809731042921
 21
-451.382821139251
 31
0.0
  0
LINE
  5
17F
330
1F
100
AcDbEntity
  8
0-0_通り芯
  6
Continuous
 62
     3
370
    13
100
AcDbLine
 10
-235.9809731042921
 20
-467.3830718782708
 30
0.0
 11
-235.9809731042921
 21
-574.3830784766664
 31
0.0
  0
LINE
  5
180
330
1F
100
AcDbEntity
  8
0-0_通り芯
  6
Continuous
 62
     3
370
    13
100
AcDbLine
 10
-342.9809797026874
 20
-574.3830784766664
 30
0.0
 11
-235.9809731042921
 21
-574.3830784766664
 31
0.0
  0
LINE
  5
181
330
1F
100
AcDbEntity
  8
0-0_通り芯
  6
Continuous
 62
     3
370
    13
100
AcDbLine
 10
-532.9810621826283
 20
-574.3830784766664
 30
0.0
 11
-358.981081977814
 21
-574.3830784766664
 31
0.0
  0
LINE
  5
182
330
1F
100
AcDbEntity
  8
0-0_通り芯
  6
Continuous
 62
     3
370
    13
100
AcDbLine
 10
-532.9810621826283
 20
-475.382900319994
 30
0.0
 11
-532.9810621826283
 21
-574.3830784766664
 31
0.0
  0
LINE
  5
183
330
1F
100
AcDbEntity
  8
0-0_通り芯
  6
Continuous
 62
     3
370
    13
100
AcDbLine
 10
-534.981019293059
 20
-475.382900319994
 30
0.0
 11
-534.981019293059
 21
-649.382880524808
 31
0.0
  0
LINE
  5
184
330
1F
100
AcDbEntity
  8
0-0_通り芯
  6
Continuous
 62
     3
370
    13
100
AcDbLine
 10
-546.9810588834307
 20
-475.382900319994
 30
0.0
 11
-546.9810588834307
 21
-649.382880524808
 31
0.0
  0
LINE
  5
185
330
1F
100
AcDbEntity
  8
0-0_通り芯
  6
Continuous
 62
     3
370
    13
100
AcDbLine
 10
-548.9810159938615
 20
-475.382900319994
 30
0.0
 11
-548.9810159938615
 21
-574.3830784766664
 31
0.0
  0
LINE
  5
186
330
1F
100
AcDbEntity
  8
0-0_通り芯
  6
Continuous
 62
     3
370
    13
100
AcDbLine
 10
-534.981019293059
 20
-649.382880524808
 30
0.0
 11
-356.9811248673834
 21
-649.382880524808
 31
0.0
  0
LINE
  5
187
330
1F
100
AcDbEntity
  8
0-0_通り芯
  6
Continuous
 62
     3
370
    13
100
AcDbLine
 10
-344.9812337409053
 20
-649.382880524808
 30
0.0
 11
-160.980874128363
 21
-649.382880524808
 31
0.0
  0
LINE
  5
188
330
1F
100
AcDbEntity
  8
0-0_通り芯
  6
Continuous
 62
     3
370
    13
100
AcDbLine
 10
-160.980874128363
 20
-465.3826693761596
 30
0.0
 11
-160.980874128363
 21
-649.382880524808
 31
0.0
  0
LINE
  5
189
330
1F
100
AcDbEntity
  8
0-0_通り芯
  6
Continuous
 62
     3
370
    13
100
AcDbLine
 10
-160.980874128363
 20
-275.3827353601125
 30
0.0
 11
-160.980874128363
 21
-453.3829267135749
 31
0.0
  0
LINE
  5
18A
330
1F
100
AcDbEntity
  8
0-0_通り芯
  6
Continuous
 62
     3
370
    13
100
AcDbLine
 10
-160.980874128363
 20
-263.3829926975281
 30
0.0
 11
-235.9809731042921
 21
-261.382887123203
 31
0.0
  0
LINE
  5
18B
330
1F
100
AcDbEntity
  8
0-0_通り芯
  6
Continuous
 62
     3
370
    13
100
AcDbLine
 10
-235.9809731042921
 20
-277.3831378622239
 30
0.0
 11
-160.980874128363
 21
-275.3827353601125
 31
0.0
  0
LINE
  5
18C
330
1F
100
AcDbEntity
  8
0-0_通り芯
  6
Continuous
 62
     3
370
    13
100
AcDbLine
 10
-160.980874128363
 20
-453.3829267135749
 30
0.0
 11
-235.9809731042921
 21
-451.382821139251
 31
0.0
  0
LINE
  5
18D
330
1F
100
AcDbEntity
  8
0-0_通り芯
  6
Continuous
 62
     3
370
    13
100
AcDbLine
 10
-160.980874128363
 20
-465.3826693761596
 30
0.0
 11
-235.9809731042921
 21
-467.3830718782708
 31
0.0
  0
LINE
  5
18E
330
1F
100
AcDbEntity
  8
0-0_通り芯
  6
Continuous
 62
     3
370
    13
100
AcDbLine
 10
-342.9809797026874
 20
-574.3830784766664
 30
0.0
 11
-344.9812337409053
 21
-649.382880524808
 31
0.0
  0
LINE
  5
18F
330
1F
100
AcDbEntity
  8
0-0_通り芯
  6
Continuous
 62
     3
370
    13
100
AcDbLine
 10
-356.9811248673834
 20
-649.382880524808
 30
0.0
 11
-358.981081977814
 21
-574.3830784766664
 31
0.0
  0
LINE
  5
190
330
1F
100
AcDbEntity
  8
0-0_通り芯
  6
Continuous
 62
     3
370
    13
100
AcDbLine
 10
-532.9810621826283
 20
-574.3830784766664
 30
0.0
 11
-534.981019293059
 21
-649.382880524808
 31
0.0
  0
LINE
  5
191
330
1F
100
AcDbEntity
  8
0-0_通り芯
  6
Continuous
 62
     3
370
    13
100
AcDbLine
 10
-546.9810588834307
 20
-649.382880524808
 30
0.0
 11
-548.9810159938615
 21
-574.3830784766664
 31
0.0
  0
LINE
  5
192
330
1F
100
AcDbEntity
  8
0-0_通り芯
  6
Continuous
 62
     3
370
    13
100
AcDbLine
 10
-724.9812502368934
 20
-649.382880524808
 30
0.0
 11
-722.9812931264627
 21
-574.3830784766664
 31
0.0
  0
LINE
  5
193
330
1F
100
AcDbEntity
  8
0-0_通り芯
  6
Continuous
 62
     3
370
    13
100
AcDbLine
 10
-738.9812469376959
 20
-574.3830784766664
 30
0.0
 11
-736.9812898272653
 21
-649.382880524808
 31
0.0
  0
LINE
  5
194
330
1F
100
AcDbEntity
  8
0-0_通り芯
  6
Continuous
 62
     3
370
    13
100
AcDbLine
 10
-914.9811842529409
 20
-649.382880524808
 30
0.0
 11
-912.98122714251
 21
-574.3830784766664
 31
0.0
  0
LINE
  5
195
330
1F
100
AcDbEntity
  8
0-0_通り芯
  6
Continuous
 62
     3
370
    13
100
AcDbLine
 10
-928.981329417637
 20
-574.3830784766664
 30
0.0
 11
-926.9810753794188
 21
-649.382880524808
 31
0.0
  0
LINE
  5
196
330
1F
100
AcDbEntity
  8
0-0_通り芯
  6
Continuous
 62
     3
370
    13
100
AcDbLine
 10
-1110.980841136387
 20
-465.3826693761596
 30
0.0
 11
-1035.981336016032
 21
-467.3830718782708
 31
0.0
  0
LINE
  5
197
330
1F
100
AcDbEntity
  8
0-0_通り芯
  6
Continuous
 62
     3
370
    13
100
AcDbLine
 10
-1110.980841136387
 20
-453.3829267135749
 30
0.0
 11
-1035.981336016032
 21
-451.382821139251
 31
0.0
  0
LINE
  5
198
330
1F
100
AcDbEntity
  8
0-0_通り芯
  6
Continuous
 62
     3
370
    13
100
AcDbLine
 10
-1035.981336016032
 20
-277.3831378622239
 30
0.0
 11
-1110.980841136387
 21
-275.3827353601125
 31
0.0
  0
LINE
  5
199
330
1F
100
AcDbEntity
  8
0-0_通り芯
  6
Continuous
 62
     3
370
    13
100
AcDbLine
 10
-1110.980841136387
 20
-263.3829926975281
 30
0.0
 11
-1035.981336016032
 21
-261.382887123203
 31
0.0
  0
LINE
  5
19A
330
1F
100
AcDbEntity
  8
0-0_通り芯
  6
Continuous
 62
     3
370
    13
100
AcDbLine
 10
-1110.980841136387
 20
-275.3827353601125
 30
0.0
 11
-1110.980841136387
 21
-453.3829267135749
 31
0.0
  0
LINE
  5
19B
330
1F
100
AcDbEntity
  8
0-0_通り芯
  6
Continuous
 62
     3
370
    13
100
AcDbLine
 10
-1110.980841136387
 20
-465.3826693761596
 30
0.0
 11
-1110.980841136387
 21
-649.382880524808
 31
0.0
  0
LINE
  5
19C
330
1F
100
AcDbEntity
  8
0-0_通り芯
  6
Continuous
 62
     3
370
    13
100
AcDbLine
 10
-926.9810753794188
 20
-649.382880524808
 30
0.0
 11
-1110.980841136387
 21
-649.382880524808
 31
0.0
  0
LINE
  5
19D
330
1F
100
AcDbEntity
  8
0-0_通り芯
  6
Continuous
 62
     3
370
    13
100
AcDbLine
 10
-736.9812898272653
 20
-649.382880524808
 30
0.0
 11
-914.9811842529409
 21
-649.382880524808
 31
0.0
  0
LINE
  5
19E
330
1F
100
AcDbEntity
  8
0-0_通り芯
  6
Continuous
 62
     3
370
    13
100
AcDbLine
 10
-722.9812931264627
 20
-475.382900319994
 30
0.0
 11
-722.9812931264627
 21
-574.3830784766664
 31
0.0
  0
LINE
  5
19F
330
1F
100
AcDbEntity
  8
0-0_通り芯
  6
Continuous
 62
     3
370
    13
100
AcDbLine
 10
-724.9812502368934
 20
-475.382900319994
 30
0.0
 11
-724.9812502368934
 21
-649.382880524808
 31
0.0
  0
LINE
  5
1A0
330
1F
100
AcDbEntity
  8
0-0_通り芯
  6
Continuous
 62
     3
370
    13
100
AcDbLine
 10
-736.9812898272653
 20
-475.382900319994
 30
0.0
 11
-736.9812898272653
 21
-649.382880524808
 31
0.0
  0
LINE
  5
1A1
330
1F
100
AcDbEntity
  8
0-0_通り芯
  6
Continuous
 62
     3
370
    13
100
AcDbLine
 10
-738.9812469376959
 20
-475.382900319994
 30
0.0
 11
-738.9812469376959
 21
-574.3830784766664
 31
0.0
  0
LINE
  5
1A2
330
1F
100
AcDbEntity
  8
0-0_通り芯
  6
Continuous
 62
     3
370
    13
100
AcDbLine
 10
-738.9812469376959
 20
-574.3830784766664
 30
0.0
 11
-912.98122714251
 21
-574.3830784766664
 31
0.0
  0
LINE
  5
1A3
330
1F
100
AcDbEntity
  8
0-0_通り芯
  6
Continuous
 62
     3
370
    13
100
AcDbLine
 10
-928.981329417637
 20
-574.3830784766664
 30
0.0
 11
-1035.981336016032
 21
-574.3830784766664
 31
0.0
  0
LINE
  5
1A4
330
1F
100
AcDbEntity
  8
0-0_通り芯
  6
Continuous
 62
     3
370
    13
100
AcDbLine
 10
-1035.981336016032
 20
-467.3830718782708
 30
0.0
 11
-1035.981336016032
 21
-574.3830784766664
 31
0.0
  0
LINE
  5
1A5
330
1F
100
AcDbEntity
  8
0-0_通り芯
  6
Continuous
 62
     3
370
    13
100
AcDbLine
 10
-1035.981336016032
 20
-277.3831378622239
 30
0.0
 11
-1035.981336016032
 21
-451.382821139251
 31
0.0
  0
LINE
  5
1A6
330
1F
100
AcDbEntity
  8
0-0_通り芯
  6
Continuous
 62
     3
370
    13
100
AcDbLine
 10
-1035.981336016032
 20
-574.3830784766664
 30
0.0
 11
-1110.980841136387
 21
-649.382880524808
 31
0.0
  0
LINE
  5
1A7
330
1F
100
AcDbEntity
  8
0-1_ピット
  6
Continuous
 62
     2
370
    13
100
AcDbLine
 10
-1190.986400284402
 20
-902.3831708542
 30
0.0
 11
-1306.016002335183
 21
-902.3831708542
 31
0.0
  0
LINE
  5
1A8
330
1F
100
AcDbEntity
  8
0-1_ピット
  6
Continuous
 62
     2
370
    13
100
AcDbLine
 10
-1192.386414800872
 20
-904.3829795007372
 30
0.0
 11
-1305.999671306889
 21
-904.3829795007372
 31
0.0
  0
LINE
  5
1A9
330
1F
100
AcDbEntity
  8
0-1_ピット
  6
Continuous
 62
     2
370
    13
100
AcDbLine
 10
-1157.333198743017
 20
-879.3831444606187
 30
0.0
 11
-1305.981039088245
 21
-879.3831444606187
 31
0.0
  0
LINE
  5
1AA
330
1F
100
AcDbEntity
  8
0-1_ピット
  6
JWW_CENTER2
 62
     2
370
    13
100
AcDbLine
 10
-1085.981303024056
 20
-887.0967345155179
 30
0.0
 11
-1085.981303024056
 21
-932.7885762596054
 31
0.0
  0
LINE
  5
1AB
330
1F
100
AcDbEntity
  8
0-1_ピット
  6
JWW_CENTER2
 62
     2
370
    13
100
AcDbLine
 10
-1052.882168733515
 20
-910.3829992959229
 30
0.0
 11
-1118.893818200365
 21
-910.3829992959229
 31
0.0
  0
LINE
  5
1AC
330
1F
100
AcDbEntity
  8
0-1_ピット
  6
Continuous
 62
     2
370
    13
100
AcDbLine
 10
-1044.386470887231
 20
-953.382893721599
 30
0.0
 11
-1127.575689769199
 21
-953.382893721599
 31
0.0
  0
LINE
  5
1AD
330
1F
100
AcDbEntity
  8
0-1_ピット
  6
Continuous
 62
     2
370
    13
100
AcDbLine
 10
-1036.038197687274
 20
-942.1070610041156
 30
0.0
 11
-1026.449508656446
 21
-887.3146795112948
 31
0.0
  0
LINE
  5
1AE
330
1F
100
AcDbEntity
  8
0-1_ピット
  6
Continuous
 62
     2
370
    13
100
AcDbLine
 10
-1135.92411143305
 20
-942.1070610041156
 30
0.0
 11
-1145.512503536091
 21
-887.3146795112948
 31
0.0
  0
LINE
  5
1AF
330
1F
100
AcDbEntity
  8
0-1_ピット
  6
Continuous
 62
     2
370
    13
100
AcDbLine
 10
-1075.981220544115
 20
-925.3829003199937
 30
0.0
 11
-1095.980791648422
 21
-925.3829003199937
 31
0.0
  0
LINE
  5
1B0
330
1F
100
AcDbEntity
  8
0-1_ピット
  6
Continuous
 62
     2
370
    13
100
AcDbLine
 10
-1075.981220544115
 20
-895.3833951996387
 30
0.0
 11
-1095.980791648422
 21
-895.3833951996387
 31
0.0
  0
LINE
  5
1B1
330
1F
100
AcDbEntity
  8
0-1_ピット
  6
Continuous
 62
     2
370
    13
100
AcDbLine
 10
-1075.981220544115
 20
-927.3830058943184
 30
0.0
 11
-1095.980791648422
 21
-927.3830058943184
 31
0.0
  0
LINE
  5
1B2
330
1F
100
AcDbEntity
  8
0-1_ピット
  6
Continuous
 62
     2
370
    13
100
AcDbLine
 10
-1030.099345016243
 20
-947.3787169373929
 30
0.0
 11
-993.8630201904409
 21
-910.3877501405179
 31
0.0
  0
LINE
  5
1B3
330
1F
100
AcDbEntity
  8
0-1_ピット
  6
Continuous
 62
     2
370
    13
100
AcDbLine
 10
-1034.068081819453
 20
-942.4512003094364
 30
0.0
 11
-1024.479392788625
 21
-887.65941267219
 31
0.0
  0
LINE
  5
1B4
330
1F
100
AcDbEntity
  8
0-1_ピット
  6
Continuous
 62
     2
370
    13
100
AcDbLine
 10
-1137.894227300872
 20
-942.4512003094364
 30
0.0
 11
-1147.483064795593
 21
-887.65941267219
 31
0.0
  0
LINE
  5
1B5
330
1F
100
AcDbEntity
  8
0-1_ピット
  6
Continuous
 62
     2
370
    13
100
AcDbLine
 10
-1141.862964104081
 20
-947.3787169373929
 30
0.0
 11
-1178.09914046599
 21
-910.3877501405179
 31
0.0
  0
LINE
  5
1B6
330
1F
100
AcDbEntity
  8
0-1_ピット
  6
Continuous
 62
     2
370
    13
100
AcDbLine
 10
-1075.981220544115
 20
-893.3829926975282
 30
0.0
 11
-1095.980791648422
 21
-893.3829926975282
 31
0.0
  0
LINE
  5
1B7
330
1F
100
AcDbEntity
  8
0-1_ピット
  6
Continuous
 62
     2
370
    13
100
AcDbLine
 10
-1032.242272856193
 20
-945.2794374821559
 30
0.0
 11
-996.691405827054
 21
-908.9880325518354
 31
0.0
  0
LINE
  5
1B8
330
1F
100
AcDbEntity
  8
0-1_ピット
  6
Continuous
 62
     2
370
    13
100
AcDbLine
 10
-1045.888480098591
 20
-950.3833292156864
 30
0.0
 11
-1126.073680557839
 21
-950.3833292156864
 31
0.0
  0
LINE
  5
1B9
330
1F
100
AcDbEntity
  8
0-1_ピット
  6
Continuous
 62
     2
370
    13
100
AcDbLine
 10
-1139.719739336344
 20
-945.2794374821559
 30
0.0
 11
-1175.270457901589
 21
-908.9880325518354
 31
0.0
  0
LINE
  5
1BA
330
1F
100
AcDbEntity
  8
0-1_ピット
  6
Continuous
 62
     2
370
    13
100
AcDbLine
 10
-1019.773978145466
 20
-879.1058139074096
 30
0.0
 11
-1152.188034047071
 21
-879.1058139074096
 31
0.0
  0
LINE
  5
1BB
330
1F
100
AcDbEntity
  8
0-1_ピット
  6
Continuous
 62
     2
370
    13
100
AcDbLine
 10
-1334.703903187696
 20
-558.1761659977809
 30
0.0
 11
-1334.703903187696
 21
-690.5896280438114
 31
0.0
  0
LINE
  5
1BC
330
1F
100
AcDbEntity
  8
0-1_ピット
  6
Continuous
 62
     2
370
    13
100
AcDbLine
 10
-1406.877323861788
 20
-678.1222241164465
 30
0.0
 11
-1370.585696235627
 21
-713.6724972900108
 31
0.0
  0
LINE
  5
1BD
330
1F
100
AcDbEntity
  8
0-1_ピット
  6
Continuous
 62
     2
370
    13
100
AcDbLine
 10
-1411.981141363372
 20
-584.290371023119
 30
0.0
 11
-1411.981141363372
 21
-664.4760168740479
 31
0.0
  0
LINE
  5
1BE
330
1F
100
AcDbEntity
  8
0-1_ピット
  6
Continuous
 62
     2
370
    13
100
AcDbLine
 10
-1406.877323861788
 20
-570.6441637807202
 30
0.0
 11
-1370.585696235627
 21
-535.0932967515816
 31
0.0
  0
LINE
  5
1BF
330
1F
100
AcDbEntity
  8
0-1_ピット
  6
Continuous
 62
     2
370
    13
100
AcDbLine
 10
-1334.981382204799
 20
-696.78502632295
 30
0.0
 11
-1334.981382204799
 21
-850.3833951996387
 31
0.0
  0
LINE
  5
1C0
330
1F
100
AcDbEntity
  8
0-1_ピット
  6
Continuous
 62
     2
370
    13
100
AcDbLine
 10
-1363.981131465779
 20
-729.3882912089296
 30
0.0
 11
-1363.981131465779
 21
-844.3830784766664
 31
0.0
  0
LINE
  5
1C1
330
1F
100
AcDbEntity
  8
0-1_ピット
  6
Continuous
 62
     2
370
    13
100
AcDbLine
 10
-1365.981088576209
 20
-730.7886026531864
 30
0.0
 11
-1365.981088576209
 21
-844.3830784766664
 31
0.0
  0
LINE
  5
1C2
330
1F
100
AcDbEntity
  8
0-1_ピット
  6
Continuous
 62
     2
370
    13
100
AcDbLine
 10
-1354.981176004947
 20
-614.3831114686427
 30
0.0
 11
-1354.981176004947
 21
-634.38268257295
 31
0.0
  0
LINE
  5
1C3
330
1F
100
AcDbEntity
  8
0-1_ピット
  6
Continuous
 62
     2
370
    13
100
AcDbLine
 10
-1408.976677548971
 20
-680.2645581008215
 30
0.0
 11
-1371.985413824309
 21
-716.5013283183046
 31
0.0
  0
LINE
  5
1C4
330
1F
100
AcDbEntity
  8
0-1_ピット
  6
Continuous
 62
     2
370
    13
100
AcDbLine
 10
-1404.049680544643
 20
-676.2958212976122
 30
0.0
 11
-1343.257130792742
 21
-686.9347439116325
 31
0.0
  0
LINE
  5
1C5
330
1F
100
AcDbEntity
  8
0-1_ピット
  6
Continuous
 62
     2
370
    13
100
AcDbLine
 10
-1404.049680544643
 20
-572.4699727439802
 30
0.0
 11
-1343.257130792742
 21
-561.831347057747
 31
0.0
  0
LINE
  5
1C6
330
1F
100
AcDbEntity
  8
0-1_ピット
  6
Continuous
 62
     2
370
    13
100
AcDbLine
 10
-1408.976677548971
 20
-568.5012359407708
 30
0.0
 11
-1371.985413824309
 21
-532.2650595788622
 31
0.0
  0
LINE
  5
1C7
330
1F
100
AcDbEntity
  8
0-1_ピット
  6
Continuous
 62
     2
370
    13
100
AcDbLine
 10
-1388.980966505897
 20
-614.3831114686427
 30
0.0
 11
-1388.980966505897
 21
-634.38268257295
 31
0.0
  0
LINE
  5
1C8
330
1F
100
AcDbEntity
  8
0-1_ピット
  6
Continuous
 62
     2
370
    13
100
AcDbLine
 10
-1356.981133115378
 20
-614.3831114686427
 30
0.0
 11
-1356.981133115378
 21
-634.38268257295
 31
0.0
  0
LINE
  5
1C9
330
1F
100
AcDbEntity
  8
0-1_ピット
  6
Continuous
 62
     2
370
    13
100
AcDbLine
 10
-1386.980786699626
 20
-614.3831114686427
 30
0.0
 11
-1386.980786699626
 21
-634.38268257295
 31
0.0
  0
LINE
  5
1CA
330
1F
100
AcDbEntity
  8
0-1_ピット
  6
Continuous
 62
     2
370
    13
100
AcDbLine
 10
-1403.7048731518
 20
-674.3260023575783
 30
0.0
 11
-1342.912546095741
 21
-684.9646280438114
 31
0.0
  0
LINE
  5
1CB
330
1F
100
AcDbEntity
  8
0-1_ピット
  6
Continuous
 62
     2
370
    13
100
AcDbLine
 10
-1403.7048731518
 20
-574.4397916840139
 30
0.0
 11
-1342.912546095741
 21
-563.8017598533552
 31
0.0
  0
LINE
  5
1CC
330
1F
100
AcDbEntity
  8
0-1_ピット
  6
Continuous
 62
     2
370
    13
100
AcDbLine
 10
-1414.980705869284
 20
-582.7885102756528
 30
0.0
 11
-1414.980705869284
 21
-665.9778776215139
 31
0.0
  0
LINE
  5
1CD
330
1F
100
AcDbEntity
  8
0-1_ピット
  6
JWW_CENTER2
 62
     2
370
    13
100
AcDbLine
 10
-1371.980959907502
 20
-591.2842081219364
 30
0.0
 11
-1371.980959907502
 21
-657.2957091248927
 31
0.0
  0
LINE
  5
1CE
330
1F
100
AcDbEntity
  8
0-0_通り芯
  6
Continuous
 62
     3
370
    13
100
AcDbLine
 10
-914.9811842529409
 20
-475.382900319994
 30
0.0
 11
-914.9811842529409
 21
-649.382880524808
 31
0.0
  0
LINE
  5
1CF
330
1F
100
AcDbEntity
  8
0-0_通り芯
  6
Continuous
 62
     3
370
    13
100
AcDbLine
 10
-912.98122714251
 20
-475.382900319994
 30
0.0
 11
-912.98122714251
 21
-574.3830784766664
 31
0.0
  0
LINE
  5
1D0
330
1F
100
AcDbEntity
  8
0-0_通り芯
  6
Continuous
 62
     3
370
    13
100
AcDbLine
 10
-926.9810753794188
 20
-475.382900319994
 30
0.0
 11
-926.9810753794188
 21
-649.382880524808
 31
0.0
  0
LINE
  5
1D1
330
1F
100
AcDbEntity
  8
0-0_通り芯
  6
Continuous
 62
     3
370
    13
100
AcDbLine
 10
-928.981329417637
 20
-475.382900319994
 30
0.0
 11
-928.981329417637
 21
-574.3830784766664
 31
0.0
  0
LINE
  5
1D2
330
1F
100
AcDbEntity
  8
0-0_通り芯
  6
Continuous
 62
     3
370
    13
100
AcDbLine
 10
-722.9812931264627
 20
-285.3829663039468
 30
0.0
 11
-722.9812931264627
 21
-443.3829926975278
 31
0.0
  0
LINE
  5
1D3
330
1F
100
AcDbEntity
  8
0-0_通り芯
  6
Continuous
 62
     3
370
    13
100
AcDbLine
 10
-724.9812502368934
 20
-285.3829663039468
 30
0.0
 11
-724.9812502368934
 21
-443.3829926975278
 31
0.0
  0
LINE
  5
1D4
330
1F
100
AcDbEntity
  8
0-0_通り芯
  6
Continuous
 62
     3
370
    13
100
AcDbLine
 10
-736.9812898272653
 20
-285.3829663039468
 30
0.0
 11
-736.9812898272653
 21
-443.3829926975278
 31
0.0
  0
LINE
  5
1D5
330
1F
100
AcDbEntity
  8
0-0_通り芯
  6
Continuous
 62
     3
370
    13
100
AcDbLine
 10
-738.9812469376959
 20
-285.3829663039468
 30
0.0
 11
-738.9812469376959
 21
-443.3829926975278
 31
0.0
  0
LINE
  5
1D6
330
1F
100
AcDbEntity
  8
0-0_通り芯
  6
Continuous
 62
     3
370
    13
100
AcDbLine
 10
-914.9811842529409
 20
-285.3829663039468
 30
0.0
 11
-914.9811842529409
 21
-443.3829926975278
 31
0.0
  0
LINE
  5
1D7
330
1F
100
AcDbEntity
  8
0-0_通り芯
  6
Continuous
 62
     3
370
    13
100
AcDbLine
 10
-912.98122714251
 20
-285.3829663039468
 30
0.0
 11
-912.98122714251
 21
-443.3829926975278
 31
0.0
  0
LINE
  5
1D8
330
1F
100
AcDbEntity
  8
0-0_通り芯
  6
Continuous
 62
     3
370
    13
100
AcDbLine
 10
-926.9810753794188
 20
-285.3829663039468
 30
0.0
 11
-926.9810753794188
 21
-443.3829926975278
 31
0.0
  0
LINE
  5
1D9
330
1F
100
AcDbEntity
  8
0-0_通り芯
  6
Continuous
 62
     3
370
    13
100
AcDbLine
 10
-928.981329417637
 20
-285.3829663039468
 30
0.0
 11
-928.981329417637
 21
-443.3829926975278
 31
0.0
  0
LINE
  5
1DA
330
1F
100
AcDbEntity
  8
0-0_通り芯
  6
Continuous
 62
     3
370
    13
100
AcDbLine
 10
-746.9810753794189
 20
-465.3826693761596
 30
0.0
 11
-904.9811017729999
 21
-465.3826693761596
 31
0.0
  0
LINE
  5
1DB
330
1F
100
AcDbEntity
  8
0-0_通り芯
  6
Continuous
 62
     3
370
    13
100
AcDbLine
 10
-746.9810753794189
 20
-467.3830718782708
 30
0.0
 11
-904.9811017729999
 21
-467.3830718782708
 31
0.0
  0
LINE
  5
1DC
330
1F
100
AcDbEntity
  8
0-0_通り芯
  6
Continuous
 62
     3
370
    13
100
AcDbLine
 10
-746.9810753794189
 20
-451.382821139251
 30
0.0
 11
-904.9811017729999
 21
-451.382821139251
 31
0.0
  0
LINE
  5
1DD
330
1F
100
AcDbEntity
  8
0-0_通り芯
  6
Continuous
 62
     3
370
    13
100
AcDbLine
 10
-746.9810753794189
 20
-453.3829267135749
 30
0.0
 11
-904.9811017729999
 21
-453.3829267135749
 31
0.0
  0
LINE
  5
1DE
330
1F
100
AcDbEntity
  8
0-0_通り芯
  6
Continuous
 62
     3
370
    13
100
AcDbLine
 10
-746.9810753794189
 20
-263.3829926975281
 30
0.0
 11
-904.9811017729999
 21
-263.3829926975281
 31
0.0
  0
LINE
  5
1DF
330
1F
100
AcDbEntity
  8
0-0_通り芯
  6
Continuous
 62
     3
370
    13
100
AcDbLine
 10
-746.9810753794189
 20
-275.3827353601125
 30
0.0
 11
-904.9811017729999
 21
-275.3827353601125
 31
0.0
  0
LINE
  5
1E0
330
1F
100
AcDbEntity
  8
0-0_通り芯
  6
Continuous
 62
     3
370
    13
100
AcDbLine
 10
-746.9810753794189
 20
-277.3831378622239
 30
0.0
 11
-904.9811017729999
 21
-277.3831378622239
 31
0.0
  0
LINE
  5
1E1
330
1F
100
AcDbEntity
  8
0-0_通り芯
  6
Continuous
 62
     3
370
    13
100
AcDbLine
 10
-746.9810753794189
 20
-261.382887123203
 30
0.0
 11
-904.9811017729999
 21
-261.382887123203
 31
0.0
  0
LINE
  5
1E2
330
1F
100
AcDbEntity
  8
0-0_通り芯
  6
Continuous
 62
     3
370
    13
100
AcDbLine
 10
-936.9808609315726
 20
-465.3826693761596
 30
0.0
 11
-1110.980841136387
 21
-465.3826693761596
 31
0.0
  0
LINE
  5
1E3
330
1F
100
AcDbEntity
  8
0-0_通り芯
  6
Continuous
 62
     3
370
    13
100
AcDbLine
 10
-936.9808609315726
 20
-467.3830718782708
 30
0.0
 11
-1035.981336016032
 21
-467.3830718782708
 31
0.0
  0
LINE
  5
1E4
330
1F
100
AcDbEntity
  8
0-0_通り芯
  6
Continuous
 62
     3
370
    13
100
AcDbLine
 10
-936.9808609315726
 20
-451.382821139251
 30
0.0
 11
-1035.981336016032
 21
-451.382821139251
 31
0.0
  0
LINE
  5
1E5
330
1F
100
AcDbEntity
  8
0-0_通り芯
  6
Continuous
 62
     3
370
    13
100
AcDbLine
 10
-936.9808609315726
 20
-453.3829267135749
 30
0.0
 11
-1110.980841136387
 21
-453.3829267135749
 31
0.0
  0
LINE
  5
1E6
330
1F
100
AcDbEntity
  8
0-0_通り芯
  6
Continuous
 62
     3
370
    13
100
AcDbLine
 10
-936.9808609315726
 20
-277.3831378622239
 30
0.0
 11
-1035.981336016032
 21
-277.3831378622239
 31
0.0
  0
LINE
  5
1E7
330
1F
100
AcDbEntity
  8
0-0_通り芯
  6
Continuous
 62
     3
370
    13
100
AcDbLine
 10
-936.9808609315726
 20
-275.3827353601125
 30
0.0
 11
-1110.980841136387
 21
-275.3827353601125
 31
0.0
  0
LINE
  5
1E8
330
1F
100
AcDbEntity
  8
0-0_通り芯
  6
Continuous
 62
     3
370
    13
100
AcDbLine
 10
-936.9808609315726
 20
-263.3829926975281
 30
0.0
 11
-1110.980841136387
 21
-263.3829926975281
 31
0.0
  0
LINE
  5
1E9
330
1F
100
AcDbEntity
  8
0-0_通り芯
  6
Continuous
 62
     3
370
    13
100
AcDbLine
 10
-936.9808609315726
 20
-261.382887123203
 30
0.0
 11
-1035.981336016032
 21
-261.382887123203
 31
0.0
  0
LINE
  5
1EA
330
1F
100
AcDbEntity
  8
0-1_ピット
  6
JWW_CENTER2
 62
     2
370
    13
100
AcDbLine
 10
-1348.694917822937
 20
-624.3830454846895
 30
0.0
 11
-1394.387056494812
 21
-624.3830454846895
 31
0.0
  0
LINE
  5
1EB
330
1F
100
AcDbEntity
  8
0-0_通り芯
  6
JWW_CENTER1
 62
     3
370
    13
100
AcDbLine
 10
-1155.498481946142
 20
400.6167235714756
 30
0.0
 11
-1269.176691405601
 21
400.6167235714756
 31
0.0
  0
LINE
  5
1EC
330
1F
100
AcDbEntity
  8
0-0_通り芯
  6
JWW_CENTER1
 62
     3
370
    13
100
AcDbLine
 10
-1210.981369008009
 20
342.6374161390433
 30
0.0
 11
-1210.981369008009
 21
460.2350723890433
 31
0.0
  0
LINE
  5
1ED
330
1F
100
AcDbEntity
  8
0-0_通り芯
  6
JWW_CENTER1
 62
     3
370
    13
100
AcDbLine
 10
-5.498349978236483
 20
400.6167235714756
 30
0.0
 11
-119.1764109738021
 21
400.6167235714756
 31
0.0
  0
LINE
  5
1EE
330
1F
100
AcDbEntity
  8
0-0_通り芯
  6
JWW_CENTER1
 62
     3
370
    13
100
AcDbLine
 10
-60.98094011231588
 20
342.6374161390433
 30
0.0
 11
-60.98094011231588
 21
460.2350723890433
 31
0.0
  0
LINE
  5
1EF
330
1F
100
AcDbEntity
  8
0-1_ピット
  6
Continuous
 62
     2
370
    13
100
AcDbLine
 10
62.01916876120634
 20
-802.3832368381528
 30
0.0
 11
56.01885203823322
 21
-796.3826231873927
 31
0.0
  0
LINE
  5
1F0
330
1F
100
AcDbEntity
  8
0-1_ピット
  6
Continuous
 62
     2
370
    13
100
AcDbLine
 10
56.01885203823322
 20
-796.3826231873927
 30
0.0
 11
56.01885203823322
 21
495.6169875072865
 31
0.0
  0
LINE
  5
1F1
330
1F
100
AcDbEntity
  8
0-1_ピット
  6
Continuous
 62
     2
370
    13
100
AcDbLine
 10
62.01916876120634
 20
-850.3833951996387
 30
0.0
 11
62.01916876120634
 21
-802.3832368381528
 31
0.0
  0
LINE
  5
1F2
330
1F
100
AcDbEntity
  8
0-1_ピット
  6
Continuous
 62
     2
370
    13
100
AcDbLine
 10
-1327.981086926611
 20
-796.3832170429666
 30
0.0
 11
-1327.981086926611
 21
495.6169875072865
 31
0.0
  0
LINE
  5
1F3
330
1F
100
AcDbEntity
  8
0-1_ピット
  6
Continuous
 62
     2
370
    13
100
AcDbLine
 10
-1333.98125518569
 20
-802.3832368381528
 30
0.0
 11
-1327.981086926611
 21
-796.3832170429666
 31
0.0
  0
LINE
  5
1F4
330
1F
100
AcDbEntity
  8
0-1_ピット
  6
Continuous
 62
     2
370
    13
100
AcDbLine
 10
-1333.98125518569
 20
-850.3833951996387
 30
0.0
 11
-1333.98125518569
 21
-802.3832368381528
 31
0.0
  0
LINE
  5
1F5
330
1F
100
AcDbEntity
  8
0-1_ピット
  6
Continuous
 62
     2
370
    13
100
AcDbLine
 10
-1311.981133115378
 20
-872.3830718782708
 30
0.0
 11
40.01919515478729
 21
-872.3830718782708
 31
0.0
  0
LINE
  5
1F6
330
1F
100
AcDbEntity
  8
0-0_通り芯
  6
Continuous
 62
     3
370
    13
100
AcDbLine
 10
-1258.981156209761
 20
267.6465219245162
 30
0.0
 11
-1258.981156209761
 21
-785.3832302397575
 31
0.0
  0
LINE
  5
1F7
330
1F
100
AcDbEntity
  8
0-0_通り芯
  6
Continuous
 62
     3
370
    13
100
AcDbLine
 10
-24.98111826898803
 20
-797.3829729023416
 30
0.0
 11
-1246.981190851336
 21
-797.3829729023416
 31
0.0
  0
LINE
  5
1F8
330
1F
100
AcDbEntity
  8
0-0_通り芯
  6
Continuous
 62
     3
370
    13
100
AcDbLine
 10
-29.98093681311801
 20
-792.3833028221052
 30
0.0
 11
-1241.981075379419
 21
-792.3833028221052
 31
0.0
  0
LINE
  5
1F9
330
1F
100
AcDbEntity
  8
0-0_通り芯
  6
Continuous
 62
     3
370
    13
100
AcDbLine
 10
-12.98093021472271
 20
267.6465219245162
 30
0.0
 11
-12.98093021472271
 21
-785.3832302397575
 31
0.0
  0
LINE
  5
1FA
330
1F
100
AcDbEntity
  8
0-0_通り芯
  6
Continuous
 62
     3
370
    13
100
AcDbLine
 10
-185.4662817772227
 20
445.1018507885365
 30
0.0
 11
-16.49581289525491
 21
276.1321242260365
 31
0.0
  0
LINE
  5
1FB
330
1F
100
AcDbEntity
  8
0-0_通り芯
  6
Continuous
 62
     3
370
    13
100
AcDbLine
 10
-17.98089722274646
 20
265.575153681273
 30
0.0
 11
-17.98089722274646
 21
-780.3829663039465
 31
0.0
  0
LINE
  5
1FC
330
1F
100
AcDbEntity
  8
0-0_通り芯
  6
Continuous
 62
     3
370
    13
100
AcDbLine
 10
-187.537353092679
 20
440.1021807083001
 30
0.0
 11
-21.49577990327867
 21
274.0607559827933
 31
0.0
  0
LINE
  5
1FD
330
1F
100
AcDbEntity
  8
0-0_通り芯
  6
Continuous
 62
     3
370
    13
100
AcDbLine
 10
-1250.466232289259
 20
274.0607559827933
 30
0.0
 11
-1084.424807563752
 21
440.1021807083001
 31
0.0
  0
ARC
  5
1FE
330
1F
100
AcDbEntity
  8
0-0_通り芯
  6
Continuous
 62
     3
370
    13
100
AcDbCircle
 10
-24.98111826898803
 20
267.6465219245162
 30
0.0
 40
12.00000131452406
100
AcDbArc
 50
0.0
 51
45.0
  0
ARC
  5
1FF
330
1F
100
AcDbEntity
  8
0-0_通り芯
  6
Continuous
 62
     3
370
    13
100
AcDbCircle
 10
-193.9515871509558
 20
436.6174361981652
 30
0.0
 40
12.00000131452406
100
AcDbArc
 50
45.00000000000005
 51
90.00000000000006
  0
ARC
  5
200
330
1F
100
AcDbEntity
  8
0-0_通り芯
  6
Continuous
 62
     3
370
    13
100
AcDbCircle
 10
-24.98111826898803
 20
-785.3832302397575
 30
0.0
 40
12.00000131452406
100
AcDbArc
 50
270.0
 51
0.0
  0
ARC
  5
201
330
1F
100
AcDbEntity
  8
0-0_通り芯
  6
Continuous
 62
     3
370
    13
100
AcDbCircle
 10
-1246.981190851336
 20
-785.3832302397575
 30
0.0
 40
12.00000131452406
100
AcDbArc
 50
180.0
 51
270.0
  0
ARC
  5
202
330
1F
100
AcDbEntity
  8
0-0_通り芯
  6
Continuous
 62
     3
370
    13
100
AcDbCircle
 10
-1078.010721969368
 20
436.6174361981652
 30
0.0
 40
12.00000131452406
100
AcDbArc
 50
90.0
 51
134.999984741211
  0
ARC
  5
203
330
1F
100
AcDbEntity
  8
0-1_ピット
  6
Continuous
 62
     2
370
    13
100
AcDbCircle
 10
-1305.981039088245
 20
495.6169875072865
 30
0.0
 40
10.00000012887491
100
AcDbArc
 50
90.0
 51
180.0
  0
ARC
  5
204
330
1F
100
AcDbEntity
  8
0-1_ピット
  6
Continuous
 62
     2
370
    13
100
AcDbCircle
 10
-1305.981039088245
 20
495.6169875072865
 30
0.0
 40
21.99999912365063
100
AcDbArc
 50
90.0
 51
180.0
  0
ARC
  5
205
330
1F
100
AcDbEntity
  8
0-1_ピット
  6
Continuous
 62
     2
370
    13
100
AcDbCircle
 10
-1305.981039088245
 20
495.6169875072865
 30
0.0
 40
59.99999845350111
100
AcDbArc
 50
93.44338989257812
 51
179.9619750976562
  0
ARC
  5
206
330
1F
100
AcDbEntity
  8
0-1_ピット
  6
Continuous
 62
     2
370
    13
100
AcDbCircle
 10
-1305.981039088245
 20
495.6169875072865
 30
0.0
 40
29.00000211354849
100
AcDbArc
 50
90.0
 51
180.0
  0
ARC
  5
207
330
1F
100
AcDbEntity
  8
0-1_ピット
  6
Continuous
 62
     2
370
    13
100
AcDbCircle
 10
-1336.981042387443
 20
495.586107017422
 30
0.0
 40
29.00000211354849
100
AcDbArc
 50
180.0
 51
180.0566558837891
  0
ARC
  5
208
330
1F
100
AcDbEntity
  8
0-1_ピット
  6
Continuous
 62
     2
370
    13
100
AcDbCircle
 10
-1305.999671306889
 20
526.6168423425906
 30
0.0
 40
29.00000211354849
100
AcDbArc
 50
91.266357421875
 51
93.44337463378906
  0
ARC
  5
209
330
1F
100
AcDbEntity
  8
0-1_ピット
  6
Continuous
 62
     2
370
    13
100
AcDbCircle
 10
-1363.981131465779
 20
495.6549942640433
 30
0.0
 40
2.000000025774982
100
AcDbArc
 50
179.9619750976562
 51
179.999984741211
  0
ARC
  5
20A
330
1F
100
AcDbEntity
  8
0-1_ピット
  6
Continuous
 62
     2
370
    13
100
AcDbCircle
 10
-1305.981039088245
 20
495.6169875072865
 30
0.0
 40
58.00000422709697
100
AcDbArc
 50
93.44338989257812
 51
179.999984741211
  0
ARC
  5
20B
330
1F
100
AcDbEntity
  8
0-1_ピット
  6
Continuous
 62
     2
370
    13
100
AcDbCircle
 10
-1371.980959907502
 20
285.6171854591449
 30
0.0
 40
16.99999963915026
100
AcDbArc
 50
359.9988708496094
 51
180.0011138916016
  0
ARC
  5
20C
330
1F
100
AcDbEntity
  8
0-0_通り芯
  6
Continuous
 62
     3
370
    13
100
AcDbCircle
 10
-1296.981083627413
 20
486.6171062784011
 30
0.0
 40
14.00000018042487
100
AcDbArc
 50
90.0
 51
180.0
  0
ARC
  5
20D
330
1F
100
AcDbEntity
  8
0-1_ピット
  6
Continuous
 62
     2
370
    13
100
AcDbCircle
 10
-1371.980959907502
 20
285.6171854591449
 30
0.0
 40
14.99999961337528
100
AcDbArc
 50
359.9987945556641
 51
180.0011901855469
  0
ARC
  5
20E
330
1F
100
AcDbEntity
  8
0-1_ピット
  6
Continuous
 62
     2
370
    13
100
AcDbCircle
 10
-1371.980959907502
 20
265.6167235714756
 30
0.0
 40
14.99999961337528
100
AcDbArc
 50
179.9999847412109
 51
0.0
  0
ARC
  5
20F
330
1F
100
AcDbEntity
  8
0-1_ピット
  6
Continuous
 62
     2
370
    13
100
AcDbCircle
 10
-1371.980959907502
 20
265.6167235714756
 30
0.0
 40
16.99999963915026
100
AcDbArc
 50
179.9999847412109
 51
0.0
  0
ARC
  5
210
330
1F
100
AcDbEntity
  8
0-1_ピット
  6
Continuous
 62
     2
370
    13
100
AcDbCircle
 10
-1385.980956608304
 20
169.2116942746011
 30
0.0
 40
20.00000025774982
100
AcDbArc
 50
0.0
 51
45.59065246582031
  0
ARC
  5
211
330
1F
100
AcDbEntity
  8
0-1_ピット
  6
Continuous
 62
     2
370
    13
100
AcDbCircle
 10
-1394.981134764976
 20
234.022419306273
 30
0.0
 40
20.00000025774982
100
AcDbArc
 50
180.0
 51
225.5906524658203
  0
ARC
  5
212
330
1F
100
AcDbEntity
  8
0-1_ピット
  6
Continuous
 62
     2
370
    13
100
AcDbCircle
 10
-1394.981134764976
 20
317.2114897243475
 30
0.0
 40
20.00000025774982
100
AcDbArc
 50
134.4093322753906
 51
180.0
  0
ARC
  5
213
330
1F
100
AcDbEntity
  8
0-1_ピット
  6
Continuous
 62
     2
370
    13
100
AcDbCircle
 10
-1385.980956608304
 20
382.0225116838068
 30
0.0
 40
20.00000025774982
100
AcDbArc
 50
314.4093322753906
 51
0.0000000000000127
  0
ARC
  5
214
330
1F
100
AcDbEntity
  8
0-1_ピット
  6
Continuous
 62
     2
370
    13
100
AcDbCircle
 10
-1344.981167756953
 20
203.2152706048376
 30
0.0
 40
10.00000012887491
100
AcDbArc
 50
0.0
 51
80.07374572753906
  0
ARC
  5
215
330
1F
100
AcDbEntity
  8
0-1_ピット
  6
Continuous
 62
     2
370
    13
100
AcDbCircle
 10
-1344.981167756953
 20
348.0189353535704
 30
0.0
 40
10.00000012887491
100
AcDbArc
 50
279.9262237548828
 51
359.9999847412109
  0
ARC
  5
216
330
1F
100
AcDbEntity
  8
0-1_ピット
  6
Continuous
 62
     2
370
    13
100
AcDbCircle
 10
-1394.981134764976
 20
234.022419306273
 30
0.0
 40
16.99999963915026
100
AcDbArc
 50
204.1576995849609
 51
225.5906524658203
  0
ARC
  5
217
330
1F
100
AcDbEntity
  8
0-1_ピット
  6
Continuous
 62
     2
370
    13
100
AcDbCircle
 10
-1394.981134764976
 20
317.2114897243475
 30
0.0
 40
16.99999963915026
100
AcDbArc
 50
134.4093322753906
 51
155.84228515625
  0
ARC
  5
218
330
1F
100
AcDbEntity
  8
0-1_ピット
  6
Continuous
 62
     2
370
    13
100
AcDbCircle
 10
-1344.981167756953
 20
348.0189353535704
 30
0.0
 40
12.00000131452406
100
AcDbArc
 50
279.9262237548828
 51
328.918685913086
  0
ARC
  5
219
330
1F
100
AcDbEntity
  8
0-1_ピット
  6
Continuous
 62
     2
370
    13
100
AcDbCircle
 10
-1344.981167756953
 20
203.2152706048376
 30
0.0
 40
12.00000131452406
100
AcDbArc
 50
31.08128356933594
 51
80.07374572753906
  0
ARC
  5
21A
330
1F
100
AcDbEntity
  8
0-1_ピット
  6
Continuous
 62
     2
370
    13
100
AcDbCircle
 10
-1401.981133115378
 20
315.7096289768813
 30
0.0
 40
10.00000012887491
100
AcDbArc
 50
99.92623901367188
 51
179.999984741211
  0
ARC
  5
21B
330
1F
100
AcDbEntity
  8
0-1_ピット
  6
Continuous
 62
     2
370
    13
100
AcDbCircle
 10
-1401.981133115378
 20
235.5242800537391
 30
0.0
 40
10.00000012887491
100
AcDbArc
 50
180.0
 51
260.0737457275391
  0
ARC
  5
21C
330
1F
100
AcDbEntity
  8
0-1_ピット
  6
Continuous
 62
     2
370
    13
100
AcDbCircle
 10
-1401.981133115378
 20
235.5242800537391
 30
0.0
 40
12.00000131452406
100
AcDbArc
 50
224.8248443603516
 51
260.0737457275391
  0
ARC
  5
21D
330
1F
100
AcDbEntity
  8
0-1_ピット
  6
Continuous
 62
     2
370
    13
100
AcDbCircle
 10
-1401.981133115378
 20
315.7096289768813
 30
0.0
 40
12.00000131452406
100
AcDbArc
 50
99.92623901367188
 51
135.1751403808594
  0
ARC
  5
21E
330
1F
100
AcDbEntity
  8
0-1_ピット
  6
Continuous
 62
     2
370
    13
100
AcDbCircle
 10
-1385.980956608304
 20
170.6114118632834
 30
0.0
 40
21.99999912365063
100
AcDbArc
 50
0.0
 51
45.59065246582031
  0
ARC
  5
21F
330
1F
100
AcDbEntity
  8
0-1_ピット
  6
Continuous
 62
     2
370
    13
100
AcDbCircle
 10
-1385.980956608304
 20
380.6222002395501
 30
0.0
 40
21.99999912365063
100
AcDbArc
 50
314.4093322753906
 51
0.0000000000000127
  0
ARC
  5
220
330
1F
100
AcDbEntity
  8
0-1_ピット
  6
Continuous
 62
     2
370
    13
100
AcDbCircle
 10
-1190.986400284402
 20
575.6170534912392
 30
0.0
 40
21.99999912365063
100
AcDbArc
 50
270.0
 51
315.5906524658203
  0
ARC
  5
221
330
1F
100
AcDbEntity
  8
0-1_ピット
  6
Continuous
 62
     2
370
    13
100
AcDbCircle
 10
-980.9756119081351
 20
575.6170534912392
 30
0.0
 40
21.99999912365063
100
AcDbArc
 50
224.4093322753906
 51
270.0
  0
ARC
  5
222
330
1F
100
AcDbEntity
  8
0-1_ピット
  6
Continuous
 62
     2
370
    13
100
AcDbCircle
 10
-1126.073680557839
 20
591.6173042302594
 30
0.0
 40
12.00000131452406
100
AcDbArc
 50
134.8248443603516
 51
170.0737457275391
  0
ARC
  5
223
330
1F
100
AcDbEntity
  8
0-1_ピット
  6
Continuous
 62
     2
370
    13
100
AcDbCircle
 10
-1045.888480098591
 20
591.6173042302594
 30
0.0
 40
12.00000131452406
100
AcDbArc
 50
9.926239013671914
 51
45.17514038085942
  0
ARC
  5
224
330
1F
100
AcDbEntity
  8
0-1_ピット
  6
Continuous
 62
     2
370
    13
100
AcDbCircle
 10
-1045.888480098591
 20
591.6173042302594
 30
0.0
 40
10.00000012887491
100
AcDbArc
 50
9.926239013671914
 51
90.00000000000004
  0
ARC
  5
225
330
1F
100
AcDbEntity
  8
0-1_ピット
  6
Continuous
 62
     2
370
    13
100
AcDbCircle
 10
-1126.073680557839
 20
591.6173042302594
 30
0.0
 40
10.00000012887491
100
AcDbArc
 50
95.22596740722656
 51
170.0737457275391
  0
ARC
  5
226
330
1F
100
AcDbEntity
  8
0-1_ピット
  6
Continuous
 62
     2
370
    13
100
AcDbCircle
 10
-1013.579173721902
 20
534.6166707843136
 30
0.0
 40
12.00000131452406
100
AcDbArc
 50
189.9262390136719
 51
238.918701171875
  0
ARC
  5
227
330
1F
100
AcDbEntity
  8
0-1_ピット
  6
Continuous
 62
     2
370
    13
100
AcDbCircle
 10
-1158.382838470635
 20
534.6166707843136
 30
0.0
 40
12.00000131452406
100
AcDbArc
 50
301.0812835693359
 51
350.0737457275391
  0
ARC
  5
228
330
1F
100
AcDbEntity
  8
0-1_ピット
  6
Continuous
 62
     2
370
    13
100
AcDbCircle
 10
-1127.575689769199
 20
584.6169347201246
 30
0.0
 40
16.99999963915026
100
AcDbArc
 50
114.1576995849609
 51
135.5906524658203
  0
ARC
  5
229
330
1F
100
AcDbEntity
  8
0-1_ピット
  6
Continuous
 62
     2
370
    13
100
AcDbCircle
 10
-1044.386470887231
 20
584.6169347201246
 30
0.0
 40
16.99999963915026
100
AcDbArc
 50
44.40933227539063
 51
65.84228515625
  0
ARC
  5
22A
330
1F
100
AcDbEntity
  8
0-1_ピット
  6
Continuous
 62
     2
370
    13
100
AcDbCircle
 10
-1158.382838470635
 20
534.6166707843136
 30
0.0
 40
10.00000012887491
100
AcDbArc
 50
270.0
 51
350.0737457275391
  0
ARC
  5
22B
330
1F
100
AcDbEntity
  8
0-1_ピット
  6
Continuous
 62
     2
370
    13
100
AcDbCircle
 10
-1013.579173721902
 20
534.6166707843136
 30
0.0
 40
10.00000012887491
100
AcDbArc
 50
189.9262390136719
 51
270.0
  0
ARC
  5
22C
330
1F
100
AcDbEntity
  8
0-1_ピット
  6
Continuous
 62
     2
370
    13
100
AcDbCircle
 10
-1192.386414800872
 20
575.6170534912392
 30
0.0
 40
20.00000025774982
100
AcDbArc
 50
270.0
 51
315.5906524658203
  0
ARC
  5
22D
330
1F
100
AcDbEntity
  8
0-1_ピット
  6
Continuous
 62
     2
370
    13
100
AcDbCircle
 10
-1127.575689769199
 20
584.6169347201246
 30
0.0
 40
20.00000025774982
100
AcDbArc
 50
90.0
 51
135.5906524658203
  0
ARC
  5
22E
330
1F
100
AcDbEntity
  8
0-1_ピット
  6
Continuous
 62
     2
370
    13
100
AcDbCircle
 10
-1044.386470887231
 20
584.6169347201246
 30
0.0
 40
20.00000025774982
100
AcDbArc
 50
44.40933227539063
 51
90.00000000000001
  0
ARC
  5
22F
330
1F
100
AcDbEntity
  8
0-1_ピット
  6
Continuous
 62
     2
370
    13
100
AcDbCircle
 10
-979.5758943194526
 20
575.6170534912392
 30
0.0
 40
20.00000025774982
100
AcDbArc
 50
224.4093322753906
 51
270.0
  0
ARC
  5
230
330
1F
100
AcDbEntity
  8
0-1_ピット
  6
Continuous
 62
     2
370
    13
100
AcDbCircle
 10
-1075.981220544115
 20
561.6169083265434
 30
0.0
 40
16.99999963915026
100
AcDbArc
 50
269.9999847412109
 51
90.0
  0
ARC
  5
231
330
1F
100
AcDbEntity
  8
0-1_ピット
  6
Continuous
 62
     2
370
    13
100
AcDbCircle
 10
-1075.981220544115
 20
561.6169083265434
 30
0.0
 40
14.99999961337528
100
AcDbArc
 50
269.9999847412109
 51
90.0
  0
ARC
  5
232
330
1F
100
AcDbEntity
  8
0-1_ピット
  6
Continuous
 62
     2
370
    13
100
AcDbCircle
 10
-1095.981088576209
 20
561.6169083265434
 30
0.0
 40
14.99999961337528
100
AcDbArc
 50
89.99879455566403
 51
270.0011901855469
  0
ARC
  5
233
330
1F
100
AcDbEntity
  8
0-1_ピット
  6
Continuous
 62
     2
370
    13
100
AcDbCircle
 10
-1095.981088576209
 20
561.6169083265434
 30
0.0
 40
16.99999963915026
100
AcDbArc
 50
89.99887084960938
 51
270.0011138916016
  0
ARC
  5
234
330
1F
100
AcDbEntity
  8
0-0_通り芯
  6
Continuous
 62
     3
370
    13
100
AcDbCircle
 10
-936.9808609315726
 20
-95.38303228789886
 30
0.0
 40
8.000000103099927
100
AcDbArc
 50
0.0
 51
90.0
  0
ARC
  5
235
330
1F
100
AcDbEntity
  8
0-0_通り芯
  6
Continuous
 62
     3
370
    13
100
AcDbCircle
 10
-936.9808609315726
 20
-63.38312466543329
 30
0.0
 40
8.000000103099927
100
AcDbArc
 50
270.0
 51
0.0
  0
ARC
  5
236
330
1F
100
AcDbEntity
  8
0-0_通り芯
  6
Continuous
 62
     3
370
    13
100
AcDbCircle
 10
-936.9808609315726
 20
94.61690172814798
 30
0.0
 40
8.000000103099927
100
AcDbArc
 50
0.0
 51
90.0
  0
ARC
  5
237
330
1F
100
AcDbEntity
  8
0-0_通り芯
  6
Continuous
 62
     3
370
    13
100
AcDbCircle
 10
-936.9808609315726
 20
126.6171062784011
 30
0.0
 40
8.000000103099927
100
AcDbArc
 50
270.0
 51
0.0
  0
ARC
  5
238
330
1F
100
AcDbEntity
  8
0-0_通り芯
  6
Continuous
 62
     3
370
    13
100
AcDbCircle
 10
-904.9811017729999
 20
126.6171062784011
 30
0.0
 40
8.000000103099927
100
AcDbArc
 50
180.0
 51
270.0
  0
ARC
  5
239
330
1F
100
AcDbEntity
  8
0-0_通り芯
  6
Continuous
 62
     3
370
    13
100
AcDbCircle
 10
-746.9810753794189
 20
126.6171062784011
 30
0.0
 40
8.000000103099927
100
AcDbArc
 50
270.0
 51
0.0
  0
ARC
  5
23A
330
1F
100
AcDbEntity
  8
0-0_通り芯
  6
Continuous
 62
     3
370
    13
100
AcDbCircle
 10
-904.9811017729999
 20
-63.38312466543329
 30
0.0
 40
8.000000103099927
100
AcDbArc
 50
180.0
 51
270.0
  0
ARC
  5
23B
330
1F
100
AcDbEntity
  8
0-0_通り芯
  6
Continuous
 62
     3
370
    13
100
AcDbCircle
 10
-746.9810753794189
 20
-63.38312466543329
 30
0.0
 40
8.000000103099927
100
AcDbArc
 50
270.0
 51
0.0
  0
ARC
  5
23C
330
1F
100
AcDbEntity
  8
0-0_通り芯
  6
Continuous
 62
     3
370
    13
100
AcDbCircle
 10
-746.9810753794189
 20
94.61690172814798
 30
0.0
 40
8.000000103099927
100
AcDbArc
 50
0.0
 51
90.0
  0
ARC
  5
23D
330
1F
100
AcDbEntity
  8
0-0_通り芯
  6
Continuous
 62
     3
370
    13
100
AcDbCircle
 10
-904.9811017729999
 20
94.61690172814798
 30
0.0
 40
8.000000103099927
100
AcDbArc
 50
90.0
 51
180.0
  0
ARC
  5
23E
330
1F
100
AcDbEntity
  8
0-0_通り芯
  6
Continuous
 62
     3
370
    13
100
AcDbCircle
 10
-746.9810753794189
 20
-95.38303228789886
 30
0.0
 40
8.000000103099927
100
AcDbArc
 50
0.0
 51
90.0
  0
ARC
  5
23F
330
1F
100
AcDbEntity
  8
0-0_通り芯
  6
Continuous
 62
     3
370
    13
100
AcDbCircle
 10
-904.9811017729999
 20
-95.38303228789886
 30
0.0
 40
8.000000103099927
100
AcDbArc
 50
90.0
 51
180.0
  0
ARC
  5
240
330
1F
100
AcDbEntity
  8
0-0_通り芯
  6
Continuous
 62
     3
370
    13
100
AcDbCircle
 10
-714.9811677569528
 20
-95.38303228789886
 30
0.0
 40
8.000000103099927
100
AcDbArc
 50
90.0
 51
180.0
  0
ARC
  5
241
330
1F
100
AcDbEntity
  8
0-0_通り芯
  6
Continuous
 62
     3
370
    13
100
AcDbCircle
 10
-714.9811677569528
 20
94.61690172814798
 30
0.0
 40
8.000000103099927
100
AcDbArc
 50
90.0
 51
180.0
  0
ARC
  5
242
330
1F
100
AcDbEntity
  8
0-0_通り芯
  6
Continuous
 62
     3
370
    13
100
AcDbCircle
 10
-714.9811677569528
 20
-63.38312466543329
 30
0.0
 40
8.000000103099927
100
AcDbArc
 50
180.0
 51
270.0
  0
ARC
  5
243
330
1F
100
AcDbEntity
  8
0-0_通り芯
  6
Continuous
 62
     3
370
    13
100
AcDbCircle
 10
-714.9811677569528
 20
126.6171062784011
 30
0.0
 40
8.000000103099927
100
AcDbArc
 50
180.0
 51
270.0
  0
ARC
  5
244
330
1F
100
AcDbEntity
  8
0-0_通り芯
  6
Continuous
 62
     3
370
    13
100
AcDbCircle
 10
-936.9808609315726
 20
-95.38303228789886
 30
0.0
 40
10.00000012887491
100
AcDbArc
 50
0.0
 51
90.0
  0
ARC
  5
245
330
1F
100
AcDbEntity
  8
0-0_通り芯
  6
Continuous
 62
     3
370
    13
100
AcDbCircle
 10
-936.9808609315726
 20
-63.38312466543329
 30
0.0
 40
10.00000012887491
100
AcDbArc
 50
270.0
 51
0.0
  0
ARC
  5
246
330
1F
100
AcDbEntity
  8
0-0_通り芯
  6
Continuous
 62
     3
370
    13
100
AcDbCircle
 10
-904.9811017729999
 20
-63.38312466543329
 30
0.0
 40
10.00000012887491
100
AcDbArc
 50
180.0
 51
270.0
  0
ARC
  5
247
330
1F
100
AcDbEntity
  8
0-0_通り芯
  6
Continuous
 62
     3
370
    13
100
AcDbCircle
 10
-904.9811017729999
 20
-95.38303228789886
 30
0.0
 40
10.00000012887491
100
AcDbArc
 50
90.0
 51
180.0
  0
ARC
  5
248
330
1F
100
AcDbEntity
  8
0-0_通り芯
  6
Continuous
 62
     3
370
    13
100
AcDbCircle
 10
-746.9810753794189
 20
-95.38303228789886
 30
0.0
 40
10.00000012887491
100
AcDbArc
 50
0.0
 51
90.0
  0
ARC
  5
249
330
1F
100
AcDbEntity
  8
0-0_通り芯
  6
Continuous
 62
     3
370
    13
100
AcDbCircle
 10
-746.9810753794189
 20
-63.38312466543329
 30
0.0
 40
10.00000012887491
100
AcDbArc
 50
270.0
 51
0.0
  0
ARC
  5
24A
330
1F
100
AcDbEntity
  8
0-0_通り芯
  6
Continuous
 62
     3
370
    13
100
AcDbCircle
 10
-714.9811677569528
 20
-63.38312466543329
 30
0.0
 40
10.00000012887491
100
AcDbArc
 50
180.0
 51
270.0
  0
ARC
  5
24B
330
1F
100
AcDbEntity
  8
0-0_通り芯
  6
Continuous
 62
     3
370
    13
100
AcDbCircle
 10
-714.9811677569528
 20
-95.38303228789886
 30
0.0
 40
10.00000012887491
100
AcDbArc
 50
90.0
 51
180.0
  0
ARC
  5
24C
330
1F
100
AcDbEntity
  8
0-0_通り芯
  6
Continuous
 62
     3
370
    13
100
AcDbCircle
 10
-936.9808609315726
 20
94.61690172814798
 30
0.0
 40
10.00000012887491
100
AcDbArc
 50
0.0
 51
90.0
  0
ARC
  5
24D
330
1F
100
AcDbEntity
  8
0-0_通り芯
  6
Continuous
 62
     3
370
    13
100
AcDbCircle
 10
-936.9808609315726
 20
126.6171062784011
 30
0.0
 40
10.00000012887491
100
AcDbArc
 50
270.0
 51
0.0
  0
ARC
  5
24E
330
1F
100
AcDbEntity
  8
0-0_通り芯
  6
Continuous
 62
     3
370
    13
100
AcDbCircle
 10
-904.9811017729999
 20
126.6171062784011
 30
0.0
 40
10.00000012887491
100
AcDbArc
 50
180.0
 51
270.0
  0
ARC
  5
24F
330
1F
100
AcDbEntity
  8
0-0_通り芯
  6
Continuous
 62
     3
370
    13
100
AcDbCircle
 10
-904.9811017729999
 20
94.61690172814798
 30
0.0
 40
10.00000012887491
100
AcDbArc
 50
90.0
 51
180.0
  0
ARC
  5
250
330
1F
100
AcDbEntity
  8
0-0_通り芯
  6
Continuous
 62
     3
370
    13
100
AcDbCircle
 10
-746.9810753794189
 20
94.61690172814798
 30
0.0
 40
10.00000012887491
100
AcDbArc
 50
0.0
 51
90.0
  0
ARC
  5
251
330
1F
100
AcDbEntity
  8
0-0_通り芯
  6
Continuous
 62
     3
370
    13
100
AcDbCircle
 10
-746.9810753794189
 20
126.6171062784011
 30
0.0
 40
10.00000012887491
100
AcDbArc
 50
270.0
 51
0.0
  0
ARC
  5
252
330
1F
100
AcDbEntity
  8
0-0_通り芯
  6
Continuous
 62
     3
370
    13
100
AcDbCircle
 10
-714.9811677569528
 20
126.6171062784011
 30
0.0
 40
10.00000012887491
100
AcDbArc
 50
180.0
 51
270.0
  0
ARC
  5
253
330
1F
100
AcDbEntity
  8
0-0_通り芯
  6
Continuous
 62
     3
370
    13
100
AcDbCircle
 10
-714.9811677569528
 20
94.61690172814798
 30
0.0
 40
10.00000012887491
100
AcDbArc
 50
90.0
 51
180.0
  0
ARC
  5
254
330
1F
100
AcDbEntity
  8
0-0_通り芯
  6
Continuous
 62
     3
370
    13
100
AcDbCircle
 10
-556.9811413633715
 20
94.61690172814798
 30
0.0
 40
10.00000012887491
100
AcDbArc
 50
0.0
 51
90.0
  0
ARC
  5
255
330
1F
100
AcDbEntity
  8
0-0_通り芯
  6
Continuous
 62
     3
370
    13
100
AcDbCircle
 10
-556.9811413633715
 20
126.6171062784011
 30
0.0
 40
10.00000012887491
100
AcDbArc
 50
270.0
 51
0.0
  0
ARC
  5
256
330
1F
100
AcDbEntity
  8
0-0_通り芯
  6
Continuous
 62
     3
370
    13
100
AcDbCircle
 10
-524.981085277012
 20
126.6171062784011
 30
0.0
 40
10.00000012887491
100
AcDbArc
 50
180.0
 51
270.0
  0
ARC
  5
257
330
1F
100
AcDbEntity
  8
0-0_通り芯
  6
Continuous
 62
     3
370
    13
100
AcDbCircle
 10
-524.981085277012
 20
94.61690172814798
 30
0.0
 40
10.00000012887491
100
AcDbArc
 50
92.36329650878906
 51
180.0
  0
ARC
  5
258
330
1F
100
AcDbEntity
  8
0-0_通り芯
  6
Continuous
 62
     3
370
    13
100
AcDbCircle
 10
-366.9810588834305
 20
94.61690172814798
 30
0.0
 40
10.00000012887491
100
AcDbArc
 50
0.0
 51
90.0
  0
ARC
  5
259
330
1F
100
AcDbEntity
  8
0-0_通り芯
  6
Continuous
 62
     3
370
    13
100
AcDbCircle
 10
-366.9810588834305
 20
126.6171062784011
 30
0.0
 40
10.00000012887491
100
AcDbArc
 50
270.0
 51
0.0
  0
ARC
  5
25A
330
1F
100
AcDbEntity
  8
0-0_通り芯
  6
Continuous
 62
     3
370
    13
100
AcDbCircle
 10
-334.9811512609643
 20
126.6171062784011
 30
0.0
 40
10.00000012887491
100
AcDbArc
 50
180.0
 51
270.0
  0
ARC
  5
25B
330
1F
100
AcDbEntity
  8
0-0_通り芯
  6
Continuous
 62
     3
370
    13
100
AcDbCircle
 10
-334.9811512609643
 20
94.61690172814798
 30
0.0
 40
10.00000012887491
100
AcDbArc
 50
92.36329650878906
 51
180.0
  0
ARC
  5
25C
330
1F
100
AcDbEntity
  8
0-0_通り芯
  6
Continuous
 62
     3
370
    13
100
AcDbCircle
 10
-556.9811413633715
 20
-95.38303228789886
 30
0.0
 40
10.00000012887491
100
AcDbArc
 50
0.0
 51
90.0
  0
ARC
  5
25D
330
1F
100
AcDbEntity
  8
0-0_通り芯
  6
Continuous
 62
     3
370
    13
100
AcDbCircle
 10
-556.9811413633715
 20
-63.38312466543329
 30
0.0
 40
10.00000012887491
100
AcDbArc
 50
270.0
 51
0.0
  0
ARC
  5
25E
330
1F
100
AcDbEntity
  8
0-0_通り芯
  6
Continuous
 62
     3
370
    13
100
AcDbCircle
 10
-524.981085277012
 20
-63.38312466543329
 30
0.0
 40
10.00000012887491
100
AcDbArc
 50
180.0
 51
270.0
  0
ARC
  5
25F
330
1F
100
AcDbEntity
  8
0-0_通り芯
  6
Continuous
 62
     3
370
    13
100
AcDbCircle
 10
-524.981085277012
 20
-95.38303228789886
 30
0.0
 40
10.00000012887491
100
AcDbArc
 50
92.36329650878906
 51
180.0
  0
ARC
  5
260
330
1F
100
AcDbEntity
  8
0-0_通り芯
  6
Continuous
 62
     3
370
    13
100
AcDbCircle
 10
-366.9810588834305
 20
-95.38303228789886
 30
0.0
 40
10.00000012887491
100
AcDbArc
 50
0.0
 51
90.0
  0
ARC
  5
261
330
1F
100
AcDbEntity
  8
0-0_通り芯
  6
Continuous
 62
     3
370
    13
100
AcDbCircle
 10
-366.9810588834305
 20
-63.38312466543329
 30
0.0
 40
10.00000012887491
100
AcDbArc
 50
270.0
 51
0.0
  0
ARC
  5
262
330
1F
100
AcDbEntity
  8
0-0_通り芯
  6
Continuous
 62
     3
370
    13
100
AcDbCircle
 10
-334.9811512609643
 20
-63.38312466543329
 30
0.0
 40
10.00000012887491
100
AcDbArc
 50
180.0
 51
270.0
  0
ARC
  5
263
330
1F
100
AcDbEntity
  8
0-0_通り芯
  6
Continuous
 62
     3
370
    13
100
AcDbCircle
 10
-334.9811512609643
 20
-95.38303228789886
 30
0.0
 40
10.00000012887491
100
AcDbArc
 50
92.36329650878906
 51
180.0
  0
ARC
  5
264
330
1F
100
AcDbEntity
  8
0-0_通り芯
  6
Continuous
 62
     3
370
    13
100
AcDbCircle
 10
-556.9811413633715
 20
126.6171062784011
 30
0.0
 40
8.000000103099927
100
AcDbArc
 50
270.0
 51
0.0
  0
ARC
  5
265
330
1F
100
AcDbEntity
  8
0-0_通り芯
  6
Continuous
 62
     3
370
    13
100
AcDbCircle
 10
-556.9811413633715
 20
-63.38312466543329
 30
0.0
 40
8.000000103099927
100
AcDbArc
 50
270.0
 51
0.0
  0
ARC
  5
266
330
1F
100
AcDbEntity
  8
0-0_通り芯
  6
Continuous
 62
     3
370
    13
100
AcDbCircle
 10
-556.9811413633715
 20
94.61690172814798
 30
0.0
 40
8.000000103099927
100
AcDbArc
 50
0.0
 51
90.0
  0
ARC
  5
267
330
1F
100
AcDbEntity
  8
0-0_通り芯
  6
Continuous
 62
     3
370
    13
100
AcDbCircle
 10
-556.9811413633715
 20
-95.38303228789886
 30
0.0
 40
8.000000103099927
100
AcDbArc
 50
0.0
 51
90.0
  0
ARC
  5
268
330
1F
100
AcDbEntity
  8
0-0_通り芯
  6
Continuous
 62
     3
370
    13
100
AcDbCircle
 10
-366.9810588834305
 20
-95.38303228789886
 30
0.0
 40
8.000000103099927
100
AcDbArc
 50
0.0
 51
90.0
  0
ARC
  5
269
330
1F
100
AcDbEntity
  8
0-0_通り芯
  6
Continuous
 62
     3
370
    13
100
AcDbCircle
 10
-524.981085277012
 20
-95.38303228789886
 30
0.0
 40
8.000000103099927
100
AcDbArc
 50
92.36329650878906
 51
180.0
  0
ARC
  5
26A
330
1F
100
AcDbEntity
  8
0-0_通り芯
  6
Continuous
 62
     3
370
    13
100
AcDbCircle
 10
-366.9810588834305
 20
94.61690172814798
 30
0.0
 40
8.000000103099927
100
AcDbArc
 50
0.0
 51
90.0
  0
ARC
  5
26B
330
1F
100
AcDbEntity
  8
0-0_通り芯
  6
Continuous
 62
     3
370
    13
100
AcDbCircle
 10
-524.981085277012
 20
94.61690172814798
 30
0.0
 40
8.000000103099927
100
AcDbArc
 50
92.36329650878906
 51
180.0
  0
ARC
  5
26C
330
1F
100
AcDbEntity
  8
0-0_通り芯
  6
Continuous
 62
     3
370
    13
100
AcDbCircle
 10
-524.981085277012
 20
-63.38312466543329
 30
0.0
 40
8.000000103099927
100
AcDbArc
 50
180.0
 51
270.0
  0
ARC
  5
26D
330
1F
100
AcDbEntity
  8
0-0_通り芯
  6
Continuous
 62
     3
370
    13
100
AcDbCircle
 10
-366.9810588834305
 20
-63.38312466543329
 30
0.0
 40
8.000000103099927
100
AcDbArc
 50
270.0
 51
0.0
  0
ARC
  5
26E
330
1F
100
AcDbEntity
  8
0-0_通り芯
  6
Continuous
 62
     3
370
    13
100
AcDbCircle
 10
-524.981085277012
 20
126.6171062784011
 30
0.0
 40
8.000000103099927
100
AcDbArc
 50
180.0
 51
270.0
  0
ARC
  5
26F
330
1F
100
AcDbEntity
  8
0-0_通り芯
  6
Continuous
 62
     3
370
    13
100
AcDbCircle
 10
-366.9810588834305
 20
126.6171062784011
 30
0.0
 40
8.000000103099927
100
AcDbArc
 50
270.0
 51
0.0
  0
ARC
  5
270
330
1F
100
AcDbEntity
  8
0-0_通り芯
  6
Continuous
 62
     3
370
    13
100
AcDbCircle
 10
-334.9811512609643
 20
126.6171062784011
 30
0.0
 40
8.000000103099927
100
AcDbArc
 50
180.0
 51
270.0
  0
ARC
  5
271
330
1F
100
AcDbEntity
  8
0-0_通り芯
  6
Continuous
 62
     3
370
    13
100
AcDbCircle
 10
-334.9811512609643
 20
94.61690172814798
 30
0.0
 40
8.000000103099927
100
AcDbArc
 50
92.36329650878906
 51
180.0
  0
ARC
  5
272
330
1F
100
AcDbEntity
  8
0-0_通り芯
  6
Continuous
 62
     3
370
    13
100
AcDbCircle
 10
-334.9811512609643
 20
-63.38312466543329
 30
0.0
 40
8.000000103099927
100
AcDbArc
 50
180.0
 51
270.0
  0
ARC
  5
273
330
1F
100
AcDbEntity
  8
0-0_通り芯
  6
Continuous
 62
     3
370
    13
100
AcDbCircle
 10
-334.9811512609643
 20
-95.38303228789886
 30
0.0
 40
8.000000103099927
100
AcDbArc
 50
92.36329650878906
 51
180.0
  0
ARC
  5
274
330
1F
100
AcDbEntity
  8
0-1_ピット
  6
Continuous
 62
     2
370
    13
100
AcDbCircle
 10
-175.9809236163277
 20
561.6169083265434
 30
0.0
 40
16.99999963915026
100
AcDbArc
 50
269.9988708496094
 51
90.00111389160156
  0
ARC
  5
275
330
1F
100
AcDbEntity
  8
0-1_ピット
  6
Continuous
 62
     2
370
    13
100
AcDbCircle
 10
-175.9809236163277
 20
561.6169083265434
 30
0.0
 40
14.99999961337528
100
AcDbArc
 50
269.9987945556641
 51
90.00119018554693
  0
ARC
  5
276
330
1F
100
AcDbEntity
  8
0-1_ピット
  6
Continuous
 62
     2
370
    13
100
AcDbCircle
 10
-195.9810885762093
 20
561.6169083265434
 30
0.0
 40
14.99999961337528
100
AcDbArc
 50
89.99998474121095
 51
270.0
  0
ARC
  5
277
330
1F
100
AcDbEntity
  8
0-1_ピット
  6
Continuous
 62
     2
370
    13
100
AcDbCircle
 10
-195.9810885762093
 20
561.6169083265434
 30
0.0
 40
16.99999963915026
100
AcDbArc
 50
89.99998474121095
 51
270.0
  0
ARC
  5
278
330
1F
100
AcDbEntity
  8
0-1_ピット
  6
Continuous
 62
     2
370
    13
100
AcDbCircle
 10
-292.3864148008715
 20
575.6170534912392
 30
0.0
 40
20.00000025774982
100
AcDbArc
 50
270.0
 51
315.5906524658203
  0
ARC
  5
279
330
1F
100
AcDbEntity
  8
0-1_ピット
  6
Continuous
 62
     2
370
    13
100
AcDbCircle
 10
-227.5758382330928
 20
584.6169347201246
 30
0.0
 40
20.00000025774982
100
AcDbArc
 50
92.36329650878906
 51
135.5906524658203
  0
ARC
  5
27A
330
1F
100
AcDbEntity
  8
0-1_ピット
  6
Continuous
 62
     2
370
    13
100
AcDbCircle
 10
-144.386173959444
 20
584.6169347201246
 30
0.0
 40
20.00000025774982
100
AcDbArc
 50
44.40933227539063
 51
90.00000000000001
  0
ARC
  5
27B
330
1F
100
AcDbEntity
  8
0-1_ピット
  6
Continuous
 62
     2
370
    13
100
AcDbCircle
 10
-79.57589431945273
 20
575.6170534912392
 30
0.0
 40
20.00000025774982
100
AcDbArc
 50
224.4093322753906
 51
270.0
  0
ARC
  5
27C
330
1F
100
AcDbEntity
  8
0-1_ピット
  6
Continuous
 62
     2
370
    13
100
AcDbCircle
 10
-258.3831353984221
 20
534.6166707843136
 30
0.0
 40
10.00000012887491
100
AcDbArc
 50
270.0
 51
350.0737457275391
  0
ARC
  5
27D
330
1F
100
AcDbEntity
  8
0-1_ピット
  6
Continuous
 62
     2
370
    13
100
AcDbCircle
 10
-113.5791737219018
 20
534.6166707843136
 30
0.0
 40
10.00000012887491
100
AcDbArc
 50
189.9262390136719
 51
269.9999847412109
  0
ARC
  5
27E
330
1F
100
AcDbEntity
  8
0-1_ピット
  6
Continuous
 62
     2
370
    13
100
AcDbCircle
 10
-227.5758382330928
 20
584.6169347201246
 30
0.0
 40
16.99999963915026
100
AcDbArc
 50
114.1576995849609
 51
135.5906524658203
  0
ARC
  5
27F
330
1F
100
AcDbEntity
  8
0-1_ピット
  6
Continuous
 62
     2
370
    13
100
AcDbCircle
 10
-144.386173959444
 20
584.6169347201246
 30
0.0
 40
16.99999963915026
100
AcDbArc
 50
44.40933227539063
 51
65.84228515625
  0
ARC
  5
280
330
1F
100
AcDbEntity
  8
0-1_ピット
  6
Continuous
 62
     2
370
    13
100
AcDbCircle
 10
-113.5791737219018
 20
534.6166707843136
 30
0.0
 40
12.00000131452406
100
AcDbArc
 50
189.9262390136719
 51
238.918701171875
  0
ARC
  5
281
330
1F
100
AcDbEntity
  8
0-1_ピット
  6
Continuous
 62
     2
370
    13
100
AcDbCircle
 10
-258.3831353984221
 20
534.6166707843136
 30
0.0
 40
12.00000131452406
100
AcDbArc
 50
301.0812835693359
 51
350.0737457275391
  0
ARC
  5
282
330
1F
100
AcDbEntity
  8
0-1_ピット
  6
Continuous
 62
     2
370
    13
100
AcDbCircle
 10
-145.8884800985912
 20
591.6173042302594
 30
0.0
 40
10.00000012887491
100
AcDbArc
 50
9.926239013671914
 51
89.99998474121098
  0
ARC
  5
283
330
1F
100
AcDbEntity
  8
0-1_ピット
  6
Continuous
 62
     2
370
    13
100
AcDbCircle
 10
-226.0735320939459
 20
591.6173042302594
 30
0.0
 40
10.00000012887491
100
AcDbArc
 50
92.36329650878906
 51
170.0737457275391
  0
ARC
  5
284
330
1F
100
AcDbEntity
  8
0-1_ピット
  6
Continuous
 62
     2
370
    13
100
AcDbCircle
 10
-226.0735320939459
 20
591.6173042302594
 30
0.0
 40
12.00000131452406
100
AcDbArc
 50
134.8248443603516
 51
170.0737457275391
  0
ARC
  5
285
330
1F
100
AcDbEntity
  8
0-1_ピット
  6
Continuous
 62
     2
370
    13
100
AcDbCircle
 10
-145.8884800985912
 20
591.6173042302594
 30
0.0
 40
12.00000131452406
100
AcDbArc
 50
9.926239013671914
 51
45.17514038085942
  0
ARC
  5
286
330
1F
100
AcDbEntity
  8
0-1_ピット
  6
Continuous
 62
     2
370
    13
100
AcDbCircle
 10
-290.9864002844018
 20
575.6170534912392
 30
0.0
 40
21.99999912365063
100
AcDbArc
 50
270.0
 51
315.5906524658203
  0
ARC
  5
287
330
1F
100
AcDbEntity
  8
0-1_ピット
  6
Continuous
 62
     2
370
    13
100
AcDbCircle
 10
-80.97561190813491
 20
575.6170534912392
 30
0.0
 40
21.99999912365063
100
AcDbArc
 50
224.4093322753906
 51
270.0
  0
ARC
  5
288
330
1F
100
AcDbEntity
  8
0-1_ピット
  6
Continuous
 62
     2
370
    13
100
AcDbCircle
 10
114.0192413435541
 20
380.6222002395501
 30
0.0
 40
21.99999912365063
100
AcDbArc
 50
180.0
 51
225.5906524658203
  0
ARC
  5
289
330
1F
100
AcDbEntity
  8
0-1_ピット
  6
Continuous
 62
     2
370
    13
100
AcDbCircle
 10
114.0192413435541
 20
170.6114118632834
 30
0.0
 40
21.99999912365063
100
AcDbArc
 50
134.4093322753906
 51
180.0
  0
ARC
  5
28A
330
1F
100
AcDbEntity
  8
0-1_ピット
  6
Continuous
 62
     2
370
    13
100
AcDbCircle
 10
130.0188982270001
 20
315.7096289768813
 30
0.0
 40
12.00000131452406
100
AcDbArc
 50
44.82484436035158
 51
80.07374572753909
  0
ARC
  5
28B
330
1F
100
AcDbEntity
  8
0-1_ピット
  6
Continuous
 62
     2
370
    13
100
AcDbCircle
 10
130.0188982270001
 20
235.5242800537391
 30
0.0
 40
12.00000131452406
100
AcDbArc
 50
279.9262237548828
 51
315.1751251220703
  0
ARC
  5
28C
330
1F
100
AcDbEntity
  8
0-1_ピット
  6
Continuous
 62
     2
370
    13
100
AcDbCircle
 10
130.0188982270001
 20
235.5242800537391
 30
0.0
 40
10.00000012887491
100
AcDbArc
 50
279.9262237548828
 51
0.0
  0
ARC
  5
28D
330
1F
100
AcDbEntity
  8
0-1_ピット
  6
Continuous
 62
     2
370
    13
100
AcDbCircle
 10
130.0188982270001
 20
315.7096289768813
 30
0.0
 40
10.00000012887491
100
AcDbArc
 50
0.0
 51
80.07374572753906
  0
ARC
  5
28E
330
1F
100
AcDbEntity
  8
0-1_ピット
  6
Continuous
 62
     2
370
    13
100
AcDbCircle
 10
73.01885863662854
 20
203.2152706048376
 30
0.0
 40
12.00000131452406
100
AcDbArc
 50
99.92623901367188
 51
148.918701171875
  0
ARC
  5
28F
330
1F
100
AcDbEntity
  8
0-1_ピット
  6
Continuous
 62
     2
370
    13
100
AcDbCircle
 10
73.01885863662854
 20
348.0189353535704
 30
0.0
 40
12.00000131452406
100
AcDbArc
 50
211.0812835693359
 51
260.0737457275391
  0
ARC
  5
290
330
1F
100
AcDbEntity
  8
0-1_ピット
  6
Continuous
 62
     2
370
    13
100
AcDbCircle
 10
123.0191225724395
 20
317.2114897243475
 30
0.0
 40
16.99999963915026
100
AcDbArc
 50
24.15769958496096
 51
45.59065246582033
  0
ARC
  5
291
330
1F
100
AcDbEntity
  8
0-1_ピット
  6
Continuous
 62
     2
370
    13
100
AcDbCircle
 10
123.0191225724395
 20
234.022419306273
 30
0.0
 40
16.99999963915026
100
AcDbArc
 50
314.4093322753906
 51
335.84228515625
  0
ARC
  5
292
330
1F
100
AcDbEntity
  8
0-1_ピット
  6
Continuous
 62
     2
370
    13
100
AcDbCircle
 10
73.01885863662854
 20
348.0189353535704
 30
0.0
 40
10.00000012887491
100
AcDbArc
 50
180.0
 51
260.0737457275391
  0
ARC
  5
293
330
1F
100
AcDbEntity
  8
0-1_ピット
  6
Continuous
 62
     2
370
    13
100
AcDbCircle
 10
73.01885863662854
 20
203.2152706048376
 30
0.0
 40
10.00000012887491
100
AcDbArc
 50
99.92623901367188
 51
180.0
  0
ARC
  5
294
330
1F
100
AcDbEntity
  8
0-1_ピット
  6
Continuous
 62
     2
370
    13
100
AcDbCircle
 10
114.0192413435541
 20
382.0225116838068
 30
0.0
 40
20.00000025774982
100
AcDbArc
 50
180.0
 51
225.5906524658203
  0
ARC
  5
295
330
1F
100
AcDbEntity
  8
0-1_ピット
  6
Continuous
 62
     2
370
    13
100
AcDbCircle
 10
123.0191225724395
 20
317.2114897243475
 30
0.0
 40
20.00000025774982
100
AcDbArc
 50
0.0
 51
45.59065246582031
  0
ARC
  5
296
330
1F
100
AcDbEntity
  8
0-1_ピット
  6
Continuous
 62
     2
370
    13
100
AcDbCircle
 10
123.0191225724395
 20
234.022419306273
 30
0.0
 40
20.00000025774982
100
AcDbArc
 50
314.4093322753906
 51
0.0000000000000127
  0
ARC
  5
297
330
1F
100
AcDbEntity
  8
0-1_ピット
  6
Continuous
 62
     2
370
    13
100
AcDbCircle
 10
114.0192413435541
 20
169.2116942746011
 30
0.0
 40
20.00000025774982
100
AcDbArc
 50
134.4093322753906
 51
180.0
  0
ARC
  5
298
330
1F
100
AcDbEntity
  8
0-1_ピット
  6
Continuous
 62
     2
370
    13
100
AcDbCircle
 10
100.0190961788582
 20
265.6167235714756
 30
0.0
 40
16.99999963915026
100
AcDbArc
 50
179.9999847412109
 51
0.0
  0
ARC
  5
299
330
1F
100
AcDbEntity
  8
0-1_ピット
  6
Continuous
 62
     2
370
    13
100
AcDbCircle
 10
100.0190961788582
 20
265.6167235714756
 30
0.0
 40
14.99999961337528
100
AcDbArc
 50
179.9999847412109
 51
0.0
  0
ARC
  5
29A
330
1F
100
AcDbEntity
  8
0-1_ピット
  6
Continuous
 62
     2
370
    13
100
AcDbCircle
 10
100.0190961788582
 20
285.6171854591449
 30
0.0
 40
14.99999961337528
100
AcDbArc
 50
359.9987945556641
 51
180.0011901855469
  0
ARC
  5
29B
330
1F
100
AcDbEntity
  8
0-0_通り芯
  6
Continuous
 62
     3
370
    13
100
AcDbCircle
 10
25.01870027514197
 20
486.6171062784011
 30
0.0
 40
14.00000018042487
100
AcDbArc
 50
0.0
 51
90.0
  0
ARC
  5
29C
330
1F
100
AcDbEntity
  8
0-1_ピット
  6
Continuous
 62
     2
370
    13
100
AcDbCircle
 10
100.0190961788582
 20
285.6171854591449
 30
0.0
 40
16.99999963915026
100
AcDbArc
 50
359.9988708496094
 51
180.0011138916016
  0
ARC
  5
29D
330
1F
100
AcDbEntity
  8
0-1_ピット
  6
Continuous
 62
     2
370
    13
100
AcDbCircle
 10
34.01887843181449
 20
495.6169875072865
 30
0.0
 40
58.00000422709697
100
AcDbArc
 50
0.0
 51
89.96556091308594
  0
ARC
  5
29E
330
1F
100
AcDbEntity
  8
0-1_ピット
  6
Continuous
 62
     2
370
    13
100
AcDbCircle
 10
92.01926773713541
 20
495.6549942640433
 30
0.0
 40
2.000000025774982
100
AcDbArc
 50
0.0
 51
0.0380096435546875
  0
ARC
  5
29F
330
1F
100
AcDbEntity
  8
0-1_ピット
  6
Continuous
 62
     2
370
    13
100
AcDbCircle
 10
34.03758488240538
 20
526.6168423425906
 30
0.0
 40
29.00000211354849
100
AcDbArc
 50
89.96554565429686
 51
89.99996948242186
  0
ARC
  5
2A0
330
1F
100
AcDbEntity
  8
0-1_ピット
  6
Continuous
 62
     2
370
    13
100
AcDbCircle
 10
65.01903019490541
 20
495.586107017422
 30
0.0
 40
29.00000211354849
100
AcDbArc
 50
359.9433288574219
 51
359.9999847412109
  0
ARC
  5
2A1
330
1F
100
AcDbEntity
  8
0-1_ピット
  6
Continuous
 62
     2
370
    13
100
AcDbCircle
 10
34.01887843181449
 20
495.6169875072865
 30
0.0
 40
29.00000211354849
100
AcDbArc
 50
0.0
 51
90.0
  0
ARC
  5
2A2
330
1F
100
AcDbEntity
  8
0-1_ピット
  6
Continuous
 62
     2
370
    13
100
AcDbCircle
 10
34.01887843181449
 20
495.6169875072865
 30
0.0
 40
59.99999845350111
100
AcDbArc
 50
0.0380096435546939
 51
89.96556091308594
  0
ARC
  5
2A3
330
1F
100
AcDbEntity
  8
0-1_ピット
  6
Continuous
 62
     2
370
    13
100
AcDbCircle
 10
34.01887843181449
 20
495.6169875072865
 30
0.0
 40
21.99999912365063
100
AcDbArc
 50
0.0
 51
90.0
  0
ARC
  5
2A4
330
1F
100
AcDbEntity
  8
0-1_ピット
  6
Continuous
 62
     2
370
    13
100
AcDbCircle
 10
34.01887843181449
 20
495.6169875072865
 30
0.0
 40
10.00000012887491
100
AcDbArc
 50
0.0
 51
90.0
  0
ARC
  5
2A5
330
1F
100
AcDbEntity
  8
0-1_ピット
  6
Continuous
 62
     2
370
    13
100
AcDbCircle
 10
34.01887843181449
 20
-844.3830784766664
 30
0.0
 40
10.00000012887491
100
AcDbArc
 50
270.0
 51
0.0
  0
ARC
  5
2A6
330
1F
100
AcDbEntity
  8
0-1_ピット
  6
Continuous
 62
     2
370
    13
100
AcDbCircle
 10
34.01887843181449
 20
-844.3830784766664
 30
0.0
 40
59.99999845350111
100
AcDbArc
 50
270.034423828125
 51
359.9619750976562
  0
ARC
  5
2A7
330
1F
100
AcDbEntity
  8
0-1_ピット
  6
Continuous
 62
     2
370
    13
100
AcDbCircle
 10
34.01887843181449
 20
-850.3833951996387
 30
0.0
 40
29.00000211354849
100
AcDbArc
 50
270.0
 51
0.0
  0
ARC
  5
2A8
330
1F
100
AcDbEntity
  8
0-1_ピット
  6
Continuous
 62
     2
370
    13
100
AcDbCircle
 10
65.01903019490541
 20
-844.3524949145885
 30
0.0
 40
29.00000211354849
100
AcDbArc
 50
0.0
 51
0.0566558837890625
  0
ARC
  5
2A9
330
1F
100
AcDbEntity
  8
0-1_ピット
  6
Continuous
 62
     2
370
    13
100
AcDbCircle
 10
34.03758488240538
 20
-875.3832302397575
 30
0.0
 40
29.00000211354849
100
AcDbArc
 50
270.0
 51
270.034423828125
  0
ARC
  5
2AA
330
1F
100
AcDbEntity
  8
0-1_ピット
  6
Continuous
 62
     2
370
    13
100
AcDbCircle
 10
92.01926773713541
 20
-844.4213821612104
 30
0.0
 40
2.000000025774982
100
AcDbArc
 50
359.9619750976562
 51
359.9999847412109
  0
ARC
  5
2AB
330
1F
100
AcDbEntity
  8
0-1_ピット
  6
Continuous
 62
     2
370
    13
100
AcDbCircle
 10
34.01887843181449
 20
-844.3830784766664
 30
0.0
 40
58.00000422709697
100
AcDbArc
 50
270.034423828125
 51
359.999984741211
  0
ARC
  5
2AC
330
1F
100
AcDbEntity
  8
0-1_ピット
  6
Continuous
 62
     2
370
    13
100
AcDbCircle
 10
100.0190961788582
 20
-634.3832764285241
 30
0.0
 40
16.99999963915026
100
AcDbArc
 50
179.9988555908203
 51
0.0011138916015625
  0
ARC
  5
2AD
330
1F
100
AcDbEntity
  8
0-0_通り芯
  6
Continuous
 62
     3
370
    13
100
AcDbCircle
 10
25.01870027514197
 20
-835.3829003199937
 30
0.0
 40
14.00000018042487
100
AcDbArc
 50
270.0
 51
0.0
  0
ARC
  5
2AE
330
1F
100
AcDbEntity
  8
0-1_ピット
  6
Continuous
 62
     2
370
    13
100
AcDbCircle
 10
100.0190961788582
 20
-634.3832764285241
 30
0.0
 40
14.99999961337528
100
AcDbArc
 50
179.9987945556641
 51
0.0011901855469318
  0
ARC
  5
2AF
330
1F
100
AcDbEntity
  8
0-1_ピット
  6
Continuous
 62
     2
370
    13
100
AcDbCircle
 10
100.0190961788582
 20
-614.3831114686427
 30
0.0
 40
14.99999961337528
100
AcDbArc
 50
359.9999847412109
 51
180.0
  0
ARC
  5
2B0
330
1F
100
AcDbEntity
  8
0-1_ピット
  6
Continuous
 62
     2
370
    13
100
AcDbCircle
 10
100.0190961788582
 20
-614.3831114686427
 30
0.0
 40
16.99999963915026
100
AcDbArc
 50
359.9999847412109
 51
180.0
  0
ARC
  5
2B1
330
1F
100
AcDbEntity
  8
0-1_ピット
  6
Continuous
 62
     2
370
    13
100
AcDbCircle
 10
114.0192413435541
 20
-517.9777852439802
 30
0.0
 40
20.00000025774982
100
AcDbArc
 50
180.0
 51
225.5906524658203
  0
ARC
  5
2B2
330
1F
100
AcDbEntity
  8
0-1_ピット
  6
Continuous
 62
     2
370
    13
100
AcDbCircle
 10
123.0191225724395
 20
-582.7885102756528
 30
0.0
 40
20.00000025774982
100
AcDbArc
 50
0.0
 51
45.59065246582031
  0
ARC
  5
2B3
330
1F
100
AcDbEntity
  8
0-1_ピット
  6
Continuous
 62
     2
370
    13
100
AcDbCircle
 10
123.0191225724395
 20
-665.9778776215139
 30
0.0
 40
20.00000025774982
100
AcDbArc
 50
314.4093322753906
 51
0.0000000000000127
  0
ARC
  5
2B4
330
1F
100
AcDbEntity
  8
0-1_ピット
  6
Continuous
 62
     2
370
    13
100
AcDbCircle
 10
114.0192413435541
 20
-730.7886026531864
 30
0.0
 40
20.00000025774982
100
AcDbArc
 50
134.4093322753906
 51
180.0
  0
ARC
  5
2B5
330
1F
100
AcDbEntity
  8
0-1_ピット
  6
Continuous
 62
     2
370
    13
100
AcDbCircle
 10
73.01885863662854
 20
-551.9813615742166
 30
0.0
 40
10.00000012887491
100
AcDbArc
 50
180.0
 51
260.0737457275391
  0
ARC
  5
2B6
330
1F
100
AcDbEntity
  8
0-1_ピット
  6
Continuous
 62
     2
370
    13
100
AcDbCircle
 10
73.01885863662854
 20
-696.78502632295
 30
0.0
 40
10.00000012887491
100
AcDbArc
 50
99.92623901367188
 51
179.999984741211
  0
ARC
  5
2B7
330
1F
100
AcDbEntity
  8
0-1_ピット
  6
Continuous
 62
     2
370
    13
100
AcDbCircle
 10
123.0191225724395
 20
-582.7885102756528
 30
0.0
 40
16.99999963915026
100
AcDbArc
 50
24.15769958496096
 51
45.59065246582033
  0
ARC
  5
2B8
330
1F
100
AcDbEntity
  8
0-1_ピット
  6
Continuous
 62
     2
370
    13
100
AcDbCircle
 10
123.0191225724395
 20
-665.9778776215139
 30
0.0
 40
16.99999963915026
100
AcDbArc
 50
314.4093322753906
 51
335.84228515625
  0
ARC
  5
2B9
330
1F
100
AcDbEntity
  8
0-1_ピット
  6
Continuous
 62
     2
370
    13
100
AcDbCircle
 10
73.01885863662854
 20
-696.78502632295
 30
0.0
 40
12.00000131452406
100
AcDbArc
 50
99.92623901367188
 51
148.918701171875
  0
ARC
  5
2BA
330
1F
100
AcDbEntity
  8
0-1_ピット
  6
Continuous
 62
     2
370
    13
100
AcDbCircle
 10
73.01885863662854
 20
-551.9813615742166
 30
0.0
 40
12.00000131452406
100
AcDbArc
 50
211.0812835693359
 51
260.0737457275391
  0
ARC
  5
2BB
330
1F
100
AcDbEntity
  8
0-1_ピット
  6
Continuous
 62
     2
370
    13
100
AcDbCircle
 10
130.0188982270001
 20
-664.4760168740479
 30
0.0
 40
10.00000012887491
100
AcDbArc
 50
279.9262237548828
 51
359.9999847412109
  0
ARC
  5
2BC
330
1F
100
AcDbEntity
  8
0-1_ピット
  6
Continuous
 62
     2
370
    13
100
AcDbCircle
 10
130.0188982270001
 20
-584.290371023119
 30
0.0
 40
10.00000012887491
100
AcDbArc
 50
0.0
 51
80.07374572753906
  0
ARC
  5
2BD
330
1F
100
AcDbEntity
  8
0-1_ピット
  6
Continuous
 62
     2
370
    13
100
AcDbCircle
 10
130.0188982270001
 20
-584.290371023119
 30
0.0
 40
12.00000131452406
100
AcDbArc
 50
44.82484436035158
 51
80.07374572753909
  0
ARC
  5
2BE
330
1F
100
AcDbEntity
  8
0-1_ピット
  6
Continuous
 62
     2
370
    13
100
AcDbCircle
 10
130.0188982270001
 20
-664.4760168740479
 30
0.0
 40
12.00000131452406
100
AcDbArc
 50
279.9262237548828
 51
315.1751251220703
  0
ARC
  5
2BF
330
1F
100
AcDbEntity
  8
0-1_ピット
  6
Continuous
 62
     2
370
    13
100
AcDbCircle
 10
114.0192413435541
 20
-519.3775028326627
 30
0.0
 40
21.99999912365063
100
AcDbArc
 50
180.0
 51
225.5906524658203
  0
ARC
  5
2C0
330
1F
100
AcDbEntity
  8
0-1_ピット
  6
Continuous
 62
     2
370
    13
100
AcDbCircle
 10
114.0192413435541
 20
-729.3882912089296
 30
0.0
 40
21.99999912365063
100
AcDbArc
 50
134.4093322753906
 51
180.0
  0
ARC
  5
2C1
330
1F
100
AcDbEntity
  8
0-1_ピット
  6
Continuous
 62
     2
370
    13
100
AcDbCircle
 10
-80.97561190813491
 20
-924.3831444606187
 30
0.0
 40
21.99999912365063
100
AcDbArc
 50
97.01646423339844
 51
135.5906524658203
  0
ARC
  5
2C2
330
1F
100
AcDbEntity
  8
0-1_ピット
  6
Continuous
 62
     2
370
    13
100
AcDbCircle
 10
-290.9864002844018
 20
-924.3831444606187
 30
0.0
 40
21.99999912365063
100
AcDbArc
 50
44.40933227539063
 51
90.00000000000001
  0
ARC
  5
2C3
330
1F
100
AcDbEntity
  8
0-1_ピット
  6
Continuous
 62
     2
370
    13
100
AcDbCircle
 10
-145.8884800985912
 20
-940.3833951996387
 30
0.0
 40
12.00000131452406
100
AcDbArc
 50
314.8248443603516
 51
350.0737457275391
  0
ARC
  5
2C4
330
1F
100
AcDbEntity
  8
0-1_ピット
  6
Continuous
 62
     2
370
    13
100
AcDbCircle
 10
-226.0735320939459
 20
-940.3833951996387
 30
0.0
 40
12.00000131452406
100
AcDbArc
 50
189.9262390136719
 51
225.1751403808594
  0
ARC
  5
2C5
330
1F
100
AcDbEntity
  8
0-1_ピット
  6
Continuous
 62
     2
370
    13
100
AcDbCircle
 10
-226.0735320939459
 20
-940.3833951996387
 30
0.0
 40
10.00000012887491
100
AcDbArc
 50
189.9262390136719
 51
270.0
  0
ARC
  5
2C6
330
1F
100
AcDbEntity
  8
0-1_ピット
  6
Continuous
 62
     2
370
    13
100
AcDbCircle
 10
-145.8884800985912
 20
-940.3833951996387
 30
0.0
 40
10.00000012887491
100
AcDbArc
 50
270.0
 51
350.0737457275391
  0
ARC
  5
2C7
330
1F
100
AcDbEntity
  8
0-1_ピット
  6
Continuous
 62
     2
370
    13
100
AcDbCircle
 10
-144.386173959444
 20
-933.3833226172914
 30
0.0
 40
16.99999963915026
100
AcDbArc
 50
294.1576995849609
 51
315.5906524658203
  0
ARC
  5
2C8
330
1F
100
AcDbEntity
  8
0-1_ピット
  6
Continuous
 62
     2
370
    13
100
AcDbCircle
 10
-227.5758382330928
 20
-933.3833226172914
 30
0.0
 40
16.99999963915026
100
AcDbArc
 50
224.4093322753906
 51
245.84228515625
  0
ARC
  5
2C9
330
1F
100
AcDbEntity
  8
0-1_ピット
  6
Continuous
 62
     2
370
    13
100
AcDbCircle
 10
-79.57589431945273
 20
-924.3831444606187
 30
0.0
 40
20.00000025774982
100
AcDbArc
 50
97.01646423339844
 51
135.5906524658203
  0
ARC
  5
2CA
330
1F
100
AcDbEntity
  8
0-1_ピット
  6
Continuous
 62
     2
370
    13
100
AcDbCircle
 10
-144.386173959444
 20
-933.3833226172914
 30
0.0
 40
20.00000025774982
100
AcDbArc
 50
270.0
 51
315.5906524658203
  0
ARC
  5
2CB
330
1F
100
AcDbEntity
  8
0-1_ピット
  6
Continuous
 62
     2
370
    13
100
AcDbCircle
 10
-227.5758382330928
 20
-933.3833226172914
 30
0.0
 40
20.00000025774982
100
AcDbArc
 50
224.4093322753906
 51
270.0
  0
ARC
  5
2CC
330
1F
100
AcDbEntity
  8
0-1_ピット
  6
Continuous
 62
     2
370
    13
100
AcDbCircle
 10
-292.3864148008715
 20
-924.3831444606187
 30
0.0
 40
20.00000025774982
100
AcDbArc
 50
44.40933227539063
 51
90.00000000000001
  0
ARC
  5
2CD
330
1F
100
AcDbEntity
  8
0-1_ピット
  6
Continuous
 62
     2
370
    13
100
AcDbCircle
 10
-195.9810885762093
 20
-910.3829992959229
 30
0.0
 40
16.99999963915026
100
AcDbArc
 50
89.99998474121095
 51
270.0
  0
ARC
  5
2CE
330
1F
100
AcDbEntity
  8
0-1_ピット
  6
Continuous
 62
     2
370
    13
100
AcDbCircle
 10
-195.9810885762093
 20
-910.3829992959229
 30
0.0
 40
14.99999961337528
100
AcDbArc
 50
89.99998474121095
 51
270.0
  0
ARC
  5
2CF
330
1F
100
AcDbEntity
  8
0-1_ピット
  6
Continuous
 62
     2
370
    13
100
AcDbCircle
 10
-175.9809236163277
 20
-910.3829992959229
 30
0.0
 40
14.99999961337528
100
AcDbArc
 50
269.9987945556641
 51
90.00119018554693
  0
ARC
  5
2D0
330
1F
100
AcDbEntity
  8
0-1_ピット
  6
Continuous
 62
     2
370
    13
100
AcDbCircle
 10
-175.9809236163277
 20
-910.3829992959229
 30
0.0
 40
16.99999963915026
100
AcDbArc
 50
269.9988708496094
 51
90.00111389160156
  0
ARC
  5
2D1
330
1F
100
AcDbEntity
  8
0-0_通り芯
  6
Continuous
 62
     3
370
    13
100
AcDbCircle
 10
-334.9811512609643
 20
-253.3830586814801
 30
0.0
 40
8.000000103099927
100
AcDbArc
 50
180.0
 51
270.0
  0
ARC
  5
2D2
330
1F
100
AcDbEntity
  8
0-0_通り芯
  6
Continuous
 62
     3
370
    13
100
AcDbCircle
 10
-334.9811512609643
 20
-285.3829663039468
 30
0.0
 40
8.000000103099927
100
AcDbArc
 50
97.01646423339844
 51
180.0
  0
ARC
  5
2D3
330
1F
100
AcDbEntity
  8
0-0_通り芯
  6
Continuous
 62
     3
370
    13
100
AcDbCircle
 10
-334.9811512609643
 20
-443.3829926975278
 30
0.0
 40
8.000000103099927
100
AcDbArc
 50
180.0
 51
270.0
  0
ARC
  5
2D4
330
1F
100
AcDbEntity
  8
0-0_通り芯
  6
Continuous
 62
     3
370
    13
100
AcDbCircle
 10
-334.9811512609643
 20
-475.382900319994
 30
0.0
 40
8.000000103099927
100
AcDbArc
 50
97.01646423339844
 51
180.0
  0
ARC
  5
2D5
330
1F
100
AcDbEntity
  8
0-0_通り芯
  6
Continuous
 62
     3
370
    13
100
AcDbCircle
 10
-366.9810588834305
 20
-475.382900319994
 30
0.0
 40
8.000000103099927
100
AcDbArc
 50
0.0
 51
90.0
  0
ARC
  5
2D6
330
1F
100
AcDbEntity
  8
0-0_通り芯
  6
Continuous
 62
     3
370
    13
100
AcDbCircle
 10
-524.981085277012
 20
-475.382900319994
 30
0.0
 40
8.000000103099927
100
AcDbArc
 50
97.01646423339844
 51
180.0
  0
ARC
  5
2D7
330
1F
100
AcDbEntity
  8
0-0_通り芯
  6
Continuous
 62
     3
370
    13
100
AcDbCircle
 10
-366.9810588834305
 20
-285.3829663039468
 30
0.0
 40
8.000000103099927
100
AcDbArc
 50
0.0
 51
90.0
  0
ARC
  5
2D8
330
1F
100
AcDbEntity
  8
0-0_通り芯
  6
Continuous
 62
     3
370
    13
100
AcDbCircle
 10
-524.981085277012
 20
-285.3829663039468
 30
0.0
 40
8.000000103099927
100
AcDbArc
 50
97.01646423339844
 51
180.0
  0
ARC
  5
2D9
330
1F
100
AcDbEntity
  8
0-0_通り芯
  6
Continuous
 62
     3
370
    13
100
AcDbCircle
 10
-524.981085277012
 20
-443.3829926975278
 30
0.0
 40
8.000000103099927
100
AcDbArc
 50
180.0
 51
270.0
  0
ARC
  5
2DA
330
1F
100
AcDbEntity
  8
0-0_通り芯
  6
Continuous
 62
     3
370
    13
100
AcDbCircle
 10
-366.9810588834305
 20
-443.3829926975278
 30
0.0
 40
8.000000103099927
100
AcDbArc
 50
270.0
 51
0.0
  0
ARC
  5
2DB
330
1F
100
AcDbEntity
  8
0-0_通り芯
  6
Continuous
 62
     3
370
    13
100
AcDbCircle
 10
-524.981085277012
 20
-253.3830586814801
 30
0.0
 40
8.000000103099927
100
AcDbArc
 50
180.0
 51
270.0
  0
ARC
  5
2DC
330
1F
100
AcDbEntity
  8
0-0_通り芯
  6
Continuous
 62
     3
370
    13
100
AcDbCircle
 10
-366.9810588834305
 20
-253.3830586814801
 30
0.0
 40
8.000000103099927
100
AcDbArc
 50
270.0
 51
0.0
  0
ARC
  5
2DD
330
1F
100
AcDbEntity
  8
0-0_通り芯
  6
Continuous
 62
     3
370
    13
100
AcDbCircle
 10
-556.9811413633715
 20
-253.3830586814801
 30
0.0
 40
8.000000103099927
100
AcDbArc
 50
270.0
 51
0.0
  0
ARC
  5
2DE
330
1F
100
AcDbEntity
  8
0-0_通り芯
  6
Continuous
 62
     3
370
    13
100
AcDbCircle
 10
-556.9811413633715
 20
-443.3829926975278
 30
0.0
 40
8.000000103099927
100
AcDbArc
 50
270.0
 51
0.0
  0
ARC
  5
2DF
330
1F
100
AcDbEntity
  8
0-0_通り芯
  6
Continuous
 62
     3
370
    13
100
AcDbCircle
 10
-556.9811413633715
 20
-285.3829663039468
 30
0.0
 40
8.000000103099927
100
AcDbArc
 50
0.0
 51
90.0
  0
ARC
  5
2E0
330
1F
100
AcDbEntity
  8
0-0_通り芯
  6
Continuous
 62
     3
370
    13
100
AcDbCircle
 10
-556.9811413633715
 20
-475.382900319994
 30
0.0
 40
8.000000103099927
100
AcDbArc
 50
0.0
 51
90.0
  0
ARC
  5
2E1
330
1F
100
AcDbEntity
  8
0-0_通り芯
  6
Continuous
 62
     3
370
    13
100
AcDbCircle
 10
-334.9811512609643
 20
-253.3830586814801
 30
0.0
 40
10.00000012887491
100
AcDbArc
 50
180.0
 51
270.0
  0
ARC
  5
2E2
330
1F
100
AcDbEntity
  8
0-0_通り芯
  6
Continuous
 62
     3
370
    13
100
AcDbCircle
 10
-334.9811512609643
 20
-285.3829663039468
 30
0.0
 40
10.00000012887491
100
AcDbArc
 50
97.01646423339844
 51
180.0
  0
ARC
  5
2E3
330
1F
100
AcDbEntity
  8
0-0_通り芯
  6
Continuous
 62
     3
370
    13
100
AcDbCircle
 10
-366.9810588834305
 20
-285.3829663039468
 30
0.0
 40
10.00000012887491
100
AcDbArc
 50
0.0
 51
90.0
  0
ARC
  5
2E4
330
1F
100
AcDbEntity
  8
0-0_通り芯
  6
Continuous
 62
     3
370
    13
100
AcDbCircle
 10
-366.9810588834305
 20
-253.3830586814801
 30
0.0
 40
10.00000012887491
100
AcDbArc
 50
270.0
 51
0.0
  0
ARC
  5
2E5
330
1F
100
AcDbEntity
  8
0-0_通り芯
  6
Continuous
 62
     3
370
    13
100
AcDbCircle
 10
-524.981085277012
 20
-253.3830586814801
 30
0.0
 40
10.00000012887491
100
AcDbArc
 50
180.0
 51
270.0
  0
ARC
  5
2E6
330
1F
100
AcDbEntity
  8
0-0_通り芯
  6
Continuous
 62
     3
370
    13
100
AcDbCircle
 10
-524.981085277012
 20
-285.3829663039468
 30
0.0
 40
10.00000012887491
100
AcDbArc
 50
97.01646423339844
 51
180.0
  0
ARC
  5
2E7
330
1F
100
AcDbEntity
  8
0-0_通り芯
  6
Continuous
 62
     3
370
    13
100
AcDbCircle
 10
-556.9811413633715
 20
-285.3829663039468
 30
0.0
 40
10.00000012887491
100
AcDbArc
 50
0.0
 51
90.0
  0
ARC
  5
2E8
330
1F
100
AcDbEntity
  8
0-0_通り芯
  6
Continuous
 62
     3
370
    13
100
AcDbCircle
 10
-556.9811413633715
 20
-253.3830586814801
 30
0.0
 40
10.00000012887491
100
AcDbArc
 50
270.0
 51
0.0
  0
ARC
  5
2E9
330
1F
100
AcDbEntity
  8
0-0_通り芯
  6
Continuous
 62
     3
370
    13
100
AcDbCircle
 10
-334.9811512609643
 20
-443.3829926975278
 30
0.0
 40
10.00000012887491
100
AcDbArc
 50
180.0
 51
270.0
  0
ARC
  5
2EA
330
1F
100
AcDbEntity
  8
0-0_通り芯
  6
Continuous
 62
     3
370
    13
100
AcDbCircle
 10
-334.9811512609643
 20
-475.382900319994
 30
0.0
 40
10.00000012887491
100
AcDbArc
 50
97.01646423339844
 51
180.0
  0
ARC
  5
2EB
330
1F
100
AcDbEntity
  8
0-0_通り芯
  6
Continuous
 62
     3
370
    13
100
AcDbCircle
 10
-366.9810588834305
 20
-475.382900319994
 30
0.0
 40
10.00000012887491
100
AcDbArc
 50
0.0
 51
90.0
  0
ARC
  5
2EC
330
1F
100
AcDbEntity
  8
0-0_通り芯
  6
Continuous
 62
     3
370
    13
100
AcDbCircle
 10
-366.9810588834305
 20
-443.3829926975278
 30
0.0
 40
10.00000012887491
100
AcDbArc
 50
270.0
 51
0.0
  0
ARC
  5
2ED
330
1F
100
AcDbEntity
  8
0-0_通り芯
  6
Continuous
 62
     3
370
    13
100
AcDbCircle
 10
-524.981085277012
 20
-443.3829926975278
 30
0.0
 40
10.00000012887491
100
AcDbArc
 50
180.0
 51
270.0
  0
ARC
  5
2EE
330
1F
100
AcDbEntity
  8
0-0_通り芯
  6
Continuous
 62
     3
370
    13
100
AcDbCircle
 10
-524.981085277012
 20
-475.382900319994
 30
0.0
 40
10.00000012887491
100
AcDbArc
 50
97.01646423339844
 51
180.0
  0
ARC
  5
2EF
330
1F
100
AcDbEntity
  8
0-0_通り芯
  6
Continuous
 62
     3
370
    13
100
AcDbCircle
 10
-556.9811413633715
 20
-475.382900319994
 30
0.0
 40
10.00000012887491
100
AcDbArc
 50
0.0
 51
90.0
  0
ARC
  5
2F0
330
1F
100
AcDbEntity
  8
0-0_通り芯
  6
Continuous
 62
     3
370
    13
100
AcDbCircle
 10
-556.9811413633715
 20
-443.3829926975278
 30
0.0
 40
10.00000012887491
100
AcDbArc
 50
270.0
 51
0.0
  0
ARC
  5
2F1
330
1F
100
AcDbEntity
  8
0-0_通り芯
  6
Continuous
 62
     3
370
    13
100
AcDbCircle
 10
-714.9811677569528
 20
-443.3829926975278
 30
0.0
 40
10.00000012887491
100
AcDbArc
 50
180.0
 51
270.0
  0
ARC
  5
2F2
330
1F
100
AcDbEntity
  8
0-0_通り芯
  6
Continuous
 62
     3
370
    13
100
AcDbCircle
 10
-714.9811677569528
 20
-475.382900319994
 30
0.0
 40
10.00000012887491
100
AcDbArc
 50
92.36329650878906
 51
180.0
  0
ARC
  5
2F3
330
1F
100
AcDbEntity
  8
0-0_通り芯
  6
Continuous
 62
     3
370
    13
100
AcDbCircle
 10
-746.9810753794189
 20
-475.382900319994
 30
0.0
 40
10.00000012887491
100
AcDbArc
 50
0.0
 51
90.0
  0
ARC
  5
2F4
330
1F
100
AcDbEntity
  8
0-0_通り芯
  6
Continuous
 62
     3
370
    13
100
AcDbCircle
 10
-746.9810753794189
 20
-443.3829926975278
 30
0.0
 40
10.00000012887491
100
AcDbArc
 50
270.0
 51
0.0
  0
ARC
  5
2F5
330
1F
100
AcDbEntity
  8
0-0_通り芯
  6
Continuous
 62
     3
370
    13
100
AcDbCircle
 10
-904.9811017729999
 20
-443.3829926975278
 30
0.0
 40
10.00000012887491
100
AcDbArc
 50
180.0
 51
270.0
  0
ARC
  5
2F6
330
1F
100
AcDbEntity
  8
0-0_通り芯
  6
Continuous
 62
     3
370
    13
100
AcDbCircle
 10
-904.9811017729999
 20
-475.382900319994
 30
0.0
 40
10.00000012887491
100
AcDbArc
 50
92.36329650878906
 51
180.0
  0
ARC
  5
2F7
330
1F
100
AcDbEntity
  8
0-0_通り芯
  6
Continuous
 62
     3
370
    13
100
AcDbCircle
 10
-936.9808609315726
 20
-475.382900319994
 30
0.0
 40
10.00000012887491
100
AcDbArc
 50
0.0
 51
90.0
  0
ARC
  5
2F8
330
1F
100
AcDbEntity
  8
0-0_通り芯
  6
Continuous
 62
     3
370
    13
100
AcDbCircle
 10
-936.9808609315726
 20
-443.3829926975278
 30
0.0
 40
10.00000012887491
100
AcDbArc
 50
270.0
 51
0.0
  0
ARC
  5
2F9
330
1F
100
AcDbEntity
  8
0-0_通り芯
  6
Continuous
 62
     3
370
    13
100
AcDbCircle
 10
-714.9811677569528
 20
-253.3830586814801
 30
0.0
 40
10.00000012887491
100
AcDbArc
 50
180.0
 51
270.0
  0
ARC
  5
2FA
330
1F
100
AcDbEntity
  8
0-0_通り芯
  6
Continuous
 62
     3
370
    13
100
AcDbCircle
 10
-714.9811677569528
 20
-285.3829663039468
 30
0.0
 40
10.00000012887491
100
AcDbArc
 50
92.36329650878906
 51
180.0
  0
ARC
  5
2FB
330
1F
100
AcDbEntity
  8
0-0_通り芯
  6
Continuous
 62
     3
370
    13
100
AcDbCircle
 10
-746.9810753794189
 20
-285.3829663039468
 30
0.0
 40
10.00000012887491
100
AcDbArc
 50
0.0
 51
90.0
  0
ARC
  5
2FC
330
1F
100
AcDbEntity
  8
0-0_通り芯
  6
Continuous
 62
     3
370
    13
100
AcDbCircle
 10
-746.9810753794189
 20
-253.3830586814801
 30
0.0
 40
10.00000012887491
100
AcDbArc
 50
270.0
 51
0.0
  0
ARC
  5
2FD
330
1F
100
AcDbEntity
  8
0-0_通り芯
  6
Continuous
 62
     3
370
    13
100
AcDbCircle
 10
-904.9811017729999
 20
-253.3830586814801
 30
0.0
 40
10.00000012887491
100
AcDbArc
 50
180.0
 51
270.0
  0
ARC
  5
2FE
330
1F
100
AcDbEntity
  8
0-0_通り芯
  6
Continuous
 62
     3
370
    13
100
AcDbCircle
 10
-904.9811017729999
 20
-285.3829663039468
 30
0.0
 40
10.00000012887491
100
AcDbArc
 50
92.36329650878906
 51
180.0
  0
ARC
  5
2FF
330
1F
100
AcDbEntity
  8
0-0_通り芯
  6
Continuous
 62
     3
370
    13
100
AcDbCircle
 10
-936.9808609315726
 20
-285.3829663039468
 30
0.0
 40
10.00000012887491
100
AcDbArc
 50
0.0
 51
90.0
  0
ARC
  5
300
330
1F
100
AcDbEntity
  8
0-0_通り芯
  6
Continuous
 62
     3
370
    13
100
AcDbCircle
 10
-936.9808609315726
 20
-253.3830586814801
 30
0.0
 40
10.00000012887491
100
AcDbArc
 50
270.0
 51
0.0
  0
ARC
  5
301
330
1F
100
AcDbEntity
  8
0-0_通り芯
  6
Continuous
 62
     3
370
    13
100
AcDbCircle
 10
-714.9811677569528
 20
-475.382900319994
 30
0.0
 40
8.000000103099927
100
AcDbArc
 50
92.36329650878906
 51
180.0
  0
ARC
  5
302
330
1F
100
AcDbEntity
  8
0-0_通り芯
  6
Continuous
 62
     3
370
    13
100
AcDbCircle
 10
-714.9811677569528
 20
-285.3829663039468
 30
0.0
 40
8.000000103099927
100
AcDbArc
 50
92.36329650878906
 51
180.0
  0
ARC
  5
303
330
1F
100
AcDbEntity
  8
0-0_通り芯
  6
Continuous
 62
     3
370
    13
100
AcDbCircle
 10
-714.9811677569528
 20
-443.3829926975278
 30
0.0
 40
8.000000103099927
100
AcDbArc
 50
180.0
 51
270.0
  0
ARC
  5
304
330
1F
100
AcDbEntity
  8
0-0_通り芯
  6
Continuous
 62
     3
370
    13
100
AcDbCircle
 10
-714.9811677569528
 20
-253.3830586814801
 30
0.0
 40
8.000000103099927
100
AcDbArc
 50
180.0
 51
270.0
  0
ARC
  5
305
330
1F
100
AcDbEntity
  8
0-0_通り芯
  6
Continuous
 62
     3
370
    13
100
AcDbCircle
 10
-904.9811017729999
 20
-253.3830586814801
 30
0.0
 40
8.000000103099927
100
AcDbArc
 50
180.0
 51
270.0
  0
ARC
  5
306
330
1F
100
AcDbEntity
  8
0-0_通り芯
  6
Continuous
 62
     3
370
    13
100
AcDbCircle
 10
-746.9810753794189
 20
-253.3830586814801
 30
0.0
 40
8.000000103099927
100
AcDbArc
 50
270.0
 51
0.0
  0
ARC
  5
307
330
1F
100
AcDbEntity
  8
0-0_通り芯
  6
Continuous
 62
     3
370
    13
100
AcDbCircle
 10
-904.9811017729999
 20
-443.3829926975278
 30
0.0
 40
8.000000103099927
100
AcDbArc
 50
180.0
 51
270.0
  0
ARC
  5
308
330
1F
100
AcDbEntity
  8
0-0_通り芯
  6
Continuous
 62
     3
370
    13
100
AcDbCircle
 10
-746.9810753794189
 20
-443.3829926975278
 30
0.0
 40
8.000000103099927
100
AcDbArc
 50
270.0
 51
0.0
  0
ARC
  5
309
330
1F
100
AcDbEntity
  8
0-0_通り芯
  6
Continuous
 62
     3
370
    13
100
AcDbCircle
 10
-746.9810753794189
 20
-285.3829663039468
 30
0.0
 40
8.000000103099927
100
AcDbArc
 50
0.0
 51
90.0
  0
ARC
  5
30A
330
1F
100
AcDbEntity
  8
0-0_通り芯
  6
Continuous
 62
     3
370
    13
100
AcDbCircle
 10
-904.9811017729999
 20
-285.3829663039468
 30
0.0
 40
8.000000103099927
100
AcDbArc
 50
92.36329650878906
 51
180.0
  0
ARC
  5
30B
330
1F
100
AcDbEntity
  8
0-0_通り芯
  6
Continuous
 62
     3
370
    13
100
AcDbCircle
 10
-746.9810753794189
 20
-475.382900319994
 30
0.0
 40
8.000000103099927
100
AcDbArc
 50
0.0
 51
90.0
  0
ARC
  5
30C
330
1F
100
AcDbEntity
  8
0-0_通り芯
  6
Continuous
 62
     3
370
    13
100
AcDbCircle
 10
-904.9811017729999
 20
-475.382900319994
 30
0.0
 40
8.000000103099927
100
AcDbArc
 50
92.36329650878906
 51
180.0
  0
ARC
  5
30D
330
1F
100
AcDbEntity
  8
0-0_通り芯
  6
Continuous
 62
     3
370
    13
100
AcDbCircle
 10
-936.9808609315726
 20
-475.382900319994
 30
0.0
 40
8.000000103099927
100
AcDbArc
 50
0.0
 51
90.0
  0
ARC
  5
30E
330
1F
100
AcDbEntity
  8
0-0_通り芯
  6
Continuous
 62
     3
370
    13
100
AcDbCircle
 10
-936.9808609315726
 20
-443.3829926975278
 30
0.0
 40
8.000000103099927
100
AcDbArc
 50
270.0
 51
0.0
  0
ARC
  5
30F
330
1F
100
AcDbEntity
  8
0-0_通り芯
  6
Continuous
 62
     3
370
    13
100
AcDbCircle
 10
-936.9808609315726
 20
-285.3829663039468
 30
0.0
 40
8.000000103099927
100
AcDbArc
 50
0.0
 51
90.0
  0
ARC
  5
310
330
1F
100
AcDbEntity
  8
0-0_通り芯
  6
Continuous
 62
     3
370
    13
100
AcDbCircle
 10
-936.9808609315726
 20
-253.3830586814801
 30
0.0
 40
8.000000103099927
100
AcDbArc
 50
270.0
 51
0.0
  0
ARC
  5
311
330
1F
100
AcDbEntity
  8
0-1_ピット
  6
Continuous
 62
     2
370
    13
100
AcDbCircle
 10
-1095.981088576209
 20
-910.3829992959229
 30
0.0
 40
16.99999963915026
100
AcDbArc
 50
89.99887084960938
 51
270.0011138916016
  0
ARC
  5
312
330
1F
100
AcDbEntity
  8
0-1_ピット
  6
Continuous
 62
     2
370
    13
100
AcDbCircle
 10
-1095.981088576209
 20
-910.3829992959229
 30
0.0
 40
14.99999961337528
100
AcDbArc
 50
89.99879455566403
 51
270.0011901855469
  0
ARC
  5
313
330
1F
100
AcDbEntity
  8
0-1_ピット
  6
Continuous
 62
     2
370
    13
100
AcDbCircle
 10
-1075.981220544115
 20
-910.3829992959229
 30
0.0
 40
14.99999961337528
100
AcDbArc
 50
269.9999847412109
 51
90.0
  0
ARC
  5
314
330
1F
100
AcDbEntity
  8
0-1_ピット
  6
Continuous
 62
     2
370
    13
100
AcDbCircle
 10
-1075.981220544115
 20
-910.3829992959229
 30
0.0
 40
16.99999963915026
100
AcDbArc
 50
269.9999847412109
 51
90.0
  0
ARC
  5
315
330
1F
100
AcDbEntity
  8
0-1_ピット
  6
Continuous
 62
     2
370
    13
100
AcDbCircle
 10
-979.5758943194526
 20
-924.3831444606187
 30
0.0
 40
20.00000025774982
100
AcDbArc
 50
92.36329650878906
 51
135.5906524658203
  0
ARC
  5
316
330
1F
100
AcDbEntity
  8
0-1_ピット
  6
Continuous
 62
     2
370
    13
100
AcDbCircle
 10
-1044.386470887231
 20
-933.3833226172914
 30
0.0
 40
20.00000025774982
100
AcDbArc
 50
270.0
 51
315.5906524658203
  0
ARC
  5
317
330
1F
100
AcDbEntity
  8
0-1_ピット
  6
Continuous
 62
     2
370
    13
100
AcDbCircle
 10
-1127.575689769199
 20
-933.3833226172914
 30
0.0
 40
20.00000025774982
100
AcDbArc
 50
224.4093322753906
 51
270.0
  0
ARC
  5
318
330
1F
100
AcDbEntity
  8
0-1_ピット
  6
Continuous
 62
     2
370
    13
100
AcDbCircle
 10
-1192.386414800872
 20
-924.3831444606187
 30
0.0
 40
20.00000025774982
100
AcDbArc
 50
44.40933227539063
 51
90.00000000000001
  0
ARC
  5
319
330
1F
100
AcDbEntity
  8
0-1_ピット
  6
JWW_CENTER2
 62
     2
370
    13
100
AcDbCircle
 10
-257.3329018152296
 20
-889.3830784766664
 30
0.0
 40
10.00000012887491
100
AcDbArc
 50
9.926239013671914
 51
90.00000000000004
  0
ARC
  5
31A
330
1F
100
AcDbEntity
  8
0-1_ピット
  6
JWW_CENTER2
 62
     2
370
    13
100
AcDbCircle
 10
-114.6291103773074
 20
-889.3830784766664
 30
0.0
 40
10.00000012887491
100
AcDbArc
 50
90.0
 51
170.0737457275391
  0
ARC
  5
31B
330
1F
100
AcDbEntity
  8
0-1_ピット
  6
Continuous
 62
     2
370
    13
100
AcDbCircle
 10
-1044.386470887231
 20
-933.3833226172914
 30
0.0
 40
16.99999963915026
100
AcDbArc
 50
294.1576995849609
 51
315.5906524658203
  0
ARC
  5
31C
330
1F
100
AcDbEntity
  8
0-1_ピット
  6
Continuous
 62
     2
370
    13
100
AcDbCircle
 10
-1127.575689769199
 20
-933.3833226172914
 30
0.0
 40
16.99999963915026
100
AcDbArc
 50
224.4093322753906
 51
245.84228515625
  0
ARC
  5
31D
330
1F
100
AcDbEntity
  8
0-1_ピット
  6
JWW_CENTER2
 62
     2
370
    13
100
AcDbCircle
 10
-257.3329018152296
 20
-889.3830784766664
 30
0.0
 40
12.00000131452406
100
AcDbArc
 50
9.926239013671914
 51
58.91870117187504
  0
ARC
  5
31E
330
1F
100
AcDbEntity
  8
0-1_ピット
  6
JWW_CENTER2
 62
     2
370
    13
100
AcDbCircle
 10
-114.6291103773074
 20
-889.3830784766664
 30
0.0
 40
12.00000131452406
100
AcDbArc
 50
121.081298828125
 51
170.0737457275391
  0
ARC
  5
31F
330
1F
100
AcDbEntity
  8
0-1_ピット
  6
Continuous
 62
     2
370
    13
100
AcDbCircle
 10
-1126.073680557839
 20
-940.3833951996387
 30
0.0
 40
10.00000012887491
100
AcDbArc
 50
189.9262390136719
 51
269.9999847412109
  0
ARC
  5
320
330
1F
100
AcDbEntity
  8
0-1_ピット
  6
Continuous
 62
     2
370
    13
100
AcDbCircle
 10
-1045.888480098591
 20
-940.3833951996387
 30
0.0
 40
10.00000012887491
100
AcDbArc
 50
270.0
 51
350.0737457275391
  0
ARC
  5
321
330
1F
100
AcDbEntity
  8
0-1_ピット
  6
Continuous
 62
     2
370
    13
100
AcDbCircle
 10
-1045.888480098591
 20
-940.3833951996387
 30
0.0
 40
12.00000131452406
100
AcDbArc
 50
314.8248443603516
 51
350.0737457275391
  0
ARC
  5
322
330
1F
100
AcDbEntity
  8
0-1_ピット
  6
Continuous
 62
     2
370
    13
100
AcDbCircle
 10
-1126.073680557839
 20
-940.3833951996387
 30
0.0
 40
12.00000131452406
100
AcDbArc
 50
189.9262390136719
 51
225.1751403808594
  0
ARC
  5
323
330
1F
100
AcDbEntity
  8
0-1_ピット
  6
Continuous
 62
     2
370
    13
100
AcDbCircle
 10
-980.9756119081351
 20
-924.3831444606187
 30
0.0
 40
21.99999912365063
100
AcDbArc
 50
92.36329650878906
 51
135.5906524658203
  0
ARC
  5
324
330
1F
100
AcDbEntity
  8
0-1_ピット
  6
Continuous
 62
     2
370
    13
100
AcDbCircle
 10
-1190.986400284402
 20
-924.3831444606187
 30
0.0
 40
21.99999912365063
100
AcDbArc
 50
44.40933227539063
 51
90.00000000000001
  0
ARC
  5
325
330
1F
100
AcDbEntity
  8
0-1_ピット
  6
Continuous
 62
     2
370
    13
100
AcDbCircle
 10
-1385.980956608304
 20
-729.3882912089296
 30
0.0
 40
21.99999912365063
100
AcDbArc
 50
0.0
 51
45.59065246582031
  0
ARC
  5
326
330
1F
100
AcDbEntity
  8
0-1_ピット
  6
Continuous
 62
     2
370
    13
100
AcDbCircle
 10
-1385.980956608304
 20
-519.3775028326627
 30
0.0
 40
21.99999912365063
100
AcDbArc
 50
314.4093322753906
 51
0.0000000000000127
  0
ARC
  5
327
330
1F
100
AcDbEntity
  8
0-1_ピット
  6
Continuous
 62
     2
370
    13
100
AcDbCircle
 10
-1401.981133115378
 20
-664.4760168740479
 30
0.0
 40
12.00000131452406
100
AcDbArc
 50
224.8248443603516
 51
260.0737457275391
  0
ARC
  5
328
330
1F
100
AcDbEntity
  8
0-1_ピット
  6
Continuous
 62
     2
370
    13
100
AcDbCircle
 10
-1401.981133115378
 20
-584.290371023119
 30
0.0
 40
12.00000131452406
100
AcDbArc
 50
99.92623901367188
 51
135.1751403808594
  0
ARC
  5
329
330
1F
100
AcDbEntity
  8
0-1_ピット
  6
Continuous
 62
     2
370
    13
100
AcDbCircle
 10
-1401.981133115378
 20
-584.290371023119
 30
0.0
 40
10.00000012887491
100
AcDbArc
 50
99.92623901367188
 51
180.0
  0
ARC
  5
32A
330
1F
100
AcDbEntity
  8
0-1_ピット
  6
Continuous
 62
     2
370
    13
100
AcDbCircle
 10
-1401.981133115378
 20
-664.4760168740479
 30
0.0
 40
10.00000012887491
100
AcDbArc
 50
180.0
 51
260.0737457275391
  0
ARC
  5
32B
330
1F
100
AcDbEntity
  8
0-1_ピット
  6
Continuous
 62
     2
370
    13
100
AcDbCircle
 10
-1344.981167756953
 20
-551.9813615742166
 30
0.0
 40
12.00000131452406
100
AcDbArc
 50
279.9262237548828
 51
328.918685913086
  0
ARC
  5
32C
330
1F
100
AcDbEntity
  8
0-1_ピット
  6
Continuous
 62
     2
370
    13
100
AcDbCircle
 10
-1344.981167756953
 20
-696.78502632295
 30
0.0
 40
12.00000131452406
100
AcDbArc
 50
31.08128356933594
 51
80.07374572753906
  0
ARC
  5
32D
330
1F
100
AcDbEntity
  8
0-1_ピット
  6
Continuous
 62
     2
370
    13
100
AcDbCircle
 10
-1394.981134764976
 20
-665.9778776215139
 30
0.0
 40
16.99999963915026
100
AcDbArc
 50
204.1576995849609
 51
225.5906524658203
  0
ARC
  5
32E
330
1F
100
AcDbEntity
  8
0-1_ピット
  6
Continuous
 62
     2
370
    13
100
AcDbCircle
 10
-1394.981134764976
 20
-582.7885102756528
 30
0.0
 40
16.99999963915026
100
AcDbArc
 50
134.4093322753906
 51
155.84228515625
  0
ARC
  5
32F
330
1F
100
AcDbEntity
  8
0-1_ピット
  6
Continuous
 62
     2
370
    13
100
AcDbCircle
 10
-1344.981167756953
 20
-696.78502632295
 30
0.0
 40
10.00000012887491
100
AcDbArc
 50
0.0
 51
80.07374572753906
  0
ARC
  5
330
330
1F
100
AcDbEntity
  8
0-1_ピット
  6
Continuous
 62
     2
370
    13
100
AcDbCircle
 10
-1344.981167756953
 20
-551.9813615742166
 30
0.0
 40
10.00000012887491
100
AcDbArc
 50
279.9262237548828
 51
0.0
  0
ARC
  5
331
330
1F
100
AcDbEntity
  8
0-1_ピット
  6
Continuous
 62
     2
370
    13
100
AcDbCircle
 10
-1385.980956608304
 20
-730.7886026531864
 30
0.0
 40
20.00000025774982
100
AcDbArc
 50
0.0
 51
45.59065246582031
  0
ARC
  5
332
330
1F
100
AcDbEntity
  8
0-1_ピット
  6
Continuous
 62
     2
370
    13
100
AcDbCircle
 10
-1394.981134764976
 20
-665.9778776215139
 30
0.0
 40
20.00000025774982
100
AcDbArc
 50
179.9999847412109
 51
225.5906524658203
  0
ARC
  5
333
330
1F
100
AcDbEntity
  8
0-1_ピット
  6
Continuous
 62
     2
370
    13
100
AcDbCircle
 10
-1394.981134764976
 20
-582.7885102756528
 30
0.0
 40
20.00000025774982
100
AcDbArc
 50
134.4093322753906
 51
180.0
  0
ARC
  5
334
330
1F
100
AcDbEntity
  8
0-1_ピット
  6
Continuous
 62
     2
370
    13
100
AcDbCircle
 10
-1385.980956608304
 20
-517.9777852439802
 30
0.0
 40
20.00000025774982
100
AcDbArc
 50
314.4093322753906
 51
0.0000000000000127
  0
ARC
  5
335
330
1F
100
AcDbEntity
  8
0-1_ピット
  6
Continuous
 62
     2
370
    13
100
AcDbCircle
 10
-1371.980959907502
 20
-614.3831114686427
 30
0.0
 40
16.99999963915026
100
AcDbArc
 50
359.9999847412109
 51
180.0
  0
ARC
  5
336
330
1F
100
AcDbEntity
  8
0-1_ピット
  6
Continuous
 62
     2
370
    13
100
AcDbCircle
 10
-1371.980959907502
 20
-614.3831114686427
 30
0.0
 40
14.99999961337528
100
AcDbArc
 50
359.9999847412109
 51
180.0
  0
ARC
  5
337
330
1F
100
AcDbEntity
  8
0-1_ピット
  6
Continuous
 62
     2
370
    13
100
AcDbCircle
 10
-1371.980959907502
 20
-634.3832764285241
 30
0.0
 40
14.99999961337528
100
AcDbArc
 50
179.9987945556641
 51
0.0011901855469318
  0
ARC
  5
338
330
1F
100
AcDbEntity
  8
0-0_通り芯
  6
Continuous
 62
     3
370
    13
100
AcDbCircle
 10
-1296.981083627413
 20
-835.3829003199937
 30
0.0
 40
14.00000018042487
100
AcDbArc
 50
180.0
 51
270.0
  0
ARC
  5
339
330
1F
100
AcDbEntity
  8
0-1_ピット
  6
Continuous
 62
     2
370
    13
100
AcDbCircle
 10
-1371.980959907502
 20
-634.3832764285241
 30
0.0
 40
16.99999963915026
100
AcDbArc
 50
179.9988555908203
 51
0.0011138916015625
  0
ARC
  5
33A
330
1F
100
AcDbEntity
  8
0-1_ピット
  6
Continuous
 62
     2
370
    13
100
AcDbCircle
 10
-1305.981039088245
 20
-844.3830784766664
 30
0.0
 40
58.00000422709697
100
AcDbArc
 50
180.0
 51
269.9655609130859
  0
ARC
  5
33B
330
1F
100
AcDbEntity
  8
0-1_ピット
  6
Continuous
 62
     2
370
    13
100
AcDbCircle
 10
-1363.981131465779
 20
-844.4213821612104
 30
0.0
 40
2.000000025774982
100
AcDbArc
 50
180.0
 51
180.0380096435547
  0
ARC
  5
33C
330
1F
100
AcDbEntity
  8
0-1_ピット
  6
Continuous
 62
     2
370
    13
100
AcDbCircle
 10
-1305.999671306889
 20
-875.3832302397575
 30
0.0
 40
29.00000211354849
100
AcDbArc
 50
269.9655609130859
 51
269.9999847412109
  0
ARC
  5
33D
330
1F
100
AcDbEntity
  8
0-1_ピット
  6
Continuous
 62
     2
370
    13
100
AcDbCircle
 10
-1336.981042387443
 20
-844.3524949145885
 30
0.0
 40
29.00000211354849
100
AcDbArc
 50
179.9433288574219
 51
179.9999847412109
  0
ARC
  5
33E
330
1F
100
AcDbEntity
  8
0-1_ピット
  6
Continuous
 62
     2
370
    13
100
AcDbCircle
 10
-1305.981039088245
 20
-850.3833951996387
 30
0.0
 40
29.00000211354849
100
AcDbArc
 50
180.0
 51
270.0
  0
ARC
  5
33F
330
1F
100
AcDbEntity
  8
0-1_ピット
  6
Continuous
 62
     2
370
    13
100
AcDbCircle
 10
-1305.981039088245
 20
-844.3830784766664
 30
0.0
 40
59.99999845350111
100
AcDbArc
 50
180.0380096435547
 51
269.9655609130859
  0
ARC
  5
340
330
1F
100
AcDbEntity
  8
0-1_ピット
  6
Continuous
 62
     2
370
    13
100
AcDbCircle
 10
-1305.981039088245
 20
-844.3830784766664
 30
0.0
 40
10.00000012887491
100
AcDbArc
 50
180.0
 51
270.0
  0
ARC
  5
341
330
1F
100
AcDbEntity
  8
0-1_ピット
  6
JWW_CENTER2
 62
     2
370
    13
100
AcDbCircle
 10
-1157.333198743017
 20
-889.3830784766664
 30
0.0
 40
10.00000012887491
100
AcDbArc
 50
9.926239013671914
 51
90.00000000000004
  0
ARC
  5
342
330
1F
100
AcDbEntity
  8
0-1_ピット
  6
JWW_CENTER2
 62
     2
370
    13
100
AcDbCircle
 10
-1014.629110377307
 20
-889.3830784766664
 30
0.0
 40
10.00000012887491
100
AcDbArc
 50
90.0
 51
170.0737457275391
  0
ARC
  5
343
330
1F
100
AcDbEntity
  8
0-1_ピット
  6
JWW_CENTER2
 62
     2
370
    13
100
AcDbCircle
 10
-1014.629110377307
 20
-889.3830784766664
 30
0.0
 40
12.00000131452406
100
AcDbArc
 50
121.0812835693359
 51
170.0737457275391
  0
ARC
  5
344
330
1F
100
AcDbEntity
  8
0-1_ピット
  6
JWW_CENTER2
 62
     2
370
    13
100
AcDbCircle
 10
-1157.333198743017
 20
-889.3830784766664
 30
0.0
 40
12.00000131452406
100
AcDbArc
 50
9.926239013671914
 51
58.91868591308597
  0
CIRCLE
  5
345
330
1F
100
AcDbEntity
  8
0-0_通り芯
  6
Continuous
 62
     3
370
    13
100
AcDbCircle
 10
-1210.981369008009
 20
400.6167235714756
 30
0.0
 40
42.00000402089713
  0
CIRCLE
  5
346
330
1F
100
AcDbEntity
  8
0-0_通り芯
  6
Continuous
 62
     3
370
    13
100
AcDbCircle
 10
-1210.981369008009
 20
400.6167235714756
 30
0.0
 40
44.00000288679794
  0
CIRCLE
  5
347
330
1F
100
AcDbEntity
  8
0-0_通り芯
  6
Continuous
 62
     3
370
    13
100
AcDbCircle
 10
-1210.981369008009
 20
400.6167235714756
 30
0.0
 40
38.99999876280089
  0
CIRCLE
  5
348
330
1F
100
AcDbEntity
  8
0-0_通り芯
  6
Continuous
 62
     3
370
    13
100
AcDbCircle
 10
-60.98094011231588
 20
400.6167235714756
 30
0.0
 40
42.00000402089713
  0
CIRCLE
  5
349
330
1F
100
AcDbEntity
  8
0-0_通り芯
  6
Continuous
 62
     3
370
    13
100
AcDbCircle
 10
-60.98094011231588
 20
400.6167235714756
 30
0.0
 40
44.00000288679794
  0
CIRCLE
  5
34A
330
1F
100
AcDbEntity
  8
0-0_通り芯
  6
Continuous
 62
     3
370
    13
100
AcDbCircle
 10
-60.98094011231588
 20
400.6167235714756
 30
0.0
 40
38.99999876280089
  0
ARC
  5
34B
330
1F
100
AcDbEntity
  8
0-1_ピット
  6
Continuous
 62
     2
370
    13
100
AcDbCircle
 10
40.01919515478729
 20
-850.3833951996387
 30
0.0
 40
21.99999912365063
100
AcDbArc
 50
270.0
 51
0.0
  0
ARC
  5
34C
330
1F
100
AcDbEntity
  8
0-1_ピット
  6
Continuous
 62
     2
370
    13
100
AcDbCircle
 10
-1311.981133115378
 20
-850.3833951996387
 30
0.0
 40
21.99999912365063
100
AcDbArc
 50
180.0
 51
270.0
  0
ARC
  5
34D
330
1F
100
AcDbEntity
  8
0-0_通り芯
  6
Continuous
 62
     3
370
    13
100
AcDbCircle
 10
-1241.981075379419
 20
-780.3829663039465
 30
0.0
 40
12.00000131452406
100
AcDbArc
 50
180.0
 51
270.0
  0
ARC
  5
34E
330
1F
100
AcDbEntity
  8
0-0_通り芯
  6
Continuous
 62
     3
370
    13
100
AcDbCircle
 10
-29.98093681311801
 20
-780.3829663039465
 30
0.0
 40
12.00000131452406
100
AcDbArc
 50
270.0
 51
0.0
  0
ARC
  5
34F
330
1F
100
AcDbEntity
  8
0-0_通り芯
  6
Continuous
 62
     3
370
    13
100
AcDbCircle
 10
-29.98093681311801
 20
265.575153681273
 30
0.0
 40
12.00000131452406
100
AcDbArc
 50
0.0
 51
45.0
  0
ARC
  5
350
330
1F
100
AcDbEntity
  8
0-0_通り芯
  6
Continuous
 62
     3
370
    13
100
AcDbCircle
 10
-196.0226584664121
 20
431.6171722623542
 30
0.0
 40
12.00000131452406
100
AcDbArc
 50
45.00000000000005
 51
90.00000000000006
  0
ARC
  5
351
330
1F
100
AcDbEntity
  8
0-0_通り芯
  6
Continuous
 62
     3
370
    13
100
AcDbCircle
 10
-1075.939353726125
 20
431.6171722623542
 30
0.0
 40
12.00000131452406
100
AcDbArc
 50
90.0
 51
135.0
  0
ARC
  5
352
330
1F
100
AcDbEntity
  8
0-0_通り芯
  6
Continuous
 62
     3
370
    13
100
AcDbCircle
 10
-1241.981075379419
 20
265.575153681273
 30
0.0
 40
12.00000131452406
100
AcDbArc
 50
135.0
 51
180.0
  0
LINE
  5
353
330
1F
100
AcDbEntity
  8
0-4_寸法
  6
Continuous
 62
     7
370
    13
100
AcDbLine
 10
-1103.481237040103
 20
574.6075732468339
 30
0.0
 11
-1245.033703355295
 21
819.7834452247694
 31
0.0
  0
LINE
  5
354
330
1F
100
AcDbEntity
  8
0-4_寸法
  6
Continuous
 62
     7
370
    13
100
AcDbLine
 10
-1548.409772295329
 20
819.7834452247694
 30
0.0
 11
-1245.033703355295
 21
819.7834452247694
 31
0.0
  0
TEXT
  5
355
330
1F
100
AcDbEntity
  8
0-4_寸法
  6
Continuous
 62
     2
370
    13
100
AcDbText
 10
-1548.140417552402
 20
832.6788757040766
 30
0.0
 40
30.48
  1
８－１５×２５
 41
1.107142857142857
  7
ＭＳ ゴシック
100
AcDbText
  0
LINE
  5
356
330
1F
100
AcDbEntity
  8
0-4_寸法
  6
Continuous
 62
     7
370
    13
100
AcDbLine
 10
-1103.481237040103
 20
574.6075732468339
 30
0.0
 11
-1113.048312202423
 21
597.7045960508881
 31
0.0
  0
LINE
  5
357
330
1F
100
AcDbEntity
  8
0-4_寸法
  6
Continuous
 62
     7
370
    13
100
AcDbLine
 10
-1103.481237040103
 20
574.6075732468339
 30
0.0
 11
-1118.7002707711
 21
594.441359669976
 31
0.0
  0
LINE
  5
358
330
1F
100
AcDbEntity
  8
0-4_寸法
  6
Continuous
 62
     7
370
    13
100
AcDbLine
 10
-1085.981303024056
 20
679.869170887097
 30
0.0
 11
-185.9810060962684
 21
679.869170887097
 31
0.0
  0
LINE
  5
359
330
1F
100
AcDbEntity
  8
0-4_寸法
  6
Continuous
 62
     7
370
    13
100
AcDbLine
 10
-1085.981303024056
 20
679.869170887097
 30
0.0
 11
-1061.19518148971
 21
683.1323256925984
 31
0.0
  0
LINE
  5
35A
330
1F
100
AcDbEntity
  8
0-4_寸法
  6
Continuous
 62
     7
370
    13
100
AcDbLine
 10
-1085.981303024056
 20
679.869170887097
 30
0.0
 11
-1061.19518148971
 21
676.6060160815957
 31
0.0
  0
LINE
  5
35B
330
1F
100
AcDbEntity
  8
0-4_寸法
  6
Continuous
 62
     7
370
    13
100
AcDbLine
 10
-185.9810060962684
 20
679.869170887097
 30
0.0
 11
-210.7671276306137
 21
683.1323256925984
 31
0.0
  0
LINE
  5
35C
330
1F
100
AcDbEntity
  8
0-4_寸法
  6
Continuous
 62
     7
370
    13
100
AcDbLine
 10
-185.9810060962684
 20
679.869170887097
 30
0.0
 11
-210.7671276306137
 21
676.6060160815957
 31
0.0
  0
LINE
  5
35D
330
1F
100
AcDbEntity
  8
0-4_寸法
  6
Continuous
 62
     7
370
    13
100
AcDbLine
 10
-1085.981303024056
 20
682.8691708870972
 30
0.0
 11
-1085.981303024056
 21
604.0224852902256
 31
0.0
  0
LINE
  5
35E
330
1F
100
AcDbEntity
  8
0-4_寸法
  6
Continuous
 62
     7
370
    13
100
AcDbLine
 10
-185.9810060962684
 20
682.8691708870972
 30
0.0
 11
-185.9810060962684
 21
604.0224852902256
 31
0.0
  0
TEXT
  5
35F
330
1F
100
AcDbEntity
  8
0-4_寸法
  6
Continuous
 62
     2
370
   211
100
AcDbText
 10
-668.481154560162
 20
691.5091708870972
 30
0.0
 40
30.48
  1
450
 41
1.083333333333333
  7
ＭＳ ゴシック
100
AcDbText
  0
LINE
  5
360
330
1F
100
AcDbEntity
  8
0-4_寸法
  6
Continuous
 62
     7
370
    13
100
AcDbLine
 10
-1371.980959907502
 20
745.7972265381145
 30
0.0
 11
100.0190961788582
 21
745.7972265381145
 31
0.0
  0
LINE
  5
361
330
1F
100
AcDbEntity
  8
0-4_寸法
  6
Continuous
 62
     7
370
    13
100
AcDbLine
 10
-1371.980959907502
 20
745.7972265381145
 30
0.0
 11
-1347.194838373156
 21
749.0603813436157
 31
0.0
  0
LINE
  5
362
330
1F
100
AcDbEntity
  8
0-4_寸法
  6
Continuous
 62
     7
370
    13
100
AcDbLine
 10
-1371.980959907502
 20
745.7972265381145
 30
0.0
 11
-1347.194838373156
 21
742.534071732613
 31
0.0
  0
LINE
  5
363
330
1F
100
AcDbEntity
  8
0-4_寸法
  6
Continuous
 62
     7
370
    13
100
AcDbLine
 10
100.0190961788582
 20
745.7972265381145
 30
0.0
 11
75.23297464451296
 21
749.0603813436157
 31
0.0
  0
LINE
  5
364
330
1F
100
AcDbEntity
  8
0-4_寸法
  6
Continuous
 62
     7
370
    13
100
AcDbLine
 10
100.0190961788582
 20
745.7972265381145
 30
0.0
 11
75.23297464451296
 21
742.534071732613
 31
0.0
  0
LINE
  5
365
330
1F
100
AcDbEntity
  8
0-4_寸法
  6
Continuous
 62
     7
370
    13
100
AcDbLine
 10
-1371.980959907502
 20
748.7972265381145
 30
0.0
 11
-1371.980959907502
 21
328.5293212277256
 31
0.0
  0
LINE
  5
366
330
1F
100
AcDbEntity
  8
0-4_寸法
  6
Continuous
 62
     7
370
    13
100
AcDbLine
 10
100.0190961788582
 20
748.7972265381145
 30
0.0
 11
100.0190961788582
 21
328.5293212277256
 31
0.0
  0
TEXT
  5
367
330
1F
100
AcDbEntity
  8
0-4_寸法
  6
Continuous
 62
     2
370
   211
100
AcDbText
 10
-668.4809318643217
 20
757.4372265381147
 30
0.0
 40
30.48
  1
736
 41
1.083333333333333
  7
ＭＳ ゴシック
100
AcDbText
  0
LINE
  5
368
330
1F
100
AcDbEntity
  8
0-4_寸法
  6
Continuous
 62
     7
370
    13
100
AcDbLine
 10
-1490.233370931949
 20
-624.3831939485835
 30
0.0
 11
-1490.233370931949
 21
275.6171029792037
 31
0.0
  0
LINE
  5
369
330
1F
100
AcDbEntity
  8
0-4_寸法
  6
Continuous
 62
     7
370
    13
100
AcDbLine
 10
-1490.233370931949
 20
-624.3831939485835
 30
0.0
 11
-1493.496525737451
 21
-599.5970724142381
 31
0.0
  0
LINE
  5
36A
330
1F
100
AcDbEntity
  8
0-4_寸法
  6
Continuous
 62
     7
370
    13
100
AcDbLine
 10
-1490.233370931949
 20
-624.3831939485835
 30
0.0
 11
-1486.970216126448
 21
-599.5970724142381
 31
0.0
  0
LINE
  5
36B
330
1F
100
AcDbEntity
  8
0-4_寸法
  6
Continuous
 62
     7
370
    13
100
AcDbLine
 10
-1490.233370931949
 20
275.6171029792037
 30
0.0
 11
-1493.496525737451
 21
250.8309814448583
 31
0.0
  0
LINE
  5
36C
330
1F
100
AcDbEntity
  8
0-4_寸法
  6
Continuous
 62
     7
370
    13
100
AcDbLine
 10
-1490.233370931949
 20
275.6171029792037
 30
0.0
 11
-1486.970216126448
 21
250.8309814448583
 31
0.0
  0
LINE
  5
36D
330
1F
100
AcDbEntity
  8
0-4_寸法
  6
Continuous
 62
     7
370
    13
100
AcDbLine
 10
-1493.233370931949
 20
-624.3831939485835
 30
0.0
 11
-1414.386685335078
 21
-624.3831939485835
 31
0.0
  0
LINE
  5
36E
330
1F
100
AcDbEntity
  8
0-4_寸法
  6
Continuous
 62
     7
370
    13
100
AcDbLine
 10
-1493.233370931949
 20
275.6171029792037
 30
0.0
 11
-1414.386685335078
 21
275.6171029792037
 31
0.0
  0
TEXT
  5
36F
330
1F
100
AcDbEntity
  8
0-4_寸法
  6
Continuous
 62
     2
370
   211
100
AcDbText
 10
-1501.87337093195
 20
-206.8830454846901
 30
0.0
 40
30.48
  1
450
 50
90.0
 41
1.083333333333333
  7
ＭＳ ゴシック
100
AcDbText
  0
LINE
  5
370
330
1F
100
AcDbEntity
  8
0-4_寸法
  6
Continuous
 62
     7
370
    13
100
AcDbLine
 10
-1556.161426582967
 20
-910.3828508320296
 30
0.0
 11
-1556.161426582967
 21
561.6172052543302
 31
0.0
  0
LINE
  5
371
330
1F
100
AcDbEntity
  8
0-4_寸法
  6
Continuous
 62
     7
370
    13
100
AcDbLine
 10
-1556.161426582967
 20
-910.3828508320296
 30
0.0
 11
-1559.424581388468
 21
-885.5967292976843
 31
0.0
  0
LINE
  5
372
330
1F
100
AcDbEntity
  8
0-4_寸法
  6
Continuous
 62
     7
370
    13
100
AcDbLine
 10
-1556.161426582967
 20
-910.3828508320296
 30
0.0
 11
-1552.898271777465
 21
-885.5967292976843
 31
0.0
  0
LINE
  5
373
330
1F
100
AcDbEntity
  8
0-4_寸法
  6
Continuous
 62
     7
370
    13
100
AcDbLine
 10
-1556.161426582967
 20
561.6172052543302
 30
0.0
 11
-1559.424581388468
 21
536.8310837199854
 31
0.0
  0
LINE
  5
374
330
1F
100
AcDbEntity
  8
0-4_寸法
  6
Continuous
 62
     7
370
    13
100
AcDbLine
 10
-1556.161426582967
 20
561.6172052543302
 30
0.0
 11
-1552.898271777465
 21
536.8310837199854
 31
0.0
  0
LINE
  5
375
330
1F
100
AcDbEntity
  8
0-4_寸法
  6
Continuous
 62
     7
370
    13
100
AcDbLine
 10
-1559.161426582967
 20
-910.3828508320296
 30
0.0
 11
-1138.893521272578
 21
-910.3828508320296
 31
0.0
  0
LINE
  5
376
330
1F
100
AcDbEntity
  8
0-4_寸法
  6
Continuous
 62
     7
370
    13
100
AcDbLine
 10
-1559.161426582967
 20
561.6172052543302
 30
0.0
 11
-1138.893521272578
 21
561.6172052543302
 31
0.0
  0
TEXT
  5
377
330
1F
100
AcDbEntity
  8
0-4_寸法
  6
Continuous
 62
     2
370
   211
100
AcDbText
 10
-1567.801426582967
 20
-206.8828227888494
 30
0.0
 40
30.48
  1
736
 50
90.0
 41
1.083333333333333
  7
ＭＳ ゴシック
100
AcDbText
  0
LINE
  5
378
330
1F
100
AcDbEntity
  8
0-4_寸法
  6
Continuous
 62
     7
370
    13
100
AcDbLine
 10
-1258.981156209761
 20
163.0074108874194
 30
0.0
 11
-1082.980088425948
 21
163.0074108874194
 31
0.0
  0
LINE
  5
379
330
1F
100
AcDbEntity
  8
0-4_寸法
  6
Continuous
 62
     7
370
    13
100
AcDbLine
 10
-1258.981156209761
 20
163.0074108874194
 30
0.0
 11
-1234.195034675416
 21
166.2705656929208
 31
0.0
  0
LINE
  5
37A
330
1F
100
AcDbEntity
  8
0-4_寸法
  6
Continuous
 62
     7
370
    13
100
AcDbLine
 10
-1258.981156209761
 20
163.0074108874194
 30
0.0
 11
-1234.195034675416
 21
159.7442560819181
 31
0.0
  0
LINE
  5
37B
330
1F
100
AcDbEntity
  8
0-4_寸法
  6
Continuous
 62
     7
370
    13
100
AcDbLine
 10
-1082.980088425948
 20
163.0074108874194
 30
0.0
 11
-1107.766209960293
 21
166.2705656929208
 31
0.0
  0
LINE
  5
37C
330
1F
100
AcDbEntity
  8
0-4_寸法
  6
Continuous
 62
     7
370
    13
100
AcDbLine
 10
-1082.980088425948
 20
163.0074108874194
 30
0.0
 11
-1107.766209960293
 21
159.7442560819181
 31
0.0
  0
LINE
  5
37D
330
1F
100
AcDbEntity
  8
0-4_寸法
  6
Continuous
 62
     7
370
    13
100
AcDbLine
 10
-1082.980088425948
 20
160.0074108874193
 30
0.0
 11
-1082.980088425948
 21
428.6174757885365
 31
0.0
  0
TEXT
  5
37E
330
1F
100
AcDbEntity
  8
0-4_寸法
  6
Continuous
 62
     2
370
   211
100
AcDbText
 10
-1192.230622317854
 20
174.6474108874197
 30
0.0
 40
30.48
  1
88
 41
1.0625
  7
ＭＳ ゴシック
100
AcDbText
  0
LINE
  5
37F
330
1F
100
AcDbEntity
  8
0-4_寸法
  6
Continuous
 62
     7
370
    13
100
AcDbLine
 10
-976.8867228782981
 20
272.6172585312011
 30
0.0
 11
-976.8867228782981
 21
448.6174757885365
 31
0.0
  0
LINE
  5
380
330
1F
100
AcDbEntity
  8
0-4_寸法
  6
Continuous
 62
     7
370
    13
100
AcDbLine
 10
-976.8867228782981
 20
272.6172585312011
 30
0.0
 11
-980.1498776837993
 21
297.4033800655465
 31
0.0
  0
LINE
  5
381
330
1F
100
AcDbEntity
  8
0-4_寸法
  6
Continuous
 62
     7
370
    13
100
AcDbLine
 10
-976.8867228782981
 20
272.6172585312011
 30
0.0
 11
-973.6235680727966
 21
297.4033800655465
 31
0.0
  0
LINE
  5
382
330
1F
100
AcDbEntity
  8
0-4_寸法
  6
Continuous
 62
     7
370
    13
100
AcDbLine
 10
-976.8867228782981
 20
448.6174757885365
 30
0.0
 11
-980.1498776837993
 21
423.8313542541911
 31
0.0
  0
LINE
  5
383
330
1F
100
AcDbEntity
  8
0-4_寸法
  6
Continuous
 62
     7
370
    13
100
AcDbLine
 10
-976.8867228782981
 20
448.6174757885365
 30
0.0
 11
-973.6235680727966
 21
423.8313542541911
 31
0.0
  0
LINE
  5
384
330
1F
100
AcDbEntity
  8
0-4_寸法
  6
Continuous
 62
     7
370
    13
100
AcDbLine
 10
-973.8867228782981
 20
272.6172585312011
 30
0.0
 11
-1238.981156209761
 21
272.6172585312011
 31
0.0
  0
TEXT
  5
385
330
1F
100
AcDbEntity
  8
0-4_寸法
  6
Continuous
 62
     2
370
   211
100
AcDbText
 10
-988.526722878298
 20
339.3673671598688
 30
0.0
 40
30.48
  1
88
 50
90.0
 41
1.0625
  7
ＭＳ ゴシック
100
AcDbText
  0
LINE
  5
386
330
1F
100
AcDbEntity
  8
0-0_通り芯
  6
Continuous
 62
     3
370
    13
100
AcDbLine
 10
-1253.98111496979
 20
265.575153681273
 30
0.0
 11
-1253.98111496979
 21
175.9422635746924
 31
0.0
  0
LINE
  5
387
330
1F
100
AcDbEntity
  8
0-0_通り芯
  6
Continuous
 62
     3
370
    13
100
AcDbLine
 10
-1253.98111496979
 20
150.8481976117807
 30
0.0
 11
-1253.98111496979
 21
-780.3829663039465
 31
0.0
  0
LINE
  5
388
330
1F
100
AcDbEntity
  8
0-0_通り芯
  6
Continuous
 62
     3
370
    13
100
AcDbLine
 10
-1075.939353726125
 20
443.6172118527256
 30
0.0
 11
-988.7474078823295
 21
443.6172118527256
 31
0.0
  0
LINE
  5
389
330
1F
100
AcDbEntity
  8
0-0_通り芯
  6
Continuous
 62
     3
370
    13
100
AcDbLine
 10
-968.0269953210777
 20
443.6172118527256
 30
0.0
 11
-196.0226584664121
 21
443.6172118527256
 31
0.0
  0
LINE
  5
38A
330
1F
100
AcDbEntity
  8
0-0_通り芯
  6
Continuous
 62
     3
370
    13
100
AcDbLine
 10
1078.157010473812
 20
228.6088318907323
 30
0.0
 11
1058.156548586143
 21
303.2499451719823
 31
0.0
  0
LINE
  5
38B
330
1F
100
AcDbEntity
  8
0-0_通り芯
  6
Continuous
 62
     3
370
    13
100
AcDbLine
 10
1058.156548586143
 20
303.2499451719823
 30
0.0
 11
1058.156548586143
 21
420.1171590655636
 31
0.0
  0
LINE
  5
38C
330
1F
100
AcDbEntity
  8
0-0_通り芯
  6
Continuous
 62
     3
370
    13
100
AcDbLine
 10
1058.156548586143
 20
-652.0160361413622
 30
0.0
 11
1058.156548586143
 21
-768.8832500349434
 31
0.0
  0
LINE
  5
38D
330
1F
100
AcDbEntity
  8
0-0_通り芯
  6
Continuous
 62
     3
370
    13
100
AcDbLine
 10
1078.157010473812
 20
-577.3749228601122
 30
0.0
 11
1058.156548586143
 21
-652.0160361413622
 31
0.0
  0
LINE
  5
38E
330
1F
100
AcDbEntity
  8
0-0_通り芯
  6
Continuous
 62
     3
370
    13
100
AcDbLine
 10
1058.156548586143
 20
-793.8830850750614
 30
0.0
 11
1058.156548586143
 21
-805.8430394141664
 31
0.0
  0
LINE
  5
38F
330
1F
100
AcDbEntity
  8
0-1_ピット
  6
Continuous
 62
     2
370
    13
100
AcDbLine
 10
1118.156746538001
 20
-774.3829465087608
 30
0.0
 11
1074.156799325163
 21
-776.3830520830854
 31
0.0
  0
LINE
  5
390
330
1F
100
AcDbEntity
  8
0-0_通り芯
  6
Continuous
 62
     3
370
    13
100
AcDbLine
 10
898.1570104738119
 20
-849.38304548469
 30
0.0
 11
898.1570104738119
 21
500.616657587523
 31
0.0
  0
LINE
  5
391
330
1F
100
AcDbEntity
  8
0-0_通り芯
  6
Continuous
 62
     3
370
    13
100
AcDbLine
 10
1038.156977481836
 20
-84.38304548469006
 30
0.0
 11
1050.952783541802
 21
-85.66250731957183
 31
0.0
  0
LINE
  5
392
330
1F
100
AcDbEntity
  8
0-0_通り芯
  6
Continuous
 62
     3
370
    13
100
AcDbLine
 10
1050.952783541802
 20
-71.10354405943639
 30
0.0
 11
1038.156977481836
 21
-72.38300589431759
 31
0.0
  0
LINE
  5
393
330
1F
100
AcDbEntity
  8
0-0_通り芯
  6
Continuous
 62
     3
370
    13
100
AcDbLine
 10
898.1570104738119
 20
-849.38304548469
 30
0.0
 11
908.2976882609735
 21
-847.6929325201629
 31
0.0
  0
LINE
  5
394
330
1F
100
AcDbEntity
  8
0-0_通り芯
  6
Continuous
 62
     3
370
    13
100
AcDbLine
 10
910.3643056596225
 20
-844.2203620493012
 30
0.0
 11
911.44749822719
 21
-827.6972214770885
 31
0.0
  0
LINE
  5
395
330
1F
100
AcDbEntity
  8
0-0_通り芯
  6
Continuous
 62
     3
370
    13
100
AcDbLine
 10
911.1015773551462
 20
-845.7522125032708
 30
0.0
 11
928.1565155941662
 21
-816.3043992114635
 31
0.0
  0
LINE
  5
396
330
1F
100
AcDbEntity
  8
0-0_通り芯
  6
Continuous
 62
     3
370
    13
100
AcDbLine
 10
1058.156548586143
 20
126.8570239304287
 30
0.0
 11
1058.156548586143
 21
225.9759732019657
 31
0.0
  0
LINE
  5
397
330
1F
100
AcDbEntity
  8
0-0_通り芯
  6
Continuous
 62
     3
370
    13
100
AcDbLine
 10
1058.156548586143
 20
-93.62314129338898
 30
0.0
 11
1058.156548586143
 21
-255.1429496759906
 31
0.0
  0
LINE
  5
398
330
1F
100
AcDbEntity
  8
0-0_通り芯
  6
Continuous
 62
     3
370
    13
100
AcDbLine
 10
1058.156548586143
 20
-793.8830850750614
 30
0.0
 11
1060.156654160467
 21
-792.8833292156864
 31
0.0
  0
LINE
  5
399
330
1F
100
AcDbEntity
  8
0-0_通り芯
  6
Continuous
 62
     3
370
    13
100
AcDbLine
 10
1060.156654160467
 20
-769.8830058943184
 30
0.0
 11
1058.156548586143
 21
-768.8832500349434
 31
0.0
  0
LINE
  5
39A
330
1F
100
AcDbEntity
  8
0-0_通り芯
  6
Continuous
 62
     3
370
    13
100
AcDbLine
 10
1060.156654160467
 20
-769.8830058943184
 30
0.0
 11
1060.156654160467
 21
-792.8833292156864
 31
0.0
  0
LINE
  5
39B
330
1F
100
AcDbEntity
  8
0-0_通り芯
  6
Continuous
 62
     3
370
    13
100
AcDbLine
 10
1058.156548586143
 20
-285.6231808837609
 30
0.0
 11
1058.156548586143
 21
-445.1434775476122
 31
0.0
  0
LINE
  5
39C
330
1F
100
AcDbEntity
  8
0-0_通り芯
  6
Continuous
 62
     3
370
    13
100
AcDbLine
 10
1058.156548586143
 20
-574.7420641713452
 30
0.0
 11
1038.156977481836
 21
-649.382880524808
 31
0.0
  0
LINE
  5
39D
330
1F
100
AcDbEntity
  8
0-0_通り芯
  6
Continuous
 62
     3
370
    13
100
AcDbLine
 10
1050.952783541802
 20
-467.6624809259906
 30
0.0
 11
1038.156977481836
 21
-466.3830190911088
 31
0.0
  0
LINE
  5
39E
330
1F
100
AcDbEntity
  8
0-0_通り芯
  6
Continuous
 62
     3
370
    13
100
AcDbLine
 10
1038.156977481836
 20
-454.3829795007372
 30
0.0
 11
1050.952783541802
 21
-453.1035176658551
 31
0.0
  0
LINE
  5
39F
330
1F
100
AcDbEntity
  8
0-0_通り芯
  6
Continuous
 62
     3
370
    13
100
AcDbLine
 10
1058.156548586143
 20
-475.623114899808
 30
0.0
 11
1058.156548586143
 21
-574.7420641713452
 31
0.0
  0
LINE
  5
3A0
330
1F
100
AcDbEntity
  8
0-0_通り芯
  6
Continuous
 62
     3
370
    13
100
AcDbLine
 10
1050.952783541802
 20
-277.6625469099426
 30
0.0
 11
1038.156977481836
 21
-276.3827881472739
 31
0.0
  0
LINE
  5
3A1
330
1F
100
AcDbEntity
  8
0-0_通り芯
  6
Continuous
 62
     3
370
    13
100
AcDbLine
 10
1038.156977481836
 20
-264.3830454846901
 30
0.0
 11
1050.952783541802
 21
-263.1035836498083
 31
0.0
  0
LINE
  5
3A2
330
1F
100
AcDbEntity
  8
0-0_通り芯
  6
Continuous
 62
     3
370
    13
100
AcDbLine
 10
1038.156977481836
 20
105.6171854591449
 30
0.0
 11
1050.952783541802
 21
104.3374266964761
 31
0.0
  0
LINE
  5
3A3
330
1F
100
AcDbEntity
  8
0-0_通り芯
  6
Continuous
 62
     3
370
    13
100
AcDbLine
 10
1050.952783541802
 20
118.896389956611
 30
0.0
 11
1038.156977481836
 21
117.6169281217292
 31
0.0
  0
LINE
  5
3A4
330
1F
100
AcDbEntity
  8
0-0_通り芯
  6
Continuous
 62
     3
370
    13
100
AcDbLine
 10
1060.156654160467
 20
421.1172118527256
 30
0.0
 11
1060.156654160467
 21
444.1172382463068
 31
0.0
  0
LINE
  5
3A5
330
1F
100
AcDbEntity
  8
0-0_通り芯
  6
Continuous
 62
     3
370
    13
100
AcDbLine
 10
1060.156654160467
 20
421.1172118527256
 30
0.0
 11
1058.156548586143
 21
420.1171590655636
 31
0.0
  0
LINE
  5
3A6
330
1F
100
AcDbEntity
  8
0-0_通り芯
  6
Continuous
 62
     3
370
    13
100
AcDbLine
 10
1058.156548586143
 20
445.1166971778949
 30
0.0
 11
1060.156654160467
 21
444.1172382463068
 31
0.0
  0
LINE
  5
3A7
330
1F
100
AcDbEntity
  8
0-0_通り芯
  6
JWW_DASHED3
 62
     3
370
    13
100
AcDbLine
 10
910.3643056596225
 20
495.454271079922
 30
0.0
 11
911.44749822719
 21
478.9314274354959
 31
0.0
  0
LINE
  5
3A8
330
1F
100
AcDbEntity
  8
0-0_通り芯
  6
JWW_DASHED3
 62
     3
370
    13
100
AcDbLine
 10
922.9908628809061
 20
467.7241850368475
 30
0.0
 11
1052.372395292223
 21
463.0731081787391
 31
0.0
  0
LINE
  5
3A9
330
1F
100
AcDbEntity
  8
0-0_通り芯
  6
Continuous
 62
     3
370
    13
100
AcDbLine
 10
898.1570104738119
 20
500.616657587523
 30
0.0
 11
908.2976882609735
 21
498.9271384785704
 31
0.0
  0
LINE
  5
3AA
330
1F
100
AcDbEntity
  8
0-1_ピット
  6
Continuous
 62
     2
370
    13
100
AcDbLine
 10
1118.156746538001
 20
604.6173966077934
 30
0.0
 11
1095.698316428204
 21
602.0252170258677
 31
0.0
  0
LINE
  5
3AB
330
1F
100
AcDbEntity
  8
0-1_ピット
  6
Continuous
 62
     2
370
    13
100
AcDbLine
 10
1092.15685871072
 20
535.9308731702934
 30
0.0
 11
1092.15685871072
 21
598.0517293780636
 31
0.0
  0
LINE
  5
3AC
330
1F
100
AcDbEntity
  8
0-1_ピット
  6
Continuous
 62
     2
370
    13
100
AcDbLine
 10
1103.715366681582
 20
554.0125876973204
 30
0.0
 11
1118.156746538001
 21
555.6165916035704
 31
0.0
  0
LINE
  5
3AD
330
1F
100
AcDbEntity
  8
0-1_ピット
  6
Continuous
 62
     2
370
    13
100
AcDbLine
 10
1100.156984080231
 20
536.2082037235032
 30
0.0
 11
1100.156984080231
 21
550.0367246272194
 31
0.0
  0
LINE
  5
3AE
330
1F
100
AcDbEntity
  8
0-1_ピット
  6
Continuous
 62
     2
370
    13
100
AcDbLine
 10
898.1570104738119
 20
517.6169611137052
 30
0.0
 11
1088.572346464098
 21
524.2158842555975
 31
0.0
  0
LINE
  5
3AF
330
1F
100
AcDbEntity
  8
0-1_ピット
  6
Continuous
 62
     2
370
    13
100
AcDbLine
 10
1094.560489147798
 20
499.0073089811042
 30
0.0
 11
898.1570104738119
 21
505.6169215233339
 31
0.0
  0
LINE
  5
3B0
330
1F
100
AcDbEntity
  8
0-1_ピット
  6
Continuous
 62
     2
370
    13
100
AcDbLine
 10
1106.157003875416
 20
445.2538778155636
 30
0.0
 11
1106.157003875416
 21
487.0143956576246
 31
0.0
  0
LINE
  5
3B1
330
1F
100
AcDbEntity
  8
0-1_ピット
  6
Continuous
 62
     2
370
    13
100
AcDbLine
 10
1118.156746538001
 20
425.6174493949553
 30
0.0
 11
1074.156799325163
 21
427.6169611137053
 31
0.0
  0
LINE
  5
3B2
330
1F
100
AcDbEntity
  8
0-0_通り芯
  6
JWW_CENTER1
 62
     3
370
    13
100
AcDbLine
 10
1058.405967927359
 20
400.6167235714756
 30
0.0
 11
886.9830239873256
 21
400.6167235714756
 31
0.0
  0
LINE
  5
3B3
330
1F
100
AcDbEntity
  8
0-0_通り芯
  6
Continuous
 62
     3
370
    13
100
AcDbLine
 10
1058.156548586143
 20
380.6174493949553
 30
0.0
 11
1038.156977481836
 21
380.6174493949553
 31
0.0
  0
LINE
  5
3B4
330
1F
100
AcDbEntity
  8
0-0_通り芯
  6
JWW_CENTER1
 62
     3
370
    13
100
AcDbLine
 10
1169.477745271109
 20
-174.3830454846901
 30
0.0
 11
857.4918592385925
 21
-174.3830454846901
 31
0.0
  0
LINE
  5
3B5
330
1F
100
AcDbEntity
  8
0-1_ピット
  6
Continuous
 62
     2
370
    13
100
AcDbLine
 10
898.1570104738119
 20
-872.3830718782708
 30
0.0
 11
1088.572346464098
 21
-878.9816980923761
 31
0.0
  0
LINE
  5
3B6
330
1F
100
AcDbEntity
  8
0-1_ピット
  6
Continuous
 62
     2
370
    13
100
AcDbLine
 10
1100.156984080231
 20
-890.9740175602809
 30
0.0
 11
1100.156984080231
 21
-898.8031125243858
 31
0.0
  0
LINE
  5
3B7
330
1F
100
AcDbEntity
  8
0-1_ピット
  6
Continuous
 62
     2
370
    13
100
AcDbLine
 10
1106.157003875416
 20
-794.0196718571559
 30
0.0
 11
1106.157003875416
 21
-835.7804866270038
 31
0.0
  0
LINE
  5
3B8
330
1F
100
AcDbEntity
  8
0-1_ピット
  6
Continuous
 62
     2
370
    13
100
AcDbLine
 10
1118.156746538001
 20
-953.3834875771729
 30
0.0
 11
1095.698316428204
 21
-950.7916049230346
 31
0.0
  0
LINE
  5
3B9
330
1F
100
AcDbEntity
  8
0-1_ピット
  6
Continuous
 62
     2
370
    13
100
AcDbLine
 10
1103.715366681582
 20
-902.7786786667
 30
0.0
 11
1118.156746538001
 21
-904.3829795007372
 31
0.0
  0
LINE
  5
3BA
330
1F
100
AcDbEntity
  8
0-1_ピット
  6
Continuous
 62
     2
370
    13
100
AcDbLine
 10
1092.15685871072
 20
-890.6972808626458
 30
0.0
 11
1092.15685871072
 21
-946.8178203474434
 31
0.0
  0
LINE
  5
3BB
330
1F
100
AcDbEntity
  8
0-0_通り芯
  6
Continuous
 62
     3
370
    13
100
AcDbLine
 10
908.1569444898593
 20
439.6170007040772
 30
0.0
 11
909.1569972770212
 21
439.6170007040772
 31
0.0
  0
LINE
  5
3BC
330
1F
100
AcDbEntity
  8
0-0_通り芯
  6
Continuous
 62
     3
370
    13
100
AcDbLine
 10
909.1569972770212
 20
358.6168819329626
 30
0.0
 11
909.1569972770212
 21
442.6165652099891
 31
0.0
  0
LINE
  5
3BD
330
1F
100
AcDbEntity
  8
0-0_通り芯
  6
Continuous
 62
     3
370
    13
100
AcDbLine
 10
936.1566409636766
 20
416.1169479169152
 30
0.0
 11
917.0635903935756
 21
416.6169743104959
 31
0.0
  0
LINE
  5
3BE
330
1F
100
AcDbEntity
  8
0-0_通り芯
  6
Continuous
 62
     3
370
    13
100
AcDbLine
 10
929.1568653091155
 20
416.6169743104959
 30
0.0
 11
909.1569972770212
 21
416.6169743104959
 31
0.0
  0
LINE
  5
3BF
330
1F
100
AcDbEntity
  8
0-0_通り芯
  6
Continuous
 62
     3
370
    13
100
AcDbLine
 10
908.1569444898593
 20
361.6170402944491
 30
0.0
 11
909.1569972770212
 21
361.6170402944491
 31
0.0
  0
LINE
  5
3C0
330
1F
100
AcDbEntity
  8
0-0_通り芯
  6
Continuous
 62
     3
370
    13
100
AcDbLine
 10
936.1566409636766
 20
385.117093081611
 30
0.0
 11
917.0635903935756
 21
384.6164728324553
 31
0.0
  0
LINE
  5
3C1
330
1F
100
AcDbEntity
  8
0-0_通り芯
  6
Continuous
 62
     3
370
    13
100
AcDbLine
 10
929.1568653091155
 20
384.6164728324553
 30
0.0
 11
909.1569972770212
 21
384.6164728324553
 31
0.0
  0
LINE
  5
3C2
330
1F
100
AcDbEntity
  8
0-0_通り芯
  6
Continuous
 62
     3
370
    13
100
AcDbLine
 10
936.1566409636766
 20
385.117093081611
 30
0.0
 11
936.1566409636766
 21
416.1169479169152
 31
0.0
  0
LINE
  5
3C3
330
1F
100
AcDbEntity
  8
0-0_通り芯
  6
Continuous
 62
     3
370
    13
100
AcDbLine
 10
902.156627766886
 20
433.6172778366787
 30
0.0
 11
902.156627766886
 21
367.6167631618475
 31
0.0
  0
LINE
  5
3C4
330
1F
100
AcDbEntity
  8
0-1_ピット
  6
JWW_CENTER1
 62
     2
370
    13
100
AcDbLine
 10
1057.224195334454
 20
561.6169083265434
 30
0.0
 11
1155.498681979302
 21
561.6169083265434
 31
0.0
  0
LINE
  5
3C5
330
1F
100
AcDbEntity
  8
0-1_ピット
  6
JWW_DASHED3
 62
     2
370
    13
100
AcDbLine
 10
1118.156746538001
 20
576.6165124228271
 30
0.0
 11
1092.15685871072
 21
578.6172118527256
 31
0.0
  0
LINE
  5
3C6
330
1F
100
AcDbEntity
  8
0-1_ピット
  6
JWW_DASHED3
 62
     2
370
    13
100
AcDbLine
 10
1118.156746538001
 20
546.6173042302594
 30
0.0
 11
1092.15685871072
 21
544.617198655935
 31
0.0
  0
LINE
  5
3C7
330
1F
100
AcDbEntity
  8
0-1_ピット
  6
JWW_CENTER1
 62
     2
370
    13
100
AcDbLine
 10
1057.224195334454
 20
-910.3829992959229
 30
0.0
 11
1155.498681979302
 21
-910.3829992959229
 31
0.0
  0
LINE
  5
3C8
330
1F
100
AcDbEntity
  8
0-1_ピット
  6
JWW_DASHED3
 62
     2
370
    13
100
AcDbLine
 10
1118.156746538001
 20
-925.3829003199937
 30
0.0
 11
1092.15685871072
 21
-927.3830058943184
 31
0.0
  0
LINE
  5
3C9
330
1F
100
AcDbEntity
  8
0-1_ピット
  6
JWW_DASHED3
 62
     2
370
    13
100
AcDbLine
 10
1118.156746538001
 20
-895.3833951996387
 30
0.0
 11
1092.15685871072
 21
-893.3835865531021
 31
0.0
  0
LINE
  5
3CA
330
1F
100
AcDbEntity
  8
0-1_ピット
  6
Continuous
 62
     2
370
    13
100
AcDbLine
 10
1074.156799325163
 20
437.5747313839756
 30
0.0
 11
1100.540614781244
 21
439.2660320596511
 31
0.0
  0
LINE
  5
3CB
330
1F
100
AcDbEntity
  8
0-1_ピット
  6
Continuous
 62
     2
370
    13
100
AcDbLine
 10
1074.156799325163
 20
-786.3411192811427
 30
0.0
 11
1100.540614781244
 21
-788.0321230290309
 31
0.0
  0
LINE
  5
3CC
330
1F
100
AcDbEntity
  8
0-1_ピット
  6
JWW_DASHED3
 62
     2
370
    13
100
AcDbLine
 10
1091.151758151177
 20
-773.3739858879841
 30
0.0
 11
1106.157003875416
 21
-798.3830256895042
 31
0.0
  0
LINE
  5
3CD
330
1F
100
AcDbEntity
  8
0-1_ピット
  6
JWW_DASHED3
 62
     2
370
    13
100
AcDbLine
 10
934.1571292449266
 20
498.6040810461381
 30
0.0
 11
934.1571292449266
 21
203.6176077564417
 31
0.0
  0
LINE
  5
3CE
330
1F
100
AcDbEntity
  8
0-1_ピット
  6
Continuous
 62
     2
370
    13
100
AcDbLine
 10
1063.055857074319
 20
466.0673279844823
 30
0.0
 11
1098.425895081076
 21
464.8766475579626
 31
0.0
  0
LINE
  5
3CF
330
1F
100
AcDbEntity
  8
0-1_ピット
  6
Continuous
 62
     2
370
    13
100
AcDbLine
 10
1060.156654160467
 20
469.0657047792459
 30
0.0
 11
1060.156654160467
 21
496.2975459954626
 31
0.0
  0
LINE
  5
3D0
330
1F
100
AcDbEntity
  8
0-1_ピット
  6
Continuous
 62
     2
370
    13
100
AcDbLine
 10
1063.055857074319
 20
-814.8334189538622
 30
0.0
 11
1098.425895081076
 21
-813.6427385273416
 31
0.0
  0
LINE
  5
3D1
330
1F
100
AcDbEntity
  8
0-1_ピット
  6
Continuous
 62
     2
370
    13
100
AcDbLine
 10
1060.156654160467
 20
-817.8314988208385
 30
0.0
 11
1060.156654160467
 21
-845.0636369648416
 31
0.0
  0
LINE
  5
3D2
330
1F
100
AcDbEntity
  8
0-0_通り芯
  6
Continuous
 62
     3
370
    13
100
AcDbLine
 10
1060.156654160467
 20
456.4510246694491
 30
0.0
 11
1060.156654160467
 21
481.3460442006991
 31
0.0
  0
LINE
  5
3D3
330
1F
100
AcDbEntity
  8
0-0_通り芯
  6
Continuous
 62
     3
370
    13
100
AcDbLine
 10
1060.156654160467
 20
456.4510246694491
 30
0.0
 11
1058.156548586143
 21
455.1172250495162
 31
0.0
  0
LINE
  5
3D4
330
1F
100
AcDbEntity
  8
0-0_通り芯
  6
Continuous
 62
     3
370
    13
100
AcDbLine
 10
1060.156654160467
 20
481.3460442006991
 30
0.0
 11
919.66527166469
 21
489.3862548214756
 31
0.0
  0
LINE
  5
3D5
330
1F
100
AcDbEntity
  8
0-0_通り芯
  6
JWW_DASHED3
 62
     3
370
    13
100
AcDbLine
 10
898.1570104738119
 20
448.6038171103272
 30
0.0
 11
1026.587780110636
 21
443.9871838755298
 31
0.0
  0
LINE
  5
3D6
330
1F
100
AcDbEntity
  8
0-0_通り芯
  6
Continuous
 62
     3
370
    13
100
AcDbLine
 10
911.1015773551462
 20
496.9864184616787
 30
0.0
 11
913.1993721714467
 21
493.3638994583001
 31
0.0
  0
LINE
  5
3D7
330
1F
100
AcDbEntity
  8
0-0_通り芯
  6
JWW_DASHED3
 62
     3
370
    13
100
AcDbLine
 10
913.1993721714467
 20
493.3638994583001
 30
0.0
 11
928.1565155941662
 21
467.5383082420839
 31
0.0
  0
LINE
  5
3D8
330
1F
100
AcDbEntity
  8
0-0_通り芯
  6
Continuous
 62
     3
370
    13
100
AcDbLine
 10
1058.156548586143
 20
225.9759732019657
 30
0.0
 11
1038.156680554048
 21
300.6179772665772
 31
0.0
  0
LINE
  5
3D9
330
1F
100
AcDbEntity
  8
0-0_通り芯
  6
Continuous
 62
     3
370
    13
100
AcDbLine
 10
909.1569972770212
 20
442.6165652099891
 30
0.0
 11
898.1570104738119
 21
444.6172646398881
 31
0.0
  0
LINE
  5
3DA
330
1F
100
AcDbEntity
  8
0-0_通り芯
  6
Continuous
 62
     3
370
    13
100
AcDbLine
 10
909.1569972770212
 20
358.6168819329626
 30
0.0
 11
898.1570104738119
 21
356.6173702142126
 31
0.0
  0
LINE
  5
3DB
330
1F
100
AcDbEntity
  8
0-0_通り芯
  6
Continuous
 62
     3
370
    13
100
AcDbLine
 10
929.1568653091155
 20
447.6168291458001
 30
0.0
 11
929.1568653091155
 21
416.3004492893813
 31
0.0
  0
LINE
  5
3DC
330
1F
100
AcDbEntity
  8
0-0_通り芯
  6
Continuous
 62
     3
370
    13
100
AcDbLine
 10
929.1568653091155
 20
384.9335917091449
 30
0.0
 11
929.1568653091155
 21
364.0191860925907
 31
0.0
  0
LINE
  5
3DD
330
1F
100
AcDbEntity
  8
0-0_通り芯
  6
Continuous
 62
     3
370
    13
100
AcDbLine
 10
1026.585107760552
 20
339.4614765275568
 30
0.0
 11
898.1570104738119
 21
344.0484169836381
 31
0.0
  0
LINE
  5
3DE
330
1F
100
AcDbEntity
  8
0-0_通り芯
  6
Continuous
 62
     3
370
    13
100
AcDbLine
 10
1035.156522192562
 20
361.0190277311042
 30
0.0
 11
932.1570236706025
 21
361.0190277311042
 31
0.0
  0
LINE
  5
3DF
330
1F
100
AcDbEntity
  8
0-0_通り芯
  6
Continuous
 62
     3
370
    13
100
AcDbLine
 10
1035.156522192562
 20
450.6169875072865
 30
0.0
 11
932.1570236706025
 21
450.6169875072865
 31
0.0
  0
LINE
  5
3E0
330
1F
100
AcDbEntity
  8
0-0_通り芯
  6
Continuous
 62
     3
370
    13
100
AcDbLine
 10
1038.156680554048
 20
447.6168291458001
 30
0.0
 11
1038.156680554048
 21
364.0191860925907
 31
0.0
  0
LINE
  5
3E1
330
1F
100
AcDbEntity
  8
0-0_通り芯
  6
Continuous
 62
     3
370
    13
100
AcDbLine
 10
1059.156898301092
 20
420.6171854591449
 30
0.0
 11
1038.156977481836
 21
420.6171854591449
 31
0.0
  0
LINE
  5
3E2
330
1F
100
AcDbEntity
  8
0-0_通り芯
  6
Continuous
 62
     3
370
    13
100
AcDbLine
 10
1058.156548586143
 20
445.1166971778949
 30
0.0
 11
1058.156548586143
 21
455.1172250495162
 31
0.0
  0
LINE
  5
3E3
330
1F
100
AcDbEntity
  8
0-0_通り芯
  6
JWW_DASHED3
 62
     3
370
    13
100
AcDbLine
 10
1058.156548586143
 20
457.0769484447865
 30
0.0
 11
1058.156548586143
 21
455.1172250495162
 31
0.0
  0
LINE
  5
3E4
330
1F
100
AcDbEntity
  8
0-0_通り芯
  6
Continuous
 62
     3
370
    13
100
AcDbLine
 10
1060.156654160467
 20
-805.2168187110414
 30
0.0
 11
1060.156654160467
 21
-830.1121351700783
 31
0.0
  0
LINE
  5
3E5
330
1F
100
AcDbEntity
  8
0-0_通り芯
  6
Continuous
 62
     3
370
    13
100
AcDbLine
 10
1060.156654160467
 20
-805.2168187110414
 30
0.0
 11
1058.156548586143
 21
-803.8830190911091
 31
0.0
  0
LINE
  5
3E6
330
1F
100
AcDbEntity
  8
0-0_通り芯
  6
Continuous
 62
     3
370
    13
100
AcDbLine
 10
1060.156654160467
 20
-830.1121351700783
 30
0.0
 11
919.66527166469
 21
-838.1520488630684
 31
0.0
  0
LINE
  5
3E7
330
1F
100
AcDbEntity
  8
0-0_通り芯
  6
Continuous
 62
     3
370
    13
100
AcDbLine
 10
898.1570104738119
 20
-797.3746589243015
 30
0.0
 11
1026.587780110636
 21
-792.7577287617166
 31
0.0
  0
LINE
  5
3E8
330
1F
100
AcDbEntity
  8
0-0_通り芯
  6
Continuous
 62
     3
370
    13
100
AcDbLine
 10
922.9908628809061
 20
-816.4902760062271
 30
0.0
 11
1052.372395292223
 21
-811.839199148119
 31
0.0
  0
LINE
  5
3E9
330
1F
100
AcDbEntity
  8
0-0_通り芯
  6
Continuous
 62
     3
370
    13
100
AcDbLine
 10
1060.156654160467
 20
-811.5594931726122
 30
0.0
 11
1088.588083636819
 21
-810.5371708014127
 31
0.0
  0
LINE
  5
3EA
330
1F
100
AcDbEntity
  8
0-0_通り芯
  6
JWW_DASHED3
 62
     3
370
    13
100
AcDbLine
 10
1086.069245218322
 20
-779.4871351700783
 30
0.0
 11
1096.642249863592
 21
-790.060139815349
 31
0.0
  0
LINE
  5
3EB
330
1F
100
AcDbEntity
  8
0-0_通り芯
  6
Continuous
 62
     3
370
    13
100
AcDbLine
 10
1066.521598206076
 20
-770.7467688271729
 30
0.0
 11
1060.156654160467
 21
-770.3922370493015
 31
0.0
  0
LINE
  5
3EC
330
1F
100
AcDbEntity
  8
0-1_ピット
  6
JWW_DASHED3
 62
     2
370
    13
100
AcDbLine
 10
1087.245970038845
 20
-762.6338108985414
 30
0.0
 11
1082.872520661734
 21
-735.0294737733302
 31
0.0
  0
LINE
  5
3ED
330
1F
100
AcDbEntity
  8
0-1_ピット
  6
JWW_DASHED3
 62
     2
370
    13
100
AcDbLine
 10
1072.100277471278
 20
-667.037909821683
 30
0.0
 11
934.1571292449266
 21
203.6176077564417
 31
0.0
  0
ARC
  5
3EE
330
1F
100
AcDbEntity
  8
0-0_通り芯
  6
JWW_DASHED3
 62
     3
370
    13
100
AcDbCircle
 10
1052.156825718744
 20
457.0769484447865
 30
0.0
 40
6.000000657262029
100
AcDbArc
 50
0.0
 51
87.94122314453125
  0
ARC
  5
3EF
330
1F
100
AcDbEntity
  8
0-0_通り芯
  6
Continuous
 62
     3
370
    13
100
AcDbCircle
 10
1052.156825718744
 20
-805.8430394141664
 30
0.0
 40
6.000000657262029
100
AcDbArc
 50
272.0587615966797
 51
0.0000000000000127
  0
ARC
  5
3F0
330
1F
100
AcDbEntity
  8
0-1_ピット
  6
Continuous
 62
     2
370
    13
100
AcDbCircle
 10
1056.157036867393
 20
496.2975459954626
 30
0.0
 40
4.000000051549963
100
AcDbArc
 50
0.0
 51
88.07249450683594
  0
ARC
  5
3F1
330
1F
100
AcDbEntity
  8
0-1_ピット
  6
Continuous
 62
     2
370
    13
100
AcDbCircle
 10
1094.156667357257
 20
-835.7804866270038
 30
0.0
 40
12.00000131452406
100
AcDbArc
 50
271.927490234375
 51
0.0000000000000382
  0
ARC
  5
3F2
330
1F
100
AcDbEntity
  8
0-1_ピット
  6
Continuous
 62
     2
370
    13
100
AcDbCircle
 10
1100.156984080231
 20
-794.0196718571559
 30
0.0
 40
6.000000657262029
100
AcDbArc
 50
0.0
 51
86.4236602783203
  0
ARC
  5
3F3
330
1F
100
AcDbEntity
  8
0-0_通り芯
  6
Continuous
 62
     3
370
    13
100
AcDbCircle
 10
923.4220020278655
 20
-828.4825954741325
 30
0.0
 40
12.00000131452406
100
AcDbArc
 50
92.05876159667969
 51
176.2486572265625
  0
ARC
  5
3F4
330
1F
100
AcDbEntity
  8
0-0_通り芯
  6
Continuous
 62
     3
370
    13
100
AcDbCircle
 10
1026.156640963677
 20
-780.7654092938114
 30
0.0
 40
12.00000131452406
100
AcDbArc
 50
272.0587615966797
 51
0.0000000000000127
  0
ARC
  5
3F5
330
1F
100
AcDbEntity
  8
0-0_通り芯
  6
Continuous
 62
     3
370
    13
100
AcDbCircle
 10
907.6402901401967
 20
-843.7476530121387
 30
0.0
 40
4.000000051549963
100
AcDbArc
 50
279.4623107910156
 51
329.9214324951172
  0
ARC
  5
3F6
330
1F
100
AcDbEntity
  8
0-0_通り芯
  6
Continuous
 62
     3
370
    13
100
AcDbCircle
 10
906.3727054168016
 20
-843.9584717410241
 30
0.0
 40
4.000000051549963
100
AcDbArc
 50
279.4623107910156
 51
356.2486572265625
  0
ARC
  5
3F7
330
1F
100
AcDbEntity
  8
0-0_通り芯
  6
Continuous
 62
     3
370
    13
100
AcDbCircle
 10
1050.157017072207
 20
96.37738657823235
 30
0.0
 40
8.000000103099927
100
AcDbArc
 50
0.0
 51
84.28939819335939
  0
ARC
  5
3F8
330
1F
100
AcDbEntity
  8
0-0_通り芯
  6
Continuous
 62
     3
370
    13
100
AcDbCircle
 10
1050.157017072207
 20
-475.623114899808
 30
0.0
 40
8.000000103099927
100
AcDbArc
 50
0.0
 51
84.28939819335939
  0
ARC
  5
3F9
330
1F
100
AcDbEntity
  8
0-0_通り芯
  6
Continuous
 62
     3
370
    13
100
AcDbCircle
 10
1050.157017072207
 20
-285.6231808837609
 30
0.0
 40
8.000000103099927
100
AcDbArc
 50
0.0
 51
84.28939819335939
  0
ARC
  5
3FA
330
1F
100
AcDbEntity
  8
0-0_通り芯
  6
Continuous
 62
     3
370
    13
100
AcDbCircle
 10
1050.157017072207
 20
-255.1429496759906
 30
0.0
 40
8.000000103099927
100
AcDbArc
 50
275.7105865478516
 51
0.0
  0
ARC
  5
3FB
330
1F
100
AcDbEntity
  8
0-0_通り芯
  6
Continuous
 62
     3
370
    13
100
AcDbCircle
 10
1050.157017072207
 20
-445.1434775476122
 30
0.0
 40
8.000000103099927
100
AcDbArc
 50
275.7105865478516
 51
0.0
  0
ARC
  5
3FC
330
1F
100
AcDbEntity
  8
0-0_通り芯
  6
Continuous
 62
     3
370
    13
100
AcDbCircle
 10
1050.157017072207
 20
-93.62314129338898
 30
0.0
 40
8.000000103099927
100
AcDbArc
 50
0.0
 51
84.28939819335939
  0
ARC
  5
3FD
330
1F
100
AcDbEntity
  8
0-0_通り芯
  6
Continuous
 62
     3
370
    13
100
AcDbCircle
 10
1050.157017072207
 20
-63.14291008561867
 30
0.0
 40
8.000000103099927
100
AcDbArc
 50
275.7105865478516
 51
0.0
  0
ARC
  5
3FE
330
1F
100
AcDbEntity
  8
0-0_通り芯
  6
Continuous
 62
     3
370
    13
100
AcDbCircle
 10
1050.157017072207
 20
126.8570239304287
 30
0.0
 40
8.000000103099927
100
AcDbArc
 50
275.7105865478516
 51
0.0
  0
ARC
  5
3FF
330
1F
100
AcDbEntity
  8
0-0_通り芯
  6
JWW_DASHED3
 62
     3
370
    13
100
AcDbCircle
 10
906.3727054168016
 20
495.1923807716449
 30
0.0
 40
4.000000051549963
100
AcDbArc
 50
3.751327514648455
 51
80.53767395019533
  0
ARC
  5
400
330
1F
100
AcDbEntity
  8
0-0_通り芯
  6
Continuous
 62
     3
370
    13
100
AcDbCircle
 10
907.6402901401967
 20
494.9815620427594
 30
0.0
 40
4.000000051549963
100
AcDbArc
 50
30.07855224609375
 51
80.53767395019531
  0
ARC
  5
401
330
1F
100
AcDbEntity
  8
0-0_通り芯
  6
JWW_DASHED3
 62
     3
370
    13
100
AcDbCircle
 10
923.4220020278655
 20
479.7159106491787
 30
0.0
 40
12.00000131452406
100
AcDbArc
 50
183.7513122558594
 51
267.9412231445312
  0
ARC
  5
402
330
1F
100
AcDbEntity
  8
0-1_ピット
  6
Continuous
 62
     2
370
    13
100
AcDbCircle
 10
1100.156984080231
 20
445.2538778155636
 30
0.0
 40
6.000000657262029
100
AcDbArc
 50
273.5763244628906
 51
0.0000000000000254
  0
ARC
  5
403
330
1F
100
AcDbEntity
  8
0-1_ピット
  6
Continuous
 62
     2
370
    13
100
AcDbCircle
 10
1088.156944489859
 20
536.2082037235032
 30
0.0
 40
12.00000131452406
100
AcDbArc
 50
271.9846954345703
 51
0.0000000000000254
  0
ARC
  5
404
330
1F
100
AcDbEntity
  8
0-1_ピット
  6
Continuous
 62
     2
370
    13
100
AcDbCircle
 10
1080.156522192562
 20
535.9308731702934
 30
0.0
 40
12.00000131452406
100
AcDbArc
 50
271.9846954345703
 51
0.0000000000000254
  0
ARC
  5
405
330
1F
100
AcDbEntity
  8
0-1_ピット
  6
Continuous
 62
     2
370
    13
100
AcDbCircle
 10
1104.156898301092
 20
550.0367246272194
 30
0.0
 40
4.000000051549963
100
AcDbArc
 50
96.34017944335938
 51
179.999984741211
  0
ARC
  5
406
330
1F
100
AcDbEntity
  8
0-1_ピット
  6
Continuous
 62
     2
370
    13
100
AcDbCircle
 10
1096.156772931582
 20
598.0517293780636
 30
0.0
 40
4.000000051549963
100
AcDbArc
 50
96.58193969726562
 51
179.999984741211
  0
ARC
  5
407
330
1F
100
AcDbEntity
  8
0-1_ピット
  6
Continuous
 62
     2
370
    13
100
AcDbCircle
 10
1094.156667357257
 20
487.0143956576246
 30
0.0
 40
12.00000131452406
100
AcDbArc
 50
0.0
 51
88.07249450683594
  0
ARC
  5
408
330
1F
100
AcDbEntity
  8
0-1_ピット
  6
Continuous
 62
     2
370
    13
100
AcDbCircle
 10
1098.156878505906
 20
456.8821638164084
 30
0.0
 40
8.000000103099927
100
AcDbArc
 50
0.0
 51
88.07249450683594
  0
ARC
  5
409
330
1F
100
AcDbEntity
  8
0-1_ピット
  6
Continuous
 62
     2
370
    13
100
AcDbCircle
 10
1080.156522192562
 20
-890.6972808626458
 30
0.0
 40
12.00000131452406
100
AcDbArc
 50
0.0
 51
88.01528930664062
  0
ARC
  5
40A
330
1F
100
AcDbEntity
  8
0-1_ピット
  6
Continuous
 62
     2
370
    13
100
AcDbCircle
 10
1088.156944489859
 20
-890.9740175602809
 30
0.0
 40
12.00000131452406
100
AcDbArc
 50
0.0
 51
88.01528930664062
  0
ARC
  5
40B
330
1F
100
AcDbEntity
  8
0-1_ピット
  6
Continuous
 62
     2
370
    13
100
AcDbCircle
 10
1104.156898301092
 20
-898.8031125243858
 30
0.0
 40
4.000000051549963
100
AcDbArc
 50
180.0000152587891
 51
263.6598205566407
  0
ARC
  5
40C
330
1F
100
AcDbEntity
  8
0-1_ピット
  6
Continuous
 62
     2
370
    13
100
AcDbCircle
 10
1096.156772931582
 20
-946.8178203474434
 30
0.0
 40
4.000000051549963
100
AcDbArc
 50
180.0
 51
263.4180603027344
  0
ARC
  5
40D
330
1F
100
AcDbEntity
  8
0-0_通り芯
  6
Continuous
 62
     3
370
    13
100
AcDbCircle
 10
908.1569444898593
 20
433.6172778366787
 30
0.0
 40
6.000000657262029
100
AcDbArc
 50
90.0
 51
180.0
  0
ARC
  5
40E
330
1F
100
AcDbEntity
  8
0-0_通り芯
  6
Continuous
 62
     3
370
    13
100
AcDbCircle
 10
908.1569444898593
 20
367.6167631618475
 30
0.0
 40
6.000000657262029
100
AcDbArc
 50
180.0
 51
270.0
  0
ARC
  5
40F
330
1F
100
AcDbEntity
  8
0-1_ピット
  6
JWW_DASHED3
 62
     2
370
    13
100
AcDbCircle
 10
1116.876393919757
 20
-757.9393825835075
 30
0.0
 40
29.99999922675056
100
AcDbArc
 50
189.0027160644531
 51
210.9635620117188
  0
ARC
  5
410
330
1F
100
AcDbEntity
  8
0-1_ピット
  6
JWW_DASHED3
 62
     2
370
    13
100
AcDbCircle
 10
928.1568125219537
 20
498.6040810461381
 30
0.0
 40
6.000000657262029
100
AcDbArc
 50
0.0
 51
88.07228088378908
  0
ARC
  5
411
330
1F
100
AcDbEntity
  8
0-1_ピット
  6
Continuous
 62
     2
370
    13
100
AcDbCircle
 10
1063.156812521954
 20
469.0657047792459
 30
0.0
 40
3.000000328631014
100
AcDbArc
 50
180.0
 51
268.0715789794922
  0
ARC
  5
412
330
1F
100
AcDbEntity
  8
0-1_ピット
  6
Continuous
 62
     2
370
    13
100
AcDbCircle
 10
1056.157036867393
 20
-845.0636369648416
 30
0.0
 40
4.000000051549963
100
AcDbArc
 50
271.9275054931641
 51
0.0
  0
ARC
  5
413
330
1F
100
AcDbEntity
  8
0-1_ピット
  6
Continuous
 62
     2
370
    13
100
AcDbCircle
 10
1098.156878505906
 20
-805.6479578580011
 30
0.0
 40
8.000000103099927
100
AcDbArc
 50
271.9275054931641
 51
0.0
  0
ARC
  5
414
330
1F
100
AcDbEntity
  8
0-1_ピット
  6
Continuous
 62
     2
370
    13
100
AcDbCircle
 10
1063.156812521954
 20
-817.8314988208385
 30
0.0
 40
3.000000328631014
100
AcDbArc
 50
91.92842102050781
 51
180.0
  0
ARC
  5
415
330
1F
100
AcDbEntity
  8
0-0_通り芯
  6
Continuous
 62
     3
370
    13
100
AcDbCircle
 10
920.1222435291323
 20
497.3730184405636
 30
0.0
 40
8.000000103099927
100
AcDbArc
 50
210.0780334472656
 51
266.7247924804688
  0
ARC
  5
416
330
1F
100
AcDbEntity
  8
0-0_通り芯
  6
JWW_DASHED3
 62
     3
370
    13
100
AcDbCircle
 10
1026.156640963677
 20
431.9948644076246
 30
0.0
 40
12.00000131452406
100
AcDbArc
 50
0.0
 51
87.9413299560547
  0
ARC
  5
417
330
1F
100
AcDbEntity
  8
0-0_通り芯
  6
Continuous
 62
     3
370
    13
100
AcDbCircle
 10
932.1570236706025
 20
364.0191860925907
 30
0.0
 40
3.000000328631014
100
AcDbArc
 50
180.0
 51
270.0
  0
ARC
  5
418
330
1F
100
AcDbEntity
  8
0-0_通り芯
  6
Continuous
 62
     3
370
    13
100
AcDbCircle
 10
932.1570236706025
 20
447.6168291458001
 30
0.0
 40
3.000000328631014
100
AcDbArc
 50
90.0
 51
180.0
  0
ARC
  5
419
330
1F
100
AcDbEntity
  8
0-0_通り芯
  6
Continuous
 62
     3
370
    13
100
AcDbCircle
 10
1026.156640963677
 20
327.4691570596511
 30
0.0
 40
12.00000131452406
100
AcDbArc
 50
0.0
 51
87.95448303222656
  0
ARC
  5
41A
330
1F
100
AcDbEntity
  8
0-0_通り芯
  6
Continuous
 62
     3
370
    13
100
AcDbCircle
 10
1035.156522192562
 20
364.0191860925907
 30
0.0
 40
3.000000328631014
100
AcDbArc
 50
270.0
 51
0.0
  0
ARC
  5
41B
330
1F
100
AcDbEntity
  8
0-0_通り芯
  6
Continuous
 62
     3
370
    13
100
AcDbCircle
 10
1035.156522192562
 20
447.6168291458001
 30
0.0
 40
3.000000328631014
100
AcDbArc
 50
0.0
 51
90.0
  0
ARC
  5
41C
330
1F
100
AcDbEntity
  8
0-0_通り芯
  6
Continuous
 62
     3
370
    13
100
AcDbCircle
 10
920.1222435291323
 20
-846.1391094099434
 30
0.0
 40
8.000000103099927
100
AcDbArc
 50
93.27520751953126
 51
149.9219665527344
  0
ARC
  5
41D
330
1F
100
AcDbEntity
  8
0-0_通り芯
  6
Continuous
 62
     3
370
    13
100
AcDbCircle
 10
1088.156944489859
 20
-798.5454451890816
 30
0.0
 40
12.00000131452406
100
AcDbArc
 50
272.0586395263672
 51
22.45747375488283
  0
ARC
  5
41E
330
1F
100
AcDbEntity
  8
0-0_通り芯
  6
JWW_DASHED3
 62
     3
370
    13
100
AcDbCircle
 10
1088.156944489859
 20
-798.5454451890816
 30
0.0
 40
12.00000131452406
100
AcDbArc
 50
22.45747375488286
 51
45.00000000000005
  0
ARC
  5
41F
330
1F
100
AcDbEntity
  8
0-0_通り芯
  6
JWW_DASHED3
 62
     3
370
    13
100
AcDbCircle
 10
1064.855833320095
 20
-800.7002501405177
 30
0.0
 40
29.99999922675056
100
AcDbArc
 50
45.00000000000005
 51
86.2045288085938
  0
ARC
  5
420
330
1F
100
AcDbEntity
  8
0-0_通り芯
  6
Continuous
 62
     3
370
    13
100
AcDbCircle
 10
1064.855833320095
 20
-800.7002501405177
 30
0.0
 40
29.99999922675056
100
AcDbArc
 50
86.2045288085938
 51
86.81727600097663
  0
LINE
  5
421
330
1F
100
AcDbEntity
  8
0-0_通り芯
  6
Continuous
 62
     3
370
    13
100
AcDbLine
 10
1038.156680554048
 20
327.4691570596511
 30
0.0
 11
1038.156680554048
 21
-4.197696561547843
 31
0.0
  0
LINE
  5
422
330
1F
100
AcDbEntity
  8
0-0_通り芯
  6
Continuous
 62
     3
370
    13
100
AcDbLine
 10
1038.156977481836
 20
-780.7654092938114
 30
0.0
 11
1038.156680554048
 21
-4.197696561547843
 31
0.0
  0
LINE
  5
423
330
1F
100
AcDbEntity
  8
0-0_通り芯
  6
Continuous
 62
     3
370
    13
100
AcDbLine
 10
1058.156548586143
 20
-63.14291008561867
 30
0.0
 11
1058.156548586143
 21
96.37738657823235
 31
0.0
  0
LINE
  5
424
330
1F
100
AcDbEntity
  8
0-1_ピット
  6
Continuous
 62
     2
370
    13
100
AcDbLine
 10
1118.156746538001
 20
604.6173966077934
 30
0.0
 11
1118.156746538001
 21
-953.382893721599
 31
0.0
  0
LINE
  5
425
330
1F
100
AcDbEntity
  8
0-2_本体（蓋）
  6
Continuous
 62
     7
370
    13
100
AcDbLine
 10
1548.441483789902
 20
848.4874049217715
 30
0.0
 11
1216.347054155189
 21
848.4874049217715
 31
0.0
  0
TEXT
  5
426
330
1F
100
AcDbEntity
  8
0-2_本体（蓋）
  6
Continuous
 62
     2
370
    13
100
AcDbText
 10
1272.394145252634
 20
805.9634908856646
 30
0.0
 40
30.48
  1
樹脂系塗装
 41
1.100000000000001
  7
ＭＳ ゴシック
100
AcDbText
  0
TEXT
  5
427
330
1F
100
AcDbEntity
  8
0-2_本体（蓋）
  6
Continuous
 62
     2
370
    13
100
AcDbText
 10
1229.535118317984
 20
867.4416468981225
 30
0.0
 40
30.48
  1
枠：ＦＣ２００
 41
1.107142857142857
  7
ＭＳ ゴシック
100
AcDbText
  0
LINE
  5
428
330
1F
100
AcDbEntity
  8
0-4_寸法
  6
Continuous
 62
     7
370
    13
100
AcDbLine
 10
1216.347054155189
 20
848.4874049217715
 30
0.0
 11
1016.880552119781
 21
521.7316548884085
 31
0.0
  0
TEXT
  5
429
330
1F
100
AcDbEntity
  8
0-2_本体（蓋）
  6
Continuous
 62
     2
370
    13
100
AcDbText
 10
250.5804495085771
 20
675.6415280123794
 30
0.0
 40
30.48
  1
キャップ：クロロプレン
 41
1.113636363636364
  7
ＭＳ ゴシック
100
AcDbText
  0
LINE
  5
42A
330
1F
100
AcDbEntity
  8
0-2_本体（蓋）
  6
Continuous
 62
     7
370
    13
100
AcDbLine
 10
246.6201091633491
 20
656.6872860360284
 30
0.0
 11
756.68188590184
 21
656.6872860360284
 31
0.0
  0
LINE
  5
42B
330
1F
100
AcDbEntity
  8
0-4_寸法
  6
Continuous
 62
     7
370
    13
100
AcDbLine
 10
756.68188590184
 20
656.6872860360284
 30
0.0
 11
902.1566277668863
 21
400.6173669150152
 31
0.0
  0
LINE
  5
42C
330
1F
100
AcDbEntity
  8
0-4_寸法
  6
Continuous
 62
     7
370
    13
100
AcDbLine
 10
694.5369246286897
 20
848.9067665913037
 30
0.0
 11
898.1566393140782
 21
490.4879565459069
 31
0.0
  0
LINE
  5
42D
330
1F
100
AcDbEntity
  8
0-4_寸法
  6
Continuous
 62
     7
370
    13
100
AcDbLine
 10
902.1566277668863
 20
400.6173669150152
 30
0.0
 11
892.7505574190845
 21
423.7803943642112
 31
0.0
  0
LINE
  5
42E
330
1F
100
AcDbEntity
  8
0-4_寸法
  6
Continuous
 62
     7
370
    13
100
AcDbLine
 10
902.1566277668863
 20
400.6173669150152
 30
0.0
 11
887.0760288479685
 21
420.5566631976509
 31
0.0
  0
LINE
  5
42F
330
1F
100
AcDbEntity
  8
0-4_寸法
  6
Continuous
 62
     7
370
    13
100
AcDbLine
 10
898.1566393140782
 20
490.4879565459069
 30
0.0
 11
883.075924443935
 21
510.4272760534027
 31
0.0
  0
LINE
  5
430
330
1F
100
AcDbEntity
  8
0-4_寸法
  6
Continuous
 62
     7
370
    13
100
AcDbLine
 10
898.1566393140782
 20
490.4879565459069
 30
0.0
 11
888.7504618964261
 21
513.6509220626933
 31
0.0
  0
LINE
  5
431
330
1F
100
AcDbEntity
  8
0-4_寸法
  6
Continuous
 62
     7
370
    13
100
AcDbLine
 10
1016.880552119781
 20
521.731654888408
 30
0.0
 11
1027.009748699172
 21
544.5876713052153
 31
0.0
  0
LINE
  5
432
330
1F
100
AcDbEntity
  8
0-4_寸法
  6
Continuous
 62
     7
370
    13
100
AcDbLine
 10
1016.880552119781
 20
521.731654888408
 30
0.0
 11
1032.580113986334
 21
541.1872295426517
 31
0.0
  0
LINE
  5
433
330
1F
100
AcDbEntity
  8
0-1_ピット
  6
Continuous
 62
     2
370
    13
100
AcDbLine
 10
898.1570104738119
 20
517.6169611137052
 30
0.0
 11
898.1570104738119
 21
505.6169215233339
 31
0.0
  0
LINE
  5
434
330
1F
100
AcDbEntity
  8
0-1_ピット
  6
Continuous
 62
     2
370
    13
100
AcDbLine
 10
898.1570104738119
 20
-854.3833094205011
 30
0.0
 11
1094.560489147798
 21
-847.7731030226962
 31
0.0
  0
LINE
  5
435
330
1F
100
AcDbEntity
  8
0-1_ピット
  6
Continuous
 62
     2
370
    13
100
AcDbLine
 10
898.1570104738119
 20
-854.3833094205011
 30
0.0
 11
898.1570104738119
 21
-872.3830718782708
 31
0.0
  0
LINE
  5
436
330
1F
100
AcDbEntity
  8
0-2_本体（蓋）
  6
Continuous
 62
     7
370
    13
100
AcDbLine
 10
883.1569609858473
 20
500.6168555393813
 30
0.0
 11
755.1570500641835
 21
500.6168555393813
 31
0.0
  0
LINE
  5
437
330
1F
100
AcDbEntity
  8
0-2_本体（蓋）
  6
Continuous
 62
     7
370
    13
100
AcDbLine
 10
758.1570104738116
 20
500.6168555393813
 30
0.0
 11
754.8940215327227
 21
475.8308085060199
 31
0.0
  0
LINE
  5
438
330
1F
100
AcDbEntity
  8
0-2_本体（蓋）
  6
Continuous
 62
     7
370
    13
100
AcDbLine
 10
758.1570104738116
 20
500.6168555393813
 30
0.0
 11
761.4202468547242
 21
475.8308085060199
 31
0.0
  0
LINE
  5
439
330
1F
100
AcDbEntity
  8
0-2_本体（蓋）
  6
Continuous
 62
     7
370
    13
100
AcDbLine
 10
1258.157117697735
 20
425.6169792592922
 30
0.0
 11
1254.893881316823
 21
400.8306847861084
 31
0.0
  0
LINE
  5
43A
330
1F
100
AcDbEntity
  8
0-2_本体（蓋）
  6
Continuous
 62
     7
370
    13
100
AcDbLine
 10
1258.157117697735
 20
425.6169792592922
 30
0.0
 11
1261.420354078647
 21
400.8306847861084
 31
0.0
  0
LINE
  5
43B
330
1F
100
AcDbEntity
  8
0-2_本体（蓋）
  6
Continuous
 62
     7
370
    13
100
AcDbLine
 10
1262.158961949213
 20
425.6169792592922
 30
0.0
 11
1130.931693420919
 21
425.6169792592922
 31
0.0
  0
LINE
  5
43C
330
1F
100
AcDbEntity
  8
0-2_本体（蓋）
  6
Continuous
 62
     7
370
    13
100
AcDbLine
 10
1133.157167185699
 20
555.6169132753396
 30
0.0
 11
1361.157325547186
 21
555.6169132753396
 31
0.0
  0
LINE
  5
43D
330
1F
100
AcDbEntity
  8
0-2_本体（蓋）
  6
Continuous
 62
     7
370
    13
100
AcDbLine
 10
1358.157117697735
 20
555.6169132753396
 30
0.0
 11
1354.894128756645
 21
530.8308662419781
 31
0.0
  0
LINE
  5
43E
330
1F
100
AcDbEntity
  8
0-2_本体（蓋）
  6
Continuous
 62
     7
370
    13
100
AcDbLine
 10
1358.157117697735
 20
555.6169132753396
 30
0.0
 11
1361.420354078647
 21
530.8308662419781
 31
0.0
  0
LINE
  5
43F
330
1F
100
AcDbEntity
  8
0-4_寸法
  6
Continuous
 62
     7
370
    13
100
AcDbLine
 10
898.1570104738119
 20
730.7016293947752
 30
0.0
 11
1118.157117697735
 21
730.7016293947752
 31
0.0
  0
LINE
  5
440
330
1F
100
AcDbEntity
  8
0-4_寸法
  6
Continuous
 62
     7
370
    13
100
AcDbLine
 10
898.1570104738119
 20
730.7016293947752
 30
0.0
 11
922.9431320081571
 21
733.9647842002764
 31
0.0
  0
LINE
  5
441
330
1F
100
AcDbEntity
  8
0-4_寸法
  6
Continuous
 62
     7
370
    13
100
AcDbLine
 10
898.1570104738119
 20
730.7016293947752
 30
0.0
 11
922.9431320081571
 21
727.4384745892737
 31
0.0
  0
LINE
  5
442
330
1F
100
AcDbEntity
  8
0-4_寸法
  6
Continuous
 62
     7
370
    13
100
AcDbLine
 10
1118.157117697735
 20
730.7016293947752
 30
0.0
 11
1093.37099616339
 21
733.9647842002764
 31
0.0
  0
LINE
  5
443
330
1F
100
AcDbEntity
  8
0-4_寸法
  6
Continuous
 62
     7
370
    13
100
AcDbLine
 10
1118.157117697735
 20
730.7016293947752
 30
0.0
 11
1093.37099616339
 21
727.4384745892737
 31
0.0
  0
LINE
  5
444
330
1F
100
AcDbEntity
  8
0-4_寸法
  6
Continuous
 62
     7
370
    13
100
AcDbLine
 10
898.1570104738119
 20
733.7016293947752
 30
0.0
 11
898.1570104738119
 21
537.6169611137052
 31
0.0
  0
LINE
  5
445
330
1F
100
AcDbEntity
  8
0-4_寸法
  6
Continuous
 62
     7
370
    13
100
AcDbLine
 10
1118.157117697735
 20
733.7016293947752
 30
0.0
 11
1118.157117697735
 21
624.6169264721302
 31
0.0
  0
TEXT
  5
446
330
1F
100
AcDbEntity
  8
0-4_寸法
  6
Continuous
 62
     2
370
   211
100
AcDbText
 10
975.6570640857733
 20
742.3416293947754
 30
0.0
 40
30.48
  1
110
 41
1.083333333333333
  7
ＭＳ ゴシック
100
AcDbText
  0
LINE
  5
447
330
1F
100
AcDbEntity
  8
0-2_本体（蓋）
  6
Continuous
 62
     7
370
    13
100
AcDbLine
 10
758.1570104738116
 20
-849.3829465087615
 30
0.0
 11
758.1570104738116
 21
500.6168555393813
 31
0.0
  0
LINE
  5
448
330
1F
100
AcDbEntity
  8
0-2_本体（蓋）
  6
Continuous
 62
     7
370
    13
100
AcDbLine
 10
1258.157117697735
 20
-774.3830702286723
 30
0.0
 11
1258.157117697735
 21
425.6169792592922
 31
0.0
  0
LINE
  5
449
330
1F
100
AcDbEntity
  8
0-2_本体（蓋）
  6
Continuous
 62
     7
370
    13
100
AcDbLine
 10
1358.157117697735
 20
-904.3830042447198
 30
0.0
 11
1358.157117697735
 21
555.6169132753396
 31
0.0
  0
LINE
  5
44A
330
1F
100
AcDbEntity
  8
0-2_本体（蓋）
  6
Continuous
 62
     7
370
    13
100
AcDbLine
 10
883.1569609858473
 20
-849.3829465087615
 30
0.0
 11
755.1570500641835
 21
-849.3829465087615
 31
0.0
  0
LINE
  5
44B
330
1F
100
AcDbEntity
  8
0-2_本体（蓋）
  6
Continuous
 62
     7
370
    13
100
AcDbLine
 10
758.1570104738116
 20
-849.3829465087615
 30
0.0
 11
754.8940215327227
 21
-824.5968994754
 31
0.0
  0
LINE
  5
44C
330
1F
100
AcDbEntity
  8
0-2_本体（蓋）
  6
Continuous
 62
     7
370
    13
100
AcDbLine
 10
758.1570104738116
 20
-849.3829465087615
 30
0.0
 11
761.4202468547242
 21
-824.5968994754
 31
0.0
  0
LINE
  5
44D
330
1F
100
AcDbEntity
  8
0-2_本体（蓋）
  6
Continuous
 62
     7
370
    13
100
AcDbLine
 10
1258.157117697735
 20
-774.3830702286723
 30
0.0
 11
1254.893881316823
 21
-749.5967757554886
 31
0.0
  0
LINE
  5
44E
330
1F
100
AcDbEntity
  8
0-2_本体（蓋）
  6
Continuous
 62
     7
370
    13
100
AcDbLine
 10
1258.157117697735
 20
-774.3830702286723
 30
0.0
 11
1261.420354078647
 21
-749.5967757554886
 31
0.0
  0
LINE
  5
44F
330
1F
100
AcDbEntity
  8
0-2_本体（蓋）
  6
Continuous
 62
     7
370
    13
100
AcDbLine
 10
1262.158961949213
 20
-774.3830702286723
 30
0.0
 11
1130.931693420919
 21
-774.3830702286723
 31
0.0
  0
LINE
  5
450
330
1F
100
AcDbEntity
  8
0-2_本体（蓋）
  6
Continuous
 62
     7
370
    13
100
AcDbLine
 10
1133.157167185699
 20
-904.3830042447198
 30
0.0
 11
1361.157325547186
 21
-904.3830042447198
 31
0.0
  0
LINE
  5
451
330
1F
100
AcDbEntity
  8
0-2_本体（蓋）
  6
Continuous
 62
     7
370
    13
100
AcDbLine
 10
1358.157117697735
 20
-904.3830042447198
 30
0.0
 11
1354.894128756645
 21
-879.5969572113584
 31
0.0
  0
LINE
  5
452
330
1F
100
AcDbEntity
  8
0-2_本体（蓋）
  6
Continuous
 62
     7
370
    13
100
AcDbLine
 10
1358.157117697735
 20
-904.3830042447198
 30
0.0
 11
1361.420354078647
 21
-879.5969572113584
 31
0.0
  0
TEXT
  5
453
330
1F
100
AcDbEntity
  8
0-4_寸法
  6
Continuous
 62
     2
370
   211
100
AcDbText
 10
746.5170104738118
 20
-229.3830454846901
 30
0.0
 40
30.48
  1
□675
 50
90.0
 41
1.1
  7
ＭＳ ゴシック
100
AcDbText
  0
TEXT
  5
454
330
1F
100
AcDbEntity
  8
0-4_寸法
  6
Continuous
 62
     2
370
   211
100
AcDbText
 10
1246.517117697735
 20
-229.3830454846901
 30
0.0
 40
30.48
  1
□600
 50
90.0
 41
1.1
  7
ＭＳ ゴシック
100
AcDbText
  0
TEXT
  5
455
330
1F
100
AcDbEntity
  8
0-4_寸法
  6
Continuous
 62
     2
370
   211
100
AcDbText
 10
1346.517117697734
 20
-229.3830454846901
 30
0.0
 40
30.48
  1
□730
 50
90.0
 41
1.1
  7
ＭＳ ゴシック
100
AcDbText
  0
LINE
  5
456
330
1F
100
AcDbEntity
  8
0-4_寸法
  6
Continuous
 62
     7
370
    13
100
AcDbLine
 10
898.1570104738119
 20
-720.7099877804139
 30
0.0
 11
1110.277490295849
 21
-720.7099877804139
 31
0.0
  0
LINE
  5
457
330
1F
100
AcDbEntity
  8
0-4_寸法
  6
Continuous
 62
     7
370
    13
100
AcDbLine
 10
898.1570104738119
 20
-720.7099877804139
 30
0.0
 11
922.9431320081571
 21
-717.4468329749127
 31
0.0
  0
LINE
  5
458
330
1F
100
AcDbEntity
  8
0-4_寸法
  6
Continuous
 62
     7
370
    13
100
AcDbLine
 10
898.1570104738119
 20
-720.7099877804139
 30
0.0
 11
922.9431320081571
 21
-723.9731425859154
 31
0.0
  0
LINE
  5
459
330
1F
100
AcDbEntity
  8
0-4_寸法
  6
Continuous
 62
     7
370
    13
100
AcDbLine
 10
1038.156954519094
 20
-720.7099877804139
 30
0.0
 11
1013.370832984749
 21
-717.4468329749127
 31
0.0
  0
LINE
  5
45A
330
1F
100
AcDbEntity
  8
0-4_寸法
  6
Continuous
 62
     7
370
    13
100
AcDbLine
 10
1038.156954519094
 20
-720.7099877804139
 30
0.0
 11
1013.370832984749
 21
-723.9731425859154
 31
0.0
  0
TEXT
  5
45B
330
1F
100
AcDbEntity
  8
0-4_寸法
  6
Continuous
 62
     2
370
   211
100
AcDbText
 10
946.9069824964531
 20
-709.0699877804141
 30
0.0
 40
30.48
  1
70
 41
1.0625
  7
ＭＳ ゴシック
100
AcDbText
  0
LINE
  5
45C
330
1F
100
AcDbEntity
  8
0-4_寸法
  6
Continuous
 62
     7
370
    13
100
AcDbLine
 10
1058.156548586143
 20
-720.7099877804139
 30
0.0
 11
1082.942670120488
 21
-717.4468329749127
 31
0.0
  0
LINE
  5
45D
330
1F
100
AcDbEntity
  8
0-4_寸法
  6
Continuous
 62
     7
370
    13
100
AcDbLine
 10
1058.156548586143
 20
-720.7099877804139
 30
0.0
 11
1082.942670120488
 21
-723.9731425859154
 31
0.0
  0
TEXT
  5
45E
330
1F
100
AcDbEntity
  8
0-4_寸法
  6
Continuous
 62
     2
370
   211
100
AcDbText
 10
1065.994647974992
 20
-709.0699877804141
 30
0.0
 40
30.48
  1
10
 41
1.0625
  7
ＭＳ ゴシック
100
AcDbText
  0
LINE
  5
45F
330
1F
100
AcDbEntity
  8
0-4_寸法
  6
Continuous
 62
     7
370
    13
100
AcDbLine
 10
1058.156548586143
 20
163.163374397802
 30
0.0
 11
1082.942670120488
 21
166.4265292033033
 31
0.0
  0
LINE
  5
460
330
1F
100
AcDbEntity
  8
0-4_寸法
  6
Continuous
 62
     7
370
    13
100
AcDbLine
 10
1058.156548586143
 20
163.163374397802
 30
0.0
 11
1082.942670120488
 21
159.9002195923006
 31
0.0
  0
LINE
  5
461
330
1F
100
AcDbEntity
  8
0-4_寸法
  6
Continuous
 62
     7
370
    13
100
AcDbLine
 10
1038.156680554048
 20
163.163374397802
 30
0.0
 11
1013.370559019703
 21
166.4265292033033
 31
0.0
  0
LINE
  5
462
330
1F
100
AcDbEntity
  8
0-4_寸法
  6
Continuous
 62
     7
370
    13
100
AcDbLine
 10
1038.156680554048
 20
163.163374397802
 30
0.0
 11
1013.370559019703
 21
159.9002195923006
 31
0.0
  0
TEXT
  5
463
330
1F
100
AcDbEntity
  8
0-4_寸法
  6
Continuous
 62
     2
370
   211
100
AcDbText
 10
975.7801542457948
 20
174.8033743978022
 30
0.0
 40
30.48
  1
10
 41
1.062499999999996
  7
ＭＳ ゴシック
100
AcDbText
  0
LINE
  5
464
330
1F
100
AcDbEntity
  8
0-4_寸法
  6
Continuous
 62
     7
370
    13
100
AcDbLine
 10
1091.332151755164
 20
163.163374397802
 30
0.0
 11
973.0139913286895
 21
163.163374397802
 31
0.0
  0
LINE
  5
465
330
1F
100
AcDbEntity
  8
0-0_通り芯
  6
Continuous
 62
     3
370
    13
100
AcDbLine
 10
1078.157010473812
 20
-577.3749228601122
 30
0.0
 11
1078.157010473812
 21
149.2281445136402
 31
0.0
  0
LINE
  5
466
330
1F
100
AcDbEntity
  8
0-0_通り芯
  6
Continuous
 62
     3
370
    13
100
AcDbLine
 10
1078.157010473812
 20
180.0745922970785
 30
0.0
 11
1078.157010473812
 21
228.6088318907323
 31
0.0
  0
LINE
  5
467
330
1F
100
AcDbEntity
  8
0-2_本体（蓋）
  6
Continuous
 62
     7
370
    13
100
AcDbLine
 10
694.5369246286897
 20
848.4874049217715
 30
0.0
 11
362.4424949939763
 21
848.4874049217715
 31
0.0
  0
TEXT
  5
468
330
1F
100
AcDbEntity
  8
0-2_本体（蓋）
  6
Continuous
 62
     2
370
    13
100
AcDbText
 10
418.4895860914213
 20
805.9634908856646
 30
0.0
 40
30.48
  1
樹脂系塗装
 41
1.100000000000001
  7
ＭＳ ゴシック
100
AcDbText
  0
TEXT
  5
469
330
1F
100
AcDbEntity
  8
0-2_本体（蓋）
  6
Continuous
 62
     2
370
    13
100
AcDbText
 10
375.6305591567718
 20
867.4416468981225
 30
0.0
 40
30.48
  1
蓋：ＦＣ２００
 41
1.107142857142857
  7
ＭＳ ゴシック
100
AcDbText
  0
LINE
  5
46A
330
1F
100
AcDbEntity
  8
0-1_ピット
  6
Continuous
 62
     2
370
    13
100
AcDbLine
 10
1074.156799325163
 20
-776.3830520830854
 30
0.0
 11
1074.156799325163
 21
-786.3411192811427
 31
0.0
  0
LINE
  5
46B
330
1F
100
AcDbEntity
  8
0-1_ピット
  6
Continuous
 62
     2
370
    13
100
AcDbLine
 10
1074.156799325163
 20
437.5747313839756
 30
0.0
 11
1074.156799325163
 21
427.6169611137053
 31
0.0
  0
LINE
  5
46C
330
1F
100
AcDbEntity
  8
0-2_本体（蓋）
  6
Continuous
 62
     7
370
    13
100
AcDbLine
 10
883.1569609858473
 20
-872.3830718782708
 30
0.0
 11
655.1570500641833
 21
-872.3830718782708
 31
0.0
  0
LINE
  5
46D
330
1F
100
AcDbEntity
  8
0-2_本体（蓋）
  6
Continuous
 62
     7
370
    13
100
AcDbLine
 10
658.1570104738116
 20
-872.3830718782708
 30
0.0
 11
654.8937740928994
 21
-847.5970248449094
 31
0.0
  0
LINE
  5
46E
330
1F
100
AcDbEntity
  8
0-2_本体（蓋）
  6
Continuous
 62
     7
370
    13
100
AcDbLine
 10
658.1570104738116
 20
-872.3830718782708
 30
0.0
 11
661.4202468547239
 21
-847.5970248449094
 31
0.0
  0
LINE
  5
46F
330
1F
100
AcDbEntity
  8
0-2_本体（蓋）
  6
Continuous
 62
     7
370
    13
100
AcDbLine
 10
883.1569609858473
 20
517.6169611137052
 30
0.0
 11
655.1570500641833
 21
517.6169611137052
 31
0.0
  0
LINE
  5
470
330
1F
100
AcDbEntity
  8
0-2_本体（蓋）
  6
Continuous
 62
     7
370
    13
100
AcDbLine
 10
658.1570104738116
 20
517.6169611137052
 30
0.0
 11
654.8937740928994
 21
492.8309140803438
 31
0.0
  0
LINE
  5
471
330
1F
100
AcDbEntity
  8
0-2_本体（蓋）
  6
Continuous
 62
     7
370
    13
100
AcDbLine
 10
658.1570104738116
 20
517.6169611137052
 30
0.0
 11
661.4202468547239
 21
492.8309140803438
 31
0.0
  0
LINE
  5
472
330
1F
100
AcDbEntity
  8
0-2_本体（蓋）
  6
Continuous
 62
     7
370
    13
100
AcDbLine
 10
658.1570104738116
 20
-872.3830718782708
 30
0.0
 11
658.1570104738116
 21
517.6169611137052
 31
0.0
  0
TEXT
  5
473
330
1F
100
AcDbEntity
  8
0-4_寸法
  6
Continuous
 62
     2
370
   211
100
AcDbText
 10
646.5170104738118
 20
-229.3830454846901
 30
0.0
 40
30.48
  1
□695
 50
90.0
 41
1.1
  7
ＭＳ ゴシック
100
AcDbText
  0
TEXT
  5
474
330
1F
100
AcDbEntity
  8
F-5ﾚｲﾔ
  6
Continuous
 62
     7
370
    13
100
AcDbText
 10
-809.2673316768133
 20
-1365.204005208993
 30
0.0
 40
22.86
  1
一般型　充填深さ70mm　カラー舗装用鉄蓋　　ＭＲＨ－６－６０７０
 41
1.161290322580645
  7
ＭＳ ゴシック
100
AcDbText
  0
ENDSEC
  0
SECTION
  2
OBJECTS
  0
DICTIONARY
  5
C
330
0
100
AcDbDictionary
281
     1
  3
ACAD_GROUP
350
D
  3
ACAD_LAYOUT
350
1A
  3
ACAD_MLEADERSTYLE
350
476
  3
ACAD_MLINESTYLE
350
17
  3
ACAD_PLOTSETTINGS
350
19
  3
ACAD_PLOTSTYLENAME
350
E
  3
ACAD_TABLESTYLE
350
475
  3
ACAD_VISUALSTYLE
350
2A
  0
DICTIONARY
  5
D
102
{ACAD_REACTORS
330
C
102
}
330
C
100
AcDbDictionary
281
     1
  0
DICTIONARY
  5
1A
102
{ACAD_REACTORS
330
C
102
}
330
C
100
AcDbDictionary
281
     1
  3
Layout1
350
1E
  3
Layout2
350
26
  3
Model
350
22
  0
DICTIONARY
  5
476
102
{ACAD_REACTORS
330
C
102
}
330
C
100
AcDbDictionary
281
     1
  0
DICTIONARY
  5
17
102
{ACAD_REACTORS
330
C
102
}
330
C
100
AcDbDictionary
281
     1
  3
Standard
350
18
  0
DICTIONARY
  5
19
102
{ACAD_REACTORS
330
C
102
}
330
C
100
AcDbDictionary
281
     1
  0
ACDBDICTIONARYWDFLT
  5
E
102
{ACAD_REACTORS
330
C
102
}
330
C
100
AcDbDictionary
281
     1
  3
Normal
350
F
100
AcDbDictionaryWithDefault
340
F
  0
DICTIONARY
  5
475
102
{ACAD_REACTORS
330
C
102
}
330
C
100
AcDbDictionary
281
     1
  0
DICTIONARY
  5
2A
102
{ACAD_REACTORS
330
C
102
}
330
C
100
AcDbDictionary
281
     1
  3
2dWireframe
350
2F
  3
3D Hidden
350
31
  3
3dWireframe
350
30
  3
Basic
350
32
  3
Brighten
350
36
  3
ColorChange
350
3A
  3
Conceptual
350
34
  3
Dim
350
35
  3
Facepattern
350
39
  3
Flat
350
2B
  3
FlatWithEdges
350
2C
  3
Gouraud
350
2D
  3
GouraudWithEdges
350
2E
  3
Linepattern
350
38
  3
Realistic
350
33
  3
Thicken
350
37
  0
LAYOUT
  5
1E
102
{ACAD_REACTORS
330
1A
102
}
330
1A
100
AcDbPlotSettings
  1

  2
none_device
  4

  6

 40
0.0
 41
0.0
 42
0.0
 43
0.0
 44
0.0
 45
0.0
 46
0.0
 47
0.0
 48
0.0
 49
0.0
140
0.0
141
0.0
142
1.0
143
1.0
 70
   688
 72
     0
 73
     0
 74
     5
  7

 75
    16
 76
     0
 77
     5
 78
   300
147
1.0
148
0.0
149
0.0
100
AcDbLayout
  1
Layout1
 70
     1
 71
     1
 10
0.0
 20
0.0
 11
420.0
 21
297.0
 12
0.0
 22
0.0
 32
0.0
 14
1.000000000000000E+20
 24
1.000000000000000E+20
 34
1.000000000000000E+20
 15
-1.000000000000000E+20
 25
-1.000000000000000E+20
 35
-1.000000000000000E+20
146
0.0
 13
0.0
 23
0.0
 33
0.0
 16
1.0
 26
0.0
 36
0.0
 17
0.0
 27
1.0
 37
0.0
 76
     0
330
1B
  0
LAYOUT
  5
26
102
{ACAD_REACTORS
330
1A
102
}
330
1A
100
AcDbPlotSettings
  1

  2
none_device
  4

  6

 40
0.0
 41
0.0
 42
0.0
 43
0.0
 44
0.0
 45
0.0
 46
0.0
 47
0.0
 48
0.0
 49
0.0
140
0.0
141
0.0
142
1.0
143
1.0
 70
   688
 72
     0
 73
     0
 74
     5
  7

 75
    16
 76
     0
 77
     5
 78
   300
147
1.0
148
0.0
149
0.0
100
AcDbLayout
  1
Layout2
 70
     1
 71
     2
 10
0.0
 20
0.0
 11
0.0
 21
0.0
 12
0.0
 22
0.0
 32
0.0
 14
0.0
 24
0.0
 34
0.0
 15
0.0
 25
0.0
 35
0.0
146
0.0
 13
0.0
 23
0.0
 33
0.0
 16
1.0
 26
0.0
 36
0.0
 17
0.0
 27
1.0
 37
0.0
 76
     0
330
23
  0
LAYOUT
  5
22
102
{ACAD_REACTORS
330
1A
102
}
330
1A
100
AcDbPlotSettings
  1

  2
none_device
  4

  6

 40
0.0
 41
0.0
 42
0.0
 43
0.0
 44
0.0
 45
0.0
 46
0.0
 47
0.0
 48
0.0
 49
0.0
140
0.0
141
0.0
142
1.0
143
1.0
 70
  1712
 72
     0
 73
     0
 74
     0
  7

 75
     0
 76
     0
 77
     5
 78
   300
147
1.0
148
0.0
149
0.0
100
AcDbLayout
  1
Model
 70
     1
 71
     0
 10
-2100.0
 20
-1485.0
 11
2100.0
 21
1485.0
 12
0.0
 22
0.0
 32
0.0
 14
-2100.0
 24
-1485.0
 34
0.0
 15
2100.0
 25
1485.0
 35
0.0
146
0.0
 13
0.0
 23
0.0
 33
0.0
 16
1.0
 26
0.0
 36
0.0
 17
0.0
 27
1.0
 37
0.0
 76
     0
330
1F
331
29
  0
MLINESTYLE
  5
18
102
{ACAD_REACTORS
330
17
102
}
330
17
100
AcDbMlineStyle
  2
Standard
 70
     0
  3

 62
   256
 51
90.0
 52
90.0
 71
     2
 49
0.5
 62
   256
  6
BYLAYER
 49
-0.5
 62
   256
  6
BYLAYER
  0
ACDBPLACEHOLDER
  5
F
102
{ACAD_REACTORS
330
E
102
}
330
E
  0
VISUALSTYLE
  5
2F
102
{ACAD_REACTORS
330
2A
102
}
330
2A
100
AcDbVisualStyle
  2
2dWireframe
 70
     4
 71
     0
 72
     2
 73
     0
 90
        0
 40
-0.6
 41
-30.0
 62
     5
 63
     7
421
 16777215
 74
     1
 91
        4
 64
     7
 65
   257
 75
     1
175
     1
 42
1.0
 92
        0
 66
   257
 43
1.0
 76
     1
 77
     6
 78
     2
 67
     7
 79
     5
170
     0
171
     0
290
     0
174
     0
 93
        1
 44
0.0
173
     0
291
     0
 45
0.0
1001
ACAD
1000
AcDbSavedByObjectVersion
1070
     0
  0
VISUALSTYLE
  5
31
102
{ACAD_REACTORS
330
2A
102
}
330
2A
100
AcDbVisualStyle
  2
3D Hidden
 70
     6
 71
     1
 72
     2
 73
     2
 90
        0
 40
-0.6
 41
-30.0
 62
     5
 63
     7
421
 16777215
 74
     2
 91
        2
 64
     7
 65
   257
 75
     2
175
     1
 42
40.0
 92
        0
 66
   257
 43
1.0
 76
     1
 77
     6
 78
     2
 67
     7
 79
     3
170
     0
171
     0
290
     0
174
     0
 93
        1
 44
0.0
173
     0
291
     0
 45
0.0
1001
ACAD
1000
AcDbSavedByObjectVersion
1070
     0
  0
VISUALSTYLE
  5
30
102
{ACAD_REACTORS
330
2A
102
}
330
2A
100
AcDbVisualStyle
  2
3dWireframe
 70
     5
 71
     0
 72
     2
 73
     0
 90
        0
 40
-0.6
 41
-30.0
 62
     5
 63
     7
421
 16777215
 74
     1
 91
        4
 64
     7
 65
   257
 75
     1
175
     1
 42
1.0
 92
        0
 66
   257
 43
1.0
 76
     1
 77
     6
 78
     2
 67
     7
 79
     5
170
     0
171
     0
290
     0
174
     0
 93
        1
 44
0.0
173
     0
291
     0
 45
0.0
1001
ACAD
1000
AcDbSavedByObjectVersion
1070
     0
  0
VISUALSTYLE
  5
32
102
{ACAD_REACTORS
330
2A
102
}
330
2A
100
AcDbVisualStyle
  2
Basic
 70
     7
 71
     1
 72
     0
 73
     1
 90
        0
 40
-0.6
 41
-30.0
 62
     5
 63
     7
421
 16777215
 74
     0
 91
        4
 64
     7
 65
   257
 75
     1
175
     1
 42
1.0
 92
        8
 66
     7
 43
1.0
 76
     1
 77
     6
 78
     2
 67
     7
 79
     5
170
     0
171
     0
290
     0
174
     0
 93
        1
 44
0.0
173
     0
291
     1
 45
0.0
1001
ACAD
1000
AcDbSavedByObjectVersion
1070
     0
  0
VISUALSTYLE
  5
36
102
{ACAD_REACTORS
330
2A
102
}
330
2A
100
AcDbVisualStyle
  2
Brighten
 70
    12
 71
     2
 72
     2
 73
     0
 90
        0
 40
-0.6
 41
-30.0
 62
     5
 63
     7
421
 16777215
 74
     1
 91
        4
 64
     7
 65
   257
 75
     1
175
     1
 42
1.0
 92
        8
 66
     7
 43
1.0
 76
     1
 77
     6
 78
     2
 67
     7
 79
     5
170
     0
171
     0
290
     0
174
     0
 93
        1
 44
50.0
173
     0
291
     1
 45
0.0
1001
ACAD
1000
AcDbSavedByObjectVersion
1070
     0
  0
VISUALSTYLE
  5
3A
102
{ACAD_REACTORS
330
2A
102
}
330
2A
100
AcDbVisualStyle
  2
ColorChange
 70
    16
 71
     2
 72
     2
 73
     3
 90
        0
 40
-0.6
 41
-30.0
 62
     5
 63
     8
421
  8421504
 74
     1
 91
        4
 64
     7
 65
   257
 75
     1
175
     1
 42
1.0
 92
        8
 66
     8
424
  8421504
 43
1.0
 76
     1
 77
     6
 78
     2
 67
     7
 79
     5
170
     0
171
     0
290
     0
174
     0
 93
        1
 44
0.0
173
     0
291
     1
 45
0.0
1001
ACAD
1000
AcDbSavedByObjectVersion
1070
     0
  0
VISUALSTYLE
  5
34
102
{ACAD_REACTORS
330
2A
102
}
330
2A
100
AcDbVisualStyle
  2
Conceptual
 70
     9
 71
     3
 72
     2
 73
     0
 90
        0
 40
-0.6
 41
-30.0
 62
     5
 63
     7
421
 16777215
 74
     2
 91
        2
 64
     7
 65
   257
 75
     1
175
     1
 42
40.0
 92
        8
 66
     7
 43
1.0
 76
     1
 77
     6
 78
     2
 67
     7
 79
     3
170
     0
171
     0
290
     0
174
     0
 93
        1
 44
0.0
173
     0
291
     0
 45
0.0
1001
ACAD
1000
AcDbSavedByObjectVersion
1070
     0
  0
VISUALSTYLE
  5
35
102
{ACAD_REACTORS
330
2A
102
}
330
2A
100
AcDbVisualStyle
  2
Dim
 70
    11
 71
     2
 72
     2
 73
     0
 90
        0
 40
-0.6
 41
-30.0
 62
     5
 63
     7
421
 16777215
 74
     1
 91
        4
 64
     7
 65
   257
 75
     1
175
     1
 42
1.0
 92
        8
 66
     7
 43
1.0
 76
     1
 77
     6
 78
     2
 67
     7
 79
     5
170
     0
171
     0
290
     0
174
     0
 93
        1
 44
-50.0
173
     0
291
     1
 45
0.0
1001
ACAD
1000
AcDbSavedByObjectVersion
1070
     0
  0
VISUALSTYLE
  5
39
102
{ACAD_REACTORS
330
2A
102
}
330
2A
100
AcDbVisualStyle
  2
Facepattern
 70
    15
 71
     2
 72
     2
 73
     0
 90
        0
 40
-0.6
 41
-30.0
 62
     5
 63
     7
421
 16777215
 74
     1
 91
        4
 64
     7
 65
   257
 75
     1
175
     1
 42
1.0
 92
        8
 66
     7
 43
1.0
 76
     1
 77
     6
 78
     2
 67
     7
 79
     5
170
     0
171
     0
290
     0
174
     0
 93
        1
 44
0.0
173
     0
291
     1
 45
0.0
1001
ACAD
1000
AcDbSavedByObjectVersion
1070
     0
  0
VISUALSTYLE
  5
2B
102
{ACAD_REACTORS
330
2A
102
}
330
2A
100
AcDbVisualStyle
  2
Flat
 70
     0
 71
     2
 72
     1
 73
     1
 90
        2
 40
-0.6
 41
30.0
 62
     5
 63
     7
421
 16777215
 74
     0
 91
        4
 64
     7
 65
   257
 75
     1
175
     1
 42
1.0
 92
        8
 66
     7
 43
1.0
 76
     1
 77
     6
 78
     2
 67
     7
 79
     5
170
     0
171
     0
290
     0
174
     0
 93
       13
 44
0.0
173
     0
291
     1
 45
0.0
1001
ACAD
1000
AcDbSavedByObjectVersion
1070
     0
  0
VISUALSTYLE
  5
2C
102
{ACAD_REACTORS
330
2A
102
}
330
2A
100
AcDbVisualStyle
  2
FlatWithEdges
 70
     1
 71
     2
 72
     1
 73
     1
 90
        2
 40
-0.6
 41
30.0
 62
     5
 63
     7
421
 16777215
 74
     1
 91
        4
 64
     7
 65
   257
 75
     1
175
     1
 42
1.0
 92
        0
 66
   257
 43
1.0
 76
     1
 77
     6
 78
     2
 67
     7
 79
     5
170
     0
171
     0
290
     0
174
     0
 93
       13
 44
0.0
173
     0
291
     1
 45
0.0
1001
ACAD
1000
AcDbSavedByObjectVersion
1070
     0
  0
VISUALSTYLE
  5
2D
102
{ACAD_REACTORS
330
2A
102
}
330
2A
100
AcDbVisualStyle
  2
Gouraud
 70
     2
 71
     2
 72
     2
 73
     1
 90
        2
 40
-0.6
 41
30.0
 62
     5
 63
     7
421
 16777215
 74
     0
 91
        4
 64
     7
 65
   257
 75
     1
175
     1
 42
1.0
 92
        0
 66
     7
 43
1.0
 76
     1
 77
     6
 78
     2
 67
     7
 79
     5
170
     0
171
     0
290
     0
174
     0
 93
       13
 44
0.0
173
     0
291
     1
 45
0.0
1001
ACAD
1000
AcDbSavedByObjectVersion
1070
     0
  0
VISUALSTYLE
  5
2E
102
{ACAD_REACTORS
330
2A
102
}
330
2A
100
AcDbVisualStyle
  2
GouraudWithEdges
 70
     3
 71
     2
 72
     2
 73
     1
 90
        2
 40
-0.6
 41
30.0
 62
     5
 63
     7
421
 16777215
 74
     1
 91
        4
 64
     7
 65
   257
 75
     1
175
     1
 42
1.0
 92
        0
 66
   257
 43
1.0
 76
     1
 77
     6
 78
     2
 67
     7
 79
     5
170
     0
171
     0
290
     0
174
     0
 93
       13
 44
0.0
173
     0
291
     1
 45
0.0
1001
ACAD
1000
AcDbSavedByObjectVersion
1070
     0
  0
VISUALSTYLE
  5
38
102
{ACAD_REACTORS
330
2A
102
}
330
2A
100
AcDbVisualStyle
  2
Linepattern
 70
    14
 71
     2
 72
     2
 73
     0
 90
        0
 40
-0.6
 41
-30.0
 62
     5
 63
     7
421
 16777215
 74
     1
 91
        4
 64
     7
 65
   257
 75
     7
175
     7
 42
1.0
 92
        8
 66
     7
 43
1.0
 76
     1
 77
     6
 78
     2
 67
     7
 79
     5
170
     0
171
     0
290
     0
174
     0
 93
        1
 44
0.0
173
     0
291
     1
 45
0.0
1001
ACAD
1000
AcDbSavedByObjectVersion
1070
     0
  0
VISUALSTYLE
  5
33
102
{ACAD_REACTORS
330
2A
102
}
330
2A
100
AcDbVisualStyle
  2
Realistic
 70
     8
 71
     2
 72
     2
 73
     0
 90
        0
 40
-0.6
 41
-30.0
 62
     5
 63
     7
421
 16777215
 74
     1
 91
        0
 64
     7
 65
   257
 75
     1
175
     1
 42
1.0
 92
        8
 66
     8
424
  7895160
 43
1.0
 76
     1
 77
     6
 78
     2
 67
     7
 79
     5
170
     0
171
     0
290
     0
174
     0
 93
       13
 44
0.0
173
     0
291
     0
 45
0.0
1001
ACAD
1000
AcDbSavedByObjectVersion
1070
     0
  0
VISUALSTYLE
  5
37
102
{ACAD_REACTORS
330
2A
102
}
330
2A
100
AcDbVisualStyle
  2
Thicken
 70
    13
 71
     2
 72
     2
 73
     0
 90
        0
 40
-0.6
 41
-30.0
 62
     5
 63
     7
421
 16777215
 74
     1
 91
        4
 64
     7
 65
   257
 75
     1
175
     1
 42
1.0
 92
       12
 66
     7
 43
1.0
 76
     1
 77
     6
 78
     2
 67
     7
 79
     5
170
     0
171
     0
290
     0
174
     0
 93
        1
 44
0.0
173
     0
291
     1
 45
0.0
1001
ACAD
1000
AcDbSavedByObjectVersion
1070
     0
  0
ENDSEC
  0
EOF
