  0
SECTION
  2
HEADER
  9
$ACADVER
  1
AC1018
  9
$ACADMAINTVER
 70
     0
  9
$DWGCODEPAGE
  3
ANSI_932
  9
$INSBASE
 10
0.0
 20
0.0
 30
0.0
  9
$EXTMIN
 10
-2100.0
 20
-1485.0
 30
0.0
  9
$EXTMAX
 10
2100.0
 20
1485.0
 30
0.0
  9
$LIMMIN
 10
-2100.0
 20
-1485.0
  9
$LIMMAX
 10
2100.0
 20
1485.0
  9
$ORTHOMODE
 70
     0
  9
$REGENMODE
 70
     1
  9
$FILLMODE
 70
     1
  9
$QTEXTMODE
 70
     0
  9
$MIRRTEXT
 70
     1
  9
$LTSCALE
 40
10.0
  9
$ATTMODE
 70
     1
  9
$TEXTSIZE
 40
2.5
  9
$TRACEWID
 40
1.0
  9
$TEXTSTYLE
  7
Standard
  9
$CLAYER
  8
0
  9
$CELTYPE
  6
ByLayer
  9
$CECOLOR
 62
   256
  9
$CELTSCALE
 40
1.0
  9
$DISPSILH
 70
     0
  9
$DIMSCALE
 40
1.0
  9
$DIMASZ
 40
2.5
  9
$DIMEXO
 40
0.625
  9
$DIMDLI
 40
3.75
  9
$DIMRND
 40
0.0
  9
$DIMDLE
 40
0.0
  9
$DIMEXE
 40
1.25
  9
$DIMTP
 40
0.0
  9
$DIMTM
 40
0.0
  9
$DIMTXT
 40
2.5
  9
$DIMCEN
 40
2.5
  9
$DIMTSZ
 40
0.0
  9
$DIMTOL
 70
     0
  9
$DIMLIM
 70
     0
  9
$DIMTIH
 70
     0
  9
$DIMTOH
 70
     0
  9
$DIMSE1
 70
     0
  9
$DIMSE2
 70
     0
  9
$DIMTAD
 70
     1
  9
$DIMZIN
 70
     8
  9
$DIMBLK
  1

  9
$DIMASO
 70
     1
  9
$DIMSHO
 70
     1
  9
$DIMPOST
  1

  9
$DIMAPOST
  1

  9
$DIMALT
 70
     0
  9
$DIMALTD
 70
     3
  9
$DIMALTF
 40
0.03937007874016
  9
$DIMLFAC
 40
1.0
  9
$DIMTOFL
 70
     1
  9
$DIMTVP
 40
0.0
  9
$DIMTIX
 70
     0
  9
$DIMSOXD
 70
     0
  9
$DIMSAH
 70
     0
  9
$DIMBLK1
  1

  9
$DIMBLK2
  1

  9
$DIMSTYLE
  2
ISO-25
  9
$DIMCLRD
 70
     0
  9
$DIMCLRE
 70
     0
  9
$DIMCLRT
 70
     0
  9
$DIMTFAC
 40
1.0
  9
$DIMGAP
 40
0.625
  9
$DIMJUST
 70
     0
  9
$DIMSD1
 70
     0
  9
$DIMSD2
 70
     0
  9
$DIMTOLJ
 70
     0
  9
$DIMTZIN
 70
     8
  9
$DIMALTZ
 70
     0
  9
$DIMALTTZ
 70
     0
  9
$DIMUPT
 70
     0
  9
$DIMDEC
 70
     2
  9
$DIMTDEC
 70
     2
  9
$DIMALTU
 70
     2
  9
$DIMALTTD
 70
     3
  9
$DIMTXSTY
  7
Standard
  9
$DIMAUNIT
 70
     0
  9
$DIMADEC
 70
     0
  9
$DIMALTRND
 40
0.0
  9
$DIMAZIN
 70
     0
  9
$DIMDSEP
 70
    44
  9
$DIMATFIT
 70
     3
  9
$DIMFRAC
 70
     0
  9
$DIMLDRBLK
  1

  9
$DIMLUNIT
 70
     2
  9
$DIMLWD
 70
    -2
  9
$DIMLWE
 70
    -2
  9
$DIMTMOVE
 70
     0
  9
$LUNITS
 70
     2
  9
$LUPREC
 70
     4
  9
$SKETCHINC
 40
1.0
  9
$FILLETRAD
 40
10.0
  9
$AUNITS
 70
     0
  9
$AUPREC
 70
     0
  9
$MENU
  1
.
  9
$ELEVATION
 40
0.0
  9
$PELEVATION
 40
0.0
  9
$THICKNESS
 40
0.0
  9
$LIMCHECK
 70
     0
  9
$CHAMFERA
 40
10.0
  9
$CHAMFERB
 40
10.0
  9
$CHAMFERC
 40
20.0
  9
$CHAMFERD
 40
0.0
  9
$SKPOLY
 70
     0
  9
$TDCREATE
 40
2456498.829776227
  9
$TDUCREATE
 40
2456498.454776227
  9
$TDUPDATE
 40
2456498.829776239
  9
$TDUUPDATE
 40
2456498.454776239
  9
$TDINDWG
 40
0.0000000116
  9
$TDUSRTIMER
 40
0.0000000116
  9
$USRTIMER
 70
     1
  9
$ANGBASE
 50
0.0
  9
$ANGDIR
 70
     0
  9
$PDMODE
 70
     0
  9
$PDSIZE
 40
0.0
  9
$PLINEWID
 40
0.0
  9
$SPLFRAME
 70
     0
  9
$SPLINETYPE
 70
     6
  9
$SPLINESEGS
 70
     8
  9
$HANDSEED
  5
2CE
  9
$SURFTAB1
 70
     6
  9
$SURFTAB2
 70
     6
  9
$SURFTYPE
 70
     6
  9
$SURFU
 70
     6
  9
$SURFV
 70
     6
  9
$UCSBASE
  2

  9
$UCSNAME
  2

  9
$UCSORG
 10
0.0
 20
0.0
 30
0.0
  9
$UCSXDIR
 10
1.0
 20
0.0
 30
0.0
  9
$UCSYDIR
 10
0.0
 20
1.0
 30
0.0
  9
$UCSORTHOREF
  2

  9
$UCSORTHOVIEW
 70
     0
  9
$UCSORGTOP
 10
0.0
 20
0.0
 30
0.0
  9
$UCSORGBOTTOM
 10
0.0
 20
0.0
 30
0.0
  9
$UCSORGLEFT
 10
0.0
 20
0.0
 30
0.0
  9
$UCSORGRIGHT
 10
0.0
 20
0.0
 30
0.0
  9
$UCSORGFRONT
 10
0.0
 20
0.0
 30
0.0
  9
$UCSORGBACK
 10
0.0
 20
0.0
 30
0.0
  9
$PUCSBASE
  2

  9
$PUCSNAME
  2

  9
$PUCSORG
 10
0.0
 20
0.0
 30
0.0
  9
$PUCSXDIR
 10
1.0
 20
0.0
 30
0.0
  9
$PUCSYDIR
 10
0.0
 20
1.0
 30
0.0
  9
$PUCSORTHOREF
  2

  9
$PUCSORTHOVIEW
 70
     0
  9
$PUCSORGTOP
 10
0.0
 20
0.0
 30
0.0
  9
$PUCSORGBOTTOM
 10
0.0
 20
0.0
 30
0.0
  9
$PUCSORGLEFT
 10
0.0
 20
0.0
 30
0.0
  9
$PUCSORGRIGHT
 10
0.0
 20
0.0
 30
0.0
  9
$PUCSORGFRONT
 10
0.0
 20
0.0
 30
0.0
  9
$PUCSORGBACK
 10
0.0
 20
0.0
 30
0.0
  9
$USERI1
 70
     0
  9
$USERI2
 70
     0
  9
$USERI3
 70
     0
  9
$USERI4
 70
     0
  9
$USERI5
 70
     0
  9
$USERR1
 40
0.0
  9
$USERR2
 40
0.0
  9
$USERR3
 40
0.0
  9
$USERR4
 40
0.0
  9
$USERR5
 40
0.0
  9
$WORLDVIEW
 70
     1
  9
$SHADEDGE
 70
     3
  9
$SHADEDIF
 70
    70
  9
$TILEMODE
 70
     1
  9
$MAXACTVP
 70
    64
  9
$PINSBASE
 10
0.0
 20
0.0
 30
0.0
  9
$PLIMCHECK
 70
     0
  9
$PEXTMIN
 10
1.000000000000000E+20
 20
1.000000000000000E+20
 30
1.000000000000000E+20
  9
$PEXTMAX
 10
-1.000000000000000E+20
 20
-1.000000000000000E+20
 30
-1.000000000000000E+20
  9
$PLIMMIN
 10
0.0
 20
0.0
  9
$PLIMMAX
 10
420.0
 20
297.0
  9
$UNITMODE
 70
     0
  9
$VISRETAIN
 70
     1
  9
$PLINEGEN
 70
     0
  9
$PSLTSCALE
 70
     1
  9
$TREEDEPTH
 70
  3020
  9
$CMLSTYLE
  2
Standard
  9
$CMLJUST
 70
     0
  9
$CMLSCALE
 40
20.0
  9
$PROXYGRAPHICS
 70
     1
  9
$MEASUREMENT
 70
     1
  9
$CELWEIGHT
370
    -1
  9
$ENDCAPS
280
     0
  9
$JOINSTYLE
280
     0
  9
$LWDISPLAY
290
     0
  9
$INSUNITS
 70
     4
  9
$HYPERLINKBASE
  1

  9
$STYLESHEET
  1

  9
$XEDIT
290
     1
  9
$CEPSNTYPE
380
     0
  9
$PSTYLEMODE
290
     1
  9
$FINGERPRINTGUID
  2
{8A83D562-7580-42F9-A180-0D5F258830F6}
  9
$VERSIONGUID
  2
{FAEB1C32-E019-11D5-929B-00C0DF256EC4}
  9
$EXTNAMES
290
     1
  9
$PSVPSCALE
 40
0.0
  9
$OLESTARTUP
290
     0
  9
$SORTENTS
280
   127
  9
$INDEXCTL
280
     0
  9
$HIDETEXT
280
     1
  9
$XCLIPFRAME
290
     0
  9
$HALOGAP
280
     0
  9
$OBSCOLOR
 70
   257
  9
$OBSLTYPE
280
     0
  9
$INTERSECTIONDISPLAY
280
     0
  9
$INTERSECTIONCOLOR
 70
   257
  9
$DIMASSOC
280
     2
  9
$PROJECTNAME
  1

  0
ENDSEC
  0
SECTION
  2
CLASSES
  0
CLASS
  1
ACDBDICTIONARYWDFLT
  2
AcDbDictionaryWithDefault
  3
ObjectDBX Classes
 90
        0
 91
        4
280
     0
281
     0
  0
CLASS
  1
VISUALSTYLE
  2
AcDbVisualStyle
  3
ObjectDBX Classes
 90
     4095
 91
        4
280
     0
281
     0
  0
ENDSEC
  0
SECTION
  2
TABLES
  0
TABLE
  2
VPORT
  5
8
330
0
100
AcDbSymbolTable
 70
     1
  0
VPORT
  5
29
330
8
100
AcDbSymbolTableRecord
100
AcDbViewportTableRecord
  2
*Active
 70
     0
 10
0.0
 20
0.0
 11
1.0
 21
1.0
 12
0.0
 22
0.0
 13
0.0
 23
0.0
 14
10.0
 24
10.0
 15
10.0
 25
10.0
 16
0.0
 26
0.0
 36
1.0
 17
0.0
 27
0.0
 37
0.0
 40
3267.0
 41
1.414141414141414
 42
50.0
 43
0.0
 44
0.0
 50
0.0
 51
0.0
 71
     0
 72
 10000
 73
     1
 74
     3
 75
     0
 76
     0
 77
     0
 78
     0
281
     0
 65
     1
110
0.0
120
0.0
130
0.0
111
1.0
121
0.0
131
0.0
112
0.0
122
1.0
132
0.0
 79
     0
146
0.0
  0
ENDTAB
  0
TABLE
  2
LTYPE
  5
5
330
0
100
AcDbSymbolTable
 70
     3
  0
LTYPE
  5
14
330
5
100
AcDbSymbolTableRecord
100
AcDbLinetypeTableRecord
  2
ByBlock
 70
     0
  3

 72
    65
 73
     0
 40
0.0
  0
LTYPE
  5
15
330
5
100
AcDbSymbolTableRecord
100
AcDbLinetypeTableRecord
  2
ByLayer
 70
     0
  3

 72
    65
 73
     0
 40
0.0
  0
LTYPE
  5
16
330
5
100
AcDbSymbolTableRecord
100
AcDbLinetypeTableRecord
  2
Continuous
 70
     0
  3
Solid line
 72
    65
 73
     0
 40
0.0
  0
LTYPE
  5
3C
330
5
100
AcDbSymbolTableRecord
100
AcDbLinetypeTableRecord
  2
JWW_CENTER1
 70
     0
  3
-----  --  ----------  --  -----
 72
    65
 73
     4
 40
6.773333333333333
 49
4.233333333333333
 74
     0
 49
-0.8466666666666667
 74
     0
 49
0.8466666666666667
 74
     0
 49
-0.8466666666666667
 74
     0
  0
LTYPE
  5
3D
330
5
100
AcDbSymbolTableRecord
100
AcDbLinetypeTableRecord
  2
JWW_DASHED1
 70
     0
  3
-  --  --  --  --  --  --  --  -
 72
    65
 73
     2
 40
1.693333333333333
 49
0.8466666666666667
 74
     0
 49
-0.8466666666666667
 74
     0
  0
ENDTAB
  0
TABLE
  2
LAYER
  5
2
330
0
100
AcDbSymbolTable
 70
     7
  0
LAYER
  5
10
330
2
100
AcDbSymbolTableRecord
100
AcDbLayerTableRecord
  2
0
 70
     0
 62
     7
  6
Continuous
370
    -3
390
F
  0
LAYER
  5
3E
330
2
100
AcDbSymbolTableRecord
100
AcDbLayerTableRecord
  2
0-1
 70
     0
 62
     7
  6
Continuous
370
    -3
390
F
  0
LAYER
  5
3F
330
2
100
AcDbSymbolTableRecord
100
AcDbLayerTableRecord
  2
0-0
 70
     0
 62
     7
  6
Continuous
370
    -3
390
F
  0
LAYER
  5
40
330
2
100
AcDbSymbolTableRecord
100
AcDbLayerTableRecord
  2
0-2
 70
     0
 62
     7
  6
Continuous
370
    -3
390
F
  0
LAYER
  5
41
330
2
100
AcDbSymbolTableRecord
100
AcDbLayerTableRecord
  2
0-F
 70
     0
 62
     7
  6
Continuous
370
    -3
390
F
  0
LAYER
  5
42
330
2
100
AcDbSymbolTableRecord
100
AcDbLayerTableRecord
  2
0-E
 70
     0
 62
     7
  6
Continuous
370
    -3
390
F
  0
LAYER
  5
43
330
2
100
AcDbSymbolTableRecord
100
AcDbLayerTableRecord
  2
F-5
 70
     0
 62
     7
  6
Continuous
370
    -3
390
F
  0
ENDTAB
  0
TABLE
  2
STYLE
  5
3
330
0
100
AcDbSymbolTable
 70
     2
  0
STYLE
  5
11
330
3
100
AcDbSymbolTableRecord
100
AcDbTextStyleTableRecord
  2
Standard
 70
     0
 40
0.0
 41
1.0
 50
0.0
 71
     0
 42
2.5
  3
txt
  4

1001
ACAD
1000

1071
        0
  0
STYLE
  5
3B
330
3
100
AcDbSymbolTableRecord
100
AcDbTextStyleTableRecord
  2
ＭＳ ゴシック
 70
     0
 40
1.0
 41
1.0
 50
0.0
 71
     0
 42
10.0
  3

  4

1001
ACAD
1000
MS Gothic
1071
    32817
  0
ENDTAB
  0
TABLE
  2
VIEW
  5
6
330
0
100
AcDbSymbolTable
 70
     0
  0
ENDTAB
  0
TABLE
  2
UCS
  5
7
330
0
100
AcDbSymbolTable
 70
     0
  0
ENDTAB
  0
TABLE
  2
APPID
  5
9
330
0
100
AcDbSymbolTable
 70
     1
  0
APPID
  5
12
330
9
100
AcDbSymbolTableRecord
100
AcDbRegAppTableRecord
  2
ACAD
 70
     0
  0
ENDTAB
  0
TABLE
  2
DIMSTYLE
  5
A
330
0
100
AcDbSymbolTable
 70
     1
100
AcDbDimStyleTable
  0
DIMSTYLE
105
27
330
A
100
AcDbSymbolTableRecord
100
AcDbDimStyleTableRecord
  2
ISO-25
 70
     0
 41
2.5
 42
0.625
 43
3.75
 44
1.25
 73
     0
 74
     0
 77
     1
 78
     8
140
2.5
141
2.5
143
0.03937007874016
147
0.625
171
     3
172
     1
271
     2
272
     2
274
     3
278
    44
283
     0
284
     8
340
11
  0
ENDTAB
  0
TABLE
  2
BLOCK_RECORD
  5
1
330
0
100
AcDbSymbolTable
 70
     1
  0
BLOCK_RECORD
  5
1F
330
1
100
AcDbSymbolTableRecord
100
AcDbBlockTableRecord
  2
*Model_Space
340
22
  0
BLOCK_RECORD
  5
1B
330
1
100
AcDbSymbolTableRecord
100
AcDbBlockTableRecord
  2
*Paper_Space
340
1E
  0
BLOCK_RECORD
  5
23
330
1
100
AcDbSymbolTableRecord
100
AcDbBlockTableRecord
  2
*Paper_Space0
340
26
  0
ENDTAB
  0
ENDSEC
  0
SECTION
  2
BLOCKS
  0
BLOCK
  5
20
330
1F
100
AcDbEntity
  8
0
100
AcDbBlockBegin
  2
*Model_Space
 70
     0
 10
0.0
 20
0.0
 30
0.0
  3
*Model_Space
  1

  0
ENDBLK
  5
21
330
1F
100
AcDbEntity
  8
0
100
AcDbBlockEnd
  0
BLOCK
  5
1C
330
1B
100
AcDbEntity
 67
     1
  8
0
100
AcDbBlockBegin
  2
*Paper_Space
 70
     0
 10
0.0
 20
0.0
 30
0.0
  3
*Paper_Space
  1

  0
ENDBLK
  5
1D
330
1B
100
AcDbEntity
 67
     1
  8
0
100
AcDbBlockEnd
  0
BLOCK
  5
24
330
23
100
AcDbEntity
  8
0
100
AcDbBlockBegin
  2
*Paper_Space0
 70
     0
 10
0.0
 20
0.0
 30
0.0
  3
*Paper_Space0
  1

  0
ENDBLK
  5
25
330
23
100
AcDbEntity
  8
0
100
AcDbBlockEnd
  0
ENDSEC
  0
SECTION
  2
ENTITIES
  0
LINE
  5
44
330
1F
100
AcDbEntity
  8
0-1
  6
Continuous
 62
     3
370
     9
100
AcDbLine
 10
902.9972385715803
 20
-713.7934225344799
 30
0.0
 11
928.1569197371198
 21
-711.2777018577464
 31
0.0
  0
LINE
  5
45
330
1F
100
AcDbEntity
  8
0-1
  6
Continuous
 62
     3
370
     9
100
AcDbLine
 10
902.9972385715803
 20
-713.7934225344799
 30
0.0
 11
902.9972385715803
 21
598.7065774655201
 31
0.0
  0
LINE
  5
46
330
1F
100
AcDbEntity
  8
0-1
  6
Continuous
 62
     3
370
     9
100
AcDbLine
 10
1063.639377903295
 20
-681.9087600094036
 30
0.0
 11
902.9972385715803
 21
-688.7933400545381
 31
0.0
  0
LINE
  5
47
330
1F
100
AcDbEntity
  8
0-1
  6
Continuous
 62
     3
370
     9
100
AcDbLine
 10
902.9972385715803
 20
598.7065774655201
 30
0.0
 11
928.1569197371198
 21
596.190609348966
 31
0.0
  0
LINE
  5
48
330
1F
100
AcDbEntity
  8
0-1
  6
Continuous
 62
     3
370
     9
100
AcDbLine
 10
915.4974035314615
 20
496.4302960571621
 30
0.0
 11
914.2470901076865
 21
571.0385988179286
 31
0.0
  0
LINE
  5
49
330
1F
100
AcDbEntity
  8
0-1
  6
Continuous
 62
     3
370
     9
100
AcDbLine
 10
942.9973705394843
 20
497.6615566145909
 30
0.0
 11
944.2474365234364
 21
569.695248020841
 31
0.0
  0
LINE
  5
4A
330
1F
100
AcDbEntity
  8
0-0
  6
Continuous
 62
     2
370
     9
100
AcDbLine
 10
1161.747040619722
 20
583.7859561606246
 30
0.0
 11
1161.747040619722
 21
529.0441018795826
 31
0.0
  0
LINE
  5
4B
330
1F
100
AcDbEntity
  8
0-0
  6
Continuous
 62
     2
370
     9
100
AcDbLine
 10
1115.497073611697
 20
560.7248121308538
 30
0.0
 11
1115.497073611697
 21
597.4748220284454
 31
0.0
  0
LINE
  5
4C
330
1F
100
AcDbEntity
  8
0-0
  6
Continuous
 62
     2
370
     9
100
AcDbLine
 10
1117.862598316088
 20
558.2281443204619
 30
0.0
 11
1152.286673880911
 21
556.3676442940704
 31
0.0
  0
LINE
  5
4D
330
1F
100
AcDbEntity
  8
0-0
  6
Continuous
 62
     2
370
     9
100
AcDbLine
 10
1117.895260372678
 20
507.3582283840159
 30
0.0
 11
1176.746842667864
 21
504.9563300256995
 31
0.0
  0
LINE
  5
4E
330
1F
100
AcDbEntity
  8
0-0
  6
Continuous
 62
     2
370
     9
100
AcDbLine
 10
1151.747007627745
 20
655.9916182436035
 30
0.0
 11
1151.747007627745
 21
672.9068519587662
 31
0.0
  0
LINE
  5
4F
330
1F
100
AcDbEntity
  8
0-0
  6
Continuous
 62
     2
370
     9
100
AcDbLine
 10
1152.479429502745
 20
632.826054608683
 30
0.0
 11
1152.479429502745
 21
654.2236607108742
 31
0.0
  0
LINE
  5
50
330
1F
100
AcDbEntity
  8
0-0
  6
Continuous
 62
     2
370
     9
100
AcDbLine
 10
1156.014602248732
 20
650.6884879648868
 30
0.0
 11
1152.479429502745
 21
654.2236607108742
 31
0.0
  0
LINE
  5
51
330
1F
100
AcDbEntity
  8
0-0
  6
Continuous
 62
     2
370
     9
100
AcDbLine
 10
1156.747024123732
 20
648.9207778719828
 30
0.0
 11
1156.747024123732
 21
639.5940286373951
 31
0.0
  0
LINE
  5
52
330
1F
100
AcDbEntity
  8
0-0
  6
Continuous
 62
     2
370
     9
100
AcDbLine
 10
1161.747040619722
 20
-698.8731723893153
 30
0.0
 11
1161.747040619722
 21
-644.1310088084975
 31
0.0
  0
LINE
  5
53
330
1F
100
AcDbEntity
  8
0-0
  6
Continuous
 62
     2
370
     9
100
AcDbLine
 10
1115.497073611697
 20
-675.8117809197194
 30
0.0
 11
1115.497073611697
 21
-712.5619763971764
 31
0.0
  0
LINE
  5
54
330
1F
100
AcDbEntity
  8
0-0
  6
Continuous
 62
     2
370
     9
100
AcDbLine
 10
1117.862598316088
 20
-673.3153605491526
 30
0.0
 11
1152.286673880911
 21
-671.4546130829359
 31
0.0
  0
LINE
  5
55
330
1F
100
AcDbEntity
  8
0-0
  6
Continuous
 62
     2
370
     9
100
AcDbLine
 10
1117.895260372678
 20
-635.1409633125633
 30
0.0
 11
1154.552975216428
 21
-636.6370463401682
 31
0.0
  0
LINE
  5
56
330
1F
100
AcDbEntity
  8
0-0
  6
Continuous
 62
     2
370
     9
100
AcDbLine
 10
1115.497073611697
 20
-624.9432259023007
 30
0.0
 11
1115.497073611697
 21
-632.6430583030589
 31
0.0
  0
LINE
  5
57
330
1F
100
AcDbEntity
  8
0-0
  6
Continuous
 62
     2
370
     9
100
AcDbLine
 10
1117.895260372678
 20
-622.4453208927963
 30
0.0
 11
1176.746842667864
 21
-620.043298814565
 31
0.0
  0
LINE
  5
58
330
1F
100
AcDbEntity
  8
0-0
  6
Continuous
 62
     2
370
     9
100
AcDbLine
 10
1151.747007627745
 20
-771.0788344722943
 30
0.0
 11
1151.747007627745
 21
-787.9938826075869
 31
0.0
  0
LINE
  5
59
330
1F
100
AcDbEntity
  8
0-0
  6
Continuous
 62
     2
370
     9
100
AcDbLine
 10
1152.479429502745
 20
-747.9131471174588
 30
0.0
 11
1152.479429502745
 21
-769.3109387995202
 31
0.0
  0
LINE
  5
5A
330
1F
100
AcDbEntity
  8
0-0
  6
Continuous
 62
     2
370
     9
100
AcDbLine
 10
1156.014602248732
 20
-765.775518613712
 30
0.0
 11
1152.479429502745
 21
-769.3109387995202
 31
0.0
  0
LINE
  5
5B
330
1F
100
AcDbEntity
  8
0-0
  6
Continuous
 62
     2
370
     9
100
AcDbLine
 10
1156.747024123732
 20
-764.0077466608483
 30
0.0
 11
1156.747024123732
 21
-754.6810592862204
 31
0.0
  0
LINE
  5
5C
330
1F
100
AcDbEntity
  8
0-1
  6
Continuous
 62
     3
370
     9
100
AcDbLine
 10
1081.374132311022
 20
34.61887984358498
 30
0.0
 11
1093.992820945947
 21
33.35706046805797
 31
0.0
  0
LINE
  5
5D
330
1F
100
AcDbEntity
  8
0-1
  6
Continuous
 62
     3
370
     9
100
AcDbLine
 10
1077.997073611697
 20
380.448941472593
 30
0.0
 11
1077.997073611697
 21
-495.5369000207548
 31
0.0
  0
LINE
  5
5E
330
1F
100
AcDbEntity
  8
0-1
  6
Continuous
 62
     3
370
     9
100
AcDbLine
 10
1081.374132311022
 20
50.29419260751808
 30
0.0
 11
1093.992820945947
 21
51.55613570295998
 31
0.0
  0
LINE
  5
5F
330
1F
100
AcDbEntity
  8
0-1
  6
Continuous
 62
     3
370
     9
100
AcDbLine
 10
1063.639377903295
 20
468.0717128645909
 30
0.0
 11
902.9972385715803
 21
474.9562310497703
 31
0.0
  0
LINE
  5
60
330
1F
100
AcDbEntity
  8
0-0
  6
Continuous
 62
     2
370
     9
100
AcDbLine
 10
1117.895260372678
 20
520.0538708037828
 30
0.0
 11
1154.552975216428
 21
521.5501394112579
 31
0.0
  0
LINE
  5
61
330
1F
100
AcDbEntity
  8
0-1
  6
JWW_CENTER1
 62
     3
370
     9
100
AcDbLine
 10
1048.262477565455
 20
42.45653622555153
 30
0.0
 11
1115.086818385768
 21
42.45653622555153
 31
0.0
  0
LINE
  5
62
330
1F
100
AcDbEntity
  8
0-1
  6
Continuous
 62
     3
370
     9
100
AcDbLine
 10
1077.997073611697
 20
560.1203166441536
 30
0.0
 11
1077.997073611697
 21
510.8783073008243
 31
0.0
  0
LINE
  5
63
330
1F
100
AcDbEntity
  8
0-1
  6
Continuous
 62
     3
370
     9
100
AcDbLine
 10
1111.907958984374
 20
-699.8586633429142
 30
0.0
 11
932.783549540751
 21
-707.5351745403924
 31
0.0
  0
LINE
  5
64
330
1F
100
AcDbEntity
  8
0-1
  6
Continuous
 62
     3
370
     9
100
AcDbLine
 10
1112.317224451014
 20
-673.3041020372212
 30
0.0
 11
1107.726720861486
 21
-672.5979706433765
 31
0.0
  0
LINE
  5
65
330
1F
100
AcDbEntity
  8
0-1
  6
Continuous
 62
     3
370
     9
100
AcDbLine
 10
1115.497073611697
 20
-677.0105650004308
 30
0.0
 11
1115.497073611697
 21
-696.1119914085276
 31
0.0
  0
LINE
  5
66
330
1F
100
AcDbEntity
  8
0-1
  6
Continuous
 62
     3
370
     9
100
AcDbLine
 10
1112.317224451014
 20
558.2167620886202
 30
0.0
 11
1107.726720861486
 21
557.5108162746409
 31
0.0
  0
LINE
  5
67
330
1F
100
AcDbEntity
  8
0-1
  6
Continuous
 62
     3
370
     9
100
AcDbLine
 10
1111.907958984374
 20
584.7715089741786
 30
0.0
 11
932.783549540751
 21
592.4483294714327
 31
0.0
  0
LINE
  5
68
330
1F
100
AcDbEntity
  8
0-1
  6
Continuous
 62
     3
370
     9
100
AcDbLine
 10
1115.497073611697
 20
581.0250226196621
 30
0.0
 11
1115.497073611697
 21
561.9234106316952
 31
0.0
  0
LINE
  5
69
330
1F
100
AcDbEntity
  8
0-1
  6
Continuous
 62
     3
370
     9
100
AcDbLine
 10
907.9972550675677
 20
487.4563960096538
 30
0.0
 11
902.9972385715803
 21
487.4563960096538
 31
0.0
  0
LINE
  5
6A
330
1F
100
AcDbEntity
  8
0-1
  6
Continuous
 62
     3
370
     9
100
AcDbLine
 10
907.9972550675677
 20
579.9565774655201
 30
0.0
 11
902.9972385715803
 21
579.9565774655201
 31
0.0
  0
LINE
  5
6B
330
1F
100
AcDbEntity
  8
0-1
  6
Continuous
 62
     3
370
     9
100
AcDbLine
 10
910.4971395956511
 20
493.8158468911996
 30
0.0
 11
910.4971395956511
 21
489.9560330979119
 31
0.0
  0
LINE
  5
6C
330
1F
100
AcDbEntity
  8
0-1
  6
Continuous
 62
     3
370
     9
100
AcDbLine
 10
912.8854287637239
 20
496.3135044608742
 30
0.0
 11
1070.83270098712
 21
503.3858294714327
 31
0.0
  0
LINE
  5
6D
330
1F
100
AcDbEntity
  8
0-1
  6
Continuous
 62
     3
370
     9
100
AcDbLine
 10
910.4971395956511
 20
496.4302960571621
 30
0.0
 11
910.4971395956511
 21
577.4564454976161
 31
0.0
  0
LINE
  5
6E
330
1F
100
AcDbEntity
  8
0-1
  6
Continuous
 62
     3
370
     9
100
AcDbLine
 10
912.8854287637239
 20
571.0994690142951
 30
0.0
 11
1074.414887299409
 21
563.8665555588494
 31
0.0
  0
LINE
  5
6F
330
1F
100
AcDbEntity
  8
0-1
  6
Continuous
 62
     3
370
     9
100
AcDbLine
 10
-700.7769198031042
 20
474.9564784895909
 30
0.0
 11
-873.2773651947855
 21
474.9564784895909
 31
0.0
  0
LINE
  5
70
330
1F
100
AcDbEntity
  8
0-1
  6
Continuous
 62
     3
370
     9
100
AcDbLine
 10
-700.7769198031042
 20
467.4563300256995
 30
0.0
 11
-873.2773651947855
 21
467.4563300256995
 31
0.0
  0
LINE
  5
71
330
1F
100
AcDbEntity
  8
0-1
  6
Continuous
 62
     3
370
     9
100
AcDbLine
 10
-713.2770847629854
 20
579.9565774655201
 30
0.0
 11
-860.7772002349031
 21
579.9565774655201
 31
0.0
  0
LINE
  5
72
330
1F
100
AcDbEntity
  8
0-1
  6
Continuous
 62
     3
370
     9
100
AcDbLine
 10
-713.2770847629854
 20
487.4563960096538
 30
0.0
 11
-860.7772002349031
 21
487.4563960096538
 31
0.0
  0
LINE
  5
73
330
1F
100
AcDbEntity
  8
0-2
  6
Continuous
 62
     6
370
     5
100
AcDbLine
 10
-857.0272497228666
 20
495.5813300256995
 30
0.0
 11
-857.0272497228666
 21
571.8316434494744
 31
0.0
  0
LINE
  5
74
330
1F
100
AcDbEntity
  8
0-2
  6
Continuous
 62
     6
370
     5
100
AcDbLine
 10
-717.0270352750208
 20
495.5813300256995
 30
0.0
 11
-857.0272497228666
 21
495.5813300256995
 31
0.0
  0
LINE
  5
75
330
1F
100
AcDbEntity
  8
0-2
  6
Continuous
 62
     6
370
     5
100
AcDbLine
 10
-717.0270352750208
 20
571.8316434494744
 30
0.0
 11
-717.0270352750208
 21
495.5813300256995
 31
0.0
  0
LINE
  5
76
330
1F
100
AcDbEntity
  8
0-2
  6
Continuous
 62
     6
370
     5
100
AcDbLine
 10
-857.0272497228666
 20
576.8314125056412
 30
0.0
 11
-717.0270352750208
 21
576.8314125056412
 31
0.0
  0
LINE
  5
77
330
1F
100
AcDbEntity
  8
0-2
  6
Continuous
 62
     6
370
     5
100
AcDbLine
 10
-862.0272662188563
 20
495.5813300256995
 30
0.0
 11
-862.0272662188563
 21
571.8316434494744
 31
0.0
  0
LINE
  5
78
330
1F
100
AcDbEntity
  8
0-2
  6
Continuous
 62
     6
370
     5
100
AcDbLine
 10
-717.0270352750208
 20
490.581313529712
 30
0.0
 11
-857.0272497228666
 21
490.581313529712
 31
0.0
  0
LINE
  5
79
330
1F
100
AcDbEntity
  8
0-2
  6
Continuous
 62
     6
370
     5
100
AcDbLine
 10
-712.0270187790334
 20
495.5813300256995
 30
0.0
 11
-712.0270187790334
 21
571.8316434494744
 31
0.0
  0
LINE
  5
7A
330
1F
100
AcDbEntity
  8
0-2
  6
Continuous
 62
     6
370
     5
100
AcDbLine
 10
-857.0272497228666
 20
571.8316434494744
 30
0.0
 11
-717.0270352750208
 21
571.8316434494744
 31
0.0
  0
LINE
  5
7B
330
1F
100
AcDbEntity
  8
0-1
  6
Continuous
 62
     3
370
     9
100
AcDbLine
 10
-888.2771672429271
 20
482.456626953487
 30
0.0
 11
-888.2771672429271
 21
549.0352600299201
 31
0.0
  0
LINE
  5
7C
330
1F
100
AcDbEntity
  8
0-1
  6
Continuous
 62
     3
370
     9
100
AcDbLine
 10
-685.7771177549625
 20
482.456626953487
 30
0.0
 11
-685.7771177549625
 21
549.0352600299201
 31
0.0
  0
LINE
  5
7D
330
1F
100
AcDbEntity
  8
0-1
  6
JWW_CENTER1
 62
     3
370
     9
100
AcDbLine
 10
-828.9846471838041
 20
656.2066434494744
 30
0.0
 11
-746.9712128510355
 21
656.2066434494744
 31
0.0
  0
LINE
  5
7E
330
1F
100
AcDbEntity
  8
0-1
  6
JWW_CENTER1
 62
     3
370
     9
100
AcDbLine
 10
-1500.777146622941
 20
-99.50092721934027
 30
0.0
 11
-1500.777146622941
 21
-17.48749288656938
 31
0.0
  0
LINE
  5
7F
330
1F
100
AcDbEntity
  8
0-1
  6
JWW_CENTER1
 62
     3
370
     9
100
AcDbLine
 10
-73.27707651499168
 20
-99.50092721934027
 30
0.0
 11
-73.27707651499168
 21
-17.48749288656938
 31
0.0
  0
LINE
  5
80
330
1F
100
AcDbEntity
  8
0-1
  6
JWW_CENTER1
 62
     3
370
     9
100
AcDbLine
 10
-1563.365070239918
 20
-57.54342253447987
 30
0.0
 11
-25.75477393897813
 21
-57.54342253447987
 31
0.0
  0
LINE
  5
81
330
1F
100
AcDbEntity
  8
0-1
  6
Continuous
 62
     3
370
     9
100
AcDbLine
 10
1099.247205579603
 20
492.456165065816
 30
0.0
 11
1099.247205579603
 21
547.627079999308
 31
0.0
  0
LINE
  5
82
330
1F
100
AcDbEntity
  8
0-1
  6
Continuous
 62
     3
370
     9
100
AcDbLine
 10
1102.997403531461
 20
23.40663916051824
 30
0.0
 11
1102.997403531461
 21
-138.4934842294734
 31
0.0
  0
LINE
  5
83
330
1F
100
AcDbEntity
  8
0-1
  6
Continuous
 62
     3
370
     9
100
AcDbLine
 10
1081.374132311022
 20
-149.7057249125402
 30
0.0
 11
1093.992820945947
 21
-148.4439055370132
 31
0.0
  0
LINE
  5
84
330
1F
100
AcDbEntity
  8
0-1
  6
Continuous
 62
     3
370
     9
100
AcDbLine
 10
1081.374132311022
 20
-165.3810376764733
 30
0.0
 11
1093.992820945947
 21
-166.6429807719152
 31
0.0
  0
LINE
  5
85
330
1F
100
AcDbEntity
  8
0-1
  6
JWW_CENTER1
 62
     3
370
     9
100
AcDbLine
 10
1048.262477565455
 20
-157.5433812945067
 30
0.0
 11
1115.086818385768
 21
-157.5433812945067
 31
0.0
  0
LINE
  5
86
330
1F
100
AcDbEntity
  8
0-1
  6
Continuous
 62
     3
370
     9
100
AcDbLine
 10
1099.247205579603
 20
-607.5433812945067
 30
0.0
 11
1099.247205579603
 21
-662.7140487881735
 31
0.0
  0
LINE
  5
87
330
1F
100
AcDbEntity
  8
0-1
  6
JWW_DASHED1
 62
     3
370
     9
100
AcDbLine
 10
905.4973705394843
 20
547.4565939615121
 30
0.0
 11
907.9972550675677
 21
546.2065279775578
 31
0.0
  0
LINE
  5
88
330
1F
100
AcDbEntity
  8
0-1
  6
JWW_DASHED1
 62
     3
370
     9
100
AcDbLine
 10
905.4973705394843
 20
519.956626953487
 30
0.0
 11
907.9972550675677
 21
521.2066929374367
 31
0.0
  0
LINE
  5
89
330
1F
100
AcDbEntity
  8
0-1
  6
Continuous
 62
     3
370
     9
100
AcDbLine
 10
902.9972385715803
 20
518.7065609695327
 30
0.0
 11
905.4973705394843
 21
519.956626953487
 31
0.0
  0
LINE
  5
8A
330
1F
100
AcDbEntity
  8
0-1
  6
Continuous
 62
     3
370
     9
100
AcDbLine
 10
902.9972385715803
 20
548.7066599454619
 30
0.0
 11
905.4973705394843
 21
547.4565939615121
 31
0.0
  0
LINE
  5
8B
330
1F
100
AcDbEntity
  8
0-0
  6
Continuous
 62
     2
370
     9
100
AcDbLine
 10
1115.497568491343
 20
517.5562132341037
 30
0.0
 11
1115.497568491343
 21
509.8558859536996
 31
0.0
  0
LINE
  5
8C
330
1F
100
AcDbEntity
  8
0-1
  6
Continuous
 62
     3
370
     9
100
AcDbLine
 10
1077.99732105152
 20
380.942955078487
 30
0.0
 11
1077.99732105152
 21
453.0857674465159
 31
0.0
  0
LINE
  5
8D
330
1F
100
AcDbEntity
  8
0-1
  6
Continuous
 62
     3
370
     9
100
AcDbLine
 10
1120.497337547509
 20
-403.0575035099838
 30
0.0
 11
1120.497337547509
 21
287.9706584410286
 31
0.0
  0
LINE
  5
8E
330
1F
100
AcDbEntity
  8
0-1
  6
Continuous
 62
     3
370
     9
100
AcDbLine
 10
1077.997073611697
 20
-496.0306661868236
 30
0.0
 11
1077.997073611697
 21
-666.9224434315976
 31
0.0
  0
LINE
  5
8F
330
1F
100
AcDbEntity
  8
0-1
  6
Continuous
 62
     3
370
     9
100
AcDbLine
 10
1078.25267894848
 20
-494.0896244981587
 30
0.0
 11
1102.861806508657
 21
-402.2478804103213
 31
0.0
  0
LINE
  5
90
330
1F
100
AcDbEntity
  8
0-1
  6
Continuous
 62
     3
370
     9
100
AcDbLine
 10
1095.497007627745
 20
-498.3349495351132
 30
0.0
 11
1095.497007627745
 21
-603.7934307824736
 31
0.0
  0
LINE
  5
91
330
1F
100
AcDbEntity
  8
0-1
  6
Continuous
 62
     3
370
     9
100
AcDbLine
 10
1095.752860404349
 20
-496.3939078464529
 30
0.0
 11
1120.241732210726
 21
-404.998668918559
 31
0.0
  0
LINE
  5
92
330
1F
100
AcDbEntity
  8
0-0
  6
Continuous
 62
     2
370
     9
100
AcDbLine
 10
1176.746842667864
 20
-795.0432575745964
 30
0.0
 11
1176.746842667864
 21
679.9564125056412
 31
0.0
  0
LINE
  5
93
330
1F
100
AcDbEntity
  8
0-2
  6
Continuous
 62
     6
370
     5
100
AcDbLine
 10
907.9972550675677
 20
576.8314125056412
 30
0.0
 11
907.9972550675677
 21
490.581313529712
 31
0.0
  0
LINE
  5
94
330
1F
100
AcDbEntity
  8
0-2
  6
Continuous
 62
     6
370
     5
100
AcDbLine
 10
905.4973705394843
 20
490.581313529712
 30
0.0
 11
910.4971395956511
 21
490.581313529712
 31
0.0
  0
LINE
  5
95
330
1F
100
AcDbEntity
  8
0-2
  6
Continuous
 62
     6
370
     5
100
AcDbLine
 10
905.4973705394843
 20
576.8314125056412
 30
0.0
 11
910.4971395956511
 21
576.8314125056412
 31
0.0
  0
LINE
  5
96
330
1F
100
AcDbEntity
  8
0-2
  6
Continuous
 62
     6
370
     5
100
AcDbLine
 10
910.4860048036323
 20
570.956696236637
 30
0.0
 11
947.9971395956511
 21
569.2770747205913
 31
0.0
  0
LINE
  5
97
330
1F
100
AcDbEntity
  8
0-2
  6
Continuous
 62
     6
370
     5
100
AcDbLine
 10
947.9971395956511
 20
498.135651314762
 30
0.0
 11
910.4860048036323
 21
496.4560297987163
 31
0.0
  0
LINE
  5
98
330
1F
100
AcDbEntity
  8
0-2
  6
Continuous
 62
     6
370
     5
100
AcDbLine
 10
905.4973705394843
 20
576.8314125056412
 30
0.0
 11
905.4973705394843
 21
490.581313529712
 31
0.0
  0
LINE
  5
99
330
1F
100
AcDbEntity
  8
0-2
  6
Continuous
 62
     6
370
     5
100
AcDbLine
 10
905.4973705394843
 20
490.9660824539077
 30
0.0
 11
910.4971395956511
 21
495.9658515100745
 31
0.0
  0
LINE
  5
9A
330
1F
100
AcDbEntity
  8
0-2
  6
Continuous
 62
     6
370
     5
100
AcDbLine
 10
905.4973705394843
 20
568.7480483797953
 30
0.0
 11
910.4971395956511
 21
573.747817435962
 31
0.0
  0
LINE
  5
9B
330
1F
100
AcDbEntity
  8
0-2
  6
Continuous
 62
     6
370
     5
100
AcDbLine
 10
905.4973705394843
 20
575.818888751416
 30
0.0
 11
906.5098942937072
 21
576.8314125056412
 31
0.0
  0
LINE
  5
9C
330
1F
100
AcDbEntity
  8
0-2
  6
Continuous
 62
     6
370
     5
100
AcDbLine
 10
905.4973705394843
 20
561.6767131285286
 30
0.0
 11
914.2572351404135
 21
570.4368251692784
 31
0.0
  0
LINE
  5
9D
330
1F
100
AcDbEntity
  8
0-2
  6
Continuous
 62
     6
370
     5
100
AcDbLine
 10
905.4973705394843
 20
554.6058727569078
 30
0.0
 11
914.3737792968739
 21
563.4820340744744
 31
0.0
  0
LINE
  5
9E
330
1F
100
AcDbEntity
  8
0-2
  6
Continuous
 62
     6
370
     5
100
AcDbLine
 10
905.4973705394843
 20
547.5347849454619
 30
0.0
 11
914.4903234533365
 21
556.5274904194911
 31
0.0
  0
LINE
  5
9F
330
1F
100
AcDbEntity
  8
0-2
  6
Continuous
 62
     6
370
     5
100
AcDbLine
 10
905.4973705394843
 20
540.4639445738411
 30
0.0
 11
914.6071150496198
 21
549.5734416441536
 31
0.0
  0
LINE
  5
A0
330
1F
100
AcDbEntity
  8
0-2
  6
Continuous
 62
     6
370
     5
100
AcDbLine
 10
905.4973705394843
 20
533.3926093225745
 30
0.0
 11
914.7234117662595
 21
542.6184031095244
 31
0.0
  0
LINE
  5
A1
330
1F
100
AcDbEntity
  8
0-2
  6
Continuous
 62
     6
370
     5
100
AcDbLine
 10
905.4973705394843
 20
526.3217689509537
 30
0.0
 11
914.8397084828969
 21
535.6641068943662
 31
0.0
  0
LINE
  5
A2
330
1F
100
AcDbEntity
  8
0-2
  6
Continuous
 62
     6
370
     5
100
AcDbLine
 10
905.4973705394843
 20
519.250433699687
 30
0.0
 11
914.9565000791802
 21
528.7093157995577
 31
0.0
  0
LINE
  5
A3
330
1F
100
AcDbEntity
  8
0-2
  6
Continuous
 62
     6
370
     5
100
AcDbLine
 10
905.4973705394843
 20
512.1795933280617
 30
0.0
 11
915.0727967958198
 21
521.7550195843995
 31
0.0
  0
LINE
  5
A4
330
1F
100
AcDbEntity
  8
0-2
  6
Continuous
 62
     6
370
     5
100
AcDbLine
 10
905.4973705394843
 20
505.1082580767951
 30
0.0
 11
915.1895883921031
 21
514.800228489591
 31
0.0
  0
LINE
  5
A5
330
1F
100
AcDbEntity
  8
0-2
  6
Continuous
 62
     6
370
     5
100
AcDbLine
 10
905.4973705394843
 20
498.0374177051743
 30
0.0
 11
915.3058851087405
 21
507.8459322744328
 31
0.0
  0
LINE
  5
A6
330
1F
100
AcDbEntity
  8
0-2
  6
Continuous
 62
     6
370
     5
100
AcDbLine
 10
911.0108246674406
 20
496.4795365818662
 30
0.0
 11
915.4224292652032
 21
500.8911411796242
 31
0.0
  0
LINE
  5
A7
330
1F
100
AcDbEntity
  8
0-2
  6
Continuous
 62
     6
370
     5
100
AcDbLine
 10
944.1694929793073
 20
564.9933965111285
 30
0.0
 11
947.9971395956511
 21
568.8212905672953
 31
0.0
  0
LINE
  5
A8
330
1F
100
AcDbEntity
  8
0-2
  6
Continuous
 62
     6
370
     5
100
AcDbLine
 10
944.0440409892324
 20
557.7971041494328
 30
0.0
 11
947.9971395956511
 21
561.7502027558538
 31
0.0
  0
LINE
  5
A9
330
1F
100
AcDbEntity
  8
0-2
  6
Continuous
 62
     6
370
     5
100
AcDbLine
 10
943.9188364389781
 20
550.6008117877326
 30
0.0
 11
947.9971395956511
 21
554.6793623842285
 31
0.0
  0
LINE
  5
AA
330
1F
100
AcDbEntity
  8
0-2
  6
Continuous
 62
     6
370
     5
100
AcDbLine
 10
943.7936318887239
 20
543.4045194260369
 30
0.0
 11
947.9971395956511
 21
547.6082745727871
 31
0.0
  0
LINE
  5
AB
330
1F
100
AcDbEntity
  8
0-2
  6
Continuous
 62
     6
370
     5
100
AcDbLine
 10
943.6684273384719
 20
536.2082270643413
 30
0.0
 11
947.9971395956511
 21
540.5371867613411
 31
0.0
  0
LINE
  5
AC
330
1F
100
AcDbEntity
  8
0-2
  6
Continuous
 62
     6
370
     5
100
AcDbLine
 10
943.5429753483947
 20
529.0116872628204
 30
0.0
 11
947.9971395956511
 21
533.4660989498951
 31
0.0
  0
LINE
  5
AD
330
1F
100
AcDbEntity
  8
0-2
  6
Continuous
 62
     6
370
     5
100
AcDbLine
 10
943.4175233583198
 20
521.8153949011202
 30
0.0
 11
947.9971395956511
 21
526.3950111384537
 31
0.0
  0
LINE
  5
AE
330
1F
100
AcDbEntity
  8
0-2
  6
Continuous
 62
     6
370
     5
100
AcDbLine
 10
943.2925662478885
 20
514.6191025394245
 30
0.0
 11
947.9971395956511
 21
519.3239233270077
 31
0.0
  0
LINE
  5
AF
330
1F
100
AcDbEntity
  8
0-2
  6
Continuous
 62
     6
370
     5
100
AcDbLine
 10
943.1671142578114
 20
507.4228101777288
 30
0.0
 11
947.9971395956511
 21
512.2528355155617
 31
0.0
  0
LINE
  5
B0
330
1F
100
AcDbEntity
  8
0-2
  6
Continuous
 62
     6
370
     5
100
AcDbLine
 10
943.0419097075594
 20
500.2260229363827
 30
0.0
 11
947.9971395956511
 21
505.1815002642951
 31
0.0
  0
LINE
  5
B1
330
1F
100
AcDbEntity
  8
0-2
  6
Continuous
 62
     6
370
     5
100
AcDbLine
 10
947.9971395956511
 20
569.2770747205913
 30
0.0
 11
947.9971395956511
 21
498.135651314762
 31
0.0
  0
LINE
  5
B2
330
1F
100
AcDbEntity
  8
0-2
  6
Continuous
 62
     6
370
     5
100
AcDbLine
 10
910.4860048036323
 20
496.4560297987163
 30
0.0
 11
910.4860048036323
 21
490.581313529712
 31
0.0
  0
LINE
  5
B3
330
1F
100
AcDbEntity
  8
0-2
  6
Continuous
 62
     6
370
     5
100
AcDbLine
 10
910.4971395956511
 20
576.8314125056412
 30
0.0
 11
910.4971395956511
 21
570.956696236637
 31
0.0
  0
LINE
  5
B4
330
1F
100
AcDbEntity
  8
0-1
  6
Continuous
 62
     3
370
     9
100
AcDbLine
 10
1095.497502507391
 20
383.246867267041
 30
0.0
 11
1095.497502507391
 21
488.7064619936035
 31
0.0
  0
LINE
  5
B5
330
1F
100
AcDbEntity
  8
0-1
  6
Continuous
 62
     3
370
     9
100
AcDbLine
 10
1120.241979650549
 20
289.9119475695142
 30
0.0
 11
1095.753355283995
 21
381.305949298291
 31
0.0
  0
LINE
  5
B6
330
1F
100
AcDbEntity
  8
0-1
  6
Continuous
 62
     3
370
     9
100
AcDbLine
 10
1078.252926388303
 20
379.0017896699163
 30
0.0
 11
1102.861806508657
 21
287.1611590612764
 31
0.0
  0
LINE
  5
B7
330
1F
100
AcDbEntity
  8
0-1
  6
Continuous
 62
     3
370
     9
100
AcDbLine
 10
-880.7772662188563
 20
518.706313529712
 30
0.0
 11
-865.7772167308917
 21
518.706313529712
 31
0.0
  0
LINE
  5
B8
330
1F
100
AcDbEntity
  8
0-1
  6
Continuous
 62
     3
370
     9
100
AcDbLine
 10
-880.7772662188563
 20
548.7064125056412
 30
0.0
 11
-865.7772167308917
 21
548.7064125056412
 31
0.0
  0
LINE
  5
B9
330
1F
100
AcDbEntity
  8
0-1
  6
Continuous
 62
     3
370
     9
100
AcDbLine
 10
-693.2770187790334
 20
518.706313529712
 30
0.0
 11
-708.277068266998
 21
518.706313529712
 31
0.0
  0
LINE
  5
BA
330
1F
100
AcDbEntity
  8
0-1
  6
Continuous
 62
     3
370
     9
100
AcDbLine
 10
-693.2770187790334
 20
548.7064125056412
 30
0.0
 11
-708.277068266998
 21
548.7064125056412
 31
0.0
  0
LINE
  5
BB
330
1F
100
AcDbEntity
  8
0-1
  6
Continuous
 62
     3
370
     9
100
AcDbLine
 10
-692.9520065720021
 20
546.2065279775578
 30
0.0
 11
-708.277068266998
 21
546.2065279775578
 31
0.0
  0
LINE
  5
BC
330
1F
100
AcDbEntity
  8
0-1
  6
Continuous
 62
     3
370
     9
100
AcDbLine
 10
-692.9520065720021
 20
521.2061980577954
 30
0.0
 11
-692.9520065720021
 21
546.2065279775578
 31
0.0
  0
LINE
  5
BD
330
1F
100
AcDbEntity
  8
0-1
  6
Continuous
 62
     3
370
     9
100
AcDbLine
 10
-693.2770187790334
 20
548.7064125056412
 30
0.0
 11
-692.9520065720021
 21
546.2065279775578
 31
0.0
  0
LINE
  5
BE
330
1F
100
AcDbEntity
  8
0-1
  6
Continuous
 62
     3
370
     9
100
AcDbLine
 10
-692.9520065720021
 20
521.2061980577954
 30
0.0
 11
-693.2770187790334
 21
518.706313529712
 31
0.0
  0
LINE
  5
BF
330
1F
100
AcDbEntity
  8
0-1
  6
Continuous
 62
     3
370
     9
100
AcDbLine
 10
-881.1022784258876
 20
546.2065279775578
 30
0.0
 11
-865.7772167308917
 21
546.2065279775578
 31
0.0
  0
LINE
  5
C0
330
1F
100
AcDbEntity
  8
0-1
  6
Continuous
 62
     3
370
     9
100
AcDbLine
 10
-881.1022784258876
 20
521.2061980577954
 30
0.0
 11
-865.7772167308917
 21
521.2061980577954
 31
0.0
  0
LINE
  5
C1
330
1F
100
AcDbEntity
  8
0-1
  6
Continuous
 62
     3
370
     9
100
AcDbLine
 10
-880.7772662188563
 20
548.7064125056412
 30
0.0
 11
-881.1022784258876
 21
546.2065279775578
 31
0.0
  0
LINE
  5
C2
330
1F
100
AcDbEntity
  8
0-1
  6
Continuous
 62
     3
370
     9
100
AcDbLine
 10
-881.1022784258876
 20
521.2061980577954
 30
0.0
 11
-880.7772662188563
 21
518.706313529712
 31
0.0
  0
LINE
  5
C3
330
1F
100
AcDbEntity
  8
0-1
  6
Continuous
 62
     3
370
     9
100
AcDbLine
 10
-881.1022784258876
 20
521.2061980577954
 30
0.0
 11
-881.1022784258876
 21
546.2065279775578
 31
0.0
  0
LINE
  5
C4
330
1F
100
AcDbEntity
  8
0-1
  6
Continuous
 62
     3
370
     9
100
AcDbLine
 10
-880.7772662188563
 20
482.456626953487
 30
0.0
 11
-880.7772662188563
 21
518.706313529712
 31
0.0
  0
LINE
  5
C5
330
1F
100
AcDbEntity
  8
0-1
  6
Continuous
 62
     3
370
     9
100
AcDbLine
 10
-865.7772167308917
 20
546.2065279775578
 30
0.0
 11
-865.7772167308917
 21
574.956313529712
 31
0.0
  0
LINE
  5
C6
330
1F
100
AcDbEntity
  8
0-1
  6
Continuous
 62
     3
370
     9
100
AcDbLine
 10
-865.7772167308917
 20
492.4564125056412
 30
0.0
 11
-865.7772167308917
 21
521.2061980577954
 31
0.0
  0
LINE
  5
C7
330
1F
100
AcDbEntity
  8
0-1
  6
Continuous
 62
     3
370
     9
100
AcDbLine
 10
-708.277068266998
 20
546.2065279775578
 30
0.0
 11
-708.277068266998
 21
574.956313529712
 31
0.0
  0
LINE
  5
C8
330
1F
100
AcDbEntity
  8
0-1
  6
Continuous
 62
     3
370
     9
100
AcDbLine
 10
-693.2770187790334
 20
548.7064125056412
 30
0.0
 11
-693.2770187790334
 21
549.0352600299201
 31
0.0
  0
LINE
  5
C9
330
1F
100
AcDbEntity
  8
0-1
  6
Continuous
 62
     3
370
     9
100
AcDbLine
 10
-692.9520065720021
 20
521.2061980577954
 30
0.0
 11
-708.277068266998
 21
521.2061980577954
 31
0.0
  0
LINE
  5
CA
330
1F
100
AcDbEntity
  8
0-1
  6
Continuous
 62
     3
370
     9
100
AcDbLine
 10
-708.277068266998
 20
492.4564125056412
 30
0.0
 11
-708.277068266998
 21
521.2061980577954
 31
0.0
  0
LINE
  5
CB
330
1F
100
AcDbEntity
  8
0-1
  6
Continuous
 62
     3
370
     9
100
AcDbLine
 10
-693.2770187790334
 20
482.456626953487
 30
0.0
 11
-693.2770187790334
 21
518.706313529712
 31
0.0
  0
LINE
  5
CC
330
1F
100
AcDbEntity
  8
0-1
  6
Continuous
 62
     3
370
     9
100
AcDbLine
 10
1081.374132311022
 20
234.6190448034639
 30
0.0
 11
1093.992820945947
 21
233.3573491478472
 31
0.0
  0
LINE
  5
CD
330
1F
100
AcDbEntity
  8
0-1
  6
Continuous
 62
     3
370
     9
100
AcDbLine
 10
1081.374132311022
 20
250.2942338474912
 30
0.0
 11
1093.992820945947
 21
251.5559295031079
 31
0.0
  0
LINE
  5
CE
330
1F
100
AcDbEntity
  8
0-1
  6
Continuous
 62
     3
370
     9
100
AcDbLine
 10
1081.374132311022
 20
-349.7058898724237
 30
0.0
 11
1093.992820945947
 21
-348.444194216807
 31
0.0
  0
LINE
  5
CF
330
1F
100
AcDbEntity
  8
0-1
  6
Continuous
 62
     3
370
     9
100
AcDbLine
 10
1081.374132311022
 20
-365.3810789164464
 30
0.0
 11
1093.992820945947
 21
-366.6427745720631
 31
0.0
  0
LINE
  5
D0
330
1F
100
AcDbEntity
  8
0-1
  6
Continuous
 62
     3
370
     9
100
AcDbLine
 10
1102.997403531461
 20
287.1611590612764
 30
0.0
 11
1102.997403531461
 21
261.0007075330913
 31
0.0
  0
LINE
  5
D1
330
1F
100
AcDbEntity
  8
0-1
  6
Continuous
 62
     3
370
     9
100
AcDbLine
 10
1102.997403531461
 20
223.4068041204017
 30
0.0
 11
1102.997403531461
 21
61.50643329058482
 31
0.0
  0
LINE
  5
D2
330
1F
100
AcDbEntity
  8
0-1
  6
JWW_CENTER1
 62
     3
370
     9
100
AcDbLine
 10
1115.086818385768
 20
242.4565774655201
 30
0.0
 11
1048.262477565455
 21
242.4565774655201
 31
0.0
  0
LINE
  5
D3
330
1F
100
AcDbEntity
  8
0-1
  6
JWW_CENTER1
 62
     3
370
     9
100
AcDbLine
 10
1115.086818385768
 20
-357.5434225344799
 30
0.0
 11
1048.262477565455
 21
-357.5434225344799
 31
0.0
  0
LINE
  5
D4
330
1F
100
AcDbEntity
  8
0-1
  6
Continuous
 62
     3
370
     9
100
AcDbLine
 10
1102.997403531461
 20
-176.59327835954
 30
0.0
 11
1102.997403531461
 21
-338.4936491893569
 31
0.0
  0
LINE
  5
D5
330
1F
100
AcDbEntity
  8
0-1
  6
Continuous
 62
     3
370
     9
100
AcDbLine
 10
1102.997403531461
 20
-376.0875526020465
 30
0.0
 11
1102.997403531461
 21
-401.0876350819882
 31
0.0
  0
LINE
  5
D6
330
1F
100
AcDbEntity
  8
0-0
  6
Continuous
 62
     2
370
     9
100
AcDbLine
 10
-837.0271837389146
 20
629.8429201069911
 30
0.0
 11
-837.0271837389146
 21
642.3893563137034
 31
0.0
  0
LINE
  5
D7
330
1F
100
AcDbEntity
  8
0-0
  6
Continuous
 62
     2
370
     9
100
AcDbLine
 10
-842.0272002349031
 20
629.8429201069911
 30
0.0
 11
-842.0272002349031
 21
642.3893563137034
 31
0.0
  0
LINE
  5
D8
330
1F
100
AcDbEntity
  8
0-0
  6
Continuous
 62
     2
370
     9
100
AcDbLine
 10
-737.027101258974
 20
629.8429201069911
 30
0.0
 11
-737.027101258974
 21
642.3893563137034
 31
0.0
  0
LINE
  5
D9
330
1F
100
AcDbEntity
  8
0-0
  6
Continuous
 62
     2
370
     9
100
AcDbLine
 10
-732.0270847629854
 20
629.8429201069911
 30
0.0
 11
-732.0270847629854
 21
642.3893563137034
 31
0.0
  0
LINE
  5
DA
330
1F
100
AcDbEntity
  8
0-0
  6
Continuous
 62
     2
370
     9
100
AcDbLine
 10
-1474.41354700037
 20
-2.543364798519292
 30
0.0
 11
-1486.959921347129
 21
-2.543364798519292
 31
0.0
  0
LINE
  5
DB
330
1F
100
AcDbEntity
  8
0-0
  6
Continuous
 62
     2
370
     9
100
AcDbLine
 10
-99.64055241765209
 20
-2.543364798519292
 30
0.0
 11
-87.09436365076044
 21
-2.543364798519292
 31
0.0
  0
LINE
  5
DC
330
1F
100
AcDbEntity
  8
0-0
  6
Continuous
 62
     2
370
     9
100
AcDbLine
 10
-1449.512378589527
 20
-53.12587938097124
 30
0.0
 11
-1449.025973758182
 21
-56.29335655052557
 31
0.0
  0
LINE
  5
DD
330
1F
100
AcDbEntity
  8
0-0
  6
Continuous
 62
     2
370
     9
100
AcDbLine
 10
-1464.402131776553
 20
-44.52920134307362
 30
0.0
 11
-1464.809355864654
 21
-47.18089020234231
 31
0.0
  0
LINE
  5
DE
330
1F
100
AcDbEntity
  8
0-0
  6
Continuous
 62
     2
370
     9
100
AcDbLine
 10
-1449.512378589527
 20
-53.12587938097124
 30
0.0
 11
-1464.402131776553
 21
-44.52920134307362
 31
0.0
  0
LINE
  5
DF
330
1F
100
AcDbEntity
  8
0-0
  6
Continuous
 62
     2
370
     9
100
AcDbLine
 10
-1449.025973758182
 20
-56.29335655052557
 30
0.0
 11
-1464.809355864654
 21
-47.18089020234231
 31
0.0
  0
LINE
  5
E0
330
1F
100
AcDbEntity
  8
0-0
  6
Continuous
 62
     2
370
     9
100
AcDbLine
 10
-1464.809355864654
 20
-47.18089020234231
 30
0.0
 11
-1464.809355864654
 21
-57.54342253447987
 31
0.0
  0
LINE
  5
E1
330
1F
100
AcDbEntity
  8
0-0
  6
Continuous
 62
     2
370
     9
100
AcDbLine
 10
-1449.025973758182
 20
-56.29335655052557
 30
0.0
 11
-1449.025973758182
 21
-57.54342253447987
 31
0.0
  0
LINE
  5
E2
330
1F
100
AcDbEntity
  8
0-0
  6
Continuous
 62
     2
370
     9
100
AcDbLine
 10
-1474.41354700037
 20
-7.54338129450673
 30
0.0
 11
-1486.959921347129
 21
-7.54338129450673
 31
0.0
  0
LINE
  5
E3
330
1F
100
AcDbEntity
  8
0-0
  6
Continuous
 62
     2
370
     9
100
AcDbLine
 10
-99.64079985747503
 20
-7.54338129450673
 30
0.0
 11
-87.09436365076044
 21
-7.54338129450673
 31
0.0
  0
LINE
  5
E4
330
1F
100
AcDbEntity
  8
0-1
  6
Continuous
 62
     3
370
     9
100
AcDbLine
 10
-1442.01699334222
 20
-56.29348027043591
 30
0.0
 11
-1442.01699334222
 21
-57.54342253447987
 31
0.0
  0
LINE
  5
E5
330
1F
100
AcDbEntity
  8
0-1
  6
Continuous
 62
     3
370
     9
100
AcDbLine
 10
-1443.27021418391
 20
-54.13011390113581
 30
0.0
 11
-1442.01699334222
 21
-56.29348027043591
 31
0.0
  0
LINE
  5
E6
330
1F
100
AcDbEntity
  8
0-1
  6
Continuous
 62
     3
370
     9
100
AcDbLine
 10
-1418.080221640098
 20
-39.5867146058464
 30
0.0
 11
-1416.829165896854
 21
-41.75131817425893
 31
0.0
  0
LINE
  5
E7
330
1F
100
AcDbEntity
  8
0-1
  6
Continuous
 62
     3
370
     9
100
AcDbLine
 10
-1443.27021418391
 20
-54.1302376210507
 30
0.0
 11
-1418.080221640098
 21
-39.5867146058464
 31
0.0
  0
LINE
  5
E8
330
1F
100
AcDbEntity
  8
0-1
  6
Continuous
 62
     3
370
     9
100
AcDbLine
 10
-1442.01699334222
 20
-56.29348027043591
 30
0.0
 11
-1416.829165896854
 21
-41.75131817425893
 31
0.0
  0
LINE
  5
E9
330
1F
100
AcDbEntity
  8
0-1
  6
Continuous
 62
     3
370
     9
100
AcDbLine
 10
-1416.829165896854
 20
-41.75131817425893
 30
0.0
 11
-1416.829165896854
 21
-57.54342253447987
 31
0.0
  0
LINE
  5
EA
330
1F
100
AcDbEntity
  8
0-0
  6
Continuous
 62
     2
370
     9
100
AcDbLine
 10
1176.746842667864
 20
-795.0432575745964
 30
0.0
 11
1153.756713867186
 21
-790.4452070704775
 31
0.0
  0
LINE
  5
EB
330
1F
100
AcDbEntity
  8
0-0
  6
Continuous
 62
     2
370
     9
100
AcDbLine
 10
1176.746842667864
 20
679.9564125056412
 30
0.0
 11
1153.756713867186
 21
675.3579908417913
 31
0.0
  0
LINE
  5
EC
330
1F
100
AcDbEntity
  8
0-0
  6
Continuous
 62
     2
370
     9
100
AcDbLine
 10
904.1735674883864
 20
620.0274772226993
 30
0.0
 11
1144.614802180109
 21
627.0993073536118
 31
0.0
  0
LINE
  5
ED
330
1F
100
AcDbEntity
  8
0-0
  6
Continuous
 62
     2
370
     9
100
AcDbLine
 10
901.747172587626
 20
-732.6158605425536
 30
0.0
 11
901.747172587626
 21
617.5285824539077
 31
0.0
  0
LINE
  5
EE
330
1F
100
AcDbEntity
  8
0-0
  6
Continuous
 62
     2
370
     9
100
AcDbLine
 10
904.1597108583198
 20
604.8717880862995
 30
0.0
 11
1149.684349266259
 21
596.278203046183
 31
0.0
  0
LINE
  5
EF
330
1F
100
AcDbEntity
  8
0-0
  6
Continuous
 62
     2
370
     9
100
AcDbLine
 10
904.1597108583198
 20
-719.9588187351247
 30
0.0
 11
1149.684349266259
 21
-711.365357414914
 31
0.0
  0
LINE
  5
F0
330
1F
100
AcDbEntity
  8
0-0
  6
Continuous
 62
     2
370
     9
100
AcDbLine
 10
904.1735674883864
 20
-735.11469345139
 30
0.0
 11
1144.614802180109
 21
-742.1865235823026
 31
0.0
  0
LINE
  5
F1
330
1F
100
AcDbEntity
  8
0-1
  6
Continuous
 62
     3
370
     9
100
AcDbLine
 10
-679.5272827148438
 20
222.4566352014807
 30
0.0
 11
-679.5272827148438
 21
62.45660220950583
 31
0.0
  0
LINE
  5
F2
330
1F
100
AcDbEntity
  8
0-1
  6
Continuous
 62
     3
370
     9
100
AcDbLine
 10
-677.0273981867604
 20
62.45660220950583
 30
0.0
 11
-677.0273981867604
 21
222.4566352014807
 31
0.0
  0
LINE
  5
F3
330
1F
100
AcDbEntity
  8
0-1
  6
Continuous
 62
     3
370
     9
100
AcDbLine
 10
-694.5270847629854
 20
222.4566352014807
 30
0.0
 11
-694.5270847629854
 21
62.45660220950583
 31
0.0
  0
LINE
  5
F4
330
1F
100
AcDbEntity
  8
0-1
  6
Continuous
 62
     3
370
     9
100
AcDbLine
 10
-697.0269692910688
 20
62.45660220950583
 30
0.0
 11
-697.0269692910688
 21
222.4566352014807
 31
0.0
  0
LINE
  5
F5
330
1F
100
AcDbEntity
  8
0-1
  6
Continuous
 62
     3
370
     9
100
AcDbLine
 10
-479.5273651947855
 20
222.4566352014807
 30
0.0
 11
-479.5273651947855
 21
62.45660220950583
 31
0.0
  0
LINE
  5
F6
330
1F
100
AcDbEntity
  8
0-1
  6
Continuous
 62
     3
370
     9
100
AcDbLine
 10
-477.0274806667021
 20
62.45660220950583
 30
0.0
 11
-477.0274806667021
 21
222.4566352014807
 31
0.0
  0
LINE
  5
F7
330
1F
100
AcDbEntity
  8
0-1
  6
Continuous
 62
     3
370
     9
100
AcDbLine
 10
-497.0270517710094
 20
62.45660220950583
 30
0.0
 11
-497.0270517710094
 21
222.4566352014807
 31
0.0
  0
LINE
  5
F8
330
1F
100
AcDbEntity
  8
0-1
  6
Continuous
 62
     3
370
     9
100
AcDbLine
 10
-707.0270022830459
 20
232.4566681934556
 30
0.0
 11
-785.458497743349
 21
232.4566681934556
 31
0.0
  0
LINE
  5
F9
330
1F
100
AcDbEntity
  8
0-1
  6
Continuous
 62
     3
370
     9
100
AcDbLine
 10
-667.0273651947855
 20
52.45656921752641
 30
0.0
 11
-507.0270847629854
 21
52.45656921752641
 31
0.0
  0
LINE
  5
FA
330
1F
100
AcDbEntity
  8
0-1
  6
Continuous
 62
     3
370
     9
100
AcDbLine
 10
-507.0270847629854
 20
49.95643724962235
 30
0.0
 11
-667.0273651947855
 21
49.95643724962235
 31
0.0
  0
LINE
  5
FB
330
1F
100
AcDbEntity
  8
0-1
  6
Continuous
 62
     3
370
     9
100
AcDbLine
 10
-667.0273651947855
 20
252.4567341774099
 30
0.0
 11
-507.0270847629854
 21
252.4567341774099
 31
0.0
  0
LINE
  5
FC
330
1F
100
AcDbEntity
  8
0-1
  6
Continuous
 62
     3
370
     9
100
AcDbLine
 10
-667.0273651947855
 20
249.9568496493265
 30
0.0
 11
-507.0270847629854
 21
249.9568496493265
 31
0.0
  0
LINE
  5
FD
330
1F
100
AcDbEntity
  8
0-1
  6
Continuous
 62
     3
370
     9
100
AcDbLine
 10
-667.0273651947855
 20
234.956552721539
 30
0.0
 11
-507.0270847629854
 21
234.956552721539
 31
0.0
  0
LINE
  5
FE
330
1F
100
AcDbEntity
  8
0-1
  6
Continuous
 62
     3
370
     9
100
AcDbLine
 10
-667.0273651947855
 20
232.4566681934556
 30
0.0
 11
-507.0270847629854
 21
232.4566681934556
 31
0.0
  0
LINE
  5
FF
330
1F
100
AcDbEntity
  8
0-1
  6
Continuous
 62
     3
370
     9
100
AcDbLine
 10
-494.5271672429271
 20
347.9732070712015
 30
0.0
 11
-494.5271672429271
 21
262.4567671693848
 31
0.0
  0
LINE
  5
100
330
1F
100
AcDbEntity
  8
0-1
  6
Continuous
 62
     3
370
     9
100
AcDbLine
 10
-479.5273651947855
 20
336.7203862572222
 30
0.0
 11
-479.5273651947855
 21
262.4567671693848
 31
0.0
  0
LINE
  5
101
330
1F
100
AcDbEntity
  8
0-1
  6
Continuous
 62
     3
370
     9
100
AcDbLine
 10
-467.0273239548146
 20
249.9568496493265
 30
0.0
 11
-392.7638285868875
 21
249.9568496493265
 31
0.0
  0
LINE
  5
102
330
1F
100
AcDbEntity
  8
0-1
  6
Continuous
 62
     3
370
     9
100
AcDbLine
 10
-467.0273239548146
 20
234.956552721539
 30
0.0
 11
-381.5105128932646
 21
234.956552721539
 31
0.0
  0
LINE
  5
103
330
1F
100
AcDbEntity
  8
0-1
  6
Continuous
 62
     3
370
     9
100
AcDbLine
 10
-477.0274806667021
 20
22.45647024159723
 30
0.0
 11
-477.0274806667021
 21
-57.54342253447987
 31
0.0
  0
LINE
  5
104
330
1F
100
AcDbEntity
  8
0-1
  6
Continuous
 62
     3
370
     9
100
AcDbLine
 10
-479.5273651947855
 20
22.45647024159723
 30
0.0
 11
-479.5273651947855
 21
-57.54342253447987
 31
0.0
  0
LINE
  5
105
330
1F
100
AcDbEntity
  8
0-1
  6
Continuous
 62
     3
370
     9
100
AcDbLine
 10
-494.5271672429271
 20
22.45647024159723
 30
0.0
 11
-494.5271672429271
 21
-57.54342253447987
 31
0.0
  0
LINE
  5
106
330
1F
100
AcDbEntity
  8
0-1
  6
Continuous
 62
     3
370
     9
100
AcDbLine
 10
-497.0270517710094
 20
22.45647024159723
 30
0.0
 11
-497.0270517710094
 21
-57.54342253447987
 31
0.0
  0
LINE
  5
107
330
1F
100
AcDbEntity
  8
0-1
  6
Continuous
 62
     3
370
     9
100
AcDbLine
 10
-694.5270847629854
 20
22.45647024159723
 30
0.0
 11
-694.5270847629854
 21
-57.54342253447987
 31
0.0
  0
LINE
  5
108
330
1F
100
AcDbEntity
  8
0-1
  6
Continuous
 62
     3
370
     9
100
AcDbLine
 10
-697.0269692910688
 20
22.45647024159723
 30
0.0
 11
-697.0269692910688
 21
-57.54342253447987
 31
0.0
  0
LINE
  5
109
330
1F
100
AcDbEntity
  8
0-1
  6
Continuous
 62
     3
370
     9
100
AcDbLine
 10
-707.0270022830459
 20
32.45650323357665
 30
0.0
 11
-867.0272827148438
 21
32.45650323357665
 31
0.0
  0
LINE
  5
10A
330
1F
100
AcDbEntity
  8
0-1
  6
Continuous
 62
     3
370
     9
100
AcDbLine
 10
-707.0270022830459
 20
34.95663520148071
 30
0.0
 11
-867.0272827148438
 21
34.95663520148071
 31
0.0
  0
LINE
  5
10B
330
1F
100
AcDbEntity
  8
0-1
  6
Continuous
 62
     3
370
     9
100
AcDbLine
 10
-707.0270022830459
 20
49.95643724962235
 30
0.0
 11
-867.0272827148438
 21
49.95643724962235
 31
0.0
  0
LINE
  5
10C
330
1F
100
AcDbEntity
  8
0-1
  6
Continuous
 62
     3
370
     9
100
AcDbLine
 10
-707.0270022830459
 20
52.45656921752641
 30
0.0
 11
-867.0272827148438
 21
52.45656921752641
 31
0.0
  0
LINE
  5
10D
330
1F
100
AcDbEntity
  8
0-1
  6
Continuous
 62
     3
370
     9
100
AcDbLine
 10
-707.0270022830459
 20
234.956552721539
 30
0.0
 11
-867.0272827148438
 21
234.956552721539
 31
0.0
  0
LINE
  5
10E
330
1F
100
AcDbEntity
  8
0-1
  6
Continuous
 62
     3
370
     9
100
AcDbLine
 10
-707.0270022830459
 20
249.9568496493265
 30
0.0
 11
-867.0272827148438
 21
249.9568496493265
 31
0.0
  0
LINE
  5
10F
330
1F
100
AcDbEntity
  8
0-1
  6
Continuous
 62
     3
370
     9
100
AcDbLine
 10
-707.0270022830459
 20
252.4567341774099
 30
0.0
 11
-867.0272827148438
 21
252.4567341774099
 31
0.0
  0
LINE
  5
110
330
1F
100
AcDbEntity
  8
0-1
  6
Continuous
 62
     3
370
     9
100
AcDbLine
 10
-497.0270517710094
 20
262.4567671693848
 30
0.0
 11
-494.5271672429271
 21
347.9732070712015
 31
0.0
  0
LINE
  5
111
330
1F
100
AcDbEntity
  8
0-1
  6
Continuous
 62
     3
370
     9
100
AcDbLine
 10
-479.5273651947855
 20
336.7203862572222
 30
0.0
 11
-477.0274806667021
 21
262.4567671693848
 31
0.0
  0
LINE
  5
112
330
1F
100
AcDbEntity
  8
0-1
  6
Continuous
 62
     3
370
     9
100
AcDbLine
 10
-467.0273239548146
 20
252.4567341774099
 30
0.0
 11
-392.7638285868875
 21
249.9568496493265
 31
0.0
  0
LINE
  5
113
330
1F
100
AcDbEntity
  8
0-1
  6
Continuous
 62
     3
370
     9
100
AcDbLine
 10
-467.0273239548146
 20
232.4566681934556
 30
0.0
 11
-381.5105128932646
 21
234.956552721539
 31
0.0
  0
LINE
  5
114
330
1F
100
AcDbEntity
  8
0-1
  6
Continuous
 62
     3
370
     9
100
AcDbLine
 10
-494.5271672429271
 20
222.4566352014807
 30
0.0
 11
-494.5271672429271
 21
62.45660220950583
 31
0.0
  0
LINE
  5
115
330
1F
100
AcDbEntity
  8
0-1
  6
Continuous
 62
     3
370
     9
100
AcDbLine
 10
-679.5272827148438
 20
22.45647024159723
 30
0.0
 11
-679.5272827148438
 21
-57.54342253447987
 31
0.0
  0
LINE
  5
116
330
1F
100
AcDbEntity
  8
0-1
  6
Continuous
 62
     3
370
     9
100
AcDbLine
 10
-667.0273651947855
 20
34.95663520148071
 30
0.0
 11
-507.0270847629854
 21
34.95663520148071
 31
0.0
  0
LINE
  5
117
330
1F
100
AcDbEntity
  8
0-1
  6
Continuous
 62
     3
370
     9
100
AcDbLine
 10
-677.0273981867604
 20
22.45647024159723
 30
0.0
 11
-677.0273981867604
 21
-57.54342253447987
 31
0.0
  0
LINE
  5
118
330
1F
100
AcDbEntity
  8
0-1
  6
Continuous
 62
     3
370
     9
100
AcDbLine
 10
-667.0273651947855
 20
32.45650323357665
 30
0.0
 11
-507.0270847629854
 21
32.45650323357665
 31
0.0
  0
LINE
  5
119
330
1F
100
AcDbEntity
  8
0-1
  6
JWW_CENTER1
 62
     3
370
     9
100
AcDbLine
 10
-687.0271837389146
 20
-60.32650193956499
 30
0.0
 11
-687.0271837389146
 21
454.7228293130746
 31
0.0
  0
LINE
  5
11A
330
1F
100
AcDbEntity
  8
0-1
  6
JWW_CENTER1
 62
     3
370
     9
100
AcDbLine
 10
-487.0272662188563
 20
-60.32650193956499
 30
0.0
 11
-487.0272662188563
 21
365.3022838897203
 31
0.0
  0
LINE
  5
11B
330
1F
100
AcDbEntity
  8
0-1
  6
Continuous
 62
     3
370
     9
100
AcDbLine
 10
-894.5270022830459
 20
222.4566352014807
 30
0.0
 11
-894.5270022830459
 21
62.45660220950583
 31
0.0
  0
LINE
  5
11C
330
1F
100
AcDbEntity
  8
0-1
  6
Continuous
 62
     3
370
     9
100
AcDbLine
 10
-897.026886811127
 20
62.45660220950583
 30
0.0
 11
-897.026886811127
 21
222.4566352014807
 31
0.0
  0
LINE
  5
11D
330
1F
100
AcDbEntity
  8
0-1
  6
Continuous
 62
     3
370
     9
100
AcDbLine
 10
-879.5272002349031
 20
222.4566352014807
 30
0.0
 11
-879.5272002349031
 21
62.45660220950583
 31
0.0
  0
LINE
  5
11E
330
1F
100
AcDbEntity
  8
0-1
  6
Continuous
 62
     3
370
     9
100
AcDbLine
 10
-877.0273157068209
 20
62.45660220950583
 30
0.0
 11
-877.0273157068209
 21
222.4566352014807
 31
0.0
  0
LINE
  5
11F
330
1F
100
AcDbEntity
  8
0-1
  6
Continuous
 62
     3
370
     9
100
AcDbLine
 10
-1077.027233226879
 20
62.45660220950583
 30
0.0
 11
-1077.027233226879
 21
222.4566352014807
 31
0.0
  0
LINE
  5
120
330
1F
100
AcDbEntity
  8
0-1
  6
Continuous
 62
     3
370
     9
100
AcDbLine
 10
-867.0272827148438
 20
232.4566681934556
 30
0.0
 11
-788.5957872545396
 21
232.4566681934556
 31
0.0
  0
LINE
  5
121
330
1F
100
AcDbEntity
  8
0-1
  6
Continuous
 62
     3
370
     9
100
AcDbLine
 10
-907.0269198031042
 20
52.45656921752641
 30
0.0
 11
-1067.027200234903
 21
52.45656921752641
 31
0.0
  0
LINE
  5
122
330
1F
100
AcDbEntity
  8
0-1
  6
Continuous
 62
     3
370
     9
100
AcDbLine
 10
-1067.027200234903
 20
49.95643724962235
 30
0.0
 11
-907.0269198031042
 21
49.95643724962235
 31
0.0
  0
LINE
  5
123
330
1F
100
AcDbEntity
  8
0-1
  6
Continuous
 62
     3
370
     9
100
AcDbLine
 10
-907.0269198031042
 20
252.4567341774099
 30
0.0
 11
-1067.027200234903
 21
252.4567341774099
 31
0.0
  0
LINE
  5
124
330
1F
100
AcDbEntity
  8
0-1
  6
Continuous
 62
     3
370
     9
100
AcDbLine
 10
-907.0269198031042
 20
249.9568496493265
 30
0.0
 11
-1067.027200234903
 21
249.9568496493265
 31
0.0
  0
LINE
  5
125
330
1F
100
AcDbEntity
  8
0-1
  6
Continuous
 62
     3
370
     9
100
AcDbLine
 10
-907.0269198031042
 20
234.956552721539
 30
0.0
 11
-1067.027200234903
 21
234.956552721539
 31
0.0
  0
LINE
  5
126
330
1F
100
AcDbEntity
  8
0-1
  6
Continuous
 62
     3
370
     9
100
AcDbLine
 10
-907.0269198031042
 20
232.4566681934556
 30
0.0
 11
-1067.027200234903
 21
232.4566681934556
 31
0.0
  0
LINE
  5
127
330
1F
100
AcDbEntity
  8
0-1
  6
Continuous
 62
     3
370
     9
100
AcDbLine
 10
-1079.527117754963
 20
347.9732070712015
 30
0.0
 11
-1079.527117754963
 21
262.4567671693848
 31
0.0
  0
LINE
  5
128
330
1F
100
AcDbEntity
  8
0-1
  6
Continuous
 62
     3
370
     9
100
AcDbLine
 10
-1094.526919803104
 20
336.7203862572222
 30
0.0
 11
-1094.526919803104
 21
262.4567671693848
 31
0.0
  0
LINE
  5
129
330
1F
100
AcDbEntity
  8
0-1
  6
Continuous
 62
     3
370
     9
100
AcDbLine
 10
-1107.026961043075
 20
249.9568496493265
 30
0.0
 11
-1181.290456411001
 21
249.9568496493265
 31
0.0
  0
LINE
  5
12A
330
1F
100
AcDbEntity
  8
0-1
  6
Continuous
 62
     3
370
     9
100
AcDbLine
 10
-1107.026961043075
 20
234.956552721539
 30
0.0
 11
-1192.543772104625
 21
234.956552721539
 31
0.0
  0
LINE
  5
12B
330
1F
100
AcDbEntity
  8
0-1
  6
Continuous
 62
     3
370
     9
100
AcDbLine
 10
-1094.526919803104
 20
22.45647024159723
 30
0.0
 11
-1094.526919803104
 21
-57.54342253447987
 31
0.0
  0
LINE
  5
12C
330
1F
100
AcDbEntity
  8
0-1
  6
Continuous
 62
     3
370
     9
100
AcDbLine
 10
-1079.527117754963
 20
22.45647024159723
 30
0.0
 11
-1079.527117754963
 21
-57.54342253447987
 31
0.0
  0
LINE
  5
12D
330
1F
100
AcDbEntity
  8
0-1
  6
Continuous
 62
     3
370
     9
100
AcDbLine
 10
-1077.027233226879
 20
22.45647024159723
 30
0.0
 11
-1077.027233226879
 21
-57.54342253447987
 31
0.0
  0
LINE
  5
12E
330
1F
100
AcDbEntity
  8
0-1
  6
Continuous
 62
     3
370
     9
100
AcDbLine
 10
-879.5272002349031
 20
22.45647024159723
 30
0.0
 11
-879.5272002349031
 21
-57.54342253447987
 31
0.0
  0
LINE
  5
12F
330
1F
100
AcDbEntity
  8
0-1
  6
Continuous
 62
     3
370
     9
100
AcDbLine
 10
-877.0273157068209
 20
22.45647024159723
 30
0.0
 11
-877.0273157068209
 21
-57.54342253447987
 31
0.0
  0
LINE
  5
130
330
1F
100
AcDbEntity
  8
0-1
  6
Continuous
 62
     3
370
     9
100
AcDbLine
 10
-1077.027233226879
 20
262.4567671693848
 30
0.0
 11
-1079.527117754963
 21
347.9732070712015
 31
0.0
  0
LINE
  5
131
330
1F
100
AcDbEntity
  8
0-1
  6
Continuous
 62
     3
370
     9
100
AcDbLine
 10
-1094.526919803104
 20
336.7203862572222
 30
0.0
 11
-1097.026804331188
 21
262.4567671693848
 31
0.0
  0
LINE
  5
132
330
1F
100
AcDbEntity
  8
0-1
  6
Continuous
 62
     3
370
     9
100
AcDbLine
 10
-1107.026961043075
 20
252.4567341774099
 30
0.0
 11
-1181.290456411001
 21
249.9568496493265
 31
0.0
  0
LINE
  5
133
330
1F
100
AcDbEntity
  8
0-1
  6
Continuous
 62
     3
370
     9
100
AcDbLine
 10
-1107.026961043075
 20
232.4566681934556
 30
0.0
 11
-1192.543772104625
 21
234.956552721539
 31
0.0
  0
LINE
  5
134
330
1F
100
AcDbEntity
  8
0-1
  6
Continuous
 62
     3
370
     9
100
AcDbLine
 10
-1079.527117754963
 20
222.4566352014807
 30
0.0
 11
-1079.527117754963
 21
62.45660220950583
 31
0.0
  0
LINE
  5
135
330
1F
100
AcDbEntity
  8
0-1
  6
Continuous
 62
     3
370
     9
100
AcDbLine
 10
-894.5270022830459
 20
22.45647024159723
 30
0.0
 11
-894.5270022830459
 21
-57.54342253447987
 31
0.0
  0
LINE
  5
136
330
1F
100
AcDbEntity
  8
0-1
  6
Continuous
 62
     3
370
     9
100
AcDbLine
 10
-907.0269198031042
 20
34.95663520148071
 30
0.0
 11
-1067.027200234903
 21
34.95663520148071
 31
0.0
  0
LINE
  5
137
330
1F
100
AcDbEntity
  8
0-1
  6
Continuous
 62
     3
370
     9
100
AcDbLine
 10
-897.026886811127
 20
22.45647024159723
 30
0.0
 11
-897.026886811127
 21
-57.54342253447987
 31
0.0
  0
LINE
  5
138
330
1F
100
AcDbEntity
  8
0-1
  6
Continuous
 62
     3
370
     9
100
AcDbLine
 10
-907.0269198031042
 20
32.45650323357665
 30
0.0
 11
-1067.027200234903
 21
32.45650323357665
 31
0.0
  0
LINE
  5
139
330
1F
100
AcDbEntity
  8
0-1
  6
JWW_CENTER1
 62
     3
370
     9
100
AcDbLine
 10
-887.027101258974
 20
-60.32650193956499
 30
0.0
 11
-887.027101258974
 21
454.7228293130746
 31
0.0
  0
LINE
  5
13A
330
1F
100
AcDbEntity
  8
0-1
  6
JWW_CENTER1
 62
     3
370
     9
100
AcDbLine
 10
-1087.027018779033
 20
-60.32650193956499
 30
0.0
 11
-1087.027018779033
 21
365.3022838897203
 31
0.0
  0
LINE
  5
13B
330
1F
100
AcDbEntity
  8
0-1
  6
JWW_CENTER1
 62
     3
370
     9
100
AcDbLine
 10
-1206.503708298142
 20
242.4564537456098
 30
0.0
 11
-367.7492708773229
 21
242.4564537456098
 31
0.0
  0
LINE
  5
13C
330
1F
100
AcDbEntity
  8
0-1
  6
JWW_CENTER1
 62
     3
370
     9
100
AcDbLine
 10
-1295.843093459671
 20
42.45653622555153
 30
0.0
 11
-281.6144788587417
 21
42.45653622555153
 31
0.0
  0
LINE
  5
13D
330
1F
100
AcDbEntity
  8
0-1
  6
Continuous
 62
     3
370
     9
100
AcDbLine
 10
-1107.026961043075
 20
34.95663520148071
 30
0.0
 11
-1278.396420865446
 21
34.95663520148071
 31
0.0
  0
LINE
  5
13E
330
1F
100
AcDbEntity
  8
0-1
  6
Continuous
 62
     3
370
     9
100
AcDbLine
 10
-1094.526919803104
 20
222.4566352014807
 30
0.0
 11
-1094.526919803104
 21
62.45660220950583
 31
0.0
  0
LINE
  5
13F
330
1F
100
AcDbEntity
  8
0-1
  6
Continuous
 62
     3
370
     9
100
AcDbLine
 10
-1097.026804331188
 20
62.45647848959095
 30
0.0
 11
-1097.026804331188
 21
222.4566352014807
 31
0.0
  0
LINE
  5
140
330
1F
100
AcDbEntity
  8
0-1
  6
Continuous
 62
     3
370
     9
100
AcDbLine
 10
-1097.026804331188
 20
22.45659396151211
 30
0.0
 11
-1097.026804331188
 21
-57.54342253447987
 31
0.0
  0
LINE
  5
141
330
1F
100
AcDbEntity
  8
0-1
  6
Continuous
 62
     3
370
     9
100
AcDbLine
 10
-1275.334167480469
 20
49.95643724962235
 30
0.0
 11
-1178.620704444679
 21
52.45644549761607
 31
0.0
  0
LINE
  5
142
330
1F
100
AcDbEntity
  8
0-1
  6
Continuous
 62
     3
370
     9
100
AcDbLine
 10
-1278.396420865446
 20
34.95663520148071
 30
0.0
 11
-1183.695200327281
 21
32.45662695348699
 31
0.0
  0
LINE
  5
143
330
1F
100
AcDbEntity
  8
0-1
  6
Continuous
 62
     3
370
     9
100
AcDbLine
 10
-1107.026961043075
 20
49.95643724962235
 30
0.0
 11
-1275.334167480469
 21
49.95643724962235
 31
0.0
  0
LINE
  5
144
330
1F
100
AcDbEntity
  8
0-1
  6
Continuous
 62
     3
370
     9
100
AcDbLine
 10
-1107.026837323162
 20
52.45644549761607
 30
0.0
 11
-1178.620704444679
 21
52.45644549761607
 31
0.0
  0
LINE
  5
145
330
1F
100
AcDbEntity
  8
0-1
  6
Continuous
 62
     3
370
     9
100
AcDbLine
 10
-1107.026961043075
 20
32.45662695348699
 30
0.0
 11
-1183.695200327281
 21
32.45662695348699
 31
0.0
  0
LINE
  5
146
330
1F
100
AcDbEntity
  8
0-1
  6
Continuous
 62
     3
370
     9
100
AcDbLine
 10
-894.5270022830459
 20
430.7637261669578
 30
0.0
 11
-897.0270105310397
 21
334.0503868510785
 31
0.0
  0
LINE
  5
147
330
1F
100
AcDbEntity
  8
0-1
  6
Continuous
 62
     3
370
     9
100
AcDbLine
 10
-879.5272002349031
 20
433.825793972066
 30
0.0
 11
-877.0271919869083
 21
339.1246352938578
 31
0.0
  0
LINE
  5
148
330
1F
100
AcDbEntity
  8
0-1
  6
Continuous
 62
     3
370
     9
100
AcDbLine
 10
-894.5270022830459
 20
430.7637261669578
 30
0.0
 11
-894.5270022830459
 21
262.4567671693848
 31
0.0
  0
LINE
  5
149
330
1F
100
AcDbEntity
  8
0-1
  6
Continuous
 62
     3
370
     9
100
AcDbLine
 10
-897.0270105310397
 20
334.0503868510785
 30
0.0
 11
-897.0270105310397
 21
262.4567671693848
 31
0.0
  0
LINE
  5
14A
330
1F
100
AcDbEntity
  8
0-1
  6
Continuous
 62
     3
370
     9
100
AcDbLine
 10
-879.5272002349031
 20
433.825793972066
 30
0.0
 11
-879.5272002349031
 21
262.4567671693848
 31
0.0
  0
LINE
  5
14B
330
1F
100
AcDbEntity
  8
0-1
  6
Continuous
 62
     3
370
     9
100
AcDbLine
 10
-877.0271919869083
 20
339.1246352938578
 30
0.0
 11
-877.0271919869083
 21
262.4567671693848
 31
0.0
  0
LINE
  5
14C
330
1F
100
AcDbEntity
  8
0-1
  6
Continuous
 62
     3
370
     9
100
AcDbLine
 10
-679.5272827148438
 20
430.7637261669578
 30
0.0
 11
-677.02727446685
 21
334.0503868510785
 31
0.0
  0
LINE
  5
14D
330
1F
100
AcDbEntity
  8
0-1
  6
Continuous
 62
     3
370
     9
100
AcDbLine
 10
-694.5270847629854
 20
433.825793972066
 30
0.0
 11
-697.0270930109791
 21
339.1246352938578
 31
0.0
  0
LINE
  5
14E
330
1F
100
AcDbEntity
  8
0-1
  6
Continuous
 62
     3
370
     9
100
AcDbLine
 10
-679.5272827148438
 20
430.7637261669578
 30
0.0
 11
-679.5272827148438
 21
262.4567671693848
 31
0.0
  0
LINE
  5
14F
330
1F
100
AcDbEntity
  8
0-1
  6
Continuous
 62
     3
370
     9
100
AcDbLine
 10
-677.02727446685
 20
334.0503868510785
 30
0.0
 11
-677.02727446685
 21
262.4567671693848
 31
0.0
  0
LINE
  5
150
330
1F
100
AcDbEntity
  8
0-1
  6
Continuous
 62
     3
370
     9
100
AcDbLine
 10
-694.5270847629854
 20
433.825793972066
 30
0.0
 11
-694.5270847629854
 21
262.4567671693848
 31
0.0
  0
LINE
  5
151
330
1F
100
AcDbEntity
  8
0-1
  6
Continuous
 62
     3
370
     9
100
AcDbLine
 10
-697.0270930109791
 20
339.1246352938578
 30
0.0
 11
-697.0270930109791
 21
262.4567671693848
 31
0.0
  0
LINE
  5
152
330
1F
100
AcDbEntity
  8
0-1
  6
Continuous
 62
     3
370
     9
100
AcDbLine
 10
-467.0273239548146
 20
34.95663520148071
 30
0.0
 11
-295.657925992399
 21
34.95663520148071
 31
0.0
  0
LINE
  5
153
330
1F
100
AcDbEntity
  8
0-1
  6
Continuous
 62
     3
370
     9
100
AcDbLine
 10
-298.7201175174198
 20
49.95643724962235
 30
0.0
 11
-395.4333331133876
 21
52.45644549761607
 31
0.0
  0
LINE
  5
154
330
1F
100
AcDbEntity
  8
0-1
  6
Continuous
 62
     3
370
     9
100
AcDbLine
 10
-295.657925992399
 20
34.95663520148071
 30
0.0
 11
-390.3590846706084
 21
32.45662695348699
 31
0.0
  0
LINE
  5
155
330
1F
100
AcDbEntity
  8
0-1
  6
Continuous
 62
     3
370
     9
100
AcDbLine
 10
-467.0273239548146
 20
49.95643724962235
 30
0.0
 11
-298.7201175174198
 21
49.95643724962235
 31
0.0
  0
LINE
  5
156
330
1F
100
AcDbEntity
  8
0-1
  6
Continuous
 62
     3
370
     9
100
AcDbLine
 10
-467.0273239548146
 20
52.45644549761607
 30
0.0
 11
-395.4333331133876
 21
52.45644549761607
 31
0.0
  0
LINE
  5
157
330
1F
100
AcDbEntity
  8
0-1
  6
Continuous
 62
     3
370
     9
100
AcDbLine
 10
-467.0273239548146
 20
32.45662695348699
 30
0.0
 11
-390.3590846706084
 21
32.45662695348699
 31
0.0
  0
LINE
  5
158
330
1F
100
AcDbEntity
  8
0-F
  6
Continuous
 62
     7
370
     9
100
AcDbLine
 10
-1500.777146622941
 20
-895.043278194583
 30
0.0
 11
-73.27707651499168
 21
-895.043278194583
 31
0.0
  0
LINE
  5
159
330
1F
100
AcDbEntity
  8
0-F
  6
Continuous
 62
     7
370
     9
100
AcDbLine
 10
-1500.777146622941
 20
-123.11336717394
 30
0.0
 11
-1500.777146622941
 21
-898.0433004641674
 31
0.0
  0
LINE
  5
15A
330
1F
100
AcDbEntity
  8
0-F
  6
Continuous
 62
     7
370
     9
100
AcDbLine
 10
-1500.777146622941
 20
-895.043278194583
 30
0.0
 11
-1475.990975869669
 21
-891.7801036736256
 31
0.0
  0
LINE
  5
15B
330
1F
100
AcDbEntity
  8
0-F
  6
Continuous
 62
     7
370
     9
100
AcDbLine
 10
-1500.777146622941
 20
-895.043278194583
 30
0.0
 11
-1475.990975869669
 21
-898.3064527155358
 31
0.0
  0
LINE
  5
15C
330
1F
100
AcDbEntity
  8
0-F
  6
Continuous
 62
     7
370
     9
100
AcDbLine
 10
-73.27707651499168
 20
-895.043278194583
 30
0.0
 11
-98.06337098817608
 21
-891.7801036736256
 31
0.0
  0
LINE
  5
15D
330
1F
100
AcDbEntity
  8
0-F
  6
Continuous
 62
     7
370
     9
100
AcDbLine
 10
-73.27707651499168
 20
-895.043278194583
 30
0.0
 11
-98.06337098817608
 21
-898.3064527155358
 31
0.0
  0
LINE
  5
15E
330
1F
100
AcDbEntity
  8
0-F
  6
Continuous
 62
     7
370
     9
100
AcDbLine
 10
-49.5270600190031
 20
-69.12509087273804
 30
0.0
 11
-49.5270600190031
 21
-160.543341704136
 31
0.0
  0
LINE
  5
15F
330
1F
100
AcDbEntity
  8
0-F
  6
Continuous
 62
     7
370
     9
100
AcDbLine
 10
-92.02707651499168
 20
-69.12509087273804
 30
0.0
 11
-92.02707651499168
 21
-160.543341704136
 31
0.0
  0
LINE
  5
160
330
1F
100
AcDbEntity
  8
0-F
  6
Continuous
 62
     7
370
     9
100
AcDbLine
 10
-49.5270600190031
 20
-157.5433812945067
 30
0.0
 11
-24.74101298564278
 21
-160.8064939555089
 31
0.0
  0
LINE
  5
161
330
1F
100
AcDbEntity
  8
0-F
  6
Continuous
 62
     7
370
     9
100
AcDbLine
 10
-92.02707651499168
 20
-157.5433812945067
 30
0.0
 11
-116.8133709881761
 21
-154.2802686335045
 31
0.0
  0
LINE
  5
162
330
1F
100
AcDbEntity
  8
0-F
  6
Continuous
 62
     7
370
     9
100
AcDbLine
 10
-37.51855798669794
 20
-38.79342253447987
 30
0.0
 11
53.4729828705656
 21
-38.79342253447987
 31
0.0
  0
LINE
  5
163
330
1F
100
AcDbEntity
  8
0-F
  6
Continuous
 62
     7
370
     9
100
AcDbLine
 10
-37.51855798669794
 20
-76.29342253447987
 30
0.0
 11
53.4729828705656
 21
-76.29342253447987
 31
0.0
  0
LINE
  5
164
330
1F
100
AcDbEntity
  8
0-F
  6
Continuous
 62
     7
370
     9
100
AcDbLine
 10
50.47302246093636
 20
-38.79342253447987
 30
0.0
 11
47.20978608002611
 21
-14.00725178120695
 31
0.0
  0
LINE
  5
165
330
1F
100
AcDbEntity
  8
0-F
  6
Continuous
 62
     7
370
     9
100
AcDbLine
 10
50.47302246093636
 20
-38.79342253447987
 30
0.0
 11
53.73625884184889
 21
-14.00725178120695
 31
0.0
  0
LINE
  5
166
330
1F
100
AcDbEntity
  8
0-F
  6
Continuous
 62
     7
370
     9
100
AcDbLine
 10
50.47302246093636
 20
-76.29342253447987
 30
0.0
 11
47.20978608002611
 21
-101.0795932877528
 31
0.0
  0
LINE
  5
167
330
1F
100
AcDbEntity
  8
0-F
  6
Continuous
 62
     7
370
     9
100
AcDbLine
 10
50.47302246093636
 20
-76.29342253447987
 30
0.0
 11
53.73625884184889
 21
-101.0795932877528
 31
0.0
  0
LINE
  5
168
330
1F
100
AcDbEntity
  8
0-F
  6
Continuous
 62
     7
370
     9
100
AcDbLine
 10
-49.5270600190031
 20
-157.5433812945067
 30
0.0
 11
-24.74101298564278
 21
-154.2802686335045
 31
0.0
  0
LINE
  5
169
330
1F
100
AcDbEntity
  8
0-F
  6
Continuous
 62
     7
370
     9
100
AcDbLine
 10
-92.02707651499168
 20
-157.5433812945067
 30
0.0
 11
-116.8133709881761
 21
-160.8064939555089
 31
0.0
  0
LINE
  5
16A
330
1F
100
AcDbEntity
  8
0-F
  6
Continuous
 62
     7
370
     9
100
AcDbLine
 10
27.0060771220426
 20
-157.5433812945067
 30
0.0
 11
-152.169923524599
 21
-157.5433812945067
 31
0.0
  0
LINE
  5
16B
330
1F
100
AcDbEntity
  8
0-F
  6
Continuous
 62
     7
370
     9
100
AcDbLine
 10
-73.27707651499168
 20
-112.4029344511774
 30
0.0
 11
-73.27707651499168
 21
-146.6222535627713
 31
0.0
  0
LINE
  5
16C
330
1F
100
AcDbEntity
  8
0-F
  6
Continuous
 62
     7
370
     9
100
AcDbLine
 10
50.47302246093636
 20
39.76946347164528
 30
0.0
 11
50.47302246093636
 21
-120.7795147668486
 31
0.0
  0
LINE
  5
16D
330
1F
100
AcDbEntity
  8
0-F
  6
Continuous
 62
     7
370
     9
100
AcDbLine
 10
-880.7773899387666
 20
374.9565197295641
 30
0.0
 11
-693.2768950591219
 21
374.9565197295641
 31
0.0
  0
LINE
  5
16E
330
1F
100
AcDbEntity
  8
0-F
  6
Continuous
 62
     7
370
     9
100
AcDbLine
 10
-880.7773899387666
 20
459.2348944788245
 30
0.0
 11
-880.7773899387666
 21
371.9565593199349
 31
0.0
  0
LINE
  5
16F
330
1F
100
AcDbEntity
  8
0-F
  6
Continuous
 62
     7
370
     9
100
AcDbLine
 10
-693.2768950591219
 20
459.2348944788245
 30
0.0
 11
-693.2768950591219
 21
371.9565593199349
 31
0.0
  0
LINE
  5
170
330
1F
100
AcDbEntity
  8
0-F
  6
Continuous
 62
     7
370
     9
100
AcDbLine
 10
-880.7773899387666
 20
374.9565197295641
 30
0.0
 11
-855.9912191854937
 21
378.2196323905617
 31
0.0
  0
LINE
  5
171
330
1F
100
AcDbEntity
  8
0-F
  6
Continuous
 62
     7
370
     9
100
AcDbLine
 10
-880.7773899387666
 20
374.9565197295641
 30
0.0
 11
-855.9912191854937
 21
371.6934070685619
 31
0.0
  0
LINE
  5
172
330
1F
100
AcDbEntity
  8
0-F
  6
Continuous
 62
     7
370
     9
100
AcDbLine
 10
-693.2768950591219
 20
374.9565197295641
 30
0.0
 11
-718.0630658123937
 21
378.2196323905617
 31
0.0
  0
LINE
  5
173
330
1F
100
AcDbEntity
  8
0-F
  6
Continuous
 62
     7
370
     9
100
AcDbLine
 10
-693.2768950591219
 20
374.9565197295641
 30
0.0
 11
-718.0630658123937
 21
371.6934070685619
 31
0.0
  0
LINE
  5
174
330
1F
100
AcDbEntity
  8
0-F
  6
Continuous
 62
     7
370
     9
100
AcDbLine
 10
-585.7771589949334
 20
474.9564784895909
 30
0.0
 11
-585.7771589949334
 21
566.7061749634121
 31
0.0
  0
LINE
  5
175
330
1F
100
AcDbEntity
  8
0-F
  6
Continuous
 62
     7
370
     9
100
AcDbLine
 10
-679.2630169842687
 20
474.9564784895909
 30
0.0
 11
-582.7771985853042
 21
474.9564784895909
 31
0.0
  0
LINE
  5
176
330
1F
100
AcDbEntity
  8
0-F
  6
Continuous
 62
     7
370
     9
100
AcDbLine
 10
-679.2630169842687
 20
566.7061749634121
 30
0.0
 11
-582.7771985853042
 21
566.7061749634121
 31
0.0
  0
LINE
  5
177
330
1F
100
AcDbEntity
  8
0-F
  6
Continuous
 62
     7
370
     9
100
AcDbLine
 10
-585.7771589949334
 20
474.9564784895909
 30
0.0
 11
-589.0402716559333
 21
499.7426492428639
 31
0.0
  0
LINE
  5
178
330
1F
100
AcDbEntity
  8
0-F
  6
Continuous
 62
     7
370
     9
100
AcDbLine
 10
-585.7771589949334
 20
474.9564784895909
 30
0.0
 11
-582.5140463339312
 21
499.7426492428639
 31
0.0
  0
LINE
  5
179
330
1F
100
AcDbEntity
  8
0-F
  6
Continuous
 62
     7
370
     9
100
AcDbLine
 10
-585.7771589949334
 20
566.7061749634121
 30
0.0
 11
-589.0402716559333
 21
541.9200042101392
 31
0.0
  0
LINE
  5
17A
330
1F
100
AcDbEntity
  8
0-F
  6
Continuous
 62
     7
370
     9
100
AcDbLine
 10
-585.7771589949334
 20
566.7061749634121
 30
0.0
 11
-582.5140463339312
 21
541.9200042101392
 31
0.0
  0
LINE
  5
17B
330
1F
100
AcDbEntity
  8
0-F
  6
Continuous
 62
     7
370
     9
100
AcDbLine
 10
901.747172587626
 20
-895.043278194583
 30
0.0
 11
1176.746842667864
 21
-895.043278194583
 31
0.0
  0
LINE
  5
17C
330
1F
100
AcDbEntity
  8
0-F
  6
Continuous
 62
     7
370
     9
100
AcDbLine
 10
1176.746842667864
 20
-816.0922209667007
 30
0.0
 11
1176.746842667864
 21
-898.0433004641674
 31
0.0
  0
LINE
  5
17D
330
1F
100
AcDbEntity
  8
0-F
  6
Continuous
 62
     7
370
     9
100
AcDbLine
 10
901.747172587626
 20
-895.043278194583
 30
0.0
 11
926.5332196209886
 21
-891.7801036736256
 31
0.0
  0
LINE
  5
17E
330
1F
100
AcDbEntity
  8
0-F
  6
Continuous
 62
     7
370
     9
100
AcDbLine
 10
901.747172587626
 20
-895.043278194583
 30
0.0
 11
926.5332196209886
 21
-898.3064527155358
 31
0.0
  0
LINE
  5
17F
330
1F
100
AcDbEntity
  8
0-F
  6
Continuous
 62
     7
370
     9
100
AcDbLine
 10
1176.746842667864
 20
-895.043278194583
 30
0.0
 11
1151.960795634501
 21
-891.7801036736256
 31
0.0
  0
LINE
  5
180
330
1F
100
AcDbEntity
  8
0-F
  6
Continuous
 62
     7
370
     9
100
AcDbLine
 10
1176.746842667864
 20
-895.043278194583
 30
0.0
 11
1151.960795634501
 21
-898.3064527155358
 31
0.0
  0
LINE
  5
181
330
1F
100
AcDbEntity
  8
0-F
  6
Continuous
 62
     7
370
     9
100
AcDbLine
 10
902.9972385715803
 20
-584.8093527102611
 30
0.0
 11
1148.812618771116
 21
-584.8093527102611
 31
0.0
  0
LINE
  5
182
330
1F
100
AcDbEntity
  8
0-F
  6
Continuous
 62
     7
370
     9
100
AcDbLine
 10
902.9972385715803
 20
-584.8093527102611
 30
0.0
 11
902.9972385715803
 21
-587.8093749798455
 31
0.0
  0
LINE
  5
183
330
1F
100
AcDbEntity
  8
0-F
  6
Continuous
 62
     7
370
     9
100
AcDbLine
 10
1077.996578732053
 20
-584.8093527102611
 30
0.0
 11
1077.996578732053
 21
-587.8093749798455
 31
0.0
  0
LINE
  5
184
330
1F
100
AcDbEntity
  8
0-F
  6
Continuous
 62
     7
370
     9
100
AcDbLine
 10
902.9972385715803
 20
-584.8093527102611
 30
0.0
 11
927.7832856049406
 21
-581.5461781893038
 31
0.0
  0
LINE
  5
185
330
1F
100
AcDbEntity
  8
0-F
  6
Continuous
 62
     7
370
     9
100
AcDbLine
 10
902.9972385715803
 20
-584.8093527102611
 30
0.0
 11
927.7832856049406
 21
-588.0725272312185
 31
0.0
  0
LINE
  5
186
330
1F
100
AcDbEntity
  8
0-F
  6
Continuous
 62
     7
370
     9
100
AcDbLine
 10
1077.996578732053
 20
-584.8093527102611
 30
0.0
 11
1053.210531698691
 21
-581.5461781893038
 31
0.0
  0
LINE
  5
187
330
1F
100
AcDbEntity
  8
0-F
  6
Continuous
 62
     7
370
     9
100
AcDbLine
 10
1077.996578732053
 20
-584.8093527102611
 30
0.0
 11
1053.210531698691
 21
-588.0725272312185
 31
0.0
  0
LINE
  5
188
330
1F
100
AcDbEntity
  8
0-F
  6
Continuous
 62
     7
370
     9
100
AcDbLine
 10
1095.497007627745
 20
-584.8093527102611
 30
0.0
 11
1095.497007627745
 21
-587.8093749798455
 31
0.0
  0
LINE
  5
189
330
1F
100
AcDbEntity
  8
0-F
  6
Continuous
 62
     7
370
     9
100
AcDbLine
 10
1077.996083852407
 20
-584.8093527102611
 30
0.0
 11
1077.996083852407
 21
-587.8093749798455
 31
0.0
  0
LINE
  5
18A
330
1F
100
AcDbEntity
  8
0-F
  6
Continuous
 62
     7
370
     9
100
AcDbLine
 10
1095.497007627745
 20
-584.8093527102611
 30
0.0
 11
1120.283054661107
 21
-581.5461781893038
 31
0.0
  0
LINE
  5
18B
330
1F
100
AcDbEntity
  8
0-F
  6
Continuous
 62
     7
370
     9
100
AcDbLine
 10
1095.497007627745
 20
-584.8093527102611
 30
0.0
 11
1120.283054661107
 21
-588.0725272312185
 31
0.0
  0
LINE
  5
18C
330
1F
100
AcDbEntity
  8
0-F
  6
Continuous
 62
     7
370
     9
100
AcDbLine
 10
1077.996083852407
 20
-584.8093527102611
 30
0.0
 11
1053.210036819045
 21
-581.5461781893038
 31
0.0
  0
LINE
  5
18D
330
1F
100
AcDbEntity
  8
0-F
  6
Continuous
 62
     7
370
     9
100
AcDbLine
 10
1077.996083852407
 20
-584.8093527102611
 30
0.0
 11
1053.210036819045
 21
-588.0725272312185
 31
0.0
  0
LINE
  5
18E
330
1F
100
AcDbEntity
  8
0-F
  6
Continuous
 62
     7
370
     9
100
AcDbLine
 10
721.7470736116968
 20
-778.6983726506088
 30
0.0
 11
721.7470736116968
 21
598.7065774655201
 31
0.0
  0
LINE
  5
18F
330
1F
100
AcDbEntity
  8
0-F
  6
Continuous
 62
     7
370
     9
100
AcDbLine
 10
885.6222616659636
 20
-713.7934225344799
 30
0.0
 11
718.7471132020698
 21
-713.7934225344799
 31
0.0
  0
LINE
  5
190
330
1F
100
AcDbEntity
  8
0-F
  6
Continuous
 62
     7
370
     9
100
AcDbLine
 10
885.6222616659636
 20
598.7065774655201
 30
0.0
 11
718.7471132020698
 21
598.7065774655201
 31
0.0
  0
LINE
  5
191
330
1F
100
AcDbEntity
  8
0-F
  6
Continuous
 62
     7
370
     9
100
AcDbLine
 10
721.7470736116968
 20
-713.7934225344799
 30
0.0
 11
718.4838372307843
 21
-689.0073136411621
 31
0.0
  0
LINE
  5
192
330
1F
100
AcDbEntity
  8
0-F
  6
Continuous
 62
     7
370
     9
100
AcDbLine
 10
721.7470736116968
 20
-713.7934225344799
 30
0.0
 11
725.0103099926093
 21
-689.0073136411621
 31
0.0
  0
LINE
  5
193
330
1F
100
AcDbEntity
  8
0-F
  6
Continuous
 62
     7
370
     9
100
AcDbLine
 10
721.7470736116968
 20
598.7065774655201
 30
0.0
 11
718.4838372307843
 21
573.9205304321621
 31
0.0
  0
LINE
  5
194
330
1F
100
AcDbEntity
  8
0-F
  6
Continuous
 62
     7
370
     9
100
AcDbLine
 10
721.7470736116968
 20
598.7065774655201
 30
0.0
 11
725.0103099926093
 21
573.9205304321621
 31
0.0
  0
LINE
  5
195
330
1F
100
AcDbEntity
  8
0-F
  6
Continuous
 62
     7
370
     9
100
AcDbLine
 10
641.7470571157094
 20
-735.0433070625633
 30
0.0
 11
641.7470571157094
 21
619.9562145537828
 31
0.0
  0
LINE
  5
196
330
1F
100
AcDbEntity
  8
0-F
  6
Continuous
 62
     7
370
     9
100
AcDbLine
 10
885.6222616659636
 20
-735.0433070625633
 30
0.0
 11
638.7470967060801
 21
-735.0433070625633
 31
0.0
  0
LINE
  5
197
330
1F
100
AcDbEntity
  8
0-F
  6
Continuous
 62
     7
370
     9
100
AcDbLine
 10
885.6222616659636
 20
619.9562145537828
 30
0.0
 11
638.7470967060801
 21
619.9562145537828
 31
0.0
  0
LINE
  5
198
330
1F
100
AcDbEntity
  8
0-F
  6
Continuous
 62
     7
370
     9
100
AcDbLine
 10
641.7470571157094
 20
-735.0433070625633
 30
0.0
 11
638.4838207347968
 21
-710.2571981692455
 31
0.0
  0
LINE
  5
199
330
1F
100
AcDbEntity
  8
0-F
  6
Continuous
 62
     7
370
     9
100
AcDbLine
 10
641.7470571157094
 20
-735.0433070625633
 30
0.0
 11
645.0102934966219
 21
-710.2571981692455
 31
0.0
  0
LINE
  5
19A
330
1F
100
AcDbEntity
  8
0-F
  6
Continuous
 62
     7
370
     9
100
AcDbLine
 10
641.7470571157094
 20
619.9562145537828
 30
0.0
 11
638.4838207347968
 21
595.1701675204203
 31
0.0
  0
LINE
  5
19B
330
1F
100
AcDbEntity
  8
0-F
  6
Continuous
 62
     7
370
     9
100
AcDbLine
 10
641.7470571157094
 20
619.9562145537828
 30
0.0
 11
645.0102934966219
 21
595.1701675204203
 31
0.0
  0
LINE
  5
19C
330
1F
100
AcDbEntity
  8
0-F
  6
Continuous
 62
     7
370
     9
100
AcDbLine
 10
1276.746925147803
 20
-620.043298814565
 30
0.0
 11
1276.746925147803
 21
504.9563300256995
 31
0.0
  0
LINE
  5
19D
330
1F
100
AcDbEntity
  8
0-F
  6
Continuous
 62
     7
370
     9
100
AcDbLine
 10
1195.89002454603
 20
-620.043298814565
 30
0.0
 11
1279.746885557432
 21
-620.043298814565
 31
0.0
  0
LINE
  5
19E
330
1F
100
AcDbEntity
  8
0-F
  6
Continuous
 62
     7
370
     9
100
AcDbLine
 10
1195.89002454603
 20
504.9563300256995
 30
0.0
 11
1279.746885557432
 21
504.9563300256995
 31
0.0
  0
LINE
  5
19F
330
1F
100
AcDbEntity
  8
0-F
  6
Continuous
 62
     7
370
     9
100
AcDbLine
 10
1276.746925147803
 20
-620.043298814565
 30
0.0
 11
1273.483688766893
 21
-595.2571899212518
 31
0.0
  0
LINE
  5
1A0
330
1F
100
AcDbEntity
  8
0-F
  6
Continuous
 62
     7
370
     9
100
AcDbLine
 10
1276.746925147803
 20
-620.043298814565
 30
0.0
 11
1280.010161528716
 21
-595.2571899212518
 31
0.0
  0
LINE
  5
1A1
330
1F
100
AcDbEntity
  8
0-F
  6
Continuous
 62
     7
370
     9
100
AcDbLine
 10
1276.746925147803
 20
504.9563300256995
 30
0.0
 11
1273.483688766893
 21
480.1701592724265
 31
0.0
  0
LINE
  5
1A2
330
1F
100
AcDbEntity
  8
0-F
  6
Continuous
 62
     7
370
     9
100
AcDbLine
 10
1276.746925147803
 20
504.9563300256995
 30
0.0
 11
1280.010161528716
 21
480.1701592724265
 31
0.0
  0
LINE
  5
1A3
330
1F
100
AcDbEntity
  8
0-F
  6
Continuous
 62
     7
370
     9
100
AcDbLine
 10
1356.746941643793
 20
-795.0432575745964
 30
0.0
 11
1356.746941643793
 21
679.9564125056412
 31
0.0
  0
LINE
  5
1A4
330
1F
100
AcDbEntity
  8
0-F
  6
Continuous
 62
     7
370
     9
100
AcDbLine
 10
1195.89002454603
 20
-795.0432575745964
 30
0.0
 11
1359.74690205342
 21
-795.0432575745964
 31
0.0
  0
LINE
  5
1A5
330
1F
100
AcDbEntity
  8
0-F
  6
Continuous
 62
     7
370
     9
100
AcDbLine
 10
1195.89002454603
 20
679.9564125056412
 30
0.0
 11
1359.74690205342
 21
679.9564125056412
 31
0.0
  0
LINE
  5
1A6
330
1F
100
AcDbEntity
  8
0-F
  6
Continuous
 62
     7
370
     9
100
AcDbLine
 10
1356.746941643793
 20
-795.0432575745964
 30
0.0
 11
1353.48370526288
 21
-770.2571486812786
 31
0.0
  0
LINE
  5
1A7
330
1F
100
AcDbEntity
  8
0-F
  6
Continuous
 62
     7
370
     9
100
AcDbLine
 10
1356.746941643793
 20
-795.0432575745964
 30
0.0
 11
1360.010178024705
 21
-770.2571486812786
 31
0.0
  0
LINE
  5
1A8
330
1F
100
AcDbEntity
  8
0-F
  6
Continuous
 62
     7
370
     9
100
AcDbLine
 10
1356.746941643793
 20
679.9564125056412
 30
0.0
 11
1353.48370526288
 21
655.1703654722786
 31
0.0
  0
LINE
  5
1A9
330
1F
100
AcDbEntity
  8
0-F
  6
Continuous
 62
     7
370
     9
100
AcDbLine
 10
1356.746941643793
 20
679.9564125056412
 30
0.0
 11
1360.010178024705
 21
655.1703654722786
 31
0.0
  0
LINE
  5
1AA
330
1F
100
AcDbEntity
  8
0-F
  6
Continuous
 62
     7
370
     9
100
AcDbLine
 10
885.6222616659636
 20
-688.7933400545381
 30
0.0
 11
798.7471296980573
 21
-688.7933400545381
 31
0.0
  0
LINE
  5
1AB
330
1F
100
AcDbEntity
  8
0-F
  6
Continuous
 62
     7
370
     9
100
AcDbLine
 10
801.7470901076865
 20
-688.7933400545381
 30
0.0
 11
798.483853726774
 21
-664.0072311612204
 31
0.0
  0
LINE
  5
1AC
330
1F
100
AcDbEntity
  8
0-F
  6
Continuous
 62
     7
370
     9
100
AcDbLine
 10
801.7470901076865
 20
-688.7933400545381
 30
0.0
 11
805.0103264885968
 21
-664.0072311612204
 31
0.0
  0
LINE
  5
1AD
330
1F
100
AcDbEntity
  8
0-F
  6
Continuous
 62
     7
370
     9
100
AcDbLine
 10
801.7470901076865
 20
-713.7934225344799
 30
0.0
 11
798.483853726774
 21
-738.5795314277976
 31
0.0
  0
LINE
  5
1AE
330
1F
100
AcDbEntity
  8
0-F
  6
Continuous
 62
     7
370
     9
100
AcDbLine
 10
801.7470901076865
 20
-713.7934225344799
 30
0.0
 11
805.0103264885968
 21
-738.5795314277976
 31
0.0
  0
LINE
  5
1AF
330
1F
100
AcDbEntity
  8
0-F
  6
Continuous
 62
     7
370
     9
100
AcDbLine
 10
721.7470736116968
 20
-735.0433070625633
 30
0.0
 11
718.4838372307843
 21
-759.8294159558765
 31
0.0
  0
LINE
  5
1B0
330
1F
100
AcDbEntity
  8
0-F
  6
Continuous
 62
     7
370
     9
100
AcDbLine
 10
721.7470736116968
 20
-735.0433070625633
 30
0.0
 11
725.0103099926093
 21
-759.8294159558765
 31
0.0
  0
LINE
  5
1B1
330
1F
100
AcDbEntity
  8
0-F
  6
Continuous
 62
     7
370
     9
100
AcDbLine
 10
885.6222616659636
 20
-720.0432575745964
 30
0.0
 11
812.4661832242407
 21
-720.0432575745964
 31
0.0
  0
LINE
  5
1B2
330
1F
100
AcDbEntity
  8
0-F
  6
Continuous
 62
     7
370
     9
100
AcDbLine
 10
785.1280418602198
 20
-720.0432575745964
 30
0.0
 11
718.7471132020698
 21
-720.0432575745964
 31
0.0
  0
LINE
  5
1B3
330
1F
100
AcDbEntity
  8
0-F
  6
Continuous
 62
     7
370
     9
100
AcDbLine
 10
801.7470901076865
 20
-620.7700295736441
 30
0.0
 11
801.7470901076865
 21
-759.297172897389
 31
0.0
  0
LINE
  5
1B4
330
1F
100
AcDbEntity
  8
0-F
  6
Continuous
 62
     7
370
     9
100
AcDbLine
 10
901.747172587626
 20
-750.9630285113036
 30
0.0
 11
901.747172587626
 21
-898.0433004641674
 31
0.0
  0
LINE
  5
1B5
330
1F
100
AcDbEntity
  8
0-E
  6
Continuous
 62
     7
370
     9
100
AcDbLine
 10
902.9972385715803
 20
589.4016029353287
 30
0.0
 11
887.7782048405822
 21
609.2353893584703
 31
0.0
  0
LINE
  5
1B6
330
1F
100
AcDbEntity
  8
0-E
  6
Continuous
 62
     7
370
     9
100
AcDbLine
 10
902.9972385715803
 20
589.4016029353287
 30
0.0
 11
893.4302252692135
 21
612.4986257393829
 31
0.0
  0
LINE
  5
1B7
330
1F
100
AcDbEntity
  8
0-E
  6
Continuous
 62
     7
370
     9
100
AcDbLine
 10
905.4973705394843
 20
535.8489444418746
 30
0.0
 11
885.6635841163427
 21
551.0679781728703
 31
0.0
  0
LINE
  5
1B8
330
1F
100
AcDbEntity
  8
0-E
  6
Continuous
 62
     7
370
     9
100
AcDbLine
 10
905.4973705394843
 20
535.8489444418746
 30
0.0
 11
890.2783368084886
 21
555.6827308650162
 31
0.0
  0
LINE
  5
1B9
330
1F
100
AcDbEntity
  8
0-E
  6
Continuous
 62
     7
370
     9
100
AcDbLine
 10
1176.746842667864
 20
679.9564125056412
 30
0.0
 11
1186.313855970228
 21
703.0534353096954
 31
0.0
  0
LINE
  5
1BA
330
1F
100
AcDbEntity
  8
0-E
  6
Continuous
 62
     7
370
     9
100
AcDbLine
 10
1176.746842667864
 20
679.9564125056412
 30
0.0
 11
1191.965876398859
 21
699.7901989287828
 31
0.0
  0
LINE
  5
1BB
330
1F
100
AcDbEntity
  8
0-E
  6
Continuous
 62
     7
370
     9
100
AcDbLine
 10
905.4973705394843
 20
535.8489444418746
 30
0.0
 11
611.3899024757177
 21
829.9564125056412
 31
0.0
  0
LINE
  5
1BC
330
1F
100
AcDbEntity
  8
0-E
  6
Continuous
 62
     7
370
     9
100
AcDbLine
 10
902.9972385715803
 20
589.4016029353287
 30
0.0
 11
677.5102770006345
 21
979.9564125056412
 31
0.0
  0
LINE
  5
1BD
330
1F
100
AcDbEntity
  8
0-E
  6
Continuous
 62
     7
370
     9
100
AcDbLine
 10
1176.746842667864
 20
679.9564125056412
 30
0.0
 11
1349.951749234586
 21
979.9564125056412
 31
0.0
  0
LINE
  5
1BE
330
1F
100
AcDbEntity
  8
0-E
  6
Continuous
 62
     7
370
     9
100
AcDbLine
 10
1349.951749234586
 20
979.9564125056412
 30
0.0
 11
1814.363139384501
 21
979.9564125056412
 31
0.0
  0
LINE
  5
1BF
330
1F
100
AcDbEntity
  8
0-1
  6
JWW_CENTER1
 62
     3
370
     9
100
AcDbLine
 10
-787.0271424989437
 20
699.3641075542035
 30
0.0
 11
-787.0271424989437
 21
588.5313570791203
 31
0.0
  0
LINE
  5
1C0
330
1F
100
AcDbEntity
  8
0-0
  6
Continuous
 62
     2
370
     9
100
AcDbLine
 10
-73.27707651499168
 20
-38.79342253447987
 30
0.0
 11
-60.09521484375114
 21
-38.79342253447987
 31
0.0
  0
LINE
  5
1C1
330
1F
100
AcDbEntity
  8
0-0
  6
Continuous
 62
     2
370
     9
100
AcDbLine
 10
-73.27707651499168
 20
-33.79340603848789
 30
0.0
 11
-60.09521484375114
 21
-33.79340603848789
 31
0.0
  0
LINE
  5
1C2
330
1F
100
AcDbEntity
  8
0-0
  6
Continuous
 62
     2
370
     9
100
AcDbLine
 10
-73.27707651499168
 20
-76.29342253447987
 30
0.0
 11
-60.09521484375114
 21
-76.29342253447987
 31
0.0
  0
LINE
  5
1C3
330
1F
100
AcDbEntity
  8
0-0
  6
Continuous
 62
     2
370
     9
100
AcDbLine
 10
-1500.777146622941
 20
-38.79342253447987
 30
0.0
 11
-1513.958822714317
 21
-38.79342253447987
 31
0.0
  0
LINE
  5
1C4
330
1F
100
AcDbEntity
  8
0-0
  6
Continuous
 62
     2
370
     9
100
AcDbLine
 10
-1500.777146622941
 20
-33.79340603848789
 30
0.0
 11
-1513.958822714317
 21
-33.79340603848789
 31
0.0
  0
LINE
  5
1C5
330
1F
100
AcDbEntity
  8
0-0
  6
Continuous
 62
     2
370
     9
100
AcDbLine
 10
-1500.777146622941
 20
-76.29342253447987
 30
0.0
 11
-1513.958822714317
 21
-76.29342253447987
 31
0.0
  0
LINE
  5
1C6
330
1F
100
AcDbEntity
  8
0-0
  6
Continuous
 62
     2
370
     9
100
AcDbLine
 10
-805.7771424989437
 20
656.2066434494744
 30
0.0
 11
-805.7771424989437
 21
669.3882576808909
 31
0.0
  0
LINE
  5
1C7
330
1F
100
AcDbEntity
  8
0-0
  6
Continuous
 62
     2
370
     9
100
AcDbLine
 10
-810.7771589949334
 20
656.2066434494744
 30
0.0
 11
-810.7771589949334
 21
669.3882576808909
 31
0.0
  0
LINE
  5
1C8
330
1F
100
AcDbEntity
  8
0-0
  6
Continuous
 62
     2
370
     9
100
AcDbLine
 10
-768.2771424989437
 20
656.2066434494744
 30
0.0
 11
-768.2771424989437
 21
669.3882576808909
 31
0.0
  0
LINE
  5
1C9
330
1F
100
AcDbEntity
  8
0-0
  6
Continuous
 62
     2
370
     9
100
AcDbLine
 10
-763.2771260029563
 20
656.2066434494744
 30
0.0
 11
-763.2771260029563
 21
669.3882576808909
 31
0.0
  0
LINE
  5
1CA
330
1F
100
AcDbEntity
  8
0-1
  6
JWW_CENTER1
 62
     3
370
     9
100
AcDbLine
 10
-828.9846471838041
 20
-771.2934885184296
 30
0.0
 11
-746.9712128510355
 21
-771.2934885184296
 31
0.0
  0
LINE
  5
1CB
330
1F
100
AcDbEntity
  8
0-0
  6
Continuous
 62
     2
370
     9
100
AcDbLine
 10
-805.7771424989437
 20
-771.2934885184296
 30
0.0
 11
-805.7771424989437
 21
-784.4751027498506
 31
0.0
  0
LINE
  5
1CC
330
1F
100
AcDbEntity
  8
0-0
  6
Continuous
 62
     2
370
     9
100
AcDbLine
 10
-768.2771424989437
 20
-771.2934885184296
 30
0.0
 11
-768.2771424989437
 21
-784.4751027498506
 31
0.0
  0
LINE
  5
1CD
330
1F
100
AcDbEntity
  8
0-1
  6
JWW_CENTER1
 62
     3
370
     9
100
AcDbLine
 10
-787.0271424989437
 20
366.2246158285933
 30
0.0
 11
-787.0271424989437
 21
-821.6152015278277
 31
0.0
  0
LINE
  5
1CE
330
1F
100
AcDbEntity
  8
0-1
  6
JWW_CENTER1
 62
     3
370
     9
100
AcDbLine
 10
1208.819745038007
 20
-57.54342253447987
 30
0.0
 11
863.2522170608115
 21
-57.54342253447987
 31
0.0
  0
LINE
  5
1CF
330
1F
100
AcDbEntity
  8
0-E
  6
Continuous
 62
     7
370
     9
100
AcDbLine
 10
677.5102770006345
 20
979.9564125056412
 30
0.0
 11
200.531418259078
 21
979.9564125056412
 31
0.0
  0
LINE
  5
1D0
330
1F
100
AcDbEntity
  8
0-F
  6
Continuous
 62
     7
370
     9
100
AcDbLine
 10
-73.27707651499168
 20
-176.9618399753546
 30
0.0
 11
-73.27707651499168
 21
-898.0433004641674
 31
0.0
  0
ARC
  5
1D1
330
1F
100
AcDbEntity
  8
0-1
  6
Continuous
 62
     3
370
     9
100
AcDbCircle
 10
1092.997370539484
 20
61.50643329058482
 30
0.0
 40
10.00000012887491
100
AcDbArc
 50
275.7112274169922
 51
0.0000000000000127
  0
ARC
  5
1D2
330
1F
100
AcDbEntity
  8
0-1
  6
Continuous
 62
     3
370
     9
100
AcDbCircle
 10
1092.997370539484
 20
23.40663916051824
 30
0.0
 40
10.00000012887491
100
AcDbArc
 50
0.0
 51
84.28877258300783
  0
ARC
  5
1D3
330
1F
100
AcDbEntity
  8
0-1
  6
Continuous
 62
     3
370
     9
100
AcDbCircle
 10
1109.24723857158
 20
547.627079999308
 30
0.0
 40
10.00000012887491
100
AcDbArc
 50
98.74615478515625
 51
180.0
  0
ARC
  5
1D4
330
1F
100
AcDbEntity
  8
0-1
  6
Continuous
 62
     3
370
     9
100
AcDbCircle
 10
932.9973375475095
 20
-712.5304896797508
 30
0.0
 40
5.000000064437454
100
AcDbArc
 50
92.45355224609375
 51
165.4893646240234
  0
ARC
  5
1D5
330
1F
100
AcDbEntity
  8
0-1
  6
Continuous
 62
     3
370
     9
100
AcDbCircle
 10
1109.24723857158
 20
-662.7140487881735
 30
0.0
 40
10.00000012887491
100
AcDbArc
 50
180.0
 51
261.2538452148438
  0
ARC
  5
1D6
330
1F
100
AcDbEntity
  8
0-1
  6
Continuous
 62
     3
370
     9
100
AcDbCircle
 10
1062.997271563555
 20
-666.9224434315976
 30
0.0
 40
15.00000019331236
100
AcDbArc
 50
272.4544372558594
 51
0.0000000000000382
  0
ARC
  5
1D7
330
1F
100
AcDbEntity
  8
0-1
  6
Continuous
 62
     3
370
     9
100
AcDbCircle
 10
932.9973375475095
 20
597.443644610791
 30
0.0
 40
5.000000064437454
100
AcDbArc
 50
194.5106353759766
 51
267.5464477539062
  0
ARC
  5
1D8
330
1F
100
AcDbEntity
  8
0-1
  6
Continuous
 62
     3
370
     9
100
AcDbCircle
 10
1070.497667467272
 20
510.8783073008243
 30
0.0
 40
7.500000096656181
100
AcDbArc
 50
272.5633697509766
 51
0.0
  0
ARC
  5
1D9
330
1F
100
AcDbEntity
  8
0-0
  6
Continuous
 62
     2
370
     9
100
AcDbCircle
 10
1149.247370539484
 20
583.7859561606246
 30
0.0
 40
12.50000064437454
100
AcDbArc
 50
0.0
 51
87.99536132812501
  0
ARC
  5
1DA
330
1F
100
AcDbEntity
  8
0-0
  6
Continuous
 62
     2
370
     9
100
AcDbCircle
 10
1154.247139595651
 20
529.0441018795826
 30
0.0
 40
7.500000096656181
100
AcDbArc
 50
272.3359985351562
 51
0.0000000000000254
  0
ARC
  5
1DB
330
1F
100
AcDbEntity
  8
0-0
  6
Continuous
 62
     2
370
     9
100
AcDbCircle
 10
1151.747007627745
 20
546.381962811808
 30
0.0
 40
10.00000012887491
100
AcDbArc
 50
0.0
 51
86.90559387207031
  0
ARC
  5
1DC
330
1F
100
AcDbEntity
  8
0-0
  6
Continuous
 62
     2
370
     9
100
AcDbCircle
 10
1117.997205579603
 20
560.7248121308538
 30
0.0
 40
2.500000032218727
100
AcDbArc
 50
180.0
 51
266.9099273681641
  0
ARC
  5
1DD
330
1F
100
AcDbEntity
  8
0-0
  6
Continuous
 62
     2
370
     9
100
AcDbCircle
 10
1117.997205579603
 20
509.8558859536996
 30
0.0
 40
2.500000032218727
100
AcDbArc
 50
180.0
 51
267.6658172607422
  0
ARC
  5
1DE
330
1F
100
AcDbEntity
  8
0-0
  6
Continuous
 62
     2
370
     9
100
AcDbCircle
 10
1154.246892155828
 20
672.9068519587662
 30
0.0
 40
2.500000032218727
100
AcDbArc
 50
101.3099365234375
 51
180.0
  0
ARC
  5
1DF
330
1F
100
AcDbEntity
  8
0-0
  6
Continuous
 62
     2
370
     9
100
AcDbCircle
 10
1154.246892155828
 20
655.9916182436035
 30
0.0
 40
2.500000032218727
100
AcDbArc
 50
180.0
 51
225.0040130615234
  0
ARC
  5
1E0
330
1F
100
AcDbEntity
  8
0-0
  6
Continuous
 62
     2
370
     9
100
AcDbCircle
 10
1144.247354043497
 20
639.5940286373951
 30
0.0
 40
12.50000064437454
100
AcDbArc
 50
271.6842498779297
 51
0.0000000000000254
  0
ARC
  5
1E1
330
1F
100
AcDbEntity
  8
0-0
  6
Continuous
 62
     2
370
     9
100
AcDbCircle
 10
1147.47966044658
 20
632.826054608683
 30
0.0
 40
5.000000064437454
100
AcDbArc
 50
295.5290069580078
 51
0.0000000000000254
  0
ARC
  5
1E2
330
1F
100
AcDbEntity
  8
0-0
  6
Continuous
 62
     2
370
     9
100
AcDbCircle
 10
1154.247139595651
 20
648.9207778719828
 30
0.0
 40
2.500000032218727
100
AcDbArc
 50
0.0
 51
45.00401306152344
  0
ARC
  5
1E3
330
1F
100
AcDbEntity
  8
0-0
  6
Continuous
 62
     2
370
     9
100
AcDbCircle
 10
1149.247370539484
 20
-698.8731723893153
 30
0.0
 40
12.50000064437454
100
AcDbArc
 50
272.004638671875
 51
0.0
  0
ARC
  5
1E4
330
1F
100
AcDbEntity
  8
0-0
  6
Continuous
 62
     2
370
     9
100
AcDbCircle
 10
1154.247139595651
 20
-644.1310088084975
 30
0.0
 40
7.500000096656181
100
AcDbArc
 50
0.0
 51
87.66400146484375
  0
ARC
  5
1E5
330
1F
100
AcDbEntity
  8
0-0
  6
Continuous
 62
     2
370
     9
100
AcDbCircle
 10
1151.747007627745
 20
-661.4692409004539
 30
0.0
 40
10.00000012887491
100
AcDbArc
 50
273.0944061279297
 51
0.0
  0
ARC
  5
1E6
330
1F
100
AcDbEntity
  8
0-0
  6
Continuous
 62
     2
370
     9
100
AcDbCircle
 10
1117.997205579603
 20
-675.8117809197194
 30
0.0
 40
2.500000032218727
100
AcDbArc
 50
93.09007263183594
 51
180.0
  0
ARC
  5
1E7
330
1F
100
AcDbEntity
  8
0-0
  6
Continuous
 62
     2
370
     9
100
AcDbCircle
 10
1117.997205579603
 20
-632.6430583030589
 30
0.0
 40
2.500000032218727
100
AcDbArc
 50
180.0
 51
267.6658172607422
  0
ARC
  5
1E8
330
1F
100
AcDbEntity
  8
0-0
  6
Continuous
 62
     2
370
     9
100
AcDbCircle
 10
1117.997205579603
 20
-624.9432259023007
 30
0.0
 40
2.500000032218727
100
AcDbArc
 50
92.3341827392578
 51
180.0
  0
ARC
  5
1E9
330
1F
100
AcDbEntity
  8
0-0
  6
Continuous
 62
     2
370
     9
100
AcDbCircle
 10
1154.246892155828
 20
-787.9938826075869
 30
0.0
 40
2.500000032218727
100
AcDbArc
 50
180.0
 51
258.6900634765625
  0
ARC
  5
1EA
330
1F
100
AcDbEntity
  8
0-0
  6
Continuous
 62
     2
370
     9
100
AcDbCircle
 10
1154.246892155828
 20
-771.0788344722943
 30
0.0
 40
2.500000032218727
100
AcDbArc
 50
134.9959869384766
 51
180.0
  0
ARC
  5
1EB
330
1F
100
AcDbEntity
  8
0-0
  6
Continuous
 62
     2
370
     9
100
AcDbCircle
 10
1144.247354043497
 20
-754.6810592862204
 30
0.0
 40
12.50000064437454
100
AcDbArc
 50
0.0
 51
88.31575012207031
  0
ARC
  5
1EC
330
1F
100
AcDbEntity
  8
0-0
  6
Continuous
 62
     2
370
     9
100
AcDbCircle
 10
1147.47966044658
 20
-747.9131471174588
 30
0.0
 40
5.000000064437454
100
AcDbArc
 50
0.0
 51
64.47099304199219
  0
ARC
  5
1ED
330
1F
100
AcDbEntity
  8
0-0
  6
Continuous
 62
     2
370
     9
100
AcDbCircle
 10
1154.247139595651
 20
-764.0077466608483
 30
0.0
 40
2.500000032218727
100
AcDbArc
 50
314.9959869384766
 51
0.0
  0
ARC
  5
1EE
330
1F
100
AcDbEntity
  8
0-1
  6
Continuous
 62
     3
370
     9
100
AcDbCircle
 10
1081.747271563555
 20
38.35027236892245
 30
0.0
 40
3.75000004832809
100
AcDbArc
 50
180.0
 51
264.2901611328125
  0
ARC
  5
1EF
330
1F
100
AcDbEntity
  8
0-1
  6
Continuous
 62
     3
370
     9
100
AcDbCircle
 10
1081.747271563555
 20
46.56292380209095
 30
0.0
 40
3.75000004832809
100
AcDbArc
 50
95.7098388671875
 51
180.0
  0
ARC
  5
1F0
330
1F
100
AcDbEntity
  8
0-1
  6
Continuous
 62
     3
370
     9
100
AcDbCircle
 10
1062.997271563555
 20
453.0857674465159
 30
0.0
 40
15.00000019331236
100
AcDbArc
 50
0.0
 51
87.54554748535156
  0
ARC
  5
1F1
330
1F
100
AcDbEntity
  8
0-0
  6
Continuous
 62
     2
370
     9
100
AcDbCircle
 10
1117.997205579603
 20
517.5562132341037
 30
0.0
 40
2.500000032218727
100
AcDbArc
 50
92.3341827392578
 51
180.0
  0
ARC
  5
1F2
330
1F
100
AcDbEntity
  8
0-1
  6
Continuous
 62
     3
370
     9
100
AcDbCircle
 10
1074.247370539484
 20
560.1203166441536
 30
0.0
 40
3.75000004832809
100
AcDbArc
 50
0.0
 51
87.43663024902344
  0
ARC
  5
1F3
330
1F
100
AcDbEntity
  8
0-1
  6
Continuous
 62
     3
370
     9
100
AcDbCircle
 10
1111.747370539484
 20
-696.1119914085276
 30
0.0
 40
3.75000004832809
100
AcDbArc
 50
272.4535064697266
 51
0.0000000000000127
  0
ARC
  5
1F4
330
1F
100
AcDbEntity
  8
0-1
  6
Continuous
 62
     3
370
     9
100
AcDbCircle
 10
1111.747370539484
 20
-677.0105650004308
 30
0.0
 40
3.75000004832809
100
AcDbArc
 50
0.0
 51
81.25657653808594
  0
ARC
  5
1F5
330
1F
100
AcDbEntity
  8
0-1
  6
Continuous
 62
     3
370
     9
100
AcDbCircle
 10
1111.747370539484
 20
561.9234106316952
 30
0.0
 40
3.75000004832809
100
AcDbArc
 50
278.7429962158203
 51
0.0000000000000254
  0
ARC
  5
1F6
330
1F
100
AcDbEntity
  8
0-1
  6
Continuous
 62
     3
370
     9
100
AcDbCircle
 10
1111.747370539484
 20
581.0250226196621
 30
0.0
 40
3.75000004832809
100
AcDbArc
 50
0.0
 51
87.54644775390626
  0
ARC
  5
1F7
330
1F
100
AcDbEntity
  8
0-1
  6
Continuous
 62
     3
370
     9
100
AcDbCircle
 10
907.9972550675677
 20
489.9560330979119
 30
0.0
 40
2.500000032218727
100
AcDbArc
 50
270.0
 51
0.0
  0
ARC
  5
1F8
330
1F
100
AcDbEntity
  8
0-1
  6
Continuous
 62
     3
370
     9
100
AcDbCircle
 10
907.9972550675677
 20
577.4564454976161
 30
0.0
 40
2.500000032218727
100
AcDbArc
 50
0.0
 51
90.0
  0
ARC
  5
1F9
330
1F
100
AcDbEntity
  8
0-1
  6
Continuous
 62
     3
370
     9
100
AcDbCircle
 10
912.9972715635552
 20
493.8158468911996
 30
0.0
 40
2.500000032218727
100
AcDbArc
 50
92.56130981445311
 51
180.0
  0
ARC
  5
1FA
330
1F
100
AcDbEntity
  8
0-1
  6
Continuous
 62
     3
370
     9
100
AcDbCircle
 10
912.9972715635552
 20
573.5971265839788
 30
0.0
 40
2.500000032218727
100
AcDbArc
 50
180.0
 51
267.4386901855469
  0
ARC
  5
1FB
330
1F
100
AcDbEntity
  8
0-1
  6
Continuous
 62
     3
370
     9
100
AcDbCircle
 10
-700.7769198031042
 20
482.456626953487
 30
0.0
 40
7.500000096656181
100
AcDbArc
 50
270.0
 51
0.0
  0
ARC
  5
1FC
330
1F
100
AcDbEntity
  8
0-1
  6
Continuous
 62
     3
370
     9
100
AcDbCircle
 10
-700.7769198031042
 20
482.456626953487
 30
0.0
 40
15.00000019331236
100
AcDbArc
 50
270.0
 51
0.0
  0
ARC
  5
1FD
330
1F
100
AcDbEntity
  8
0-1
  6
Continuous
 62
     3
370
     9
100
AcDbCircle
 10
-873.2773651947855
 20
482.456626953487
 30
0.0
 40
7.500000096656181
100
AcDbArc
 50
180.0
 51
270.0
  0
ARC
  5
1FE
330
1F
100
AcDbEntity
  8
0-1
  6
Continuous
 62
     3
370
     9
100
AcDbCircle
 10
-873.2773651947855
 20
482.456626953487
 30
0.0
 40
15.00000019331236
100
AcDbArc
 50
180.0
 51
270.0
  0
ARC
  5
1FF
330
1F
100
AcDbEntity
  8
0-1
  6
Continuous
 62
     3
370
     9
100
AcDbCircle
 10
-860.7772002349031
 20
574.956313529712
 30
0.0
 40
5.000000064437454
100
AcDbArc
 50
90.0
 51
180.0
  0
ARC
  5
200
330
1F
100
AcDbEntity
  8
0-1
  6
Continuous
 62
     3
370
     9
100
AcDbCircle
 10
-713.2770847629854
 20
574.956313529712
 30
0.0
 40
5.000000064437454
100
AcDbArc
 50
0.0
 51
90.0
  0
ARC
  5
201
330
1F
100
AcDbEntity
  8
0-1
  6
Continuous
 62
     3
370
     9
100
AcDbCircle
 10
-860.7772002349031
 20
492.4564125056412
 30
0.0
 40
5.000000064437454
100
AcDbArc
 50
180.0
 51
270.0
  0
ARC
  5
202
330
1F
100
AcDbEntity
  8
0-1
  6
Continuous
 62
     3
370
     9
100
AcDbCircle
 10
-713.2770847629854
 20
492.4564125056412
 30
0.0
 40
5.000000064437454
100
AcDbArc
 50
270.0
 51
0.0
  0
ARC
  5
203
330
1F
100
AcDbEntity
  8
0-2
  6
Continuous
 62
     6
370
     5
100
AcDbCircle
 10
-717.0270352750208
 20
571.8316434494744
 30
0.0
 40
5.000000064437454
100
AcDbArc
 50
0.0
 51
90.0
  0
ARC
  5
204
330
1F
100
AcDbEntity
  8
0-2
  6
Continuous
 62
     6
370
     5
100
AcDbCircle
 10
-857.0272497228666
 20
571.8316434494744
 30
0.0
 40
5.000000064437454
100
AcDbArc
 50
90.0
 51
180.0
  0
ARC
  5
205
330
1F
100
AcDbEntity
  8
0-2
  6
Continuous
 62
     6
370
     5
100
AcDbCircle
 10
-857.0272497228666
 20
495.5813300256995
 30
0.0
 40
5.000000064437454
100
AcDbArc
 50
180.0
 51
270.0
  0
ARC
  5
206
330
1F
100
AcDbEntity
  8
0-2
  6
Continuous
 62
     6
370
     5
100
AcDbCircle
 10
-717.0270352750208
 20
495.5813300256995
 30
0.0
 40
5.000000064437454
100
AcDbArc
 50
270.0
 51
0.0
  0
ARC
  5
207
330
1F
100
AcDbEntity
  8
0-1
  6
Continuous
 62
     3
370
     9
100
AcDbCircle
 10
-895.777068266998
 20
549.0352600299201
 30
0.0
 40
7.500000096656181
100
AcDbArc
 50
0.0
 51
100.1642608642578
  0
ARC
  5
208
330
1F
100
AcDbEntity
  8
0-1
  6
Continuous
 62
     3
370
     9
100
AcDbCircle
 10
-678.2772167308917
 20
549.0352600299201
 30
0.0
 40
7.500000096656181
100
AcDbArc
 50
79.8357391357422
 51
180.0
  0
ARC
  5
209
330
1F
100
AcDbEntity
  8
0-1
  6
Continuous
 62
     3
370
     9
100
AcDbCircle
 10
-787.0271424989437
 20
-57.54342253447987
 30
0.0
 40
623.7500164959882
100
AcDbArc
 50
100.1642456054688
 51
180.0
  0
ARC
  5
20A
330
1F
100
AcDbEntity
  8
0-1
  6
Continuous
 62
     3
370
     9
100
AcDbCircle
 10
-787.0271424989437
 20
-57.54342253447987
 30
0.0
 40
623.7500164959882
100
AcDbArc
 50
0.0
 51
79.83575439453125
  0
ARC
  5
20B
330
1F
100
AcDbEntity
  8
0-1
  6
Continuous
 62
     3
370
     9
100
AcDbCircle
 10
-787.0271424989437
 20
-57.54342253447987
 30
0.0
 40
631.2499793800148
100
AcDbArc
 50
0.0
 51
79.8357391357422
  0
ARC
  5
20C
330
1F
100
AcDbEntity
  8
0-1
  6
Continuous
 62
     3
370
     9
100
AcDbCircle
 10
1099.247700459249
 20
488.7064619936035
 30
0.0
 40
3.75000004832809
100
AcDbArc
 50
90.0037841796875
 51
180.0
  0
ARC
  5
20D
330
1F
100
AcDbEntity
  8
0-1
  6
Continuous
 62
     3
370
     9
100
AcDbCircle
 10
1092.997370539484
 20
-176.59327835954
 30
0.0
 40
10.00000012887491
100
AcDbArc
 50
0.0
 51
84.28877258300783
  0
ARC
  5
20E
330
1F
100
AcDbEntity
  8
0-1
  6
Continuous
 62
     3
370
     9
100
AcDbCircle
 10
1092.997370539484
 20
-138.4934842294734
 30
0.0
 40
10.00000012887491
100
AcDbArc
 50
275.7112274169922
 51
0.0000000000000127
  0
ARC
  5
20F
330
1F
100
AcDbEntity
  8
0-1
  6
Continuous
 62
     3
370
     9
100
AcDbCircle
 10
1081.747271563555
 20
-153.4371174378776
 30
0.0
 40
3.75000004832809
100
AcDbArc
 50
95.7098388671875
 51
180.0
  0
ARC
  5
210
330
1F
100
AcDbEntity
  8
0-1
  6
Continuous
 62
     3
370
     9
100
AcDbCircle
 10
1081.747271563555
 20
-161.6497688710507
 30
0.0
 40
3.75000004832809
100
AcDbArc
 50
180.0
 51
264.2901611328125
  0
ARC
  5
211
330
1F
100
AcDbEntity
  8
0-1
  6
Continuous
 62
     3
370
     9
100
AcDbCircle
 10
1099.24695813978
 20
-603.7934307824736
 30
0.0
 40
3.75000004832809
100
AcDbArc
 50
180.0
 51
270.0037841796875
  0
ARC
  5
212
330
1F
100
AcDbEntity
  8
0-1
  6
Continuous
 62
     3
370
     9
100
AcDbCircle
 10
1102.996908651816
 20
-498.334702095288
 30
0.0
 40
7.500000096656181
100
AcDbArc
 50
164.999755859375
 51
180.0
  0
ARC
  5
213
330
1F
100
AcDbEntity
  8
0-1
  6
Continuous
 62
     3
370
     9
100
AcDbCircle
 10
1085.497469515414
 20
380.942955078487
 30
0.0
 40
7.500000096656181
100
AcDbArc
 50
180.0
 51
195.0011444091797
  0
ARC
  5
214
330
1F
100
AcDbEntity
  8
0-1
  6
Continuous
 62
     3
370
     9
100
AcDbCircle
 10
1102.997403531461
 20
383.246867267041
 30
0.0
 40
7.500000096656181
100
AcDbArc
 50
180.0
 51
195.0011444091797
  0
ARC
  5
215
330
1F
100
AcDbEntity
  8
0-1
  6
Continuous
 62
     3
370
     9
100
AcDbCircle
 10
1112.997436523436
 20
287.9706584410286
 30
0.0
 40
7.500000096656181
100
AcDbArc
 50
0.0
 51
15.00065612792969
  0
ARC
  5
216
330
1F
100
AcDbEntity
  8
0-1
  6
Continuous
 62
     3
370
     9
100
AcDbCircle
 10
1112.997436523436
 20
-403.0575035099838
 30
0.0
 40
7.500000096656181
100
AcDbArc
 50
344.999755859375
 51
0.0000000000000254
  0
ARC
  5
217
330
1F
100
AcDbEntity
  8
0-1
  6
Continuous
 62
     3
370
     9
100
AcDbCircle
 10
1085.496974635768
 20
-496.0306661868236
 30
0.0
 40
7.500000096656181
100
AcDbArc
 50
164.999755859375
 51
180.0
  0
ARC
  5
218
330
1F
100
AcDbEntity
  8
0-1
  6
Continuous
 62
     3
370
     9
100
AcDbCircle
 10
-787.0271424989437
 20
-57.54342253447987
 30
0.0
 40
502.3050050477724
100
AcDbArc
 50
180.0
 51
0.0
  0
ARC
  5
219
330
1F
100
AcDbEntity
  8
0-1
  6
Continuous
 62
     3
370
     9
100
AcDbCircle
 10
-787.0271424989437
 20
-57.54342253447987
 30
0.0
 40
409.0549881393845
100
AcDbArc
 50
180.0
 51
0.0
  0
ARC
  5
21A
330
1F
100
AcDbEntity
  8
0-1
  6
Continuous
 62
     3
370
     9
100
AcDbCircle
 10
-895.777068266998
 20
549.0352600299201
 30
0.0
 40
15.00000019331236
100
AcDbArc
 50
358.7441864013672
 51
100.1642608642578
  0
ARC
  5
21B
330
1F
100
AcDbEntity
  8
0-1
  6
Continuous
 62
     3
370
     9
100
AcDbCircle
 10
-678.2772167308917
 20
549.0352600299201
 30
0.0
 40
15.00000019331236
100
AcDbArc
 50
79.8357391357422
 51
181.2558135986328
  0
ARC
  5
21C
330
1F
100
AcDbEntity
  8
0-1
  6
Continuous
 62
     3
370
     9
100
AcDbCircle
 10
1092.997370539484
 20
223.4068041204017
 30
0.0
 40
10.00000012887491
100
AcDbArc
 50
0.0
 51
84.28884887695312
  0
ARC
  5
21D
330
1F
100
AcDbEntity
  8
0-1
  6
Continuous
 62
     3
370
     9
100
AcDbCircle
 10
1081.747271563555
 20
238.3504373288014
 30
0.0
 40
3.75000004832809
100
AcDbArc
 50
180.0
 51
264.2901611328125
  0
ARC
  5
21E
330
1F
100
AcDbEntity
  8
0-1
  6
Continuous
 62
     3
370
     9
100
AcDbCircle
 10
1081.747271563555
 20
246.5628413221538
 30
0.0
 40
3.75000004832809
100
AcDbArc
 50
95.7098388671875
 51
180.0
  0
ARC
  5
21F
330
1F
100
AcDbEntity
  8
0-1
  6
Continuous
 62
     3
370
     9
100
AcDbCircle
 10
1092.997370539484
 20
261.506474530558
 30
0.0
 40
10.00000012887491
100
AcDbArc
 50
275.7111511230469
 51
357.1017303466797
  0
ARC
  5
220
330
1F
100
AcDbEntity
  8
0-1
  6
Continuous
 62
     3
370
     9
100
AcDbCircle
 10
1095.497502507391
 20
285.6669936922953
 30
0.0
 40
7.500000096656181
100
AcDbArc
 50
0.0
 51
15.00114440917969
  0
ARC
  5
221
330
1F
100
AcDbEntity
  8
0-1
  6
Continuous
 62
     3
370
     9
100
AcDbCircle
 10
1092.997370539484
 20
-338.4936491893569
 30
0.0
 40
10.00000012887491
100
AcDbArc
 50
275.7111511230469
 51
0.0000000000000254
  0
ARC
  5
222
330
1F
100
AcDbEntity
  8
0-1
  6
Continuous
 62
     3
370
     9
100
AcDbCircle
 10
1081.747271563555
 20
-353.4372823977611
 30
0.0
 40
3.75000004832809
100
AcDbArc
 50
95.7098388671875
 51
180.0
  0
ARC
  5
223
330
1F
100
AcDbEntity
  8
0-1
  6
Continuous
 62
     3
370
     9
100
AcDbCircle
 10
1081.747271563555
 20
-361.649686391109
 30
0.0
 40
3.75000004832809
100
AcDbArc
 50
180.0
 51
264.2901611328125
  0
ARC
  5
224
330
1F
100
AcDbEntity
  8
0-1
  6
Continuous
 62
     3
370
     9
100
AcDbCircle
 10
1092.997370539484
 20
-376.5933195995132
 30
0.0
 40
10.00000012887491
100
AcDbArc
 50
2.898269653320312
 51
84.28884887695314
  0
ARC
  5
225
330
1F
100
AcDbEntity
  8
0-1
  6
Continuous
 62
     3
370
     9
100
AcDbCircle
 10
1099.239287505278
 20
-401.2772977060359
 30
0.0
 40
3.75000004832809
100
AcDbArc
 50
344.9998321533203
 51
2.89854431152343
  0
ARC
  5
226
330
1F
100
AcDbEntity
  8
0-0
  6
Continuous
 62
     2
370
     9
100
AcDbCircle
 10
-815.7771754909209
 20
669.3882576808909
 30
0.0
 40
5.000000064437454
100
AcDbArc
 50
0.0
 51
92.26457214355467
  0
ARC
  5
227
330
1F
100
AcDbEntity
  8
0-0
  6
Continuous
 62
     2
370
     9
100
AcDbCircle
 10
-815.7771754909209
 20
669.3882576808909
 30
0.0
 40
10.00000012887491
100
AcDbArc
 50
0.0
 51
92.26457214355467
  0
ARC
  5
228
330
1F
100
AcDbEntity
  8
0-0
  6
Continuous
 62
     2
370
     9
100
AcDbCircle
 10
-847.0272167308917
 20
642.3893563137034
 30
0.0
 40
5.000000064437454
100
AcDbArc
 50
0.0
 51
94.89942932128906
  0
ARC
  5
229
330
1F
100
AcDbEntity
  8
0-0
  6
Continuous
 62
     2
370
     9
100
AcDbCircle
 10
-847.0272167308917
 20
642.3893563137034
 30
0.0
 40
10.00000012887491
100
AcDbArc
 50
0.0
 51
94.89942932128906
  0
ARC
  5
22A
330
1F
100
AcDbEntity
  8
0-0
  6
Continuous
 62
     2
370
     9
100
AcDbCircle
 10
-847.0272167308917
 20
629.8429201069911
 30
0.0
 40
5.000000064437454
100
AcDbArc
 50
274.9883117675781
 51
0.0000000000000127
  0
ARC
  5
22B
330
1F
100
AcDbEntity
  8
0-0
  6
Continuous
 62
     2
370
     9
100
AcDbCircle
 10
-758.2771095069688
 20
669.3882576808909
 30
0.0
 40
5.000000064437454
100
AcDbArc
 50
87.73542785644531
 51
180.0
  0
ARC
  5
22C
330
1F
100
AcDbEntity
  8
0-0
  6
Continuous
 62
     2
370
     9
100
AcDbCircle
 10
-758.2771095069688
 20
669.3882576808909
 30
0.0
 40
10.00000012887491
100
AcDbArc
 50
87.73542785644531
 51
180.0
  0
ARC
  5
22D
330
1F
100
AcDbEntity
  8
0-0
  6
Continuous
 62
     2
370
     9
100
AcDbCircle
 10
-727.027068266998
 20
642.3893563137034
 30
0.0
 40
5.000000064437454
100
AcDbArc
 50
85.10057067871094
 51
180.0
  0
ARC
  5
22E
330
1F
100
AcDbEntity
  8
0-0
  6
Continuous
 62
     2
370
     9
100
AcDbCircle
 10
-727.027068266998
 20
642.3893563137034
 30
0.0
 40
10.00000012887491
100
AcDbArc
 50
85.10057067871094
 51
180.0
  0
ARC
  5
22F
330
1F
100
AcDbEntity
  8
0-0
  6
Continuous
 62
     2
370
     9
100
AcDbCircle
 10
-727.027068266998
 20
629.8429201069911
 30
0.0
 40
5.000000064437454
100
AcDbArc
 50
180.0
 51
265.0116882324219
  0
ARC
  5
230
330
1F
100
AcDbEntity
  8
0-0
  6
Continuous
 62
     2
370
     9
100
AcDbCircle
 10
-787.0271424989437
 20
-57.54342253447987
 30
0.0
 40
712.4999381400444
100
AcDbArc
 50
94.89956665039062
 51
175.1004333496094
  0
ARC
  5
231
330
1F
100
AcDbEntity
  8
0-0
  6
Continuous
 62
     2
370
     9
100
AcDbCircle
 10
-787.0271424989437
 20
-57.54342253447987
 30
0.0
 40
707.4999216440563
100
AcDbArc
 50
94.89956665039062
 51
175.1004333496094
  0
ARC
  5
232
330
1F
100
AcDbEntity
  8
0-0
  6
Continuous
 62
     2
370
     9
100
AcDbCircle
 10
-1513.958822714317
 20
-86.29345552645475
 30
0.0
 40
10.00000012887491
100
AcDbArc
 50
90.0
 51
182.2645721435547
  0
ARC
  5
233
330
1F
100
AcDbEntity
  8
0-0
  6
Continuous
 62
     2
370
     9
100
AcDbCircle
 10
-1486.959921347129
 20
2.456651697468146
 30
0.0
 40
5.000000064437454
100
AcDbArc
 50
175.1005706787109
 51
270.0
  0
ARC
  5
234
330
1F
100
AcDbEntity
  8
0-0
  6
Continuous
 62
     2
370
     9
100
AcDbCircle
 10
-1486.959921347129
 20
2.456651697468146
 30
0.0
 40
10.00000012887491
100
AcDbArc
 50
175.1005706787109
 51
270.0
  0
ARC
  5
235
330
1F
100
AcDbEntity
  8
0-0
  6
Continuous
 62
     2
370
     9
100
AcDbCircle
 10
-1474.41354700037
 20
2.456651697468146
 30
0.0
 40
5.000000064437454
100
AcDbArc
 50
270.0
 51
355.0116882324219
  0
ARC
  5
236
330
1F
100
AcDbEntity
  8
0-0
  6
Continuous
 62
     2
370
     9
100
AcDbCircle
 10
-787.0271424989437
 20
-57.54342253447987
 30
0.0
 40
684.9999092720651
100
AcDbArc
 50
94.98854064941408
 51
175.0114593505859
  0
ARC
  5
237
330
1F
100
AcDbEntity
  8
0-0
  6
Continuous
 62
     2
370
     9
100
AcDbCircle
 10
-1513.958822714317
 20
-28.79338954250045
 30
0.0
 40
10.00000012887491
100
AcDbArc
 50
177.7354431152344
 51
270.0
  0
ARC
  5
238
330
1F
100
AcDbEntity
  8
0-0
  6
Continuous
 62
     2
370
     9
100
AcDbCircle
 10
-1513.958822714317
 20
-28.79338954250045
 30
0.0
 40
5.000000064437454
100
AcDbArc
 50
177.7354431152344
 51
270.0
  0
ARC
  5
239
330
1F
100
AcDbEntity
  8
0-0
  6
Continuous
 62
     2
370
     9
100
AcDbCircle
 10
-787.0271424989437
 20
-57.54342253447987
 30
0.0
 40
737.5000206199853
100
AcDbArc
 50
92.26486206054689
 51
177.7351379394531
  0
ARC
  5
23A
330
1F
100
AcDbEntity
  8
0-0
  6
Continuous
 62
     2
370
     9
100
AcDbCircle
 10
-787.0271424989437
 20
-57.54342253447987
 30
0.0
 40
732.5000041239971
100
AcDbArc
 50
92.26486206054689
 51
177.7351379394531
  0
ARC
  5
23B
330
1F
100
AcDbEntity
  8
0-0
  6
Continuous
 62
     2
370
     9
100
AcDbCircle
 10
-60.09521484375114
 20
-86.29345552645475
 30
0.0
 40
10.00000012887491
100
AcDbArc
 50
357.7354278564453
 51
89.99999999999999
  0
ARC
  5
23C
330
1F
100
AcDbEntity
  8
0-0
  6
Continuous
 62
     2
370
     9
100
AcDbCircle
 10
-87.09436365076044
 20
2.456651697468146
 30
0.0
 40
5.000000064437454
100
AcDbArc
 50
270.0
 51
4.899429321289056
  0
ARC
  5
23D
330
1F
100
AcDbEntity
  8
0-0
  6
Continuous
 62
     2
370
     9
100
AcDbCircle
 10
-87.09436365076044
 20
2.456651697468146
 30
0.0
 40
10.00000012887491
100
AcDbArc
 50
270.0
 51
4.899429321289056
  0
ARC
  5
23E
330
1F
100
AcDbEntity
  8
0-0
  6
Continuous
 62
     2
370
     9
100
AcDbCircle
 10
-99.64055241765209
 20
2.456651697468146
 30
0.0
 40
5.000000064437454
100
AcDbArc
 50
184.9883117675781
 51
270.0
  0
ARC
  5
23F
330
1F
100
AcDbEntity
  8
0-0
  6
Continuous
 62
     2
370
     9
100
AcDbCircle
 10
-60.09521484375114
 20
-28.79338954250045
 30
0.0
 40
10.00000012887491
100
AcDbArc
 50
270.0
 51
2.264556884765632
  0
ARC
  5
240
330
1F
100
AcDbEntity
  8
0-0
  6
Continuous
 62
     2
370
     9
100
AcDbCircle
 10
-60.09521484375114
 20
-28.79338954250045
 30
0.0
 40
5.000000064437454
100
AcDbArc
 50
270.0
 51
2.264556884765632
  0
ARC
  5
241
330
1F
100
AcDbEntity
  8
0-0
  6
Continuous
 62
     2
370
     9
100
AcDbCircle
 10
-787.0271424989437
 20
-57.54342253447987
 30
0.0
 40
684.9999092720651
100
AcDbArc
 50
4.988540649414063
 51
85.01145935058594
  0
ARC
  5
242
330
1F
100
AcDbEntity
  8
0-0
  6
Continuous
 62
     2
370
     9
100
AcDbCircle
 10
-787.0271424989437
 20
-57.54342253447987
 30
0.0
 40
707.4999216440563
100
AcDbArc
 50
4.899566650390625
 51
85.10043334960938
  0
ARC
  5
243
330
1F
100
AcDbEntity
  8
0-0
  6
Continuous
 62
     2
370
     9
100
AcDbCircle
 10
-787.0271424989437
 20
-57.54342253447987
 30
0.0
 40
712.4999381400444
100
AcDbArc
 50
4.899551391601562
 51
85.10044860839845
  0
ARC
  5
244
330
1F
100
AcDbEntity
  8
0-0
  6
Continuous
 62
     2
370
     9
100
AcDbCircle
 10
-787.0271424989437
 20
-57.54342253447987
 30
0.0
 40
737.5000206199853
100
AcDbArc
 50
2.264862060546875
 51
87.73513793945311
  0
ARC
  5
245
330
1F
100
AcDbEntity
  8
0-0
  6
Continuous
 62
     2
370
     9
100
AcDbCircle
 10
-787.0271424989437
 20
-57.54342253447987
 30
0.0
 40
732.5000041239971
100
AcDbArc
 50
2.264862060546875
 51
87.73513793945311
  0
ARC
  5
246
330
1F
100
AcDbEntity
  8
0-0
  6
Continuous
 62
     2
370
     9
100
AcDbCircle
 10
-787.0271424989437
 20
-57.54342253447987
 30
0.0
 40
550.0000206199852
100
AcDbArc
 50
180.0
 51
0.0
  0
ARC
  5
247
330
1F
100
AcDbEntity
  8
0-0
  6
Continuous
 62
     2
370
     9
100
AcDbCircle
 10
-787.0271424989437
 20
-57.54342253447987
 30
0.0
 40
562.5
100
AcDbArc
 50
180.0
 51
0.0
  0
ARC
  5
248
330
1F
100
AcDbEntity
  8
0-0
  6
Continuous
 62
     2
370
     9
100
AcDbCircle
 10
-758.2771095069688
 20
-784.4751027498506
 30
0.0
 40
10.00000012887491
100
AcDbArc
 50
180.0
 51
272.2645721435547
  0
ARC
  5
249
330
1F
100
AcDbEntity
  8
0-0
  6
Continuous
 62
     2
370
     9
100
AcDbCircle
 10
-815.7771754909209
 20
-784.4751027498506
 30
0.0
 40
10.00000012887491
100
AcDbArc
 50
267.7354431152344
 51
0.0000000000000382
  0
ARC
  5
24A
330
1F
100
AcDbEntity
  8
0-0
  6
Continuous
 62
     2
370
     9
100
AcDbCircle
 10
-787.0271424989437
 20
-57.54342253447987
 30
0.0
 40
737.5000206199853
100
AcDbArc
 50
182.2648620605469
 51
267.7351379394531
  0
ARC
  5
24B
330
1F
100
AcDbEntity
  8
0-0
  6
Continuous
 62
     2
370
     9
100
AcDbCircle
 10
-787.0271424989437
 20
-57.54342253447987
 30
0.0
 40
677.5000082479942
100
AcDbArc
 50
0.0
 51
178.8993225097657
  0
ARC
  5
24C
330
1F
100
AcDbEntity
  8
0-0
  6
Continuous
 62
     2
370
     9
100
AcDbCircle
 10
-787.0271424989437
 20
-57.54342253447987
 30
0.0
 40
662.5000206199853
100
AcDbArc
 50
0.000152587890625
 51
179.6179504394531
  0
ARC
  5
24D
330
1F
100
AcDbEntity
  8
0-0
  6
Continuous
 62
     2
370
     9
100
AcDbCircle
 10
-599.5271424989448
 20
-57.54342253447987
 30
0.0
 40
867.4999546360325
100
AcDbArc
 50
176.2932434082032
 51
180.0
  0
ARC
  5
24E
330
1F
100
AcDbEntity
  8
0-0
  6
Continuous
 62
     2
370
     9
100
AcDbCircle
 10
-1474.41354700037
 20
2.456651697468146
 30
0.0
 40
10.00000012887491
100
AcDbArc
 50
270.0
 51
336.9332580566406
  0
ARC
  5
24F
330
1F
100
AcDbEntity
  8
0-0
  6
Continuous
 62
     2
370
     9
100
AcDbCircle
 10
-974.5271424989437
 20
-57.54342253447987
 30
0.0
 40
867.4999546360325
100
AcDbArc
 50
0.0
 51
3.706756591796875
  0
ARC
  5
250
330
1F
100
AcDbEntity
  8
0-0
  6
Continuous
 62
     2
370
     9
100
AcDbCircle
 10
-99.64079985747503
 20
2.456651697468146
 30
0.0
 40
10.00000012887491
100
AcDbArc
 50
203.0667419433594
 51
270.0
  0
ARC
  5
251
330
1F
100
AcDbEntity
  8
0-0
  6
Continuous
 62
     2
370
     9
100
AcDbCircle
 10
-847.0272167308917
 20
629.8429201069911
 30
0.0
 40
10.00000012887491
100
AcDbArc
 50
274.9884338378906
 51
0.0000000000000382
  0
ARC
  5
252
330
1F
100
AcDbEntity
  8
0-0
  6
Continuous
 62
     2
370
     9
100
AcDbCircle
 10
-787.0271424989437
 20
-57.54342253447987
 30
0.0
 40
680.0000164959881
100
AcDbArc
 50
85.01145935058594
 51
94.98854064941406
  0
ARC
  5
253
330
1F
100
AcDbEntity
  8
0-0
  6
Continuous
 62
     2
370
     9
100
AcDbCircle
 10
-727.027068266998
 20
629.8429201069911
 30
0.0
 40
10.00000012887491
100
AcDbArc
 50
180.0
 51
265.0115661621094
  0
ARC
  5
254
330
1F
100
AcDbEntity
  8
0-1
  6
Continuous
 62
     3
370
     9
100
AcDbCircle
 10
-787.0271424989437
 20
-57.54342253447987
 30
0.0
 40
656.25
100
AcDbArc
 50
0.0
 51
179.701904296875
  0
ARC
  5
255
330
1F
100
AcDbEntity
  8
0-1
  6
Continuous
 62
     3
370
     9
100
AcDbCircle
 10
-787.0271424989437
 20
-57.54342253447987
 30
0.0
 40
631.2499793800148
100
AcDbArc
 50
100.1642608642578
 51
178.3668212890625
  0
ARC
  5
256
330
1F
100
AcDbEntity
  8
0-0
  6
Continuous
 62
     2
370
     9
100
AcDbCircle
 10
904.2473045555323
 20
617.5285824539077
 30
0.0
 40
2.500000032218727
100
AcDbArc
 50
91.68084716796875
 51
180.0
  0
ARC
  5
257
330
1F
100
AcDbEntity
  8
0-0
  6
Continuous
 62
     2
370
     9
100
AcDbCircle
 10
904.2473045555323
 20
607.3701879754452
 30
0.0
 40
2.500000032218727
100
AcDbArc
 50
180.0
 51
267.9953308105469
  0
ARC
  5
258
330
1F
100
AcDbEntity
  8
0-0
  6
Continuous
 62
     2
370
     9
100
AcDbCircle
 10
904.2473045555323
 20
-722.4572804842256
 30
0.0
 40
2.500000032218727
100
AcDbArc
 50
92.00457763671875
 51
180.0
  0
ARC
  5
259
330
1F
100
AcDbEntity
  8
0-0
  6
Continuous
 62
     2
370
     9
100
AcDbCircle
 10
904.2473045555323
 20
-732.6158605425536
 30
0.0
 40
2.500000032218727
100
AcDbArc
 50
180.0
 51
268.3191528320313
  0
ARC
  5
25A
330
1F
100
AcDbEntity
  8
0-1
  6
Continuous
 62
     3
370
     9
100
AcDbCircle
 10
-707.0270022830459
 20
262.4567671693848
 30
0.0
 40
10.00000012887491
100
AcDbArc
 50
270.0
 51
0.0
  0
ARC
  5
25B
330
1F
100
AcDbEntity
  8
0-1
  6
Continuous
 62
     3
370
     9
100
AcDbCircle
 10
-667.0273651947855
 20
262.4567671693848
 30
0.0
 40
10.00000012887491
100
AcDbArc
 50
180.0
 51
270.0
  0
ARC
  5
25C
330
1F
100
AcDbEntity
  8
0-1
  6
Continuous
 62
     3
370
     9
100
AcDbCircle
 10
-667.0273651947855
 20
222.4566352014807
 30
0.0
 40
10.00000012887491
100
AcDbArc
 50
90.0
 51
180.0
  0
ARC
  5
25D
330
1F
100
AcDbEntity
  8
0-1
  6
Continuous
 62
     3
370
     9
100
AcDbCircle
 10
-707.0270022830459
 20
222.4566352014807
 30
0.0
 40
10.00000012887491
100
AcDbArc
 50
0.0
 51
90.0
  0
ARC
  5
25E
330
1F
100
AcDbEntity
  8
0-1
  6
Continuous
 62
     3
370
     9
100
AcDbCircle
 10
-707.0270022830459
 20
62.45660220950583
 30
0.0
 40
10.00000012887491
100
AcDbArc
 50
270.0
 51
0.0
  0
ARC
  5
25F
330
1F
100
AcDbEntity
  8
0-1
  6
Continuous
 62
     3
370
     9
100
AcDbCircle
 10
-707.0270022830459
 20
22.45647024159723
 30
0.0
 40
10.00000012887491
100
AcDbArc
 50
0.0
 51
90.0
  0
ARC
  5
260
330
1F
100
AcDbEntity
  8
0-1
  6
Continuous
 62
     3
370
     9
100
AcDbCircle
 10
-667.0273651947855
 20
22.45647024159723
 30
0.0
 40
10.00000012887491
100
AcDbArc
 50
90.0
 51
180.0
  0
ARC
  5
261
330
1F
100
AcDbEntity
  8
0-1
  6
Continuous
 62
     3
370
     9
100
AcDbCircle
 10
-667.0273651947855
 20
62.45660220950583
 30
0.0
 40
10.00000012887491
100
AcDbArc
 50
180.0
 51
270.0
  0
ARC
  5
262
330
1F
100
AcDbEntity
  8
0-1
  6
Continuous
 62
     3
370
     9
100
AcDbCircle
 10
-667.0273651947855
 20
62.45660220950583
 30
0.0
 40
12.50000064437454
100
AcDbArc
 50
180.0
 51
270.0
  0
ARC
  5
263
330
1F
100
AcDbEntity
  8
0-1
  6
Continuous
 62
     3
370
     9
100
AcDbCircle
 10
-707.0270022830459
 20
62.45660220950583
 30
0.0
 40
12.50000064437454
100
AcDbArc
 50
270.0
 51
0.0
  0
ARC
  5
264
330
1F
100
AcDbEntity
  8
0-1
  6
Continuous
 62
     3
370
     9
100
AcDbCircle
 10
-667.0273651947855
 20
22.45647024159723
 30
0.0
 40
12.50000064437454
100
AcDbArc
 50
90.0
 51
180.0
  0
ARC
  5
265
330
1F
100
AcDbEntity
  8
0-1
  6
Continuous
 62
     3
370
     9
100
AcDbCircle
 10
-707.0270022830459
 20
22.45647024159723
 30
0.0
 40
12.50000064437454
100
AcDbArc
 50
0.0
 51
90.0
  0
ARC
  5
266
330
1F
100
AcDbEntity
  8
0-1
  6
Continuous
 62
     3
370
     9
100
AcDbCircle
 10
-667.0273651947855
 20
262.4567671693848
 30
0.0
 40
12.50000064437454
100
AcDbArc
 50
180.0
 51
270.0
  0
ARC
  5
267
330
1F
100
AcDbEntity
  8
0-1
  6
Continuous
 62
     3
370
     9
100
AcDbCircle
 10
-667.0273651947855
 20
222.4566352014807
 30
0.0
 40
12.50000064437454
100
AcDbArc
 50
90.0
 51
180.0
  0
ARC
  5
268
330
1F
100
AcDbEntity
  8
0-1
  6
Continuous
 62
     3
370
     9
100
AcDbCircle
 10
-707.0270022830459
 20
222.4566352014807
 30
0.0
 40
12.50000064437454
100
AcDbArc
 50
0.0
 51
90.0
  0
ARC
  5
269
330
1F
100
AcDbEntity
  8
0-1
  6
Continuous
 62
     3
370
     9
100
AcDbCircle
 10
-707.0270022830459
 20
262.4567671693848
 30
0.0
 40
12.50000064437454
100
AcDbArc
 50
270.0
 51
0.0
  0
ARC
  5
26A
330
1F
100
AcDbEntity
  8
0-1
  6
Continuous
 62
     3
370
     9
100
AcDbCircle
 10
-507.0270847629854
 20
262.4567671693848
 30
0.0
 40
10.00000012887491
100
AcDbArc
 50
270.0
 51
0.0
  0
ARC
  5
26B
330
1F
100
AcDbEntity
  8
0-1
  6
Continuous
 62
     3
370
     9
100
AcDbCircle
 10
-467.0273239548146
 20
262.4567671693848
 30
0.0
 40
10.00000012887491
100
AcDbArc
 50
180.0
 51
270.0
  0
ARC
  5
26C
330
1F
100
AcDbEntity
  8
0-1
  6
Continuous
 62
     3
370
     9
100
AcDbCircle
 10
-467.0273239548146
 20
222.4566352014807
 30
0.0
 40
10.00000012887491
100
AcDbArc
 50
90.0
 51
180.0
  0
ARC
  5
26D
330
1F
100
AcDbEntity
  8
0-1
  6
Continuous
 62
     3
370
     9
100
AcDbCircle
 10
-507.0270847629854
 20
222.4566352014807
 30
0.0
 40
10.00000012887491
100
AcDbArc
 50
0.0
 51
90.0
  0
ARC
  5
26E
330
1F
100
AcDbEntity
  8
0-1
  6
Continuous
 62
     3
370
     9
100
AcDbCircle
 10
-507.0270847629854
 20
62.45660220950583
 30
0.0
 40
10.00000012887491
100
AcDbArc
 50
270.0
 51
0.0
  0
ARC
  5
26F
330
1F
100
AcDbEntity
  8
0-1
  6
Continuous
 62
     3
370
     9
100
AcDbCircle
 10
-507.0270847629854
 20
22.45647024159723
 30
0.0
 40
10.00000012887491
100
AcDbArc
 50
0.0
 51
90.0
  0
ARC
  5
270
330
1F
100
AcDbEntity
  8
0-1
  6
Continuous
 62
     3
370
     9
100
AcDbCircle
 10
-467.0273239548146
 20
22.45647024159723
 30
0.0
 40
10.00000012887491
100
AcDbArc
 50
90.0
 51
180.0
  0
ARC
  5
271
330
1F
100
AcDbEntity
  8
0-1
  6
Continuous
 62
     3
370
     9
100
AcDbCircle
 10
-467.0273239548146
 20
62.45660220950583
 30
0.0
 40
10.00000012887491
100
AcDbArc
 50
180.0
 51
270.0
  0
ARC
  5
272
330
1F
100
AcDbEntity
  8
0-1
  6
Continuous
 62
     3
370
     9
100
AcDbCircle
 10
-467.0273239548146
 20
62.45660220950583
 30
0.0
 40
12.50000064437454
100
AcDbArc
 50
180.0
 51
270.0
  0
ARC
  5
273
330
1F
100
AcDbEntity
  8
0-1
  6
Continuous
 62
     3
370
     9
100
AcDbCircle
 10
-507.0270847629854
 20
62.45660220950583
 30
0.0
 40
12.50000064437454
100
AcDbArc
 50
270.0
 51
0.0
  0
ARC
  5
274
330
1F
100
AcDbEntity
  8
0-1
  6
Continuous
 62
     3
370
     9
100
AcDbCircle
 10
-467.0273239548146
 20
22.45647024159723
 30
0.0
 40
12.50000064437454
100
AcDbArc
 50
90.0
 51
180.0
  0
ARC
  5
275
330
1F
100
AcDbEntity
  8
0-1
  6
Continuous
 62
     3
370
     9
100
AcDbCircle
 10
-507.0270847629854
 20
22.45647024159723
 30
0.0
 40
12.50000064437454
100
AcDbArc
 50
0.0
 51
90.0
  0
ARC
  5
276
330
1F
100
AcDbEntity
  8
0-1
  6
Continuous
 62
     3
370
     9
100
AcDbCircle
 10
-467.0273239548146
 20
262.4567671693848
 30
0.0
 40
12.50000064437454
100
AcDbArc
 50
180.0
 51
270.0
  0
ARC
  5
277
330
1F
100
AcDbEntity
  8
0-1
  6
Continuous
 62
     3
370
     9
100
AcDbCircle
 10
-467.0273239548146
 20
222.4566352014807
 30
0.0
 40
12.50000064437454
100
AcDbArc
 50
90.0
 51
180.0
  0
ARC
  5
278
330
1F
100
AcDbEntity
  8
0-1
  6
Continuous
 62
     3
370
     9
100
AcDbCircle
 10
-507.0270847629854
 20
222.4566352014807
 30
0.0
 40
12.50000064437454
100
AcDbArc
 50
0.0
 51
90.0
  0
ARC
  5
279
330
1F
100
AcDbEntity
  8
0-1
  6
Continuous
 62
     3
370
     9
100
AcDbCircle
 10
-507.0270847629854
 20
262.4567671693848
 30
0.0
 40
12.50000064437454
100
AcDbArc
 50
270.0
 51
0.0
  0
ARC
  5
27A
330
1F
100
AcDbEntity
  8
0-1
  6
Continuous
 62
     3
370
     9
100
AcDbCircle
 10
-787.0271424989437
 20
-57.54342253447987
 30
0.0
 40
406.7500243315826
100
AcDbArc
 50
77.05551147460938
 51
90.0
  0
ARC
  5
27B
330
1F
100
AcDbEntity
  8
0-1
  6
Continuous
 62
     3
370
     9
100
AcDbCircle
 10
-787.0271424989437
 20
-57.54342253447987
 30
0.0
 40
406.7500243315826
100
AcDbArc
 50
49.65316772460938
 51
74.46597290039062
  0
ARC
  5
27C
330
1F
100
AcDbEntity
  8
0-1
  6
Continuous
 62
     3
370
     9
100
AcDbCircle
 10
-907.0269198031042
 20
222.4566352014807
 30
0.0
 40
10.00000012887491
100
AcDbArc
 50
0.0
 51
90.0
  0
ARC
  5
27D
330
1F
100
AcDbEntity
  8
0-1
  6
Continuous
 62
     3
370
     9
100
AcDbCircle
 10
-867.0272827148438
 20
222.4566352014807
 30
0.0
 40
10.00000012887491
100
AcDbArc
 50
90.0
 51
180.0
  0
ARC
  5
27E
330
1F
100
AcDbEntity
  8
0-1
  6
Continuous
 62
     3
370
     9
100
AcDbCircle
 10
-867.0272827148438
 20
62.45660220950583
 30
0.0
 40
10.00000012887491
100
AcDbArc
 50
180.0
 51
270.0
  0
ARC
  5
27F
330
1F
100
AcDbEntity
  8
0-1
  6
Continuous
 62
     3
370
     9
100
AcDbCircle
 10
-867.0272827148438
 20
22.45647024159723
 30
0.0
 40
10.00000012887491
100
AcDbArc
 50
90.0
 51
180.0
  0
ARC
  5
280
330
1F
100
AcDbEntity
  8
0-1
  6
Continuous
 62
     3
370
     9
100
AcDbCircle
 10
-907.0269198031042
 20
22.45647024159723
 30
0.0
 40
10.00000012887491
100
AcDbArc
 50
0.0
 51
90.0
  0
ARC
  5
281
330
1F
100
AcDbEntity
  8
0-1
  6
Continuous
 62
     3
370
     9
100
AcDbCircle
 10
-907.0269198031042
 20
62.45660220950583
 30
0.0
 40
10.00000012887491
100
AcDbArc
 50
270.0
 51
0.0
  0
ARC
  5
282
330
1F
100
AcDbEntity
  8
0-1
  6
Continuous
 62
     3
370
     9
100
AcDbCircle
 10
-907.0269198031042
 20
62.45660220950583
 30
0.0
 40
12.50000064437454
100
AcDbArc
 50
270.0
 51
0.0
  0
ARC
  5
283
330
1F
100
AcDbEntity
  8
0-1
  6
Continuous
 62
     3
370
     9
100
AcDbCircle
 10
-867.0272827148438
 20
62.45660220950583
 30
0.0
 40
12.50000064437454
100
AcDbArc
 50
180.0
 51
270.0
  0
ARC
  5
284
330
1F
100
AcDbEntity
  8
0-1
  6
Continuous
 62
     3
370
     9
100
AcDbCircle
 10
-907.0269198031042
 20
22.45647024159723
 30
0.0
 40
12.50000064437454
100
AcDbArc
 50
0.0
 51
90.0
  0
ARC
  5
285
330
1F
100
AcDbEntity
  8
0-1
  6
Continuous
 62
     3
370
     9
100
AcDbCircle
 10
-867.0272827148438
 20
22.45647024159723
 30
0.0
 40
12.50000064437454
100
AcDbArc
 50
90.0
 51
180.0
  0
ARC
  5
286
330
1F
100
AcDbEntity
  8
0-1
  6
Continuous
 62
     3
370
     9
100
AcDbCircle
 10
-907.0269198031042
 20
222.4566352014807
 30
0.0
 40
12.50000064437454
100
AcDbArc
 50
0.0
 51
90.0
  0
ARC
  5
287
330
1F
100
AcDbEntity
  8
0-1
  6
Continuous
 62
     3
370
     9
100
AcDbCircle
 10
-867.0272827148438
 20
222.4566352014807
 30
0.0
 40
12.50000064437454
100
AcDbArc
 50
90.0
 51
180.0
  0
ARC
  5
288
330
1F
100
AcDbEntity
  8
0-1
  6
Continuous
 62
     3
370
     9
100
AcDbCircle
 10
-1067.027200234903
 20
262.4567671693848
 30
0.0
 40
10.00000012887491
100
AcDbArc
 50
180.0
 51
270.0
  0
ARC
  5
289
330
1F
100
AcDbEntity
  8
0-1
  6
Continuous
 62
     3
370
     9
100
AcDbCircle
 10
-1107.026961043075
 20
262.4567671693848
 30
0.0
 40
10.00000012887491
100
AcDbArc
 50
270.0
 51
0.0
  0
ARC
  5
28A
330
1F
100
AcDbEntity
  8
0-1
  6
Continuous
 62
     3
370
     9
100
AcDbCircle
 10
-1107.026961043075
 20
222.4566352014807
 30
0.0
 40
10.00000012887491
100
AcDbArc
 50
0.0
 51
90.0
  0
ARC
  5
28B
330
1F
100
AcDbEntity
  8
0-1
  6
Continuous
 62
     3
370
     9
100
AcDbCircle
 10
-1067.027200234903
 20
222.4566352014807
 30
0.0
 40
10.00000012887491
100
AcDbArc
 50
90.0
 51
180.0
  0
ARC
  5
28C
330
1F
100
AcDbEntity
  8
0-1
  6
Continuous
 62
     3
370
     9
100
AcDbCircle
 10
-1067.027200234903
 20
62.45660220950583
 30
0.0
 40
10.00000012887491
100
AcDbArc
 50
180.0
 51
270.0
  0
ARC
  5
28D
330
1F
100
AcDbEntity
  8
0-1
  6
Continuous
 62
     3
370
     9
100
AcDbCircle
 10
-1067.027200234903
 20
22.45647024159723
 30
0.0
 40
10.00000012887491
100
AcDbArc
 50
90.0
 51
180.0
  0
ARC
  5
28E
330
1F
100
AcDbEntity
  8
0-1
  6
Continuous
 62
     3
370
     9
100
AcDbCircle
 10
-1107.026961043075
 20
62.45660220950583
 30
0.0
 40
12.50000064437454
100
AcDbArc
 50
270.0
 51
0.0
  0
ARC
  5
28F
330
1F
100
AcDbEntity
  8
0-1
  6
Continuous
 62
     3
370
     9
100
AcDbCircle
 10
-1067.027200234903
 20
62.45660220950583
 30
0.0
 40
12.50000064437454
100
AcDbArc
 50
180.0
 51
270.0
  0
ARC
  5
290
330
1F
100
AcDbEntity
  8
0-1
  6
Continuous
 62
     3
370
     9
100
AcDbCircle
 10
-1107.026961043075
 20
22.45647024159723
 30
0.0
 40
12.50000064437454
100
AcDbArc
 50
0.0
 51
90.0
  0
ARC
  5
291
330
1F
100
AcDbEntity
  8
0-1
  6
Continuous
 62
     3
370
     9
100
AcDbCircle
 10
-1067.027200234903
 20
22.45647024159723
 30
0.0
 40
12.50000064437454
100
AcDbArc
 50
90.0
 51
180.0
  0
ARC
  5
292
330
1F
100
AcDbEntity
  8
0-1
  6
Continuous
 62
     3
370
     9
100
AcDbCircle
 10
-1107.026961043075
 20
262.4567671693848
 30
0.0
 40
12.50000064437454
100
AcDbArc
 50
270.0
 51
0.0
  0
ARC
  5
293
330
1F
100
AcDbEntity
  8
0-1
  6
Continuous
 62
     3
370
     9
100
AcDbCircle
 10
-1107.026961043075
 20
222.4566352014807
 30
0.0
 40
12.50000064437454
100
AcDbArc
 50
0.0
 51
90.0
  0
ARC
  5
294
330
1F
100
AcDbEntity
  8
0-1
  6
Continuous
 62
     3
370
     9
100
AcDbCircle
 10
-1067.027200234903
 20
222.4566352014807
 30
0.0
 40
12.50000064437454
100
AcDbArc
 50
90.0
 51
180.0
  0
ARC
  5
295
330
1F
100
AcDbEntity
  8
0-1
  6
Continuous
 62
     3
370
     9
100
AcDbCircle
 10
-1067.027200234903
 20
262.4567671693848
 30
0.0
 40
12.50000064437454
100
AcDbArc
 50
180.0
 51
270.0
  0
ARC
  5
296
330
1F
100
AcDbEntity
  8
0-1
  6
Continuous
 62
     3
370
     9
100
AcDbCircle
 10
-787.0271424989437
 20
-57.54342253447987
 30
0.0
 40
406.7500243315826
100
AcDbArc
 50
17.55978393554688
 51
40.34693908691407
  0
ARC
  5
297
330
1F
100
AcDbEntity
  8
0-1
  6
Continuous
 62
     3
370
     9
100
AcDbCircle
 10
-1107.026837323162
 20
62.45647848959095
 30
0.0
 40
10.00000012887491
100
AcDbArc
 50
270.0
 51
0.0
  0
ARC
  5
298
330
1F
100
AcDbEntity
  8
0-1
  6
Continuous
 62
     3
370
     9
100
AcDbCircle
 10
-1107.026837323162
 20
22.45659396151211
 30
0.0
 40
10.00000012887491
100
AcDbArc
 50
0.0
 51
90.0
  0
ARC
  5
299
330
1F
100
AcDbEntity
  8
0-1
  6
Continuous
 62
     3
370
     9
100
AcDbCircle
 10
-787.0271424989437
 20
-57.54342253447987
 30
0.0
 40
406.7500243315826
100
AcDbArc
 50
139.6530609130859
 51
164.3097839355469
  0
ARC
  5
29A
330
1F
100
AcDbEntity
  8
0-1
  6
Continuous
 62
     3
370
     9
100
AcDbCircle
 10
-787.0271424989437
 20
-57.54342253447987
 30
0.0
 40
406.7500243315826
100
AcDbArc
 50
167.2165832519532
 51
180.0
  0
ARC
  5
29B
330
1F
100
AcDbEntity
  8
0-1
  6
Continuous
 62
     3
370
     9
100
AcDbCircle
 10
-787.0271424989437
 20
-57.54342253447987
 30
0.0
 40
500.0000412399704
100
AcDbArc
 50
169.3388671875
 51
180.0
  0
ARC
  5
29C
330
1F
100
AcDbEntity
  8
0-1
  6
Continuous
 62
     3
370
     9
100
AcDbCircle
 10
-787.0271424989437
 20
-57.54342253447987
 30
0.0
 40
406.7500243315826
100
AcDbArc
 50
105.6902160644531
 51
130.3468322753906
  0
ARC
  5
29D
330
1F
100
AcDbEntity
  8
0-1
  6
Continuous
 62
     3
370
     9
100
AcDbCircle
 10
-787.0271424989437
 20
-57.54342253447987
 30
0.0
 40
406.7500243315826
100
AcDbArc
 50
90.0
 51
102.7834167480469
  0
ARC
  5
29E
330
1F
100
AcDbEntity
  8
0-1
  6
Continuous
 62
     3
370
     9
100
AcDbCircle
 10
-907.0269198031042
 20
262.4567671693848
 30
0.0
 40
12.50000064437454
100
AcDbArc
 50
270.0
 51
0.0
  0
ARC
  5
29F
330
1F
100
AcDbEntity
  8
0-1
  6
Continuous
 62
     3
370
     9
100
AcDbCircle
 10
-907.0269198031042
 20
262.4567671693848
 30
0.0
 40
10.00000012887491
100
AcDbArc
 50
270.0
 51
0.0
  0
ARC
  5
2A0
330
1F
100
AcDbEntity
  8
0-1
  6
Continuous
 62
     3
370
     9
100
AcDbCircle
 10
-867.0272827148438
 20
262.4567671693848
 30
0.0
 40
12.50000064437454
100
AcDbArc
 50
180.0
 51
270.0
  0
ARC
  5
2A1
330
1F
100
AcDbEntity
  8
0-1
  6
Continuous
 62
     3
370
     9
100
AcDbCircle
 10
-867.0272827148438
 20
262.4567671693848
 30
0.0
 40
10.00000012887491
100
AcDbArc
 50
180.0
 51
270.0
  0
ARC
  5
2A2
330
1F
100
AcDbEntity
  8
0-1
  6
Continuous
 62
     3
370
     9
100
AcDbCircle
 10
-787.0271424989437
 20
-57.54342253447987
 30
0.0
 40
500.0000412399704
100
AcDbArc
 50
79.33886718750001
 51
100.6611328125
  0
ARC
  5
2A3
330
1F
100
AcDbEntity
  8
0-1
  6
Continuous
 62
     3
370
     9
100
AcDbCircle
 10
-787.0271424989437
 20
-57.54342253447987
 30
0.0
 40
500.0000412399704
100
AcDbArc
 50
0.0
 51
10.6611328125
  0
ARC
  5
2A4
330
1F
100
AcDbEntity
  8
0-1
  6
Continuous
 62
     3
370
     9
100
AcDbCircle
 10
-787.0271424989437
 20
-57.54342253447987
 30
0.0
 40
500.0000412399704
100
AcDbArc
 50
54.19700622558594
 51
77.58448791503908
  0
ARC
  5
2A5
330
1F
100
AcDbEntity
  8
0-1
  6
Continuous
 62
     3
370
     9
100
AcDbCircle
 10
-787.0271424989437
 20
-57.54342253447987
 30
0.0
 40
500.0000412399704
100
AcDbArc
 50
37.95196533203126
 51
52.04811096191406
  0
ARC
  5
2A6
330
1F
100
AcDbEntity
  8
0-1
  6
Continuous
 62
     3
370
     9
100
AcDbCircle
 10
-787.0271424989437
 20
-57.54342253447987
 30
0.0
 40
500.0000412399704
100
AcDbArc
 50
12.41551208496094
 51
35.80299377441406
  0
ARC
  5
2A7
330
1F
100
AcDbEntity
  8
0-1
  6
Continuous
 62
     3
370
     9
100
AcDbCircle
 10
-787.0271424989437
 20
-57.54342253447987
 30
0.0
 40
500.0000412399704
100
AcDbArc
 50
144.1970062255859
 51
167.5844879150391
  0
ARC
  5
2A8
330
1F
100
AcDbEntity
  8
0-1
  6
Continuous
 62
     3
370
     9
100
AcDbCircle
 10
-787.0271424989437
 20
-57.54342253447987
 30
0.0
 40
500.0000412399704
100
AcDbArc
 50
127.9518890380859
 51
142.0480346679688
  0
ARC
  5
2A9
330
1F
100
AcDbEntity
  8
0-1
  6
Continuous
 62
     3
370
     9
100
AcDbCircle
 10
-787.0271424989437
 20
-57.54342253447987
 30
0.0
 40
500.0000412399704
100
AcDbArc
 50
102.4155120849609
 51
125.8029937744141
  0
ARC
  5
2AA
330
1F
100
AcDbEntity
  8
0-1
  6
Continuous
 62
     3
370
     9
100
AcDbCircle
 10
-787.0271424989437
 20
-57.54342253447987
 30
0.0
 40
406.7500243315826
100
AcDbArc
 50
15.69021606445312
 51
17.55978393554688
  0
ARC
  5
2AB
330
1F
100
AcDbEntity
  8
0-1
  6
Continuous
 62
     3
370
     9
100
AcDbCircle
 10
-787.0271424989437
 20
-57.54342253447987
 30
0.0
 40
406.7500243315826
100
AcDbArc
 50
0.0
 51
12.78341674804688
  0
ARC
  5
2AC
330
1F
100
AcDbEntity
  8
0-0
  6
Continuous
 62
     2
370
     9
100
AcDbCircle
 10
-73.27707651499168
 20
-57.54342253447987
 30
0.0
 40
18.75
100
AcDbArc
 50
90.0
 51
270.0
  0
ARC
  5
2AD
330
1F
100
AcDbEntity
  8
0-0
  6
Continuous
 62
     2
370
     9
100
AcDbCircle
 10
-73.27707651499168
 20
-57.54342253447987
 30
0.0
 40
23.75000103099926
100
AcDbArc
 50
90.0
 51
180.0
  0
ARC
  5
2AE
330
1F
100
AcDbEntity
  8
0-0
  6
Continuous
 62
     2
370
     9
100
AcDbCircle
 10
-1500.777208482898
 20
-57.54342253447987
 30
0.0
 40
18.75
100
AcDbArc
 50
270.0
 51
90.0
  0
ARC
  5
2AF
330
1F
100
AcDbEntity
  8
0-0
  6
Continuous
 62
     2
370
     9
100
AcDbCircle
 10
-1500.777208482898
 20
-57.54342253447987
 30
0.0
 40
23.75000103099926
100
AcDbArc
 50
0.0
 51
90.0
  0
ARC
  5
2B0
330
1F
100
AcDbEntity
  8
0-0
  6
Continuous
 62
     2
370
     9
100
AcDbCircle
 10
-787.0271424989437
 20
656.2066434494744
 30
0.0
 40
18.75
100
AcDbArc
 50
180.0
 51
0.0
  0
ARC
  5
2B1
330
1F
100
AcDbEntity
  8
0-0
  6
Continuous
 62
     2
370
     9
100
AcDbCircle
 10
-787.0271424989437
 20
656.2066434494744
 30
0.0
 40
23.75000103099926
100
AcDbArc
 50
180.0
 51
0.0
  0
ARC
  5
2B2
330
1F
100
AcDbEntity
  8
0-0
  6
Continuous
 62
     2
370
     9
100
AcDbCircle
 10
-787.0271424989437
 20
-771.2934885184296
 30
0.0
 40
18.75
100
AcDbArc
 50
0.0
 51
180.0
  0
ARC
  5
2B3
330
1F
100
AcDbEntity
  8
0-0
  6
Continuous
 62
     2
370
     9
100
AcDbCircle
 10
-787.0271424989437
 20
-57.54342253447987
 30
0.0
 40
737.5000206199853
100
AcDbArc
 50
272.2648620605469
 51
343.2855682373047
  0
ARC
  5
2B4
330
1F
100
AcDbEntity
  8
0-0
  6
Continuous
 62
     2
370
     9
100
AcDbCircle
 10
-787.0271424989437
 20
-57.54342253447987
 30
0.0
 40
737.5000206199853
100
AcDbArc
 50
350.8352203369141
 51
357.7351379394531
  0
TEXT
  5
2B5
330
1F
100
AcDbEntity
  8
0-0
  6
Continuous
 62
     4
370
     9
100
AcDbText
 10
-727.0272043589
 20
540.8863960096537
 30
0.0
 40
15.24
  1
ＫＡＮＥＳＯ
 50
180.0
 41
0.9999999999999999
  7
ＭＳ ゴシック
100
AcDbText
  0
TEXT
  5
2B6
330
1F
100
AcDbEntity
  8
0-E
  6
Continuous
 62
     7
370
     9
100
AcDbText
 10
1355.765595307222
 20
994.1899096551327
 30
0.0
 40
22.86
  1
枠：ＦＣ２００，樹脂系塗装
 41
1.153846153846154
  7
ＭＳ ゴシック
100
AcDbText
  0
TEXT
  5
2B7
330
1F
100
AcDbEntity
  8
0-E
  6
Continuous
 62
     7
370
     9
100
AcDbText
 10
216.3952801678636
 20
994.1745683861285
 30
0.0
 40
22.86
  1
蓋：ＦＣ２００，樹脂系塗装
 41
1.153846153846154
  7
ＭＳ ゴシック
100
AcDbText
  0
LWPOLYLINE
  5
2B8
330
1F
100
AcDbEntity
  8
0-F
  6
Continuous
 62
     7
370
     9
100
AcDbPolyline
 90
        4
 70
     1
 43
1.0
 10
722.2470736116968
 20
-720.0432575745964
 42
0.4142135623731
 10
721.7470736116968
 20
-719.5432575745964
 42
0.4142135623731
 10
721.2470736116968
 20
-720.0432575745964
 42
0.4142135623731
 10
721.7470736116968
 20
-720.5432575745964
 42
0.4142135623731
  0
TEXT
  5
2B9
330
1F
100
AcDbEntity
  8
F-5
  6
Continuous
 62
     6
370
     5
100
AcDbText
 10
-840.370633776367
 20
-1323.97208739284
 30
0.0
 40
30.48
  1
インターロッキングブロック用　鋳鉄目地　一般型　充填深さ７０ｍｍ
 41
0.7984374999999999
  7
ＭＳ ゴシック
100
AcDbText
  0
TEXT
  5
2BA
330
1F
100
AcDbEntity
  8
F-5
  6
Continuous
 62
     6
370
     5
100
AcDbText
 10
-274.5496495943811
 20
-1371.619860945481
 30
0.0
 40
30.48
  1
カラー舗装用鉄蓋　ＭＲＨＲ－２－４５５５
 41
0.7974999999999999
  7
ＭＳ ゴシック
100
AcDbText
  0
TEXT
  5
2BB
330
1F
100
AcDbEntity
  8
0-E
  6
Continuous
 62
     7
370
     9
100
AcDbText
 10
234.1983249070979
 20
841.0348355802332
 30
0.0
 40
22.86
  1
キャップ：クロロプレン
 41
1.151515151515152
  7
ＭＳ ゴシック
100
AcDbText
  0
LINE
  5
2BC
330
1F
100
AcDbEntity
  8
0-E
  6
Continuous
 62
     7
370
     9
100
AcDbLine
 10
611.3899024757177
 20
829.9564125056412
 30
0.0
 11
226.7908591644613
 21
829.9564125056412
 31
0.0
  0
TEXT
  5
2BD
330
1F
100
AcDbEntity
  8
0-F
  6
Continuous
 62
     2
370
     9
100
AcDbText
 10
631.1070406197219
 20
-112.5436081143454
 30
0.0
 40
30.48
  1
φ542
 50
90.0
 41
1.1
  7
ＭＳ ゴシック
100
AcDbText
  0
TEXT
  5
2BE
330
1F
100
AcDbEntity
  8
0-F
  6
Continuous
 62
     2
370
     9
100
AcDbText
 10
711.1070571157094
 20
-112.5433606745202
 30
0.0
 40
30.48
  1
φ525
 50
90.0
 41
1.1
  7
ＭＳ ゴシック
100
AcDbText
  0
TEXT
  5
2BF
330
1F
100
AcDbEntity
  8
0-F
  6
Continuous
 62
     2
370
     9
100
AcDbText
 10
711.1070571157094
 20
-695.1411468304315
 30
0.0
 40
30.48
  1
2.5
 50
90.0
 41
1.083333333333333
  7
ＭＳ ゴシック
100
AcDbText
  0
TEXT
  5
2C0
330
1F
100
AcDbEntity
  8
0-F
  6
Continuous
 62
     2
370
     9
100
AcDbText
 10
711.1070571157094
 20
-762.7511833195541
 30
0.0
 40
30.48
  1
6
 50
90.0
 41
0.9999999999999998
  7
ＭＳ ゴシック
100
AcDbText
  0
TEXT
  5
2C1
330
1F
100
AcDbEntity
  8
0-F
  6
Continuous
 62
     2
370
     9
100
AcDbText
 10
791.1070736116968
 20
-669.7873553100254
 30
0.0
 40
30.48
  1
10
 50
90.0
 41
1.0625
  7
ＭＳ ゴシック
100
AcDbText
  0
TEXT
  5
2C2
330
1F
100
AcDbEntity
  8
0-F
  6
Continuous
 62
     2
370
     9
100
AcDbText
 10
969.2470323717259
 20
-574.1693362142692
 30
0.0
 40
30.48
  1
70
 41
1.0625
  7
ＭＳ ゴシック
100
AcDbText
  0
TEXT
  5
2C3
330
1F
100
AcDbEntity
  8
0-F
  6
Continuous
 62
     2
370
     9
100
AcDbText
 10
1118.89024889147
 20
-574.1693362142692
 30
0.0
 40
30.48
  1
7
 41
0.9999999999999998
  7
ＭＳ ゴシック
100
AcDbText
  0
TEXT
  5
2C4
330
1F
100
AcDbEntity
  8
0-F
  6
Continuous
 62
     2
370
     9
100
AcDbText
 10
1006.747007627745
 20
-884.4032616985955
 30
0.0
 40
30.48
  1
110
 41
1.083333333333333
  7
ＭＳ ゴシック
100
AcDbText
  0
TEXT
  5
2C5
330
1F
100
AcDbEntity
  8
0-F
  6
Continuous
 62
     2
370
     9
100
AcDbText
 10
1266.106908651816
 20
-112.5433606745202
 30
0.0
 40
30.48
  1
φ450
 50
90.0
 41
1.1
  7
ＭＳ ゴシック
100
AcDbText
  0
TEXT
  5
2C6
330
1F
100
AcDbEntity
  8
0-F
  6
Continuous
 62
     2
370
     9
100
AcDbText
 10
1346.106925147803
 20
-112.5433606745202
 30
0.0
 40
30.48
  1
φ590
 50
90.0
 41
1.1
  7
ＭＳ ゴシック
100
AcDbText
  0
TEXT
  5
2C7
330
1F
100
AcDbEntity
  8
0-F
  6
Continuous
 62
     2
370
     9
100
AcDbText
 10
-819.5271424989437
 20
-884.4032616985955
 30
0.0
 40
30.48
  1
571
 41
1.083333333333333
  7
ＭＳ ゴシック
100
AcDbText
  0
TEXT
  5
2C8
330
1F
100
AcDbEntity
  8
0-F
  6
Continuous
 62
     2
370
     9
100
AcDbText
 10
-25.61174547350106
 20
-146.9033647985193
 30
0.0
 40
30.48
  1
17
 41
1.0625
  7
ＭＳ ゴシック
100
AcDbText
  0
TEXT
  5
2C9
330
1F
100
AcDbEntity
  8
0-F
  6
Continuous
 62
     2
370
     9
100
AcDbText
 10
39.83300596494892
 20
-13.8346542569235
 30
0.0
 40
30.48
  1
15
 50
90.0
 41
1.0625
  7
ＭＳ ゴシック
100
AcDbText
  0
TEXT
  5
2CA
330
1F
100
AcDbEntity
  8
0-F
  6
Continuous
 62
     2
370
     9
100
AcDbText
 10
-596.4171754909208
 20
499.5813267264992
 30
0.0
 40
30.48
  1
37
 50
90.0
 41
1.0625
  7
ＭＳ ゴシック
100
AcDbText
  0
TEXT
  5
2CB
330
1F
100
AcDbEntity
  8
0-F
  6
Continuous
 62
     2
370
     9
100
AcDbText
 10
-808.2771424989437
 20
385.5965362255515
 30
0.0
 40
30.48
  1
75
 41
1.0625
  7
ＭＳ ゴシック
100
AcDbText
  0
ENDSEC
  0
SECTION
  2
OBJECTS
  0
DICTIONARY
  5
C
330
0
100
AcDbDictionary
281
     1
  3
ACAD_GROUP
350
D
  3
ACAD_LAYOUT
350
1A
  3
ACAD_MLEADERSTYLE
350
2CD
  3
ACAD_MLINESTYLE
350
17
  3
ACAD_PLOTSETTINGS
350
19
  3
ACAD_PLOTSTYLENAME
350
E
  3
ACAD_TABLESTYLE
350
2CC
  3
ACAD_VISUALSTYLE
350
2A
  0
DICTIONARY
  5
D
102
{ACAD_REACTORS
330
C
102
}
330
C
100
AcDbDictionary
281
     1
  0
DICTIONARY
  5
1A
102
{ACAD_REACTORS
330
C
102
}
330
C
100
AcDbDictionary
281
     1
  3
Layout1
350
1E
  3
Layout2
350
26
  3
Model
350
22
  0
DICTIONARY
  5
2CD
102
{ACAD_REACTORS
330
C
102
}
330
C
100
AcDbDictionary
281
     1
  0
DICTIONARY
  5
17
102
{ACAD_REACTORS
330
C
102
}
330
C
100
AcDbDictionary
281
     1
  3
Standard
350
18
  0
DICTIONARY
  5
19
102
{ACAD_REACTORS
330
C
102
}
330
C
100
AcDbDictionary
281
     1
  0
ACDBDICTIONARYWDFLT
  5
E
102
{ACAD_REACTORS
330
C
102
}
330
C
100
AcDbDictionary
281
     1
  3
Normal
350
F
100
AcDbDictionaryWithDefault
340
F
  0
DICTIONARY
  5
2CC
102
{ACAD_REACTORS
330
C
102
}
330
C
100
AcDbDictionary
281
     1
  0
DICTIONARY
  5
2A
102
{ACAD_REACTORS
330
C
102
}
330
C
100
AcDbDictionary
281
     1
  3
2dWireframe
350
2F
  3
3D Hidden
350
31
  3
3dWireframe
350
30
  3
Basic
350
32
  3
Brighten
350
36
  3
ColorChange
350
3A
  3
Conceptual
350
34
  3
Dim
350
35
  3
Facepattern
350
39
  3
Flat
350
2B
  3
FlatWithEdges
350
2C
  3
Gouraud
350
2D
  3
GouraudWithEdges
350
2E
  3
Linepattern
350
38
  3
Realistic
350
33
  3
Thicken
350
37
  0
LAYOUT
  5
1E
102
{ACAD_REACTORS
330
1A
102
}
330
1A
100
AcDbPlotSettings
  1

  2
none_device
  4

  6

 40
0.0
 41
0.0
 42
0.0
 43
0.0
 44
0.0
 45
0.0
 46
0.0
 47
0.0
 48
0.0
 49
0.0
140
0.0
141
0.0
142
1.0
143
1.0
 70
   688
 72
     0
 73
     0
 74
     5
  7

 75
    16
 76
     0
 77
     5
 78
   300
147
1.0
148
0.0
149
0.0
100
AcDbLayout
  1
Layout1
 70
     1
 71
     1
 10
0.0
 20
0.0
 11
420.0
 21
297.0
 12
0.0
 22
0.0
 32
0.0
 14
1.000000000000000E+20
 24
1.000000000000000E+20
 34
1.000000000000000E+20
 15
-1.000000000000000E+20
 25
-1.000000000000000E+20
 35
-1.000000000000000E+20
146
0.0
 13
0.0
 23
0.0
 33
0.0
 16
1.0
 26
0.0
 36
0.0
 17
0.0
 27
1.0
 37
0.0
 76
     0
330
1B
  0
LAYOUT
  5
26
102
{ACAD_REACTORS
330
1A
102
}
330
1A
100
AcDbPlotSettings
  1

  2
none_device
  4

  6

 40
0.0
 41
0.0
 42
0.0
 43
0.0
 44
0.0
 45
0.0
 46
0.0
 47
0.0
 48
0.0
 49
0.0
140
0.0
141
0.0
142
1.0
143
1.0
 70
   688
 72
     0
 73
     0
 74
     5
  7

 75
    16
 76
     0
 77
     5
 78
   300
147
1.0
148
0.0
149
0.0
100
AcDbLayout
  1
Layout2
 70
     1
 71
     2
 10
0.0
 20
0.0
 11
0.0
 21
0.0
 12
0.0
 22
0.0
 32
0.0
 14
0.0
 24
0.0
 34
0.0
 15
0.0
 25
0.0
 35
0.0
146
0.0
 13
0.0
 23
0.0
 33
0.0
 16
1.0
 26
0.0
 36
0.0
 17
0.0
 27
1.0
 37
0.0
 76
     0
330
23
  0
LAYOUT
  5
22
102
{ACAD_REACTORS
330
1A
102
}
330
1A
100
AcDbPlotSettings
  1

  2
none_device
  4

  6

 40
0.0
 41
0.0
 42
0.0
 43
0.0
 44
0.0
 45
0.0
 46
0.0
 47
0.0
 48
0.0
 49
0.0
140
0.0
141
0.0
142
1.0
143
1.0
 70
  1712
 72
     0
 73
     0
 74
     0
  7

 75
     0
 76
     0
 77
     5
 78
   300
147
1.0
148
0.0
149
0.0
100
AcDbLayout
  1
Model
 70
     1
 71
     0
 10
-2100.0
 20
-1485.0
 11
2100.0
 21
1485.0
 12
0.0
 22
0.0
 32
0.0
 14
-2100.0
 24
-1485.0
 34
0.0
 15
2100.0
 25
1485.0
 35
0.0
146
0.0
 13
0.0
 23
0.0
 33
0.0
 16
1.0
 26
0.0
 36
0.0
 17
0.0
 27
1.0
 37
0.0
 76
     0
330
1F
331
29
  0
MLINESTYLE
  5
18
102
{ACAD_REACTORS
330
17
102
}
330
17
100
AcDbMlineStyle
  2
Standard
 70
     0
  3

 62
   256
 51
90.0
 52
90.0
 71
     2
 49
0.5
 62
   256
  6
BYLAYER
 49
-0.5
 62
   256
  6
BYLAYER
  0
ACDBPLACEHOLDER
  5
F
102
{ACAD_REACTORS
330
E
102
}
330
E
  0
VISUALSTYLE
  5
2F
102
{ACAD_REACTORS
330
2A
102
}
330
2A
100
AcDbVisualStyle
  2
2dWireframe
 70
     4
 71
     0
 72
     2
 73
     0
 90
        0
 40
-0.6
 41
-30.0
 62
     5
 63
     7
421
 16777215
 74
     1
 91
        4
 64
     7
 65
   257
 75
     1
175
     1
 42
1.0
 92
        0
 66
   257
 43
1.0
 76
     1
 77
     6
 78
     2
 67
     7
 79
     5
170
     0
171
     0
290
     0
174
     0
 93
        1
 44
0.0
173
     0
291
     0
 45
0.0
1001
ACAD
1000
AcDbSavedByObjectVersion
1070
     0
  0
VISUALSTYLE
  5
31
102
{ACAD_REACTORS
330
2A
102
}
330
2A
100
AcDbVisualStyle
  2
3D Hidden
 70
     6
 71
     1
 72
     2
 73
     2
 90
        0
 40
-0.6
 41
-30.0
 62
     5
 63
     7
421
 16777215
 74
     2
 91
        2
 64
     7
 65
   257
 75
     2
175
     1
 42
40.0
 92
        0
 66
   257
 43
1.0
 76
     1
 77
     6
 78
     2
 67
     7
 79
     3
170
     0
171
     0
290
     0
174
     0
 93
        1
 44
0.0
173
     0
291
     0
 45
0.0
1001
ACAD
1000
AcDbSavedByObjectVersion
1070
     0
  0
VISUALSTYLE
  5
30
102
{ACAD_REACTORS
330
2A
102
}
330
2A
100
AcDbVisualStyle
  2
3dWireframe
 70
     5
 71
     0
 72
     2
 73
     0
 90
        0
 40
-0.6
 41
-30.0
 62
     5
 63
     7
421
 16777215
 74
     1
 91
        4
 64
     7
 65
   257
 75
     1
175
     1
 42
1.0
 92
        0
 66
   257
 43
1.0
 76
     1
 77
     6
 78
     2
 67
     7
 79
     5
170
     0
171
     0
290
     0
174
     0
 93
        1
 44
0.0
173
     0
291
     0
 45
0.0
1001
ACAD
1000
AcDbSavedByObjectVersion
1070
     0
  0
VISUALSTYLE
  5
32
102
{ACAD_REACTORS
330
2A
102
}
330
2A
100
AcDbVisualStyle
  2
Basic
 70
     7
 71
     1
 72
     0
 73
     1
 90
        0
 40
-0.6
 41
-30.0
 62
     5
 63
     7
421
 16777215
 74
     0
 91
        4
 64
     7
 65
   257
 75
     1
175
     1
 42
1.0
 92
        8
 66
     7
 43
1.0
 76
     1
 77
     6
 78
     2
 67
     7
 79
     5
170
     0
171
     0
290
     0
174
     0
 93
        1
 44
0.0
173
     0
291
     1
 45
0.0
1001
ACAD
1000
AcDbSavedByObjectVersion
1070
     0
  0
VISUALSTYLE
  5
36
102
{ACAD_REACTORS
330
2A
102
}
330
2A
100
AcDbVisualStyle
  2
Brighten
 70
    12
 71
     2
 72
     2
 73
     0
 90
        0
 40
-0.6
 41
-30.0
 62
     5
 63
     7
421
 16777215
 74
     1
 91
        4
 64
     7
 65
   257
 75
     1
175
     1
 42
1.0
 92
        8
 66
     7
 43
1.0
 76
     1
 77
     6
 78
     2
 67
     7
 79
     5
170
     0
171
     0
290
     0
174
     0
 93
        1
 44
50.0
173
     0
291
     1
 45
0.0
1001
ACAD
1000
AcDbSavedByObjectVersion
1070
     0
  0
VISUALSTYLE
  5
3A
102
{ACAD_REACTORS
330
2A
102
}
330
2A
100
AcDbVisualStyle
  2
ColorChange
 70
    16
 71
     2
 72
     2
 73
     3
 90
        0
 40
-0.6
 41
-30.0
 62
     5
 63
     8
421
  8421504
 74
     1
 91
        4
 64
     7
 65
   257
 75
     1
175
     1
 42
1.0
 92
        8
 66
     8
424
  8421504
 43
1.0
 76
     1
 77
     6
 78
     2
 67
     7
 79
     5
170
     0
171
     0
290
     0
174
     0
 93
        1
 44
0.0
173
     0
291
     1
 45
0.0
1001
ACAD
1000
AcDbSavedByObjectVersion
1070
     0
  0
VISUALSTYLE
  5
34
102
{ACAD_REACTORS
330
2A
102
}
330
2A
100
AcDbVisualStyle
  2
Conceptual
 70
     9
 71
     3
 72
     2
 73
     0
 90
        0
 40
-0.6
 41
-30.0
 62
     5
 63
     7
421
 16777215
 74
     2
 91
        2
 64
     7
 65
   257
 75
     1
175
     1
 42
40.0
 92
        8
 66
     7
 43
1.0
 76
     1
 77
     6
 78
     2
 67
     7
 79
     3
170
     0
171
     0
290
     0
174
     0
 93
        1
 44
0.0
173
     0
291
     0
 45
0.0
1001
ACAD
1000
AcDbSavedByObjectVersion
1070
     0
  0
VISUALSTYLE
  5
35
102
{ACAD_REACTORS
330
2A
102
}
330
2A
100
AcDbVisualStyle
  2
Dim
 70
    11
 71
     2
 72
     2
 73
     0
 90
        0
 40
-0.6
 41
-30.0
 62
     5
 63
     7
421
 16777215
 74
     1
 91
        4
 64
     7
 65
   257
 75
     1
175
     1
 42
1.0
 92
        8
 66
     7
 43
1.0
 76
     1
 77
     6
 78
     2
 67
     7
 79
     5
170
     0
171
     0
290
     0
174
     0
 93
        1
 44
-50.0
173
     0
291
     1
 45
0.0
1001
ACAD
1000
AcDbSavedByObjectVersion
1070
     0
  0
VISUALSTYLE
  5
39
102
{ACAD_REACTORS
330
2A
102
}
330
2A
100
AcDbVisualStyle
  2
Facepattern
 70
    15
 71
     2
 72
     2
 73
     0
 90
        0
 40
-0.6
 41
-30.0
 62
     5
 63
     7
421
 16777215
 74
     1
 91
        4
 64
     7
 65
   257
 75
     1
175
     1
 42
1.0
 92
        8
 66
     7
 43
1.0
 76
     1
 77
     6
 78
     2
 67
     7
 79
     5
170
     0
171
     0
290
     0
174
     0
 93
        1
 44
0.0
173
     0
291
     1
 45
0.0
1001
ACAD
1000
AcDbSavedByObjectVersion
1070
     0
  0
VISUALSTYLE
  5
2B
102
{ACAD_REACTORS
330
2A
102
}
330
2A
100
AcDbVisualStyle
  2
Flat
 70
     0
 71
     2
 72
     1
 73
     1
 90
        2
 40
-0.6
 41
30.0
 62
     5
 63
     7
421
 16777215
 74
     0
 91
        4
 64
     7
 65
   257
 75
     1
175
     1
 42
1.0
 92
        8
 66
     7
 43
1.0
 76
     1
 77
     6
 78
     2
 67
     7
 79
     5
170
     0
171
     0
290
     0
174
     0
 93
       13
 44
0.0
173
     0
291
     1
 45
0.0
1001
ACAD
1000
AcDbSavedByObjectVersion
1070
     0
  0
VISUALSTYLE
  5
2C
102
{ACAD_REACTORS
330
2A
102
}
330
2A
100
AcDbVisualStyle
  2
FlatWithEdges
 70
     1
 71
     2
 72
     1
 73
     1
 90
        2
 40
-0.6
 41
30.0
 62
     5
 63
     7
421
 16777215
 74
     1
 91
        4
 64
     7
 65
   257
 75
     1
175
     1
 42
1.0
 92
        0
 66
   257
 43
1.0
 76
     1
 77
     6
 78
     2
 67
     7
 79
     5
170
     0
171
     0
290
     0
174
     0
 93
       13
 44
0.0
173
     0
291
     1
 45
0.0
1001
ACAD
1000
AcDbSavedByObjectVersion
1070
     0
  0
VISUALSTYLE
  5
2D
102
{ACAD_REACTORS
330
2A
102
}
330
2A
100
AcDbVisualStyle
  2
Gouraud
 70
     2
 71
     2
 72
     2
 73
     1
 90
        2
 40
-0.6
 41
30.0
 62
     5
 63
     7
421
 16777215
 74
     0
 91
        4
 64
     7
 65
   257
 75
     1
175
     1
 42
1.0
 92
        0
 66
     7
 43
1.0
 76
     1
 77
     6
 78
     2
 67
     7
 79
     5
170
     0
171
     0
290
     0
174
     0
 93
       13
 44
0.0
173
     0
291
     1
 45
0.0
1001
ACAD
1000
AcDbSavedByObjectVersion
1070
     0
  0
VISUALSTYLE
  5
2E
102
{ACAD_REACTORS
330
2A
102
}
330
2A
100
AcDbVisualStyle
  2
GouraudWithEdges
 70
     3
 71
     2
 72
     2
 73
     1
 90
        2
 40
-0.6
 41
30.0
 62
     5
 63
     7
421
 16777215
 74
     1
 91
        4
 64
     7
 65
   257
 75
     1
175
     1
 42
1.0
 92
        0
 66
   257
 43
1.0
 76
     1
 77
     6
 78
     2
 67
     7
 79
     5
170
     0
171
     0
290
     0
174
     0
 93
       13
 44
0.0
173
     0
291
     1
 45
0.0
1001
ACAD
1000
AcDbSavedByObjectVersion
1070
     0
  0
VISUALSTYLE
  5
38
102
{ACAD_REACTORS
330
2A
102
}
330
2A
100
AcDbVisualStyle
  2
Linepattern
 70
    14
 71
     2
 72
     2
 73
     0
 90
        0
 40
-0.6
 41
-30.0
 62
     5
 63
     7
421
 16777215
 74
     1
 91
        4
 64
     7
 65
   257
 75
     7
175
     7
 42
1.0
 92
        8
 66
     7
 43
1.0
 76
     1
 77
     6
 78
     2
 67
     7
 79
     5
170
     0
171
     0
290
     0
174
     0
 93
        1
 44
0.0
173
     0
291
     1
 45
0.0
1001
ACAD
1000
AcDbSavedByObjectVersion
1070
     0
  0
VISUALSTYLE
  5
33
102
{ACAD_REACTORS
330
2A
102
}
330
2A
100
AcDbVisualStyle
  2
Realistic
 70
     8
 71
     2
 72
     2
 73
     0
 90
        0
 40
-0.6
 41
-30.0
 62
     5
 63
     7
421
 16777215
 74
     1
 91
        0
 64
     7
 65
   257
 75
     1
175
     1
 42
1.0
 92
        8
 66
     8
424
  7895160
 43
1.0
 76
     1
 77
     6
 78
     2
 67
     7
 79
     5
170
     0
171
     0
290
     0
174
     0
 93
       13
 44
0.0
173
     0
291
     0
 45
0.0
1001
ACAD
1000
AcDbSavedByObjectVersion
1070
     0
  0
VISUALSTYLE
  5
37
102
{ACAD_REACTORS
330
2A
102
}
330
2A
100
AcDbVisualStyle
  2
Thicken
 70
    13
 71
     2
 72
     2
 73
     0
 90
        0
 40
-0.6
 41
-30.0
 62
     5
 63
     7
421
 16777215
 74
     1
 91
        4
 64
     7
 65
   257
 75
     1
175
     1
 42
1.0
 92
       12
 66
     7
 43
1.0
 76
     1
 77
     6
 78
     2
 67
     7
 79
     5
170
     0
171
     0
290
     0
174
     0
 93
        1
 44
0.0
173
     0
291
     1
 45
0.0
1001
ACAD
1000
AcDbSavedByObjectVersion
1070
     0
  0
ENDSEC
  0
EOF
