  0
SECTION
  2
HEADER
  9
$ACADVER
  1
AC1018
  9
$ACADMAINTVER
 70
     0
  9
$DWGCODEPAGE
  3
ANSI_932
  9
$INSBASE
 10
0.0
 20
0.0
 30
0.0
  9
$EXTMIN
 10
-1050.0
 20
-742.5
 30
0.0
  9
$EXTMAX
 10
1050.0
 20
742.5
 30
0.0
  9
$LIMMIN
 10
-1050.0
 20
-742.5
  9
$LIMMAX
 10
1050.0
 20
742.5
  9
$ORTHOMODE
 70
     0
  9
$REGENMODE
 70
     1
  9
$FILLMODE
 70
     1
  9
$QTEXTMODE
 70
     0
  9
$MIRRTEXT
 70
     1
  9
$LTSCALE
 40
5.0
  9
$ATTMODE
 70
     1
  9
$TEXTSIZE
 40
2.5
  9
$TRACEWID
 40
1.0
  9
$TEXTSTYLE
  7
Standard
  9
$CLAYER
  8
0
  9
$CELTYPE
  6
ByLayer
  9
$CECOLOR
 62
   256
  9
$CELTSCALE
 40
1.0
  9
$DISPSILH
 70
     0
  9
$DIMSCALE
 40
1.0
  9
$DIMASZ
 40
2.5
  9
$DIMEXO
 40
0.625
  9
$DIMDLI
 40
3.75
  9
$DIMRND
 40
0.0
  9
$DIMDLE
 40
0.0
  9
$DIMEXE
 40
1.25
  9
$DIMTP
 40
0.0
  9
$DIMTM
 40
0.0
  9
$DIMTXT
 40
2.5
  9
$DIMCEN
 40
2.5
  9
$DIMTSZ
 40
0.0
  9
$DIMTOL
 70
     0
  9
$DIMLIM
 70
     0
  9
$DIMTIH
 70
     0
  9
$DIMTOH
 70
     0
  9
$DIMSE1
 70
     0
  9
$DIMSE2
 70
     0
  9
$DIMTAD
 70
     1
  9
$DIMZIN
 70
     8
  9
$DIMBLK
  1

  9
$DIMASO
 70
     1
  9
$DIMSHO
 70
     1
  9
$DIMPOST
  1

  9
$DIMAPOST
  1

  9
$DIMALT
 70
     0
  9
$DIMALTD
 70
     3
  9
$DIMALTF
 40
0.03937007874016
  9
$DIMLFAC
 40
1.0
  9
$DIMTOFL
 70
     1
  9
$DIMTVP
 40
0.0
  9
$DIMTIX
 70
     0
  9
$DIMSOXD
 70
     0
  9
$DIMSAH
 70
     0
  9
$DIMBLK1
  1

  9
$DIMBLK2
  1

  9
$DIMSTYLE
  2
ISO-25
  9
$DIMCLRD
 70
     0
  9
$DIMCLRE
 70
     0
  9
$DIMCLRT
 70
     0
  9
$DIMTFAC
 40
1.0
  9
$DIMGAP
 40
0.625
  9
$DIMJUST
 70
     0
  9
$DIMSD1
 70
     0
  9
$DIMSD2
 70
     0
  9
$DIMTOLJ
 70
     0
  9
$DIMTZIN
 70
     8
  9
$DIMALTZ
 70
     0
  9
$DIMALTTZ
 70
     0
  9
$DIMUPT
 70
     0
  9
$DIMDEC
 70
     2
  9
$DIMTDEC
 70
     2
  9
$DIMALTU
 70
     2
  9
$DIMALTTD
 70
     3
  9
$DIMTXSTY
  7
Standard
  9
$DIMAUNIT
 70
     0
  9
$DIMADEC
 70
     0
  9
$DIMALTRND
 40
0.0
  9
$DIMAZIN
 70
     0
  9
$DIMDSEP
 70
    44
  9
$DIMATFIT
 70
     3
  9
$DIMFRAC
 70
     0
  9
$DIMLDRBLK
  1

  9
$DIMLUNIT
 70
     2
  9
$DIMLWD
 70
    -2
  9
$DIMLWE
 70
    -2
  9
$DIMTMOVE
 70
     0
  9
$LUNITS
 70
     2
  9
$LUPREC
 70
     4
  9
$SKETCHINC
 40
1.0
  9
$FILLETRAD
 40
10.0
  9
$AUNITS
 70
     0
  9
$AUPREC
 70
     0
  9
$MENU
  1
.
  9
$ELEVATION
 40
0.0
  9
$PELEVATION
 40
0.0
  9
$THICKNESS
 40
0.0
  9
$LIMCHECK
 70
     0
  9
$CHAMFERA
 40
10.0
  9
$CHAMFERB
 40
10.0
  9
$CHAMFERC
 40
20.0
  9
$CHAMFERD
 40
0.0
  9
$SKPOLY
 70
     0
  9
$TDCREATE
 40
2456498.829781111
  9
$TDUCREATE
 40
2456498.454781111
  9
$TDUPDATE
 40
2456498.829781123
  9
$TDUUPDATE
 40
2456498.454781123
  9
$TDINDWG
 40
0.0000000116
  9
$TDUSRTIMER
 40
0.0000000116
  9
$USRTIMER
 70
     1
  9
$ANGBASE
 50
0.0
  9
$ANGDIR
 70
     0
  9
$PDMODE
 70
     0
  9
$PDSIZE
 40
0.0
  9
$PLINEWID
 40
0.0
  9
$SPLFRAME
 70
     0
  9
$SPLINETYPE
 70
     6
  9
$SPLINESEGS
 70
     8
  9
$HANDSEED
  5
3BC
  9
$SURFTAB1
 70
     6
  9
$SURFTAB2
 70
     6
  9
$SURFTYPE
 70
     6
  9
$SURFU
 70
     6
  9
$SURFV
 70
     6
  9
$UCSBASE
  2

  9
$UCSNAME
  2

  9
$UCSORG
 10
0.0
 20
0.0
 30
0.0
  9
$UCSXDIR
 10
1.0
 20
0.0
 30
0.0
  9
$UCSYDIR
 10
0.0
 20
1.0
 30
0.0
  9
$UCSORTHOREF
  2

  9
$UCSORTHOVIEW
 70
     0
  9
$UCSORGTOP
 10
0.0
 20
0.0
 30
0.0
  9
$UCSORGBOTTOM
 10
0.0
 20
0.0
 30
0.0
  9
$UCSORGLEFT
 10
0.0
 20
0.0
 30
0.0
  9
$UCSORGRIGHT
 10
0.0
 20
0.0
 30
0.0
  9
$UCSORGFRONT
 10
0.0
 20
0.0
 30
0.0
  9
$UCSORGBACK
 10
0.0
 20
0.0
 30
0.0
  9
$PUCSBASE
  2

  9
$PUCSNAME
  2

  9
$PUCSORG
 10
0.0
 20
0.0
 30
0.0
  9
$PUCSXDIR
 10
1.0
 20
0.0
 30
0.0
  9
$PUCSYDIR
 10
0.0
 20
1.0
 30
0.0
  9
$PUCSORTHOREF
  2

  9
$PUCSORTHOVIEW
 70
     0
  9
$PUCSORGTOP
 10
0.0
 20
0.0
 30
0.0
  9
$PUCSORGBOTTOM
 10
0.0
 20
0.0
 30
0.0
  9
$PUCSORGLEFT
 10
0.0
 20
0.0
 30
0.0
  9
$PUCSORGRIGHT
 10
0.0
 20
0.0
 30
0.0
  9
$PUCSORGFRONT
 10
0.0
 20
0.0
 30
0.0
  9
$PUCSORGBACK
 10
0.0
 20
0.0
 30
0.0
  9
$USERI1
 70
     0
  9
$USERI2
 70
     0
  9
$USERI3
 70
     0
  9
$USERI4
 70
     0
  9
$USERI5
 70
     0
  9
$USERR1
 40
0.0
  9
$USERR2
 40
0.0
  9
$USERR3
 40
0.0
  9
$USERR4
 40
0.0
  9
$USERR5
 40
0.0
  9
$WORLDVIEW
 70
     1
  9
$SHADEDGE
 70
     3
  9
$SHADEDIF
 70
    70
  9
$TILEMODE
 70
     1
  9
$MAXACTVP
 70
    64
  9
$PINSBASE
 10
0.0
 20
0.0
 30
0.0
  9
$PLIMCHECK
 70
     0
  9
$PEXTMIN
 10
1.000000000000000E+20
 20
1.000000000000000E+20
 30
1.000000000000000E+20
  9
$PEXTMAX
 10
-1.000000000000000E+20
 20
-1.000000000000000E+20
 30
-1.000000000000000E+20
  9
$PLIMMIN
 10
0.0
 20
0.0
  9
$PLIMMAX
 10
420.0
 20
297.0
  9
$UNITMODE
 70
     0
  9
$VISRETAIN
 70
     1
  9
$PLINEGEN
 70
     0
  9
$PSLTSCALE
 70
     1
  9
$TREEDEPTH
 70
  3020
  9
$CMLSTYLE
  2
Standard
  9
$CMLJUST
 70
     0
  9
$CMLSCALE
 40
20.0
  9
$PROXYGRAPHICS
 70
     1
  9
$MEASUREMENT
 70
     1
  9
$CELWEIGHT
370
    -1
  9
$ENDCAPS
280
     0
  9
$JOINSTYLE
280
     0
  9
$LWDISPLAY
290
     0
  9
$INSUNITS
 70
     4
  9
$HYPERLINKBASE
  1

  9
$STYLESHEET
  1

  9
$XEDIT
290
     1
  9
$CEPSNTYPE
380
     0
  9
$PSTYLEMODE
290
     1
  9
$FINGERPRINTGUID
  2
{4B5170A3-9109-422E-AFAF-FBF67338CBEE}
  9
$VERSIONGUID
  2
{FAEB1C32-E019-11D5-929B-00C0DF256EC4}
  9
$EXTNAMES
290
     1
  9
$PSVPSCALE
 40
0.0
  9
$OLESTARTUP
290
     0
  9
$SORTENTS
280
   127
  9
$INDEXCTL
280
     0
  9
$HIDETEXT
280
     1
  9
$XCLIPFRAME
290
     0
  9
$HALOGAP
280
     0
  9
$OBSCOLOR
 70
   257
  9
$OBSLTYPE
280
     0
  9
$INTERSECTIONDISPLAY
280
     0
  9
$INTERSECTIONCOLOR
 70
   257
  9
$DIMASSOC
280
     2
  9
$PROJECTNAME
  1

  0
ENDSEC
  0
SECTION
  2
CLASSES
  0
CLASS
  1
ACDBDICTIONARYWDFLT
  2
AcDbDictionaryWithDefault
  3
ObjectDBX Classes
 90
        0
 91
        4
280
     0
281
     0
  0
CLASS
  1
VISUALSTYLE
  2
AcDbVisualStyle
  3
ObjectDBX Classes
 90
     4095
 91
        4
280
     0
281
     0
  0
ENDSEC
  0
SECTION
  2
TABLES
  0
TABLE
  2
VPORT
  5
8
330
0
100
AcDbSymbolTable
 70
     1
  0
VPORT
  5
29
330
8
100
AcDbSymbolTableRecord
100
AcDbViewportTableRecord
  2
*Active
 70
     0
 10
0.0
 20
0.0
 11
1.0
 21
1.0
 12
0.0
 22
0.0
 13
0.0
 23
0.0
 14
10.0
 24
10.0
 15
10.0
 25
10.0
 16
0.0
 26
0.0
 36
1.0
 17
0.0
 27
0.0
 37
0.0
 40
1633.5
 41
1.414141414141414
 42
50.0
 43
0.0
 44
0.0
 50
0.0
 51
0.0
 71
     0
 72
 10000
 73
     1
 74
     3
 75
     0
 76
     0
 77
     0
 78
     0
281
     0
 65
     1
110
0.0
120
0.0
130
0.0
111
1.0
121
0.0
131
0.0
112
0.0
122
1.0
132
0.0
 79
     0
146
0.0
  0
ENDTAB
  0
TABLE
  2
LTYPE
  5
5
330
0
100
AcDbSymbolTable
 70
     4
  0
LTYPE
  5
14
330
5
100
AcDbSymbolTableRecord
100
AcDbLinetypeTableRecord
  2
ByBlock
 70
     0
  3

 72
    65
 73
     0
 40
0.0
  0
LTYPE
  5
15
330
5
100
AcDbSymbolTableRecord
100
AcDbLinetypeTableRecord
  2
ByLayer
 70
     0
  3

 72
    65
 73
     0
 40
0.0
  0
LTYPE
  5
16
330
5
100
AcDbSymbolTableRecord
100
AcDbLinetypeTableRecord
  2
Continuous
 70
     0
  3
Solid line
 72
    65
 73
     0
 40
0.0
  0
LTYPE
  5
3C
330
5
100
AcDbSymbolTableRecord
100
AcDbLinetypeTableRecord
  2
JWW_CENTER1
 70
     0
  3
-----  --  ----------  --  -----
 72
    65
 73
     4
 40
6.773333333333333
 49
4.233333333333333
 74
     0
 49
-0.8466666666666667
 74
     0
 49
0.8466666666666667
 74
     0
 49
-0.8466666666666667
 74
     0
  0
LTYPE
  5
3D
330
5
100
AcDbSymbolTableRecord
100
AcDbLinetypeTableRecord
  2
JWW_HOJO
 70
     0
  3
  -   -   -   -   -   -   -   - 
 72
    65
 73
     2
 40
1.693333333333333
 49
-1.27
 74
     0
 49
0.4233333333333333
 74
     0
  0
LTYPE
  5
3E
330
5
100
AcDbSymbolTableRecord
100
AcDbLinetypeTableRecord
  2
JWW_DASHED1
 70
     0
  3
-  --  --  --  --  --  --  --  -
 72
    65
 73
     2
 40
1.693333333333333
 49
0.8466666666666667
 74
     0
 49
-0.8466666666666667
 74
     0
  0
ENDTAB
  0
TABLE
  2
LAYER
  5
2
330
0
100
AcDbSymbolTable
 70
    12
  0
LAYER
  5
10
330
2
100
AcDbSymbolTableRecord
100
AcDbLayerTableRecord
  2
0
 70
     0
 62
     7
  6
Continuous
370
    -3
390
F
  0
LAYER
  5
3F
330
2
100
AcDbSymbolTableRecord
100
AcDbLayerTableRecord
  2
0-0
 70
     0
 62
     7
  6
Continuous
370
    -3
390
F
  0
LAYER
  5
40
330
2
100
AcDbSymbolTableRecord
100
AcDbLayerTableRecord
  2
0-4
 70
     0
 62
     7
  6
Continuous
370
    -3
390
F
  0
LAYER
  5
41
330
2
100
AcDbSymbolTableRecord
100
AcDbLayerTableRecord
  2
0-8
 70
     0
 62
     7
  6
Continuous
370
    -3
390
F
  0
LAYER
  5
42
330
2
100
AcDbSymbolTableRecord
100
AcDbLayerTableRecord
  2
0-A
 70
     0
 62
     7
  6
Continuous
370
    -3
390
F
  0
LAYER
  5
43
330
2
100
AcDbSymbolTableRecord
100
AcDbLayerTableRecord
  2
0-1
 70
     0
 62
     7
  6
Continuous
370
    -3
390
F
  0
LAYER
  5
44
330
2
100
AcDbSymbolTableRecord
100
AcDbLayerTableRecord
  2
0-B
 70
     0
 62
     7
  6
Continuous
370
    -3
390
F
  0
LAYER
  5
45
330
2
100
AcDbSymbolTableRecord
100
AcDbLayerTableRecord
  2
0-9
 70
     0
 62
     7
  6
Continuous
370
    -3
390
F
  0
LAYER
  5
46
330
2
100
AcDbSymbolTableRecord
100
AcDbLayerTableRecord
  2
0-C
 70
     0
 62
     7
  6
Continuous
370
    -3
390
F
  0
LAYER
  5
47
330
2
100
AcDbSymbolTableRecord
100
AcDbLayerTableRecord
  2
0-5
 70
     0
 62
     7
  6
Continuous
370
    -3
390
F
  0
LAYER
  5
48
330
2
100
AcDbSymbolTableRecord
100
AcDbLayerTableRecord
  2
F-4
 70
     0
 62
     7
  6
Continuous
370
    -3
390
F
  0
LAYER
  5
49
330
2
100
AcDbSymbolTableRecord
100
AcDbLayerTableRecord
  2
F-0
 70
     0
 62
     7
  6
Continuous
370
    -3
390
F
  0
ENDTAB
  0
TABLE
  2
STYLE
  5
3
330
0
100
AcDbSymbolTable
 70
     2
  0
STYLE
  5
11
330
3
100
AcDbSymbolTableRecord
100
AcDbTextStyleTableRecord
  2
Standard
 70
     0
 40
0.0
 41
1.0
 50
0.0
 71
     0
 42
2.5
  3
txt
  4

1001
ACAD
1000

1071
        0
  0
STYLE
  5
3B
330
3
100
AcDbSymbolTableRecord
100
AcDbTextStyleTableRecord
  2
ＭＳ ゴシック
 70
     0
 40
1.0
 41
1.0
 50
0.0
 71
     0
 42
10.0
  3

  4

1001
ACAD
1000
MS Gothic
1071
    32817
  0
ENDTAB
  0
TABLE
  2
VIEW
  5
6
330
0
100
AcDbSymbolTable
 70
     0
  0
ENDTAB
  0
TABLE
  2
UCS
  5
7
330
0
100
AcDbSymbolTable
 70
     0
  0
ENDTAB
  0
TABLE
  2
APPID
  5
9
330
0
100
AcDbSymbolTable
 70
     1
  0
APPID
  5
12
330
9
100
AcDbSymbolTableRecord
100
AcDbRegAppTableRecord
  2
ACAD
 70
     0
  0
ENDTAB
  0
TABLE
  2
DIMSTYLE
  5
A
330
0
100
AcDbSymbolTable
 70
     1
100
AcDbDimStyleTable
  0
DIMSTYLE
105
27
330
A
100
AcDbSymbolTableRecord
100
AcDbDimStyleTableRecord
  2
ISO-25
 70
     0
 41
2.5
 42
0.625
 43
3.75
 44
1.25
 73
     0
 74
     0
 77
     1
 78
     8
140
2.5
141
2.5
143
0.03937007874016
147
0.625
171
     3
172
     1
271
     2
272
     2
274
     3
278
    44
283
     0
284
     8
340
11
  0
ENDTAB
  0
TABLE
  2
BLOCK_RECORD
  5
1
330
0
100
AcDbSymbolTable
 70
     1
  0
BLOCK_RECORD
  5
1F
330
1
100
AcDbSymbolTableRecord
100
AcDbBlockTableRecord
  2
*Model_Space
340
22
  0
BLOCK_RECORD
  5
1B
330
1
100
AcDbSymbolTableRecord
100
AcDbBlockTableRecord
  2
*Paper_Space
340
1E
  0
BLOCK_RECORD
  5
23
330
1
100
AcDbSymbolTableRecord
100
AcDbBlockTableRecord
  2
*Paper_Space0
340
26
  0
ENDTAB
  0
ENDSEC
  0
SECTION
  2
BLOCKS
  0
BLOCK
  5
20
330
1F
100
AcDbEntity
  8
0
100
AcDbBlockBegin
  2
*Model_Space
 70
     0
 10
0.0
 20
0.0
 30
0.0
  3
*Model_Space
  1

  0
ENDBLK
  5
21
330
1F
100
AcDbEntity
  8
0
100
AcDbBlockEnd
  0
BLOCK
  5
1C
330
1B
100
AcDbEntity
 67
     1
  8
0
100
AcDbBlockBegin
  2
*Paper_Space
 70
     0
 10
0.0
 20
0.0
 30
0.0
  3
*Paper_Space
  1

  0
ENDBLK
  5
1D
330
1B
100
AcDbEntity
 67
     1
  8
0
100
AcDbBlockEnd
  0
BLOCK
  5
24
330
23
100
AcDbEntity
  8
0
100
AcDbBlockBegin
  2
*Paper_Space0
 70
     0
 10
0.0
 20
0.0
 30
0.0
  3
*Paper_Space0
  1

  0
ENDBLK
  5
25
330
23
100
AcDbEntity
  8
0
100
AcDbBlockEnd
  0
ENDSEC
  0
SECTION
  2
ENTITIES
  0
LINE
  5
4A
330
1F
100
AcDbEntity
  8
0-0
  6
JWW_CENTER1
 62
     3
370
     9
100
AcDbLine
 10
-169.7820667115025
 20
515.1782128709156
 30
0.0
 11
-169.7820667115025
 21
-23.50626094005356
 31
0.0
  0
LINE
  5
4B
330
1F
100
AcDbEntity
  8
0-0
  6
JWW_CENTER1
 62
     3
370
     9
100
AcDbLine
 10
-443.5584252386088
 20
248.2291211400246
 30
0.0
 11
103.7872156140359
 21
248.2291211400246
 31
0.0
  0
LINE
  5
4C
330
1F
100
AcDbEntity
  8
0-0
  6
JWW_CENTER1
 62
     3
370
     9
100
AcDbLine
 10
-169.782004851547
 20
-272.0269625804147
 30
0.0
 11
-169.782004851547
 21
-362.418461867788
 31
0.0
  0
LINE
  5
4D
330
1F
100
AcDbEntity
  8
0-4
  6
Continuous
 62
     7
370
     9
100
AcDbLine
 10
-344.7820873314878
 20
-225.2045435427247
 30
0.0
 11
5.217953908482738
 21
-225.2045435427247
 31
0.0
  0
LINE
  5
4E
330
1F
100
AcDbEntity
  8
0-4
  6
Continuous
 62
     7
370
     9
100
AcDbLine
 10
-344.7820873314878
 20
-277.3450629684003
 30
0.0
 11
-344.7820873314878
 21
-223.7045633379105
 31
0.0
  0
LINE
  5
4F
330
1F
100
AcDbEntity
  8
0-4
  6
Continuous
 62
     7
370
     9
100
AcDbLine
 10
5.217953908482738
 20
-277.3450629684003
 30
0.0
 11
5.217953908482738
 21
-223.7045633379105
 31
0.0
  0
LINE
  5
50
330
1F
100
AcDbEntity
  8
0-4
  6
Continuous
 62
     7
370
     9
100
AcDbLine
 10
-344.7820873314878
 20
-225.2045435427247
 30
0.0
 11
-332.3890638148071
 21
-223.5729253522686
 31
0.0
  0
LINE
  5
51
330
1F
100
AcDbEntity
  8
0-4
  6
Continuous
 62
     7
370
     9
100
AcDbLine
 10
-344.7820873314878
 20
-225.2045435427247
 30
0.0
 11
-332.3890638148071
 21
-226.8361617331807
 31
0.0
  0
LINE
  5
52
330
1F
100
AcDbEntity
  8
0-4
  6
Continuous
 62
     7
370
     9
100
AcDbLine
 10
5.217953908482738
 20
-225.2045435427247
 30
0.0
 11
-7.175193328109462
 21
-223.5729253522686
 31
0.0
  0
LINE
  5
53
330
1F
100
AcDbEntity
  8
0-4
  6
Continuous
 62
     7
370
     9
100
AcDbLine
 10
5.217953908482738
 20
-225.2045435427247
 30
0.0
 11
-7.175193328109462
 21
-226.8361617331807
 31
0.0
  0
LINE
  5
54
330
1F
100
AcDbEntity
  8
0-4
  6
Continuous
 62
     7
370
     9
100
AcDbLine
 10
-349.782103827476
 20
-185.9670211081807
 30
0.0
 11
10.21797040447089
 21
-185.9670211081807
 31
0.0
  0
LINE
  5
55
330
1F
100
AcDbEntity
  8
0-4
  6
Continuous
 62
     7
370
     9
100
AcDbLine
 10
-349.782103827476
 20
-277.3450629684003
 30
0.0
 11
-349.782103827476
 21
-184.4670409033665
 31
0.0
  0
LINE
  5
56
330
1F
100
AcDbEntity
  8
0-4
  6
Continuous
 62
     7
370
     9
100
AcDbLine
 10
10.21797040447089
 20
-277.3450629684003
 30
0.0
 11
10.21797040447089
 21
-184.4670409033665
 31
0.0
  0
LINE
  5
57
330
1F
100
AcDbEntity
  8
0-4
  6
Continuous
 62
     7
370
     9
100
AcDbLine
 10
-349.782103827476
 20
-185.9670211081807
 30
0.0
 11
-337.3890803107952
 21
-184.335526637636
 31
0.0
  0
LINE
  5
58
330
1F
100
AcDbEntity
  8
0-4
  6
Continuous
 62
     7
370
     9
100
AcDbLine
 10
-349.782103827476
 20
-185.9670211081807
 30
0.0
 11
-337.3890803107952
 21
-187.5986392986368
 31
0.0
  0
LINE
  5
59
330
1F
100
AcDbEntity
  8
0-4
  6
Continuous
 62
     7
370
     9
100
AcDbLine
 10
10.21797040447089
 20
-185.9670211081807
 30
0.0
 11
-2.175176832121171
 21
-184.335526637636
 31
0.0
  0
LINE
  5
5A
330
1F
100
AcDbEntity
  8
0-4
  6
Continuous
 62
     7
370
     9
100
AcDbLine
 10
10.21797040447089
 20
-185.9670211081807
 30
0.0
 11
-2.175176832121171
 21
-187.5986392986368
 31
0.0
  0
LINE
  5
5B
330
1F
100
AcDbEntity
  8
0-4
  6
Continuous
 62
     7
370
     9
100
AcDbLine
 10
-384.7819718595706
 20
-333.3449013077162
 30
0.0
 11
-384.7819718595706
 21
-144.439195675326
 31
0.0
  0
LINE
  5
5C
330
1F
100
AcDbEntity
  8
0-4
  6
Continuous
 62
     7
370
     9
100
AcDbLine
 10
-384.7819718595706
 20
-145.9391758801402
 30
0.0
 11
-372.3889483428898
 21
-144.3075576896841
 31
0.0
  0
LINE
  5
5D
330
1F
100
AcDbEntity
  8
0-4
  6
Continuous
 62
     7
370
     9
100
AcDbLine
 10
-384.7819718595706
 20
-145.9391758801402
 30
0.0
 11
-372.3889483428898
 21
-147.5707940705963
 31
0.0
  0
LINE
  5
5E
330
1F
100
AcDbEntity
  8
0-4
  6
Continuous
 62
     7
370
     9
100
AcDbLine
 10
-324.7820213475351
 20
-403.582921921103
 30
0.0
 11
-14.78211207547
 21
-403.582921921103
 31
0.0
  0
LINE
  5
5F
330
1F
100
AcDbEntity
  8
0-4
  6
Continuous
 62
     7
370
     9
100
AcDbLine
 10
-324.7820213475351
 20
-357.3450794643885
 30
0.0
 11
-324.7820213475351
 21
-405.0829021259173
 31
0.0
  0
LINE
  5
60
330
1F
100
AcDbEntity
  8
0-4
  6
Continuous
 62
     7
370
     9
100
AcDbLine
 10
-14.78211207547
 20
-357.3450794643885
 30
0.0
 11
-14.78211207547
 21
-405.0829021259173
 31
0.0
  0
LINE
  5
61
330
1F
100
AcDbEntity
  8
0-4
  6
Continuous
 62
     7
370
     9
100
AcDbLine
 10
-324.7820213475351
 20
-403.582921921103
 30
0.0
 11
-312.3889978308543
 21
-401.9513037306469
 31
0.0
  0
LINE
  5
62
330
1F
100
AcDbEntity
  8
0-4
  6
Continuous
 62
     7
370
     9
100
AcDbLine
 10
-324.7820213475351
 20
-403.582921921103
 30
0.0
 11
-312.3889978308543
 21
-405.2145401115592
 31
0.0
  0
LINE
  5
63
330
1F
100
AcDbEntity
  8
0-4
  6
Continuous
 62
     7
370
     9
100
AcDbLine
 10
-14.78211207547
 20
-403.582921921103
 30
0.0
 11
-27.17525931206206
 21
-401.9513037306469
 31
0.0
  0
LINE
  5
64
330
1F
100
AcDbEntity
  8
0-4
  6
Continuous
 62
     7
370
     9
100
AcDbLine
 10
-14.78211207547
 20
-403.582921921103
 30
0.0
 11
-27.17525931206206
 21
-405.2145401115592
 31
0.0
  0
LINE
  5
65
330
1F
100
AcDbEntity
  8
0-4
  6
Continuous
 62
     7
370
     9
100
AcDbLine
 10
145.5920499283307
 20
-349.8450547204062
 30
0.0
 11
145.5920499283307
 21
-284.8449639924713
 31
0.0
  0
LINE
  5
66
330
1F
100
AcDbEntity
  8
0-4
  6
Continuous
 62
     7
370
     9
100
AcDbLine
 10
59.21798360126138
 20
-349.8450547204062
 30
0.0
 11
147.0920301331448
 21
-349.8450547204062
 31
0.0
  0
LINE
  5
67
330
1F
100
AcDbEntity
  8
0-4
  6
Continuous
 62
     7
370
     9
100
AcDbLine
 10
17.71799514845318
 20
-284.8449639924713
 30
0.0
 11
147.0920301331448
 21
-284.8449639924713
 31
0.0
  0
LINE
  5
68
330
1F
100
AcDbEntity
  8
0-4
  6
Continuous
 62
     7
370
     9
100
AcDbLine
 10
145.5920499283307
 20
-349.8450547204062
 30
0.0
 11
143.9604317378745
 21
-337.4520312037255
 31
0.0
  0
LINE
  5
69
330
1F
100
AcDbEntity
  8
0-4
  6
Continuous
 62
     7
370
     9
100
AcDbLine
 10
145.5920499283307
 20
-349.8450547204062
 30
0.0
 11
147.2236681187868
 21
-337.4520312037255
 31
0.0
  0
LINE
  5
6A
330
1F
100
AcDbEntity
  8
0-4
  6
Continuous
 62
     7
370
     9
100
AcDbLine
 10
145.5920499283307
 20
-284.8449639924713
 30
0.0
 11
143.9604317378745
 21
-297.237987509152
 31
0.0
  0
LINE
  5
6B
330
1F
100
AcDbEntity
  8
0-4
  6
Continuous
 62
     7
370
     9
100
AcDbLine
 10
145.5920499283307
 20
-284.8449639924713
 30
0.0
 11
147.2236681187868
 21
-297.237987509152
 31
0.0
  0
LINE
  5
6C
330
1F
100
AcDbEntity
  8
0-4
  6
Continuous
 62
     7
370
     9
100
AcDbLine
 10
-198.0225592487175
 20
-324.8449722404654
 30
0.0
 11
-198.0225592487175
 21
-284.8449639924713
 31
0.0
  0
LINE
  5
6D
330
1F
100
AcDbEntity
  8
0-4
  6
Continuous
 62
     7
370
     9
100
AcDbLine
 10
-190.5225345047352
 20
-324.8449722404654
 30
0.0
 11
-196.5225790439033
 21
-324.8449722404654
 31
0.0
  0
LINE
  5
6E
330
1F
100
AcDbEntity
  8
0-4
  6
Continuous
 62
     7
370
     9
100
AcDbLine
 10
-190.5225345047352
 20
-284.8449639924713
 30
0.0
 11
-196.5225790439033
 21
-284.8449639924713
 31
0.0
  0
LINE
  5
6F
330
1F
100
AcDbEntity
  8
0-4
  6
Continuous
 62
     7
370
     9
100
AcDbLine
 10
-198.0225592487175
 20
-324.8449722404654
 30
0.0
 11
-199.6541774391736
 21
-312.4519487237847
 31
0.0
  0
LINE
  5
70
330
1F
100
AcDbEntity
  8
0-4
  6
Continuous
 62
     7
370
     9
100
AcDbLine
 10
-198.0225592487175
 20
-324.8449722404654
 30
0.0
 11
-196.3909410582614
 21
-312.4519487237847
 31
0.0
  0
LINE
  5
71
330
1F
100
AcDbEntity
  8
0-4
  6
Continuous
 62
     7
370
     9
100
AcDbLine
 10
-198.0225592487175
 20
-284.8449639924713
 30
0.0
 11
-199.6541774391736
 21
-297.237987509152
 31
0.0
  0
LINE
  5
72
330
1F
100
AcDbEntity
  8
0-4
  6
Continuous
 62
     7
370
     9
100
AcDbLine
 10
-198.0225592487175
 20
-284.8449639924713
 30
0.0
 11
-196.3909410582614
 21
-297.237987509152
 31
0.0
  0
LINE
  5
73
330
1F
100
AcDbEntity
  8
0-4
  6
Continuous
 62
     7
370
     9
100
AcDbLine
 10
-127.975933338139
 20
-334.8448815125304
 30
0.0
 11
-133.975977877307
 21
-334.8448815125304
 31
0.0
  0
LINE
  5
74
330
1F
100
AcDbEntity
  8
0-4
  6
Continuous
 62
     7
370
     9
100
AcDbLine
 10
-127.975933338139
 20
-340.8450497716098
 30
0.0
 11
-133.975977877307
 21
-340.8450497716098
 31
0.0
  0
LINE
  5
75
330
1F
100
AcDbEntity
  8
0-4
  6
Continuous
 62
     7
370
     9
100
AcDbLine
 10
-135.4759580821212
 20
-334.8448815125304
 30
0.0
 11
-137.1075762725773
 21
-322.4518579958497
 31
0.0
  0
LINE
  5
76
330
1F
100
AcDbEntity
  8
0-4
  6
Continuous
 62
     7
370
     9
100
AcDbLine
 10
-135.4759580821212
 20
-334.8448815125304
 30
0.0
 11
-133.8443398916652
 21
-322.4518579958497
 31
0.0
  0
LINE
  5
77
330
1F
100
AcDbEntity
  8
0-4
  6
Continuous
 62
     7
370
     9
100
AcDbLine
 10
-135.4759580821212
 20
-340.8450497716098
 30
0.0
 11
-137.1075762725773
 21
-353.2380732882905
 31
0.0
  0
LINE
  5
78
330
1F
100
AcDbEntity
  8
0-4
  6
Continuous
 62
     7
370
     9
100
AcDbLine
 10
-135.4759580821212
 20
-340.8450497716098
 30
0.0
 11
-133.8443398916652
 21
-353.2380732882905
 31
0.0
  0
LINE
  5
79
330
1F
100
AcDbEntity
  8
0-4
  6
Continuous
 62
     7
370
     9
100
AcDbLine
 10
-135.4759580821212
 20
-310.647122657484
 30
0.0
 11
-135.4759580821212
 21
-359.9563119126571
 31
0.0
  0
LINE
  5
7A
330
1F
100
AcDbEntity
  8
0-4
  6
Continuous
 62
     7
370
     9
100
AcDbLine
 10
-307.7820394931221
 20
-284.8449639924713
 30
0.0
 11
-312.1933966510613
 21
-273.1492258959764
 31
0.0
  0
LINE
  5
7B
330
1F
100
AcDbEntity
  8
0-4
  6
Continuous
 62
     7
370
     9
100
AcDbLine
 10
-307.7820394931221
 20
-284.8449639924713
 30
0.0
 11
-309.0158981686922
 21
-272.4060403886917
 31
0.0
  0
LINE
  5
7C
330
1F
100
AcDbEntity
  8
0-4
  6
Continuous
 62
     7
370
     9
100
AcDbLine
 10
-345.7819916547564
 20
-284.8449639924713
 30
0.0
 11
-411.5777251323746
 21
-181.7889997029865
 31
0.0
  0
LINE
  5
7D
330
1F
100
AcDbEntity
  8
0-4
  6
Continuous
 62
     7
370
     9
100
AcDbLine
 10
-384.7819718595706
 20
-349.8450547204062
 30
0.0
 11
-414.4032404670452
 21
-404.1151649795912
 31
0.0
  0
LINE
  5
7E
330
1F
100
AcDbEntity
  8
0-4
  6
Continuous
 62
     7
370
     9
100
AcDbLine
 10
-384.7819718595706
 20
-349.8450547204062
 30
0.0
 11
-389.3624541362809
 21
-361.4755924236368
 31
0.0
  0
LINE
  5
7F
330
1F
100
AcDbEntity
  8
0-4
  6
Continuous
 62
     7
370
     9
100
AcDbLine
 10
-384.7819718595706
 20
-349.8450547204062
 30
0.0
 11
-392.2165487704658
 21
-359.8937096375304
 31
0.0
  0
LINE
  5
80
330
1F
100
AcDbEntity
  8
0-4
  6
Continuous
 62
     7
370
     9
100
AcDbLine
 10
-339.7190974006389
 20
-343.8450101812382
 30
0.0
 11
-368.0988366980418
 21
-447.5670824732567
 31
0.0
  0
LINE
  5
81
330
1F
100
AcDbEntity
  8
0-4
  6
Continuous
 62
     7
370
     9
100
AcDbLine
 10
-93.14321090623446
 20
-340.8449260516985
 30
0.0
 11
-12.06212982515334
 21
-472.9870703322094
 31
0.0
  0
LINE
  5
82
330
1F
100
AcDbEntity
  8
0-4
  6
Continuous
 62
     7
370
     9
100
AcDbLine
 10
-312.3320866716483
 20
-324.8449722404654
 30
0.0
 11
-257.5594261326913
 21
-446.9957439227923
 31
0.0
  0
LINE
  5
83
330
1F
100
AcDbEntity
  8
0-4
  6
Continuous
 62
     7
370
     9
100
AcDbLine
 10
68.4085172134869
 20
-334.8450052324417
 30
0.0
 11
109.1186777524438
 21
-180.8275722721377
 31
0.0
  0
LINE
  5
84
330
1F
100
AcDbEntity
  8
0-4
  6
Continuous
 62
     7
370
     9
100
AcDbLine
 10
35.21792916450045
 20
-356.3449277012973
 30
0.0
 11
88.43481181863899
 21
-431.1472232830118
 31
0.0
  0
LINE
  5
85
330
1F
100
AcDbEntity
  8
0-4
  6
Continuous
 62
     7
370
     9
100
AcDbLine
 10
35.21792916450045
 20
-329.5449679515085
 30
0.0
 11
100.3213260183856
 21
-113.8767897024586
 31
0.0
  0
LINE
  5
86
330
1F
100
AcDbEntity
  8
0-4
  6
Continuous
 62
     7
370
     9
100
AcDbLine
 10
-307.7820394931221
 20
-284.8449639924713
 30
0.0
 11
-353.0252975827547
 21
-91.42075975894087
 31
0.0
  0
LINE
  5
87
330
1F
100
AcDbEntity
  8
0-4
  6
Continuous
 62
     7
370
     9
100
AcDbLine
 10
-353.0252975827547
 20
-91.42075975894087
 30
0.0
 11
-499.4877741584514
 21
-91.42075975894087
 31
0.0
  0
LINE
  5
88
330
1F
100
AcDbEntity
  8
0-4
  6
Continuous
 62
     7
370
     9
100
AcDbLine
 10
-414.4032404670452
 20
-404.1151649795912
 30
0.0
 11
-543.4755225880334
 21
-404.1151649795912
 31
0.0
  0
LINE
  5
89
330
1F
100
AcDbEntity
  8
0-4
  6
Continuous
 62
     7
370
     9
100
AcDbLine
 10
-368.0988366980418
 20
-447.5670824732567
 30
0.0
 11
-522.771242868861
 21
-447.5670824732567
 31
0.0
  0
LINE
  5
8A
330
1F
100
AcDbEntity
  8
0-4
  6
Continuous
 62
     7
370
     9
100
AcDbLine
 10
-257.5594261326913
 20
-446.9957439227923
 30
0.0
 11
-114.3527627432277
 21
-446.9957439227923
 31
0.0
  0
LINE
  5
8B
330
1F
100
AcDbEntity
  8
0-4
  6
Continuous
 62
     7
370
     9
100
AcDbLine
 10
-12.06212982515334
 20
-472.9870703322094
 30
0.0
 11
112.8386880459404
 21
-472.9870703322094
 31
0.0
  0
LINE
  5
8C
330
1F
100
AcDbEntity
  8
0-4
  6
Continuous
 62
     7
370
     9
100
AcDbLine
 10
88.43481181863899
 20
-431.1472232830118
 30
0.0
 11
180.3723151178365
 21
-431.1472232830118
 31
0.0
  0
LINE
  5
8D
330
1F
100
AcDbEntity
  8
0-4
  6
Continuous
 62
     7
370
     9
100
AcDbLine
 10
100.3213260183856
 20
-113.8767897024586
 30
0.0
 11
275.7912967215106
 21
-113.8767897024586
 31
0.0
  0
LINE
  5
8E
330
1F
100
AcDbEntity
  8
0-4
  6
Continuous
 62
     7
370
     9
100
AcDbLine
 10
109.1186777524438
 20
-180.8275722721377
 30
0.0
 11
282.0619167067301
 21
-180.8275722721377
 31
0.0
  0
LINE
  5
8F
330
1F
100
AcDbEntity
  8
0-4
  6
Continuous
 62
     7
370
     9
100
AcDbLine
 10
-411.5777251323746
 20
-181.7889997029865
 30
0.0
 11
-566.5553483244142
 21
-181.7889997029865
 31
0.0
  0
LINE
  5
90
330
1F
100
AcDbEntity
  8
0-4
  6
Continuous
 62
     7
370
     9
100
AcDbLine
 10
-345.7819916547564
 20
-284.8449639924713
 30
0.0
 11
-353.8262602886246
 21
-275.2773320905499
 31
0.0
  0
LINE
  5
91
330
1F
100
AcDbEntity
  8
0-4
  6
Continuous
 62
     7
370
     9
100
AcDbLine
 10
-345.7819916547564
 20
-284.8449639924713
 30
0.0
 11
-351.0758429401238
 21
-273.5213753892196
 31
0.0
  0
LINE
  5
92
330
1F
100
AcDbEntity
  8
0-4
  6
Continuous
 62
     7
370
     9
100
AcDbLine
 10
-339.7190974006389
 20
-343.8450101812382
 30
0.0
 11
-341.2699264890047
 21
-356.2484261704696
 31
0.0
  0
LINE
  5
93
330
1F
100
AcDbEntity
  8
0-4
  6
Continuous
 62
     7
370
     9
100
AcDbLine
 10
-339.7190974006389
 20
-343.8450101812382
 30
0.0
 11
-344.427258625829
 21
-355.4244515610946
 31
0.0
  0
LINE
  5
94
330
1F
100
AcDbEntity
  8
0-4
  6
Continuous
 62
     7
370
     9
100
AcDbLine
 10
-312.3320866716483
 20
-324.8449722404654
 30
0.0
 11
-305.8830625743087
 21
-335.5530542849122
 31
0.0
  0
LINE
  5
95
330
1F
100
AcDbEntity
  8
0-4
  6
Continuous
 62
     7
370
     9
100
AcDbLine
 10
-312.3320866716483
 20
-324.8449722404654
 30
0.0
 11
-308.8743625901449
 21
-336.8571858701107
 31
0.0
  0
LINE
  5
96
330
1F
100
AcDbEntity
  8
0-4
  6
Continuous
 62
     7
370
     9
100
AcDbLine
 10
-93.14321090623446
 20
-340.8449260516985
 30
0.0
 11
-85.31619443663979
 21
-350.5910857856512
 31
0.0
  0
LINE
  5
97
330
1F
100
AcDbEntity
  8
0-4
  6
Continuous
 62
     7
370
     9
100
AcDbLine
 10
-93.14321090623446
 20
-340.8449260516985
 30
0.0
 11
-88.10545983729435
 21
-352.2848113715887
 31
0.0
  0
LINE
  5
98
330
1F
100
AcDbEntity
  8
0-4
  6
Continuous
 62
     7
370
     9
100
AcDbLine
 10
35.21792916450045
 20
-329.5449679515085
 30
0.0
 11
37.23753299684836
 21
-317.2091030338564
 31
0.0
  0
LINE
  5
99
330
1F
100
AcDbEntity
  8
0-4
  6
Continuous
 62
     7
370
     9
100
AcDbLine
 10
35.21792916450045
 20
-329.5449679515085
 30
0.0
 11
40.36146075761698
 21
-318.1522199178303
 31
0.0
  0
LINE
  5
9A
330
1F
100
AcDbEntity
  8
0-4
  6
Continuous
 62
     7
370
     9
100
AcDbLine
 10
68.4085172134869
 20
-334.8450052324417
 30
0.0
 11
69.99807063409497
 21
-322.4464143197517
 31
0.0
  0
LINE
  5
9B
330
1F
100
AcDbEntity
  8
0-4
  6
Continuous
 62
     7
370
     9
100
AcDbLine
 10
68.4085172134869
 20
-334.8450052324417
 30
0.0
 11
73.15292837269303
 21
-323.2804102419434
 31
0.0
  0
LINE
  5
9C
330
1F
100
AcDbEntity
  8
0-4
  6
Continuous
 62
     7
370
     9
100
AcDbLine
 10
35.21792916450045
 20
-356.3449277012973
 30
0.0
 11
43.73159114190747
 21
-365.4974793007483
 31
0.0
  0
LINE
  5
9D
330
1F
100
AcDbEntity
  8
0-4
  6
Continuous
 62
     7
370
     9
100
AcDbLine
 10
35.21792916450045
 20
-356.3449277012973
 30
0.0
 11
41.07285024769303
 21
-367.3890330248826
 31
0.0
  0
LINE
  5
9E
330
1F
100
AcDbEntity
  8
0-8
  6
Continuous
 62
     4
370
     9
100
AcDbLine
 10
-344.7820254715321
 20
423.2290799000541
 30
0.0
 11
-344.7820254715321
 21
73.229162379995
 31
0.0
  0
LINE
  5
9F
330
1F
100
AcDbEntity
  8
0-8
  6
Continuous
 62
     4
370
     9
100
AcDbLine
 10
-344.7820254715321
 20
423.2290799000541
 30
0.0
 11
5.218077628393925
 21
423.2290799000541
 31
0.0
  0
LINE
  5
A0
330
1F
100
AcDbEntity
  8
0-8
  6
Continuous
 62
     4
370
     9
100
AcDbLine
 10
-340.7820988786795
 20
419.2292151671571
 30
0.0
 11
1.218027315629993
 21
419.2292151671571
 31
0.0
  0
LINE
  5
A1
330
1F
100
AcDbEntity
  8
0-8
  6
Continuous
 62
     4
370
     9
100
AcDbLine
 10
-340.7820988786795
 20
419.2292151671571
 30
0.0
 11
-340.7820988786795
 21
77.2290889728476
 31
0.0
  0
LINE
  5
A2
330
1F
100
AcDbEntity
  8
0-8
  6
Continuous
 62
     4
370
     9
100
AcDbLine
 10
-345.7820535147119
 20
424.2291079432339
 30
0.0
 11
6.217981951662548
 21
424.2291079432339
 31
0.0
  0
LINE
  5
A3
330
1F
100
AcDbEntity
  8
0-8
  6
Continuous
 62
     4
370
     9
100
AcDbLine
 10
-349.782103827476
 20
428.2290963960423
 30
0.0
 11
10.21809412438222
 21
428.2290963960423
 31
0.0
  0
LINE
  5
A4
330
1F
100
AcDbEntity
  8
0-8
  6
Continuous
 62
     4
370
     9
100
AcDbLine
 10
-345.7820535147119
 20
424.2291079432339
 30
0.0
 11
-345.7820535147119
 21
72.22894875694813
 31
0.0
  0
LINE
  5
A5
330
1F
100
AcDbEntity
  8
0-8
  6
Continuous
 62
     4
370
     9
100
AcDbLine
 10
-349.782103827476
 20
428.2290963960423
 30
0.0
 11
-349.782103827476
 21
68.22902216409538
 31
0.0
  0
LINE
  5
A6
330
1F
100
AcDbEntity
  8
0-0
  6
Continuous
 62
     3
370
     9
100
AcDbLine
 10
-218.2820040267475
 20
300.7289850481221
 30
0.0
 11
-121.2820675363019
 21
300.7289850481221
 31
0.0
  0
LINE
  5
A7
330
1F
100
AcDbEntity
  8
0-0
  6
Continuous
 62
     3
370
     9
100
AcDbLine
 10
-217.7821137250688
 20
299.2290667032635
 30
0.0
 11
-121.7820815578919
 21
299.2290667032635
 31
0.0
  0
LINE
  5
A8
330
1F
100
AcDbEntity
  8
0-0
  6
Continuous
 62
     3
370
     9
100
AcDbLine
 10
-218.2820040267475
 20
305.7289396841546
 30
0.0
 11
-121.2820675363019
 21
305.7289396841546
 31
0.0
  0
LINE
  5
A9
330
1F
100
AcDbEntity
  8
0-0
  6
Continuous
 62
     3
370
     9
100
AcDbLine
 10
-217.7821137250688
 20
307.2290436088801
 30
0.0
 11
-121.7820815578919
 21
307.2290436088801
 31
0.0
  0
LINE
  5
AA
330
1F
100
AcDbEntity
  8
0-0
  6
Continuous
 62
     3
370
     9
100
AcDbLine
 10
-220.7820122747416
 20
296.2290444336795
 30
0.0
 11
-220.7820122747416
 21
200.2290741264582
 31
0.0
  0
LINE
  5
AB
330
1F
100
AcDbEntity
  8
0-0
  6
Continuous
 62
     3
370
     9
100
AcDbLine
 10
-222.2820543395114
 20
296.7290584552695
 30
0.0
 11
-222.2820543395114
 21
199.7291838247796
 31
0.0
  0
LINE
  5
AC
330
1F
100
AcDbEntity
  8
0-0
  6
Continuous
 62
     3
370
     9
100
AcDbLine
 10
-227.2820708354996
 20
296.7290584552695
 30
0.0
 11
-227.2820708354996
 21
199.7291838247796
 31
0.0
  0
LINE
  5
AD
330
1F
100
AcDbEntity
  8
0-0
  6
Continuous
 62
     3
370
     9
100
AcDbLine
 10
-228.7819891803582
 20
296.2290444336795
 30
0.0
 11
-228.7819891803582
 21
200.2290741264582
 31
0.0
  0
LINE
  5
AE
330
1F
100
AcDbEntity
  8
0-0
  6
Continuous
 62
     3
370
     9
100
AcDbLine
 10
-220.7820122747416
 20
310.2290658784642
 30
0.0
 11
-220.7820122747416
 21
360.9087624512576
 31
0.0
  0
LINE
  5
AF
330
1F
100
AcDbEntity
  8
0-0
  6
Continuous
 62
     3
370
     9
100
AcDbLine
 10
-228.7819891803582
 20
310.2290658784642
 30
0.0
 11
-228.7819891803582
 21
360.9087624512576
 31
0.0
  0
LINE
  5
B0
330
1F
100
AcDbEntity
  8
0-0
  6
Continuous
 62
     3
370
     9
100
AcDbLine
 10
-231.7820114499421
 20
299.2290667032635
 30
0.0
 11
-282.4617698826913
 21
299.2290667032635
 31
0.0
  0
LINE
  5
B1
330
1F
100
AcDbEntity
  8
0-0
  6
Continuous
 62
     3
370
     9
100
AcDbLine
 10
-231.7820114499421
 20
307.2290436088801
 30
0.0
 11
-282.4617698826913
 21
307.2290436088801
 31
0.0
  0
LINE
  5
B2
330
1F
100
AcDbEntity
  8
0-0
  6
Continuous
 62
     3
370
     9
100
AcDbLine
 10
-228.7819891803582
 20
360.9087624512576
 30
0.0
 11
-227.2820708354996
 21
398.2289974201132
 31
0.0
  0
LINE
  5
B3
330
1F
100
AcDbEntity
  8
0-0
  6
Continuous
 62
     3
370
     9
100
AcDbLine
 10
-222.2820543395114
 20
398.2289974201132
 30
0.0
 11
-220.7820122747416
 21
360.9087624512576
 31
0.0
  0
LINE
  5
B4
330
1F
100
AcDbEntity
  8
0-0
  6
Continuous
 62
     3
370
     9
100
AcDbLine
 10
-222.2820543395114
 20
309.7290518568742
 30
0.0
 11
-222.2820543395114
 21
398.2289974201132
 31
0.0
  0
LINE
  5
B5
330
1F
100
AcDbEntity
  8
0-0
  6
Continuous
 62
     3
370
     9
100
AcDbLine
 10
-227.2820708354996
 20
309.7290518568742
 30
0.0
 11
-227.2820708354996
 21
398.2289974201132
 31
0.0
  0
LINE
  5
B6
330
1F
100
AcDbEntity
  8
0-0
  6
Continuous
 62
     3
370
     9
100
AcDbLine
 10
-282.4617698826913
 20
360.9087624512576
 30
0.0
 11
-228.7819891803582
 21
360.9087624512576
 31
0.0
  0
LINE
  5
B7
330
1F
100
AcDbEntity
  8
0-0
  6
Continuous
 62
     3
370
     9
100
AcDbLine
 10
-220.7820122747416
 20
360.9087624512576
 30
0.0
 11
-118.7819355683966
 21
360.9087624512576
 31
0.0
  0
LINE
  5
B8
330
1F
100
AcDbEntity
  8
0-0
  6
Continuous
 62
     3
370
     9
100
AcDbLine
 10
-282.4617698826913
 20
197.2290518568742
 30
0.0
 11
-282.4617698826913
 21
299.2290667032635
 31
0.0
  0
LINE
  5
B9
330
1F
100
AcDbEntity
  8
0-0
  6
Continuous
 62
     3
370
     9
100
AcDbLine
 10
-282.4617698826913
 20
307.2290436088801
 30
0.0
 11
-282.4617698826913
 21
360.9087624512576
 31
0.0
  0
LINE
  5
BA
330
1F
100
AcDbEntity
  8
0-0
  6
Continuous
 62
     3
370
     9
100
AcDbLine
 10
-231.2819974283522
 20
300.7289850481221
 30
0.0
 11
-319.7821285714582
 21
300.7289850481221
 31
0.0
  0
LINE
  5
BB
330
1F
100
AcDbEntity
  8
0-0
  6
Continuous
 62
     3
370
     9
100
AcDbLine
 10
-231.2819974283522
 20
305.7289396841546
 30
0.0
 11
-319.7821285714582
 21
305.7289396841546
 31
0.0
  0
LINE
  5
BC
330
1F
100
AcDbEntity
  8
0-0
  6
Continuous
 62
     3
370
     9
100
AcDbLine
 10
-282.4617698826913
 20
299.2290667032635
 30
0.0
 11
-319.7821285714582
 21
300.7289850481221
 31
0.0
  0
LINE
  5
BD
330
1F
100
AcDbEntity
  8
0-0
  6
Continuous
 62
     3
370
     9
100
AcDbLine
 10
-319.7821285714582
 20
305.7289396841546
 30
0.0
 11
-282.4617698826913
 21
307.2290436088801
 31
0.0
  0
LINE
  5
BE
330
1F
100
AcDbEntity
  8
0-0
  6
JWW_CENTER1
 62
     3
370
     9
100
AcDbLine
 10
-323.4494341827335
 20
303.2291170160274
 30
0.0
 11
-16.1148229601829
 21
303.2291170160274
 31
0.0
  0
LINE
  5
BF
330
1F
100
AcDbEntity
  8
0-0
  6
Continuous
 62
     3
370
     9
100
AcDbLine
 10
-319.7821285714582
 20
398.2289974201132
 30
0.0
 11
-227.2820708354996
 21
398.2289974201132
 31
0.0
  0
LINE
  5
C0
330
1F
100
AcDbEntity
  8
0-0
  6
Continuous
 62
     3
370
     9
100
AcDbLine
 10
-222.2820543395114
 20
398.2289974201132
 30
0.0
 11
-117.2819553635824
 21
398.2289974201132
 31
0.0
  0
LINE
  5
C1
330
1F
100
AcDbEntity
  8
0-0
  6
Continuous
 62
     3
370
     9
100
AcDbLine
 10
-319.7821285714582
 20
398.2289974201132
 30
0.0
 11
-319.7821285714582
 21
305.7289396841546
 31
0.0
  0
LINE
  5
C2
330
1F
100
AcDbEntity
  8
0-0
  6
JWW_CENTER1
 62
     3
370
     9
100
AcDbLine
 10
-224.7820625875055
 20
404.7804616040236
 30
0.0
 11
-224.7820625875055
 21
91.67771881606974
 31
0.0
  0
LINE
  5
C3
330
1F
100
AcDbEntity
  8
0-0
  6
Continuous
 62
     3
370
     9
100
AcDbLine
 10
-282.4617698826913
 20
360.9086387313463
 30
0.0
 11
-319.7821285714582
 21
398.2289974201132
 31
0.0
  0
LINE
  5
C4
330
1F
100
AcDbEntity
  8
0-0
  6
Continuous
 62
     3
370
     9
100
AcDbLine
 10
-328.6762292761668
 20
411.1232102975413
 30
0.0
 11
-10.88784228688263
 21
411.1232102975413
 31
0.0
  0
LINE
  5
C5
330
1F
100
AcDbEntity
  8
0-0
  6
Continuous
 62
     3
370
     9
100
AcDbLine
 10
-330.7661060181431
 20
413.2130870395178
 30
0.0
 11
-8.797965544906337
 21
413.2130870395178
 31
0.0
  0
LINE
  5
C6
330
1F
100
AcDbEntity
  8
0-A
  6
Continuous
 62
     7
370
     9
100
AcDbLine
 10
-337.6673263913484
 20
283.9093868244101
 30
0.0
 11
-333.4625814853096
 21
288.1144410302272
 31
0.0
  0
LINE
  5
C7
330
1F
100
AcDbEntity
  8
0-A
  6
Continuous
 62
     7
370
     9
100
AcDbLine
 10
-337.1017408167602
 20
283.3438012498218
 30
0.0
 11
-332.89687219081
 21
287.5487317357277
 31
0.0
  0
LINE
  5
C8
330
1F
100
AcDbEntity
  8
0-A
  6
Continuous
 62
     7
370
     9
100
AcDbLine
 10
-300.5321764098239
 20
290.7290139161014
 30
0.0
 11
-335.0319685603729
 21
290.7290139161014
 31
0.0
  0
LINE
  5
C9
330
1F
100
AcDbEntity
  8
0-A
  6
Continuous
 62
     7
370
     9
100
AcDbLine
 10
-339.5711283867031
 20
285.7290592800688
 30
0.0
 11
-330.8471425600562
 21
285.7290592800688
 31
0.0
  0
LINE
  5
CA
330
1F
100
AcDbEntity
  8
0-A
  6
Continuous
 62
     7
370
     9
100
AcDbLine
 10
-335.2821302210571
 20
290.1216728714434
 30
0.0
 11
-335.2821302210571
 21
281.1100382509832
 31
0.0
  0
LINE
  5
CB
330
1F
100
AcDbEntity
  8
0-A
  6
Continuous
 62
     7
370
     9
100
AcDbLine
 10
-327.7821054770748
 20
277.7292060943636
 30
0.0
 11
-307.7819157732108
 21
277.7292060943636
 31
0.0
  0
LINE
  5
CC
330
1F
100
AcDbEntity
  8
0-A
  6
Continuous
 62
     7
370
     9
100
AcDbLine
 10
-302.6672109194312
 20
283.9093868244101
 30
0.0
 11
-298.4624660133923
 21
288.1144410302272
 31
0.0
  0
LINE
  5
CD
330
1F
100
AcDbEntity
  8
0-A
  6
Continuous
 62
     7
370
     9
100
AcDbLine
 10
-302.1016253448429
 20
283.3438012498218
 30
0.0
 11
-297.8967567188928
 21
287.5487317357277
 31
0.0
  0
LINE
  5
CE
330
1F
100
AcDbEntity
  8
0-A
  6
Continuous
 62
     7
370
     9
100
AcDbLine
 10
-304.5711366346972
 20
285.7290592800688
 30
0.0
 11
-295.847027088139
 21
285.7290592800688
 31
0.0
  0
LINE
  5
CF
330
1F
100
AcDbEntity
  8
0-A
  6
Continuous
 62
     7
370
     9
100
AcDbLine
 10
-300.2820147491398
 20
290.1216728714434
 30
0.0
 11
-300.2820147491398
 21
281.1100382509832
 31
0.0
  0
LINE
  5
D0
330
1F
100
AcDbEntity
  8
0-A
  6
Continuous
 62
     7
370
     9
100
AcDbLine
 10
-307.7819157732108
 20
277.7292060943636
 30
0.0
 11
-307.7819157732108
 21
219.2290502072753
 31
0.0
  0
LINE
  5
D1
330
1F
100
AcDbEntity
  8
0-A
  6
Continuous
 62
     7
370
     9
100
AcDbLine
 10
-295.5320361939244
 20
285.7290592800688
 30
0.0
 11
-295.5320361939244
 21
210.7289974201132
 31
0.0
  0
LINE
  5
D2
330
1F
100
AcDbEntity
  8
0-A
  6
Continuous
 62
     7
370
     9
100
AcDbLine
 10
-327.7821054770748
 20
277.7292060943636
 30
0.0
 11
-327.7821054770748
 21
219.2290502072753
 31
0.0
  0
LINE
  5
D3
330
1F
100
AcDbEntity
  8
0-A
  6
Continuous
 62
     7
370
     9
100
AcDbLine
 10
-340.0320469163167
 20
285.7290592800688
 30
0.0
 11
-340.0320469163167
 21
210.7289974201132
 31
0.0
  0
LINE
  5
D4
330
1F
100
AcDbEntity
  8
0-0
  6
Continuous
 62
     3
370
     9
100
AcDbLine
 10
-332.6762795889307
 20
297.729148358405
 30
0.0
 11
-332.6762795889307
 21
407.1232218447332
 31
0.0
  0
LINE
  5
D5
330
1F
100
AcDbEntity
  8
0-0
  6
Continuous
 62
     3
370
     9
100
AcDbLine
 10
-292.7820518651132
 20
287.729053506473
 30
0.0
 11
-292.7820518651132
 21
208.7290650536647
 31
0.0
  0
LINE
  5
D6
330
1F
100
AcDbEntity
  8
0-0
  6
Continuous
 62
     3
370
     9
100
AcDbLine
 10
-292.8759552778032
 20
297.4688416649928
 30
0.0
 11
-319.7821285714582
 21
292.7290081425056
 31
0.0
  0
LINE
  5
D7
330
1F
100
AcDbEntity
  8
0-0
  6
Continuous
 62
     3
370
     9
100
AcDbLine
 10
-287.0085384835676
 20
292.5448510545093
 30
0.0
 11
-287.0085384835676
 21
203.9133912255397
 31
0.0
  0
LINE
  5
D8
330
1F
100
AcDbEntity
  8
0-0
  6
Continuous
 62
     3
370
     9
100
AcDbLine
 10
-319.7821285714582
 20
300.7289850481221
 30
0.0
 11
-319.7821285714582
 21
292.7290081425056
 31
0.0
  0
LINE
  5
D9
330
1F
100
AcDbEntity
  8
0-0
  6
Continuous
 62
     3
370
     9
100
AcDbLine
 10
-334.7661563309071
 20
409.2130985867095
 30
0.0
 11
-334.7661563309071
 21
297.729148358405
 31
0.0
  0
LINE
  5
DA
330
1F
100
AcDbEntity
  8
0-0
  6
Continuous
 62
     3
370
     9
100
AcDbLine
 10
-297.7820065011457
 20
292.7290081425056
 30
0.0
 11
-327.6763249528983
 21
292.7290081425056
 31
0.0
  0
LINE
  5
DB
330
1F
100
AcDbEntity
  8
0-0
  6
Continuous
 62
     3
370
     9
100
AcDbLine
 10
-332.7027556499527
 20
292.7290081425056
 30
0.0
 11
-335.0319685603729
 21
292.7290081425056
 31
0.0
  0
LINE
  5
DC
330
1F
100
AcDbEntity
  8
0-A
  6
Continuous
 62
     7
370
     9
100
AcDbLine
 10
-332.89687219081
 20
212.548669875772
 30
0.0
 11
-337.1016170968488
 21
208.3438012498218
 31
0.0
  0
LINE
  5
DD
330
1F
100
AcDbEntity
  8
0-A
  6
Continuous
 62
     7
370
     9
100
AcDbLine
 10
-333.4624577653983
 20
213.1142554503602
 30
0.0
 11
-337.6673263913484
 21
208.9095105443214
 31
0.0
  0
LINE
  5
DE
330
1F
100
AcDbEntity
  8
0-A
  6
Continuous
 62
     7
370
     9
100
AcDbLine
 10
-300.5321764098239
 20
205.7290427840807
 30
0.0
 11
-335.0319685603729
 21
205.7290427840807
 31
0.0
  0
LINE
  5
DF
330
1F
100
AcDbEntity
  8
0-A
  6
Continuous
 62
     7
370
     9
100
AcDbLine
 10
-339.5711283867031
 20
210.7289974201132
 30
0.0
 11
-330.8471425600562
 21
210.7289974201132
 31
0.0
  0
LINE
  5
E0
330
1F
100
AcDbEntity
  8
0-A
  6
Continuous
 62
     7
370
     9
100
AcDbLine
 10
-335.2821302210571
 20
206.3365694086056
 30
0.0
 11
-335.2821302210571
 21
215.3480184491989
 31
0.0
  0
LINE
  5
E1
330
1F
100
AcDbEntity
  8
0-A
  6
Continuous
 62
     7
370
     9
100
AcDbLine
 10
-297.8967567188928
 20
212.548669875772
 30
0.0
 11
-302.1015016249316
 21
208.3438012498218
 31
0.0
  0
LINE
  5
E2
330
1F
100
AcDbEntity
  8
0-A
  6
Continuous
 62
     7
370
     9
100
AcDbLine
 10
-298.462342293481
 20
213.1142554503602
 30
0.0
 11
-302.6672109194312
 21
208.9095105443214
 31
0.0
  0
LINE
  5
E3
330
1F
100
AcDbEntity
  8
0-A
  6
Continuous
 62
     7
370
     9
100
AcDbLine
 10
-304.5711366346972
 20
210.7289974201132
 30
0.0
 11
-295.847027088139
 21
210.7289974201132
 31
0.0
  0
LINE
  5
E4
330
1F
100
AcDbEntity
  8
0-A
  6
Continuous
 62
     7
370
     9
100
AcDbLine
 10
-300.2820147491398
 20
206.3365694086056
 30
0.0
 11
-300.2820147491398
 21
215.3480184491989
 31
0.0
  0
LINE
  5
E5
330
1F
100
AcDbEntity
  8
0-0
  6
JWW_CENTER1
 62
     3
370
     9
100
AcDbLine
 10
-317.7820724850984
 20
202.6015271458839
 30
0.0
 11
-317.7820724850984
 21
294.1775208642115
 31
0.0
  0
LINE
  5
E6
330
1F
100
AcDbEntity
  8
0-A
  6
Continuous
 62
     7
370
     9
100
AcDbLine
 10
-307.7819157732108
 20
219.2290502072753
 30
0.0
 11
-327.7821054770748
 21
219.2290502072753
 31
0.0
  0
LINE
  5
E7
330
1F
100
AcDbEntity
  8
0-1
  6
Continuous
 62
     2
370
     9
100
AcDbLine
 10
-356.0320625875055
 20
429.479162379995
 30
0.0
 11
-356.0320625875055
 21
66.97914176000971
 31
0.0
  0
LINE
  5
E8
330
1F
100
AcDbEntity
  8
0-1
  6
Continuous
 62
     2
370
     9
100
AcDbLine
 10
-188.2820287707298
 20
450.2288473066208
 30
0.0
 11
-344.7820254715321
 21
450.2288473066208
 31
0.0
  0
LINE
  5
E9
330
1F
100
AcDbEntity
  8
0-1
  6
Continuous
 62
     2
370
     9
100
AcDbLine
 10
-186.2822201241925
 20
439.47907165206
 30
0.0
 11
-186.2822201241925
 21
448.2289149401723
 31
0.0
  0
LINE
  5
EA
330
1F
100
AcDbEntity
  8
0-1
  6
Continuous
 62
     2
370
     9
100
AcDbLine
 10
-188.2820287707298
 20
437.4791392856116
 30
0.0
 11
-354.0320683611014
 21
437.4791392856116
 31
0.0
  0
LINE
  5
EB
330
1F
100
AcDbEntity
  8
0-1
  6
Continuous
 62
     2
370
     9
100
AcDbLine
 10
-188.7820427923197
 20
452.2289033929806
 30
0.0
 11
-344.7820254715321
 21
452.2289033929806
 31
0.0
  0
LINE
  5
EC
330
1F
100
AcDbEntity
  8
0-1
  6
Continuous
 62
     2
370
     9
100
AcDbLine
 10
-184.7821161994671
 20
438.4790436088801
 30
0.0
 11
-184.7821161994671
 21
448.2289149401723
 31
0.0
  0
LINE
  5
ED
330
1F
100
AcDbEntity
  8
0-1
  6
Continuous
 62
     2
370
     9
100
AcDbLine
 10
11.46803638842348
 20
434.4790551560718
 30
0.0
 11
-351.0320460915173
 21
434.4790551560718
 31
0.0
  0
LINE
  5
EE
330
1F
100
AcDbEntity
  8
0-1
  6
Continuous
 62
     2
370
     9
100
AcDbLine
 10
-184.9600872918973
 20
437.2991268146445
 30
0.0
 11
-154.603984271152
 21
437.2991268146445
 31
0.0
  0
LINE
  5
EF
330
1F
100
AcDbEntity
  8
0-B
  6
Continuous
 62
     4
370
     9
100
AcDbLine
 10
-182.2821698114286
 20
510.7289974201132
 30
0.0
 11
-182.2821698114286
 21
453.2289314361605
 31
0.0
  0
LINE
  5
F0
330
1F
100
AcDbEntity
  8
0-B
  6
Continuous
 62
     4
370
     9
100
AcDbLine
 10
-182.2821698114286
 20
510.7289974201132
 30
0.0
 11
-157.2819017516208
 21
510.7289974201132
 31
0.0
  0
LINE
  5
F1
330
1F
100
AcDbEntity
  8
0-B
  6
Continuous
 62
     4
370
     9
100
AcDbLine
 10
-157.2819017516208
 20
510.7289974201132
 30
0.0
 11
-157.2819017516208
 21
453.2289314361605
 31
0.0
  0
LINE
  5
F2
330
1F
100
AcDbEntity
  8
0-1
  6
Continuous
 62
     2
370
     9
100
AcDbLine
 10
-344.7820254715321
 20
463.2289644281368
 30
0.0
 11
-182.9064604839371
 21
463.2289644281368
 31
0.0
  0
LINE
  5
F3
330
1F
100
AcDbEntity
  8
0-1
  6
Continuous
 62
     2
370
     9
100
AcDbLine
 10
-344.7820254715321
 20
462.2290601048683
 30
0.0
 11
-182.2821698114286
 21
462.2290601048683
 31
0.0
  0
LINE
  5
F4
330
1F
100
AcDbEntity
  8
0-B
  6
Continuous
 62
     4
370
     9
100
AcDbLine
 10
-162.5920222053265
 20
453.2289314361605
 30
0.0
 11
-166.1870753883924
 21
459.4557545727736
 31
0.0
  0
LINE
  5
F5
330
1F
100
AcDbEntity
  8
0-B
  6
Continuous
 62
     4
370
     9
100
AcDbLine
 10
-166.1870753883924
 20
459.4557545727736
 30
0.0
 11
-173.3770580346128
 21
459.4557545727736
 31
0.0
  0
LINE
  5
F6
330
1F
100
AcDbEntity
  8
0-B
  6
Continuous
 62
     4
370
     9
100
AcDbLine
 10
-173.3770580346128
 20
459.4557545727736
 30
0.0
 11
-176.9721112176786
 21
453.2289314361605
 31
0.0
  0
LINE
  5
F7
330
1F
100
AcDbEntity
  8
0-B
  6
Continuous
 62
     4
370
     9
100
AcDbLine
 10
-176.9721112176786
 20
453.2289314361605
 30
0.0
 11
-173.3770580346128
 21
447.0022320194587
 31
0.0
  0
LINE
  5
F8
330
1F
100
AcDbEntity
  8
0-B
  6
Continuous
 62
     4
370
     9
100
AcDbLine
 10
-173.3770580346128
 20
447.0022320194587
 30
0.0
 11
-166.1870753883924
 21
447.0022320194587
 31
0.0
  0
LINE
  5
F9
330
1F
100
AcDbEntity
  8
0-B
  6
Continuous
 62
     4
370
     9
100
AcDbLine
 10
-166.1870753883924
 20
447.0022320194587
 30
0.0
 11
-162.5920222053265
 21
453.2289314361605
 31
0.0
  0
LINE
  5
FA
330
1F
100
AcDbEntity
  8
0-1
  6
Continuous
 62
     2
370
     9
100
AcDbLine
 10
-361.0321409434493
 20
264.7291508328032
 30
0.0
 11
-369.781922371606
 21
264.7291508328032
 31
0.0
  0
LINE
  5
FB
330
1F
100
AcDbEntity
  8
0-1
  6
Continuous
 62
     2
370
     9
100
AcDbLine
 10
-360.0319273204025
 20
263.2290469080777
 30
0.0
 11
-369.7820460915173
 21
263.2290469080777
 31
0.0
  0
LINE
  5
FC
330
1F
100
AcDbEntity
  8
0-B
  6
Continuous
 62
     4
370
     9
100
AcDbLine
 10
-432.2820048515468
 20
235.7290180400984
 30
0.0
 11
-374.7820007275499
 21
235.7290180400984
 31
0.0
  0
LINE
  5
FD
330
1F
100
AcDbEntity
  8
0-B
  6
Continuous
 62
     4
370
     9
100
AcDbLine
 10
-432.2820048515468
 20
235.7290180400984
 30
0.0
 11
-432.2820048515468
 21
260.7292242399506
 31
0.0
  0
LINE
  5
FE
330
1F
100
AcDbEntity
  8
0-B
  6
Continuous
 62
     4
370
     9
100
AcDbLine
 10
-432.2820048515468
 20
260.7292242399506
 30
0.0
 11
-374.7820007275499
 21
260.7292242399506
 31
0.0
  0
LINE
  5
FF
330
1F
100
AcDbEntity
  8
0-B
  6
Continuous
 62
     4
370
     9
100
AcDbLine
 10
-374.7820007275499
 20
255.4191656462006
 30
0.0
 11
-381.0087001442517
 21
251.8241124631347
 31
0.0
  0
LINE
  5
100
330
1F
100
AcDbEntity
  8
0-B
  6
Continuous
 62
     4
370
     9
100
AcDbLine
 10
-381.0087001442517
 20
251.8241124631347
 30
0.0
 11
-381.0087001442517
 21
244.6341298169143
 31
0.0
  0
LINE
  5
101
330
1F
100
AcDbEntity
  8
0-B
  6
Continuous
 62
     4
370
     9
100
AcDbLine
 10
-381.0087001442517
 20
244.6341298169143
 30
0.0
 11
-374.7820007275499
 21
241.0390766338484
 31
0.0
  0
LINE
  5
102
330
1F
100
AcDbEntity
  8
0-B
  6
Continuous
 62
     4
370
     9
100
AcDbLine
 10
-374.7820007275499
 20
241.0390766338484
 30
0.0
 11
-368.555301310848
 21
244.6341298169143
 31
0.0
  0
LINE
  5
103
330
1F
100
AcDbEntity
  8
0-B
  6
Continuous
 62
     4
370
     9
100
AcDbLine
 10
-368.555301310848
 20
244.6341298169143
 30
0.0
 11
-368.555301310848
 21
251.8241124631347
 31
0.0
  0
LINE
  5
104
330
1F
100
AcDbEntity
  8
0-B
  6
Continuous
 62
     4
370
     9
100
AcDbLine
 10
-368.555301310848
 20
251.8241124631347
 30
0.0
 11
-374.7820007275499
 21
255.4191656462006
 31
0.0
  0
LINE
  5
105
330
1F
100
AcDbEntity
  8
0-1
  6
Continuous
 62
     2
370
     9
100
AcDbLine
 10
-371.7819784579658
 20
423.2290799000541
 30
0.0
 11
-371.7819784579658
 21
266.7290831992518
 31
0.0
  0
LINE
  5
106
330
1F
100
AcDbEntity
  8
0-1
  6
Continuous
 62
     2
370
     9
100
AcDbLine
 10
-373.7819726843699
 20
423.2290799000541
 30
0.0
 11
-373.7819726843699
 21
267.2290972208416
 31
0.0
  0
LINE
  5
107
330
1F
100
AcDbEntity
  8
0-1
  6
Continuous
 62
     2
370
     9
100
AcDbLine
 10
-359.0320229971338
 20
432.4792465095347
 30
0.0
 11
-359.0320229971338
 21
266.7290831992518
 31
0.0
  0
LINE
  5
108
330
1F
100
AcDbEntity
  8
0-1
  6
Continuous
 62
     2
370
     9
100
AcDbLine
 10
-358.8520105261668
 20
233.0511005596296
 30
0.0
 11
-358.8520105261668
 21
263.4071417204194
 31
0.0
  0
LINE
  5
109
330
1F
100
AcDbEntity
  8
0-1
  6
Continuous
 62
     2
370
     9
100
AcDbLine
 10
-384.7819718595706
 20
423.2290799000541
 30
0.0
 11
-384.7819718595706
 21
261.3533293325921
 31
0.0
  0
LINE
  5
10A
330
1F
100
AcDbEntity
  8
0-1
  6
Continuous
 62
     2
370
     9
100
AcDbLine
 10
-383.782067536302
 20
423.2290799000541
 30
0.0
 11
-383.782067536302
 21
260.7292242399506
 31
0.0
  0
LINE
  5
10B
330
1F
100
AcDbEntity
  8
0-8
  6
Continuous
 62
     4
370
     9
100
AcDbLine
 10
5.218077628393925
 20
423.2290799000541
 30
0.0
 11
5.218077628393925
 21
73.229162379995
 31
0.0
  0
LINE
  5
10C
330
1F
100
AcDbEntity
  8
0-8
  6
Continuous
 62
     4
370
     9
100
AcDbLine
 10
1.218027315629993
 20
419.2292151671571
 30
0.0
 11
1.218027315629993
 21
77.2290889728476
 31
0.0
  0
LINE
  5
10D
330
1F
100
AcDbEntity
  8
0-8
  6
Continuous
 62
     4
370
     9
100
AcDbLine
 10
6.217981951662548
 20
424.2291079432339
 30
0.0
 11
6.217981951662548
 21
72.22894875694813
 31
0.0
  0
LINE
  5
10E
330
1F
100
AcDbEntity
  8
0-8
  6
Continuous
 62
     4
370
     9
100
AcDbLine
 10
10.21809412438222
 20
428.2290963960423
 30
0.0
 11
10.21809412438222
 21
68.22902216409538
 31
0.0
  0
LINE
  5
10F
330
1F
100
AcDbEntity
  8
0-0
  6
Continuous
 62
     3
370
     9
100
AcDbLine
 10
-118.7819355683966
 20
296.2290444336795
 30
0.0
 11
-118.7819355683966
 21
200.2290741264582
 31
0.0
  0
LINE
  5
110
330
1F
100
AcDbEntity
  8
0-0
  6
Continuous
 62
     3
370
     9
100
AcDbLine
 10
-117.2819553635824
 20
296.7290584552695
 30
0.0
 11
-117.2819553635824
 21
199.7291838247796
 31
0.0
  0
LINE
  5
111
330
1F
100
AcDbEntity
  8
0-0
  6
Continuous
 62
     3
370
     9
100
AcDbLine
 10
-112.2820007275498
 20
296.7290584552695
 30
0.0
 11
-112.2820007275498
 21
199.7291838247796
 31
0.0
  0
LINE
  5
112
330
1F
100
AcDbEntity
  8
0-0
  6
Continuous
 62
     3
370
     9
100
AcDbLine
 10
-110.7820823826914
 20
296.2290444336795
 30
0.0
 11
-110.7820823826914
 21
200.2290741264582
 31
0.0
  0
LINE
  5
113
330
1F
100
AcDbEntity
  8
0-0
  6
Continuous
 62
     3
370
     9
100
AcDbLine
 10
-118.7819355683966
 20
310.2290658784642
 30
0.0
 11
-118.7819355683966
 21
360.9087624512576
 31
0.0
  0
LINE
  5
114
330
1F
100
AcDbEntity
  8
0-0
  6
Continuous
 62
     3
370
     9
100
AcDbLine
 10
-110.7820823826914
 20
310.2290658784642
 30
0.0
 11
-110.7820823826914
 21
360.9087624512576
 31
0.0
  0
LINE
  5
115
330
1F
100
AcDbEntity
  8
0-0
  6
Continuous
 62
     3
370
     9
100
AcDbLine
 10
-107.7820601131072
 20
299.2290667032635
 30
0.0
 11
-57.10242540026948
 21
299.2290667032635
 31
0.0
  0
LINE
  5
116
330
1F
100
AcDbEntity
  8
0-0
  6
Continuous
 62
     3
370
     9
100
AcDbLine
 10
-107.7820601131072
 20
307.2290436088801
 30
0.0
 11
-57.10242540026948
 21
307.2290436088801
 31
0.0
  0
LINE
  5
117
330
1F
100
AcDbEntity
  8
0-0
  6
Continuous
 62
     3
370
     9
100
AcDbLine
 10
-110.7820823826914
 20
360.9087624512576
 30
0.0
 11
-112.2820007275498
 21
398.2289974201132
 31
0.0
  0
LINE
  5
118
330
1F
100
AcDbEntity
  8
0-0
  6
Continuous
 62
     3
370
     9
100
AcDbLine
 10
-117.2819553635824
 20
398.2289974201132
 30
0.0
 11
-118.7819355683966
 21
360.9087624512576
 31
0.0
  0
LINE
  5
119
330
1F
100
AcDbEntity
  8
0-0
  6
Continuous
 62
     3
370
     9
100
AcDbLine
 10
-117.2819553635824
 20
309.7290518568742
 30
0.0
 11
-117.2819553635824
 21
398.2289974201132
 31
0.0
  0
LINE
  5
11A
330
1F
100
AcDbEntity
  8
0-0
  6
Continuous
 62
     3
370
     9
100
AcDbLine
 10
-112.2820007275498
 20
309.7290518568742
 30
0.0
 11
-112.2820007275498
 21
398.2289974201132
 31
0.0
  0
LINE
  5
11B
330
1F
100
AcDbEntity
  8
0-0
  6
Continuous
 62
     3
370
     9
100
AcDbLine
 10
-57.10242540026948
 20
360.9087624512576
 30
0.0
 11
-110.7820823826914
 21
360.9087624512576
 31
0.0
  0
LINE
  5
11C
330
1F
100
AcDbEntity
  8
0-0
  6
Continuous
 62
     3
370
     9
100
AcDbLine
 10
-57.10242540026948
 20
197.2290518568742
 30
0.0
 11
-57.10242540026948
 21
299.2290667032635
 31
0.0
  0
LINE
  5
11D
330
1F
100
AcDbEntity
  8
0-0
  6
Continuous
 62
     3
370
     9
100
AcDbLine
 10
-57.10242540026948
 20
307.2290436088801
 30
0.0
 11
-57.10242540026948
 21
360.9087624512576
 31
0.0
  0
LINE
  5
11E
330
1F
100
AcDbEntity
  8
0-0
  6
Continuous
 62
     3
370
     9
100
AcDbLine
 10
-108.2820741346972
 20
300.7289850481221
 30
0.0
 11
-19.78206671150256
 21
300.7289850481221
 31
0.0
  0
LINE
  5
11F
330
1F
100
AcDbEntity
  8
0-0
  6
Continuous
 62
     3
370
     9
100
AcDbLine
 10
-108.2820741346972
 20
305.7289396841546
 30
0.0
 11
-19.78206671150256
 21
305.7289396841546
 31
0.0
  0
LINE
  5
120
330
1F
100
AcDbEntity
  8
0-0
  6
Continuous
 62
     3
370
     9
100
AcDbLine
 10
-57.10242540026948
 20
299.2290667032635
 30
0.0
 11
-19.78206671150256
 21
300.7289850481221
 31
0.0
  0
LINE
  5
121
330
1F
100
AcDbEntity
  8
0-0
  6
Continuous
 62
     3
370
     9
100
AcDbLine
 10
-19.78206671150256
 20
305.7289396841546
 30
0.0
 11
-57.10242540026948
 21
307.2290436088801
 31
0.0
  0
LINE
  5
122
330
1F
100
AcDbEntity
  8
0-0
  6
Continuous
 62
     3
370
     9
100
AcDbLine
 10
-19.78206671150256
 20
398.2289974201132
 30
0.0
 11
-112.2820007275498
 21
398.2289974201132
 31
0.0
  0
LINE
  5
123
330
1F
100
AcDbEntity
  8
0-0
  6
Continuous
 62
     3
370
     9
100
AcDbLine
 10
-19.78206671150256
 20
398.2289974201132
 30
0.0
 11
-19.78206671150256
 21
305.7289396841546
 31
0.0
  0
LINE
  5
124
330
1F
100
AcDbEntity
  8
0-0
  6
JWW_CENTER1
 62
     3
370
     9
100
AcDbLine
 10
-114.782008975544
 20
404.7804616040236
 30
0.0
 11
-114.782008975544
 21
91.67771881606974
 31
0.0
  0
LINE
  5
125
330
1F
100
AcDbEntity
  8
0-0
  6
Continuous
 62
     3
370
     9
100
AcDbLine
 10
-57.10242540026948
 20
360.9086387313463
 30
0.0
 11
-19.78206671150256
 21
398.2289974201132
 31
0.0
  0
LINE
  5
126
330
1F
100
AcDbEntity
  8
0-0
  6
Continuous
 62
     3
370
     9
100
AcDbLine
 10
-6.887791974118702
 20
297.729148358405
 30
0.0
 11
-6.887791974118702
 21
407.1232218447332
 31
0.0
  0
LINE
  5
127
330
1F
100
AcDbEntity
  8
0-0
  6
Continuous
 62
     3
370
     9
100
AcDbLine
 10
-46.78201969793628
 20
287.729053506473
 30
0.0
 11
-46.78201969793628
 21
208.7290650536647
 31
0.0
  0
LINE
  5
128
330
1F
100
AcDbEntity
  8
0-0
  6
Continuous
 62
     3
370
     9
100
AcDbLine
 10
-46.68811628524617
 20
297.4688416649928
 30
0.0
 11
-19.78206671150256
 21
292.7290081425056
 31
0.0
  0
LINE
  5
129
330
1F
100
AcDbEntity
  8
0-0
  6
Continuous
 62
     3
370
     9
100
AcDbLine
 10
-52.55553307948185
 20
292.5448510545093
 30
0.0
 11
-52.55553307948185
 21
203.9133912255397
 31
0.0
  0
LINE
  5
12A
330
1F
100
AcDbEntity
  8
0-0
  6
Continuous
 62
     3
370
     9
100
AcDbLine
 10
-19.78206671150256
 20
300.7289850481221
 30
0.0
 11
-19.78206671150256
 21
292.7290081425056
 31
0.0
  0
LINE
  5
12B
330
1F
100
AcDbEntity
  8
0-0
  6
Continuous
 62
     3
370
     9
100
AcDbLine
 10
-4.797915232142262
 20
409.2130985867095
 30
0.0
 11
-4.797915232142262
 21
297.729148358405
 31
0.0
  0
LINE
  5
12C
330
1F
100
AcDbEntity
  8
0-0
  6
Continuous
 62
     3
370
     9
100
AcDbLine
 10
-41.78206506190372
 20
292.7290081425056
 30
0.0
 11
-11.88774661015126
 21
292.7290081425056
 31
0.0
  0
LINE
  5
12D
330
1F
100
AcDbEntity
  8
0-0
  6
Continuous
 62
     3
370
     9
100
AcDbLine
 10
-6.861315913096693
 20
292.7290081425056
 30
0.0
 11
-4.532103002676511
 21
292.7290081425056
 31
0.0
  0
LINE
  5
12E
330
1F
100
AcDbEntity
  8
0-1
  6
Continuous
 62
     2
370
     9
100
AcDbLine
 10
16.46811474436737
 20
429.479162379995
 30
0.0
 11
16.46811474436737
 21
66.97914176000971
 31
0.0
  0
LINE
  5
12F
330
1F
100
AcDbEntity
  8
0-1
  6
Continuous
 62
     2
370
     9
100
AcDbLine
 10
-151.2820427923197
 20
450.2288473066208
 30
0.0
 11
5.218077628393925
 21
450.2288473066208
 31
0.0
  0
LINE
  5
130
330
1F
100
AcDbEntity
  8
0-1
  6
Continuous
 62
     2
370
     9
100
AcDbLine
 10
-153.2818514388568
 20
439.47907165206
 30
0.0
 11
-153.2818514388568
 21
448.2289149401723
 31
0.0
  0
LINE
  5
131
330
1F
100
AcDbEntity
  8
0-1
  6
Continuous
 62
     2
370
     9
100
AcDbLine
 10
-151.2820427923197
 20
437.4791392856116
 30
0.0
 11
14.46799679805187
 21
437.4791392856116
 31
0.0
  0
LINE
  5
132
330
1F
100
AcDbEntity
  8
0-1
  6
Continuous
 62
     2
370
     9
100
AcDbLine
 10
-150.7820287707298
 20
452.2289033929806
 30
0.0
 11
5.218077628393925
 21
452.2289033929806
 31
0.0
  0
LINE
  5
133
330
1F
100
AcDbEntity
  8
0-1
  6
Continuous
 62
     2
370
     9
100
AcDbLine
 10
-154.7819553635824
 20
438.4790436088801
 30
0.0
 11
-154.7819553635824
 21
448.2289149401723
 31
0.0
  0
LINE
  5
134
330
1F
100
AcDbEntity
  8
0-1
  6
Continuous
 62
     2
370
     9
100
AcDbLine
 10
5.218077628393925
 20
463.2289644281368
 30
0.0
 11
-156.6576110791123
 21
463.2289644281368
 31
0.0
  0
LINE
  5
135
330
1F
100
AcDbEntity
  8
0-1
  6
Continuous
 62
     2
370
     9
100
AcDbLine
 10
5.217953908482738
 20
462.2290601048683
 30
0.0
 11
-157.2819017516208
 21
462.2290601048683
 31
0.0
  0
LINE
  5
136
330
1F
100
AcDbEntity
  8
0-1
  6
Continuous
 62
     2
370
     9
100
AcDbLine
 10
21.46806938039992
 20
264.7291508328032
 30
0.0
 11
30.21778894860097
 21
264.7291508328032
 31
0.0
  0
LINE
  5
137
330
1F
100
AcDbEntity
  8
0-1
  6
Continuous
 62
     2
370
     9
100
AcDbLine
 10
20.46791761730864
 20
263.2290469080777
 30
0.0
 11
30.21797452846789
 21
263.2290469080777
 31
0.0
  0
LINE
  5
138
330
1F
100
AcDbEntity
  8
0-1
  6
Continuous
 62
     2
370
     9
100
AcDbLine
 10
32.21809247478339
 20
423.2290799000541
 30
0.0
 11
32.21809247478339
 21
266.7290831992518
 31
0.0
  0
LINE
  5
139
330
1F
100
AcDbEntity
  8
0-1
  6
Continuous
 62
     2
370
     9
100
AcDbLine
 10
34.21790112132049
 20
423.2290799000541
 30
0.0
 11
34.21790112132049
 21
267.2290972208416
 31
0.0
  0
LINE
  5
13A
330
1F
100
AcDbEntity
  8
0-1
  6
Continuous
 62
     2
370
     9
100
AcDbLine
 10
19.46801329404016
 20
432.4792465095347
 30
0.0
 11
19.46801329404016
 21
266.7290831992518
 31
0.0
  0
LINE
  5
13B
330
1F
100
AcDbEntity
  8
0-1
  6
Continuous
 62
     2
370
     9
100
AcDbLine
 10
19.28812454298443
 20
233.0511005596296
 30
0.0
 11
19.28812454298443
 21
263.4071417204194
 31
0.0
  0
LINE
  5
13C
330
1F
100
AcDbEntity
  8
0-1
  6
Continuous
 62
     2
370
     9
100
AcDbLine
 10
45.21790029652115
 20
423.2290799000541
 30
0.0
 11
45.21790029652115
 21
261.3533293325921
 31
0.0
  0
LINE
  5
13D
330
1F
100
AcDbEntity
  8
0-1
  6
Continuous
 62
     2
370
     9
100
AcDbLine
 10
44.21799597325253
 20
423.2290799000541
 30
0.0
 11
44.21799597325253
 21
260.7292242399506
 31
0.0
  0
LINE
  5
13E
330
1F
100
AcDbEntity
  8
0-8
  6
Continuous
 62
     4
370
     9
100
AcDbLine
 10
5.218077628393925
 20
73.229162379995
 30
0.0
 11
-344.7820254715321
 21
73.229162379995
 31
0.0
  0
LINE
  5
13F
330
1F
100
AcDbEntity
  8
0-8
  6
Continuous
 62
     4
370
     9
100
AcDbLine
 10
1.218027315629993
 20
77.2290889728476
 30
0.0
 11
-340.7820988786795
 21
77.2290889728476
 31
0.0
  0
LINE
  5
140
330
1F
100
AcDbEntity
  8
0-8
  6
Continuous
 62
     4
370
     9
100
AcDbLine
 10
6.217981951662548
 20
72.22894875694813
 30
0.0
 11
-345.7820535147119
 21
72.22894875694813
 31
0.0
  0
LINE
  5
141
330
1F
100
AcDbEntity
  8
0-8
  6
Continuous
 62
     4
370
     9
100
AcDbLine
 10
10.21809412438222
 20
68.22902216409538
 30
0.0
 11
-349.782103827476
 21
68.22902216409538
 31
0.0
  0
LINE
  5
142
330
1F
100
AcDbEntity
  8
0-0
  6
Continuous
 62
     3
370
     9
100
AcDbLine
 10
-121.2820675363019
 20
195.7291335120157
 30
0.0
 11
-218.2820040267475
 21
195.7291335120157
 31
0.0
  0
LINE
  5
143
330
1F
100
AcDbEntity
  8
0-0
  6
Continuous
 62
     3
370
     9
100
AcDbLine
 10
-121.7820815578919
 20
197.2290518568742
 30
0.0
 11
-217.7821137250688
 21
197.2290518568742
 31
0.0
  0
LINE
  5
144
330
1F
100
AcDbEntity
  8
0-0
  6
Continuous
 62
     3
370
     9
100
AcDbLine
 10
-121.2820675363019
 20
190.7291170160274
 30
0.0
 11
-218.2820040267475
 21
190.7291170160274
 31
0.0
  0
LINE
  5
145
330
1F
100
AcDbEntity
  8
0-0
  6
Continuous
 62
     3
370
     9
100
AcDbLine
 10
-121.7820815578919
 20
189.2290749512576
 30
0.0
 11
-217.7821137250688
 21
189.2290749512576
 31
0.0
  0
LINE
  5
146
330
1F
100
AcDbEntity
  8
0-0
  6
Continuous
 62
     3
370
     9
100
AcDbLine
 10
-118.7819355683966
 20
186.2290526816736
 30
0.0
 11
-118.7819355683966
 21
135.5494179688358
 31
0.0
  0
LINE
  5
147
330
1F
100
AcDbEntity
  8
0-0
  6
Continuous
 62
     3
370
     9
100
AcDbLine
 10
-110.7820823826914
 20
186.2290526816736
 30
0.0
 11
-110.7820823826914
 21
135.5494179688358
 31
0.0
  0
LINE
  5
148
330
1F
100
AcDbEntity
  8
0-0
  6
Continuous
 62
     3
370
     9
100
AcDbLine
 10
-107.7820601131072
 20
197.2290518568742
 30
0.0
 11
-57.10242540026948
 21
197.2290518568742
 31
0.0
  0
LINE
  5
149
330
1F
100
AcDbEntity
  8
0-0
  6
Continuous
 62
     3
370
     9
100
AcDbLine
 10
-107.7820601131072
 20
189.2290749512576
 30
0.0
 11
-57.10242540026948
 21
189.2290749512576
 31
0.0
  0
LINE
  5
14A
330
1F
100
AcDbEntity
  8
0-0
  6
Continuous
 62
     3
370
     9
100
AcDbLine
 10
-110.7820823826914
 20
135.5494179688358
 30
0.0
 11
-112.2820007275498
 21
98.22912114002456
 31
0.0
  0
LINE
  5
14B
330
1F
100
AcDbEntity
  8
0-0
  6
Continuous
 62
     3
370
     9
100
AcDbLine
 10
-117.2819553635824
 20
98.22912114002456
 30
0.0
 11
-118.7819355683966
 21
135.5494179688358
 31
0.0
  0
LINE
  5
14C
330
1F
100
AcDbEntity
  8
0-0
  6
Continuous
 62
     3
370
     9
100
AcDbLine
 10
-117.2819553635824
 20
186.7290667032635
 30
0.0
 11
-117.2819553635824
 21
98.22912114002456
 31
0.0
  0
LINE
  5
14D
330
1F
100
AcDbEntity
  8
0-0
  6
Continuous
 62
     3
370
     9
100
AcDbLine
 10
-112.2820007275498
 20
186.7290667032635
 30
0.0
 11
-112.2820007275498
 21
98.22912114002456
 31
0.0
  0
LINE
  5
14E
330
1F
100
AcDbEntity
  8
0-0
  6
Continuous
 62
     3
370
     9
100
AcDbLine
 10
-57.10242540026948
 20
135.5494179688358
 30
0.0
 11
-110.7820823826914
 21
135.5494179688358
 31
0.0
  0
LINE
  5
14F
330
1F
100
AcDbEntity
  8
0-0
  6
Continuous
 62
     3
370
     9
100
AcDbLine
 10
-118.7819355683966
 20
135.5494179688358
 30
0.0
 11
-220.7820122747416
 21
135.5494179688358
 31
0.0
  0
LINE
  5
150
330
1F
100
AcDbEntity
  8
0-0
  6
Continuous
 62
     3
370
     9
100
AcDbLine
 10
-57.10242540026948
 20
189.2290749512576
 30
0.0
 11
-57.10242540026948
 21
135.5494179688358
 31
0.0
  0
LINE
  5
151
330
1F
100
AcDbEntity
  8
0-0
  6
Continuous
 62
     3
370
     9
100
AcDbLine
 10
-108.2820741346972
 20
195.7291335120157
 30
0.0
 11
-19.78206671150256
 21
195.7291335120157
 31
0.0
  0
LINE
  5
152
330
1F
100
AcDbEntity
  8
0-0
  6
Continuous
 62
     3
370
     9
100
AcDbLine
 10
-108.2820741346972
 20
190.7291170160274
 30
0.0
 11
-19.78206671150256
 21
190.7291170160274
 31
0.0
  0
LINE
  5
153
330
1F
100
AcDbEntity
  8
0-0
  6
Continuous
 62
     3
370
     9
100
AcDbLine
 10
-57.10242540026948
 20
197.2290518568742
 30
0.0
 11
-19.78206671150256
 21
195.7291335120157
 31
0.0
  0
LINE
  5
154
330
1F
100
AcDbEntity
  8
0-0
  6
Continuous
 62
     3
370
     9
100
AcDbLine
 10
-19.78206671150256
 20
190.7291170160274
 30
0.0
 11
-57.10242540026948
 21
189.2290749512576
 31
0.0
  0
LINE
  5
155
330
1F
100
AcDbEntity
  8
0-0
  6
JWW_CENTER1
 62
     3
370
     9
100
AcDbLine
 10
-16.1148229601829
 20
193.2291252640215
 30
0.0
 11
-323.4494341827335
 21
193.2291252640215
 31
0.0
  0
LINE
  5
156
330
1F
100
AcDbEntity
  8
0-0
  6
Continuous
 62
     3
370
     9
100
AcDbLine
 10
-19.78206671150256
 20
98.22912114002456
 30
0.0
 11
-112.2820007275498
 21
98.22912114002456
 31
0.0
  0
LINE
  5
157
330
1F
100
AcDbEntity
  8
0-0
  6
Continuous
 62
     3
370
     9
100
AcDbLine
 10
-117.2819553635824
 20
98.22912114002456
 30
0.0
 11
-222.2820543395114
 21
98.22912114002456
 31
0.0
  0
LINE
  5
158
330
1F
100
AcDbEntity
  8
0-0
  6
Continuous
 62
     3
370
     9
100
AcDbLine
 10
-19.78206671150256
 20
98.22912114002456
 30
0.0
 11
-19.78206671150256
 21
190.7291170160274
 31
0.0
  0
LINE
  5
159
330
1F
100
AcDbEntity
  8
0-0
  6
Continuous
 62
     3
370
     9
100
AcDbLine
 10
-57.10242540026948
 20
135.5494798287913
 30
0.0
 11
-19.78206671150256
 21
98.22912114002456
 31
0.0
  0
LINE
  5
15A
330
1F
100
AcDbEntity
  8
0-0
  6
Continuous
 62
     3
370
     9
100
AcDbLine
 10
-10.88784228688263
 20
85.3349082625963
 30
0.0
 11
-328.6762292761668
 21
85.3349082625963
 31
0.0
  0
LINE
  5
15B
330
1F
100
AcDbEntity
  8
0-0
  6
Continuous
 62
     3
370
     9
100
AcDbLine
 10
-8.797965544906337
 20
83.24503152062
 30
0.0
 11
-330.7661060181431
 21
83.24503152062
 31
0.0
  0
LINE
  5
15C
330
1F
100
AcDbEntity
  8
0-0
  6
Continuous
 62
     3
370
     9
100
AcDbLine
 10
-6.887791974118702
 20
198.7290939216441
 30
0.0
 11
-6.887791974118702
 21
89.3348348554489
 31
0.0
  0
LINE
  5
15D
330
1F
100
AcDbEntity
  8
0-0
  6
Continuous
 62
     3
370
     9
100
AcDbLine
 10
-46.68811628524617
 20
198.9892150351893
 30
0.0
 11
-19.78206671150256
 21
203.7291104176322
 31
0.0
  0
LINE
  5
15E
330
1F
100
AcDbEntity
  8
0-0
  6
Continuous
 62
     3
370
     9
100
AcDbLine
 10
-19.78206671150256
 20
195.7291335120157
 30
0.0
 11
-19.78206671150256
 21
203.7291104176322
 31
0.0
  0
LINE
  5
15F
330
1F
100
AcDbEntity
  8
0-0
  6
Continuous
 62
     3
370
     9
100
AcDbLine
 10
-4.797915232142262
 20
87.2449581134726
 30
0.0
 11
-4.797915232142262
 21
198.7290939216441
 31
0.0
  0
LINE
  5
160
330
1F
100
AcDbEntity
  8
0-0
  6
Continuous
 62
     3
370
     9
100
AcDbLine
 10
-41.78206506190372
 20
203.7291104176322
 30
0.0
 11
-11.88774661015126
 21
203.7291104176322
 31
0.0
  0
LINE
  5
161
330
1F
100
AcDbEntity
  8
0-0
  6
Continuous
 62
     3
370
     9
100
AcDbLine
 10
-6.861315913096693
 20
203.7291104176322
 30
0.0
 11
-4.532103002676511
 21
203.7291104176322
 31
0.0
  0
LINE
  5
162
330
1F
100
AcDbEntity
  8
0-1
  6
Continuous
 62
     2
370
     9
100
AcDbLine
 10
-151.2820427923197
 20
46.22927125351687
 30
0.0
 11
5.218077628393925
 21
46.22927125351687
 31
0.0
  0
LINE
  5
163
330
1F
100
AcDbEntity
  8
0-1
  6
Continuous
 62
     2
370
     9
100
AcDbLine
 10
-153.2818514388568
 20
56.97904690807768
 30
0.0
 11
-153.2818514388568
 21
48.22932733987663
 31
0.0
  0
LINE
  5
164
330
1F
100
AcDbEntity
  8
0-1
  6
Continuous
 62
     2
370
     9
100
AcDbLine
 10
-151.2820427923197
 20
58.97910299443758
 30
0.0
 11
14.46799679805187
 21
58.97910299443758
 31
0.0
  0
LINE
  5
165
330
1F
100
AcDbEntity
  8
0-1
  6
Continuous
 62
     2
370
     9
100
AcDbLine
 10
-150.7820287707298
 20
44.22915330720151
 30
0.0
 11
5.218077628393925
 21
44.22915330720151
 31
0.0
  0
LINE
  5
166
330
1F
100
AcDbEntity
  8
0-1
  6
Continuous
 62
     2
370
     9
100
AcDbLine
 10
-154.7819553635824
 20
57.97919867116896
 30
0.0
 11
-154.7819553635824
 21
48.22914176000971
 31
0.0
  0
LINE
  5
167
330
1F
100
AcDbEntity
  8
0-1
  6
Continuous
 62
     2
370
     9
100
AcDbLine
 10
-351.0320460915173
 20
61.97900154411023
 30
0.0
 11
11.46803638842348
 21
61.97900154411023
 31
0.0
  0
LINE
  5
168
330
1F
100
AcDbEntity
  8
0-1
  6
Continuous
 62
     2
370
     9
100
AcDbLine
 10
-154.603984271152
 20
59.15899174549331
 30
0.0
 11
-184.9600872918973
 21
59.15899174549331
 31
0.0
  0
LINE
  5
169
330
1F
100
AcDbEntity
  8
0-1
  6
Continuous
 62
     2
370
     9
100
AcDbLine
 10
5.218077628393925
 20
33.22915413200086
 30
0.0
 11
-156.6576110791123
 21
33.22915413200086
 31
0.0
  0
LINE
  5
16A
330
1F
100
AcDbEntity
  8
0-1
  6
Continuous
 62
     2
370
     9
100
AcDbLine
 10
5.217953908482738
 20
34.22918217518081
 30
0.0
 11
-157.2819017516208
 21
34.22918217518081
 31
0.0
  0
LINE
  5
16B
330
1F
100
AcDbEntity
  8
0-1
  6
Continuous
 62
     2
370
     9
100
AcDbLine
 10
21.46806938039992
 20
231.7289677273345
 30
0.0
 11
30.21778894860097
 21
231.7289677273345
 31
0.0
  0
LINE
  5
16C
330
1F
100
AcDbEntity
  8
0-1
  6
Continuous
 62
     2
370
     9
100
AcDbLine
 10
20.46791761730864
 20
233.22907165206
 30
0.0
 11
30.21797452846789
 21
233.22907165206
 31
0.0
  0
LINE
  5
16D
330
1F
100
AcDbEntity
  8
0-1
  6
Continuous
 62
     2
370
     9
100
AcDbLine
 10
32.21809247478339
 20
73.229162379995
 30
0.0
 11
32.21809247478339
 21
229.729035360886
 31
0.0
  0
LINE
  5
16E
330
1F
100
AcDbEntity
  8
0-1
  6
Continuous
 62
     2
370
     9
100
AcDbLine
 10
34.21790112132049
 20
73.229162379995
 30
0.0
 11
34.21790112132049
 21
229.2289594793405
 31
0.0
  0
LINE
  5
16F
330
1F
100
AcDbEntity
  8
0-1
  6
Continuous
 62
     2
370
     9
100
AcDbLine
 10
19.46801329404016
 20
63.9789957705144
 30
0.0
 11
19.46801329404016
 21
229.729035360886
 31
0.0
  0
LINE
  5
170
330
1F
100
AcDbEntity
  8
0-1
  6
Continuous
 62
     2
370
     9
100
AcDbLine
 10
45.21790029652115
 20
73.229162379995
 30
0.0
 11
45.21790029652115
 21
235.1047273675899
 31
0.0
  0
LINE
  5
171
330
1F
100
AcDbEntity
  8
0-1
  6
Continuous
 62
     2
370
     9
100
AcDbLine
 10
44.21799597325253
 20
73.229162379995
 30
0.0
 11
44.21799597325253
 21
235.7290180400984
 31
0.0
  0
LINE
  5
172
330
1F
100
AcDbEntity
  8
0-0
  6
Continuous
 62
     3
370
     9
100
AcDbLine
 10
-220.7820122747416
 20
186.2290526816736
 30
0.0
 11
-220.7820122747416
 21
135.5494179688358
 31
0.0
  0
LINE
  5
173
330
1F
100
AcDbEntity
  8
0-0
  6
Continuous
 62
     3
370
     9
100
AcDbLine
 10
-228.7819891803582
 20
186.2290526816736
 30
0.0
 11
-228.7819891803582
 21
135.5494179688358
 31
0.0
  0
LINE
  5
174
330
1F
100
AcDbEntity
  8
0-0
  6
Continuous
 62
     3
370
     9
100
AcDbLine
 10
-231.7820114499421
 20
197.2290518568742
 30
0.0
 11
-282.4617698826913
 21
197.2290518568742
 31
0.0
  0
LINE
  5
175
330
1F
100
AcDbEntity
  8
0-0
  6
Continuous
 62
     3
370
     9
100
AcDbLine
 10
-231.7820114499421
 20
189.2290749512576
 30
0.0
 11
-282.4617698826913
 21
189.2290749512576
 31
0.0
  0
LINE
  5
176
330
1F
100
AcDbEntity
  8
0-0
  6
Continuous
 62
     3
370
     9
100
AcDbLine
 10
-228.7819891803582
 20
135.5494179688358
 30
0.0
 11
-227.2820708354996
 21
98.22912114002456
 31
0.0
  0
LINE
  5
177
330
1F
100
AcDbEntity
  8
0-0
  6
Continuous
 62
     3
370
     9
100
AcDbLine
 10
-222.2820543395114
 20
98.22912114002456
 30
0.0
 11
-220.7820122747416
 21
135.5494179688358
 31
0.0
  0
LINE
  5
178
330
1F
100
AcDbEntity
  8
0-0
  6
Continuous
 62
     3
370
     9
100
AcDbLine
 10
-222.2820543395114
 20
186.7290667032635
 30
0.0
 11
-222.2820543395114
 21
98.22912114002456
 31
0.0
  0
LINE
  5
179
330
1F
100
AcDbEntity
  8
0-0
  6
Continuous
 62
     3
370
     9
100
AcDbLine
 10
-227.2820708354996
 20
186.7290667032635
 30
0.0
 11
-227.2820708354996
 21
98.22912114002456
 31
0.0
  0
LINE
  5
17A
330
1F
100
AcDbEntity
  8
0-0
  6
Continuous
 62
     3
370
     9
100
AcDbLine
 10
-282.4617698826913
 20
135.5494179688358
 30
0.0
 11
-228.7819891803582
 21
135.5494179688358
 31
0.0
  0
LINE
  5
17B
330
1F
100
AcDbEntity
  8
0-0
  6
Continuous
 62
     3
370
     9
100
AcDbLine
 10
-282.4617698826913
 20
189.2290749512576
 30
0.0
 11
-282.4617698826913
 21
135.5494179688358
 31
0.0
  0
LINE
  5
17C
330
1F
100
AcDbEntity
  8
0-0
  6
Continuous
 62
     3
370
     9
100
AcDbLine
 10
-231.2819974283522
 20
195.7291335120157
 30
0.0
 11
-319.7821285714582
 21
195.7291335120157
 31
0.0
  0
LINE
  5
17D
330
1F
100
AcDbEntity
  8
0-0
  6
Continuous
 62
     3
370
     9
100
AcDbLine
 10
-231.2819974283522
 20
190.7291170160274
 30
0.0
 11
-319.7821285714582
 21
190.7291170160274
 31
0.0
  0
LINE
  5
17E
330
1F
100
AcDbEntity
  8
0-0
  6
Continuous
 62
     3
370
     9
100
AcDbLine
 10
-282.4617698826913
 20
197.2290518568742
 30
0.0
 11
-319.7821285714582
 21
195.7291335120157
 31
0.0
  0
LINE
  5
17F
330
1F
100
AcDbEntity
  8
0-0
  6
Continuous
 62
     3
370
     9
100
AcDbLine
 10
-319.7821285714582
 20
190.7291170160274
 30
0.0
 11
-282.4617698826913
 21
189.2290749512576
 31
0.0
  0
LINE
  5
180
330
1F
100
AcDbEntity
  8
0-0
  6
Continuous
 62
     3
370
     9
100
AcDbLine
 10
-319.7821285714582
 20
98.22912114002456
 30
0.0
 11
-227.2820708354996
 21
98.22912114002456
 31
0.0
  0
LINE
  5
181
330
1F
100
AcDbEntity
  8
0-0
  6
Continuous
 62
     3
370
     9
100
AcDbLine
 10
-282.4617698826913
 20
135.5494798287913
 30
0.0
 11
-319.7821285714582
 21
98.22912114002456
 31
0.0
  0
LINE
  5
182
330
1F
100
AcDbEntity
  8
0-0
  6
Continuous
 62
     3
370
     9
100
AcDbLine
 10
-292.8759552778032
 20
198.9892150351893
 30
0.0
 11
-319.7821285714582
 21
203.7291104176322
 31
0.0
  0
LINE
  5
183
330
1F
100
AcDbEntity
  8
0-0
  6
Continuous
 62
     3
370
     9
100
AcDbLine
 10
-319.7821285714582
 20
195.7291335120157
 30
0.0
 11
-319.7821285714582
 21
203.7291104176322
 31
0.0
  0
LINE
  5
184
330
1F
100
AcDbEntity
  8
0-0
  6
Continuous
 62
     3
370
     9
100
AcDbLine
 10
-297.7820065011457
 20
203.7291104176322
 30
0.0
 11
-327.6763249528983
 21
203.7291104176322
 31
0.0
  0
LINE
  5
185
330
1F
100
AcDbEntity
  8
0-0
  6
Continuous
 62
     3
370
     9
100
AcDbLine
 10
-332.7027556499527
 20
203.7291104176322
 30
0.0
 11
-335.0319685603729
 21
203.7291104176322
 31
0.0
  0
LINE
  5
186
330
1F
100
AcDbEntity
  8
0-1
  6
Continuous
 62
     2
370
     9
100
AcDbLine
 10
-188.2820287707298
 20
46.22927125351687
 30
0.0
 11
-344.7820254715321
 21
46.22927125351687
 31
0.0
  0
LINE
  5
187
330
1F
100
AcDbEntity
  8
0-1
  6
Continuous
 62
     2
370
     9
100
AcDbLine
 10
-186.2822201241925
 20
56.97904690807768
 30
0.0
 11
-186.2822201241925
 21
48.22932733987663
 31
0.0
  0
LINE
  5
188
330
1F
100
AcDbEntity
  8
0-1
  6
Continuous
 62
     2
370
     9
100
AcDbLine
 10
-188.2820287707298
 20
58.97910299443758
 30
0.0
 11
-354.0320683611014
 21
58.97910299443758
 31
0.0
  0
LINE
  5
189
330
1F
100
AcDbEntity
  8
0-1
  6
Continuous
 62
     2
370
     9
100
AcDbLine
 10
-188.7820427923197
 20
44.22915330720151
 30
0.0
 11
-344.7820254715321
 21
44.22915330720151
 31
0.0
  0
LINE
  5
18A
330
1F
100
AcDbEntity
  8
0-1
  6
Continuous
 62
     2
370
     9
100
AcDbLine
 10
-184.7821161994671
 20
57.97919867116896
 30
0.0
 11
-184.7821161994671
 21
48.22914176000971
 31
0.0
  0
LINE
  5
18B
330
1F
100
AcDbEntity
  8
0-1
  6
Continuous
 62
     2
370
     9
100
AcDbLine
 10
-344.7820254715321
 20
33.22915413200086
 30
0.0
 11
-182.9064604839371
 21
33.22915413200086
 31
0.0
  0
LINE
  5
18C
330
1F
100
AcDbEntity
  8
0-1
  6
Continuous
 62
     2
370
     9
100
AcDbLine
 10
-344.7820254715321
 20
34.22918217518081
 30
0.0
 11
-182.2821698114286
 21
34.22918217518081
 31
0.0
  0
LINE
  5
18D
330
1F
100
AcDbEntity
  8
0-1
  6
Continuous
 62
     2
370
     9
100
AcDbLine
 10
-361.0321409434493
 20
231.7289677273345
 30
0.0
 11
-369.781922371606
 21
231.7289677273345
 31
0.0
  0
LINE
  5
18E
330
1F
100
AcDbEntity
  8
0-1
  6
Continuous
 62
     2
370
     9
100
AcDbLine
 10
-360.0319273204025
 20
233.22907165206
 30
0.0
 11
-369.7820460915173
 21
233.22907165206
 31
0.0
  0
LINE
  5
18F
330
1F
100
AcDbEntity
  8
0-1
  6
Continuous
 62
     2
370
     9
100
AcDbLine
 10
-371.7819784579658
 20
73.229162379995
 30
0.0
 11
-371.7819784579658
 21
229.729035360886
 31
0.0
  0
LINE
  5
190
330
1F
100
AcDbEntity
  8
0-1
  6
Continuous
 62
     2
370
     9
100
AcDbLine
 10
-373.7819726843699
 20
73.229162379995
 30
0.0
 11
-373.7819726843699
 21
229.2289594793405
 31
0.0
  0
LINE
  5
191
330
1F
100
AcDbEntity
  8
0-1
  6
Continuous
 62
     2
370
     9
100
AcDbLine
 10
-359.0320229971338
 20
63.9789957705144
 30
0.0
 11
-359.0320229971338
 21
229.729035360886
 31
0.0
  0
LINE
  5
192
330
1F
100
AcDbEntity
  8
0-1
  6
Continuous
 62
     2
370
     9
100
AcDbLine
 10
-384.7819718595706
 20
73.229162379995
 30
0.0
 11
-384.7819718595706
 21
235.1047273675899
 31
0.0
  0
LINE
  5
193
330
1F
100
AcDbEntity
  8
0-1
  6
Continuous
 62
     2
370
     9
100
AcDbLine
 10
-383.782067536302
 20
73.229162379995
 30
0.0
 11
-383.782067536302
 21
235.7290180400984
 31
0.0
  0
LINE
  5
194
330
1F
100
AcDbEntity
  8
0-A
  6
Continuous
 62
     7
370
     9
100
AcDbLine
 10
-1.896745171700989
 20
283.9093868244101
 30
0.0
 11
-6.101490077739928
 21
288.1144410302272
 31
0.0
  0
LINE
  5
195
330
1F
100
AcDbEntity
  8
0-A
  6
Continuous
 62
     7
370
     9
100
AcDbLine
 10
-2.462454466200601
 20
283.3438012498218
 30
0.0
 11
-6.667199372239399
 21
287.5487317357277
 31
0.0
  0
LINE
  5
196
330
1F
100
AcDbEntity
  8
0-A
  6
Continuous
 62
     7
370
     9
100
AcDbLine
 10
-39.03189515322546
 20
290.7290139161014
 30
0.0
 11
-4.532103002676511
 21
290.7290139161014
 31
0.0
  0
LINE
  5
197
330
1F
100
AcDbEntity
  8
0-A
  6
Continuous
 62
     7
370
     9
100
AcDbLine
 10
0.007056823653695
 20
285.7290592800688
 30
0.0
 11
-8.716929002993314
 21
285.7290592800688
 31
0.0
  0
LINE
  5
198
330
1F
100
AcDbEntity
  8
0-A
  6
Continuous
 62
     7
370
     9
100
AcDbLine
 10
-4.282003201948132
 20
290.1216728714434
 30
0.0
 11
-4.282003201948132
 21
281.1100382509832
 31
0.0
  0
LINE
  5
199
330
1F
100
AcDbEntity
  8
0-A
  6
Continuous
 62
     7
370
     9
100
AcDbLine
 10
-11.78190422601896
 20
277.7292060943636
 30
0.0
 11
-31.78209392988302
 21
277.7292060943636
 31
0.0
  0
LINE
  5
19A
330
1F
100
AcDbEntity
  8
0-A
  6
Continuous
 62
     7
370
     9
100
AcDbLine
 10
-36.89679878366258
 20
283.9093868244101
 30
0.0
 11
-41.10154368970151
 21
288.1144410302272
 31
0.0
  0
LINE
  5
19B
330
1F
100
AcDbEntity
  8
0-A
  6
Continuous
 62
     7
370
     9
100
AcDbLine
 10
-37.46256993811778
 20
283.3438012498218
 30
0.0
 11
-41.66731484415672
 21
287.5487317357277
 31
0.0
  0
LINE
  5
19C
330
1F
100
AcDbEntity
  8
0-A
  6
Continuous
 62
     7
370
     9
100
AcDbLine
 10
-34.99287306839656
 20
285.7290592800688
 30
0.0
 11
-43.71704447491049
 21
285.7290592800688
 31
0.0
  0
LINE
  5
19D
330
1F
100
AcDbEntity
  8
0-A
  6
Continuous
 62
     7
370
     9
100
AcDbLine
 10
-39.28205681390958
 20
290.1216728714434
 30
0.0
 11
-39.28205681390958
 21
281.1100382509832
 31
0.0
  0
LINE
  5
19E
330
1F
100
AcDbEntity
  8
0-A
  6
Continuous
 62
     7
370
     9
100
AcDbLine
 10
-31.78209392988302
 20
277.7292060943636
 30
0.0
 11
-31.78209392988302
 21
219.2290502072753
 31
0.0
  0
LINE
  5
19F
330
1F
100
AcDbEntity
  8
0-A
  6
Continuous
 62
     7
370
     9
100
AcDbLine
 10
-44.03203536912508
 20
285.7290592800688
 30
0.0
 11
-44.03203536912508
 21
210.7289974201132
 31
0.0
  0
LINE
  5
1A0
330
1F
100
AcDbEntity
  8
0-A
  6
Continuous
 62
     7
370
     9
100
AcDbLine
 10
-11.78190422601896
 20
277.7292060943636
 30
0.0
 11
-11.78190422601896
 21
219.2290502072753
 31
0.0
  0
LINE
  5
1A1
330
1F
100
AcDbEntity
  8
0-A
  6
Continuous
 62
     7
370
     9
100
AcDbLine
 10
0.4679753532672315
 20
285.7290592800688
 30
0.0
 11
0.4679753532672315
 21
210.7289974201132
 31
0.0
  0
LINE
  5
1A2
330
1F
100
AcDbEntity
  8
0-A
  6
Continuous
 62
     7
370
     9
100
AcDbLine
 10
-6.667199372239399
 20
212.548669875772
 30
0.0
 11
-2.462454466200601
 21
208.3438012498218
 31
0.0
  0
LINE
  5
1A3
330
1F
100
AcDbEntity
  8
0-A
  6
Continuous
 62
     7
370
     9
100
AcDbLine
 10
-6.101490077739928
 20
213.1142554503602
 30
0.0
 11
-1.896745171700989
 21
208.9095105443214
 31
0.0
  0
LINE
  5
1A4
330
1F
100
AcDbEntity
  8
0-A
  6
Continuous
 62
     7
370
     9
100
AcDbLine
 10
-39.03189515322546
 20
205.7290427840807
 30
0.0
 11
-4.532103002676511
 21
205.7290427840807
 31
0.0
  0
LINE
  5
1A5
330
1F
100
AcDbEntity
  8
0-A
  6
Continuous
 62
     7
370
     9
100
AcDbLine
 10
0.007056823653695
 20
210.7289974201132
 30
0.0
 11
-8.716929002993314
 21
210.7289974201132
 31
0.0
  0
LINE
  5
1A6
330
1F
100
AcDbEntity
  8
0-A
  6
Continuous
 62
     7
370
     9
100
AcDbLine
 10
-4.282003201948132
 20
206.3365694086056
 30
0.0
 11
-4.282003201948132
 21
215.3480184491989
 31
0.0
  0
LINE
  5
1A7
330
1F
100
AcDbEntity
  8
0-A
  6
Continuous
 62
     7
370
     9
100
AcDbLine
 10
-41.66731484415672
 20
212.548669875772
 30
0.0
 11
-37.46256993811778
 21
208.3438012498218
 31
0.0
  0
LINE
  5
1A8
330
1F
100
AcDbEntity
  8
0-A
  6
Continuous
 62
     7
370
     9
100
AcDbLine
 10
-41.10154368970151
 20
213.1142554503602
 30
0.0
 11
-36.89679878366258
 21
208.9095105443214
 31
0.0
  0
LINE
  5
1A9
330
1F
100
AcDbEntity
  8
0-A
  6
Continuous
 62
     7
370
     9
100
AcDbLine
 10
-34.99287306839656
 20
210.7289974201132
 30
0.0
 11
-43.71704447491049
 21
210.7289974201132
 31
0.0
  0
LINE
  5
1AA
330
1F
100
AcDbEntity
  8
0-A
  6
Continuous
 62
     7
370
     9
100
AcDbLine
 10
-39.28205681390958
 20
206.3365694086056
 30
0.0
 11
-39.28205681390958
 21
215.3480184491989
 31
0.0
  0
LINE
  5
1AB
330
1F
100
AcDbEntity
  8
0-A
  6
Continuous
 62
     7
370
     9
100
AcDbLine
 10
-31.78209392988302
 20
219.2290502072753
 30
0.0
 11
-11.78190422601896
 21
219.2290502072753
 31
0.0
  0
LINE
  5
1AC
330
1F
100
AcDbEntity
  8
0-B
  6
Continuous
 62
     4
370
     9
100
AcDbLine
 10
-182.2821698114286
 20
-14.27081700001985
 30
0.0
 11
-182.2821698114286
 21
43.22918712397716
 31
0.0
  0
LINE
  5
1AD
330
1F
100
AcDbEntity
  8
0-B
  6
Continuous
 62
     4
370
     9
100
AcDbLine
 10
-182.2821698114286
 20
-14.27081700001985
 30
0.0
 11
-157.2819017516208
 21
-14.27081700001985
 31
0.0
  0
LINE
  5
1AE
330
1F
100
AcDbEntity
  8
0-B
  6
Continuous
 62
     4
370
     9
100
AcDbLine
 10
-157.2819017516208
 20
-14.27081700001985
 30
0.0
 11
-157.2819017516208
 21
43.22918712397716
 31
0.0
  0
LINE
  5
1AF
330
1F
100
AcDbEntity
  8
0-B
  6
Continuous
 62
     4
370
     9
100
AcDbLine
 10
-162.5920222053265
 20
43.22918712397716
 30
0.0
 11
-166.1870753883924
 21
37.00248770727534
 31
0.0
  0
LINE
  5
1B0
330
1F
100
AcDbEntity
  8
0-B
  6
Continuous
 62
     4
370
     9
100
AcDbLine
 10
-166.1870753883924
 20
37.00248770727534
 30
0.0
 11
-173.3770580346128
 21
37.00248770727534
 31
0.0
  0
LINE
  5
1B1
330
1F
100
AcDbEntity
  8
0-B
  6
Continuous
 62
     4
370
     9
100
AcDbLine
 10
-173.3770580346128
 20
37.00248770727534
 30
0.0
 11
-176.9721112176786
 21
43.22918712397716
 31
0.0
  0
LINE
  5
1B2
330
1F
100
AcDbEntity
  8
0-B
  6
Continuous
 62
     4
370
     9
100
AcDbLine
 10
-176.9721112176786
 20
43.22918712397716
 30
0.0
 11
-173.3770580346128
 21
49.45594840063471
 31
0.0
  0
LINE
  5
1B3
330
1F
100
AcDbEntity
  8
0-B
  6
Continuous
 62
     4
370
     9
100
AcDbLine
 10
-173.3770580346128
 20
49.45594840063471
 30
0.0
 11
-166.1870753883924
 21
49.45594840063471
 31
0.0
  0
LINE
  5
1B4
330
1F
100
AcDbEntity
  8
0-B
  6
Continuous
 62
     4
370
     9
100
AcDbLine
 10
-166.1870753883924
 20
49.45594840063471
 30
0.0
 11
-162.5920222053265
 21
43.22918712397716
 31
0.0
  0
LINE
  5
1B5
330
1F
100
AcDbEntity
  8
0-B
  6
Continuous
 62
     4
370
     9
100
AcDbLine
 10
92.71793328849745
 20
235.7290180400984
 30
0.0
 11
35.21792916450045
 21
235.7290180400984
 31
0.0
  0
LINE
  5
1B6
330
1F
100
AcDbEntity
  8
0-B
  6
Continuous
 62
     4
370
     9
100
AcDbLine
 10
92.71793328849745
 20
235.7290180400984
 30
0.0
 11
92.71793328849745
 21
260.7292242399506
 31
0.0
  0
LINE
  5
1B7
330
1F
100
AcDbEntity
  8
0-B
  6
Continuous
 62
     4
370
     9
100
AcDbLine
 10
92.71793328849745
 20
260.7292242399506
 30
0.0
 11
35.21792916450045
 21
260.7292242399506
 31
0.0
  0
LINE
  5
1B8
330
1F
100
AcDbEntity
  8
0-B
  6
Continuous
 62
     4
370
     9
100
AcDbLine
 10
35.21792916450045
 20
255.4191656462006
 30
0.0
 11
41.44462858120227
 21
251.8241124631347
 31
0.0
  0
LINE
  5
1B9
330
1F
100
AcDbEntity
  8
0-B
  6
Continuous
 62
     4
370
     9
100
AcDbLine
 10
41.44462858120227
 20
251.8241124631347
 30
0.0
 11
41.44462858120227
 21
244.6341298169143
 31
0.0
  0
LINE
  5
1BA
330
1F
100
AcDbEntity
  8
0-B
  6
Continuous
 62
     4
370
     9
100
AcDbLine
 10
41.44462858120227
 20
244.6341298169143
 30
0.0
 11
35.21792916450045
 21
241.0390766338484
 31
0.0
  0
LINE
  5
1BB
330
1F
100
AcDbEntity
  8
0-B
  6
Continuous
 62
     4
370
     9
100
AcDbLine
 10
35.21792916450045
 20
241.0390766338484
 30
0.0
 11
28.99110602788729
 21
244.6341298169143
 31
0.0
  0
LINE
  5
1BC
330
1F
100
AcDbEntity
  8
0-B
  6
Continuous
 62
     4
370
     9
100
AcDbLine
 10
28.99110602788729
 20
244.6341298169143
 30
0.0
 11
28.99110602788729
 21
251.8241124631347
 31
0.0
  0
LINE
  5
1BD
330
1F
100
AcDbEntity
  8
0-B
  6
Continuous
 62
     4
370
     9
100
AcDbLine
 10
28.99110602788729
 20
251.8241124631347
 30
0.0
 11
35.21792916450045
 21
255.4191656462006
 31
0.0
  0
LINE
  5
1BE
330
1F
100
AcDbEntity
  8
0-0
  6
JWW_CENTER1
 62
     3
370
     9
100
AcDbLine
 10
-185.965435291264
 20
43.22918712397716
 30
0.0
 11
-153.3202046113653
 21
43.22918712397716
 31
0.0
  0
LINE
  5
1BF
330
1F
100
AcDbEntity
  8
0-0
  6
JWW_CENTER1
 62
     3
370
     9
100
AcDbLine
 10
35.21792916450045
 20
232.0455669803962
 30
0.0
 11
35.21792916450045
 21
264.6907976602947
 31
0.0
  0
LINE
  5
1C0
330
1F
100
AcDbEntity
  8
0-0
  6
JWW_CENTER1
 62
     3
370
     9
100
AcDbLine
 10
-153.5985744118299
 20
453.2289314361605
 30
0.0
 11
-186.2438669516842
 21
453.2289314361605
 31
0.0
  0
LINE
  5
1C1
330
1F
100
AcDbEntity
  8
0-0
  6
JWW_CENTER1
 62
     3
370
     9
100
AcDbLine
 10
-374.7820007275499
 20
264.4124897197859
 30
0.0
 11
-374.7820007275499
 21
231.7673208998429
 31
0.0
  0
LINE
  5
1C2
330
1F
100
AcDbEntity
  8
0-0
  6
Continuous
 62
     3
370
     9
100
AcDbLine
 10
-332.6762795889307
 20
198.7290939216441
 30
0.0
 11
-332.6762795889307
 21
173.631148991851
 31
0.0
  0
LINE
  5
1C3
330
1F
100
AcDbEntity
  8
0-0
  6
Continuous
 62
     3
370
     9
100
AcDbLine
 10
-332.6762795889307
 20
160.8127764200603
 30
0.0
 11
-332.6762795889307
 21
89.3348348554489
 31
0.0
  0
LINE
  5
1C4
330
1F
100
AcDbEntity
  8
0-0
  6
Continuous
 62
     3
370
     9
100
AcDbLine
 10
-334.7661563309071
 20
87.2449581134726
 30
0.0
 11
-334.7661563309071
 21
160.8127764200603
 31
0.0
  0
LINE
  5
1C5
330
1F
100
AcDbEntity
  8
0-0
  6
Continuous
 62
     3
370
     9
100
AcDbLine
 10
-334.7661563309071
 20
173.631148991851
 30
0.0
 11
-334.7661563309071
 21
198.7290939216441
 31
0.0
  0
LINE
  5
1C6
330
1F
100
AcDbEntity
  8
0-0
  6
Continuous
 62
     3
370
     9
100
AcDbLine
 10
-319.7821285714582
 20
98.22912114002456
 30
0.0
 11
-319.7821285714582
 21
160.8127764200603
 31
0.0
  0
LINE
  5
1C7
330
1F
100
AcDbEntity
  8
0-0
  6
Continuous
 62
     3
370
     9
100
AcDbLine
 10
-319.7821285714582
 20
185.4997856644122
 30
0.0
 11
-319.7821285714582
 21
190.7291170160274
 31
0.0
  0
LINE
  5
1C8
330
1F
100
AcDbEntity
  8
0-8
  6
Continuous
 62
     4
370
     9
100
AcDbLine
 10
-340.7820988786795
 20
419.2292151671571
 30
0.0
 11
-344.7820254715321
 21
423.2290799000541
 31
0.0
  0
LINE
  5
1C9
330
1F
100
AcDbEntity
  8
0-8
  6
Continuous
 62
     4
370
     9
100
AcDbLine
 10
-345.7821153746676
 20
424.2291079432339
 30
0.0
 11
-349.7820419675203
 21
428.2290963960423
 31
0.0
  0
LINE
  5
1CA
330
1F
100
AcDbEntity
  8
0-8
  6
Continuous
 62
     4
370
     9
100
AcDbLine
 10
1.217965455674399
 20
419.2292151671571
 30
0.0
 11
5.217892048527002
 21
423.2290799000541
 31
0.0
  0
LINE
  5
1CB
330
1F
100
AcDbEntity
  8
0-8
  6
Continuous
 62
     4
370
     9
100
AcDbLine
 10
6.217920091706954
 20
424.2291079432339
 30
0.0
 11
10.21790854451515
 21
428.2290963960423
 31
0.0
  0
LINE
  5
1CC
330
1F
100
AcDbEntity
  8
0-8
  6
Continuous
 62
     4
370
     9
100
AcDbLine
 10
1.217965455674399
 20
77.2290889728476
 30
0.0
 11
5.217892048527002
 21
73.229162379995
 31
0.0
  0
LINE
  5
1CD
330
1F
100
AcDbEntity
  8
0-8
  6
Continuous
 62
     4
370
     9
100
AcDbLine
 10
6.217920091706954
 20
72.22913433681505
 30
0.0
 11
10.21790854451515
 21
68.22920774396245
 31
0.0
  0
LINE
  5
1CE
330
1F
100
AcDbEntity
  8
0-8
  6
Continuous
 62
     4
370
     9
100
AcDbLine
 10
-340.7820988786795
 20
77.2290889728476
 30
0.0
 11
-344.7820254715321
 21
73.229162379995
 31
0.0
  0
LINE
  5
1CF
330
1F
100
AcDbEntity
  8
0-8
  6
Continuous
 62
     4
370
     9
100
AcDbLine
 10
-345.7820535147119
 20
72.22913433681505
 30
0.0
 11
-349.7820419675203
 21
68.22920774396245
 31
0.0
  0
LINE
  5
1D0
330
1F
100
AcDbEntity
  8
0-0
  6
JWW_CENTER1
 62
     3
370
     9
100
AcDbLine
 10
-21.78206093790672
 20
202.6015271458839
 30
0.0
 11
-21.78206093790672
 21
294.1775208642115
 31
0.0
  0
LINE
  5
1D1
330
1F
100
AcDbEntity
  8
0-0
  6
JWW_HOJO
 62
     3
370
     9
100
AcDbLine
 10
-332.6763414488864
 20
-324.8450959603767
 30
0.0
 11
-334.7662181908628
 21
-293.8450926611791
 31
0.0
  0
LINE
  5
1D2
330
1F
100
AcDbEntity
  8
0-0
  6
Continuous
 62
     3
370
     9
100
AcDbLine
 10
-327.2821533154405
 20
-330.8450167796335
 30
0.0
 11
-320.5720802052209
 21
-330.8450167796335
 31
0.0
  0
LINE
  5
1D3
330
1F
100
AcDbEntity
  8
0-8
  6
Continuous
 62
     4
370
     9
100
AcDbLine
 10
-344.7820873314878
 20
-304.8451536963353
 30
0.0
 11
-340.7820988786795
 21
-304.8451536963353
 31
0.0
  0
LINE
  5
1D4
330
1F
100
AcDbEntity
  8
0-8
  6
Continuous
 62
     4
370
     9
100
AcDbLine
 10
-344.7820873314878
 20
-284.8449639924713
 30
0.0
 11
-344.7820873314878
 21
-304.8451536963353
 31
0.0
  0
LINE
  5
1D5
330
1F
100
AcDbEntity
  8
0-8
  6
Continuous
 62
     4
370
     9
100
AcDbLine
 10
-344.7820873314878
 20
-284.8449639924713
 30
0.0
 11
-340.7820988786795
 21
-284.8449639924713
 31
0.0
  0
LINE
  5
1D6
330
1F
100
AcDbEntity
  8
0-8
  6
Continuous
 62
     4
370
     9
100
AcDbLine
 10
-340.7820988786795
 20
-284.8449639924713
 30
0.0
 11
-340.7820988786795
 21
-304.8451536963353
 31
0.0
  0
LINE
  5
1D7
330
1F
100
AcDbEntity
  8
0-0
  6
JWW_HOJO
 62
     3
370
     9
100
AcDbLine
 10
-323.4411449486753
 20
-340.3449738900642
 30
0.0
 11
-321.2821087762724
 21
-330.8450167796335
 31
0.0
  0
LINE
  5
1D8
330
1F
100
AcDbEntity
  8
0-0
  6
Continuous
 62
     3
370
     9
100
AcDbLine
 10
-332.7821219730629
 20
-305.3451058579696
 30
0.0
 11
-302.7818992772226
 21
-305.3451058579696
 31
0.0
  0
LINE
  5
1D9
330
1F
100
AcDbEntity
  8
0-0
  6
Continuous
 62
     3
370
     9
100
AcDbLine
 10
-332.7821219730629
 20
-295.3449491460819
 30
0.0
 11
-302.7818992772226
 21
-295.3449491460819
 31
0.0
  0
LINE
  5
1DA
330
1F
100
AcDbEntity
  8
0-0
  6
Continuous
 62
     3
370
     9
100
AcDbLine
 10
-288.1634019957614
 20
-332.8449491460819
 30
0.0
 11
-292.7821137250688
 21
-324.8450959603767
 31
0.0
  0
LINE
  5
1DB
330
1F
100
AcDbEntity
  8
0-0
  6
Continuous
 62
     3
370
     9
100
AcDbLine
 10
-287.7543839689455
 20
-333.4269276089198
 30
0.0
 11
-282.4617698826913
 21
-334.8450052324417
 31
0.0
  0
LINE
  5
1DC
330
1F
100
AcDbEntity
  8
0-0
  6
Continuous
 62
     3
370
     9
100
AcDbLine
 10
-288.1634019957614
 20
-340.8450497716098
 30
0.0
 11
-51.4007314272437
 21
-340.8450497716098
 31
0.0
  0
LINE
  5
1DD
330
1F
100
AcDbEntity
  8
0-0
  6
Continuous
 62
     3
370
     9
100
AcDbLine
 10
-320.5720802052209
 20
-330.8450167796335
 30
0.0
 11
-291.7940865132868
 21
-338.5559839724122
 31
0.0
  0
LINE
  5
1DE
330
1F
100
AcDbEntity
  8
0-0
  6
JWW_DASHED1
 62
     3
370
     9
100
AcDbLine
 10
-291.7940865132868
 20
-338.5559839724122
 30
0.0
 11
-283.251721516454
 21
-340.8450497716098
 31
0.0
  0
LINE
  5
1DF
330
1F
100
AcDbEntity
  8
0-0
  6
Continuous
 62
     3
370
     9
100
AcDbLine
 10
-298.8443893796297
 20
-326.3449524452795
 30
0.0
 11
-291.6273120728306
 21
-338.84499368525
 31
0.0
  0
LINE
  5
1E0
330
1F
100
AcDbEntity
  8
0-0
  6
Continuous
 62
     3
370
     9
100
AcDbLine
 10
-332.7821219730629
 20
-314.3449870868548
 30
0.0
 11
-332.7821219730629
 21
-305.3451058579696
 31
0.0
  0
LINE
  5
1E1
330
1F
100
AcDbEntity
  8
0-0
  6
Continuous
 62
     3
370
     9
100
AcDbLine
 10
-306.7820114499422
 20
-318.3450992595743
 30
0.0
 11
-328.7820098003434
 21
-318.3450992595743
 31
0.0
  0
LINE
  5
1E2
330
1F
100
AcDbEntity
  8
0-0
  6
Continuous
 62
     3
370
     9
100
AcDbLine
 10
-302.7818992772226
 20
-314.3449870868548
 30
0.0
 11
-302.7818992772226
 21
-305.3451058579696
 31
0.0
  0
LINE
  5
1E3
330
1F
100
AcDbEntity
  8
0-0
  6
Continuous
 62
     3
370
     9
100
AcDbLine
 10
-311.2821995042074
 20
-318.3450992595743
 30
0.0
 11
-311.2821995042074
 21
-324.3450200788311
 31
0.0
  0
LINE
  5
1E4
330
1F
100
AcDbEntity
  8
0-0
  6
Continuous
 62
     3
370
     9
100
AcDbLine
 10
-324.2819454659895
 20
-318.3450992595743
 30
0.0
 11
-324.2819454659895
 21
-324.3450200788311
 31
0.0
  0
LINE
  5
1E5
330
1F
100
AcDbEntity
  8
0-0
  6
Continuous
 62
     3
370
     9
100
AcDbLine
 10
-292.7821137250688
 20
-324.8450959603767
 30
0.0
 11
-154.9796597818678
 21
-324.8450959603767
 31
0.0
  0
LINE
  5
1E6
330
1F
100
AcDbEntity
  8
0-0
  6
JWW_HOJO
 62
     3
370
     9
100
AcDbLine
 10
-295.197621273633
 20
-293.8450926611791
 30
0.0
 11
-340.7820988786795
 21
-293.8450926611791
 31
0.0
  0
LINE
  5
1E7
330
1F
100
AcDbEntity
  8
0-0
  6
JWW_CENTER1
 62
     3
370
     9
100
AcDbLine
 10
-317.7820724850984
 20
-281.9167611314071
 30
0.0
 11
-317.7820724850984
 21
-328.0470909851866
 31
0.0
  0
LINE
  5
1E8
330
1F
100
AcDbEntity
  8
0-0
  6
JWW_HOJO
 62
     3
370
     9
100
AcDbLine
 10
-332.6763414488864
 20
-324.8450959603767
 30
0.0
 11
-327.8543579052842
 21
-324.8450959603767
 31
0.0
  0
LINE
  5
1E9
330
1F
100
AcDbEntity
  8
0-0
  6
Continuous
 62
     3
370
     9
100
AcDbLine
 10
-339.0033777136668
 20
-337.1094507692872
 30
0.0
 11
-344.7820873314878
 21
-304.8451536963353
 31
0.0
  0
LINE
  5
1EA
330
1F
100
AcDbEntity
  8
0-0
  6
Continuous
 62
     3
370
     9
100
AcDbLine
 10
-331.560016689068
 20
-337.1106879684003
 30
0.0
 11
-329.8545377115553
 21
-327.6364645995237
 31
0.0
  0
LINE
  5
1EB
330
1F
100
AcDbEntity
  8
0-0
  6
Continuous
 62
     3
370
     9
100
AcDbLine
 10
-329.4401997285528
 20
-337.3194034587931
 30
0.0
 11
-327.2821533154405
 21
-330.8450167796335
 31
0.0
  0
LINE
  5
1EC
330
1F
100
AcDbEntity
  8
0-0
  6
Continuous
 62
     3
370
     9
100
AcDbLine
 10
-332.5214441199168
 20
-339.2571047098488
 30
0.0
 11
-332.7821219730629
 21
-338.3449178037044
 31
0.0
  0
LINE
  5
1ED
330
1F
100
AcDbEntity
  8
0-0
  6
Continuous
 62
     3
370
     9
100
AcDbLine
 10
-299.6384237704658
 20
-340.3449738900642
 30
0.0
 11
-331.0791173937766
 21
-340.3449738900642
 31
0.0
  0
LINE
  5
1EE
330
1F
100
AcDbEntity
  8
0-0
  6
Continuous
 62
     3
370
     9
100
AcDbLine
 10
-298.1758069788696
 20
-339.1774290869603
 30
0.0
 11
-297.6763496968805
 21
-336.9799160221377
 31
0.0
  0
LINE
  5
1EF
330
1F
100
AcDbEntity
  8
0-0
  6
Continuous
 62
     3
370
     9
100
AcDbLine
 10
-337.3799250373577
 20
-338.3449178037044
 30
0.0
 11
-330.8631024286161
 21
-338.3449178037044
 31
0.0
  0
LINE
  5
1F0
330
1F
100
AcDbEntity
  8
0-0
  6
JWW_HOJO
 62
     3
370
     9
100
AcDbLine
 10
-338.876441084655
 20
-336.9460167664366
 30
0.0
 11
-341.0405497734218
 21
-304.8451536963353
 31
0.0
  0
LINE
  5
1F1
330
1F
100
AcDbEntity
  8
0-0
  6
Continuous
 62
     3
370
     9
100
AcDbLine
 10
-340.7820988786795
 20
-293.8450926611791
 30
0.0
 11
-339.9820022121888
 21
-287.845048122011
 31
0.0
  0
LINE
  5
1F2
330
1F
100
AcDbEntity
  8
0-0
  6
Continuous
 62
     3
370
     9
100
AcDbLine
 10
-295.6652825384135
 20
-287.845048122011
 30
0.0
 11
-292.7821137250688
 21
-324.8450959603767
 31
0.0
  0
LINE
  5
1F3
330
1F
100
AcDbEntity
  8
0-0
  6
Continuous
 62
     3
370
     9
100
AcDbLine
 10
-302.7818992772226
 20
-287.845048122011
 30
0.0
 11
-302.7818992772226
 21
-295.3449491460819
 31
0.0
  0
LINE
  5
1F4
330
1F
100
AcDbEntity
  8
0-0
  6
Continuous
 62
     3
370
     9
100
AcDbLine
 10
-332.7821219730629
 20
-287.845048122011
 30
0.0
 11
-332.7821219730629
 21
-295.3449491460819
 31
0.0
  0
LINE
  5
1F5
330
1F
100
AcDbEntity
  8
0-A
  6
Continuous
 62
     7
370
     9
100
AcDbLine
 10
-295.5320361939244
 20
-284.8449639924713
 30
0.0
 11
-295.5320361939244
 21
-287.845048122011
 31
0.0
  0
LINE
  5
1F6
330
1F
100
AcDbEntity
  8
0-A
  6
Continuous
 62
     7
370
     9
100
AcDbLine
 10
-340.0319850563611
 20
-284.8449639924713
 30
0.0
 11
-340.0319850563611
 21
-287.845048122011
 31
0.0
  0
LINE
  5
1F7
330
1F
100
AcDbEntity
  8
0-A
  6
Continuous
 62
     7
370
     9
100
AcDbLine
 10
-328.5319718595705
 20
-293.3450167796335
 30
0.0
 11
-328.0320196979363
 21
-284.8449639924713
 31
0.0
  0
LINE
  5
1F8
330
1F
100
AcDbEntity
  8
0-A
  6
Continuous
 62
     7
370
     9
100
AcDbLine
 10
-340.0319850563611
 20
-287.845048122011
 30
0.0
 11
-330.7819421667918
 21
-287.845048122011
 31
0.0
  0
LINE
  5
1F9
330
1F
100
AcDbEntity
  8
0-A
  6
Continuous
 62
     7
370
     9
100
AcDbLine
 10
-330.7819421667918
 20
-287.845048122011
 30
0.0
 11
-330.7819421667918
 21
-293.3450167796335
 31
0.0
  0
LINE
  5
1FA
330
1F
100
AcDbEntity
  8
0-A
  6
Continuous
 62
     7
370
     9
100
AcDbLine
 10
-307.032049390715
 20
-293.3450167796335
 30
0.0
 11
-307.5321252722605
 21
-284.8449639924713
 31
0.0
  0
LINE
  5
1FB
330
1F
100
AcDbEntity
  8
0-A
  6
Continuous
 62
     7
370
     9
100
AcDbLine
 10
-295.5320361939244
 20
-287.845048122011
 30
0.0
 11
-304.7820790834937
 21
-287.845048122011
 31
0.0
  0
LINE
  5
1FC
330
1F
100
AcDbEntity
  8
0-A
  6
Continuous
 62
     7
370
     9
100
AcDbLine
 10
-304.7820790834937
 20
-287.845048122011
 30
0.0
 11
-304.7820790834937
 21
-293.3450167796335
 31
0.0
  0
LINE
  5
1FD
330
1F
100
AcDbEntity
  8
0-A
  6
Continuous
 62
     7
370
     9
100
AcDbLine
 10
-330.7819421667918
 20
-293.3450167796335
 30
0.0
 11
-304.7820790834937
 21
-293.3450167796335
 31
0.0
  0
LINE
  5
1FE
330
1F
100
AcDbEntity
  8
0-A
  6
Continuous
 62
     7
370
     9
100
AcDbLine
 10
-327.7819817571635
 20
-287.845048122011
 30
0.0
 11
-307.7821632130334
 21
-287.845048122011
 31
0.0
  0
LINE
  5
1FF
330
1F
100
AcDbEntity
  8
0-A
  6
Continuous
 62
     7
370
     9
100
AcDbLine
 10
-327.7819817571635
 20
-284.8449639924713
 30
0.0
 11
-327.7819817571635
 21
-287.845048122011
 31
0.0
  0
LINE
  5
200
330
1F
100
AcDbEntity
  8
0-A
  6
Continuous
 62
     7
370
     9
100
AcDbLine
 10
-307.7821632130334
 20
-284.8449639924713
 30
0.0
 11
-307.7821632130334
 21
-287.845048122011
 31
0.0
  0
LINE
  5
201
330
1F
100
AcDbEntity
  8
0-A
  6
Continuous
 62
     7
370
     9
100
AcDbLine
 10
-340.0319850563611
 20
-284.8449639924713
 30
0.0
 11
0.4679753532672315
 21
-284.8449639924713
 31
0.0
  0
LINE
  5
202
330
1F
100
AcDbEntity
  8
0-9
  6
Continuous
 62
     6
370
     5
100
AcDbLine
 10
-325.4320457615976
 20
-324.3450200788311
 30
0.0
 11
-325.4320457615976
 21
-325.3449244020997
 31
0.0
  0
LINE
  5
203
330
1F
100
AcDbEntity
  8
0-9
  6
Continuous
 62
     6
370
     5
100
AcDbLine
 10
-325.4320457615976
 20
-325.3449244020997
 30
0.0
 11
-310.1320992085993
 21
-325.3449244020997
 31
0.0
  0
LINE
  5
204
330
1F
100
AcDbEntity
  8
0-9
  6
Continuous
 62
     6
370
     5
100
AcDbLine
 10
-310.1320992085993
 20
-324.3450200788311
 30
0.0
 11
-310.1320992085993
 21
-325.3449244020997
 31
0.0
  0
LINE
  5
205
330
1F
100
AcDbEntity
  8
0-9
  6
Continuous
 62
     6
370
     5
100
AcDbLine
 10
-324.2319626218172
 20
-318.3450992595743
 30
0.0
 11
-324.2319626218172
 21
-324.3450200788311
 31
0.0
  0
LINE
  5
206
330
1F
100
AcDbEntity
  8
0-9
  6
Continuous
 62
     6
370
     5
100
AcDbLine
 10
-311.3320586284684
 20
-318.3450992595743
 30
0.0
 11
-311.3320586284684
 21
-324.3450200788311
 31
0.0
  0
LINE
  5
207
330
1F
100
AcDbEntity
  8
0-9
  6
Continuous
 62
     6
370
     5
100
AcDbLine
 10
-312.3319629517369
 20
-319.3450035828429
 30
0.0
 11
-323.2320582985486
 21
-319.3450035828429
 31
0.0
  0
LINE
  5
208
330
1F
100
AcDbEntity
  8
0-9
  6
Continuous
 62
     6
370
     5
100
AcDbLine
 10
-323.2320582985486
 20
-319.3450035828429
 30
0.0
 11
-323.2320582985486
 21
-325.3449244020997
 31
0.0
  0
LINE
  5
209
330
1F
100
AcDbEntity
  8
0-9
  6
Continuous
 62
     6
370
     5
100
AcDbLine
 10
-312.3319629517369
 20
-319.3450035828429
 30
0.0
 11
-312.3319629517369
 21
-325.3449244020997
 31
0.0
  0
LINE
  5
20A
330
1F
100
AcDbEntity
  8
0-0
  6
Continuous
 62
     3
370
     9
100
AcDbLine
 10
-311.3320586284684
 20
-324.3450200788311
 30
0.0
 11
-302.3084231766102
 21
-324.3450200788311
 31
0.0
  0
LINE
  5
20B
330
1F
100
AcDbEntity
  8
0-0
  6
Continuous
 62
     3
370
     9
100
AcDbLine
 10
-325.9178938533416
 20
-324.3450200788311
 30
0.0
 11
-324.2319626218172
 21
-324.3450200788311
 31
0.0
  0
LINE
  5
20C
330
1F
100
AcDbEntity
  8
0-0
  6
JWW_DASHED1
 62
     3
370
     9
100
AcDbLine
 10
-327.8543579052842
 20
-324.8450959603767
 30
0.0
 11
-325.4320457615976
 21
-324.8450959603767
 31
0.0
  0
LINE
  5
20D
330
1F
100
AcDbEntity
  8
0-0
  6
JWW_DASHED1
 62
     3
370
     9
100
AcDbLine
 10
-310.1320992085993
 20
-324.8450959603767
 30
0.0
 11
-292.7821137250688
 21
-324.8450959603767
 31
0.0
  0
LINE
  5
20E
330
1F
100
AcDbEntity
  8
0-0
  6
JWW_HOJO
 62
     3
370
     9
100
AcDbLine
 10
-325.4320457615976
 20
-324.8450959603767
 30
0.0
 11
-310.1320992085993
 21
-324.8450959603767
 31
0.0
  0
LINE
  5
20F
330
1F
100
AcDbEntity
  8
0-0
  6
JWW_HOJO
 62
     3
370
     9
100
AcDbLine
 10
-319.7821285714582
 20
-324.8450959603767
 30
0.0
 11
-317.9164323087892
 21
-325.3449244020997
 31
0.0
  0
LINE
  5
210
330
1F
100
AcDbEntity
  8
0-0
  6
JWW_DASHED1
 62
     3
370
     9
100
AcDbLine
 10
-317.9164323087892
 20
-325.3449244020997
 30
0.0
 11
-287.7543839689455
 21
-333.4269276089198
 31
0.0
  0
LINE
  5
211
330
1F
100
AcDbEntity
  8
0-8
  6
Continuous
 62
     4
370
     9
100
AcDbLine
 10
-349.782103827476
 20
-304.8451536963353
 30
0.0
 11
-345.7819916547564
 21
-304.8451536963353
 31
0.0
  0
LINE
  5
212
330
1F
100
AcDbEntity
  8
0-8
  6
Continuous
 62
     4
370
     9
100
AcDbLine
 10
-349.782103827476
 20
-284.8449639924713
 30
0.0
 11
-349.782103827476
 21
-304.8451536963353
 31
0.0
  0
LINE
  5
213
330
1F
100
AcDbEntity
  8
0-8
  6
Continuous
 62
     4
370
     9
100
AcDbLine
 10
-349.782103827476
 20
-284.8449639924713
 30
0.0
 11
-345.7819916547564
 21
-284.8449639924713
 31
0.0
  0
LINE
  5
214
330
1F
100
AcDbEntity
  8
0-8
  6
Continuous
 62
     4
370
     9
100
AcDbLine
 10
-345.7819916547564
 20
-284.8449639924713
 30
0.0
 11
-345.7819916547564
 21
-304.8451536963353
 31
0.0
  0
LINE
  5
215
330
1F
100
AcDbEntity
  8
0-1
  6
Continuous
 62
     2
370
     9
100
AcDbLine
 10
-373.7820345443256
 20
-340.8450497716098
 30
0.0
 11
-371.7819784579658
 21
-343.8451339011496
 31
0.0
  0
LINE
  5
216
330
1F
100
AcDbEntity
  8
0-1
  6
Continuous
 62
     2
370
     9
100
AcDbLine
 10
-331.0819629517369
 20
-340.3452213298868
 30
0.0
 11
-325.645710048443
 21
-340.3452213298868
 31
0.0
  0
LINE
  5
217
330
1F
100
AcDbEntity
  8
0-1
  6
Continuous
 62
     2
370
     9
100
AcDbLine
 10
-324.7820213475351
 20
-349.8450547204062
 30
0.0
 11
-325.645710048443
 21
-340.3452213298868
 31
0.0
  0
LINE
  5
218
330
1F
100
AcDbEntity
  8
0-1
  6
Continuous
 62
     2
370
     9
100
AcDbLine
 10
-362.7991705768425
 20
-343.8451339011496
 30
0.0
 11
-371.7819784579658
 21
-343.8451339011496
 31
0.0
  0
LINE
  5
219
330
1F
100
AcDbEntity
  8
0-1
  6
Continuous
 62
     2
370
     9
100
AcDbLine
 10
-343.2647863390891
 20
-343.8451339011496
 30
0.0
 11
-333.4216301946635
 21
-343.8451339011496
 31
0.0
  0
LINE
  5
21A
330
1F
100
AcDbEntity
  8
0-1
  6
Continuous
 62
     2
370
     9
100
AcDbLine
 10
-331.4605458803687
 20
-342.2373936535777
 30
0.0
 11
-331.0819629517369
 21
-340.3452213298868
 31
0.0
  0
LINE
  5
21B
330
1F
100
AcDbEntity
  8
0-1
  6
JWW_DASHED1
 62
     2
370
     9
100
AcDbLine
 10
-347.2577227569523
 20
-340.084667196652
 30
0.0
 11
-349.3720960413696
 21
-304.8451536963353
 31
0.0
  0
LINE
  5
21C
330
1F
100
AcDbEntity
  8
0-1
  6
Continuous
 62
     2
370
     9
100
AcDbLine
 10
-356.0320625875055
 20
-293.8450926611791
 30
0.0
 11
-349.782103827476
 21
-293.8450926611791
 31
0.0
  0
LINE
  5
21D
330
1F
100
AcDbEntity
  8
0-9
  6
Continuous
 62
     6
370
     5
100
AcDbLine
 10
-332.7821219730629
 20
-338.3449178037044
 30
0.0
 11
-342.782031245128
 21
-338.3449178037044
 31
0.0
  0
LINE
  5
21E
330
1F
100
AcDbEntity
  8
0-9
  6
Continuous
 62
     6
370
     5
100
AcDbLine
 10
-332.7821219730629
 20
-338.3449178037044
 30
0.0
 11
-332.7821219730629
 21
-343.7400956964409
 31
0.0
  0
LINE
  5
21F
330
1F
100
AcDbEntity
  8
0-0
  6
Continuous
 62
     3
370
     9
100
AcDbLine
 10
-221.165358419959
 20
-332.2900653438227
 30
0.0
 11
-222.2820543395114
 21
-324.8450959603767
 31
0.0
  0
LINE
  5
220
330
1F
100
AcDbEntity
  8
0-0
  6
Continuous
 62
     3
370
     9
100
AcDbLine
 10
-218.1985549465637
 20
-334.8450052324417
 30
0.0
 11
-121.3655784764414
 21
-334.8450052324417
 31
0.0
  0
LINE
  5
221
330
1F
100
AcDbEntity
  8
0-0
  6
Continuous
 62
     3
370
     9
100
AcDbLine
 10
-228.398766755052
 20
-332.2900653438227
 30
0.0
 11
-227.2820708354996
 21
-324.8450959603767
 31
0.0
  0
LINE
  5
222
330
1F
100
AcDbEntity
  8
0-0
  6
Continuous
 62
     3
370
     9
100
AcDbLine
 10
-231.3655702284472
 20
-334.8450052324417
 30
0.0
 11
-284.6992444788694
 21
-334.8450052324417
 31
0.0
  0
LINE
  5
223
330
1F
100
AcDbEntity
  8
0-0
  6
JWW_CENTER1
 62
     3
370
     9
100
AcDbLine
 10
-224.7820625875055
 20
-319.5427080011284
 30
0.0
 11
-224.7820625875055
 21
-337.2430682735102
 31
0.0
  0
LINE
  5
224
330
1F
100
AcDbEntity
  8
0-0
  6
JWW_HOJO
 62
     3
370
     9
100
AcDbLine
 10
-6.887791974118702
 20
-324.8450959603767
 30
0.0
 11
-4.797915232142262
 21
-293.8450926611791
 31
0.0
  0
LINE
  5
225
330
1F
100
AcDbEntity
  8
0-0
  6
Continuous
 62
     3
370
     9
100
AcDbLine
 10
-12.28198010756467
 20
-330.8450167796335
 30
0.0
 11
-18.99205321778419
 21
-330.8450167796335
 31
0.0
  0
LINE
  5
226
330
1F
100
AcDbEntity
  8
0-8
  6
Continuous
 62
     4
370
     9
100
AcDbLine
 10
5.218077628393925
 20
-304.8451536963353
 30
0.0
 11
1.217965455674399
 21
-304.8451536963353
 31
0.0
  0
LINE
  5
227
330
1F
100
AcDbEntity
  8
0-8
  6
Continuous
 62
     4
370
     9
100
AcDbLine
 10
5.218077628393925
 20
-284.8449639924713
 30
0.0
 11
5.218077628393925
 21
-304.8451536963353
 31
0.0
  0
LINE
  5
228
330
1F
100
AcDbEntity
  8
0-8
  6
Continuous
 62
     4
370
     9
100
AcDbLine
 10
5.218077628393925
 20
-284.8449639924713
 30
0.0
 11
1.217965455674399
 21
-284.8449639924713
 31
0.0
  0
LINE
  5
229
330
1F
100
AcDbEntity
  8
0-8
  6
Continuous
 62
     4
370
     9
100
AcDbLine
 10
1.217965455674399
 20
-284.8449639924713
 30
0.0
 11
1.217965455674399
 21
-304.8451536963353
 31
0.0
  0
LINE
  5
22A
330
1F
100
AcDbEntity
  8
0-0
  6
JWW_HOJO
 62
     3
370
     9
100
AcDbLine
 10
-16.12298847432976
 20
-340.3449738900642
 30
0.0
 11
-18.28202464673277
 21
-330.8450167796335
 31
0.0
  0
LINE
  5
22B
330
1F
100
AcDbEntity
  8
0-0
  6
Continuous
 62
     3
370
     9
100
AcDbLine
 10
-6.782011449942136
 20
-305.3451058579696
 30
0.0
 11
-36.78211042587117
 21
-305.3451058579696
 31
0.0
  0
LINE
  5
22C
330
1F
100
AcDbEntity
  8
0-0
  6
Continuous
 62
     3
370
     9
100
AcDbLine
 10
-6.782011449942136
 20
-295.3449491460819
 30
0.0
 11
-36.78211042587117
 21
-295.3449491460819
 31
0.0
  0
LINE
  5
22D
330
1F
100
AcDbEntity
  8
0-0
  6
Continuous
 62
     3
370
     9
100
AcDbLine
 10
-51.4007314272437
 20
-332.8449491460819
 30
0.0
 11
-46.78201969793628
 21
-324.8450959603767
 31
0.0
  0
LINE
  5
22E
330
1F
100
AcDbEntity
  8
0-0
  6
Continuous
 62
     3
370
     9
100
AcDbLine
 10
-51.80962573414826
 20
-333.4269276089198
 30
0.0
 11
-57.10236354031375
 21
-334.8450052324417
 31
0.0
  0
LINE
  5
22F
330
1F
100
AcDbEntity
  8
0-0
  6
Continuous
 62
     3
370
     9
100
AcDbLine
 10
-18.99205321778419
 20
-330.8450167796335
 30
0.0
 11
-47.76992318980697
 21
-338.5559839724122
 31
0.0
  0
LINE
  5
230
330
1F
100
AcDbEntity
  8
0-0
  6
JWW_DASHED1
 62
     3
370
     9
100
AcDbLine
 10
-47.76992318980697
 20
-338.5559839724122
 30
0.0
 11
-56.31241190655112
 21
-340.8450497716098
 31
0.0
  0
LINE
  5
231
330
1F
100
AcDbEntity
  8
0-0
  6
Continuous
 62
     3
370
     9
100
AcDbLine
 10
-40.71974404337547
 20
-326.3449524452795
 30
0.0
 11
-47.9366976302631
 21
-338.84499368525
 31
0.0
  0
LINE
  5
232
330
1F
100
AcDbEntity
  8
0-0
  6
Continuous
 62
     3
370
     9
100
AcDbLine
 10
-6.782011449942136
 20
-314.3449870868548
 30
0.0
 11
-6.782011449942136
 21
-305.3451058579696
 31
0.0
  0
LINE
  5
233
330
1F
100
AcDbEntity
  8
0-0
  6
Continuous
 62
     3
370
     9
100
AcDbLine
 10
-32.78199825315164
 20
-318.3450992595743
 30
0.0
 11
-10.78199990275047
 21
-318.3450992595743
 31
0.0
  0
LINE
  5
234
330
1F
100
AcDbEntity
  8
0-0
  6
Continuous
 62
     3
370
     9
100
AcDbLine
 10
-36.78211042587117
 20
-314.3449870868548
 30
0.0
 11
-36.78211042587117
 21
-305.3451058579696
 31
0.0
  0
LINE
  5
235
330
1F
100
AcDbEntity
  8
0-0
  6
Continuous
 62
     3
370
     9
100
AcDbLine
 10
-28.28193391879774
 20
-318.3450992595743
 30
0.0
 11
-28.28193391879774
 21
-324.3450200788311
 31
0.0
  0
LINE
  5
236
330
1F
100
AcDbEntity
  8
0-0
  6
Continuous
 62
     3
370
     9
100
AcDbLine
 10
-15.28206423710438
 20
-318.3450992595743
 30
0.0
 11
-15.28206423710438
 21
-324.3450200788311
 31
0.0
  0
LINE
  5
237
330
1F
100
AcDbEntity
  8
0-0
  6
JWW_HOJO
 62
     3
370
     9
100
AcDbLine
 10
-44.36638842946076
 20
-293.8450926611791
 30
0.0
 11
1.217965455674399
 21
-293.8450926611791
 31
0.0
  0
LINE
  5
238
330
1F
100
AcDbEntity
  8
0-0
  6
JWW_CENTER1
 62
     3
370
     9
100
AcDbLine
 10
-21.78206093790672
 20
-281.9167611314071
 30
0.0
 11
-21.78206093790672
 21
-328.0470909851866
 31
0.0
  0
LINE
  5
239
330
1F
100
AcDbEntity
  8
0-0
  6
JWW_HOJO
 62
     3
370
     9
100
AcDbLine
 10
-6.887791974118702
 20
-324.8450959603767
 30
0.0
 11
-11.70965179780959
 21
-324.8450959603767
 31
0.0
  0
LINE
  5
23A
330
1F
100
AcDbEntity
  8
0-0
  6
Continuous
 62
     3
370
     9
100
AcDbLine
 10
-0.5607557093382276
 20
-337.1094507692872
 30
0.0
 11
5.218077628393925
 21
-304.8451536963353
 31
0.0
  0
LINE
  5
23B
330
1F
100
AcDbEntity
  8
0-0
  6
Continuous
 62
     3
370
     9
100
AcDbLine
 10
-8.004116733937057
 20
-337.1106879684003
 30
0.0
 11
-9.709595711449825
 21
-327.6364645995237
 31
0.0
  0
LINE
  5
23C
330
1F
100
AcDbEntity
  8
0-0
  6
Continuous
 62
     3
370
     9
100
AcDbLine
 10
-10.12393369445229
 20
-337.3194034587931
 30
0.0
 11
-12.28198010756467
 21
-330.8450167796335
 31
0.0
  0
LINE
  5
23D
330
1F
100
AcDbEntity
  8
0-0
  6
Continuous
 62
     3
370
     9
100
AcDbLine
 10
-7.042689303088228
 20
-339.2571047098488
 30
0.0
 11
-6.782011449942136
 21
-338.3449178037044
 31
0.0
  0
LINE
  5
23E
330
1F
100
AcDbEntity
  8
0-0
  6
Continuous
 62
     3
370
     9
100
AcDbLine
 10
-39.92558593262794
 20
-340.3449738900642
 30
0.0
 11
-8.484892309317136
 21
-340.3449738900642
 31
0.0
  0
LINE
  5
23F
330
1F
100
AcDbEntity
  8
0-0
  6
Continuous
 62
     3
370
     9
100
AcDbLine
 10
-41.3882027242243
 20
-339.1774290869603
 30
0.0
 11
-41.88753628630189
 21
-336.9799160221377
 31
0.0
  0
LINE
  5
240
330
1F
100
AcDbEntity
  8
0-0
  6
Continuous
 62
     3
370
     9
100
AcDbLine
 10
-2.184208385647342
 20
-338.3449178037044
 30
0.0
 11
-8.70090727447769
 21
-338.3449178037044
 31
0.0
  0
LINE
  5
241
330
1F
100
AcDbEntity
  8
0-0
  6
JWW_HOJO
 62
     3
370
     9
100
AcDbLine
 10
-0.6876923383500788
 20
-336.9460167664366
 30
0.0
 11
1.476416350416851
 21
-304.8451536963353
 31
0.0
  0
LINE
  5
242
330
1F
100
AcDbEntity
  8
0-0
  6
Continuous
 62
     3
370
     9
100
AcDbLine
 10
1.217965455674399
 20
-293.8450926611791
 30
0.0
 11
0.4178687891836397
 21
-287.845048122011
 31
0.0
  0
LINE
  5
243
330
1F
100
AcDbEntity
  8
0-0
  6
Continuous
 62
     3
370
     9
100
AcDbLine
 10
-43.89885088459161
 20
-287.845048122011
 30
0.0
 11
-46.78201969793628
 21
-324.8450959603767
 31
0.0
  0
LINE
  5
244
330
1F
100
AcDbEntity
  8
0-0
  6
Continuous
 62
     3
370
     9
100
AcDbLine
 10
-36.78211042587117
 20
-287.845048122011
 30
0.0
 11
-36.78211042587117
 21
-295.3449491460819
 31
0.0
  0
LINE
  5
245
330
1F
100
AcDbEntity
  8
0-0
  6
Continuous
 62
     3
370
     9
100
AcDbLine
 10
-6.782011449942136
 20
-287.845048122011
 30
0.0
 11
-6.782011449942136
 21
-295.3449491460819
 31
0.0
  0
LINE
  5
246
330
1F
100
AcDbEntity
  8
0-A
  6
Continuous
 62
     7
370
     9
100
AcDbLine
 10
-44.03209722908068
 20
-284.8449639924713
 30
0.0
 11
-44.03209722908068
 21
-287.845048122011
 31
0.0
  0
LINE
  5
247
330
1F
100
AcDbEntity
  8
0-A
  6
Continuous
 62
     7
370
     9
100
AcDbLine
 10
0.4679753532672315
 20
-284.8449639924713
 30
0.0
 11
0.4679753532672315
 21
-287.845048122011
 31
0.0
  0
LINE
  5
248
330
1F
100
AcDbEntity
  8
0-A
  6
Continuous
 62
     7
370
     9
100
AcDbLine
 10
-11.03203784352326
 20
-293.3450167796335
 30
0.0
 11
-11.53211372506883
 21
-284.8449639924713
 31
0.0
  0
LINE
  5
249
330
1F
100
AcDbEntity
  8
0-A
  6
Continuous
 62
     7
370
     9
100
AcDbLine
 10
0.4679753532672315
 20
-287.845048122011
 30
0.0
 11
-8.782067536301899
 21
-287.845048122011
 31
0.0
  0
LINE
  5
24A
330
1F
100
AcDbEntity
  8
0-A
  6
Continuous
 62
     7
370
     9
100
AcDbLine
 10
-8.782067536301899
 20
-287.845048122011
 30
0.0
 11
-8.782067536301899
 21
-293.3450167796335
 31
0.0
  0
LINE
  5
24B
330
1F
100
AcDbEntity
  8
0-A
  6
Continuous
 62
     7
370
     9
100
AcDbLine
 10
-32.53196031237886
 20
-293.3450167796335
 30
0.0
 11
-32.0321318706558
 21
-284.8449639924713
 31
0.0
  0
LINE
  5
24C
330
1F
100
AcDbEntity
  8
0-A
  6
Continuous
 62
     7
370
     9
100
AcDbLine
 10
-44.03209722908068
 20
-287.845048122011
 30
0.0
 11
-34.7820543395114
 21
-287.845048122011
 31
0.0
  0
LINE
  5
24D
330
1F
100
AcDbEntity
  8
0-A
  6
Continuous
 62
     7
370
     9
100
AcDbLine
 10
-34.7820543395114
 20
-287.845048122011
 30
0.0
 11
-34.7820543395114
 21
-293.3450167796335
 31
0.0
  0
LINE
  5
24E
330
1F
100
AcDbEntity
  8
0-A
  6
Continuous
 62
     7
370
     9
100
AcDbLine
 10
-8.782067536301899
 20
-293.3450167796335
 30
0.0
 11
-34.7820543395114
 21
-293.3450167796335
 31
0.0
  0
LINE
  5
24F
330
1F
100
AcDbEntity
  8
0-A
  6
Continuous
 62
     7
370
     9
100
AcDbLine
 10
-11.78190422601896
 20
-287.845048122011
 30
0.0
 11
-31.78197020997169
 21
-287.845048122011
 31
0.0
  0
LINE
  5
250
330
1F
100
AcDbEntity
  8
0-A
  6
Continuous
 62
     7
370
     9
100
AcDbLine
 10
-11.78190422601896
 20
-284.8449639924713
 30
0.0
 11
-11.78190422601896
 21
-287.845048122011
 31
0.0
  0
LINE
  5
251
330
1F
100
AcDbEntity
  8
0-A
  6
Continuous
 62
     7
370
     9
100
AcDbLine
 10
-31.78197020997169
 20
-284.8449639924713
 30
0.0
 11
-31.78197020997169
 21
-287.845048122011
 31
0.0
  0
LINE
  5
252
330
1F
100
AcDbEntity
  8
0-9
  6
Continuous
 62
     6
370
     5
100
AcDbLine
 10
-14.1320876614075
 20
-324.3450200788311
 30
0.0
 11
-14.1320876614075
 21
-325.3449244020997
 31
0.0
  0
LINE
  5
253
330
1F
100
AcDbEntity
  8
0-9
  6
Continuous
 62
     6
370
     5
100
AcDbLine
 10
-14.1320876614075
 20
-325.3449244020997
 30
0.0
 11
-29.43191049449448
 21
-325.3449244020997
 31
0.0
  0
LINE
  5
254
330
1F
100
AcDbEntity
  8
0-9
  6
Continuous
 62
     6
370
     5
100
AcDbLine
 10
-29.43191049449448
 20
-324.3450200788311
 30
0.0
 11
-29.43191049449448
 21
-325.3449244020997
 31
0.0
  0
LINE
  5
255
330
1F
100
AcDbEntity
  8
0-9
  6
Continuous
 62
     6
370
     5
100
AcDbLine
 10
-15.33204708127665
 20
-318.3450992595743
 30
0.0
 11
-15.33204708127665
 21
-324.3450200788311
 31
0.0
  0
LINE
  5
256
330
1F
100
AcDbEntity
  8
0-9
  6
Continuous
 62
     6
370
     5
100
AcDbLine
 10
-28.23195107462547
 20
-318.3450992595743
 30
0.0
 11
-28.23195107462547
 21
-324.3450200788311
 31
0.0
  0
LINE
  5
257
330
1F
100
AcDbEntity
  8
0-9
  6
Continuous
 62
     6
370
     5
100
AcDbLine
 10
-27.23204675135685
 20
-319.3450035828429
 30
0.0
 11
-16.33195140454527
 21
-319.3450035828429
 31
0.0
  0
LINE
  5
258
330
1F
100
AcDbEntity
  8
0-9
  6
Continuous
 62
     6
370
     5
100
AcDbLine
 10
-16.33195140454527
 20
-319.3450035828429
 30
0.0
 11
-16.33195140454527
 21
-325.3449244020997
 31
0.0
  0
LINE
  5
259
330
1F
100
AcDbEntity
  8
0-9
  6
Continuous
 62
     6
370
     5
100
AcDbLine
 10
-27.23204675135685
 20
-319.3450035828429
 30
0.0
 11
-27.23204675135685
 21
-325.3449244020997
 31
0.0
  0
LINE
  5
25A
330
1F
100
AcDbEntity
  8
0-0
  6
Continuous
 62
     3
370
     9
100
AcDbLine
 10
-28.23195107462547
 20
-324.3450200788311
 30
0.0
 11
-37.25571024639487
 21
-324.3450200788311
 31
0.0
  0
LINE
  5
25B
330
1F
100
AcDbEntity
  8
0-0
  6
Continuous
 62
     3
370
     9
100
AcDbLine
 10
-13.6462395696635
 20
-324.3450200788311
 30
0.0
 11
-15.33204708127665
 21
-324.3450200788311
 31
0.0
  0
LINE
  5
25C
330
1F
100
AcDbEntity
  8
0-0
  6
JWW_DASHED1
 62
     3
370
     9
100
AcDbLine
 10
-11.70965179780959
 20
-324.8450959603767
 30
0.0
 11
-14.1320876614075
 21
-324.8450959603767
 31
0.0
  0
LINE
  5
25D
330
1F
100
AcDbEntity
  8
0-0
  6
JWW_DASHED1
 62
     3
370
     9
100
AcDbLine
 10
-29.43191049449448
 20
-324.8450959603767
 30
0.0
 11
-46.78201969793628
 21
-324.8450959603767
 31
0.0
  0
LINE
  5
25E
330
1F
100
AcDbEntity
  8
0-0
  6
JWW_HOJO
 62
     3
370
     9
100
AcDbLine
 10
-14.1320876614075
 20
-324.8450959603767
 30
0.0
 11
-29.43191049449448
 21
-324.8450959603767
 31
0.0
  0
LINE
  5
25F
330
1F
100
AcDbEntity
  8
0-0
  6
JWW_HOJO
 62
     3
370
     9
100
AcDbLine
 10
-19.78200485154696
 20
-324.8450959603767
 30
0.0
 11
-21.64782483412717
 21
-325.3449244020997
 31
0.0
  0
LINE
  5
260
330
1F
100
AcDbEntity
  8
0-0
  6
JWW_DASHED1
 62
     3
370
     9
100
AcDbLine
 10
-21.64782483412717
 20
-325.3449244020997
 30
0.0
 11
-51.80962573414826
 21
-333.4269276089198
 31
0.0
  0
LINE
  5
261
330
1F
100
AcDbEntity
  8
0-8
  6
Continuous
 62
     4
370
     9
100
AcDbLine
 10
10.21809412438222
 20
-304.8451536963353
 30
0.0
 11
6.217981951662548
 21
-304.8451536963353
 31
0.0
  0
LINE
  5
262
330
1F
100
AcDbEntity
  8
0-8
  6
Continuous
 62
     4
370
     9
100
AcDbLine
 10
10.21809412438222
 20
-284.8449639924713
 30
0.0
 11
10.21809412438222
 21
-304.8451536963353
 31
0.0
  0
LINE
  5
263
330
1F
100
AcDbEntity
  8
0-8
  6
Continuous
 62
     4
370
     9
100
AcDbLine
 10
10.21809412438222
 20
-284.8449639924713
 30
0.0
 11
6.217981951662548
 21
-284.8449639924713
 31
0.0
  0
LINE
  5
264
330
1F
100
AcDbEntity
  8
0-8
  6
Continuous
 62
     4
370
     9
100
AcDbLine
 10
6.217981951662548
 20
-284.8449639924713
 30
0.0
 11
6.217981951662548
 21
-304.8451536963353
 31
0.0
  0
LINE
  5
265
330
1F
100
AcDbEntity
  8
0-1
  6
JWW_HOJO
 62
     2
370
     9
100
AcDbLine
 10
45.21796215647674
 20
-349.8450547204062
 30
0.0
 11
44.21805783320812
 21
-340.8450497716098
 31
0.0
  0
LINE
  5
266
330
1F
100
AcDbEntity
  8
0-1
  6
JWW_HOJO
 62
     2
370
     9
100
AcDbLine
 10
34.21790112132049
 20
-340.8450497716098
 30
0.0
 11
32.21809247478339
 21
-343.8451339011496
 31
0.0
  0
LINE
  5
267
330
1F
100
AcDbEntity
  8
0-1
  6
Continuous
 62
     2
370
     9
100
AcDbLine
 10
-8.48217047126818
 20
-340.3452213298868
 30
0.0
 11
-13.91842337456206
 21
-340.3452213298868
 31
0.0
  0
LINE
  5
268
330
1F
100
AcDbEntity
  8
0-1
  6
Continuous
 62
     2
370
     9
100
AcDbLine
 10
-14.78211207547
 20
-349.8450547204062
 30
0.0
 11
-13.91842337456206
 21
-340.3452213298868
 31
0.0
  0
LINE
  5
269
330
1F
100
AcDbEntity
  8
0-1
  6
JWW_HOJO
 62
     2
370
     9
100
AcDbLine
 10
23.23516087374875
 20
-343.8451339011496
 30
0.0
 11
32.21809247478339
 21
-343.8451339011496
 31
0.0
  0
LINE
  5
26A
330
1F
100
AcDbEntity
  8
0-1
  6
Continuous
 62
     2
370
     9
100
AcDbLine
 10
3.700776635995364
 20
-343.8451339011496
 30
0.0
 11
-6.142379508430285
 21
-343.8451339011496
 31
0.0
  0
LINE
  5
26B
330
1F
100
AcDbEntity
  8
0-1
  6
Continuous
 62
     2
370
     9
100
AcDbLine
 10
-8.10334010281375
 20
-342.2373936535777
 30
0.0
 11
-8.48217047126818
 21
-340.3452213298868
 31
0.0
  0
LINE
  5
26C
330
1F
100
AcDbEntity
  8
0-1
  6
JWW_DASHED1
 62
     2
370
     9
100
AcDbLine
 10
7.693713053858513
 20
-340.084667196652
 30
0.0
 11
9.807962618364368
 21
-304.8451536963353
 31
0.0
  0
LINE
  5
26D
330
1F
100
AcDbEntity
  8
0-1
  6
Continuous
 62
     2
370
     9
100
AcDbLine
 10
16.4681766043231
 20
-293.8450926611791
 30
0.0
 11
10.21809412438222
 21
-293.8450926611791
 31
0.0
  0
LINE
  5
26E
330
1F
100
AcDbEntity
  8
0-B
  6
Continuous
 62
     4
370
     9
100
AcDbLine
 10
22.71788792453
 20
-334.8450052324417
 30
0.0
 11
92.71799514845318
 21
-334.8450052324417
 31
0.0
  0
LINE
  5
26F
330
1F
100
AcDbEntity
  8
0-B
  6
Continuous
 62
     4
370
     9
100
AcDbLine
 10
42.40803553063222
 20
-330.155278274038
 30
0.0
 11
42.40803553063222
 21
-334.8450052324417
 31
0.0
  0
LINE
  5
270
330
1F
100
AcDbEntity
  8
0-B
  6
Continuous
 62
     4
370
     9
100
AcDbLine
 10
29.62294361498598
 20
-329.5450916714198
 30
0.0
 11
40.8130384339261
 21
-329.5450916714198
 31
0.0
  0
LINE
  5
271
330
1F
100
AcDbEntity
  8
0-B
  6
Continuous
 62
     4
370
     9
100
AcDbLine
 10
28.02807023819133
 20
-330.155278274038
 30
0.0
 11
28.02807023819133
 21
-334.8450052324417
 31
0.0
  0
LINE
  5
272
330
1F
100
AcDbEntity
  8
0-B
  6
JWW_HOJO
 62
     4
370
     9
100
AcDbLine
 10
31.21806443160343
 20
-354.1686944612213
 30
0.0
 11
39.21779389739731
 21
-354.1686944612213
 31
0.0
  0
LINE
  5
273
330
1F
100
AcDbEntity
  8
0-B
  6
JWW_HOJO
 62
     4
370
     9
100
AcDbLine
 10
39.21779389739731
 20
-354.1686944612213
 30
0.0
 11
38.54154086213561
 21
-354.8451949363058
 31
0.0
  0
LINE
  5
274
330
1F
100
AcDbEntity
  8
0-B
  6
JWW_HOJO
 62
     4
370
     9
100
AcDbLine
 10
38.54154086213561
 20
-354.8451949363058
 30
0.0
 11
31.89456490668794
 21
-354.8451949363058
 31
0.0
  0
LINE
  5
275
330
1F
100
AcDbEntity
  8
0-B
  6
JWW_HOJO
 62
     4
370
     9
100
AcDbLine
 10
31.89456490668794
 20
-354.8451949363058
 30
0.0
 11
31.21806443160343
 21
-354.1686944612213
 31
0.0
  0
LINE
  5
276
330
1F
100
AcDbEntity
  8
0-9
  6
Continuous
 62
     6
370
     5
100
AcDbLine
 10
-6.782011449942136
 20
-338.3449178037044
 30
0.0
 11
3.218021542034162
 21
-338.3449178037044
 31
0.0
  0
LINE
  5
277
330
1F
100
AcDbEntity
  8
0-9
  6
Continuous
 62
     6
370
     5
100
AcDbLine
 10
3.218021542034162
 20
-338.3449178037044
 30
0.0
 11
3.218021542034162
 21
-342.9538556600178
 31
0.0
  0
LINE
  5
278
330
1F
100
AcDbEntity
  8
0-9
  6
Continuous
 62
     6
370
     5
100
AcDbLine
 10
-6.782011449942136
 20
-338.3449178037044
 30
0.0
 11
-6.782011449942136
 21
-343.7400956964409
 31
0.0
  0
LINE
  5
279
330
1F
100
AcDbEntity
  8
0-1
  6
Continuous
 62
     2
370
     9
100
AcDbLine
 10
50.21797865246489
 20
-340.8450497716098
 30
0.0
 11
51.71795885727909
 21
-349.8450547204062
 31
0.0
  0
LINE
  5
27A
330
1F
100
AcDbEntity
  8
0-1
  6
Continuous
 62
     2
370
     9
100
AcDbLine
 10
19.06221198491854
 20
-337.0845830671124
 30
0.0
 11
16.4681766043231
 21
-293.8450926611791
 31
0.0
  0
LINE
  5
27B
330
1F
100
AcDbEntity
  8
0-1
  6
JWW_HOJO
 62
     2
370
     9
100
AcDbLine
 10
19.24234817579693
 20
-340.084667196652
 30
0.0
 11
19.06221198491854
 21
-337.0847067870237
 31
0.0
  0
LINE
  5
27C
330
1F
100
AcDbEntity
  8
0-1
  6
Continuous
 62
     2
370
     9
100
AcDbLine
 10
42.21800174684836
 20
-340.8450497716098
 30
0.0
 11
40.71802154203417
 21
-349.8450547204062
 31
0.0
  0
LINE
  5
27D
330
1F
100
AcDbEntity
  8
0-1
  6
Continuous
 62
     2
370
     9
100
AcDbLine
 10
28.21785658215239
 20
-340.8450497716098
 30
0.0
 11
29.71796050687791
 21
-349.8450547204062
 31
0.0
  0
LINE
  5
27E
330
1F
100
AcDbEntity
  8
0-B
  6
Continuous
 62
     4
370
     9
100
AcDbLine
 10
92.71799514845318
 20
-334.8450052324417
 30
0.0
 11
92.71799514845318
 21
-340.8450497716098
 31
0.0
  0
LINE
  5
27F
330
1F
100
AcDbEntity
  8
0-B
  6
Continuous
 62
     4
370
     9
100
AcDbLine
 10
22.71788792453
 20
-334.8450052324417
 30
0.0
 11
22.71788792453
 21
-340.8450497716098
 31
0.0
  0
LINE
  5
280
330
1F
100
AcDbEntity
  8
0-1
  6
JWW_CENTER1
 62
     2
370
     9
100
AcDbLine
 10
35.21792916450045
 20
-327.2554072726655
 30
0.0
 11
35.21792916450045
 21
-356.7038391640295
 31
0.0
  0
LINE
  5
281
330
1F
100
AcDbEntity
  8
0-B
  6
Continuous
 62
     4
370
     9
100
AcDbLine
 10
30.71798855005786
 20
-334.8450052324417
 30
0.0
 11
30.71798855005786
 21
-340.8450497716098
 31
0.0
  0
LINE
  5
282
330
1F
100
AcDbEntity
  8
0-B
  6
Continuous
 62
     4
370
     9
100
AcDbLine
 10
39.71786977894303
 20
-334.8450052324417
 30
0.0
 11
39.71786977894303
 21
-340.8450497716098
 31
0.0
  0
LINE
  5
283
330
1F
100
AcDbEntity
  8
0-1
  6
Continuous
 62
     2
370
     9
100
AcDbLine
 10
23.05514840278169
 20
-340.8450497716098
 30
0.0
 11
31.21806443160343
 21
-340.8450497716098
 31
0.0
  0
LINE
  5
284
330
1F
100
AcDbEntity
  8
0-1
  6
Continuous
 62
     2
370
     9
100
AcDbLine
 10
39.21779389739731
 20
-340.8450497716098
 30
0.0
 11
50.21797865246489
 21
-340.8450497716098
 31
0.0
  0
LINE
  5
285
330
1F
100
AcDbEntity
  8
0-B
  6
Continuous
 62
     4
370
     9
100
AcDbLine
 10
92.71799514845318
 20
-340.8450497716098
 30
0.0
 11
39.21779389739731
 21
-340.8450497716098
 31
0.0
  0
LINE
  5
286
330
1F
100
AcDbEntity
  8
0-B
  6
Continuous
 62
     4
370
     9
100
AcDbLine
 10
31.21806443160343
 20
-340.8450497716098
 30
0.0
 11
22.71788792453
 21
-340.8450497716098
 31
0.0
  0
LINE
  5
287
330
1F
100
AcDbEntity
  8
0-C
  6
Continuous
 62
     2
370
     9
100
AcDbLine
 10
42.71807762839393
 20
-355.6233931784933
 30
0.0
 11
42.71807762839393
 21
-349.8450547204062
 31
0.0
  0
LINE
  5
288
330
1F
100
AcDbEntity
  8
0-C
  6
Continuous
 62
     2
370
     9
100
AcDbLine
 10
27.71802814042948
 20
-355.6233931784933
 30
0.0
 11
27.71802814042948
 21
-349.8450547204062
 31
0.0
  0
LINE
  5
289
330
1F
100
AcDbEntity
  8
0-C
  6
Continuous
 62
     2
370
     9
100
AcDbLine
 10
42.71807762839393
 20
-349.8450547204062
 30
0.0
 11
27.71802814042948
 21
-349.8450547204062
 31
0.0
  0
LINE
  5
28A
330
1F
100
AcDbEntity
  8
0-C
  6
Continuous
 62
     2
370
     9
100
AcDbLine
 10
38.9651578384869
 20
-355.6233931784933
 30
0.0
 11
38.9651578384869
 21
-349.8450547204062
 31
0.0
  0
LINE
  5
28B
330
1F
100
AcDbEntity
  8
0-C
  6
Continuous
 62
     2
370
     9
100
AcDbLine
 10
31.47070049051399
 20
-355.6233931784933
 30
0.0
 11
31.47070049051399
 21
-349.8450547204062
 31
0.0
  0
LINE
  5
28C
330
1F
100
AcDbEntity
  8
0-C
  6
Continuous
 62
     2
370
     9
100
AcDbLine
 10
40.84161773344042
 20
-356.3450514212087
 30
0.0
 11
29.59436431547166
 21
-356.3450514212087
 31
0.0
  0
LINE
  5
28D
330
1F
100
AcDbEntity
  8
0-B
  6
JWW_HOJO
 62
     4
370
     9
100
AcDbLine
 10
39.21779389739731
 20
-349.8450547204062
 30
0.0
 11
39.21779389739731
 21
-354.1686944612213
 31
0.0
  0
LINE
  5
28E
330
1F
100
AcDbEntity
  8
0-B
  6
JWW_HOJO
 62
     4
370
     9
100
AcDbLine
 10
38.54154086213561
 20
-349.8450547204062
 30
0.0
 11
38.54154086213561
 21
-354.8451949363058
 31
0.0
  0
LINE
  5
28F
330
1F
100
AcDbEntity
  8
0-B
  6
JWW_HOJO
 62
     4
370
     9
100
AcDbLine
 10
31.89456490668794
 20
-349.8450547204062
 30
0.0
 11
31.89456490668794
 21
-354.8451949363058
 31
0.0
  0
LINE
  5
290
330
1F
100
AcDbEntity
  8
0-B
  6
JWW_HOJO
 62
     4
370
     9
100
AcDbLine
 10
31.21806443160343
 20
-349.8450547204062
 30
0.0
 11
31.21806443160343
 21
-354.1686944612213
 31
0.0
  0
LINE
  5
291
330
1F
100
AcDbEntity
  8
0-B
  6
Continuous
 62
     4
370
     9
100
AcDbLine
 10
31.21806443160343
 20
-330.155278274038
 30
0.0
 11
31.21806443160343
 21
-349.8450547204062
 31
0.0
  0
LINE
  5
292
330
1F
100
AcDbEntity
  8
0-B
  6
Continuous
 62
     4
370
     9
100
AcDbLine
 10
31.89456490668794
 20
-334.8450052324417
 30
0.0
 11
31.89456490668794
 21
-349.8450547204062
 31
0.0
  0
LINE
  5
293
330
1F
100
AcDbEntity
  8
0-B
  6
Continuous
 62
     4
370
     9
100
AcDbLine
 10
38.54154086213561
 20
-334.8450052324417
 30
0.0
 11
38.54154086213561
 21
-349.8450547204062
 31
0.0
  0
LINE
  5
294
330
1F
100
AcDbEntity
  8
0-B
  6
Continuous
 62
     4
370
     9
100
AcDbLine
 10
39.21779389739731
 20
-330.155278274038
 30
0.0
 11
39.21779389739731
 21
-349.8450547204062
 31
0.0
  0
LINE
  5
295
330
1F
100
AcDbEntity
  8
0-1
  6
JWW_HOJO
 62
     2
370
     9
100
AcDbLine
 10
34.21790112132049
 20
-340.8450497716098
 30
0.0
 11
39.21779389739731
 21
-340.8450497716098
 31
0.0
  0
LINE
  5
296
330
1F
100
AcDbEntity
  8
0-0
  6
Continuous
 62
     3
370
     9
100
AcDbLine
 10
-118.3986512831347
 20
-332.2900653438227
 30
0.0
 11
-117.2819553635824
 21
-324.8450959603767
 31
0.0
  0
LINE
  5
297
330
1F
100
AcDbEntity
  8
0-0
  6
Continuous
 62
     3
370
     9
100
AcDbLine
 10
-111.1652429480419
 20
-332.2900653438227
 30
0.0
 11
-112.2819388675942
 21
-324.8450959603767
 31
0.0
  0
LINE
  5
298
330
1F
100
AcDbEntity
  8
0-0
  6
Continuous
 62
     3
370
     9
100
AcDbLine
 10
-108.1985631945579
 20
-334.8450052324417
 30
0.0
 11
-54.86501266404696
 21
-334.8450052324417
 31
0.0
  0
LINE
  5
299
330
1F
100
AcDbEntity
  8
0-0
  6
JWW_CENTER1
 62
     3
370
     9
100
AcDbLine
 10
-114.7820708354996
 20
-319.5427080011284
 30
0.0
 11
-114.7820708354996
 21
-337.2430682735102
 31
0.0
  0
LINE
  5
29A
330
1F
100
AcDbEntity
  8
0-9
  6
Continuous
 62
     6
370
     5
100
AcDbLine
 10
-342.782031245128
 20
-338.3449178037044
 30
0.0
 11
-342.782031245128
 21
-342.9538556600178
 31
0.0
  0
LINE
  5
29B
330
1F
100
AcDbEntity
  8
0-1
  6
Continuous
 62
     2
370
     9
100
AcDbLine
 10
-344.2577623473239
 20
-340.084667196652
 30
0.0
 11
-346.3720119118298
 21
-304.8451536963353
 31
0.0
  0
LINE
  5
29C
330
1F
100
AcDbEntity
  8
0-1
  6
Continuous
 62
     2
370
     9
100
AcDbLine
 10
4.693752644230127
 20
-340.084667196652
 30
0.0
 11
6.808002208735981
 21
-304.8451536963353
 31
0.0
  0
LINE
  5
29D
330
1F
100
AcDbEntity
  8
0-1
  6
Continuous
 62
     2
370
     9
100
AcDbLine
 10
-384.7819718595706
 20
-349.8450547204062
 30
0.0
 11
-139.3894663169186
 21
-349.8450547204062
 31
0.0
  0
LINE
  5
29E
330
1F
100
AcDbEntity
  8
0-1
  6
Continuous
 62
     2
370
     9
100
AcDbLine
 10
-384.7819718595706
 20
-349.8450547204062
 30
0.0
 11
-383.782067536302
 21
-340.8450497716098
 31
0.0
  0
LINE
  5
29F
330
1F
100
AcDbEntity
  8
0-1
  6
Continuous
 62
     2
370
     9
100
AcDbLine
 10
-373.7820345443256
 20
-340.8450497716098
 30
0.0
 11
-383.782067536302
 21
-340.8450497716098
 31
0.0
  0
LINE
  5
2A0
330
1F
100
AcDbEntity
  8
0-1
  6
Continuous
 62
     2
370
     9
100
AcDbLine
 10
-358.806481598802
 20
-340.084667196652
 30
0.0
 11
-356.0320625875055
 21
-293.8450926611791
 31
0.0
  0
LINE
  5
2A1
330
1F
100
AcDbEntity
  8
0-0
  6
Continuous
 62
     3
370
     9
100
AcDbLine
 10
-46.78201969793628
 20
-324.8450959603767
 30
0.0
 11
-135.8446434178476
 21
-324.8450959603767
 31
0.0
  0
LINE
  5
2A2
330
1F
100
AcDbEntity
  8
0-1
  6
Continuous
 62
     2
370
     9
100
AcDbLine
 10
51.71795885727909
 20
-349.8450547204062
 30
0.0
 11
-135.8446434178476
 21
-349.8450547204062
 31
0.0
  0
LINE
  5
2A3
330
1F
100
AcDbEntity
  8
0-0
  6
Continuous
 62
     3
370
     9
100
AcDbLine
 10
-295.197621273633
 20
-293.8450926611791
 30
0.0
 11
-44.36638842946076
 21
-293.8450926611791
 31
0.0
  0
LINE
  5
2A4
330
1F
100
AcDbEntity
  8
0-9
  6
Continuous
 62
     6
370
     5
100
AcDbLine
 10
-333.025231598802
 20
-343.8451339011496
 30
0.0
 11
-332.7821219730629
 21
-343.6019005554991
 31
0.0
  0
LINE
  5
2A5
330
1F
100
AcDbEntity
  8
0-9
  6
Continuous
 62
     6
370
     5
100
AcDbLine
 10
-333.7324146118931
 20
-343.8451339011496
 30
0.0
 11
-332.7821219730629
 21
-342.8948412623192
 31
0.0
  0
LINE
  5
2A6
330
1F
100
AcDbEntity
  8
0-9
  6
Continuous
 62
     6
370
     5
100
AcDbLine
 10
-334.4395976249843
 20
-343.8451339011496
 30
0.0
 11
-332.7821219730629
 21
-342.187658249228
 31
0.0
  0
LINE
  5
2A7
330
1F
100
AcDbEntity
  8
0-9
  6
Continuous
 62
     6
370
     5
100
AcDbLine
 10
-335.1467806380756
 20
-343.8451339011496
 30
0.0
 11
-332.7821219730629
 21
-341.4805989560482
 31
0.0
  0
LINE
  5
2A8
330
1F
100
AcDbEntity
  8
0-9
  6
Continuous
 62
     6
370
     5
100
AcDbLine
 10
-335.8537162113442
 20
-343.8451339011496
 30
0.0
 11
-332.7821219730629
 21
-340.7735396628683
 31
0.0
  0
LINE
  5
2A9
330
1F
100
AcDbEntity
  8
0-9
  6
Continuous
 62
     6
370
     5
100
AcDbLine
 10
-336.5608992244354
 20
-343.8451339011496
 30
0.0
 11
-332.7821219730629
 21
-340.066356649777
 31
0.0
  0
LINE
  5
2AA
330
1F
100
AcDbEntity
  8
0-9
  6
Continuous
 62
     6
370
     5
100
AcDbLine
 10
-337.2679585176153
 20
-343.8451339011496
 30
0.0
 11
-332.7821219730629
 21
-339.3592973565972
 31
0.0
  0
LINE
  5
2AB
330
1F
100
AcDbEntity
  8
0-9
  6
Continuous
 62
     6
370
     5
100
AcDbLine
 10
-337.9750178107952
 20
-343.8451339011496
 30
0.0
 11
-332.7821219730629
 21
-338.6522380634173
 31
0.0
  0
LINE
  5
2AC
330
1F
100
AcDbEntity
  8
0-9
  6
Continuous
 62
     6
370
     5
100
AcDbLine
 10
-338.6822008238864
 20
-343.8451339011496
 30
0.0
 11
-333.1819847264413
 21
-338.3449178037044
 31
0.0
  0
LINE
  5
2AD
330
1F
100
AcDbEntity
  8
0-9
  6
Continuous
 62
     6
370
     5
100
AcDbLine
 10
-339.3892601170663
 20
-343.8451339011496
 30
0.0
 11
-333.8891677395326
 21
-338.3449178037044
 31
0.0
  0
LINE
  5
2AE
330
1F
100
AcDbEntity
  8
0-9
  6
Continuous
 62
     6
370
     5
100
AcDbLine
 10
-340.0963194102462
 20
-343.8451339011496
 30
0.0
 11
-334.5962270327124
 21
-338.3449178037044
 31
0.0
  0
LINE
  5
2AF
330
1F
100
AcDbEntity
  8
0-9
  6
Continuous
 62
     6
370
     5
100
AcDbLine
 10
-342.782031245128
 20
-342.2881188172179
 30
0.0
 11
-338.8388302316145
 21
-338.3449178037044
 31
0.0
  0
LINE
  5
2B0
330
1F
100
AcDbEntity
  8
0-9
  6
Continuous
 62
     6
370
     5
100
AcDbLine
 10
-342.782031245128
 20
-341.581059524038
 30
0.0
 11
-339.5460132447056
 21
-338.3449178037044
 31
0.0
  0
LINE
  5
2B1
330
1F
100
AcDbEntity
  8
0-9
  6
Continuous
 62
     6
370
     5
100
AcDbLine
 10
-342.782031245128
 20
-340.8740002308581
 30
0.0
 11
-340.2530725378855
 21
-338.3449178037044
 31
0.0
  0
LINE
  5
2B2
330
1F
100
AcDbEntity
  8
0-9
  6
Continuous
 62
     6
370
     5
100
AcDbLine
 10
-342.782031245128
 20
-340.1668172177669
 30
0.0
 11
-340.9601318310655
 21
-338.3449178037044
 31
0.0
  0
LINE
  5
2B3
330
1F
100
AcDbEntity
  8
0-9
  6
Continuous
 62
     6
370
     5
100
AcDbLine
 10
-342.782031245128
 20
-339.4597579245871
 30
0.0
 11
-341.6673148441567
 21
-338.3449178037044
 31
0.0
  0
LINE
  5
2B4
330
1F
100
AcDbEntity
  8
0-9
  6
Continuous
 62
     6
370
     5
100
AcDbLine
 10
-342.782031245128
 20
-338.7526986314071
 30
0.0
 11
-342.3743741373366
 21
-338.3449178037044
 31
0.0
  0
LINE
  5
2B5
330
1F
100
AcDbEntity
  8
0-9
  6
Continuous
 62
     6
370
     5
100
AcDbLine
 10
-342.7590193416229
 20
-342.9722899268041
 30
0.0
 11
-338.1317709384346
 21
-338.3449178037044
 31
0.0
  0
LINE
  5
2B6
330
1F
100
AcDbEntity
  8
0-9
  6
Continuous
 62
     6
370
     5
100
AcDbLine
 10
-342.3428255599506
 20
-343.2631554383116
 30
0.0
 11
-337.4247116452547
 21
-338.3449178037044
 31
0.0
  0
LINE
  5
2B7
330
1F
100
AcDbEntity
  8
0-9
  6
Continuous
 62
     6
370
     5
100
AcDbLine
 10
-341.8780098531305
 20
-343.5055227445828
 30
0.0
 11
-336.7175286321635
 21
-338.3449178037044
 31
0.0
  0
LINE
  5
2B8
330
1F
100
AcDbEntity
  8
0-9
  6
Continuous
 62
     6
370
     5
100
AcDbLine
 10
-341.3582625056854
 20
-343.6928346903176
 30
0.0
 11
-336.0104693389835
 21
-338.3449178037044
 31
0.0
  0
LINE
  5
2B9
330
1F
100
AcDbEntity
  8
0-9
  6
Continuous
 62
     6
370
     5
100
AcDbLine
 10
-340.7713352463949
 20
-343.8129667242069
 30
0.0
 11
-335.3034100458036
 21
-338.3449178037044
 31
0.0
  0
LINE
  5
2BA
330
1F
100
AcDbEntity
  8
0-9
  6
Continuous
 62
     6
370
     5
100
AcDbLine
 10
0.7289006462359815
 20
-343.8451339011496
 30
0.0
 11
3.218021542034162
 21
-341.3560130053514
 31
0.0
  0
LINE
  5
2BB
330
1F
100
AcDbEntity
  8
0-9
  6
Continuous
 62
     6
370
     5
100
AcDbLine
 10
0.0218413530561712
 20
-343.8451339011496
 30
0.0
 11
3.218021542034162
 21
-340.6488299922602
 31
0.0
  0
LINE
  5
2BC
330
1F
100
AcDbEntity
  8
0-9
  6
Continuous
 62
     6
370
     5
100
AcDbLine
 10
-0.6853416600351103
 20
-343.8451339011496
 30
0.0
 11
3.218021542034162
 21
-339.9417706990803
 31
0.0
  0
LINE
  5
2BD
330
1F
100
AcDbEntity
  8
0-9
  6
Continuous
 62
     6
370
     5
100
AcDbLine
 10
-1.39252467312625
 20
-343.8451339011496
 30
0.0
 11
3.218021542034162
 21
-339.2347114059003
 31
0.0
  0
LINE
  5
2BE
330
1F
100
AcDbEntity
  8
0-9
  6
Continuous
 62
     6
370
     5
100
AcDbLine
 10
-2.099583966306202
 20
-343.8451339011496
 30
0.0
 11
3.218021542034162
 21
-338.5275283928091
 31
0.0
  0
LINE
  5
2BF
330
1F
100
AcDbEntity
  8
0-9
  6
Continuous
 62
     6
370
     5
100
AcDbLine
 10
-2.806643259486012
 20
-343.8451339011496
 30
0.0
 11
2.693449118047706
 21
-338.3449178037044
 31
0.0
  0
LINE
  5
2C0
330
1F
100
AcDbEntity
  8
0-9
  6
Continuous
 62
     6
370
     5
100
AcDbLine
 10
-3.513826272577294
 20
-343.8451339011496
 30
0.0
 11
1.986266104956425
 21
-338.3449178037044
 31
0.0
  0
LINE
  5
2C1
330
1F
100
AcDbEntity
  8
0-9
  6
Continuous
 62
     6
370
     5
100
AcDbLine
 10
-4.221009285668575
 20
-343.8451339011496
 30
0.0
 11
1.279083091865285
 21
-338.3449178037044
 31
0.0
  0
LINE
  5
2C2
330
1F
100
AcDbEntity
  8
0-9
  6
Continuous
 62
     6
370
     5
100
AcDbLine
 10
-4.928068578848386
 20
-343.8451339011496
 30
0.0
 11
0.5721475185966618
 21
-338.3449178037044
 31
0.0
  0
LINE
  5
2C3
330
1F
100
AcDbEntity
  8
0-9
  6
Continuous
 62
     6
370
     5
100
AcDbLine
 10
-5.635251591939667
 20
-343.8451339011496
 30
0.0
 11
-0.1350354944944776
 21
-338.3449178037044
 31
0.0
  0
LINE
  5
2C4
330
1F
100
AcDbEntity
  8
0-9
  6
Continuous
 62
     6
370
     5
100
AcDbLine
 10
-6.342310885119478
 20
-343.8451339011496
 30
0.0
 11
-0.8422185075857591
 21
-338.3449178037044
 31
0.0
  0
LINE
  5
2C5
330
1F
100
AcDbEntity
  8
0-9
  6
Continuous
 62
     6
370
     5
100
AcDbLine
 10
-6.782011449942136
 20
-343.5775277329696
 30
0.0
 11
-1.549401520676899
 21
-338.3449178037044
 31
0.0
  0
LINE
  5
2C6
330
1F
100
AcDbEntity
  8
0-9
  6
Continuous
 62
     6
370
     5
100
AcDbLine
 10
-6.782011449942136
 20
-342.8704684397897
 30
0.0
 11
-2.256460813856851
 21
-338.3449178037044
 31
0.0
  0
LINE
  5
2C7
330
1F
100
AcDbEntity
  8
0-9
  6
Continuous
 62
     6
370
     5
100
AcDbLine
 10
-6.782011449942136
 20
-342.1634091466098
 30
0.0
 11
-2.963520107036803
 21
-338.3449178037044
 31
0.0
  0
LINE
  5
2C8
330
1F
100
AcDbEntity
  8
0-9
  6
Continuous
 62
     6
370
     5
100
AcDbLine
 10
-6.782011449942136
 20
-341.4562261335186
 30
0.0
 11
-3.670703120127943
 21
-338.3449178037044
 31
0.0
  0
LINE
  5
2C9
330
1F
100
AcDbEntity
  8
0-9
  6
Continuous
 62
     6
370
     5
100
AcDbLine
 10
-6.782011449942136
 20
-340.7490431204274
 30
0.0
 11
-4.377886133219224
 21
-338.3449178037044
 31
0.0
  0
LINE
  5
2CA
330
1F
100
AcDbEntity
  8
0-9
  6
Continuous
 62
     6
370
     5
100
AcDbLine
 10
-6.782011449942136
 20
-340.0419838272475
 30
0.0
 11
-5.084945426399035
 21
-338.3449178037044
 31
0.0
  0
LINE
  5
2CB
330
1F
100
AcDbEntity
  8
0-9
  6
Continuous
 62
     6
370
     5
100
AcDbLine
 10
-6.782011449942136
 20
-339.3349245340676
 30
0.0
 11
-5.792004719578987
 21
-338.3449178037044
 31
0.0
  0
LINE
  5
2CC
330
1F
100
AcDbEntity
  8
0-9
  6
Continuous
 62
     6
370
     5
100
AcDbLine
 10
-6.782011449942136
 20
-338.6277415209764
 30
0.0
 11
-6.499187732670269
 21
-338.3449178037044
 31
0.0
  0
LINE
  5
2CD
330
1F
100
AcDbEntity
  8
0-9
  6
Continuous
 62
     6
370
     5
100
AcDbLine
 10
1.520955518491061
 20
-343.7601383220743
 30
0.0
 11
3.218021542034162
 21
-342.0631960184426
 31
0.0
  0
LINE
  5
2CE
330
1F
100
AcDbEntity
  8
0-9
  6
Continuous
 62
     6
370
     5
100
AcDbLine
 10
2.650270868997833
 20
-343.3380059846588
 30
0.0
 11
3.218021542034162
 21
-342.7702553116225
 31
0.0
  0
LINE
  5
2CF
330
1F
100
AcDbEntity
  8
0-4
  6
Continuous
 62
     7
370
     9
100
AcDbLine
 10
-384.7819718595706
 20
-145.9391758801402
 30
0.0
 11
-38.09255172654696
 21
-145.9391758801402
 31
0.0
  0
LINE
  5
2D0
330
1F
100
AcDbEntity
  8
0-4
  6
Continuous
 62
     7
370
     9
100
AcDbLine
 10
-478.7009732584303
 20
43.22918712397716
 30
0.0
 11
-478.7009732584303
 21
453.2289314361605
 31
0.0
  0
LINE
  5
2D1
330
1F
100
AcDbEntity
  8
0-4
  6
Continuous
 62
     7
370
     9
100
AcDbLine
 10
-177.2820295955291
 20
43.22918712397716
 30
0.0
 11
-480.2009843932224
 21
43.22918712397716
 31
0.0
  0
LINE
  5
2D2
330
1F
100
AcDbEntity
  8
0-4
  6
Continuous
 62
     7
370
     9
100
AcDbLine
 10
-177.2820295955291
 20
453.2289314361605
 30
0.0
 11
-480.2009843932224
 21
453.2289314361605
 31
0.0
  0
LINE
  5
2D3
330
1F
100
AcDbEntity
  8
0-4
  6
Continuous
 62
     7
370
     9
100
AcDbLine
 10
-478.7009732584303
 20
43.22918712397716
 30
0.0
 11
-480.3325605189086
 21
55.62227250061362
 31
0.0
  0
LINE
  5
2D4
330
1F
100
AcDbEntity
  8
0-4
  6
Continuous
 62
     7
370
     9
100
AcDbLine
 10
-478.7009732584303
 20
43.22918712397716
 30
0.0
 11
-477.0693859979521
 21
55.62227250061362
 31
0.0
  0
LINE
  5
2D5
330
1F
100
AcDbEntity
  8
0-4
  6
Continuous
 62
     7
370
     9
100
AcDbLine
 10
-478.7009732584303
 20
453.2289314361605
 30
0.0
 11
-480.3325605189086
 21
440.8359079194798
 31
0.0
  0
LINE
  5
2D6
330
1F
100
AcDbEntity
  8
0-4
  6
Continuous
 62
     7
370
     9
100
AcDbLine
 10
-478.7009732584303
 20
453.2289314361605
 30
0.0
 11
-477.0693859979521
 21
440.8359079194798
 31
0.0
  0
LINE
  5
2D7
330
1F
100
AcDbEntity
  8
0-4
  6
Continuous
 62
     7
370
     9
100
AcDbLine
 10
-374.7820007275499
 20
-54.93427327245435
 30
0.0
 11
35.21792916450045
 21
-54.93427327245435
 31
0.0
  0
LINE
  5
2D8
330
1F
100
AcDbEntity
  8
0-4
  6
Continuous
 62
     7
370
     9
100
AcDbLine
 10
-374.7820007275499
 20
240.7290963960423
 30
0.0
 11
-374.7820007275499
 21
-56.43425347726854
 31
0.0
  0
LINE
  5
2D9
330
1F
100
AcDbEntity
  8
0-4
  6
Continuous
 62
     7
370
     9
100
AcDbLine
 10
35.21792916450045
 20
240.7290963960423
 30
0.0
 11
35.21792916450045
 21
-56.43425347726854
 31
0.0
  0
LINE
  5
2DA
330
1F
100
AcDbEntity
  8
0-4
  6
Continuous
 62
     7
370
     9
100
AcDbLine
 10
-374.7820007275499
 20
-54.93427327245435
 30
0.0
 11
-362.3889153509135
 21
-53.30271694195396
 31
0.0
  0
LINE
  5
2DB
330
1F
100
AcDbEntity
  8
0-4
  6
Continuous
 62
     7
370
     9
100
AcDbLine
 10
-374.7820007275499
 20
-54.93427327245435
 30
0.0
 11
-362.3889153509135
 21
-56.56582960295488
 31
0.0
  0
LINE
  5
2DC
330
1F
100
AcDbEntity
  8
0-4
  6
Continuous
 62
     7
370
     9
100
AcDbLine
 10
35.21792916450045
 20
-54.93427327245435
 30
0.0
 11
22.82484378786398
 21
-53.30271694195396
 31
0.0
  0
LINE
  5
2DD
330
1F
100
AcDbEntity
  8
0-4
  6
Continuous
 62
     7
370
     9
100
AcDbLine
 10
35.21792916450045
 20
-54.93427327245435
 30
0.0
 11
22.82484378786398
 21
-56.56582960295488
 31
0.0
  0
ARC
  5
2DE
330
1F
100
AcDbEntity
  8
0-0
  6
Continuous
 62
     3
370
     9
100
AcDbCircle
 10
-217.7821137250688
 20
310.2290658784642
 30
0.0
 40
2.999999555381569
100
AcDbArc
 50
180.0
 51
270.0
  0
ARC
  5
2DF
330
1F
100
AcDbEntity
  8
0-0
  6
Continuous
 62
     3
370
     9
100
AcDbCircle
 10
-231.7820114499421
 20
310.2290658784642
 30
0.0
 40
2.999999555381569
100
AcDbArc
 50
270.0
 51
0.0
  0
ARC
  5
2E0
330
1F
100
AcDbEntity
  8
0-0
  6
Continuous
 62
     3
370
     9
100
AcDbCircle
 10
-217.7821137250688
 20
296.2290444336795
 30
0.0
 40
2.999999555381569
100
AcDbArc
 50
90.0
 51
180.0
  0
ARC
  5
2E1
330
1F
100
AcDbEntity
  8
0-0
  6
Continuous
 62
     3
370
     9
100
AcDbCircle
 10
-231.7820114499421
 20
296.2290444336795
 30
0.0
 40
2.999999555381569
100
AcDbArc
 50
0.0
 51
90.0
  0
ARC
  5
2E2
330
1F
100
AcDbEntity
  8
0-0
  6
Continuous
 62
     3
370
     9
100
AcDbCircle
 10
-218.2820040267475
 20
309.7290518568742
 30
0.0
 40
3.999999809909511
100
AcDbArc
 50
180.0
 51
270.0
  0
ARC
  5
2E3
330
1F
100
AcDbEntity
  8
0-0
  6
Continuous
 62
     3
370
     9
100
AcDbCircle
 10
-231.2819974283522
 20
309.7290518568742
 30
0.0
 40
3.999999809909511
100
AcDbArc
 50
270.0
 51
0.0
  0
ARC
  5
2E4
330
1F
100
AcDbEntity
  8
0-0
  6
Continuous
 62
     3
370
     9
100
AcDbCircle
 10
-231.2819974283522
 20
296.7290584552695
 30
0.0
 40
3.999999809909511
100
AcDbArc
 50
0.0
 51
90.0
  0
ARC
  5
2E5
330
1F
100
AcDbEntity
  8
0-0
  6
Continuous
 62
     3
370
     9
100
AcDbCircle
 10
-218.2820040267475
 20
296.7290584552695
 30
0.0
 40
3.999999809909511
100
AcDbArc
 50
90.0
 51
180.0
  0
ARC
  5
2E6
330
1F
100
AcDbEntity
  8
0-0
  6
Continuous
 62
     3
370
     9
100
AcDbCircle
 10
-328.6762292761668
 20
407.1232218447332
 30
0.0
 40
3.999999809909511
100
AcDbArc
 50
90.0
 51
180.0
  0
ARC
  5
2E7
330
1F
100
AcDbEntity
  8
0-0
  6
Continuous
 62
     3
370
     9
100
AcDbCircle
 10
-330.7661060181431
 20
409.2130985867095
 30
0.0
 40
3.999999809909511
100
AcDbArc
 50
90.0
 51
180.0
  0
ARC
  5
2E8
330
1F
100
AcDbEntity
  8
0-A
  6
Continuous
 62
     7
370
     9
100
AcDbCircle
 10
-335.0319685603729
 20
285.7290592800688
 30
0.0
 40
4.999999097875647
100
AcDbArc
 50
90.0
 51
180.0
  0
CIRCLE
  5
2E9
330
1F
100
AcDbEntity
  8
0-A
  6
Continuous
 62
     7
370
     9
100
AcDbCircle
 10
-335.2821302210571
 20
285.7290592800688
 30
0.0
 40
2.999999555381569
  0
ARC
  5
2EA
330
1F
100
AcDbEntity
  8
0-A
  6
Continuous
 62
     7
370
     9
100
AcDbCircle
 10
-300.5321764098239
 20
285.7290592800688
 30
0.0
 40
4.999999097875647
100
AcDbArc
 50
0.0
 51
90.0
  0
CIRCLE
  5
2EB
330
1F
100
AcDbEntity
  8
0-A
  6
Continuous
 62
     7
370
     9
100
AcDbCircle
 10
-300.2820147491398
 20
285.7290592800688
 30
0.0
 40
2.999999555381569
  0
ARC
  5
2EC
330
1F
100
AcDbEntity
  8
0-0
  6
Continuous
 62
     3
370
     9
100
AcDbCircle
 10
-327.6763249528983
 20
297.729148358405
 30
0.0
 40
4.99999958115655
100
AcDbArc
 50
180.0
 51
270.0
  0
ARC
  5
2ED
330
1F
100
AcDbEntity
  8
0-0
  6
Continuous
 62
     3
370
     9
100
AcDbCircle
 10
-297.7820065011457
 20
287.729053506473
 30
0.0
 40
4.99999958115655
100
AcDbArc
 50
0.0
 51
90.0
  0
ARC
  5
2EE
330
1F
100
AcDbEntity
  8
0-0
  6
Continuous
 62
     3
370
     9
100
AcDbCircle
 10
-292.0086786994671
 20
292.5448510545093
 30
0.0
 40
4.99999958115655
100
AcDbArc
 50
0.0
 51
99.99078369140625
  0
ARC
  5
2EF
330
1F
100
AcDbEntity
  8
0-0
  6
Continuous
 62
     3
370
     9
100
AcDbCircle
 10
-327.6763249528983
 20
297.729148358405
 30
0.0
 40
7.089857958458565
100
AcDbArc
 50
180.0
 51
224.8484191894531
  0
ARC
  5
2F0
330
1F
100
AcDbEntity
  8
0-0
  6
Continuous
 62
     3
370
     9
100
AcDbCircle
 10
-335.0319685603729
 20
285.7290592800688
 30
0.0
 40
6.999999123650628
100
AcDbArc
 50
90.0
 51
145.2295989990234
  0
ARC
  5
2F1
330
1F
100
AcDbEntity
  8
0-A
  6
Continuous
 62
     7
370
     9
100
AcDbCircle
 10
-335.0319685603729
 20
210.7289974201132
 30
0.0
 40
4.999999097875647
100
AcDbArc
 50
180.0
 51
270.0
  0
CIRCLE
  5
2F2
330
1F
100
AcDbEntity
  8
0-A
  6
Continuous
 62
     7
370
     9
100
AcDbCircle
 10
-335.2821302210571
 20
210.7289974201132
 30
0.0
 40
2.999999555381569
  0
ARC
  5
2F3
330
1F
100
AcDbEntity
  8
0-A
  6
Continuous
 62
     7
370
     9
100
AcDbCircle
 10
-300.5321764098239
 20
210.7289974201132
 30
0.0
 40
4.999999097875647
100
AcDbArc
 50
270.0
 51
0.0
  0
CIRCLE
  5
2F4
330
1F
100
AcDbEntity
  8
0-A
  6
Continuous
 62
     7
370
     9
100
AcDbCircle
 10
-300.2820147491398
 20
210.7289974201132
 30
0.0
 40
2.999999555381569
  0
ARC
  5
2F5
330
1F
100
AcDbEntity
  8
0-A
  6
Continuous
 62
     7
370
     9
100
AcDbCircle
 10
-317.7820724850984
 20
219.2290502072753
 30
0.0
 40
5.499999587600296
100
AcDbArc
 50
0.0
 51
180.0
  0
ARC
  5
2F6
330
1F
100
AcDbEntity
  8
0-1
  6
Continuous
 62
     2
370
     9
100
AcDbCircle
 10
-344.7820254715321
 20
423.2290799000541
 30
0.0
 40
39.9999966492524
100
AcDbArc
 50
90.0
 51
180.0
  0
ARC
  5
2F7
330
1F
100
AcDbEntity
  8
0-1
  6
Continuous
 62
     2
370
     9
100
AcDbCircle
 10
-344.7820254715321
 20
423.2290799000541
 30
0.0
 40
39.00000340229757
100
AcDbArc
 50
90.0
 51
180.0
  0
ARC
  5
2F8
330
1F
100
AcDbEntity
  8
0-1
  6
Continuous
 62
     2
370
     9
100
AcDbCircle
 10
-344.7820254715321
 20
423.2290799000541
 30
0.0
 40
28.99999747405181
100
AcDbArc
 50
90.0
 51
180.0
  0
ARC
  5
2F9
330
1F
100
AcDbEntity
  8
0-1
  6
Continuous
 62
     2
370
     9
100
AcDbCircle
 10
-344.7820254715321
 20
423.2290799000541
 30
0.0
 40
26.99999938140044
100
AcDbArc
 50
90.0
 51
180.0
  0
ARC
  5
2FA
330
1F
100
AcDbEntity
  8
0-1
  6
Continuous
 62
     2
370
     9
100
AcDbCircle
 10
-354.0320683611014
 20
432.4792465095347
 30
0.0
 40
4.99999958115655
100
AcDbArc
 50
90.0
 51
180.0
  0
ARC
  5
2FB
330
1F
100
AcDbEntity
  8
0-1
  6
Continuous
 62
     2
370
     9
100
AcDbCircle
 10
-351.0320460915173
 20
429.479162379995
 30
0.0
 40
4.99999958115655
100
AcDbArc
 50
90.0
 51
180.0
  0
ARC
  5
2FC
330
1F
100
AcDbEntity
  8
0-1
  6
Continuous
 62
     2
370
     9
100
AcDbCircle
 10
-188.2820287707298
 20
448.2289149401723
 30
0.0
 40
1.999999904954756
100
AcDbArc
 50
0.0
 51
90.0
  0
ARC
  5
2FD
330
1F
100
AcDbEntity
  8
0-1
  6
Continuous
 62
     2
370
     9
100
AcDbCircle
 10
-188.2820287707298
 20
439.47907165206
 30
0.0
 40
1.999999904954756
100
AcDbArc
 50
270.0
 51
0.0
  0
ARC
  5
2FE
330
1F
100
AcDbEntity
  8
0-1
  6
Continuous
 62
     2
370
     9
100
AcDbCircle
 10
-188.7820427923197
 20
448.2289149401723
 30
0.0
 40
3.999999809909511
100
AcDbArc
 50
0.0
 51
90.0
  0
ARC
  5
2FF
330
1F
100
AcDbEntity
  8
0-1
  6
Continuous
 62
     2
370
     9
100
AcDbCircle
 10
-188.7820427923197
 20
438.4790436088801
 30
0.0
 40
3.999999809909511
100
AcDbArc
 50
342.8440551757812
 51
0.0
  0
ARC
  5
300
330
1F
100
AcDbEntity
  8
0-B
  6
Continuous
 62
     4
370
     9
100
AcDbCircle
 10
-169.7820667115025
 20
453.2289314361605
 30
0.0
 40
12.50000064437454
100
AcDbArc
 50
180.0
 51
0.0
  0
ARC
  5
301
330
1F
100
AcDbEntity
  8
0-1
  6
Continuous
 62
     2
370
     9
100
AcDbCircle
 10
-169.7820667115025
 20
453.2289314361605
 30
0.0
 40
16.49999682967727
100
AcDbArc
 50
139.2509307861328
 51
142.6945190429688
  0
CIRCLE
  5
302
330
1F
100
AcDbEntity
  8
0-B
  6
Continuous
 62
     4
370
     9
100
AcDbCircle
 10
-169.7820667115025
 20
453.2289314361605
 30
0.0
 40
6.226724064027941
  0
ARC
  5
303
330
1F
100
AcDbEntity
  8
0-1
  6
Continuous
 62
     2
370
     9
100
AcDbCircle
 10
-369.781922371606
 20
266.7290831992518
 30
0.0
 40
1.999999904954756
100
AcDbArc
 50
180.0
 51
270.0
  0
ARC
  5
304
330
1F
100
AcDbEntity
  8
0-1
  6
Continuous
 62
     2
370
     9
100
AcDbCircle
 10
-361.0321409434493
 20
266.7290831992518
 30
0.0
 40
1.999999904954756
100
AcDbArc
 50
270.0
 51
0.0
  0
ARC
  5
305
330
1F
100
AcDbEntity
  8
0-1
  6
Continuous
 62
     2
370
     9
100
AcDbCircle
 10
-369.7820460915173
 20
267.2290972208416
 30
0.0
 40
3.999999809909511
100
AcDbArc
 50
180.0
 51
270.0
  0
ARC
  5
306
330
1F
100
AcDbEntity
  8
0-1
  6
Continuous
 62
     2
370
     9
100
AcDbCircle
 10
-360.0319273204025
 20
267.2290972208416
 30
0.0
 40
3.999999809909511
100
AcDbArc
 50
270.0
 51
287.1559448242188
  0
ARC
  5
307
330
1F
100
AcDbEntity
  8
0-B
  6
Continuous
 62
     4
370
     9
100
AcDbCircle
 10
-374.7820007275499
 20
248.2291211400246
 30
0.0
 40
12.50000064437454
100
AcDbArc
 50
270.0
 51
90.0
  0
ARC
  5
308
330
1F
100
AcDbEntity
  8
0-1
  6
Continuous
 62
     2
370
     9
100
AcDbCircle
 10
-374.7820007275499
 20
248.2291211400246
 30
0.0
 40
16.49999682967727
100
AcDbArc
 50
127.3054809570312
 51
130.7490692138672
  0
CIRCLE
  5
309
330
1F
100
AcDbEntity
  8
0-B
  6
Continuous
 62
     4
370
     9
100
AcDbCircle
 10
-374.7820007275499
 20
248.2291211400246
 30
0.0
 40
6.226724064027941
  0
ARC
  5
30A
330
1F
100
AcDbEntity
  8
0-0
  6
Continuous
 62
     3
370
     9
100
AcDbCircle
 10
-121.7820815578919
 20
310.2290658784642
 30
0.0
 40
2.999999555381569
100
AcDbArc
 50
270.0
 51
0.0
  0
ARC
  5
30B
330
1F
100
AcDbEntity
  8
0-0
  6
Continuous
 62
     3
370
     9
100
AcDbCircle
 10
-107.7820601131072
 20
310.2290658784642
 30
0.0
 40
2.999999555381569
100
AcDbArc
 50
180.0
 51
270.0
  0
ARC
  5
30C
330
1F
100
AcDbEntity
  8
0-0
  6
Continuous
 62
     3
370
     9
100
AcDbCircle
 10
-121.7820815578919
 20
296.2290444336795
 30
0.0
 40
2.999999555381569
100
AcDbArc
 50
0.0
 51
90.0
  0
ARC
  5
30D
330
1F
100
AcDbEntity
  8
0-0
  6
Continuous
 62
     3
370
     9
100
AcDbCircle
 10
-107.7820601131072
 20
296.2290444336795
 30
0.0
 40
2.999999555381569
100
AcDbArc
 50
90.0
 51
180.0
  0
ARC
  5
30E
330
1F
100
AcDbEntity
  8
0-0
  6
Continuous
 62
     3
370
     9
100
AcDbCircle
 10
-121.2820675363019
 20
309.7290518568742
 30
0.0
 40
3.999999809909511
100
AcDbArc
 50
270.0
 51
0.0
  0
ARC
  5
30F
330
1F
100
AcDbEntity
  8
0-0
  6
Continuous
 62
     3
370
     9
100
AcDbCircle
 10
-108.2820741346972
 20
309.7290518568742
 30
0.0
 40
3.999999809909511
100
AcDbArc
 50
180.0
 51
270.0
  0
ARC
  5
310
330
1F
100
AcDbEntity
  8
0-0
  6
Continuous
 62
     3
370
     9
100
AcDbCircle
 10
-108.2820741346972
 20
296.7290584552695
 30
0.0
 40
3.999999809909511
100
AcDbArc
 50
90.0
 51
180.0
  0
ARC
  5
311
330
1F
100
AcDbEntity
  8
0-0
  6
Continuous
 62
     3
370
     9
100
AcDbCircle
 10
-121.2820675363019
 20
296.7290584552695
 30
0.0
 40
3.999999809909511
100
AcDbArc
 50
0.0
 51
90.0
  0
ARC
  5
312
330
1F
100
AcDbEntity
  8
0-0
  6
Continuous
 62
     3
370
     9
100
AcDbCircle
 10
-10.88784228688263
 20
407.1232218447332
 30
0.0
 40
3.999999809909511
100
AcDbArc
 50
0.0
 51
90.0
  0
ARC
  5
313
330
1F
100
AcDbEntity
  8
0-0
  6
Continuous
 62
     3
370
     9
100
AcDbCircle
 10
-8.797965544906337
 20
409.2130985867095
 30
0.0
 40
3.999999809909511
100
AcDbArc
 50
0.0
 51
90.0
  0
ARC
  5
314
330
1F
100
AcDbEntity
  8
0-0
  6
Continuous
 62
     3
370
     9
100
AcDbCircle
 10
-11.88774661015126
 20
297.729148358405
 30
0.0
 40
4.99999958115655
100
AcDbArc
 50
270.0
 51
0.0
  0
ARC
  5
315
330
1F
100
AcDbEntity
  8
0-0
  6
Continuous
 62
     3
370
     9
100
AcDbCircle
 10
-41.78206506190372
 20
287.729053506473
 30
0.0
 40
4.99999958115655
100
AcDbArc
 50
90.0
 51
180.0
  0
ARC
  5
316
330
1F
100
AcDbEntity
  8
0-0
  6
Continuous
 62
     3
370
     9
100
AcDbCircle
 10
-47.55539286358237
 20
292.5448510545093
 30
0.0
 40
4.99999958115655
100
AcDbArc
 50
80.00921630859375
 51
180.0
  0
ARC
  5
317
330
1F
100
AcDbEntity
  8
0-0
  6
Continuous
 62
     3
370
     9
100
AcDbCircle
 10
-11.88774661015126
 20
297.729148358405
 30
0.0
 40
7.089857958458565
100
AcDbArc
 50
315.1515808105469
 51
0.0000000000000064
  0
ARC
  5
318
330
1F
100
AcDbEntity
  8
0-0
  6
Continuous
 62
     3
370
     9
100
AcDbCircle
 10
-4.532103002676511
 20
285.7290592800688
 30
0.0
 40
6.999999123650628
100
AcDbArc
 50
34.77040100097656
 51
90.0
  0
ARC
  5
319
330
1F
100
AcDbEntity
  8
0-1
  6
Continuous
 62
     2
370
     9
100
AcDbCircle
 10
5.218077628393925
 20
423.2290799000541
 30
0.0
 40
39.9999966492524
100
AcDbArc
 50
0.0
 51
90.0
  0
ARC
  5
31A
330
1F
100
AcDbEntity
  8
0-1
  6
Continuous
 62
     2
370
     9
100
AcDbCircle
 10
5.217953908482738
 20
423.2290799000541
 30
0.0
 40
39.00000340229757
100
AcDbArc
 50
0.0
 51
90.0
  0
ARC
  5
31B
330
1F
100
AcDbEntity
  8
0-1
  6
Continuous
 62
     2
370
     9
100
AcDbCircle
 10
5.218077628393925
 20
423.2290799000541
 30
0.0
 40
28.99999747405181
100
AcDbArc
 50
0.0
 51
90.0
  0
ARC
  5
31C
330
1F
100
AcDbEntity
  8
0-1
  6
Continuous
 62
     2
370
     9
100
AcDbCircle
 10
5.218077628393925
 20
423.2290799000541
 30
0.0
 40
26.99999938140044
100
AcDbArc
 50
0.0
 51
90.0
  0
ARC
  5
31D
330
1F
100
AcDbEntity
  8
0-1
  6
Continuous
 62
     2
370
     9
100
AcDbCircle
 10
14.46799679805187
 20
432.4792465095347
 30
0.0
 40
4.99999958115655
100
AcDbArc
 50
0.0
 51
90.0
  0
ARC
  5
31E
330
1F
100
AcDbEntity
  8
0-1
  6
Continuous
 62
     2
370
     9
100
AcDbCircle
 10
11.46803638842348
 20
429.479162379995
 30
0.0
 40
4.99999958115655
100
AcDbArc
 50
0.0
 51
90.0
  0
ARC
  5
31F
330
1F
100
AcDbEntity
  8
0-1
  6
Continuous
 62
     2
370
     9
100
AcDbCircle
 10
-151.2820427923197
 20
448.2289149401723
 30
0.0
 40
1.999999904954756
100
AcDbArc
 50
90.0
 51
180.0
  0
ARC
  5
320
330
1F
100
AcDbEntity
  8
0-1
  6
Continuous
 62
     2
370
     9
100
AcDbCircle
 10
-151.2820427923197
 20
439.47907165206
 30
0.0
 40
1.999999904954756
100
AcDbArc
 50
180.0
 51
270.0
  0
ARC
  5
321
330
1F
100
AcDbEntity
  8
0-1
  6
Continuous
 62
     2
370
     9
100
AcDbCircle
 10
-150.7820287707298
 20
448.2289149401723
 30
0.0
 40
3.999999809909511
100
AcDbArc
 50
90.0
 51
180.0
  0
ARC
  5
322
330
1F
100
AcDbEntity
  8
0-1
  6
Continuous
 62
     2
370
     9
100
AcDbCircle
 10
-150.7820287707298
 20
438.4790436088801
 30
0.0
 40
3.999999809909511
100
AcDbArc
 50
180.0
 51
197.1559448242188
  0
ARC
  5
323
330
1F
100
AcDbEntity
  8
0-1
  6
Continuous
 62
     2
370
     9
100
AcDbCircle
 10
-169.7820667115025
 20
453.2289314361605
 30
0.0
 40
16.49999682967727
100
AcDbArc
 50
37.30548095703125
 51
40.74906921386719
  0
ARC
  5
324
330
1F
100
AcDbEntity
  8
0-1
  6
Continuous
 62
     2
370
     9
100
AcDbCircle
 10
30.21778894860097
 20
266.7290831992518
 30
0.0
 40
1.999999904954756
100
AcDbArc
 50
270.0
 51
0.0
  0
ARC
  5
325
330
1F
100
AcDbEntity
  8
0-1
  6
Continuous
 62
     2
370
     9
100
AcDbCircle
 10
21.46806938039992
 20
266.7290831992518
 30
0.0
 40
1.999999904954756
100
AcDbArc
 50
180.0
 51
270.0
  0
ARC
  5
326
330
1F
100
AcDbEntity
  8
0-1
  6
Continuous
 62
     2
370
     9
100
AcDbCircle
 10
30.21797452846789
 20
267.2290972208416
 30
0.0
 40
3.999999809909511
100
AcDbArc
 50
270.0
 51
0.0
  0
ARC
  5
327
330
1F
100
AcDbEntity
  8
0-1
  6
Continuous
 62
     2
370
     9
100
AcDbCircle
 10
20.46791761730864
 20
267.2290972208416
 30
0.0
 40
3.999999809909511
100
AcDbArc
 50
252.8440551757812
 51
270.0
  0
ARC
  5
328
330
1F
100
AcDbEntity
  8
0-1
  6
Continuous
 62
     2
370
     9
100
AcDbCircle
 10
35.21792916450045
 20
248.2291211400246
 30
0.0
 40
16.49999682967727
100
AcDbArc
 50
49.25093078613281
 51
52.69451904296875
  0
ARC
  5
329
330
1F
100
AcDbEntity
  8
0-0
  6
Continuous
 62
     3
370
     9
100
AcDbCircle
 10
-121.7820815578919
 20
186.2290526816736
 30
0.0
 40
2.999999555381569
100
AcDbArc
 50
0.0
 51
90.0
  0
ARC
  5
32A
330
1F
100
AcDbEntity
  8
0-0
  6
Continuous
 62
     3
370
     9
100
AcDbCircle
 10
-107.7820601131072
 20
186.2290526816736
 30
0.0
 40
2.999999555381569
100
AcDbArc
 50
90.0
 51
180.0
  0
ARC
  5
32B
330
1F
100
AcDbEntity
  8
0-0
  6
Continuous
 62
     3
370
     9
100
AcDbCircle
 10
-121.7820815578919
 20
200.2290741264582
 30
0.0
 40
2.999999555381569
100
AcDbArc
 50
270.0
 51
0.0
  0
ARC
  5
32C
330
1F
100
AcDbEntity
  8
0-0
  6
Continuous
 62
     3
370
     9
100
AcDbCircle
 10
-107.7820601131072
 20
200.2290741264582
 30
0.0
 40
2.999999555381569
100
AcDbArc
 50
180.0
 51
270.0
  0
ARC
  5
32D
330
1F
100
AcDbEntity
  8
0-0
  6
Continuous
 62
     3
370
     9
100
AcDbCircle
 10
-121.2820675363019
 20
186.7290667032635
 30
0.0
 40
3.999999809909511
100
AcDbArc
 50
0.0
 51
90.0
  0
ARC
  5
32E
330
1F
100
AcDbEntity
  8
0-0
  6
Continuous
 62
     3
370
     9
100
AcDbCircle
 10
-108.2820741346972
 20
186.7290667032635
 30
0.0
 40
3.999999809909511
100
AcDbArc
 50
90.0
 51
180.0
  0
ARC
  5
32F
330
1F
100
AcDbEntity
  8
0-0
  6
Continuous
 62
     3
370
     9
100
AcDbCircle
 10
-108.2820741346972
 20
199.7291838247796
 30
0.0
 40
3.999999809909511
100
AcDbArc
 50
180.0
 51
270.0
  0
ARC
  5
330
330
1F
100
AcDbEntity
  8
0-0
  6
Continuous
 62
     3
370
     9
100
AcDbCircle
 10
-121.2820675363019
 20
199.7291838247796
 30
0.0
 40
3.999999809909511
100
AcDbArc
 50
270.0
 51
0.0
  0
ARC
  5
331
330
1F
100
AcDbEntity
  8
0-0
  6
Continuous
 62
     3
370
     9
100
AcDbCircle
 10
-10.88784228688263
 20
89.3348348554489
 30
0.0
 40
3.999999809909511
100
AcDbArc
 50
270.0
 51
0.0
  0
ARC
  5
332
330
1F
100
AcDbEntity
  8
0-0
  6
Continuous
 62
     3
370
     9
100
AcDbCircle
 10
-8.797965544906337
 20
87.2449581134726
 30
0.0
 40
3.999999809909511
100
AcDbArc
 50
270.0
 51
0.0
  0
ARC
  5
333
330
1F
100
AcDbEntity
  8
0-0
  6
Continuous
 62
     3
370
     9
100
AcDbCircle
 10
-11.88774661015126
 20
198.7290939216441
 30
0.0
 40
4.99999958115655
100
AcDbArc
 50
0.0
 51
90.0
  0
ARC
  5
334
330
1F
100
AcDbEntity
  8
0-0
  6
Continuous
 62
     3
370
     9
100
AcDbCircle
 10
-41.78206506190372
 20
208.7290650536647
 30
0.0
 40
4.99999958115655
100
AcDbArc
 50
180.0
 51
270.0
  0
ARC
  5
335
330
1F
100
AcDbEntity
  8
0-0
  6
Continuous
 62
     3
370
     9
100
AcDbCircle
 10
-47.55539286358237
 20
203.9133912255397
 30
0.0
 40
4.99999958115655
100
AcDbArc
 50
180.0
 51
279.9907836914062
  0
ARC
  5
336
330
1F
100
AcDbEntity
  8
0-0
  6
Continuous
 62
     3
370
     9
100
AcDbCircle
 10
-11.88774661015126
 20
198.7290939216441
 30
0.0
 40
7.089857958458565
100
AcDbArc
 50
0.0
 51
44.84841918945312
  0
ARC
  5
337
330
1F
100
AcDbEntity
  8
0-0
  6
Continuous
 62
     3
370
     9
100
AcDbCircle
 10
-4.532103002676511
 20
210.7289974201132
 30
0.0
 40
6.999999123650628
100
AcDbArc
 50
270.0
 51
325.2295989990234
  0
ARC
  5
338
330
1F
100
AcDbEntity
  8
0-1
  6
Continuous
 62
     2
370
     9
100
AcDbCircle
 10
5.218077628393925
 20
73.229162379995
 30
0.0
 40
39.9999966492524
100
AcDbArc
 50
270.0
 51
0.0
  0
ARC
  5
339
330
1F
100
AcDbEntity
  8
0-1
  6
Continuous
 62
     2
370
     9
100
AcDbCircle
 10
5.217953908482738
 20
73.229162379995
 30
0.0
 40
39.00000340229757
100
AcDbArc
 50
270.0
 51
0.0
  0
ARC
  5
33A
330
1F
100
AcDbEntity
  8
0-1
  6
Continuous
 62
     2
370
     9
100
AcDbCircle
 10
5.218077628393925
 20
73.229162379995
 30
0.0
 40
28.99999747405181
100
AcDbArc
 50
270.0
 51
0.0
  0
ARC
  5
33B
330
1F
100
AcDbEntity
  8
0-1
  6
Continuous
 62
     2
370
     9
100
AcDbCircle
 10
5.218077628393925
 20
73.229162379995
 30
0.0
 40
26.99999938140044
100
AcDbArc
 50
270.0
 51
0.0
  0
ARC
  5
33C
330
1F
100
AcDbEntity
  8
0-1
  6
Continuous
 62
     2
370
     9
100
AcDbCircle
 10
14.46799679805187
 20
63.9789957705144
 30
0.0
 40
4.99999958115655
100
AcDbArc
 50
270.0
 51
0.0
  0
ARC
  5
33D
330
1F
100
AcDbEntity
  8
0-1
  6
Continuous
 62
     2
370
     9
100
AcDbCircle
 10
11.46803638842348
 20
66.97914176000971
 30
0.0
 40
4.99999958115655
100
AcDbArc
 50
270.0
 51
0.0
  0
ARC
  5
33E
330
1F
100
AcDbEntity
  8
0-1
  6
Continuous
 62
     2
370
     9
100
AcDbCircle
 10
-151.2820427923197
 20
48.22932733987663
 30
0.0
 40
1.999999904954756
100
AcDbArc
 50
180.0
 51
270.0
  0
ARC
  5
33F
330
1F
100
AcDbEntity
  8
0-1
  6
Continuous
 62
     2
370
     9
100
AcDbCircle
 10
-151.2820427923197
 20
56.97904690807768
 30
0.0
 40
1.999999904954756
100
AcDbArc
 50
90.0
 51
180.0
  0
ARC
  5
340
330
1F
100
AcDbEntity
  8
0-1
  6
Continuous
 62
     2
370
     9
100
AcDbCircle
 10
-150.7820287707298
 20
48.22914176000971
 30
0.0
 40
3.999999809909511
100
AcDbArc
 50
180.0
 51
270.0
  0
ARC
  5
341
330
1F
100
AcDbEntity
  8
0-1
  6
Continuous
 62
     2
370
     9
100
AcDbCircle
 10
-150.7820287707298
 20
57.97919867116896
 30
0.0
 40
3.999999809909511
100
AcDbArc
 50
162.8440551757812
 51
180.0
  0
ARC
  5
342
330
1F
100
AcDbEntity
  8
0-1
  6
Continuous
 62
     2
370
     9
100
AcDbCircle
 10
-169.7820667115025
 20
43.22918712397716
 30
0.0
 40
16.49999682967727
100
AcDbArc
 50
319.2509307861328
 51
322.6945190429688
  0
ARC
  5
343
330
1F
100
AcDbEntity
  8
0-1
  6
Continuous
 62
     2
370
     9
100
AcDbCircle
 10
30.21778894860097
 20
229.729035360886
 30
0.0
 40
1.999999904954756
100
AcDbArc
 50
0.0
 51
90.0
  0
ARC
  5
344
330
1F
100
AcDbEntity
  8
0-1
  6
Continuous
 62
     2
370
     9
100
AcDbCircle
 10
21.46806938039992
 20
229.729035360886
 30
0.0
 40
1.999999904954756
100
AcDbArc
 50
90.0
 51
180.0
  0
ARC
  5
345
330
1F
100
AcDbEntity
  8
0-1
  6
Continuous
 62
     2
370
     9
100
AcDbCircle
 10
30.21797452846789
 20
229.2289594793405
 30
0.0
 40
3.999999809909511
100
AcDbArc
 50
0.0
 51
90.0
  0
ARC
  5
346
330
1F
100
AcDbEntity
  8
0-1
  6
Continuous
 62
     2
370
     9
100
AcDbCircle
 10
20.46791761730864
 20
229.2289594793405
 30
0.0
 40
3.999999809909511
100
AcDbArc
 50
90.0
 51
107.1559448242188
  0
ARC
  5
347
330
1F
100
AcDbEntity
  8
0-1
  6
Continuous
 62
     2
370
     9
100
AcDbCircle
 10
35.21792916450045
 20
248.2291211400246
 30
0.0
 40
16.49999682967727
100
AcDbArc
 50
307.3054809570312
 51
310.7490692138672
  0
ARC
  5
348
330
1F
100
AcDbEntity
  8
0-0
  6
Continuous
 62
     3
370
     9
100
AcDbCircle
 10
-217.7821137250688
 20
186.2290526816736
 30
0.0
 40
2.999999555381569
100
AcDbArc
 50
90.0
 51
180.0
  0
ARC
  5
349
330
1F
100
AcDbEntity
  8
0-0
  6
Continuous
 62
     3
370
     9
100
AcDbCircle
 10
-231.7820114499421
 20
186.2290526816736
 30
0.0
 40
2.999999555381569
100
AcDbArc
 50
0.0
 51
90.0
  0
ARC
  5
34A
330
1F
100
AcDbEntity
  8
0-0
  6
Continuous
 62
     3
370
     9
100
AcDbCircle
 10
-217.7821137250688
 20
200.2290741264582
 30
0.0
 40
2.999999555381569
100
AcDbArc
 50
180.0
 51
270.0
  0
ARC
  5
34B
330
1F
100
AcDbEntity
  8
0-0
  6
Continuous
 62
     3
370
     9
100
AcDbCircle
 10
-231.7820114499421
 20
200.2290741264582
 30
0.0
 40
2.999999555381569
100
AcDbArc
 50
270.0
 51
0.0
  0
ARC
  5
34C
330
1F
100
AcDbEntity
  8
0-0
  6
Continuous
 62
     3
370
     9
100
AcDbCircle
 10
-218.2820040267475
 20
186.7290667032635
 30
0.0
 40
3.999999809909511
100
AcDbArc
 50
90.0
 51
180.0
  0
ARC
  5
34D
330
1F
100
AcDbEntity
  8
0-0
  6
Continuous
 62
     3
370
     9
100
AcDbCircle
 10
-231.2819974283522
 20
186.7290667032635
 30
0.0
 40
3.999999809909511
100
AcDbArc
 50
0.0
 51
90.0
  0
ARC
  5
34E
330
1F
100
AcDbEntity
  8
0-0
  6
Continuous
 62
     3
370
     9
100
AcDbCircle
 10
-231.2819974283522
 20
199.7291838247796
 30
0.0
 40
3.999999809909511
100
AcDbArc
 50
270.0
 51
0.0
  0
ARC
  5
34F
330
1F
100
AcDbEntity
  8
0-0
  6
Continuous
 62
     3
370
     9
100
AcDbCircle
 10
-218.2820040267475
 20
199.7291838247796
 30
0.0
 40
3.999999809909511
100
AcDbArc
 50
180.0
 51
270.0
  0
ARC
  5
350
330
1F
100
AcDbEntity
  8
0-0
  6
Continuous
 62
     3
370
     9
100
AcDbCircle
 10
-328.6762292761668
 20
89.3348348554489
 30
0.0
 40
3.999999809909511
100
AcDbArc
 50
180.0
 51
270.0
  0
ARC
  5
351
330
1F
100
AcDbEntity
  8
0-0
  6
Continuous
 62
     3
370
     9
100
AcDbCircle
 10
-330.7661060181431
 20
87.2449581134726
 30
0.0
 40
3.999999809909511
100
AcDbArc
 50
180.0
 51
270.0
  0
ARC
  5
352
330
1F
100
AcDbEntity
  8
0-0
  6
Continuous
 62
     3
370
     9
100
AcDbCircle
 10
-327.6763249528983
 20
198.7290939216441
 30
0.0
 40
4.99999958115655
100
AcDbArc
 50
90.0
 51
180.0
  0
ARC
  5
353
330
1F
100
AcDbEntity
  8
0-0
  6
Continuous
 62
     3
370
     9
100
AcDbCircle
 10
-297.7820065011457
 20
208.7290650536647
 30
0.0
 40
4.99999958115655
100
AcDbArc
 50
270.0
 51
0.0
  0
ARC
  5
354
330
1F
100
AcDbEntity
  8
0-0
  6
Continuous
 62
     3
370
     9
100
AcDbCircle
 10
-292.0086786994671
 20
203.9133912255397
 30
0.0
 40
4.99999958115655
100
AcDbArc
 50
260.0092163085938
 51
359.9999999999999
  0
ARC
  5
355
330
1F
100
AcDbEntity
  8
0-0
  6
Continuous
 62
     3
370
     9
100
AcDbCircle
 10
-327.6763249528983
 20
198.7290939216441
 30
0.0
 40
7.089857958458565
100
AcDbArc
 50
135.1515808105468
 51
180.0
  0
ARC
  5
356
330
1F
100
AcDbEntity
  8
0-0
  6
Continuous
 62
     3
370
     9
100
AcDbCircle
 10
-335.0319685603729
 20
210.7289974201132
 30
0.0
 40
6.999999123650628
100
AcDbArc
 50
214.7704010009765
 51
270.0
  0
ARC
  5
357
330
1F
100
AcDbEntity
  8
0-1
  6
Continuous
 62
     2
370
     9
100
AcDbCircle
 10
-344.7820254715321
 20
73.229162379995
 30
0.0
 40
39.9999966492524
100
AcDbArc
 50
180.0
 51
270.0
  0
ARC
  5
358
330
1F
100
AcDbEntity
  8
0-1
  6
Continuous
 62
     2
370
     9
100
AcDbCircle
 10
-344.7820254715321
 20
73.229162379995
 30
0.0
 40
39.00000340229757
100
AcDbArc
 50
180.0
 51
270.0
  0
ARC
  5
359
330
1F
100
AcDbEntity
  8
0-1
  6
Continuous
 62
     2
370
     9
100
AcDbCircle
 10
-344.7820254715321
 20
73.229162379995
 30
0.0
 40
28.99999747405181
100
AcDbArc
 50
180.0
 51
270.0
  0
ARC
  5
35A
330
1F
100
AcDbEntity
  8
0-1
  6
Continuous
 62
     2
370
     9
100
AcDbCircle
 10
-344.7820254715321
 20
73.229162379995
 30
0.0
 40
26.99999938140044
100
AcDbArc
 50
180.0
 51
270.0
  0
ARC
  5
35B
330
1F
100
AcDbEntity
  8
0-1
  6
Continuous
 62
     2
370
     9
100
AcDbCircle
 10
-354.0320683611014
 20
63.9789957705144
 30
0.0
 40
4.99999958115655
100
AcDbArc
 50
180.0
 51
270.0
  0
ARC
  5
35C
330
1F
100
AcDbEntity
  8
0-1
  6
Continuous
 62
     2
370
     9
100
AcDbCircle
 10
-351.0320460915173
 20
66.97914176000971
 30
0.0
 40
4.99999958115655
100
AcDbArc
 50
180.0
 51
270.0
  0
ARC
  5
35D
330
1F
100
AcDbEntity
  8
0-1
  6
Continuous
 62
     2
370
     9
100
AcDbCircle
 10
-188.2820287707298
 20
48.22932733987663
 30
0.0
 40
1.999999904954756
100
AcDbArc
 50
270.0
 51
0.0
  0
ARC
  5
35E
330
1F
100
AcDbEntity
  8
0-1
  6
Continuous
 62
     2
370
     9
100
AcDbCircle
 10
-188.2820287707298
 20
56.97904690807768
 30
0.0
 40
1.999999904954756
100
AcDbArc
 50
0.0
 51
90.0
  0
ARC
  5
35F
330
1F
100
AcDbEntity
  8
0-1
  6
Continuous
 62
     2
370
     9
100
AcDbCircle
 10
-188.7820427923197
 20
48.22914176000971
 30
0.0
 40
3.999999809909511
100
AcDbArc
 50
270.0
 51
0.0
  0
ARC
  5
360
330
1F
100
AcDbEntity
  8
0-1
  6
Continuous
 62
     2
370
     9
100
AcDbCircle
 10
-188.7820427923197
 20
57.97919867116896
 30
0.0
 40
3.999999809909511
100
AcDbArc
 50
0.0
 51
17.15594482421875
  0
ARC
  5
361
330
1F
100
AcDbEntity
  8
0-1
  6
Continuous
 62
     2
370
     9
100
AcDbCircle
 10
-169.7820667115025
 20
43.22918712397716
 30
0.0
 40
16.49999682967727
100
AcDbArc
 50
217.3054809570313
 51
220.7490692138672
  0
ARC
  5
362
330
1F
100
AcDbEntity
  8
0-1
  6
Continuous
 62
     2
370
     9
100
AcDbCircle
 10
-369.781922371606
 20
229.729035360886
 30
0.0
 40
1.999999904954756
100
AcDbArc
 50
90.0
 51
180.0
  0
ARC
  5
363
330
1F
100
AcDbEntity
  8
0-1
  6
Continuous
 62
     2
370
     9
100
AcDbCircle
 10
-361.0321409434493
 20
229.729035360886
 30
0.0
 40
1.999999904954756
100
AcDbArc
 50
0.0
 51
90.0
  0
ARC
  5
364
330
1F
100
AcDbEntity
  8
0-1
  6
Continuous
 62
     2
370
     9
100
AcDbCircle
 10
-369.7820460915173
 20
229.2289594793405
 30
0.0
 40
3.999999809909511
100
AcDbArc
 50
90.0
 51
180.0
  0
ARC
  5
365
330
1F
100
AcDbEntity
  8
0-1
  6
Continuous
 62
     2
370
     9
100
AcDbCircle
 10
-360.0319273204025
 20
229.2289594793405
 30
0.0
 40
3.999999809909511
100
AcDbArc
 50
72.84405517578125
 51
90.00000000000001
  0
ARC
  5
366
330
1F
100
AcDbEntity
  8
0-1
  6
Continuous
 62
     2
370
     9
100
AcDbCircle
 10
-374.7820007275499
 20
248.2291211400246
 30
0.0
 40
16.49999682967727
100
AcDbArc
 50
229.2509307861328
 51
232.6945190429688
  0
ARC
  5
367
330
1F
100
AcDbEntity
  8
0-A
  6
Continuous
 62
     7
370
     9
100
AcDbCircle
 10
-4.532103002676511
 20
285.7290592800688
 30
0.0
 40
4.999999097875647
100
AcDbArc
 50
0.0
 51
90.0
  0
CIRCLE
  5
368
330
1F
100
AcDbEntity
  8
0-A
  6
Continuous
 62
     7
370
     9
100
AcDbCircle
 10
-4.282003201948132
 20
285.7290592800688
 30
0.0
 40
2.999999555381569
  0
ARC
  5
369
330
1F
100
AcDbEntity
  8
0-A
  6
Continuous
 62
     7
370
     9
100
AcDbCircle
 10
-39.03189515322546
 20
285.7290592800688
 30
0.0
 40
4.999999097875647
100
AcDbArc
 50
90.0
 51
180.0
  0
CIRCLE
  5
36A
330
1F
100
AcDbEntity
  8
0-A
  6
Continuous
 62
     7
370
     9
100
AcDbCircle
 10
-39.28205681390958
 20
285.7290592800688
 30
0.0
 40
2.999999555381569
  0
ARC
  5
36B
330
1F
100
AcDbEntity
  8
0-A
  6
Continuous
 62
     7
370
     9
100
AcDbCircle
 10
-4.532103002676511
 20
210.7289974201132
 30
0.0
 40
4.999999097875647
100
AcDbArc
 50
270.0
 51
0.0
  0
CIRCLE
  5
36C
330
1F
100
AcDbEntity
  8
0-A
  6
Continuous
 62
     7
370
     9
100
AcDbCircle
 10
-4.282003201948132
 20
210.7289974201132
 30
0.0
 40
2.999999555381569
  0
ARC
  5
36D
330
1F
100
AcDbEntity
  8
0-A
  6
Continuous
 62
     7
370
     9
100
AcDbCircle
 10
-39.03189515322546
 20
210.7289974201132
 30
0.0
 40
4.999999097875647
100
AcDbArc
 50
180.0
 51
270.0
  0
CIRCLE
  5
36E
330
1F
100
AcDbEntity
  8
0-A
  6
Continuous
 62
     7
370
     9
100
AcDbCircle
 10
-39.28205681390958
 20
210.7289974201132
 30
0.0
 40
2.999999555381569
  0
ARC
  5
36F
330
1F
100
AcDbEntity
  8
0-A
  6
Continuous
 62
     7
370
     9
100
AcDbCircle
 10
-21.78199907795099
 20
219.2290502072753
 30
0.0
 40
5.499999587600296
100
AcDbArc
 50
0.0
 51
180.0
  0
ARC
  5
370
330
1F
100
AcDbEntity
  8
0-B
  6
Continuous
 62
     4
370
     9
100
AcDbCircle
 10
-169.7820667115025
 20
43.22918712397716
 30
0.0
 40
12.50000064437454
100
AcDbArc
 50
0.0
 51
180.0
  0
CIRCLE
  5
371
330
1F
100
AcDbEntity
  8
0-B
  6
Continuous
 62
     4
370
     9
100
AcDbCircle
 10
-169.7820667115025
 20
43.22918712397716
 30
0.0
 40
6.226724064027941
  0
ARC
  5
372
330
1F
100
AcDbEntity
  8
0-B
  6
Continuous
 62
     4
370
     9
100
AcDbCircle
 10
35.21792916450045
 20
248.2291211400246
 30
0.0
 40
12.50000064437454
100
AcDbArc
 50
90.0
 51
270.0
  0
CIRCLE
  5
373
330
1F
100
AcDbEntity
  8
0-B
  6
Continuous
 62
     4
370
     9
100
AcDbCircle
 10
35.21792916450045
 20
248.2291211400246
 30
0.0
 40
6.226724064027941
  0
ARC
  5
374
330
1F
100
AcDbEntity
  8
0-0
  6
Continuous
 62
     3
370
     9
100
AcDbCircle
 10
-284.6992444788694
 20
-330.8450167796335
 30
0.0
 40
3.999999809909511
100
AcDbArc
 50
209.9996795654297
 51
270.0
  0
ARC
  5
375
330
1F
100
AcDbEntity
  8
0-0
  6
Continuous
 62
     3
370
     9
100
AcDbCircle
 10
-288.1634019957614
 20
-336.8449375988902
 30
0.0
 40
3.999999809909511
100
AcDbArc
 50
209.9996795654297
 51
270.0
  0
ARC
  5
376
330
1F
100
AcDbEntity
  8
0-0
  6
Continuous
 62
     3
370
     9
100
AcDbCircle
 10
-302.3084231766102
 20
-328.3450085316394
 30
0.0
 40
3.999999809909511
100
AcDbArc
 50
30.00054931640625
 51
90.0
  0
ARC
  5
377
330
1F
100
AcDbEntity
  8
0-0
  6
Continuous
 62
     3
370
     9
100
AcDbCircle
 10
-328.7820098003434
 20
-314.3449870868548
 30
0.0
 40
3.999999809909511
100
AcDbArc
 50
180.0
 51
270.0
  0
ARC
  5
378
330
1F
100
AcDbEntity
  8
0-0
  6
Continuous
 62
     3
370
     9
100
AcDbCircle
 10
-306.7820114499422
 20
-314.3449870868548
 30
0.0
 40
3.999999809909511
100
AcDbArc
 50
270.0
 51
0.0
  0
ARC
  5
379
330
1F
100
AcDbEntity
  8
0-0
  6
Continuous
 62
     3
370
     9
100
AcDbCircle
 10
-325.9178938533416
 20
-328.3450085316394
 30
0.0
 40
3.999999809909511
100
AcDbArc
 50
90.0
 51
169.7964782714844
  0
ARC
  5
37A
330
1F
100
AcDbEntity
  8
0-0
  6
Continuous
 62
     3
370
     9
100
AcDbCircle
 10
-337.526904292003
 20
-336.8449375988902
 30
0.0
 40
1.499999777690785
100
AcDbArc
 50
190.1558837890625
 51
270.0
  0
ARC
  5
37B
330
1F
100
AcDbEntity
  8
0-0
  6
Continuous
 62
     3
370
     9
100
AcDbCircle
 10
-333.0361189509979
 20
-336.8449375988902
 30
0.0
 40
1.499999777690785
100
AcDbArc
 50
270.0
 51
349.7948760986328
  0
ARC
  5
37C
330
1F
100
AcDbEntity
  8
0-0
  6
Continuous
 62
     3
370
     9
100
AcDbCircle
 10
-330.8631024286161
 20
-336.8449375988902
 30
0.0
 40
1.499999777690785
100
AcDbArc
 50
270.0
 51
341.5633544921875
  0
ARC
  5
37D
330
1F
100
AcDbEntity
  8
0-0
  6
Continuous
 62
     3
370
     9
100
AcDbCircle
 10
-331.0791173937766
 20
-338.84499368525
 30
0.0
 40
1.499999777690785
100
AcDbArc
 50
195.9461364746093
 51
270.0
  0
ARC
  5
37E
330
1F
100
AcDbEntity
  8
0-0
  6
Continuous
 62
     3
370
     9
100
AcDbCircle
 10
-299.6384237704658
 20
-338.84499368525
 30
0.0
 40
1.499999777690785
100
AcDbArc
 50
270.0
 51
347.1945495605469
  0
ARC
  5
37F
330
1F
100
AcDbEntity
  8
0-0
  6
JWW_HOJO
 62
     3
370
     9
100
AcDbCircle
 10
-337.3799250373577
 20
-336.8449375988902
 30
0.0
 40
1.499999777690785
100
AcDbArc
 50
183.8580017089844
 51
270.0
  0
ARC
  5
380
330
1F
100
AcDbEntity
  8
0-1
  6
JWW_DASHED1
 62
     2
370
     9
100
AcDbCircle
 10
-343.2647863390891
 20
-339.8451454483412
 30
0.0
 40
3.999999809909511
100
AcDbArc
 50
183.4336853027344
 51
270.0
  0
ARC
  5
381
330
1F
100
AcDbEntity
  8
0-1
  6
Continuous
 62
     2
370
     9
100
AcDbCircle
 10
-333.4216301946635
 20
-341.845201534701
 30
0.0
 40
1.999999904954756
100
AcDbArc
 50
270.0
 51
348.6900634765625
  0
ARC
  5
382
330
1F
100
AcDbEntity
  8
0-0
  6
Continuous
 62
     3
370
     9
100
AcDbCircle
 10
-218.1985549465637
 20
-331.8450448228133
 30
0.0
 40
2.999999555381569
100
AcDbArc
 50
188.5303039550781
 51
270.0
  0
ARC
  5
383
330
1F
100
AcDbEntity
  8
0-0
  6
Continuous
 62
     3
370
     9
100
AcDbCircle
 10
-231.3655702284472
 20
-331.8450448228133
 30
0.0
 40
2.999999555381569
100
AcDbArc
 50
270.0
 51
351.4696960449219
  0
ARC
  5
384
330
1F
100
AcDbEntity
  8
0-0
  6
Continuous
 62
     3
370
     9
100
AcDbCircle
 10
-54.86501266404696
 20
-330.8450167796335
 30
0.0
 40
3.999999809909511
100
AcDbArc
 50
270.0
 51
330.0003204345703
  0
ARC
  5
385
330
1F
100
AcDbEntity
  8
0-0
  6
Continuous
 62
     3
370
     9
100
AcDbCircle
 10
-51.4007314272437
 20
-336.8449375988902
 30
0.0
 40
3.999999809909511
100
AcDbArc
 50
270.0
 51
330.0003204345703
  0
ARC
  5
386
330
1F
100
AcDbEntity
  8
0-0
  6
Continuous
 62
     3
370
     9
100
AcDbCircle
 10
-37.25571024639487
 20
-328.3450085316394
 30
0.0
 40
3.999999809909511
100
AcDbArc
 50
90.0
 51
149.9994506835938
  0
ARC
  5
387
330
1F
100
AcDbEntity
  8
0-0
  6
Continuous
 62
     3
370
     9
100
AcDbCircle
 10
-10.78199990275047
 20
-314.3449870868548
 30
0.0
 40
3.999999809909511
100
AcDbArc
 50
270.0
 51
0.0
  0
ARC
  5
388
330
1F
100
AcDbEntity
  8
0-0
  6
Continuous
 62
     3
370
     9
100
AcDbCircle
 10
-32.78199825315164
 20
-314.3449870868548
 30
0.0
 40
3.999999809909511
100
AcDbArc
 50
180.0
 51
270.0
  0
ARC
  5
389
330
1F
100
AcDbEntity
  8
0-0
  6
Continuous
 62
     3
370
     9
100
AcDbCircle
 10
-13.6462395696635
 20
-328.3450085316394
 30
0.0
 40
3.999999809909511
100
AcDbArc
 50
10.20352172851562
 51
90.0
  0
ARC
  5
38A
330
1F
100
AcDbEntity
  8
0-0
  6
Continuous
 62
     3
370
     9
100
AcDbCircle
 10
-2.037105411090838
 20
-336.8449375988902
 30
0.0
 40
1.499999777690785
100
AcDbArc
 50
270.0
 51
349.8441162109375
  0
ARC
  5
38B
330
1F
100
AcDbEntity
  8
0-0
  6
Continuous
 62
     3
370
     9
100
AcDbCircle
 10
-6.527767032184588
 20
-336.8449375988902
 30
0.0
 40
1.499999777690785
100
AcDbArc
 50
190.2051239013672
 51
270.0
  0
ARC
  5
38C
330
1F
100
AcDbEntity
  8
0-0
  6
Continuous
 62
     3
370
     9
100
AcDbCircle
 10
-8.70090727447769
 20
-336.8449375988902
 30
0.0
 40
1.499999777690785
100
AcDbArc
 50
198.4366455078125
 51
270.0
  0
ARC
  5
38D
330
1F
100
AcDbEntity
  8
0-0
  6
Continuous
 62
     3
370
     9
100
AcDbCircle
 10
-8.484892309317136
 20
-338.84499368525
 30
0.0
 40
1.499999777690785
100
AcDbArc
 50
270.0
 51
344.0538635253906
  0
ARC
  5
38E
330
1F
100
AcDbEntity
  8
0-0
  6
Continuous
 62
     3
370
     9
100
AcDbCircle
 10
-39.92558593262794
 20
-338.84499368525
 30
0.0
 40
1.499999777690785
100
AcDbArc
 50
192.8054504394531
 51
270.0
  0
ARC
  5
38F
330
1F
100
AcDbEntity
  8
0-0
  6
JWW_HOJO
 62
     3
370
     9
100
AcDbCircle
 10
-2.184208385647342
 20
-336.8449375988902
 30
0.0
 40
1.499999777690785
100
AcDbArc
 50
270.0
 51
356.1419982910156
  0
ARC
  5
390
330
1F
100
AcDbEntity
  8
0-1
  6
JWW_HOJO
 62
     2
370
     9
100
AcDbCircle
 10
23.23516087374875
 20
-339.8451454483412
 30
0.0
 40
3.999999809909511
100
AcDbArc
 50
183.4336853027344
 51
270.0
  0
ARC
  5
391
330
1F
100
AcDbEntity
  8
0-1
  6
JWW_DASHED1
 62
     2
370
     9
100
AcDbCircle
 10
3.700776635995364
 20
-339.8451454483412
 30
0.0
 40
3.999999809909511
100
AcDbArc
 50
270.0
 51
356.5663146972656
  0
ARC
  5
392
330
1F
100
AcDbEntity
  8
0-1
  6
Continuous
 62
     2
370
     9
100
AcDbCircle
 10
-6.142379508430285
 20
-341.845201534701
 30
0.0
 40
1.999999904954756
100
AcDbArc
 50
191.3099365234375
 51
270.0
  0
ARC
  5
393
330
1F
100
AcDbEntity
  8
0-B
  6
Continuous
 62
     4
370
     9
100
AcDbCircle
 10
40.8130384339261
 20
-331.9351129182525
 30
0.0
 40
2.389999740832561
100
AcDbArc
 50
48.1361083984375
 51
131.8638916015625
  0
ARC
  5
394
330
1F
100
AcDbEntity
  8
0-B
  6
Continuous
 62
     4
370
     9
100
AcDbCircle
 10
29.62294361498598
 20
-331.9351129182525
 30
0.0
 40
2.389999740832561
100
AcDbArc
 50
48.1361083984375
 51
131.8638916015625
  0
ARC
  5
395
330
1F
100
AcDbEntity
  8
0-B
  6
Continuous
 62
     4
370
     9
100
AcDbCircle
 10
35.21792916450045
 20
-342.9633820931892
 30
0.0
 40
13.41822759525196
100
AcDbArc
 50
72.65640258789062
 51
107.3435974121094
  0
ARC
  5
396
330
1F
100
AcDbEntity
  8
0-1
  6
Continuous
 62
     2
370
     9
100
AcDbCircle
 10
23.05514840278169
 20
-336.8451850387128
 30
0.0
 40
3.999999809909511
100
AcDbArc
 50
183.4336853027344
 51
270.0
  0
ARC
  5
397
330
1F
100
AcDbEntity
  8
0-C
  6
Continuous
 62
     2
370
     9
100
AcDbCircle
 10
40.84161773344042
 20
-353.5448986683581
 30
0.0
 40
2.800173050648457
100
AcDbArc
 50
227.9255676269531
 51
312.0746307373047
  0
ARC
  5
398
330
1F
100
AcDbEntity
  8
0-C
  6
Continuous
 62
     2
370
     9
100
AcDbCircle
 10
35.21792916450045
 20
-346.255692653261
 30
0.0
 40
10.08940902916161
100
AcDbArc
 50
248.1978607177734
 51
291.8021392822265
  0
ARC
  5
399
330
1F
100
AcDbEntity
  8
0-C
  6
Continuous
 62
     2
370
     9
100
AcDbCircle
 10
29.59436431547166
 20
-353.5448986683581
 30
0.0
 40
2.800188998918276
100
AcDbArc
 50
227.9257202148438
 51
312.0742797851562
  0
ARC
  5
39A
330
1F
100
AcDbEntity
  8
0-0
  6
Continuous
 62
     3
370
     9
100
AcDbCircle
 10
-121.3655784764414
 20
-331.8450448228133
 30
0.0
 40
2.999999555381569
100
AcDbArc
 50
270.0
 51
351.4696960449219
  0
ARC
  5
39B
330
1F
100
AcDbEntity
  8
0-0
  6
Continuous
 62
     3
370
     9
100
AcDbCircle
 10
-108.1985631945579
 20
-331.8450448228133
 30
0.0
 40
2.999999555381569
100
AcDbArc
 50
188.5303039550781
 51
270.0
  0
ARC
  5
39C
330
1F
100
AcDbEntity
  8
0-1
  6
Continuous
 62
     2
370
     9
100
AcDbCircle
 10
-340.2649496493721
 20
-339.8451454483412
 30
0.0
 40
3.999999809909511
100
AcDbArc
 50
183.4334716796875
 51
270.0
  0
ARC
  5
39D
330
1F
100
AcDbEntity
  8
0-1
  6
Continuous
 62
     2
370
     9
100
AcDbCircle
 10
0.7009399462783072
 20
-339.8451454483412
 30
0.0
 40
3.999999809909511
100
AcDbArc
 50
270.0
 51
356.5665740966797
  0
ARC
  5
39E
330
1F
100
AcDbEntity
  8
0-1
  6
Continuous
 62
     2
370
     9
100
AcDbCircle
 10
-362.7991705768425
 20
-339.8451454483412
 30
0.0
 40
3.999999809909511
100
AcDbArc
 50
270.0
 51
356.5668334960938
  0
TEXT
  5
39F
330
1F
100
AcDbEntity
  8
0-4
  6
Continuous
 62
     2
370
     9
100
AcDbText
 10
-197.2820667115025
 20
-138.119159384152
 30
0.0
 40
15.24
  1
□430
 41
1.1
  7
ＭＳ ゴシック
100
AcDbText
  0
TEXT
  5
3A0
330
1F
100
AcDbEntity
  8
0-4
  6
Continuous
 62
     2
370
     9
100
AcDbText
 10
-197.2820667115025
 20
-178.1470046121926
 30
0.0
 40
15.24
  1
□360
 41
1.1
  7
ＭＳ ゴシック
100
AcDbText
  0
TEXT
  5
3A1
330
1F
100
AcDbEntity
  8
0-4
  6
Continuous
 62
     2
370
     9
100
AcDbText
 10
-197.2820667115025
 20
-217.3845270467365
 30
0.0
 40
15.24
  1
□350
 41
1.1
  7
ＭＳ ゴシック
100
AcDbText
  0
TEXT
  5
3A2
330
1F
100
AcDbEntity
  8
0-4
  6
Continuous
 62
     2
370
     9
100
AcDbText
 10
137.772033896776
 20
-327.9700094797049
 30
0.0
 40
15.24
  1
65
 50
90.00000250447816
 41
1.062500000000001
  7
ＭＳ ゴシック
100
AcDbText
  0
TEXT
  5
3A3
330
1F
100
AcDbEntity
  8
0-4
  6
Continuous
 62
     2
370
     9
100
AcDbText
 10
-205.8425752802722
 20
-315.4699682397344
 30
0.0
 40
15.24
  1
40
 50
90.00000250447816
 41
1.062500000000001
  7
ＭＳ ゴシック
100
AcDbText
  0
TEXT
  5
3A4
330
1F
100
AcDbEntity
  8
0-4
  6
Continuous
 62
     2
370
     9
100
AcDbText
 10
-143.2959743595525
 20
-322.4890813164342
 30
0.0
 40
15.24
  1
6
 50
90.00000250447816
 41
1.000000000000001
  7
ＭＳ ゴシック
100
AcDbText
  0
TEXT
  5
3A5
330
1F
100
AcDbEntity
  8
0-4
  6
Continuous
 62
     2
370
     9
100
AcDbText
 10
-197.2820667115025
 20
-395.7629054251149
 30
0.0
 40
15.24
  1
□310
 41
1.1
  7
ＭＳ ゴシック
100
AcDbText
  0
TEXT
  5
3A6
330
1F
100
AcDbEntity
  8
0-5
  6
Continuous
 62
     7
370
     9
100
AcDbText
 10
103.1504044865021
 20
-108.3440271523108
 30
0.0
 40
11.43
  1
六角ボルト：Ｓ２０Ｃ
 41
1.15
  7
ＭＳ ゴシック
100
AcDbText
  0
TEXT
  5
3A7
330
1F
100
AcDbEntity
  8
0-5
  6
Continuous
 62
     7
370
     9
100
AcDbText
 10
103.1504457264726
 20
-130.7623225228767
 30
0.0
 40
11.43
  1
Ｍ８×２０
 41
1.133333333333334
  7
ＭＳ ゴシック
100
AcDbText
  0
TEXT
  5
3A8
330
1F
100
AcDbEntity
  8
0-5
  6
Continuous
 62
     7
370
     9
100
AcDbText
 10
111.2862258547454
 20
-173.7879012021419
 30
0.0
 40
11.43
  1
アンカー：ＳＳ４００
 41
1.15
  7
ＭＳ ゴシック
100
AcDbText
  0
TEXT
  5
3A9
330
1F
100
AcDbEntity
  8
0-5
  6
Continuous
 62
     7
370
     9
100
AcDbText
 10
112.392813857543
 20
-197.0238614666056
 30
0.0
 40
11.43
  1
電気亜鉛めっき
 41
1.142857142857143
  7
ＭＳ ゴシック
100
AcDbText
  0
TEXT
  5
3AA
330
1F
100
AcDbEntity
  8
0-5
  6
Continuous
 62
     7
370
     9
100
AcDbText
 10
92.08530801796327
 20
-422.7199096876782
 30
0.0
 40
11.43
  1
六角ナット
 41
1.133333333333334
  7
ＭＳ ゴシック
100
AcDbText
  0
TEXT
  5
3AB
330
1F
100
AcDbEntity
  8
0-5
  6
Continuous
 62
     7
370
     9
100
AcDbText
 10
92.08528327398098
 20
-446.5273322225178
 30
0.0
 40
11.43
  1
Ｍ８
 41
1.083333333333333
  7
ＭＳ ゴシック
100
AcDbText
  0
TEXT
  5
3AC
330
1F
100
AcDbEntity
  8
0-5
  6
Continuous
 62
     7
370
     9
100
AcDbText
 10
-9.155503716622935
 20
-466.0290544036832
 30
0.0
 40
11.43
  1
蓋：ＦＣ２００
 41
1.142857142857143
  7
ＭＳ ゴシック
100
AcDbText
  0
TEXT
  5
3AD
330
1F
100
AcDbEntity
  8
0-5
  6
Continuous
 62
     7
370
     9
100
AcDbText
 10
-9.155437732670197
 20
-490.0344287966309
 30
0.0
 40
11.43
  1
樹脂系塗装
 41
1.133333333333333
  7
ＭＳ ゴシック
100
AcDbText
  0
TEXT
  5
3AE
330
1F
100
AcDbEntity
  8
0-5
  6
Continuous
 62
     7
370
     9
100
AcDbText
 10
-254.8358766249316
 20
-438.7917447673868
 30
0.0
 40
11.43
  1
栓：ポリエチレン
 41
1.145833333333333
  7
ＭＳ ゴシック
100
AcDbText
  0
TEXT
  5
3AF
330
1F
100
AcDbEntity
  8
0-5
  6
Continuous
 62
     7
370
     9
100
AcDbText
 10
-537.6137845377273
 20
-397.3203356140929
 30
0.0
 40
11.43
  1
枠：ＦＣ２００
 41
1.142857142857143
  7
ＭＳ ゴシック
100
AcDbText
  0
TEXT
  5
3B0
330
1F
100
AcDbEntity
  8
0-5
  6
Continuous
 62
     7
370
     9
100
AcDbText
 10
-537.6137804137302
 20
-422.0434092125938
 30
0.0
 40
11.43
  1
樹脂系塗装
 41
1.133333333333333
  7
ＭＳ ゴシック
100
AcDbText
  0
TEXT
  5
3B1
330
1F
100
AcDbEntity
  8
0-5
  6
Continuous
 62
     7
370
     9
100
AcDbText
 10
-567.7295966847131
 20
-175.6561955829485
 30
0.0
 40
11.43
  1
目地：ＳＵＳ３０４
 41
1.148148148148148
  7
ＭＳ ゴシック
100
AcDbText
  0
TEXT
  5
3B2
330
1F
100
AcDbEntity
  8
0-5
  6
Continuous
 62
     7
370
     9
100
AcDbText
 10
-566.5553648204024
 20
-196.9876115325895
 30
0.0
 40
11.43
  1
ＦＢ４×２０
 41
1.138888888888889
  7
ＭＳ ゴシック
100
AcDbText
  0
TEXT
  5
3B3
330
1F
100
AcDbEntity
  8
0-5
  6
Continuous
 62
     7
370
     9
100
AcDbText
 10
-492.8732334397542
 20
-84.86817397980234
 30
0.0
 40
11.43
  1
把手：ＳＣＳ１３
 41
1.145833333333333
  7
ＭＳ ゴシック
100
AcDbText
  0
TEXT
  5
3B4
330
1F
100
AcDbEntity
  8
0-5
  6
Continuous
 62
     6
370
     5
100
AcDbText
 10
-515.4501162918446
 20
-442.2901726997137
 30
0.0
 40
11.43
  1
パッキン
 41
0.8833333333333341
  7
ＭＳ ゴシック
100
AcDbText
  0
TEXT
  5
3B5
330
1F
100
AcDbEntity
  8
0-5
  6
Continuous
 62
     6
370
     5
100
AcDbText
 10
-515.4501212406411
 20
-464.1217882508116
 30
0.0
 40
11.43
  1
エチレンプロピレンゴム
 41
0.8939393939393939
  7
ＭＳ ゴシック
100
AcDbText
  0
TEXT
  5
3B6
330
1F
100
AcDbEntity
  8
0-4
  6
Continuous
 62
     2
370
     9
100
AcDbText
 10
-486.5209581141306
 20
231.9790591568028
 30
0.0
 40
15.24
  1
410
 50
90.00000250447816
 41
1.083333333333333
  7
ＭＳ ゴシック
100
AcDbText
  0
TEXT
  5
3B7
330
1F
100
AcDbEntity
  8
0-4
  6
Continuous
 62
     2
370
     9
100
AcDbText
 10
-186.0320667115025
 20
-47.1142567764662
 30
0.0
 40
15.24
  1
410
 41
1.083333333333333
  7
ＭＳ ゴシック
100
AcDbText
  0
TEXT
  5
3B8
330
1F
100
AcDbEntity
  8
F-4
  6
Continuous
 62
     6
370
     5
100
AcDbText
 10
-154.1812976450192
 20
-573.6544106573097
 30
0.0
 40
15.24
  1
タイル用　ステンレス目地　一般型　充填深さ４０ｍｍ
 41
0.7979999999999999
  7
ＭＳ ゴシック
100
AcDbText
  0
TEXT
  5
3B9
330
1F
100
AcDbEntity
  8
F-0
  6
Continuous
 62
     6
370
     5
100
AcDbText
 10
16.74217736791872
 20
-599.0487359728825
 30
0.0
 40
15.24
  1
カラー舗装用鉄蓋　ＭＲＫＳ－３５０
 41
0.7970588235294116
  7
ＭＳ ゴシック
100
AcDbText
  0
ENDSEC
  0
SECTION
  2
OBJECTS
  0
DICTIONARY
  5
C
330
0
100
AcDbDictionary
281
     1
  3
ACAD_GROUP
350
D
  3
ACAD_LAYOUT
350
1A
  3
ACAD_MLEADERSTYLE
350
3BB
  3
ACAD_MLINESTYLE
350
17
  3
ACAD_PLOTSETTINGS
350
19
  3
ACAD_PLOTSTYLENAME
350
E
  3
ACAD_TABLESTYLE
350
3BA
  3
ACAD_VISUALSTYLE
350
2A
  0
DICTIONARY
  5
D
102
{ACAD_REACTORS
330
C
102
}
330
C
100
AcDbDictionary
281
     1
  0
DICTIONARY
  5
1A
102
{ACAD_REACTORS
330
C
102
}
330
C
100
AcDbDictionary
281
     1
  3
Layout1
350
1E
  3
Layout2
350
26
  3
Model
350
22
  0
DICTIONARY
  5
3BB
102
{ACAD_REACTORS
330
C
102
}
330
C
100
AcDbDictionary
281
     1
  0
DICTIONARY
  5
17
102
{ACAD_REACTORS
330
C
102
}
330
C
100
AcDbDictionary
281
     1
  3
Standard
350
18
  0
DICTIONARY
  5
19
102
{ACAD_REACTORS
330
C
102
}
330
C
100
AcDbDictionary
281
     1
  0
ACDBDICTIONARYWDFLT
  5
E
102
{ACAD_REACTORS
330
C
102
}
330
C
100
AcDbDictionary
281
     1
  3
Normal
350
F
100
AcDbDictionaryWithDefault
340
F
  0
DICTIONARY
  5
3BA
102
{ACAD_REACTORS
330
C
102
}
330
C
100
AcDbDictionary
281
     1
  0
DICTIONARY
  5
2A
102
{ACAD_REACTORS
330
C
102
}
330
C
100
AcDbDictionary
281
     1
  3
2dWireframe
350
2F
  3
3D Hidden
350
31
  3
3dWireframe
350
30
  3
Basic
350
32
  3
Brighten
350
36
  3
ColorChange
350
3A
  3
Conceptual
350
34
  3
Dim
350
35
  3
Facepattern
350
39
  3
Flat
350
2B
  3
FlatWithEdges
350
2C
  3
Gouraud
350
2D
  3
GouraudWithEdges
350
2E
  3
Linepattern
350
38
  3
Realistic
350
33
  3
Thicken
350
37
  0
LAYOUT
  5
1E
102
{ACAD_REACTORS
330
1A
102
}
330
1A
100
AcDbPlotSettings
  1

  2
none_device
  4

  6

 40
0.0
 41
0.0
 42
0.0
 43
0.0
 44
0.0
 45
0.0
 46
0.0
 47
0.0
 48
0.0
 49
0.0
140
0.0
141
0.0
142
1.0
143
1.0
 70
   688
 72
     0
 73
     0
 74
     5
  7

 75
    16
 76
     0
 77
     5
 78
   300
147
1.0
148
0.0
149
0.0
100
AcDbLayout
  1
Layout1
 70
     1
 71
     1
 10
0.0
 20
0.0
 11
420.0
 21
297.0
 12
0.0
 22
0.0
 32
0.0
 14
1.000000000000000E+20
 24
1.000000000000000E+20
 34
1.000000000000000E+20
 15
-1.000000000000000E+20
 25
-1.000000000000000E+20
 35
-1.000000000000000E+20
146
0.0
 13
0.0
 23
0.0
 33
0.0
 16
1.0
 26
0.0
 36
0.0
 17
0.0
 27
1.0
 37
0.0
 76
     0
330
1B
  0
LAYOUT
  5
26
102
{ACAD_REACTORS
330
1A
102
}
330
1A
100
AcDbPlotSettings
  1

  2
none_device
  4

  6

 40
0.0
 41
0.0
 42
0.0
 43
0.0
 44
0.0
 45
0.0
 46
0.0
 47
0.0
 48
0.0
 49
0.0
140
0.0
141
0.0
142
1.0
143
1.0
 70
   688
 72
     0
 73
     0
 74
     5
  7

 75
    16
 76
     0
 77
     5
 78
   300
147
1.0
148
0.0
149
0.0
100
AcDbLayout
  1
Layout2
 70
     1
 71
     2
 10
0.0
 20
0.0
 11
0.0
 21
0.0
 12
0.0
 22
0.0
 32
0.0
 14
0.0
 24
0.0
 34
0.0
 15
0.0
 25
0.0
 35
0.0
146
0.0
 13
0.0
 23
0.0
 33
0.0
 16
1.0
 26
0.0
 36
0.0
 17
0.0
 27
1.0
 37
0.0
 76
     0
330
23
  0
LAYOUT
  5
22
102
{ACAD_REACTORS
330
1A
102
}
330
1A
100
AcDbPlotSettings
  1

  2
none_device
  4

  6

 40
0.0
 41
0.0
 42
0.0
 43
0.0
 44
0.0
 45
0.0
 46
0.0
 47
0.0
 48
0.0
 49
0.0
140
0.0
141
0.0
142
1.0
143
1.0
 70
  1712
 72
     0
 73
     0
 74
     0
  7

 75
     0
 76
     0
 77
     5
 78
   300
147
1.0
148
0.0
149
0.0
100
AcDbLayout
  1
Model
 70
     1
 71
     0
 10
-1050.0
 20
-742.5
 11
1050.0
 21
742.5
 12
0.0
 22
0.0
 32
0.0
 14
-1050.0
 24
-742.5
 34
0.0
 15
1050.0
 25
742.5
 35
0.0
146
0.0
 13
0.0
 23
0.0
 33
0.0
 16
1.0
 26
0.0
 36
0.0
 17
0.0
 27
1.0
 37
0.0
 76
     0
330
1F
331
29
  0
MLINESTYLE
  5
18
102
{ACAD_REACTORS
330
17
102
}
330
17
100
AcDbMlineStyle
  2
Standard
 70
     0
  3

 62
   256
 51
90.0
 52
90.0
 71
     2
 49
0.5
 62
   256
  6
BYLAYER
 49
-0.5
 62
   256
  6
BYLAYER
  0
ACDBPLACEHOLDER
  5
F
102
{ACAD_REACTORS
330
E
102
}
330
E
  0
VISUALSTYLE
  5
2F
102
{ACAD_REACTORS
330
2A
102
}
330
2A
100
AcDbVisualStyle
  2
2dWireframe
 70
     4
 71
     0
 72
     2
 73
     0
 90
        0
 40
-0.6
 41
-30.0
 62
     5
 63
     7
421
 16777215
 74
     1
 91
        4
 64
     7
 65
   257
 75
     1
175
     1
 42
1.0
 92
        0
 66
   257
 43
1.0
 76
     1
 77
     6
 78
     2
 67
     7
 79
     5
170
     0
171
     0
290
     0
174
     0
 93
        1
 44
0.0
173
     0
291
     0
 45
0.0
1001
ACAD
1000
AcDbSavedByObjectVersion
1070
     0
  0
VISUALSTYLE
  5
31
102
{ACAD_REACTORS
330
2A
102
}
330
2A
100
AcDbVisualStyle
  2
3D Hidden
 70
     6
 71
     1
 72
     2
 73
     2
 90
        0
 40
-0.6
 41
-30.0
 62
     5
 63
     7
421
 16777215
 74
     2
 91
        2
 64
     7
 65
   257
 75
     2
175
     1
 42
40.0
 92
        0
 66
   257
 43
1.0
 76
     1
 77
     6
 78
     2
 67
     7
 79
     3
170
     0
171
     0
290
     0
174
     0
 93
        1
 44
0.0
173
     0
291
     0
 45
0.0
1001
ACAD
1000
AcDbSavedByObjectVersion
1070
     0
  0
VISUALSTYLE
  5
30
102
{ACAD_REACTORS
330
2A
102
}
330
2A
100
AcDbVisualStyle
  2
3dWireframe
 70
     5
 71
     0
 72
     2
 73
     0
 90
        0
 40
-0.6
 41
-30.0
 62
     5
 63
     7
421
 16777215
 74
     1
 91
        4
 64
     7
 65
   257
 75
     1
175
     1
 42
1.0
 92
        0
 66
   257
 43
1.0
 76
     1
 77
     6
 78
     2
 67
     7
 79
     5
170
     0
171
     0
290
     0
174
     0
 93
        1
 44
0.0
173
     0
291
     0
 45
0.0
1001
ACAD
1000
AcDbSavedByObjectVersion
1070
     0
  0
VISUALSTYLE
  5
32
102
{ACAD_REACTORS
330
2A
102
}
330
2A
100
AcDbVisualStyle
  2
Basic
 70
     7
 71
     1
 72
     0
 73
     1
 90
        0
 40
-0.6
 41
-30.0
 62
     5
 63
     7
421
 16777215
 74
     0
 91
        4
 64
     7
 65
   257
 75
     1
175
     1
 42
1.0
 92
        8
 66
     7
 43
1.0
 76
     1
 77
     6
 78
     2
 67
     7
 79
     5
170
     0
171
     0
290
     0
174
     0
 93
        1
 44
0.0
173
     0
291
     1
 45
0.0
1001
ACAD
1000
AcDbSavedByObjectVersion
1070
     0
  0
VISUALSTYLE
  5
36
102
{ACAD_REACTORS
330
2A
102
}
330
2A
100
AcDbVisualStyle
  2
Brighten
 70
    12
 71
     2
 72
     2
 73
     0
 90
        0
 40
-0.6
 41
-30.0
 62
     5
 63
     7
421
 16777215
 74
     1
 91
        4
 64
     7
 65
   257
 75
     1
175
     1
 42
1.0
 92
        8
 66
     7
 43
1.0
 76
     1
 77
     6
 78
     2
 67
     7
 79
     5
170
     0
171
     0
290
     0
174
     0
 93
        1
 44
50.0
173
     0
291
     1
 45
0.0
1001
ACAD
1000
AcDbSavedByObjectVersion
1070
     0
  0
VISUALSTYLE
  5
3A
102
{ACAD_REACTORS
330
2A
102
}
330
2A
100
AcDbVisualStyle
  2
ColorChange
 70
    16
 71
     2
 72
     2
 73
     3
 90
        0
 40
-0.6
 41
-30.0
 62
     5
 63
     8
421
  8421504
 74
     1
 91
        4
 64
     7
 65
   257
 75
     1
175
     1
 42
1.0
 92
        8
 66
     8
424
  8421504
 43
1.0
 76
     1
 77
     6
 78
     2
 67
     7
 79
     5
170
     0
171
     0
290
     0
174
     0
 93
        1
 44
0.0
173
     0
291
     1
 45
0.0
1001
ACAD
1000
AcDbSavedByObjectVersion
1070
     0
  0
VISUALSTYLE
  5
34
102
{ACAD_REACTORS
330
2A
102
}
330
2A
100
AcDbVisualStyle
  2
Conceptual
 70
     9
 71
     3
 72
     2
 73
     0
 90
        0
 40
-0.6
 41
-30.0
 62
     5
 63
     7
421
 16777215
 74
     2
 91
        2
 64
     7
 65
   257
 75
     1
175
     1
 42
40.0
 92
        8
 66
     7
 43
1.0
 76
     1
 77
     6
 78
     2
 67
     7
 79
     3
170
     0
171
     0
290
     0
174
     0
 93
        1
 44
0.0
173
     0
291
     0
 45
0.0
1001
ACAD
1000
AcDbSavedByObjectVersion
1070
     0
  0
VISUALSTYLE
  5
35
102
{ACAD_REACTORS
330
2A
102
}
330
2A
100
AcDbVisualStyle
  2
Dim
 70
    11
 71
     2
 72
     2
 73
     0
 90
        0
 40
-0.6
 41
-30.0
 62
     5
 63
     7
421
 16777215
 74
     1
 91
        4
 64
     7
 65
   257
 75
     1
175
     1
 42
1.0
 92
        8
 66
     7
 43
1.0
 76
     1
 77
     6
 78
     2
 67
     7
 79
     5
170
     0
171
     0
290
     0
174
     0
 93
        1
 44
-50.0
173
     0
291
     1
 45
0.0
1001
ACAD
1000
AcDbSavedByObjectVersion
1070
     0
  0
VISUALSTYLE
  5
39
102
{ACAD_REACTORS
330
2A
102
}
330
2A
100
AcDbVisualStyle
  2
Facepattern
 70
    15
 71
     2
 72
     2
 73
     0
 90
        0
 40
-0.6
 41
-30.0
 62
     5
 63
     7
421
 16777215
 74
     1
 91
        4
 64
     7
 65
   257
 75
     1
175
     1
 42
1.0
 92
        8
 66
     7
 43
1.0
 76
     1
 77
     6
 78
     2
 67
     7
 79
     5
170
     0
171
     0
290
     0
174
     0
 93
        1
 44
0.0
173
     0
291
     1
 45
0.0
1001
ACAD
1000
AcDbSavedByObjectVersion
1070
     0
  0
VISUALSTYLE
  5
2B
102
{ACAD_REACTORS
330
2A
102
}
330
2A
100
AcDbVisualStyle
  2
Flat
 70
     0
 71
     2
 72
     1
 73
     1
 90
        2
 40
-0.6
 41
30.0
 62
     5
 63
     7
421
 16777215
 74
     0
 91
        4
 64
     7
 65
   257
 75
     1
175
     1
 42
1.0
 92
        8
 66
     7
 43
1.0
 76
     1
 77
     6
 78
     2
 67
     7
 79
     5
170
     0
171
     0
290
     0
174
     0
 93
       13
 44
0.0
173
     0
291
     1
 45
0.0
1001
ACAD
1000
AcDbSavedByObjectVersion
1070
     0
  0
VISUALSTYLE
  5
2C
102
{ACAD_REACTORS
330
2A
102
}
330
2A
100
AcDbVisualStyle
  2
FlatWithEdges
 70
     1
 71
     2
 72
     1
 73
     1
 90
        2
 40
-0.6
 41
30.0
 62
     5
 63
     7
421
 16777215
 74
     1
 91
        4
 64
     7
 65
   257
 75
     1
175
     1
 42
1.0
 92
        0
 66
   257
 43
1.0
 76
     1
 77
     6
 78
     2
 67
     7
 79
     5
170
     0
171
     0
290
     0
174
     0
 93
       13
 44
0.0
173
     0
291
     1
 45
0.0
1001
ACAD
1000
AcDbSavedByObjectVersion
1070
     0
  0
VISUALSTYLE
  5
2D
102
{ACAD_REACTORS
330
2A
102
}
330
2A
100
AcDbVisualStyle
  2
Gouraud
 70
     2
 71
     2
 72
     2
 73
     1
 90
        2
 40
-0.6
 41
30.0
 62
     5
 63
     7
421
 16777215
 74
     0
 91
        4
 64
     7
 65
   257
 75
     1
175
     1
 42
1.0
 92
        0
 66
     7
 43
1.0
 76
     1
 77
     6
 78
     2
 67
     7
 79
     5
170
     0
171
     0
290
     0
174
     0
 93
       13
 44
0.0
173
     0
291
     1
 45
0.0
1001
ACAD
1000
AcDbSavedByObjectVersion
1070
     0
  0
VISUALSTYLE
  5
2E
102
{ACAD_REACTORS
330
2A
102
}
330
2A
100
AcDbVisualStyle
  2
GouraudWithEdges
 70
     3
 71
     2
 72
     2
 73
     1
 90
        2
 40
-0.6
 41
30.0
 62
     5
 63
     7
421
 16777215
 74
     1
 91
        4
 64
     7
 65
   257
 75
     1
175
     1
 42
1.0
 92
        0
 66
   257
 43
1.0
 76
     1
 77
     6
 78
     2
 67
     7
 79
     5
170
     0
171
     0
290
     0
174
     0
 93
       13
 44
0.0
173
     0
291
     1
 45
0.0
1001
ACAD
1000
AcDbSavedByObjectVersion
1070
     0
  0
VISUALSTYLE
  5
38
102
{ACAD_REACTORS
330
2A
102
}
330
2A
100
AcDbVisualStyle
  2
Linepattern
 70
    14
 71
     2
 72
     2
 73
     0
 90
        0
 40
-0.6
 41
-30.0
 62
     5
 63
     7
421
 16777215
 74
     1
 91
        4
 64
     7
 65
   257
 75
     7
175
     7
 42
1.0
 92
        8
 66
     7
 43
1.0
 76
     1
 77
     6
 78
     2
 67
     7
 79
     5
170
     0
171
     0
290
     0
174
     0
 93
        1
 44
0.0
173
     0
291
     1
 45
0.0
1001
ACAD
1000
AcDbSavedByObjectVersion
1070
     0
  0
VISUALSTYLE
  5
33
102
{ACAD_REACTORS
330
2A
102
}
330
2A
100
AcDbVisualStyle
  2
Realistic
 70
     8
 71
     2
 72
     2
 73
     0
 90
        0
 40
-0.6
 41
-30.0
 62
     5
 63
     7
421
 16777215
 74
     1
 91
        0
 64
     7
 65
   257
 75
     1
175
     1
 42
1.0
 92
        8
 66
     8
424
  7895160
 43
1.0
 76
     1
 77
     6
 78
     2
 67
     7
 79
     5
170
     0
171
     0
290
     0
174
     0
 93
       13
 44
0.0
173
     0
291
     0
 45
0.0
1001
ACAD
1000
AcDbSavedByObjectVersion
1070
     0
  0
VISUALSTYLE
  5
37
102
{ACAD_REACTORS
330
2A
102
}
330
2A
100
AcDbVisualStyle
  2
Thicken
 70
    13
 71
     2
 72
     2
 73
     0
 90
        0
 40
-0.6
 41
-30.0
 62
     5
 63
     7
421
 16777215
 74
     1
 91
        4
 64
     7
 65
   257
 75
     1
175
     1
 42
1.0
 92
       12
 66
     7
 43
1.0
 76
     1
 77
     6
 78
     2
 67
     7
 79
     5
170
     0
171
     0
290
     0
174
     0
 93
        1
 44
0.0
173
     0
291
     1
 45
0.0
1001
ACAD
1000
AcDbSavedByObjectVersion
1070
     0
  0
ENDSEC
  0
EOF
