  0
SECTION
  2
HEADER
  9
$ACADVER
  1
AC1015
  9
$ACADMAINTVER
 70
     6
  9
$DWGCODEPAGE
  3
ANSI_932
  9
$INSBASE
 10
0.0
 20
0.0
 30
0.0
  9
$EXTMIN
 10
-2100.0
 20
-1485.0
 30
0.0
  9
$EXTMAX
 10
2100.0
 20
1485.0
 30
0.0
  9
$LIMMIN
 10
-2100.0
 20
-1485.0
  9
$LIMMAX
 10
2100.0
 20
1485.0
  9
$ORTHOMODE
 70
     0
  9
$REGENMODE
 70
     1
  9
$FILLMODE
 70
     1
  9
$QTEXTMODE
 70
     0
  9
$MIRRTEXT
 70
     1
  9
$LTSCALE
 40
10.0
  9
$ATTMODE
 70
     1
  9
$TEXTSIZE
 40
2.5
  9
$TRACEWID
 40
1.0
  9
$TEXTSTYLE
  7
Standard
  9
$CLAYER
  8
0
  9
$CELTYPE
  6
ByLayer
  9
$CECOLOR
 62
   256
  9
$CELTSCALE
 40
1.0
  9
$DISPSILH
 70
     0
  9
$DIMSCALE
 40
1.0
  9
$DIMASZ
 40
2.5
  9
$DIMEXO
 40
0.625
  9
$DIMDLI
 40
3.75
  9
$DIMRND
 40
0.0
  9
$DIMDLE
 40
0.0
  9
$DIMEXE
 40
1.25
  9
$DIMTP
 40
0.0
  9
$DIMTM
 40
0.0
  9
$DIMTXT
 40
2.5
  9
$DIMCEN
 40
2.5
  9
$DIMTSZ
 40
0.0
  9
$DIMTOL
 70
     0
  9
$DIMLIM
 70
     0
  9
$DIMTIH
 70
     0
  9
$DIMTOH
 70
     0
  9
$DIMSE1
 70
     0
  9
$DIMSE2
 70
     0
  9
$DIMTAD
 70
     1
  9
$DIMZIN
 70
     8
  9
$DIMBLK
  1

  9
$DIMASO
 70
     1
  9
$DIMSHO
 70
     1
  9
$DIMPOST
  1

  9
$DIMAPOST
  1

  9
$DIMALT
 70
     0
  9
$DIMALTD
 70
     3
  9
$DIMALTF
 40
0.03937007874016
  9
$DIMLFAC
 40
1.0
  9
$DIMTOFL
 70
     1
  9
$DIMTVP
 40
0.0
  9
$DIMTIX
 70
     0
  9
$DIMSOXD
 70
     0
  9
$DIMSAH
 70
     0
  9
$DIMBLK1
  1

  9
$DIMBLK2
  1

  9
$DIMSTYLE
  2
ISO-25
  9
$DIMCLRD
 70
     0
  9
$DIMCLRE
 70
     0
  9
$DIMCLRT
 70
     0
  9
$DIMTFAC
 40
1.0
  9
$DIMGAP
 40
0.625
  9
$DIMJUST
 70
     0
  9
$DIMSD1
 70
     0
  9
$DIMSD2
 70
     0
  9
$DIMTOLJ
 70
     0
  9
$DIMTZIN
 70
     8
  9
$DIMALTZ
 70
     0
  9
$DIMALTTZ
 70
     0
  9
$DIMUPT
 70
     0
  9
$DIMDEC
 70
     2
  9
$DIMTDEC
 70
     2
  9
$DIMALTU
 70
     2
  9
$DIMALTTD
 70
     3
  9
$DIMTXSTY
  7
Standard
  9
$DIMAUNIT
 70
     0
  9
$DIMADEC
 70
     0
  9
$DIMALTRND
 40
0.0
  9
$DIMAZIN
 70
     0
  9
$DIMDSEP
 70
    44
  9
$DIMATFIT
 70
     3
  9
$DIMFRAC
 70
     0
  9
$DIMLDRBLK
  1

  9
$DIMLUNIT
 70
     2
  9
$DIMLWD
 70
    -2
  9
$DIMLWE
 70
    -2
  9
$DIMTMOVE
 70
     0
  9
$LUNITS
 70
     2
  9
$LUPREC
 70
     4
  9
$SKETCHINC
 40
1.0
  9
$FILLETRAD
 40
10.0
  9
$AUNITS
 70
     0
  9
$AUPREC
 70
     0
  9
$MENU
  1
.
  9
$ELEVATION
 40
0.0
  9
$PELEVATION
 40
0.0
  9
$THICKNESS
 40
0.0
  9
$LIMCHECK
 70
     0
  9
$CHAMFERA
 40
10.0
  9
$CHAMFERB
 40
10.0
  9
$CHAMFERC
 40
20.0
  9
$CHAMFERD
 40
0.0
  9
$SKPOLY
 70
     0
  9
$TDCREATE
 40
2456904.663458379
  9
$TDUCREATE
 40
2456904.288458379
  9
$TDUPDATE
 40
2456904.663458391
  9
$TDUUPDATE
 40
2456904.288458391
  9
$TDINDWG
 40
0.0000000116
  9
$TDUSRTIMER
 40
0.0000000116
  9
$USRTIMER
 70
     1
  9
$ANGBASE
 50
0.0
  9
$ANGDIR
 70
     0
  9
$PDMODE
 70
     0
  9
$PDSIZE
 40
0.0
  9
$PLINEWID
 40
0.0
  9
$SPLFRAME
 70
     0
  9
$SPLINETYPE
 70
     6
  9
$SPLINESEGS
 70
     8
  9
$HANDSEED
  5
1D8
  9
$SURFTAB1
 70
     6
  9
$SURFTAB2
 70
     6
  9
$SURFTYPE
 70
     6
  9
$SURFU
 70
     6
  9
$SURFV
 70
     6
  9
$UCSBASE
  2

  9
$UCSNAME
  2

  9
$UCSORG
 10
0.0
 20
0.0
 30
0.0
  9
$UCSXDIR
 10
1.0
 20
0.0
 30
0.0
  9
$UCSYDIR
 10
0.0
 20
1.0
 30
0.0
  9
$UCSORTHOREF
  2

  9
$UCSORTHOVIEW
 70
     0
  9
$UCSORGTOP
 10
0.0
 20
0.0
 30
0.0
  9
$UCSORGBOTTOM
 10
0.0
 20
0.0
 30
0.0
  9
$UCSORGLEFT
 10
0.0
 20
0.0
 30
0.0
  9
$UCSORGRIGHT
 10
0.0
 20
0.0
 30
0.0
  9
$UCSORGFRONT
 10
0.0
 20
0.0
 30
0.0
  9
$UCSORGBACK
 10
0.0
 20
0.0
 30
0.0
  9
$PUCSBASE
  2

  9
$PUCSNAME
  2

  9
$PUCSORG
 10
0.0
 20
0.0
 30
0.0
  9
$PUCSXDIR
 10
1.0
 20
0.0
 30
0.0
  9
$PUCSYDIR
 10
0.0
 20
1.0
 30
0.0
  9
$PUCSORTHOREF
  2

  9
$PUCSORTHOVIEW
 70
     0
  9
$PUCSORGTOP
 10
0.0
 20
0.0
 30
0.0
  9
$PUCSORGBOTTOM
 10
0.0
 20
0.0
 30
0.0
  9
$PUCSORGLEFT
 10
0.0
 20
0.0
 30
0.0
  9
$PUCSORGRIGHT
 10
0.0
 20
0.0
 30
0.0
  9
$PUCSORGFRONT
 10
0.0
 20
0.0
 30
0.0
  9
$PUCSORGBACK
 10
0.0
 20
0.0
 30
0.0
  9
$USERI1
 70
     0
  9
$USERI2
 70
     0
  9
$USERI3
 70
     0
  9
$USERI4
 70
     0
  9
$USERI5
 70
     0
  9
$USERR1
 40
0.0
  9
$USERR2
 40
0.0
  9
$USERR3
 40
0.0
  9
$USERR4
 40
0.0
  9
$USERR5
 40
0.0
  9
$WORLDVIEW
 70
     1
  9
$SHADEDGE
 70
     3
  9
$SHADEDIF
 70
    70
  9
$TILEMODE
 70
     1
  9
$MAXACTVP
 70
    64
  9
$PINSBASE
 10
0.0
 20
0.0
 30
0.0
  9
$PLIMCHECK
 70
     0
  9
$PEXTMIN
 10
1.000000000000000E+20
 20
1.000000000000000E+20
 30
1.000000000000000E+20
  9
$PEXTMAX
 10
-1.000000000000000E+20
 20
-1.000000000000000E+20
 30
-1.000000000000000E+20
  9
$PLIMMIN
 10
0.0
 20
0.0
  9
$PLIMMAX
 10
420.0
 20
297.0
  9
$UNITMODE
 70
     0
  9
$VISRETAIN
 70
     1
  9
$PLINEGEN
 70
     0
  9
$PSLTSCALE
 70
     1
  9
$TREEDEPTH
 70
  3020
  9
$CMLSTYLE
  2
Standard
  9
$CMLJUST
 70
     0
  9
$CMLSCALE
 40
20.0
  9
$PROXYGRAPHICS
 70
     1
  9
$MEASUREMENT
 70
     1
  9
$CELWEIGHT
370
    -1
  9
$ENDCAPS
280
     0
  9
$JOINSTYLE
280
     0
  9
$LWDISPLAY
290
     0
  9
$INSUNITS
 70
     4
  9
$HYPERLINKBASE
  1

  9
$STYLESHEET
  1

  9
$XEDIT
290
     1
  9
$CEPSNTYPE
380
     0
  9
$PSTYLEMODE
290
     1
  9
$FINGERPRINTGUID
  2
{27A2BC73-B05D-4F84-A654-2B864835D69F}
  9
$VERSIONGUID
  2
{FAEB1C32-E019-11D5-929B-00C0DF256EC4}
  9
$EXTNAMES
290
     1
  9
$PSVPSCALE
 40
0.0
  9
$OLESTARTUP
290
     0
  0
ENDSEC
  0
SECTION
  2
CLASSES
  0
CLASS
  1
ACDBDICTIONARYWDFLT
  2
AcDbDictionaryWithDefault
  3
ObjectDBX Classes
 90
        0
280
     0
281
     0
  0
CLASS
  1
VISUALSTYLE
  2
AcDbVisualStyle
  3
ObjectDBX Classes
 90
     4095
280
     0
281
     0
  0
CLASS
  1
DICTIONARYVAR
  2
AcDbDictionaryVar
  3
ObjectDBX Classes
 90
        0
280
     0
281
     0
  0
CLASS
  1
ACDBPLACEHOLDER
  2
AcDbPlaceHolder
  3
ObjectDBX Classes
 90
        0
280
     0
281
     0
  0
CLASS
  1
LAYOUT
  2
AcDbLayout
  3
ObjectDBX Classes
 90
        0
280
     0
281
     0
  0
ENDSEC
  0
SECTION
  2
TABLES
  0
TABLE
  2
VPORT
  5
8
330
0
100
AcDbSymbolTable
 70
     1
  0
VPORT
  5
29
330
8
100
AcDbSymbolTableRecord
100
AcDbViewportTableRecord
  2
*Active
 70
     0
 10
0.0
 20
0.0
 11
1.0
 21
1.0
 12
0.0
 22
0.0
 13
0.0
 23
0.0
 14
10.0
 24
10.0
 15
10.0
 25
10.0
 16
0.0
 26
0.0
 36
1.0
 17
0.0
 27
0.0
 37
0.0
 40
3267.0
 41
1.414141414141414
 42
50.0
 43
0.0
 44
0.0
 50
0.0
 51
0.0
 71
     0
 72
 10000
 73
     1
 74
     3
 75
     0
 76
     0
 77
     0
 78
     0
281
     0
 65
     1
110
0.0
120
0.0
130
0.0
111
1.0
121
0.0
131
0.0
112
0.0
122
1.0
132
0.0
 79
     0
146
0.0
  0
ENDTAB
  0
TABLE
  2
LTYPE
  5
5
330
0
100
AcDbSymbolTable
 70
     3
  0
LTYPE
  5
14
330
5
100
AcDbSymbolTableRecord
100
AcDbLinetypeTableRecord
  2
ByBlock
 70
     0
  3

 72
    65
 73
     0
 40
0.0
  0
LTYPE
  5
15
330
5
100
AcDbSymbolTableRecord
100
AcDbLinetypeTableRecord
  2
ByLayer
 70
     0
  3

 72
    65
 73
     0
 40
0.0
  0
LTYPE
  5
16
330
5
100
AcDbSymbolTableRecord
100
AcDbLinetypeTableRecord
  2
Continuous
 70
     0
  3
Solid line
 72
    65
 73
     0
 40
0.0
  0
LTYPE
  5
3C
330
5
100
AcDbSymbolTableRecord
100
AcDbLinetypeTableRecord
  2
JWW_DASHED1
 70
     0
  3
-  --  --  --  --  --  --  --  -
 72
    65
 73
     2
 40
1.693333333333333
 49
0.8466666666666667
 74
     0
 49
-0.8466666666666667
 74
     0
  0
LTYPE
  5
3D
330
5
100
AcDbSymbolTableRecord
100
AcDbLinetypeTableRecord
  2
JWW_CENTER1
 70
     0
  3
-----  --  ----------  --  -----
 72
    65
 73
     4
 40
6.773333333333333
 49
4.233333333333333
 74
     0
 49
-0.8466666666666667
 74
     0
 49
0.8466666666666667
 74
     0
 49
-0.8466666666666667
 74
     0
  0
ENDTAB
  0
TABLE
  2
LAYER
  5
2
330
0
100
AcDbSymbolTable
 70
     8
  0
LAYER
  5
10
330
2
100
AcDbSymbolTableRecord
100
AcDbLayerTableRecord
  2
0
 70
     0
 62
     7
  6
Continuous
370
    -3
390
F
  0
LAYER
  5
3E
330
2
100
AcDbSymbolTableRecord
100
AcDbLayerTableRecord
  2
0-0
 70
     0
 62
     7
  6
Continuous
370
    -3
390
F
  0
LAYER
  5
3F
330
2
100
AcDbSymbolTableRecord
100
AcDbLayerTableRecord
  2
0-2
 70
     0
 62
     7
  6
Continuous
370
    -3
390
F
  0
LAYER
  5
40
330
2
100
AcDbSymbolTableRecord
100
AcDbLayerTableRecord
  2
0-1
 70
     0
 62
     7
  6
Continuous
370
    -3
390
F
  0
LAYER
  5
41
330
2
100
AcDbSymbolTableRecord
100
AcDbLayerTableRecord
  2
0-3
 70
     0
 62
     7
  6
Continuous
370
    -3
390
F
  0
LAYER
  5
42
330
2
100
AcDbSymbolTableRecord
100
AcDbLayerTableRecord
  2
0-4
 70
     0
 62
     7
  6
Continuous
370
    -3
390
F
  0
LAYER
  5
43
330
2
100
AcDbSymbolTableRecord
100
AcDbLayerTableRecord
  2
0-E
 70
     0
 62
     7
  6
Continuous
370
    -3
390
F
  0
LAYER
  5
44
330
2
100
AcDbSymbolTableRecord
100
AcDbLayerTableRecord
  2
F-5
 70
     0
 62
     7
  6
Continuous
370
    -3
390
F
  0
ENDTAB
  0
TABLE
  2
STYLE
  5
3
330
0
100
AcDbSymbolTable
 70
     2
  0
STYLE
  5
11
330
3
100
AcDbSymbolTableRecord
100
AcDbTextStyleTableRecord
  2
Standard
 70
     0
 40
0.0
 41
1.0
 50
0.0
 71
     0
 42
2.5
  3
txt
  4

1001
ACAD
1000

1071
        0
  0
STYLE
  5
3B
330
3
100
AcDbSymbolTableRecord
100
AcDbTextStyleTableRecord
  2
ＭＳ ゴシック
 70
     0
 40
1.0
 41
1.0
 50
0.0
 71
     0
 42
10.0
  3

  4

1001
ACAD
1000
MS Gothic
1071
    32817
  0
ENDTAB
  0
TABLE
  2
VIEW
  5
6
330
0
100
AcDbSymbolTable
 70
     0
  0
ENDTAB
  0
TABLE
  2
UCS
  5
7
330
0
100
AcDbSymbolTable
 70
     0
  0
ENDTAB
  0
TABLE
  2
APPID
  5
9
330
0
100
AcDbSymbolTable
 70
     1
  0
APPID
  5
12
330
9
100
AcDbSymbolTableRecord
100
AcDbRegAppTableRecord
  2
ACAD
 70
     0
  0
ENDTAB
  0
TABLE
  2
DIMSTYLE
  5
A
330
0
100
AcDbSymbolTable
 70
     1
100
AcDbDimStyleTable
  0
DIMSTYLE
105
27
330
A
100
AcDbSymbolTableRecord
100
AcDbDimStyleTableRecord
  2
ISO-25
 70
     0
 41
2.5
 42
0.625
 43
3.75
 44
1.25
 73
     0
 74
     0
 77
     1
 78
     8
140
2.5
141
2.5
143
0.03937007874016
147
0.625
171
     3
172
     1
271
     2
272
     2
274
     3
278
    44
283
     0
284
     8
340
11
  0
ENDTAB
  0
TABLE
  2
BLOCK_RECORD
  5
1
330
0
100
AcDbSymbolTable
 70
     1
  0
BLOCK_RECORD
  5
1F
330
1
100
AcDbSymbolTableRecord
100
AcDbBlockTableRecord
  2
*Model_Space
340
22
  0
BLOCK_RECORD
  5
1B
330
1
100
AcDbSymbolTableRecord
100
AcDbBlockTableRecord
  2
*Paper_Space
340
1E
  0
BLOCK_RECORD
  5
23
330
1
100
AcDbSymbolTableRecord
100
AcDbBlockTableRecord
  2
*Paper_Space0
340
26
  0
ENDTAB
  0
ENDSEC
  0
SECTION
  2
BLOCKS
  0
BLOCK
  5
20
330
1F
100
AcDbEntity
  8
0
100
AcDbBlockBegin
  2
*Model_Space
 70
     0
 10
0.0
 20
0.0
 30
0.0
  3
*Model_Space
  1

  0
ENDBLK
  5
21
330
1F
100
AcDbEntity
  8
0
100
AcDbBlockEnd
  0
BLOCK
  5
1C
330
1B
100
AcDbEntity
 67
     1
  8
0
100
AcDbBlockBegin
  2
*Paper_Space
 70
     0
 10
0.0
 20
0.0
 30
0.0
  3
*Paper_Space
  1

  0
ENDBLK
  5
1D
330
1B
100
AcDbEntity
 67
     1
  8
0
100
AcDbBlockEnd
  0
BLOCK
  5
24
330
23
100
AcDbEntity
  8
0
100
AcDbBlockBegin
  2
*Paper_Space0
 70
     0
 10
0.0
 20
0.0
 30
0.0
  3
*Paper_Space0
  1

  0
ENDBLK
  5
25
330
23
100
AcDbEntity
  8
0
100
AcDbBlockEnd
  0
ENDSEC
  0
SECTION
  2
ENTITIES
  0
LINE
  5
45
330
1F
100
AcDbEntity
  8
0-0
  6
Continuous
 62
     3
370
     9
100
AcDbLine
 10
-352.7928945180531
 20
1191.406860351562
 30
0.0
 11
-352.7928945180531
 21
524.7401386982688
 31
0.0
  0
LINE
  5
46
330
1F
100
AcDbEntity
  8
0-0
  6
Continuous
 62
     3
370
     9
100
AcDbLine
 10
-849.4595501873944
 20
1191.406860351562
 30
0.0
 11
-352.7928945180531
 21
1191.406860351562
 31
0.0
  0
LINE
  5
47
330
1F
100
AcDbEntity
  8
0-0
  6
Continuous
 62
     3
370
     9
100
AcDbLine
 10
-1019.459492451436
 20
694.7402046822214
 30
0.0
 11
-1019.459492451436
 21
1021.40679436761
 31
0.0
  0
LINE
  5
48
330
1F
100
AcDbEntity
  8
0-0
  6
Continuous
 62
     3
370
     9
100
AcDbLine
 10
-849.4595501873944
 20
524.7401386982688
 30
0.0
 11
-352.7928945180531
 21
524.7401386982688
 31
0.0
  0
LINE
  5
49
330
1F
100
AcDbEntity
  8
0-2
  6
JWW_DASHED1
 62
     6
370
     9
100
AcDbLine
 10
-459.4593769795185
 20
1134.073568808066
 30
0.0
 11
-359.4594182194888
 21
1134.073568808066
 31
0.0
  0
LINE
  5
4A
330
1F
100
AcDbEntity
  8
0-2
  6
JWW_DASHED1
 62
     6
370
     9
100
AcDbLine
 10
-459.4593769795185
 20
582.0735539616766
 30
0.0
 11
-359.4594182194888
 21
582.0735539616766
 31
0.0
  0
LINE
  5
4B
330
1F
100
AcDbEntity
  8
0-2
  6
JWW_DASHED1
 62
     6
370
     9
100
AcDbLine
 10
-962.1262009079392
 20
808.0735820048565
 30
0.0
 11
-962.1262009079392
 21
908.0736644847974
 31
0.0
  0
LINE
  5
4C
330
1F
100
AcDbEntity
  8
0-1
  6
Continuous
 62
     2
370
     9
100
AcDbLine
 10
-1014.459475955447
 20
694.7402046822214
 30
0.0
 11
-1014.459475955447
 21
1021.40679436761
 31
0.0
  0
LINE
  5
4D
330
1F
100
AcDbEntity
  8
0-0
  6
Continuous
 62
     3
370
     9
100
AcDbLine
 10
-352.7928945180531
 20
64.04529468433282
 30
0.0
 11
-352.7928945180531
 21
-669.2880249023438
 31
0.0
  0
LINE
  5
4E
330
1F
100
AcDbEntity
  8
0-0
  6
Continuous
 62
     3
370
     9
100
AcDbLine
 10
-1019.459492451436
 20
64.04529468433282
 30
0.0
 11
-1019.459492451436
 21
-669.2880249023438
 31
0.0
  0
LINE
  5
4F
330
1F
100
AcDbEntity
  8
0-0
  6
Continuous
 62
     3
370
     9
100
AcDbLine
 10
-626.1261811127533
 20
-835.9545815957558
 30
0.0
 11
-879.4595254434121
 21
-835.9545815957558
 31
0.0
  0
LINE
  5
50
330
1F
100
AcDbEntity
  8
0-2
  6
Continuous
 62
     6
370
     9
100
AcDbLine
 10
-1015.459503998627
 20
45.71198334565054
 30
0.0
 11
-1015.459503998627
 21
2.378589527027088
 31
0.0
  0
LINE
  5
51
330
1F
100
AcDbEntity
  8
0-2
  6
Continuous
 62
     6
370
     9
100
AcDbLine
 10
-1010.459487502639
 20
2.378589527027088
 30
0.0
 11
-1015.459503998627
 21
2.378589527027088
 31
0.0
  0
LINE
  5
52
330
1F
100
AcDbEntity
  8
0-2
  6
Continuous
 62
     6
370
     9
100
AcDbLine
 10
-1010.459487502639
 20
45.71198334565054
 30
0.0
 11
-1010.459487502639
 21
2.378589527027088
 31
0.0
  0
LINE
  5
53
330
1F
100
AcDbEntity
  8
0-2
  6
Continuous
 62
     6
370
     9
100
AcDbLine
 10
-962.1262009079392
 20
55.71189261771536
 30
0.0
 11
-962.1262009079392
 21
50.71199984163854
 31
0.0
  0
LINE
  5
54
330
1F
100
AcDbEntity
  8
0-2
  6
Continuous
 62
     6
370
     9
100
AcDbLine
 10
-459.4593769795185
 20
55.71189261771536
 30
0.0
 11
-459.4593769795185
 21
2.378589527027088
 31
0.0
  0
LINE
  5
55
330
1F
100
AcDbEntity
  8
0-1
  6
Continuous
 62
     2
370
     9
100
AcDbLine
 10
-1014.459475955447
 20
60.71190911370365
 30
0.0
 11
-1014.459475955447
 21
55.71189261771536
 31
0.0
  0
LINE
  5
56
330
1F
100
AcDbEntity
  8
0-1
  6
Continuous
 62
     2
370
     9
100
AcDbLine
 10
-357.7927872941299
 20
60.71190911370365
 30
0.0
 11
-357.7927872941299
 21
55.71189261771536
 31
0.0
  0
LINE
  5
57
330
1F
100
AcDbEntity
  8
0-1
  6
Continuous
 62
     2
370
     9
100
AcDbLine
 10
-852.7926883182009
 20
60.71190911370365
 30
0.0
 11
-852.7926883182009
 21
55.71189261771536
 31
0.0
  0
LINE
  5
58
330
1F
100
AcDbEntity
  8
0-1
  6
Continuous
 62
     2
370
     9
100
AcDbLine
 10
-786.1260903848182
 20
60.71190911370365
 30
0.0
 11
-786.1260903848182
 21
55.71189261771536
 31
0.0
  0
LINE
  5
59
330
1F
100
AcDbEntity
  8
0-1
  6
Continuous
 62
     2
370
     9
100
AcDbLine
 10
-719.4594924514356
 20
60.71190911370365
 30
0.0
 11
-719.4594924514356
 21
55.71189261771536
 31
0.0
  0
LINE
  5
5A
330
1F
100
AcDbEntity
  8
0-1
  6
Continuous
 62
     2
370
     9
100
AcDbLine
 10
-652.7927707981419
 20
60.71190911370365
 30
0.0
 11
-652.7927707981419
 21
55.71189261771536
 31
0.0
  0
LINE
  5
5B
330
1F
100
AcDbEntity
  8
0-1
  6
Continuous
 62
     2
370
     9
100
AcDbLine
 10
-586.1261728647592
 20
60.71190911370365
 30
0.0
 11
-586.1261728647592
 21
55.71189261771536
 31
0.0
  0
LINE
  5
5C
330
1F
100
AcDbEntity
  8
0-1
  6
Continuous
 62
     2
370
     9
100
AcDbLine
 10
-519.4594512114654
 20
60.71190911370365
 30
0.0
 11
-519.4594512114654
 21
55.71189261771536
 31
0.0
  0
LINE
  5
5D
330
1F
100
AcDbEntity
  8
0-0
  6
Continuous
 62
     3
370
     9
100
AcDbLine
 10
839.5365947001693
 20
-835.9545815957558
 30
0.0
 11
586.2032503695104
 21
-835.9545815957558
 31
0.0
  0
LINE
  5
5E
330
1F
100
AcDbEntity
  8
0-0
  6
Continuous
 62
     3
370
     9
100
AcDbLine
 10
586.2032503695104
 20
-669.2880249023438
 30
0.0
 11
586.2032503695104
 21
-835.9545815957558
 31
0.0
  0
LINE
  5
5F
330
1F
100
AcDbEntity
  8
0-0
  6
Continuous
 62
     3
370
     9
100
AcDbLine
 10
839.5365947001693
 20
-669.2880249023438
 30
0.0
 11
839.5365947001693
 21
-835.9545815957558
 31
0.0
  0
LINE
  5
60
330
1F
100
AcDbEntity
  8
0-0
  6
Continuous
 62
     3
370
     9
100
AcDbLine
 10
379.5365617081927
 20
-669.2880249023438
 30
0.0
 11
1046.203283361486
 21
-669.2880249023438
 31
0.0
  0
LINE
  5
61
330
1F
100
AcDbEntity
  8
0-0
  6
Continuous
 62
     3
370
     9
100
AcDbLine
 10
379.5365617081927
 20
64.04529468433282
 30
0.0
 11
379.5365617081927
 21
-669.2880249023438
 31
0.0
  0
LINE
  5
62
330
1F
100
AcDbEntity
  8
0-0
  6
Continuous
 62
     3
370
     9
100
AcDbLine
 10
1046.203283361486
 20
64.04529468433282
 30
0.0
 11
1046.203283361486
 21
-669.2880249023438
 31
0.0
  0
LINE
  5
63
330
1F
100
AcDbEntity
  8
0-0
  6
Continuous
 62
     3
370
     9
100
AcDbLine
 10
429.5364792282518
 20
-19.28798366237316
 30
0.0
 11
429.5364792282518
 21
-52.6214682089315
 31
0.0
  0
LINE
  5
64
330
1F
100
AcDbEntity
  8
0-0
  6
Continuous
 62
     3
370
     9
100
AcDbLine
 10
462.869840054899
 20
-19.28798366237316
 30
0.0
 11
462.869840054899
 21
-52.6214682089315
 31
0.0
  0
LINE
  5
65
330
1F
100
AcDbEntity
  8
0-0
  6
JWW_CENTER1
 62
     3
370
     9
100
AcDbLine
 10
446.2032833614867
 20
4.151619576119288
 30
0.0
 11
446.2032833614867
 21
-76.06107144742396
 31
0.0
  0
LINE
  5
66
330
1F
100
AcDbEntity
  8
0-0
  6
JWW_CENTER1
 62
     3
370
     9
100
AcDbLine
 10
420.4297039959883
 20
-35.9546640756966
 30
0.0
 11
471.9766152871625
 21
-35.9546640756966
 31
0.0
  0
LINE
  5
67
330
1F
100
AcDbEntity
  8
0-0
  6
Continuous
 62
     3
370
     9
100
AcDbLine
 10
996.20361328125
 20
-19.28798366237316
 30
0.0
 11
996.20361328125
 21
-52.6214682089315
 31
0.0
  0
LINE
  5
68
330
1F
100
AcDbEntity
  8
0-0
  6
Continuous
 62
     3
370
     9
100
AcDbLine
 10
962.8700050147808
 20
-19.28798366237316
 30
0.0
 11
962.8700050147808
 21
-52.6214682089315
 31
0.0
  0
LINE
  5
69
330
1F
100
AcDbEntity
  8
0-0
  6
JWW_CENTER1
 62
     3
370
     9
100
AcDbLine
 10
979.5368091480151
 20
4.151619576119288
 30
0.0
 11
979.5368091480151
 21
-76.06107144742396
 31
0.0
  0
LINE
  5
6A
330
1F
100
AcDbEntity
  8
0-0
  6
JWW_CENTER1
 62
     3
370
     9
100
AcDbLine
 10
1005.310141073691
 20
-35.9546640756966
 30
0.0
 11
953.7634772223396
 21
-35.9546640756966
 31
0.0
  0
LINE
  5
6B
330
1F
100
AcDbEntity
  8
0-3
  6
Continuous
 62
     4
370
     9
100
AcDbLine
 10
-1002.792688318201
 20
50.71199984163854
 30
0.0
 11
-1002.792688318201
 21
40.04536396748307
 31
0.0
  0
LINE
  5
6C
330
1F
100
AcDbEntity
  8
0-3
  6
Continuous
 62
     4
370
     9
100
AcDbLine
 10
-979.4594842034417
 20
50.71199984163854
 30
0.0
 11
-979.4594842034417
 21
40.04536396748307
 31
0.0
  0
LINE
  5
6D
330
1F
100
AcDbEntity
  8
0-2
  6
Continuous
 62
     6
370
     9
100
AcDbLine
 10
-359.4594182194888
 20
55.71189261771536
 30
0.0
 11
-359.4594182194888
 21
2.378589527027088
 31
0.0
  0
LINE
  5
6E
330
1F
100
AcDbEntity
  8
0-2
  6
Continuous
 62
     6
370
     9
100
AcDbLine
 10
-459.4593769795185
 20
2.378589527027088
 30
0.0
 11
-359.4594182194888
 21
2.378589527027088
 31
0.0
  0
LINE
  5
6F
330
1F
100
AcDbEntity
  8
0-0
  6
JWW_CENTER1
 62
     3
370
     9
100
AcDbLine
 10
712.8699225348396
 20
98.75751392261407
 30
0.0
 11
712.8699225348396
 21
-889.0075353673988
 31
0.0
  0
LINE
  5
70
330
1F
100
AcDbEntity
  8
0-2
  6
Continuous
 62
     6
370
     9
100
AcDbLine
 10
662.8700050147808
 20
55.71189261771536
 30
0.0
 11
662.8700050147808
 21
2.378589527027088
 31
0.0
  0
LINE
  5
71
330
1F
100
AcDbEntity
  8
0-2
  6
Continuous
 62
     6
370
     9
100
AcDbLine
 10
762.869840054899
 20
55.71189261771536
 30
0.0
 11
762.869840054899
 21
2.378589527027088
 31
0.0
  0
LINE
  5
72
330
1F
100
AcDbEntity
  8
0-2
  6
Continuous
 62
     6
370
     9
100
AcDbLine
 10
662.8700050147808
 20
50.71199984163854
 30
0.0
 11
762.869840054899
 21
50.71199984163854
 31
0.0
  0
LINE
  5
73
330
1F
100
AcDbEntity
  8
0-2
  6
Continuous
 62
     6
370
     9
100
AcDbLine
 10
662.8700050147808
 20
55.71189261771536
 30
0.0
 11
762.869840054899
 21
55.71189261771536
 31
0.0
  0
LINE
  5
74
330
1F
100
AcDbEntity
  8
0-2
  6
Continuous
 62
     6
370
     9
100
AcDbLine
 10
662.8700050147808
 20
2.378589527027088
 30
0.0
 11
762.869840054899
 21
2.378589527027088
 31
0.0
  0
LINE
  5
75
330
1F
100
AcDbEntity
  8
0-3
  6
Continuous
 62
     4
370
     9
100
AcDbLine
 10
701.2033823374156
 20
40.04536396748307
 30
0.0
 11
724.5364627322635
 21
40.04536396748307
 31
0.0
  0
LINE
  5
76
330
1F
100
AcDbEntity
  8
0-3
  6
Continuous
 62
     4
370
     9
100
AcDbLine
 10
701.2033823374156
 20
50.71199984163854
 30
0.0
 11
701.2033823374156
 21
40.04536396748307
 31
0.0
  0
LINE
  5
77
330
1F
100
AcDbEntity
  8
0-3
  6
Continuous
 62
     4
370
     9
100
AcDbLine
 10
724.5364627322635
 20
50.71199984163854
 30
0.0
 11
724.5364627322635
 21
40.04536396748307
 31
0.0
  0
LINE
  5
78
330
1F
100
AcDbEntity
  8
0-3
  6
Continuous
 62
     4
370
     9
100
AcDbLine
 10
728.5368223448057
 20
60.71190911370365
 30
0.0
 11
697.2032701646958
 21
60.71190911370365
 31
0.0
  0
LINE
  5
79
330
1F
100
AcDbEntity
  8
0-3
  6
Continuous
 62
     4
370
     9
100
AcDbLine
 10
728.5368223448057
 20
61.67346026446381
 30
0.0
 11
728.5368223448057
 21
60.71190911370365
 31
0.0
  0
LINE
  5
7A
330
1F
100
AcDbEntity
  8
0-3
  6
Continuous
 62
     4
370
     9
100
AcDbLine
 10
697.2032701646958
 20
61.67346026446381
 30
0.0
 11
697.2032701646958
 21
60.71190911370365
 31
0.0
  0
LINE
  5
7B
330
1F
100
AcDbEntity
  8
0-3
  6
Continuous
 62
     4
370
     9
100
AcDbLine
 10
728.5368223448057
 20
61.67346026446381
 30
0.0
 11
697.2032701646958
 21
61.67346026446381
 31
0.0
  0
LINE
  5
7C
330
1F
100
AcDbEntity
  8
0-3
  6
Continuous
 62
     4
370
     9
100
AcDbLine
 10
706.2031513935813
 20
27.37854828705679
 30
0.0
 11
719.5366936760979
 21
27.37854828705679
 31
0.0
  0
LINE
  5
7D
330
1F
100
AcDbEntity
  8
0-3
  6
Continuous
 62
     4
370
     9
100
AcDbLine
 10
714.5366771801099
 20
67.64356458509297
 30
0.0
 11
711.2034153293922
 21
67.64356458509297
 31
0.0
  0
LINE
  5
7E
330
1F
100
AcDbEntity
  8
0-3
  6
Continuous
 62
     4
370
     9
100
AcDbLine
 10
711.2034153293922
 20
68.97677034945104
 30
0.0
 11
711.2034153293922
 21
67.64356458509297
 31
0.0
  0
LINE
  5
7F
330
1F
100
AcDbEntity
  8
0-3
  6
Continuous
 62
     4
370
     9
100
AcDbLine
 10
714.5366771801099
 20
68.97677034945104
 30
0.0
 11
714.5366771801099
 21
67.64356458509297
 31
0.0
  0
LINE
  5
80
330
1F
100
AcDbEntity
  8
0-0
  6
Continuous
 62
     3
370
     9
100
AcDbLine
 10
379.5365617081927
 20
64.04529468433282
 30
0.0
 11
699.5158427470443
 21
64.04529468433282
 31
0.0
  0
LINE
  5
81
330
1F
100
AcDbEntity
  8
0-0
  6
Continuous
 62
     3
370
     9
100
AcDbLine
 10
726.2240023226354
 20
64.04529468433282
 30
0.0
 11
1046.203283361486
 21
64.04529468433282
 31
0.0
  0
LINE
  5
82
330
1F
100
AcDbEntity
  8
0-3
  6
Continuous
 62
     4
370
     9
100
AcDbLine
 10
708.2032074799412
 20
40.04536396748307
 30
0.0
 11
708.2032074799412
 21
27.37854828705679
 31
0.0
  0
LINE
  5
83
330
1F
100
AcDbEntity
  8
0-3
  6
Continuous
 62
     4
370
     9
100
AcDbLine
 10
706.2031513935813
 20
40.04536396748307
 30
0.0
 11
706.2031513935813
 21
27.37854828705679
 31
0.0
  0
LINE
  5
84
330
1F
100
AcDbEntity
  8
0-3
  6
Continuous
 62
     4
370
     9
100
AcDbLine
 10
717.536885029561
 20
40.04536396748307
 30
0.0
 11
717.536885029561
 21
27.37854828705679
 31
0.0
  0
LINE
  5
85
330
1F
100
AcDbEntity
  8
0-3
  6
Continuous
 62
     4
370
     9
100
AcDbLine
 10
719.5366936760979
 20
40.04536396748307
 30
0.0
 11
719.5366936760979
 21
27.37854828705679
 31
0.0
  0
LINE
  5
86
330
1F
100
AcDbEntity
  8
0-3
  6
Continuous
 62
     4
370
     9
100
AcDbLine
 10
-975.4592483108108
 20
60.71190911370365
 30
0.0
 11
-1006.792800490921
 21
60.71190911370365
 31
0.0
  0
LINE
  5
87
330
1F
100
AcDbEntity
  8
0-3
  6
Continuous
 62
     4
370
     9
100
AcDbLine
 10
-975.4592483108108
 20
61.67346026446381
 30
0.0
 11
-975.4592483108108
 21
60.71190911370365
 31
0.0
  0
LINE
  5
88
330
1F
100
AcDbEntity
  8
0-3
  6
Continuous
 62
     4
370
     9
100
AcDbLine
 10
-1006.792800490921
 20
61.67346026446381
 30
0.0
 11
-1006.792800490921
 21
60.71190911370365
 31
0.0
  0
LINE
  5
89
330
1F
100
AcDbEntity
  8
0-3
  6
Continuous
 62
     4
370
     9
100
AcDbLine
 10
-975.4592483108108
 20
61.67346026446381
 30
0.0
 11
-1006.792800490921
 21
61.67346026446381
 31
0.0
  0
LINE
  5
8A
330
1F
100
AcDbEntity
  8
0-3
  6
Continuous
 62
     4
370
     9
100
AcDbLine
 10
-997.7929192620354
 20
27.37854828705679
 30
0.0
 11
-984.4593769795185
 21
27.37854828705679
 31
0.0
  0
LINE
  5
8B
330
1F
100
AcDbEntity
  8
0-3
  6
Continuous
 62
     4
370
     9
100
AcDbLine
 10
-989.4593934755067
 20
67.64356458509297
 30
0.0
 11
-992.7929027660473
 21
67.64356458509297
 31
0.0
  0
LINE
  5
8C
330
1F
100
AcDbEntity
  8
0-3
  6
Continuous
 62
     4
370
     9
100
AcDbLine
 10
-992.7929027660473
 20
68.97677034945104
 30
0.0
 11
-992.7929027660473
 21
67.64356458509297
 31
0.0
  0
LINE
  5
8D
330
1F
100
AcDbEntity
  8
0-3
  6
Continuous
 62
     4
370
     9
100
AcDbLine
 10
-989.4593934755067
 20
68.97677034945104
 30
0.0
 11
-989.4593934755067
 21
67.64356458509297
 31
0.0
  0
LINE
  5
8E
330
1F
100
AcDbEntity
  8
0-3
  6
Continuous
 62
     4
370
     9
100
AcDbLine
 10
-995.7928631756756
 20
60.71190911370365
 30
0.0
 11
-995.7928631756756
 21
27.37854828705679
 31
0.0
  0
LINE
  5
8F
330
1F
100
AcDbEntity
  8
0-3
  6
Continuous
 62
     4
370
     9
100
AcDbLine
 10
-997.7929192620354
 20
60.71190911370365
 30
0.0
 11
-997.7929192620354
 21
27.37854828705679
 31
0.0
  0
LINE
  5
90
330
1F
100
AcDbEntity
  8
0-3
  6
Continuous
 62
     4
370
     9
100
AcDbLine
 10
-986.4594330658783
 20
60.71190911370365
 30
0.0
 11
-986.4594330658783
 21
27.37854828705679
 31
0.0
  0
LINE
  5
91
330
1F
100
AcDbEntity
  8
0-3
  6
Continuous
 62
     4
370
     9
100
AcDbLine
 10
-984.4593769795185
 20
60.71190911370365
 30
0.0
 11
-984.4593769795185
 21
27.37854828705679
 31
0.0
  0
LINE
  5
92
330
1F
100
AcDbEntity
  8
0-2
  6
Continuous
 62
     6
370
     9
100
AcDbLine
 10
-982.7928697740708
 20
55.71189261771536
 30
0.0
 11
-982.7928697740708
 21
50.71199984163854
 31
0.0
  0
LINE
  5
93
330
1F
100
AcDbEntity
  8
0-2
  6
Continuous
 62
     6
370
     9
100
AcDbLine
 10
-999.4594264674831
 20
55.71189261771536
 30
0.0
 11
-999.4594264674831
 21
50.71199984163854
 31
0.0
  0
LINE
  5
94
330
1F
100
AcDbEntity
  8
0-3
  6
JWW_CENTER1
 62
     4
370
     9
100
AcDbLine
 10
-991.126148120777
 20
80.45859671927786
 30
0.0
 11
-991.126148120777
 21
7.571114205025538
 31
0.0
  0
LINE
  5
95
330
1F
100
AcDbEntity
  8
0-3
  6
JWW_CENTER1
 62
     4
370
     9
100
AcDbLine
 10
-381.1259914088893
 20
80.45859671927786
 30
0.0
 11
-381.1259914088893
 21
7.571114205025538
 31
0.0
  0
LINE
  5
96
330
1F
100
AcDbEntity
  8
0-2
  6
JWW_CENTER1
 62
     6
370
     9
100
AcDbLine
 10
-381.1259914088893
 20
526.671406513936
 30
0.0
 11
-381.1259914088893
 21
582.2528241131758
 31
0.0
  0
LINE
  5
97
330
1F
100
AcDbEntity
  8
0-2
  6
JWW_CENTER1
 62
     6
370
     9
100
AcDbLine
 10
-409.818865801837
 20
553.0734830289273
 30
0.0
 11
-354.8811629011823
 21
553.0734830289273
 31
0.0
  0
LINE
  5
98
330
1F
100
AcDbEntity
  8
0-3
  6
Continuous
 62
     4
370
     9
100
AcDbLine
 10
-379.3982428473393
 20
557.2382664036106
 30
0.0
 11
-378.6231376029349
 21
555.5763368348818
 31
0.0
  0
LINE
  5
99
330
1F
100
AcDbEntity
  8
0-3
  6
Continuous
 62
     4
370
     9
100
AcDbLine
 10
-376.9613317541172
 20
554.8013553103885
 30
0.0
 11
-378.6231376029349
 21
555.5763368348818
 31
0.0
  0
LINE
  5
9A
330
1F
100
AcDbEntity
  8
0-3
  6
Continuous
 62
     4
370
     9
100
AcDbLine
 10
-382.8538636903505
 20
557.2382664036106
 30
0.0
 11
-383.6288452148438
 21
555.5763368348818
 31
0.0
  0
LINE
  5
9B
330
1F
100
AcDbEntity
  8
0-3
  6
Continuous
 62
     4
370
     9
100
AcDbLine
 10
-385.2906510636612
 20
554.8013553103885
 30
0.0
 11
-383.6288452148438
 21
555.5763368348818
 31
0.0
  0
LINE
  5
9C
330
1F
100
AcDbEntity
  8
0-3
  6
Continuous
 62
     4
370
     9
100
AcDbLine
 10
-379.3982428473393
 20
548.9086996542443
 30
0.0
 11
-378.6231376029349
 21
550.5707529428844
 31
0.0
  0
LINE
  5
9D
330
1F
100
AcDbEntity
  8
0-3
  6
Continuous
 62
     4
370
     9
100
AcDbLine
 10
-376.9613317541172
 20
551.3458581872891
 30
0.0
 11
-378.6231376029349
 21
550.5707529428844
 31
0.0
  0
LINE
  5
9E
330
1F
100
AcDbEntity
  8
0-3
  6
Continuous
 62
     4
370
     9
100
AcDbLine
 10
-382.8538636903505
 20
548.9086996542443
 30
0.0
 11
-383.6288452148438
 21
550.5707529428844
 31
0.0
  0
LINE
  5
9F
330
1F
100
AcDbEntity
  8
0-3
  6
Continuous
 62
     4
370
     9
100
AcDbLine
 10
-385.2906510636612
 20
551.3458581872891
 30
0.0
 11
-383.6288452148438
 21
550.5707529428844
 31
0.0
  0
LINE
  5
A0
330
1F
100
AcDbEntity
  8
0-3
  6
Continuous
 62
     4
370
     9
100
AcDbLine
 10
-389.1260920344172
 20
554.7342991184544
 30
0.0
 11
-385.2906510636612
 21
554.8013553103885
 31
0.0
  0
LINE
  5
A1
330
1F
100
AcDbEntity
  8
0-3
  6
Continuous
 62
     4
370
     9
100
AcDbLine
 10
-389.1260920344172
 20
554.7342991184544
 30
0.0
 11
-389.1260920344172
 21
551.4126669394005
 31
0.0
  0
LINE
  5
A2
330
1F
100
AcDbEntity
  8
0-3
  6
Continuous
 62
     4
370
     9
100
AcDbLine
 10
-389.1260920344172
 20
551.4126669394005
 30
0.0
 11
-385.2906510636612
 21
551.3458581872891
 31
0.0
  0
LINE
  5
A3
330
1F
100
AcDbEntity
  8
0-3
  6
Continuous
 62
     4
370
     9
100
AcDbLine
 10
-382.7869312183276
 20
545.073506123311
 30
0.0
 11
-382.8538636903505
 21
548.9086996542443
 31
0.0
  0
LINE
  5
A4
330
1F
100
AcDbEntity
  8
0-3
  6
Continuous
 62
     4
370
     9
100
AcDbLine
 10
-379.4651753193622
 20
545.073506123311
 30
0.0
 11
-379.3982428473393
 21
548.9086996542443
 31
0.0
  0
LINE
  5
A5
330
1F
100
AcDbEntity
  8
0-3
  6
Continuous
 62
     4
370
     9
100
AcDbLine
 10
-382.7869312183276
 20
545.073506123311
 30
0.0
 11
-379.4651753193622
 21
545.073506123311
 31
0.0
  0
LINE
  5
A6
330
1F
100
AcDbEntity
  8
0-3
  6
Continuous
 62
     4
370
     9
100
AcDbLine
 10
-373.1258907833615
 20
551.4126669394005
 30
0.0
 11
-376.9613317541172
 21
551.3458581872891
 31
0.0
  0
LINE
  5
A7
330
1F
100
AcDbEntity
  8
0-3
  6
Continuous
 62
     4
370
     9
100
AcDbLine
 10
-373.1258907833615
 20
554.7342991184544
 30
0.0
 11
-373.1258907833615
 21
551.4126669394005
 31
0.0
  0
LINE
  5
A8
330
1F
100
AcDbEntity
  8
0-3
  6
Continuous
 62
     4
370
     9
100
AcDbLine
 10
-373.1258907833615
 20
554.7342991184544
 30
0.0
 11
-376.9613317541172
 21
554.8013553103885
 31
0.0
  0
LINE
  5
A9
330
1F
100
AcDbEntity
  8
0-3
  6
Continuous
 62
     4
370
     9
100
AcDbLine
 10
-379.4651753193622
 20
561.073459934544
 30
0.0
 11
-379.3982428473393
 21
557.2382664036106
 31
0.0
  0
LINE
  5
AA
330
1F
100
AcDbEntity
  8
0-3
  6
Continuous
 62
     4
370
     9
100
AcDbLine
 10
-382.7869312183276
 20
561.073459934544
 30
0.0
 11
-379.4651753193622
 21
561.073459934544
 31
0.0
  0
LINE
  5
AB
330
1F
100
AcDbEntity
  8
0-3
  6
Continuous
 62
     4
370
     9
100
AcDbLine
 10
-382.7869312183276
 20
561.073459934544
 30
0.0
 11
-382.8538636903505
 21
557.2382664036106
 31
0.0
  0
LINE
  5
AC
330
1F
100
AcDbEntity
  8
0-3
  6
Continuous
 62
     4
370
     9
100
AcDbLine
 10
-989.3982758393158
 20
862.2381591796875
 30
0.0
 11
-988.6232943148225
 21
860.57635333087
 31
0.0
  0
LINE
  5
AD
330
1F
100
AcDbEntity
  8
0-3
  6
Continuous
 62
     4
370
     9
100
AcDbLine
 10
-986.961488466005
 20
859.8016192461995
 30
0.0
 11
-988.6232943148225
 21
860.57635333087
 31
0.0
  0
LINE
  5
AE
330
1F
100
AcDbEntity
  8
0-3
  6
Continuous
 62
     4
370
     9
100
AcDbLine
 10
-992.8540204022381
 20
862.2381591796875
 30
0.0
 11
-993.6290019267313
 21
860.57635333087
 31
0.0
  0
LINE
  5
AF
330
1F
100
AcDbEntity
  8
0-3
  6
Continuous
 62
     4
370
     9
100
AcDbLine
 10
-995.290807775549
 20
859.8016192461995
 30
0.0
 11
-993.6290019267313
 21
860.57635333087
 31
0.0
  0
LINE
  5
B0
330
1F
100
AcDbEntity
  8
0-3
  6
Continuous
 62
     4
370
     9
100
AcDbLine
 10
-989.3982758393158
 20
853.9088398701438
 30
0.0
 11
-988.6232943148225
 21
855.5708931587839
 31
0.0
  0
LINE
  5
B1
330
1F
100
AcDbEntity
  8
0-3
  6
Continuous
 62
     4
370
     9
100
AcDbLine
 10
-986.961488466005
 20
856.3458746832771
 30
0.0
 11
-988.6232943148225
 21
855.5708931587839
 31
0.0
  0
LINE
  5
B2
330
1F
100
AcDbEntity
  8
0-3
  6
Continuous
 62
     4
370
     9
100
AcDbLine
 10
-992.8540204022381
 20
853.9088398701438
 30
0.0
 11
-993.6290019267313
 21
855.5708931587839
 31
0.0
  0
LINE
  5
B3
330
1F
100
AcDbEntity
  8
0-3
  6
Continuous
 62
     4
370
     9
100
AcDbLine
 10
-995.290807775549
 20
856.3458746832771
 30
0.0
 11
-993.6290019267313
 21
855.5708931587839
 31
0.0
  0
LINE
  5
B4
330
1F
100
AcDbEntity
  8
0-3
  6
Continuous
 62
     4
370
     9
100
AcDbLine
 10
-999.1262487463048
 20
859.7343156144427
 30
0.0
 11
-995.290807775549
 21
859.8016192461995
 31
0.0
  0
LINE
  5
B5
330
1F
100
AcDbEntity
  8
0-3
  6
Continuous
 62
     4
370
     9
100
AcDbLine
 10
-999.1262487463048
 20
859.7343156144427
 30
0.0
 11
-999.1262487463048
 21
856.4126834353885
 31
0.0
  0
LINE
  5
B6
330
1F
100
AcDbEntity
  8
0-3
  6
Continuous
 62
     4
370
     9
100
AcDbLine
 10
-999.1262487463048
 20
856.4126834353885
 30
0.0
 11
-995.290807775549
 21
856.3458746832771
 31
0.0
  0
LINE
  5
B7
330
1F
100
AcDbEntity
  8
0-3
  6
Continuous
 62
     4
370
     9
100
AcDbLine
 10
-992.7869642103041
 20
850.0732751794766
 30
0.0
 11
-992.8540204022381
 21
853.9088398701438
 31
0.0
  0
LINE
  5
B8
330
1F
100
AcDbEntity
  8
0-3
  6
Continuous
 62
     4
370
     9
100
AcDbLine
 10
-989.46533203125
 20
850.0732751794766
 30
0.0
 11
-989.3982758393158
 21
853.9088398701438
 31
0.0
  0
LINE
  5
B9
330
1F
100
AcDbEntity
  8
0-3
  6
Continuous
 62
     4
370
     9
100
AcDbLine
 10
-992.7869642103041
 20
850.0732751794766
 30
0.0
 11
-989.46533203125
 21
850.0732751794766
 31
0.0
  0
LINE
  5
BA
330
1F
100
AcDbEntity
  8
0-3
  6
Continuous
 62
     4
370
     9
100
AcDbLine
 10
-983.126047495249
 20
856.4126834353885
 30
0.0
 11
-986.961488466005
 21
856.3458746832771
 31
0.0
  0
LINE
  5
BB
330
1F
100
AcDbEntity
  8
0-3
  6
Continuous
 62
     4
370
     9
100
AcDbLine
 10
-983.126047495249
 20
859.7343156144427
 30
0.0
 11
-983.126047495249
 21
856.4126834353885
 31
0.0
  0
LINE
  5
BC
330
1F
100
AcDbEntity
  8
0-3
  6
Continuous
 62
     4
370
     9
100
AcDbLine
 10
-983.126047495249
 20
859.7343156144427
 30
0.0
 11
-986.961488466005
 21
859.8016192461995
 31
0.0
  0
LINE
  5
BD
330
1F
100
AcDbEntity
  8
0-3
  6
Continuous
 62
     4
370
     9
100
AcDbLine
 10
-989.46533203125
 20
866.073723870355
 30
0.0
 11
-989.3982758393158
 21
862.2381591796875
 31
0.0
  0
LINE
  5
BE
330
1F
100
AcDbEntity
  8
0-3
  6
Continuous
 62
     4
370
     9
100
AcDbLine
 10
-992.7869642103041
 20
866.073723870355
 30
0.0
 11
-989.46533203125
 21
866.073723870355
 31
0.0
  0
LINE
  5
BF
330
1F
100
AcDbEntity
  8
0-3
  6
Continuous
 62
     4
370
     9
100
AcDbLine
 10
-992.7869642103041
 20
866.073723870355
 30
0.0
 11
-992.8540204022381
 21
862.2381591796875
 31
0.0
  0
LINE
  5
C0
330
1F
100
AcDbEntity
  8
0-2
  6
JWW_CENTER1
 62
     6
370
     9
100
AcDbLine
 10
-381.1259914088893
 20
1189.475592535895
 30
0.0
 11
-381.1259914088893
 21
1133.894174936656
 31
0.0
  0
LINE
  5
C1
330
1F
100
AcDbEntity
  8
0-2
  6
JWW_CENTER1
 62
     6
370
     9
100
AcDbLine
 10
-409.818865801837
 20
1163.073516020904
 30
0.0
 11
-354.8811629011823
 21
1163.073516020904
 31
0.0
  0
LINE
  5
C2
330
1F
100
AcDbEntity
  8
0-3
  6
Continuous
 62
     4
370
     9
100
AcDbLine
 10
-379.3982428473393
 20
1158.908856366132
 30
0.0
 11
-378.6231376029349
 21
1160.57066221495
 31
0.0
  0
LINE
  5
C3
330
1F
100
AcDbEntity
  8
0-3
  6
Continuous
 62
     4
370
     9
100
AcDbLine
 10
-376.9613317541172
 20
1161.345643739443
 30
0.0
 11
-378.6231376029349
 21
1160.57066221495
 31
0.0
  0
LINE
  5
C4
330
1F
100
AcDbEntity
  8
0-3
  6
Continuous
 62
     4
370
     9
100
AcDbLine
 10
-382.8538636903505
 20
1158.908856366132
 30
0.0
 11
-383.6288452148438
 21
1160.57066221495
 31
0.0
  0
LINE
  5
C5
330
1F
100
AcDbEntity
  8
0-3
  6
Continuous
 62
     4
370
     9
100
AcDbLine
 10
-385.2906510636612
 20
1161.345643739443
 30
0.0
 11
-383.6288452148438
 21
1160.57066221495
 31
0.0
  0
LINE
  5
C6
330
1F
100
AcDbEntity
  8
0-3
  6
Continuous
 62
     4
370
     9
100
AcDbLine
 10
-379.3982428473393
 20
1167.238175675676
 30
0.0
 11
-378.6231376029349
 21
1165.576369826858
 31
0.0
  0
LINE
  5
C7
330
1F
100
AcDbEntity
  8
0-3
  6
Continuous
 62
     4
370
     9
100
AcDbLine
 10
-376.9613317541172
 20
1164.801140862542
 30
0.0
 11
-378.6231376029349
 21
1165.576369826858
 31
0.0
  0
LINE
  5
C8
330
1F
100
AcDbEntity
  8
0-3
  6
Continuous
 62
     4
370
     9
100
AcDbLine
 10
-382.8538636903505
 20
1167.238175675676
 30
0.0
 11
-383.6288452148438
 21
1165.576369826858
 31
0.0
  0
LINE
  5
C9
330
1F
100
AcDbEntity
  8
0-3
  6
Continuous
 62
     4
370
     9
100
AcDbLine
 10
-385.2906510636612
 20
1164.801140862542
 30
0.0
 11
-383.6288452148438
 21
1165.576369826858
 31
0.0
  0
LINE
  5
CA
330
1F
100
AcDbEntity
  8
0-3
  6
Continuous
 62
     4
370
     9
100
AcDbLine
 10
-389.1260920344172
 20
1161.412699931377
 30
0.0
 11
-385.2906510636612
 21
1161.345643739443
 31
0.0
  0
LINE
  5
CB
330
1F
100
AcDbEntity
  8
0-3
  6
Continuous
 62
     4
370
     9
100
AcDbLine
 10
-389.1260920344172
 20
1161.412699931377
 30
0.0
 11
-389.1260920344172
 21
1164.734332110431
 31
0.0
  0
LINE
  5
CC
330
1F
100
AcDbEntity
  8
0-3
  6
Continuous
 62
     4
370
     9
100
AcDbLine
 10
-389.1260920344172
 20
1164.734332110431
 30
0.0
 11
-385.2906510636612
 21
1164.801140862542
 31
0.0
  0
LINE
  5
CD
330
1F
100
AcDbEntity
  8
0-3
  6
Continuous
 62
     4
370
     9
100
AcDbLine
 10
-382.7869312183276
 20
1171.07349292652
 30
0.0
 11
-382.8538636903505
 21
1167.238175675676
 31
0.0
  0
LINE
  5
CE
330
1F
100
AcDbEntity
  8
0-3
  6
Continuous
 62
     4
370
     9
100
AcDbLine
 10
-379.4651753193622
 20
1171.07349292652
 30
0.0
 11
-379.3982428473393
 21
1167.238175675676
 31
0.0
  0
LINE
  5
CF
330
1F
100
AcDbEntity
  8
0-3
  6
Continuous
 62
     4
370
     9
100
AcDbLine
 10
-382.7869312183276
 20
1171.07349292652
 30
0.0
 11
-379.4651753193622
 21
1171.07349292652
 31
0.0
  0
LINE
  5
D0
330
1F
100
AcDbEntity
  8
0-3
  6
Continuous
 62
     4
370
     9
100
AcDbLine
 10
-373.1258907833615
 20
1164.734332110431
 30
0.0
 11
-376.9613317541172
 21
1164.801140862542
 31
0.0
  0
LINE
  5
D1
330
1F
100
AcDbEntity
  8
0-3
  6
Continuous
 62
     4
370
     9
100
AcDbLine
 10
-373.1258907833615
 20
1161.412699931377
 30
0.0
 11
-373.1258907833615
 21
1164.734332110431
 31
0.0
  0
LINE
  5
D2
330
1F
100
AcDbEntity
  8
0-3
  6
Continuous
 62
     4
370
     9
100
AcDbLine
 10
-373.1258907833615
 20
1161.412699931377
 30
0.0
 11
-376.9613317541172
 21
1161.345643739443
 31
0.0
  0
LINE
  5
D3
330
1F
100
AcDbEntity
  8
0-3
  6
Continuous
 62
     4
370
     9
100
AcDbLine
 10
-379.4651753193622
 20
1155.073539115288
 30
0.0
 11
-379.3982428473393
 21
1158.908856366132
 31
0.0
  0
LINE
  5
D4
330
1F
100
AcDbEntity
  8
0-3
  6
Continuous
 62
     4
370
     9
100
AcDbLine
 10
-382.7869312183276
 20
1155.073539115288
 30
0.0
 11
-379.4651753193622
 21
1155.073539115288
 31
0.0
  0
LINE
  5
D5
330
1F
100
AcDbEntity
  8
0-3
  6
Continuous
 62
     4
370
     9
100
AcDbLine
 10
-382.7869312183276
 20
1155.073539115288
 30
0.0
 11
-382.8538636903505
 21
1158.908856366132
 31
0.0
  0
LINE
  5
D6
330
1F
100
AcDbEntity
  8
0-0
  6
Continuous
 62
     3
370
     9
100
AcDbLine
 10
-1015.459503998627
 20
64.04529468433282
 30
0.0
 11
-1015.459503998627
 21
-669.2880249023438
 31
0.0
  0
LINE
  5
D7
330
1F
100
AcDbEntity
  8
0-0
  6
Continuous
 62
     3
370
     9
100
AcDbLine
 10
-356.7928829708615
 20
1187.406995618666
 30
0.0
 11
-356.7928829708615
 21
528.7401271510771
 31
0.0
  0
LINE
  5
D8
330
1F
100
AcDbEntity
  8
0-0
  6
Continuous
 62
     3
370
     9
100
AcDbLine
 10
-1015.459503998627
 20
694.7402046822214
 30
0.0
 11
-1015.459503998627
 21
1021.40679436761
 31
0.0
  0
LINE
  5
D9
330
1F
100
AcDbEntity
  8
0-0
  6
Continuous
 62
     3
370
     9
100
AcDbLine
 10
-849.4595501873944
 20
1187.406995618666
 30
0.0
 11
-352.7928945180531
 21
1187.406995618666
 31
0.0
  0
LINE
  5
DA
330
1F
100
AcDbEntity
  8
0-0
  6
Continuous
 62
     3
370
     9
100
AcDbLine
 10
-352.7928945180531
 20
528.7401271510771
 30
0.0
 11
-849.4595501873944
 21
528.7401271510771
 31
0.0
  0
LINE
  5
DB
330
1F
100
AcDbEntity
  8
0-2
  6
JWW_DASHED1
 62
     6
370
     9
100
AcDbLine
 10
-459.4593769795185
 20
528.7401271510771
 30
0.0
 11
-459.4593769795185
 21
582.0735539616766
 31
0.0
  0
LINE
  5
DC
330
1F
100
AcDbEntity
  8
0-2
  6
JWW_DASHED1
 62
     6
370
     9
100
AcDbLine
 10
-359.4594182194888
 20
528.7401271510771
 30
0.0
 11
-359.4594182194888
 21
582.0735539616766
 31
0.0
  0
LINE
  5
DD
330
1F
100
AcDbEntity
  8
0-2
  6
JWW_DASHED1
 62
     6
370
     9
100
AcDbLine
 10
-1015.459503998627
 20
908.0736644847974
 30
0.0
 11
-962.1262009079392
 21
908.0736644847974
 31
0.0
  0
LINE
  5
DE
330
1F
100
AcDbEntity
  8
0-2
  6
JWW_DASHED1
 62
     6
370
     9
100
AcDbLine
 10
-1015.459503998627
 20
808.0735820048565
 30
0.0
 11
-962.1262009079392
 21
808.0735820048565
 31
0.0
  0
LINE
  5
DF
330
1F
100
AcDbEntity
  8
0-2
  6
JWW_DASHED1
 62
     6
370
     9
100
AcDbLine
 10
-459.4593769795185
 20
1187.406995618666
 30
0.0
 11
-459.4593769795185
 21
1134.073568808066
 31
0.0
  0
LINE
  5
E0
330
1F
100
AcDbEntity
  8
0-2
  6
JWW_DASHED1
 62
     6
370
     9
100
AcDbLine
 10
-359.4594182194888
 20
1187.406995618666
 30
0.0
 11
-359.4594182194888
 21
1134.073568808066
 31
0.0
  0
LINE
  5
E1
330
1F
100
AcDbEntity
  8
0-0
  6
Continuous
 62
     3
370
     9
100
AcDbLine
 10
-356.79275925095
 20
64.04529468433282
 30
0.0
 11
-356.79275925095
 21
-669.2880249023438
 31
0.0
  0
LINE
  5
E2
330
1F
100
AcDbEntity
  8
0-2
  6
Continuous
 62
     6
370
     9
100
AcDbLine
 10
-986.4594330658783
 20
50.71199984163854
 30
0.0
 11
-962.1262009079392
 21
50.71199984163854
 31
0.0
  0
LINE
  5
E3
330
1F
100
AcDbEntity
  8
0-2
  6
Continuous
 62
     6
370
     9
100
AcDbLine
 10
-962.1262009079392
 20
55.71189261771536
 30
0.0
 11
-984.4593769795185
 21
55.71189261771536
 31
0.0
  0
LINE
  5
E4
330
1F
100
AcDbEntity
  8
0-2
  6
Continuous
 62
     6
370
     9
100
AcDbLine
 10
-997.7929192620354
 20
55.71189261771536
 30
0.0
 11
-1004.459442963471
 21
55.71189261771536
 31
0.0
  0
LINE
  5
E5
330
1F
100
AcDbEntity
  8
0-1
  6
Continuous
 62
     2
370
     9
100
AcDbLine
 10
-997.7929192620354
 20
55.71189261771536
 30
0.0
 11
-1014.459475955447
 21
55.71189261771536
 31
0.0
  0
LINE
  5
E6
330
1F
100
AcDbEntity
  8
0-0
  6
Continuous
 62
     3
370
     9
100
AcDbLine
 10
-876.7928664748733
 20
-664.2880084063554
 30
0.0
 11
-876.7928664748733
 21
-835.9545815957558
 31
0.0
  0
LINE
  5
E7
330
1F
100
AcDbEntity
  8
0-0
  6
Continuous
 62
     3
370
     9
100
AcDbLine
 10
-356.79275925095
 20
-664.2880084063554
 30
0.0
 11
-1015.459503998627
 21
-664.2880084063554
 31
0.0
  0
LINE
  5
E8
330
1F
100
AcDbEntity
  8
0-0
  6
Continuous
 62
     3
370
     9
100
AcDbLine
 10
-628.7928400812922
 20
-664.2880084063554
 30
0.0
 11
-628.7928400812922
 21
-835.9545815957558
 31
0.0
  0
LINE
  5
E9
330
1F
100
AcDbEntity
  8
0-0
  6
JWW_DASHED1
 62
     3
370
     9
100
AcDbLine
 10
383.5366738809122
 20
64.04529468433282
 30
0.0
 11
383.5366738809122
 21
-669.2880249023438
 31
0.0
  0
LINE
  5
EA
330
1F
100
AcDbEntity
  8
0-0
  6
JWW_DASHED1
 62
     3
370
     9
100
AcDbLine
 10
1042.20341862859
 20
64.04529468433282
 30
0.0
 11
1042.20341862859
 21
-669.2880249023438
 31
0.0
  0
LINE
  5
EB
330
1F
100
AcDbEntity
  8
0-0
  6
Continuous
 62
     3
370
     9
100
AcDbLine
 10
-1004.480227908572
 20
64.04529468433282
 30
0.0
 11
-1019.459492451436
 21
64.04529468433282
 31
0.0
  0
LINE
  5
EC
330
1F
100
AcDbEntity
  8
0-0
  6
Continuous
 62
     3
370
     9
100
AcDbLine
 10
-879.4595254434121
 20
-664.2880084063554
 30
0.0
 11
-879.4595254434121
 21
-835.9545815957558
 31
0.0
  0
LINE
  5
ED
330
1F
100
AcDbEntity
  8
0-0
  6
Continuous
 62
     3
370
     9
100
AcDbLine
 10
-879.4595254434121
 20
-669.2880249023438
 30
0.0
 11
-1019.459492451436
 21
-669.2880249023438
 31
0.0
  0
LINE
  5
EE
330
1F
100
AcDbEntity
  8
0-0
  6
Continuous
 62
     3
370
     9
100
AcDbLine
 10
-626.1261811127533
 20
-664.2880084063554
 30
0.0
 11
-626.1261811127533
 21
-835.9545815957558
 31
0.0
  0
LINE
  5
EF
330
1F
100
AcDbEntity
  8
0-0
  6
Continuous
 62
     3
370
     9
100
AcDbLine
 10
-352.7928945180531
 20
-669.2880249023438
 30
0.0
 11
-626.1261811127533
 21
-669.2880249023438
 31
0.0
  0
LINE
  5
F0
330
1F
100
AcDbEntity
  8
0-0
  6
JWW_DASHED1
 62
     3
370
     9
100
AcDbLine
 10
383.5366738809122
 20
-664.2880084063554
 30
0.0
 11
1042.20341862859
 21
-664.2880084063554
 31
0.0
  0
LINE
  5
F1
330
1F
100
AcDbEntity
  8
0-0
  6
JWW_DASHED1
 62
     3
370
     9
100
AcDbLine
 10
586.2032503695104
 20
-669.2880249023438
 30
0.0
 11
586.2032503695104
 21
-664.2880084063554
 31
0.0
  0
LINE
  5
F2
330
1F
100
AcDbEntity
  8
0-0
  6
JWW_DASHED1
 62
     3
370
     9
100
AcDbLine
 10
589.5367596600511
 20
-664.2880084063554
 30
0.0
 11
589.5367596600511
 21
-835.9545815957558
 31
0.0
  0
LINE
  5
F3
330
1F
100
AcDbEntity
  8
0-0
  6
JWW_DASHED1
 62
     3
370
     9
100
AcDbLine
 10
836.203332849451
 20
-664.2880084063554
 30
0.0
 11
836.203332849451
 21
-835.9545815957558
 31
0.0
  0
LINE
  5
F4
330
1F
100
AcDbEntity
  8
0-0
  6
JWW_DASHED1
 62
     3
370
     9
100
AcDbLine
 10
839.5365947001693
 20
-669.2880249023438
 30
0.0
 11
839.5365947001693
 21
-664.2880084063554
 31
0.0
  0
LINE
  5
F5
330
1F
100
AcDbEntity
  8
0-1
  6
Continuous
 62
     2
370
     9
100
AcDbLine
 10
-364.4595584353885
 20
1186.406843855575
 30
0.0
 11
-849.4595501873944
 21
1186.406843855575
 31
0.0
  0
LINE
  5
F6
330
1F
100
AcDbEntity
  8
0-1
  6
Continuous
 62
     2
370
     9
100
AcDbLine
 10
-364.4595584353885
 20
529.7401551942568
 30
0.0
 11
-849.4595501873944
 21
529.7401551942568
 31
0.0
  0
LINE
  5
F7
330
1F
100
AcDbEntity
  8
0-1
  6
Continuous
 62
     2
370
     9
100
AcDbLine
 10
-357.7927872941299
 20
536.4066788956927
 30
0.0
 11
-357.7927872941299
 21
1179.740072714316
 31
0.0
  0
LINE
  5
F8
330
1F
100
AcDbEntity
  8
0-2
  6
JWW_DASHED1
 62
     6
370
     9
100
AcDbLine
 10
-1015.459503998627
 20
908.0736644847974
 30
0.0
 11
-1015.459503998627
 21
808.0735820048565
 31
0.0
  0
LINE
  5
F9
330
1F
100
AcDbEntity
  8
0-2
  6
JWW_DASHED1
 62
     6
370
     9
100
AcDbLine
 10
-459.4593769795185
 20
1187.406995618666
 30
0.0
 11
-359.4594182194888
 21
1187.406995618666
 31
0.0
  0
LINE
  5
FA
330
1F
100
AcDbEntity
  8
0-2
  6
JWW_DASHED1
 62
     6
370
     9
100
AcDbLine
 10
-459.4593769795185
 20
528.7401271510771
 30
0.0
 11
-359.4594182194888
 21
528.7401271510771
 31
0.0
  0
LINE
  5
FB
330
1F
100
AcDbEntity
  8
0-2
  6
JWW_CENTER1
 62
     6
370
     9
100
AcDbLine
 10
-991.126148120777
 20
884.4755760399073
 30
0.0
 11
-991.126148120777
 21
828.8941584406675
 31
0.0
  0
LINE
  5
FC
330
1F
100
AcDbEntity
  8
0-2
  6
Continuous
 62
     6
370
     9
100
AcDbLine
 10
-1005.45934728674
 20
50.71199984163854
 30
0.0
 11
-995.7928631756756
 21
50.71199984163854
 31
0.0
  0
LINE
  5
FD
330
1F
100
AcDbEntity
  8
0-3
  6
Continuous
 62
     4
370
     9
100
AcDbLine
 10
-1002.792688318201
 20
40.04536396748307
 30
0.0
 11
-995.7928631756756
 21
40.04536396748307
 31
0.0
  0
LINE
  5
FE
330
1F
100
AcDbEntity
  8
0-3
  6
Continuous
 62
     4
370
     9
100
AcDbLine
 10
-986.4594330658783
 20
40.04536396748307
 30
0.0
 11
-979.4594842034417
 21
40.04536396748307
 31
0.0
  0
LINE
  5
FF
330
1F
100
AcDbEntity
  8
0-1
  6
Continuous
 62
     2
370
     9
100
AcDbLine
 10
-357.7927872941299
 20
60.71190911370365
 30
0.0
 11
-1014.459475955447
 21
60.71190911370365
 31
0.0
  0
LINE
  5
100
330
1F
100
AcDbEntity
  8
0-2
  6
Continuous
 62
     6
370
     9
100
AcDbLine
 10
-459.4593769795185
 20
50.71199984163854
 30
0.0
 11
-359.4594182194888
 21
50.71199984163854
 31
0.0
  0
LINE
  5
101
330
1F
100
AcDbEntity
  8
0-2
  6
Continuous
 62
     6
370
     9
100
AcDbLine
 10
-459.4593769795185
 20
55.71189261771536
 30
0.0
 11
-359.4594182194888
 21
55.71189261771536
 31
0.0
  0
LINE
  5
102
330
1F
100
AcDbEntity
  8
0-3
  6
Continuous
 62
     4
370
     9
100
AcDbLine
 10
-392.7926553262245
 20
40.04536396748307
 30
0.0
 11
-369.4593274915539
 21
40.04536396748307
 31
0.0
  0
LINE
  5
103
330
1F
100
AcDbEntity
  8
0-3
  6
Continuous
 62
     4
370
     9
100
AcDbLine
 10
-392.7926553262245
 20
50.71199984163854
 30
0.0
 11
-392.7926553262245
 21
40.04536396748307
 31
0.0
  0
LINE
  5
104
330
1F
100
AcDbEntity
  8
0-3
  6
Continuous
 62
     4
370
     9
100
AcDbLine
 10
-369.4593274915539
 20
50.71199984163854
 30
0.0
 11
-369.4593274915539
 21
40.04536396748307
 31
0.0
  0
LINE
  5
105
330
1F
100
AcDbEntity
  8
0-3
  6
Continuous
 62
     4
370
     9
100
AcDbLine
 10
-365.4592153188344
 20
60.71190911370365
 30
0.0
 11
-396.7926437790328
 21
60.71190911370365
 31
0.0
  0
LINE
  5
106
330
1F
100
AcDbEntity
  8
0-3
  6
Continuous
 62
     4
370
     9
100
AcDbLine
 10
-365.4592153188344
 20
61.67346026446381
 30
0.0
 11
-365.4592153188344
 21
60.71190911370365
 31
0.0
  0
LINE
  5
107
330
1F
100
AcDbEntity
  8
0-3
  6
Continuous
 62
     4
370
     9
100
AcDbLine
 10
-396.7926437790328
 20
61.67346026446381
 30
0.0
 11
-396.7926437790328
 21
60.71190911370365
 31
0.0
  0
LINE
  5
108
330
1F
100
AcDbEntity
  8
0-3
  6
Continuous
 62
     4
370
     9
100
AcDbLine
 10
-365.4592153188344
 20
61.67346026446381
 30
0.0
 11
-396.7926437790328
 21
61.67346026446381
 31
0.0
  0
LINE
  5
109
330
1F
100
AcDbEntity
  8
0-3
  6
Continuous
 62
     4
370
     9
100
AcDbLine
 10
-387.7927625501476
 20
27.37854828705679
 30
0.0
 11
-374.4592202676307
 21
27.37854828705679
 31
0.0
  0
LINE
  5
10A
330
1F
100
AcDbEntity
  8
0-3
  6
Continuous
 62
     4
370
     9
100
AcDbLine
 10
-379.4593604835302
 20
67.64356458509297
 30
0.0
 11
-382.7927460541596
 21
67.64356458509297
 31
0.0
  0
LINE
  5
10B
330
1F
100
AcDbEntity
  8
0-3
  6
Continuous
 62
     4
370
     9
100
AcDbLine
 10
-382.7927460541596
 20
68.97677034945104
 30
0.0
 11
-382.7927460541596
 21
67.64356458509297
 31
0.0
  0
LINE
  5
10C
330
1F
100
AcDbEntity
  8
0-3
  6
Continuous
 62
     4
370
     9
100
AcDbLine
 10
-379.4593604835302
 20
68.97677034945104
 30
0.0
 11
-379.4593604835302
 21
67.64356458509297
 31
0.0
  0
LINE
  5
10D
330
1F
100
AcDbEntity
  8
0-3
  6
Continuous
 62
     4
370
     9
100
AcDbLine
 10
-385.792706463788
 20
40.04536396748307
 30
0.0
 11
-385.792706463788
 21
27.37854828705679
 31
0.0
  0
LINE
  5
10E
330
1F
100
AcDbEntity
  8
0-3
  6
Continuous
 62
     4
370
     9
100
AcDbLine
 10
-387.7927625501476
 20
40.04536396748307
 30
0.0
 11
-387.7927625501476
 21
27.37854828705679
 31
0.0
  0
LINE
  5
10F
330
1F
100
AcDbEntity
  8
0-3
  6
Continuous
 62
     4
370
     9
100
AcDbLine
 10
-376.4592763539906
 20
40.04536396748307
 30
0.0
 11
-376.4592763539906
 21
27.37854828705679
 31
0.0
  0
LINE
  5
110
330
1F
100
AcDbEntity
  8
0-3
  6
Continuous
 62
     4
370
     9
100
AcDbLine
 10
-374.4592202676307
 20
40.04536396748307
 30
0.0
 11
-374.4592202676307
 21
27.37854828705679
 31
0.0
  0
LINE
  5
111
330
1F
100
AcDbEntity
  8
0-0
  6
Continuous
 62
     3
370
     9
100
AcDbLine
 10
-352.7928945180531
 20
64.04529468433282
 30
0.0
 11
-367.7719116210938
 21
64.04529468433282
 31
0.0
  0
LINE
  5
112
330
1F
100
AcDbEntity
  8
0-1
  6
Continuous
 62
     2
370
     9
100
AcDbLine
 10
-357.7927872941299
 20
55.71189261771536
 30
0.0
 11
-984.4593769795185
 21
55.71189261771536
 31
0.0
  0
LINE
  5
113
330
1F
100
AcDbEntity
  8
0-3
  6
Continuous
 62
     4
370
     9
100
AcDbLine
 10
409.5366606841219
 20
67.64356458509297
 30
0.0
 11
406.2033988334039
 21
67.64356458509297
 31
0.0
  0
LINE
  5
114
330
1F
100
AcDbEntity
  8
0-3
  6
Continuous
 62
     4
370
     9
100
AcDbLine
 10
406.2033988334039
 20
68.97677034945104
 30
0.0
 11
406.2033988334039
 21
67.64356458509297
 31
0.0
  0
LINE
  5
115
330
1F
100
AcDbEntity
  8
0-3
  6
Continuous
 62
     4
370
     9
100
AcDbLine
 10
409.5366606841219
 20
68.97677034945104
 30
0.0
 11
409.5366606841219
 21
67.64356458509297
 31
0.0
  0
LINE
  5
116
330
1F
100
AcDbEntity
  8
0-3
  6
Continuous
 62
     4
370
     9
100
AcDbLine
 10
1016.203184385558
 20
67.64356458509297
 30
0.0
 11
1019.536693676098
 21
67.64356458509297
 31
0.0
  0
LINE
  5
117
330
1F
100
AcDbEntity
  8
0-3
  6
Continuous
 62
     4
370
     9
100
AcDbLine
 10
1019.536693676098
 20
68.97677034945104
 30
0.0
 11
1019.536693676098
 21
67.64356458509297
 31
0.0
  0
LINE
  5
118
330
1F
100
AcDbEntity
  8
0-3
  6
Continuous
 62
     4
370
     9
100
AcDbLine
 10
1016.203184385558
 20
68.97677034945104
 30
0.0
 11
1016.203184385558
 21
67.64356458509297
 31
0.0
  0
LINE
  5
119
330
1F
100
AcDbEntity
  8
0-0
  6
JWW_CENTER1
 62
     3
370
     9
100
AcDbLine
 10
-1047.774649955131
 20
858.0734995249156
 30
0.0
 11
-326.3513513513513
 21
858.0734995249156
 31
0.0
  0
LINE
  5
11A
330
1F
100
AcDbEntity
  8
0-1
  6
JWW_CENTER1
 62
     2
370
     9
100
AcDbLine
 10
-776.1261811127533
 20
991.4066953916811
 30
0.0
 11
-862.7927213101773
 21
991.4066953916811
 31
0.0
  0
LINE
  5
11B
330
1F
100
AcDbEntity
  8
0-1
  6
JWW_CENTER1
 62
     2
370
     9
100
AcDbLine
 10
-819.4594512114654
 20
948.0733015730575
 30
0.0
 11
-819.4594512114654
 21
1034.740089210304
 31
0.0
  0
LINE
  5
11C
330
1F
100
AcDbEntity
  8
0-1
  6
JWW_CENTER1
 62
     2
370
     9
100
AcDbLine
 10
-686.1261316247887
 20
814.7401057062925
 30
0.0
 11
-686.1261316247887
 21
901.4068933435391
 31
0.0
  0
LINE
  5
11D
330
1F
100
AcDbEntity
  8
0-1
  6
JWW_CENTER1
 62
     2
370
     9
100
AcDbLine
 10
-509.4596656593114
 20
991.4066953916811
 30
0.0
 11
-596.1262058567356
 21
991.4066953916811
 31
0.0
  0
LINE
  5
11E
330
1F
100
AcDbEntity
  8
0-1
  6
JWW_CENTER1
 62
     2
370
     9
100
AcDbLine
 10
-552.7929357580238
 20
948.0733015730575
 30
0.0
 11
-552.7929357580238
 21
1034.740089210304
 31
0.0
  0
LINE
  5
11F
330
1F
100
AcDbEntity
  8
0-1
  6
JWW_CENTER1
 62
     2
370
     9
100
AcDbLine
 10
-776.1261811127533
 20
724.7403036581505
 30
0.0
 11
-862.7927213101773
 21
724.7403036581505
 31
0.0
  0
LINE
  5
120
330
1F
100
AcDbEntity
  8
0-1
  6
JWW_CENTER1
 62
     2
370
     9
100
AcDbLine
 10
-819.4594512114654
 20
681.4069098395271
 30
0.0
 11
-819.4594512114654
 21
768.0736974767738
 31
0.0
  0
LINE
  5
121
330
1F
100
AcDbEntity
  8
0-1
  6
JWW_CENTER1
 62
     2
370
     9
100
AcDbLine
 10
-509.4596656593114
 20
724.7403036581505
 30
0.0
 11
-596.1262058567356
 21
724.7403036581505
 31
0.0
  0
LINE
  5
122
330
1F
100
AcDbEntity
  8
0-1
  6
JWW_CENTER1
 62
     2
370
     9
100
AcDbLine
 10
-552.7929357580238
 20
681.4069098395271
 30
0.0
 11
-552.7929357580238
 21
768.0736974767738
 31
0.0
  0
LINE
  5
123
330
1F
100
AcDbEntity
  8
0-1
  6
JWW_CENTER1
 62
     2
370
     9
100
AcDbLine
 10
-819.4594512114654
 20
77.37858952702709
 30
0.0
 11
-819.4594512114654
 21
39.04521220439193
 31
0.0
  0
LINE
  5
124
330
1F
100
AcDbEntity
  8
0-1
  6
JWW_CENTER1
 62
     2
370
     9
100
AcDbLine
 10
-552.7929357580238
 20
77.37858952702709
 30
0.0
 11
-552.7929357580238
 21
39.04521220439193
 31
0.0
  0
LINE
  5
125
330
1F
100
AcDbEntity
  8
0-1
  6
JWW_CENTER1
 62
     2
370
     9
100
AcDbLine
 10
-686.1261316247887
 20
77.37858952702709
 30
0.0
 11
-686.1261316247887
 21
39.04521220439193
 31
0.0
  0
LINE
  5
126
330
1F
100
AcDbEntity
  8
0-4
  6
Continuous
 62
     7
370
     9
100
AcDbLine
 10
-1019.459492451436
 20
424.7401799382391
 30
0.0
 11
-352.7928945180531
 21
424.7401799382391
 31
0.0
  0
LINE
  5
127
330
1F
100
AcDbEntity
  8
0-4
  6
Continuous
 62
     7
370
     9
100
AcDbLine
 10
-1019.459492451436
 20
669.7401222022804
 30
0.0
 11
-1019.459492451436
 21
421.7402195286107
 31
0.0
  0
LINE
  5
128
330
1F
100
AcDbEntity
  8
0-4
  6
Continuous
 62
     7
370
     9
100
AcDbLine
 10
-352.7928945180531
 20
499.7401799382391
 30
0.0
 11
-352.7928945180531
 21
421.7402195286107
 31
0.0
  0
LINE
  5
129
330
1F
100
AcDbEntity
  8
0-4
  6
Continuous
 62
     7
370
     9
100
AcDbLine
 10
-1019.459492451436
 20
424.7401799382391
 30
0.0
 11
-994.6733216981629
 21
428.0032925992398
 31
0.0
  0
LINE
  5
12A
330
1F
100
AcDbEntity
  8
0-4
  6
Continuous
 62
     7
370
     9
100
AcDbLine
 10
-1019.459492451436
 20
424.7401799382391
 30
0.0
 11
-994.6733216981629
 21
421.4770672772383
 31
0.0
  0
LINE
  5
12B
330
1F
100
AcDbEntity
  8
0-4
  6
Continuous
 62
     7
370
     9
100
AcDbLine
 10
-352.7928945180531
 20
424.7401799382391
 30
0.0
 11
-377.579065271326
 21
428.0032925992398
 31
0.0
  0
LINE
  5
12C
330
1F
100
AcDbEntity
  8
0-4
  6
Continuous
 62
     7
370
     9
100
AcDbLine
 10
-352.7928945180531
 20
424.7401799382391
 30
0.0
 11
-377.579065271326
 21
421.4770672772383
 31
0.0
  0
LINE
  5
12D
330
1F
100
AcDbEntity
  8
0-4
  6
Continuous
 62
     7
370
     9
100
AcDbLine
 10
-252.7929357580234
 20
524.7401386982688
 30
0.0
 11
-252.7929357580234
 21
1191.406860351562
 31
0.0
  0
LINE
  5
12E
330
1F
100
AcDbEntity
  8
0-4
  6
Continuous
 62
     7
370
     9
100
AcDbLine
 10
-327.7929357580234
 20
524.7401386982688
 30
0.0
 11
-249.792975348395
 21
524.7401386982688
 31
0.0
  0
LINE
  5
12F
330
1F
100
AcDbEntity
  8
0-4
  6
Continuous
 62
     7
370
     9
100
AcDbLine
 10
-327.7929357580234
 20
1191.406860351562
 30
0.0
 11
-249.792975348395
 21
1191.406860351562
 31
0.0
  0
LINE
  5
130
330
1F
100
AcDbEntity
  8
0-4
  6
Continuous
 62
     7
370
     9
100
AcDbLine
 10
-252.7929357580234
 20
524.7401386982688
 30
0.0
 11
-256.0560484190245
 21
549.5263094515415
 31
0.0
  0
LINE
  5
131
330
1F
100
AcDbEntity
  8
0-4
  6
Continuous
 62
     7
370
     9
100
AcDbLine
 10
-252.7929357580234
 20
524.7401386982688
 30
0.0
 11
-249.5298230970226
 21
549.5263094515415
 31
0.0
  0
LINE
  5
132
330
1F
100
AcDbEntity
  8
0-4
  6
Continuous
 62
     7
370
     9
100
AcDbLine
 10
-252.7929357580234
 20
1191.406860351562
 30
0.0
 11
-256.0560484190245
 21
1166.620813318201
 31
0.0
  0
LINE
  5
133
330
1F
100
AcDbEntity
  8
0-4
  6
Continuous
 62
     7
370
     9
100
AcDbLine
 10
-252.7929357580234
 20
1191.406860351562
 30
0.0
 11
-249.5298230970226
 21
1166.620813318201
 31
0.0
  0
LINE
  5
134
330
1F
100
AcDbEntity
  8
0-4
  6
Continuous
 62
     7
370
     9
100
AcDbLine
 10
-252.7929357580234
 20
-835.9545815957558
 30
0.0
 11
-252.7929357580234
 21
64.04529468433282
 31
0.0
  0
LINE
  5
135
330
1F
100
AcDbEntity
  8
0-4
  6
Continuous
 62
     7
370
     9
100
AcDbLine
 10
-601.1262223527237
 20
-835.9545815957558
 30
0.0
 11
-169.792958852407
 21
-835.9545815957558
 31
0.0
  0
LINE
  5
136
330
1F
100
AcDbEntity
  8
0-4
  6
Continuous
 62
     7
370
     9
100
AcDbLine
 10
-327.7929357580234
 20
-669.2880249023438
 30
0.0
 11
-249.792975348395
 21
-669.2880249023438
 31
0.0
  0
LINE
  5
137
330
1F
100
AcDbEntity
  8
0-4
  6
Continuous
 62
     7
370
     9
100
AcDbLine
 10
-252.7929357580234
 20
-835.9545815957558
 30
0.0
 11
-256.0560484190245
 21
-811.1684727024386
 31
0.0
  0
LINE
  5
138
330
1F
100
AcDbEntity
  8
0-4
  6
Continuous
 62
     7
370
     9
100
AcDbLine
 10
-252.7929357580234
 20
-835.9545815957558
 30
0.0
 11
-249.5298230970226
 21
-811.1684727024386
 31
0.0
  0
LINE
  5
139
330
1F
100
AcDbEntity
  8
0-4
  6
Continuous
 62
     7
370
     9
100
AcDbLine
 10
-249.5298230970226
 20
-644.5019160090266
 30
0.0
 11
-256.0560484190245
 21
-694.0741337956608
 31
0.0
  0
LINE
  5
13A
330
1F
100
AcDbEntity
  8
0-4
  6
Continuous
 62
     7
370
     9
100
AcDbLine
 10
-256.0560484190245
 20
-644.5019160090266
 30
0.0
 11
-249.5298230970226
 21
-694.0741337956608
 31
0.0
  0
LINE
  5
13B
330
1F
100
AcDbEntity
  8
0-4
  6
Continuous
 62
     7
370
     9
100
AcDbLine
 10
-327.7929357580234
 20
64.04529468433282
 30
0.0
 11
-169.792958852407
 21
64.04529468433282
 31
0.0
  0
LINE
  5
13C
330
1F
100
AcDbEntity
  8
0-4
  6
Continuous
 62
     7
370
     9
100
AcDbLine
 10
-252.7929357580234
 20
64.04529468433282
 30
0.0
 11
-256.0560484190245
 21
39.25912393106017
 31
0.0
  0
LINE
  5
13D
330
1F
100
AcDbEntity
  8
0-4
  6
Continuous
 62
     7
370
     9
100
AcDbLine
 10
-252.7929357580234
 20
64.04529468433282
 30
0.0
 11
-249.5298230970226
 21
39.25912393106017
 31
0.0
  0
LINE
  5
13E
330
1F
100
AcDbEntity
  8
0-4
  6
Continuous
 62
     7
370
     9
100
AcDbLine
 10
-172.7929192620354
 20
-835.9545815957558
 30
0.0
 11
-172.7929192620354
 21
64.04529468433282
 31
0.0
  0
LINE
  5
13F
330
1F
100
AcDbEntity
  8
0-4
  6
Continuous
 62
     7
370
     9
100
AcDbLine
 10
-172.7929192620354
 20
-835.9545815957558
 30
0.0
 11
-176.0560319230362
 21
-811.1684727024386
 31
0.0
  0
LINE
  5
140
330
1F
100
AcDbEntity
  8
0-4
  6
Continuous
 62
     7
370
     9
100
AcDbLine
 10
-172.7929192620354
 20
-835.9545815957558
 30
0.0
 11
-169.5298066010346
 21
-811.1684727024386
 31
0.0
  0
LINE
  5
141
330
1F
100
AcDbEntity
  8
0-4
  6
Continuous
 62
     7
370
     9
100
AcDbLine
 10
-172.7929192620354
 20
64.04529468433282
 30
0.0
 11
-176.0560319230362
 21
39.25912393106017
 31
0.0
  0
LINE
  5
142
330
1F
100
AcDbEntity
  8
0-4
  6
Continuous
 62
     7
370
     9
100
AcDbLine
 10
-172.7929192620354
 20
64.04529468433282
 30
0.0
 11
-169.5298066010346
 21
39.25912393106017
 31
0.0
  0
LINE
  5
143
330
1F
100
AcDbEntity
  8
0-4
  6
Continuous
 62
     7
370
     9
100
AcDbLine
 10
-879.4595254434121
 20
-935.9546022157411
 30
0.0
 11
-626.1261811127533
 21
-935.9546022157411
 31
0.0
  0
LINE
  5
144
330
1F
100
AcDbEntity
  8
0-4
  6
Continuous
 62
     7
370
     9
100
AcDbLine
 10
-879.4595254434121
 20
-860.9546022157411
 30
0.0
 11
-879.4595254434121
 21
-938.9546244853251
 31
0.0
  0
LINE
  5
145
330
1F
100
AcDbEntity
  8
0-4
  6
Continuous
 62
     7
370
     9
100
AcDbLine
 10
-626.1261811127533
 20
-860.9546022157411
 30
0.0
 11
-626.1261811127533
 21
-938.9546244853251
 31
0.0
  0
LINE
  5
146
330
1F
100
AcDbEntity
  8
0-4
  6
Continuous
 62
     7
370
     9
100
AcDbLine
 10
-879.4595254434121
 20
-935.9546022157411
 30
0.0
 11
-854.6733546901394
 21
-932.6914276947846
 31
0.0
  0
LINE
  5
147
330
1F
100
AcDbEntity
  8
0-4
  6
Continuous
 62
     7
370
     9
100
AcDbLine
 10
-879.4595254434121
 20
-935.9546022157411
 30
0.0
 11
-854.6733546901394
 21
-939.2177767366977
 31
0.0
  0
LINE
  5
148
330
1F
100
AcDbEntity
  8
0-4
  6
Continuous
 62
     7
370
     9
100
AcDbLine
 10
-626.1261811127533
 20
-935.9546022157411
 30
0.0
 11
-650.912351866026
 21
-932.6914276947846
 31
0.0
  0
LINE
  5
149
330
1F
100
AcDbEntity
  8
0-4
  6
Continuous
 62
     7
370
     9
100
AcDbLine
 10
-626.1261811127533
 20
-935.9546022157411
 30
0.0
 11
-650.912351866026
 21
-939.2177767366977
 31
0.0
  0
LINE
  5
14A
330
1F
100
AcDbEntity
  8
0-4
  6
Continuous
 62
     7
370
     9
100
AcDbLine
 10
-752.7928532780828
 20
-1015.954618711729
 30
0.0
 11
-352.7928945180531
 21
-1015.954618711729
 31
0.0
  0
LINE
  5
14B
330
1F
100
AcDbEntity
  8
0-4
  6
Continuous
 62
     7
370
     9
100
AcDbLine
 10
-352.7928945180531
 20
-694.2879836623733
 30
0.0
 11
-352.7928945180531
 21
-1018.954610051335
 31
0.0
  0
LINE
  5
14C
330
1F
100
AcDbEntity
  8
0-4
  6
Continuous
 62
     7
370
     9
100
AcDbLine
 10
-752.7928532780828
 20
-1015.954618711729
 30
0.0
 11
-728.0066825248099
 21
-1012.691475120751
 31
0.0
  0
LINE
  5
14D
330
1F
100
AcDbEntity
  8
0-4
  6
Continuous
 62
     7
370
     9
100
AcDbLine
 10
-752.7928532780828
 20
-1015.954618711729
 30
0.0
 11
-728.0066825248099
 21
-1019.217762302708
 31
0.0
  0
LINE
  5
14E
330
1F
100
AcDbEntity
  8
0-4
  6
Continuous
 62
     7
370
     9
100
AcDbLine
 10
-352.7928945180531
 20
-1015.954618711729
 30
0.0
 11
-377.579065271326
 21
-1012.691475120751
 31
0.0
  0
LINE
  5
14F
330
1F
100
AcDbEntity
  8
0-4
  6
Continuous
 62
     7
370
     9
100
AcDbLine
 10
-352.7928945180531
 20
-1015.954618711729
 30
0.0
 11
-377.579065271326
 21
-1019.217762302708
 31
0.0
  0
LINE
  5
150
330
1F
100
AcDbEntity
  8
0-4
  6
Continuous
 62
     7
370
     9
100
AcDbLine
 10
546.2033658414276
 20
164.0452534443625
 30
0.0
 11
879.5364792282521
 21
164.0452534443625
 31
0.0
  0
LINE
  5
151
330
1F
100
AcDbEntity
  8
0-4
  6
Continuous
 62
     7
370
     9
100
AcDbLine
 10
546.2033658414276
 20
89.04525344436252
 30
0.0
 11
546.2033658414276
 21
167.0452138539909
 31
0.0
  0
LINE
  5
152
330
1F
100
AcDbEntity
  8
0-4
  6
Continuous
 62
     7
370
     9
100
AcDbLine
 10
879.5364792282521
 20
89.04525344436252
 30
0.0
 11
879.5364792282521
 21
167.0452138539909
 31
0.0
  0
LINE
  5
153
330
1F
100
AcDbEntity
  8
0-4
  6
Continuous
 62
     7
370
     9
100
AcDbLine
 10
546.2033658414276
 20
164.0452534443625
 30
0.0
 11
570.9894128747891
 21
167.3083661053633
 31
0.0
  0
LINE
  5
154
330
1F
100
AcDbEntity
  8
0-4
  6
Continuous
 62
     7
370
     9
100
AcDbLine
 10
546.2033658414276
 20
164.0452534443625
 30
0.0
 11
570.9894128747891
 21
160.7821407833615
 31
0.0
  0
LINE
  5
155
330
1F
100
AcDbEntity
  8
0-4
  6
Continuous
 62
     7
370
     9
100
AcDbLine
 10
879.5364792282521
 20
164.0452534443625
 30
0.0
 11
854.7504321948901
 21
167.3083661053633
 31
0.0
  0
LINE
  5
156
330
1F
100
AcDbEntity
  8
0-4
  6
Continuous
 62
     7
370
     9
100
AcDbLine
 10
879.5364792282521
 20
164.0452534443625
 30
0.0
 11
854.7504321948901
 21
160.7821407833615
 31
0.0
  0
LINE
  5
157
330
1F
100
AcDbEntity
  8
0-4
  6
Continuous
 62
     7
370
     9
100
AcDbLine
 10
446.2032833614867
 20
244.0452699403505
 30
0.0
 11
979.5368091480151
 21
244.0452699403505
 31
0.0
  0
LINE
  5
158
330
1F
100
AcDbEntity
  8
0-4
  6
Continuous
 62
     7
370
     9
100
AcDbLine
 10
446.2032833614867
 20
29.1515783361487
 30
0.0
 11
446.2032833614867
 21
247.0452303499789
 31
0.0
  0
LINE
  5
159
330
1F
100
AcDbEntity
  8
0-4
  6
Continuous
 62
     7
370
     9
100
AcDbLine
 10
979.5368091480151
 20
29.1515783361487
 30
0.0
 11
979.5368091480151
 21
247.0452303499789
 31
0.0
  0
LINE
  5
15A
330
1F
100
AcDbEntity
  8
0-4
  6
Continuous
 62
     7
370
     9
100
AcDbLine
 10
446.2032833614867
 20
244.0452699403505
 30
0.0
 11
470.9893303948479
 21
247.3083826013516
 31
0.0
  0
LINE
  5
15B
330
1F
100
AcDbEntity
  8
0-4
  6
Continuous
 62
     7
370
     9
100
AcDbLine
 10
446.2032833614867
 20
244.0452699403505
 30
0.0
 11
470.9893303948479
 21
240.7821572793497
 31
0.0
  0
LINE
  5
15C
330
1F
100
AcDbEntity
  8
0-4
  6
Continuous
 62
     7
370
     9
100
AcDbLine
 10
979.5368091480151
 20
244.0452699403505
 30
0.0
 11
954.7507621146536
 21
247.3083826013516
 31
0.0
  0
LINE
  5
15D
330
1F
100
AcDbEntity
  8
0-4
  6
Continuous
 62
     7
370
     9
100
AcDbLine
 10
979.5368091480151
 20
244.0452699403505
 30
0.0
 11
954.7507621146536
 21
240.7821572793497
 31
0.0
  0
LINE
  5
15E
330
1F
100
AcDbEntity
  8
0-4
  6
Continuous
 62
     7
370
     9
100
AcDbLine
 10
1226.203382337416
 20
-335.9546640756968
 30
0.0
 11
1226.203382337416
 21
64.04529468433282
 31
0.0
  0
LINE
  5
15F
330
1F
100
AcDbEntity
  8
0-4
  6
Continuous
 62
     7
370
     9
100
AcDbLine
 10
737.8700050147808
 20
-335.9546640756968
 30
0.0
 11
1229.203342747044
 21
-335.9546640756968
 31
0.0
  0
LINE
  5
160
330
1F
100
AcDbEntity
  8
0-4
  6
Continuous
 62
     7
370
     9
100
AcDbLine
 10
1226.203382337416
 20
-335.9546640756968
 30
0.0
 11
1222.940145956504
 21
-311.168493322424
 31
0.0
  0
LINE
  5
161
330
1F
100
AcDbEntity
  8
0-4
  6
Continuous
 62
     7
370
     9
100
AcDbLine
 10
1226.203382337416
 20
-335.9546640756968
 30
0.0
 11
1229.466618718328
 21
-311.168493322424
 31
0.0
  0
LINE
  5
162
330
1F
100
AcDbEntity
  8
0-4
  6
Continuous
 62
     7
370
     9
100
AcDbLine
 10
1226.203382337416
 20
64.04529468433282
 30
0.0
 11
1222.940145956504
 21
39.25912393106017
 31
0.0
  0
LINE
  5
163
330
1F
100
AcDbEntity
  8
0-4
  6
Continuous
 62
     7
370
     9
100
AcDbLine
 10
1226.203382337416
 20
64.04529468433282
 30
0.0
 11
1229.466618718328
 21
39.25912393106017
 31
0.0
  0
LINE
  5
164
330
1F
100
AcDbEntity
  8
0-4
  6
Continuous
 62
     7
370
     9
100
AcDbLine
 10
1146.203365841428
 20
-35.9546640756966
 30
0.0
 11
1146.203365841428
 21
64.04529468433282
 31
0.0
  0
LINE
  5
165
330
1F
100
AcDbEntity
  8
0-4
  6
Continuous
 62
     7
370
     9
100
AcDbLine
 10
1030.310223553632
 20
-35.9546640756966
 30
0.0
 11
1149.203326251056
 21
-35.9546640756966
 31
0.0
  0
LINE
  5
166
330
1F
100
AcDbEntity
  8
0-4
  6
Continuous
 62
     7
370
     9
100
AcDbLine
 10
1146.203365841428
 20
-35.9546640756966
 30
0.0
 11
1142.940129460516
 21
-11.16849332242396
 31
0.0
  0
LINE
  5
167
330
1F
100
AcDbEntity
  8
0-4
  6
Continuous
 62
     7
370
     9
100
AcDbLine
 10
1146.203365841428
 20
-35.9546640756966
 30
0.0
 11
1149.46660222234
 21
-11.16849332242396
 31
0.0
  0
LINE
  5
168
330
1F
100
AcDbEntity
  8
0-4
  6
Continuous
 62
     7
370
     9
100
AcDbLine
 10
1146.203365841428
 20
64.04529468433282
 30
0.0
 11
1142.940129460516
 21
39.25912393106017
 31
0.0
  0
LINE
  5
169
330
1F
100
AcDbEntity
  8
0-4
  6
Continuous
 62
     7
370
     9
100
AcDbLine
 10
1146.203365841428
 20
64.04529468433282
 30
0.0
 11
1149.46660222234
 21
39.25912393106017
 31
0.0
  0
LINE
  5
16A
330
1F
100
AcDbEntity
  8
0-4
  6
Continuous
 62
     7
370
     9
100
AcDbLine
 10
1071.203365841428
 20
64.04529468433282
 30
0.0
 11
1229.203342747044
 21
64.04529468433282
 31
0.0
  0
LINE
  5
16B
330
1F
100
AcDbEntity
  8
0-E
  6
Continuous
 62
     7
370
     9
100
AcDbLine
 10
987.8700874947214
 20
-4.854200208509099
 30
0.0
 11
997.4371007970865
 21
18.24282259554479
 31
0.0
  0
LINE
  5
16C
330
1F
100
AcDbEntity
  8
0-E
  6
Continuous
 62
     7
370
     9
100
AcDbLine
 10
987.8700874947214
 20
-4.854200208509099
 30
0.0
 11
1003.089121225718
 21
14.97958621463255
 31
0.0
  0
LINE
  5
16D
330
1F
100
AcDbEntity
  8
0-E
  6
Continuous
 62
     7
370
     9
100
AcDbLine
 10
987.8700874947214
 20
-4.854200208509099
 30
0.0
 11
1085.38438951647
 21
164.0452534443625
 31
0.0
  0
LINE
  5
16E
330
1F
100
AcDbEntity
  8
0-E
  6
Continuous
 62
     7
370
     9
100
AcDbLine
 10
1085.38438951647
 20
164.0452534443625
 30
0.0
 11
1333.123366897171
 21
164.0452534443625
 31
0.0
  0
LINE
  5
16F
330
1F
100
AcDbEntity
  8
0-E
  6
Continuous
 62
     7
370
     9
100
AcDbLine
 10
-836.1261316247887
 20
1020.274262299409
 30
0.0
 11
-851.3451653557854
 21
1040.108048722551
 31
0.0
  0
LINE
  5
170
330
1F
100
AcDbEntity
  8
0-E
  6
Continuous
 62
     7
370
     9
100
AcDbLine
 10
-836.1261316247887
 20
1020.274262299409
 30
0.0
 11
-845.693268647065
 21
1043.371285103463
 31
0.0
  0
LINE
  5
171
330
1F
100
AcDbEntity
  8
0-E
  6
Continuous
 62
     7
370
     9
100
AcDbLine
 10
-836.1261316247887
 20
1020.274262299409
 30
0.0
 11
-963.7971620301942
 21
1241.407025311444
 31
0.0
  0
LINE
  5
172
330
1F
100
AcDbEntity
  8
0-E
  6
Continuous
 62
     7
370
     9
100
AcDbLine
 10
-1147.163989092853
 20
1241.407025311444
 30
0.0
 11
-963.7971620301942
 21
1241.407025311444
 31
0.0
  0
LINE
  5
173
330
1F
100
AcDbEntity
  8
0-4
  6
Continuous
 62
     7
370
     9
100
AcDbLine
 10
-1015.459503998627
 20
-564.2879877863703
 30
0.0
 11
-990.6733332453547
 21
-561.0248132654137
 31
0.0
  0
LINE
  5
174
330
1F
100
AcDbEntity
  8
0-4
  6
Continuous
 62
     7
370
     9
100
AcDbLine
 10
-1015.459503998627
 20
-564.2879877863703
 30
0.0
 11
-990.6733332453547
 21
-567.5511623073269
 31
0.0
  0
LINE
  5
175
330
1F
100
AcDbEntity
  8
0-4
  6
Continuous
 62
     7
370
     9
100
AcDbLine
 10
-1019.459492451436
 20
-564.2879877863703
 30
0.0
 11
-1044.245663204709
 21
-561.0248132654137
 31
0.0
  0
LINE
  5
176
330
1F
100
AcDbEntity
  8
0-4
  6
Continuous
 62
     7
370
     9
100
AcDbLine
 10
-1019.459492451436
 20
-564.2879877863703
 30
0.0
 11
-1044.245663204709
 21
-567.5511623073269
 31
0.0
  0
LINE
  5
177
330
1F
100
AcDbEntity
  8
0-4
  6
Continuous
 62
     7
370
     9
100
AcDbLine
 10
-1133.587770204286
 20
-564.2879877863703
 30
0.0
 11
-972.1590196764146
 21
-564.2879877863703
 31
0.0
  0
LINE
  5
178
330
1F
100
AcDbEntity
  8
0-E
  6
Continuous
 62
     7
370
     9
100
AcDbLine
 10
-1019.459492451436
 20
-669.2880249023438
 30
0.0
 11
-1029.026629473712
 21
-692.3849858464421
 31
0.0
  0
LINE
  5
179
330
1F
100
AcDbEntity
  8
0-E
  6
Continuous
 62
     7
370
     9
100
AcDbLine
 10
-1019.459492451436
 20
-669.2880249023438
 30
0.0
 11
-1034.678526182433
 21
-689.1218731854412
 31
0.0
  0
LINE
  5
17A
330
1F
100
AcDbEntity
  8
0-4
  6
Continuous
 62
     7
370
     9
100
AcDbLine
 10
-752.7928532780828
 20
60.71190911370365
 30
0.0
 11
-756.0559659390835
 21
85.4980798669763
 31
0.0
  0
LINE
  5
17B
330
1F
100
AcDbEntity
  8
0-4
  6
Continuous
 62
     7
370
     9
100
AcDbLine
 10
-752.7928532780828
 20
60.71190911370365
 30
0.0
 11
-749.5297406170818
 21
85.4980798669763
 31
0.0
  0
LINE
  5
17C
330
1F
100
AcDbEntity
  8
0-4
  6
Continuous
 62
     7
370
     9
100
AcDbLine
 10
-752.7928532780828
 20
55.71189261771536
 30
0.0
 11
-756.0559659390835
 21
30.92572186444272
 31
0.0
  0
LINE
  5
17D
330
1F
100
AcDbEntity
  8
0-4
  6
Continuous
 62
     7
370
     9
100
AcDbLine
 10
-752.7928532780828
 20
55.71189261771536
 30
0.0
 11
-749.5297406170818
 21
30.92572186444272
 31
0.0
  0
LINE
  5
17E
330
1F
100
AcDbEntity
  8
0-4
  6
Continuous
 62
     7
370
     9
100
AcDbLine
 10
-752.7928532780828
 20
158.905309728674
 30
0.0
 11
-752.7928532780828
 21
8.329764701224747
 31
0.0
  0
LINE
  5
17F
330
1F
100
AcDbEntity
  8
0-0
  6
Continuous
 62
     3
370
     9
100
AcDbLine
 10
-394.4800711966849
 20
64.04529468433282
 30
0.0
 11
-727.2545891839104
 21
64.04529468433282
 31
0.0
  0
LINE
  5
180
330
1F
100
AcDbEntity
  8
0-0
  6
Continuous
 62
     3
370
     9
100
AcDbLine
 10
-771.0631911819044
 20
64.04529468433282
 30
0.0
 11
-977.7720683329813
 21
64.04529468433282
 31
0.0
  0
LINE
  5
181
330
1F
100
AcDbEntity
  8
0-E
  6
Continuous
 62
     7
370
     9
100
AcDbLine
 10
-917.0635738888302
 20
60.71190911370365
 30
0.0
 11
-932.2826076198269
 21
80.54569553684559
 31
0.0
  0
LINE
  5
182
330
1F
100
AcDbEntity
  8
0-E
  6
Continuous
 62
     7
370
     9
100
AcDbLine
 10
-917.0635738888302
 20
60.71190911370365
 30
0.0
 11
-926.6307109111063
 21
83.80893191775755
 31
0.0
  0
LINE
  5
183
330
1F
100
AcDbEntity
  8
0-E
  6
Continuous
 62
     7
370
     9
100
AcDbLine
 10
-917.0635738888302
 20
60.71190911370365
 30
0.0
 11
-976.7230472049197
 21
164.0452534443625
 31
0.0
  0
LINE
  5
184
330
1F
100
AcDbEntity
  8
0-E
  6
Continuous
 62
     7
370
     9
100
AcDbLine
 10
-1019.459492451436
 20
-669.2880249023438
 30
0.0
 11
-1077.194564406936
 21
-769.288045522329
 31
0.0
  0
LINE
  5
185
330
1F
100
AcDbEntity
  8
0-E
  6
Continuous
 62
     7
370
     9
100
AcDbLine
 10
-370.9593076963682
 20
66.32124617293073
 30
0.0
 11
-361.3921706740919
 21
89.4182689769849
 31
0.0
  0
LINE
  5
186
330
1F
100
AcDbEntity
  8
0-E
  6
Continuous
 62
     7
370
     9
100
AcDbLine
 10
-370.9593076963682
 20
66.32124617293073
 30
0.0
 11
-355.7402739653716
 21
86.15503259607266
 31
0.0
  0
LINE
  5
187
330
1F
100
AcDbEntity
  8
0-E
  6
Continuous
 62
     7
370
     9
100
AcDbLine
 10
-370.9593076963682
 20
66.32124617293073
 30
0.0
 11
-314.5383267789273
 21
164.0452534443625
 31
0.0
  0
LINE
  5
188
330
1F
100
AcDbEntity
  8
0-E
  6
Continuous
 62
     7
370
     9
100
AcDbLine
 10
-314.5383267789273
 20
164.0452534443625
 30
0.0
 11
83.72522302576016
 21
164.0452534443625
 31
0.0
  0
LINE
  5
189
330
1F
100
AcDbEntity
  8
0-E
  6
Continuous
 62
     7
370
     9
100
AcDbLine
 10
-1267.865815033784
 20
164.0452534443625
 30
0.0
 11
-976.7230472049197
 21
164.0452534443625
 31
0.0
  0
LINE
  5
18A
330
1F
100
AcDbEntity
  8
0-E
  6
Continuous
 62
     7
370
     9
100
AcDbLine
 10
-1396.478415824271
 20
-769.288045522329
 30
0.0
 11
-1077.194564406936
 21
-769.288045522329
 31
0.0
  0
LINE
  5
18B
330
1F
100
AcDbEntity
  8
0-4
  6
Continuous
 62
     7
370
     9
100
AcDbLine
 10
-752.7928532780828
 20
-950.9331862990921
 30
0.0
 11
-752.7928532780828
 21
-1018.954610051335
 31
0.0
  0
LINE
  5
18C
330
1F
100
AcDbEntity
  8
0-0
  6
JWW_CENTER1
 62
     3
370
     9
100
AcDbLine
 10
-752.7928532780828
 20
-634.6347582018053
 30
0.0
 11
-752.7928532780828
 21
-877.8506593446474
 31
0.0
  0
LINE
  5
18D
330
1F
100
AcDbEntity
  8
0-0
  6
Continuous
 62
     3
370
     9
100
AcDbLine
 10
546.2033658414276
 20
64.04529468433282
 30
0.0
 11
546.2033658414276
 21
-169.2881073822846
 31
0.0
  0
LINE
  5
18E
330
1F
100
AcDbEntity
  8
0-1
  6
Continuous
 62
     2
370
     9
100
AcDbLine
 10
546.2033658414276
 20
55.71189261771536
 30
0.0
 11
879.5364792282521
 21
55.71189261771536
 31
0.0
  0
LINE
  5
18F
330
1F
100
AcDbEntity
  8
0-1
  6
Continuous
 62
     2
370
     9
100
AcDbLine
 10
546.2033658414276
 20
60.71190911370365
 30
0.0
 11
879.5364792282521
 21
60.71190911370365
 31
0.0
  0
LINE
  5
190
330
1F
100
AcDbEntity
  8
0-0
  6
Continuous
 62
     3
370
     9
100
AcDbLine
 10
879.5364792282521
 20
64.04529468433282
 30
0.0
 11
879.5364792282521
 21
-169.2881073822846
 31
0.0
  0
LINE
  5
191
330
1F
100
AcDbEntity
  8
0-4
  6
Continuous
 62
     7
370
     9
100
AcDbLine
 10
712.8699225348396
 20
-169.2881073822846
 30
0.0
 11
857.2075096336573
 21
-252.6213857289906
 31
0.0
  0
LINE
  5
192
330
1F
100
AcDbEntity
  8
0-4
  6
Continuous
 62
     7
370
     9
100
AcDbLine
 10
857.2075096336573
 20
-252.6213857289906
 30
0.0
 11
837.3737232105151
 21
-237.402351997994
 31
0.0
  0
LINE
  5
193
330
1F
100
AcDbEntity
  8
0-4
  6
Continuous
 62
     7
370
     9
100
AcDbLine
 10
857.2075096336573
 20
-252.6213857289906
 30
0.0
 11
834.1104868296031
 21
-243.0542487067144
 31
0.0
  0
ARC
  5
194
330
1F
100
AcDbEntity
  8
0-0
  6
Continuous
 62
     3
370
     9
100
AcDbCircle
 10
-849.4595501873944
 20
1021.40679436761
 30
0.0
 40
170.000004123997
100
AcDbArc
 50
90.0
 51
180.0
  0
ARC
  5
195
330
1F
100
AcDbEntity
  8
0-0
  6
Continuous
 62
     3
370
     9
100
AcDbCircle
 10
-849.4595501873944
 20
694.7402046822214
 30
0.0
 40
170.000004123997
100
AcDbArc
 50
180.0
 51
270.0
  0
ARC
  5
196
330
1F
100
AcDbEntity
  8
0-1
  6
Continuous
 62
     2
370
     9
100
AcDbCircle
 10
-849.4595501873944
 20
1021.40679436761
 30
0.0
 40
164.9999876280089
100
AcDbArc
 50
90.0
 51
180.0
  0
ARC
  5
197
330
1F
100
AcDbEntity
  8
0-1
  6
Continuous
 62
     2
370
     9
100
AcDbCircle
 10
-849.4595501873944
 20
694.7402046822214
 30
0.0
 40
164.9999876280089
100
AcDbArc
 50
180.0
 51
270.0
  0
CIRCLE
  5
198
330
1F
100
AcDbEntity
  8
0-1
  6
Continuous
 62
     2
370
     9
100
AcDbCircle
 10
-686.1261316247887
 20
858.0734995249156
 30
0.0
 40
33.33333376291636
  0
CIRCLE
  5
199
330
1F
100
AcDbEntity
  8
0-1
  6
Continuous
 62
     2
370
     9
100
AcDbCircle
 10
-552.7929357580238
 20
991.4066953916811
 30
0.0
 40
33.33333376291636
  0
CIRCLE
  5
19A
330
1F
100
AcDbEntity
  8
0-1
  6
Continuous
 62
     2
370
     9
100
AcDbCircle
 10
-819.4594512114654
 20
991.4066953916811
 30
0.0
 40
33.33333376291636
  0
CIRCLE
  5
19B
330
1F
100
AcDbEntity
  8
0-1
  6
Continuous
 62
     2
370
     9
100
AcDbCircle
 10
-552.7929357580238
 20
724.7403036581505
 30
0.0
 40
33.33333376291636
  0
CIRCLE
  5
19C
330
1F
100
AcDbEntity
  8
0-1
  6
Continuous
 62
     2
370
     9
100
AcDbCircle
 10
-819.4594512114654
 20
724.7403036581505
 30
0.0
 40
33.33333376291636
  0
ARC
  5
19D
330
1F
100
AcDbEntity
  8
0-2
  6
Continuous
 62
     6
370
     9
100
AcDbCircle
 10
-1005.45934728674
 20
45.71198334565054
 30
0.0
 40
10.00000012887491
100
AcDbArc
 50
90.0
 51
180.0
  0
ARC
  5
19E
330
1F
100
AcDbEntity
  8
0-0
  6
Continuous
 62
     3
370
     9
100
AcDbCircle
 10
446.2032833614867
 20
-52.6214682089315
 30
0.0
 40
16.66666688145818
100
AcDbArc
 50
180.0
 51
0.0
  0
ARC
  5
19F
330
1F
100
AcDbEntity
  8
0-0
  6
Continuous
 62
     3
370
     9
100
AcDbCircle
 10
446.2032833614867
 20
-19.28798366237316
 30
0.0
 40
16.66666688145818
100
AcDbArc
 50
0.0
 51
180.0
  0
ARC
  5
1A0
330
1F
100
AcDbEntity
  8
0-0
  6
Continuous
 62
     3
370
     9
100
AcDbCircle
 10
979.5368091480151
 20
-52.6214682089315
 30
0.0
 40
16.66666688145818
100
AcDbArc
 50
180.0
 51
0.0
  0
ARC
  5
1A1
330
1F
100
AcDbEntity
  8
0-0
  6
Continuous
 62
     3
370
     9
100
AcDbCircle
 10
979.5368091480151
 20
-19.28798366237316
 30
0.0
 40
16.66666688145818
100
AcDbArc
 50
0.0
 51
180.0
  0
ARC
  5
1A2
330
1F
100
AcDbEntity
  8
0-3
  6
Continuous
 62
     4
370
     9
100
AcDbCircle
 10
712.8699225348396
 20
48.71206747519011
 30
0.0
 40
20.33333262881717
100
AcDbArc
 50
94.70146179199219
 51
140.3980102539062
  0
ARC
  5
1A3
330
1F
100
AcDbEntity
  8
0-3
  6
Continuous
 62
     4
370
     9
100
AcDbCircle
 10
712.8699225348396
 20
48.71206747519011
 30
0.0
 40
20.33333262881717
100
AcDbArc
 50
39.60198974609375
 51
85.29808044433594
  0
ARC
  5
1A4
330
1F
100
AcDbEntity
  8
0-3
  6
Continuous
 62
     4
370
     9
100
AcDbCircle
 10
-381.1259914088893
 20
48.71206747519011
 30
0.0
 40
20.33333262881717
100
AcDbArc
 50
94.70146179199219
 51
140.3980102539062
  0
ARC
  5
1A5
330
1F
100
AcDbEntity
  8
0-3
  6
Continuous
 62
     4
370
     9
100
AcDbCircle
 10
-381.1259914088893
 20
48.71206747519011
 30
0.0
 40
20.33333262881717
100
AcDbArc
 50
39.60198974609375
 51
85.29808044433594
  0
ARC
  5
1A6
330
1F
100
AcDbEntity
  8
0-3
  6
Continuous
 62
     4
370
     9
100
AcDbCircle
 10
-991.126148120777
 20
48.71206747519011
 30
0.0
 40
20.33333262881717
100
AcDbArc
 50
94.70146179199219
 51
140.3980102539062
  0
ARC
  5
1A7
330
1F
100
AcDbEntity
  8
0-3
  6
Continuous
 62
     4
370
     9
100
AcDbCircle
 10
-991.126148120777
 20
48.71206747519011
 30
0.0
 40
20.33333262881717
100
AcDbArc
 50
39.60198974609375
 51
85.29808044433594
  0
CIRCLE
  5
1A8
330
1F
100
AcDbEntity
  8
0-3
  6
Continuous
 62
     4
370
     9
100
AcDbCircle
 10
-381.1259914088893
 20
553.0734830289273
 30
0.0
 40
15.66665043701997
  0
CIRCLE
  5
1A9
330
1F
100
AcDbEntity
  8
0-3
  6
Continuous
 62
     4
370
     9
100
AcDbCircle
 10
-991.126148120777
 20
858.0734995249156
 30
0.0
 40
15.66665043701997
  0
CIRCLE
  5
1AA
330
1F
100
AcDbEntity
  8
0-3
  6
Continuous
 62
     4
370
     9
100
AcDbCircle
 10
-381.1259914088893
 20
1163.073516020904
 30
0.0
 40
15.66665043701997
  0
ARC
  5
1AB
330
1F
100
AcDbEntity
  8
0-0
  6
Continuous
 62
     3
370
     9
100
AcDbCircle
 10
-849.4595501873944
 20
1021.40679436761
 30
0.0
 40
166.0000002061999
100
AcDbArc
 50
90.0
 51
180.0
  0
ARC
  5
1AC
330
1F
100
AcDbEntity
  8
0-0
  6
Continuous
 62
     3
370
     9
100
AcDbCircle
 10
-849.4595501873944
 20
694.7402046822214
 30
0.0
 40
166.0000002061999
100
AcDbArc
 50
180.0
 51
270.0
  0
ARC
  5
1AD
330
1F
100
AcDbEntity
  8
0-1
  6
Continuous
 62
     2
370
     9
100
AcDbCircle
 10
-364.4595584353885
 20
1179.740072714316
 30
0.0
 40
6.666666752583272
100
AcDbArc
 50
0.0
 51
90.0
  0
ARC
  5
1AE
330
1F
100
AcDbEntity
  8
0-1
  6
Continuous
 62
     2
370
     9
100
AcDbCircle
 10
-364.4595584353885
 20
536.4066788956927
 30
0.0
 40
6.666666752583272
100
AcDbArc
 50
270.0
 51
0.0
  0
ARC
  5
1AF
330
1F
100
AcDbEntity
  8
0-2
  6
Continuous
 62
     6
370
     9
100
AcDbCircle
 10
-1005.45934728674
 20
45.71198334565054
 30
0.0
 40
5.000000064437454
100
AcDbArc
 50
90.0
 51
180.0
  0
ARC
  5
1B0
330
1F
100
AcDbEntity
  8
0-3
  6
Continuous
 62
     4
370
     9
100
AcDbCircle
 10
407.8701534786742
 20
48.71206747519011
 30
0.0
 40
20.33333262881717
100
AcDbArc
 50
94.70146179199219
 51
131.0532989501953
  0
ARC
  5
1B1
330
1F
100
AcDbEntity
  8
0-3
  6
Continuous
 62
     4
370
     9
100
AcDbCircle
 10
407.8701534786742
 20
48.71206747519011
 30
0.0
 40
20.33333262881717
100
AcDbArc
 50
48.94670104980469
 51
85.29808044433594
  0
ARC
  5
1B2
330
1F
100
AcDbEntity
  8
0-3
  6
Continuous
 62
     4
370
     9
100
AcDbCircle
 10
1017.869939030828
 20
48.71206747519011
 30
0.0
 40
20.33333262881717
100
AcDbArc
 50
48.94670104980469
 51
85.29853820800781
  0
ARC
  5
1B3
330
1F
100
AcDbEntity
  8
0-3
  6
Continuous
 62
     4
370
     9
100
AcDbCircle
 10
1017.869939030828
 20
48.71206747519011
 30
0.0
 40
20.33333262881717
100
AcDbArc
 50
94.70191955566405
 51
131.0532989501953
  0
CIRCLE
  5
1B4
330
1F
100
AcDbEntity
  8
0-0
  6
JWW_DASHED1
 62
     3
370
     9
100
AcDbCircle
 10
-752.7928532780828
 20
858.0734995249156
 30
0.0
 40
126.6666644328349
  0
ARC
  5
1B5
330
1F
100
AcDbEntity
  8
0-0
  6
Continuous
 62
     3
370
     9
100
AcDbCircle
 10
712.8699225348396
 20
-169.2881073822846
 30
0.0
 40
166.6665566934122
100
AcDbArc
 50
180.0
 51
0.0
  0
TEXT
  5
1B6
330
1F
100
AcDbEntity
  8
0-E
  6
Continuous
 62
     7
370
     9
100
AcDbText
 10
-186.517816492029
 20
124.7763223843961
 30
0.0
 40
22.86
  1
Ｍ４×１０
 41
1.133333333333333
  7
ＭＳ ゴシック
100
AcDbText
  0
TEXT
  5
1B7
330
1F
100
AcDbEntity
  8
0-4
  6
Continuous
 62
     2
370
     9
100
AcDbText
 10
-718.6262553447001
 20
440.3802129302154
 30
0.0
 40
30.48
  1
200
 41
1.083333333333333
  7
ＭＳ ゴシック
100
AcDbText
  0
TEXT
  5
1B8
330
1F
100
AcDbEntity
  8
0-4
  6
Continuous
 62
     2
370
     9
100
AcDbText
 10
-268.4329673293798
 20
825.5734992783835
 30
0.0
 40
30.48
  1
200
 50
90.00000250447816
 41
1.083333333333334
  7
ＭＳ ゴシック
100
AcDbText
  0
TEXT
  5
1B9
330
1F
100
AcDbEntity
  8
0-4
  6
Continuous
 62
     2
370
     9
100
AcDbText
 10
-268.4329678211329
 20
-773.8713034955821
 30
0.0
 40
30.48
  1
50
 50
90.00000250447816
 41
1.062500000000001
  7
ＭＳ ゴシック
100
AcDbText
  0
TEXT
  5
1BA
330
1F
100
AcDbEntity
  8
0-4
  6
Continuous
 62
     2
370
     9
100
AcDbText
 10
-268.4329673293798
 20
-335.1214272154933
 30
0.0
 40
30.48
  1
220
 50
90.00000250447816
 41
1.083333333333333
  7
ＭＳ ゴシック
100
AcDbText
  0
TEXT
  5
1BB
330
1F
100
AcDbEntity
  8
0-4
  6
Continuous
 62
     2
370
     9
100
AcDbText
 10
-188.4329508333915
 20
-418.4547055621994
 30
0.0
 40
30.48
  1
270
 50
90.00000250447816
 41
1.083333333333333
  7
ＭＳ ゴシック
100
AcDbText
  0
TEXT
  5
1BC
330
1F
100
AcDbEntity
  8
0-4
  6
Continuous
 62
     2
370
     9
100
AcDbText
 10
-585.2929357580235
 20
-1000.314616649731
 30
0.0
 40
30.48
  1
120
 41
1.083333333333333
  7
ＭＳ ゴシック
100
AcDbText
  0
TEXT
  5
1BD
330
1F
100
AcDbEntity
  8
0-4
  6
Continuous
 62
     2
370
     9
100
AcDbText
 10
680.3699225348396
 20
259.6853029323268
 30
0.0
 40
30.48
  1
160
 41
1.083333333333333
  7
ＭＳ ゴシック
100
AcDbText
  0
TEXT
  5
1BE
330
1F
100
AcDbEntity
  8
0-4
  6
Continuous
 62
     2
370
     9
100
AcDbText
 10
1130.563333778318
 20
-7.204623082258515
 30
0.0
 40
30.48
  1
30
 50
90.00000250447816
 41
1.0625
  7
ＭＳ ゴシック
100
AcDbText
  0
TEXT
  5
1BF
330
1F
100
AcDbEntity
  8
0-E
  6
Continuous
 62
     7
370
     9
100
AcDbText
 10
1093.123342153189
 20
183.7870084855365
 30
0.0
 40
22.86
  1
２－１０×２０
 41
1.142857142857143
  7
ＭＳ ゴシック
100
AcDbText
  0
TEXT
  5
1C0
330
1F
100
AcDbEntity
  8
0-E
  6
Continuous
 62
     7
370
     9
100
AcDbText
 10
-1139.160669687632
 20
1256.522645428632
 30
0.0
 40
22.86
  1
５－φ２０
 41
1.133333333333333
  7
ＭＳ ゴシック
100
AcDbText
  0
TEXT
  5
1C1
330
1F
100
AcDbEntity
  8
0-4
  6
Continuous
 62
     2
370
     9
100
AcDbText
 10
-1117.823271880279
 20
-548.6480166543496
 30
0.0
 40
30.48
  1
1.2
 41
1.083333333333333
  7
ＭＳ ゴシック
100
AcDbText
  0
TEXT
  5
1C2
330
1F
100
AcDbEntity
  8
0-4
  6
Continuous
 62
     2
370
     9
100
AcDbText
 10
-768.4328848494389
 20
87.73479540116637
 30
0.0
 40
30.48
  1
1.5
 50
90.00000250447816
 41
1.083333333333333
  7
ＭＳ ゴシック
100
AcDbText
  0
TEXT
  5
1C3
330
1F
100
AcDbEntity
  8
0-E
  6
Continuous
 62
     7
370
     9
100
AcDbText
 10
-306.0733403386296
 20
183.5052982474664
 30
0.0
 40
22.86
  1
止めビス：ＳＵＳ３０４
 41
1.151515151515152
  7
ＭＳ ゴシック
100
AcDbText
  0
TEXT
  5
1C4
330
1F
100
AcDbEntity
  8
0-E
  6
Continuous
 62
     7
370
     9
100
AcDbText
 10
-1260.11990727605
 20
181.5006645243878
 30
0.0
 40
22.86
  1
蓋：ＳＵＳ３０４
 41
1.145833333333333
  7
ＭＳ ゴシック
100
AcDbText
  0
TEXT
  5
1C5
330
1F
100
AcDbEntity
  8
0-E
  6
Continuous
 62
     7
370
     9
100
AcDbText
 10
-1396.478430258261
 20
-749.8880667361697
 30
0.0
 40
22.86
  1
本体：ＳＵＳ３０４
 41
1.148148148148148
  7
ＭＳ ゴシック
100
AcDbText
  0
TEXT
  5
1C6
330
1F
100
AcDbEntity
  8
0-E
  6
Continuous
 62
     7
370
     9
100
AcDbText
 10
-1194.279587204392
 20
127.2791761903505
 30
0.0
 40
22.86
  1
電解研摩
 41
1.125
  7
ＭＳ ゴシック
100
AcDbText
  0
TEXT
  5
1C7
330
1F
100
AcDbEntity
  8
0-E
  6
Continuous
 62
     7
370
     9
100
AcDbText
 10
-1322.431733414934
 20
-804.8620814307959
 30
0.0
 40
22.86
  1
電解研摩
 41
1.125
  7
ＭＳ ゴシック
100
AcDbText
  0
TEXT
  5
1C8
330
1F
100
AcDbEntity
  8
0-4
  6
Continuous
 62
     2
370
     9
100
AcDbText
 10
-796.5429151380384
 20
-920.3146310837204
 30
0.0
 40
30.48
  1
φ76
 41
1.09375
  7
ＭＳ ゴシック
100
AcDbText
  0
TEXT
  5
1C9
330
1F
100
AcDbEntity
  8
0-4
  6
Continuous
 62
     2
370
     9
100
AcDbText
 10
680.3699225348396
 20
179.6852864363388
 30
0.0
 40
30.48
  1
100
 41
1.083333333333333
  7
ＭＳ ゴシック
100
AcDbText
  0
TEXT
  5
1CA
330
1F
100
AcDbEntity
  8
0-4
  6
Continuous
 62
     2
370
     9
100
AcDbText
 10
1210.56335076606
 20
-168.4547468021698
 30
0.0
 40
30.48
  1
120
 50
90.00000250447816
 41
1.083333333333333
  7
ＭＳ ゴシック
100
AcDbText
  0
TEXT
  5
1CB
330
1F
100
AcDbEntity
  8
0-4
  6
Continuous
 62
     2
370
     9
100
AcDbText
 10
764.7129160831345
 20
-181.1600822702101
 30
0.0
 40
30.48
  1
R50
 50
329.9999752595119
 41
1.083333333333333
  7
ＭＳ ゴシック
100
AcDbText
  0
TEXT
  5
1CC
330
1F
100
AcDbEntity
  8
F-5
  6
Continuous
 62
     2
370
     9
100
AcDbText
 10
-704.9433197846282
 20
-1357.773205533414
 30
0.0
 40
30.48
  1
ステンレスかざり桝　ＭＳ－７５
 41
1.116666666666666
  7
ＭＳ ゴシック
100
AcDbText
  0
ENDSEC
  0
SECTION
  2
OBJECTS
  0
DICTIONARY
  5
C
330
0
100
AcDbDictionary
281
     1
  3
ACAD_GROUP
350
D
  3
ACAD_LAYOUT
350
1A
  3
ACAD_MLEADERSTYLE
350
1CE
  3
ACAD_MLINESTYLE
350
17
  3
ACAD_PLOTSETTINGS
350
19
  3
ACAD_PLOTSTYLENAME
350
E
  3
ACAD_TABLESTYLE
350
1CD
  3
ACAD_VISUALSTYLE
350
2A
  3
AcDbVariableDictionary
350
1CF
  0
DICTIONARY
  5
D
102
{ACAD_REACTORS
330
C
102
}
330
C
100
AcDbDictionary
281
     1
  0
DICTIONARY
  5
1A
102
{ACAD_REACTORS
330
C
102
}
330
C
100
AcDbDictionary
281
     1
  3
Layout1
350
1E
  3
Layout2
350
26
  3
Model
350
22
  0
DICTIONARY
  5
1CE
102
{ACAD_REACTORS
330
C
102
}
330
C
100
AcDbDictionary
281
     1
  0
DICTIONARY
  5
17
102
{ACAD_REACTORS
330
C
102
}
330
C
100
AcDbDictionary
281
     1
  3
Standard
350
18
  0
DICTIONARY
  5
19
102
{ACAD_REACTORS
330
C
102
}
330
C
100
AcDbDictionary
281
     1
  0
ACDBDICTIONARYWDFLT
  5
E
102
{ACAD_REACTORS
330
C
102
}
330
C
100
AcDbDictionary
281
     1
  3
Normal
350
F
100
AcDbDictionaryWithDefault
340
F
  0
DICTIONARY
  5
1CD
102
{ACAD_REACTORS
330
C
102
}
330
C
100
AcDbDictionary
281
     1
  0
DICTIONARY
  5
2A
102
{ACAD_REACTORS
330
C
102
}
330
C
100
AcDbDictionary
281
     1
  3
2dWireframe
350
2F
  3
3D Hidden
350
31
  3
3dWireframe
350
30
  3
Basic
350
32
  3
Brighten
350
36
  3
ColorChange
350
3A
  3
Conceptual
350
34
  3
Dim
350
35
  3
Facepattern
350
39
  3
Flat
350
2B
  3
FlatWithEdges
350
2C
  3
Gouraud
350
2D
  3
GouraudWithEdges
350
2E
  3
Linepattern
350
38
  3
Realistic
350
33
  3
Thicken
350
37
  0
DICTIONARY
  5
1CF
102
{ACAD_REACTORS
330
C
102
}
330
C
100
AcDbDictionary
281
     1
  3
PSOLHEIGHT
350
1D1
  3
PSOLWIDTH
350
1D0
  0
LAYOUT
  5
1E
102
{ACAD_REACTORS
330
1A
102
}
102
{ACAD_XDICTIONARY
360
1D2
102
}
330
1A
100
AcDbPlotSettings
  1

  2
none_device
  4

  6

 40
0.0
 41
0.0
 42
0.0
 43
0.0
 44
0.0
 45
0.0
 46
0.0
 47
0.0
 48
0.0
 49
0.0
140
0.0
141
0.0
142
1.0
143
1.0
 70
   688
 72
     0
 73
     0
 74
     5
  7

 75
    16
147
1.0
148
0.0
149
0.0
100
AcDbLayout
  1
Layout1
 70
     1
 71
     1
 10
0.0
 20
0.0
 11
420.0
 21
297.0
 12
0.0
 22
0.0
 32
0.0
 14
1.000000000000000E+20
 24
1.000000000000000E+20
 34
1.000000000000000E+20
 15
-1.000000000000000E+20
 25
-1.000000000000000E+20
 35
-1.000000000000000E+20
146
0.0
 13
0.0
 23
0.0
 33
0.0
 16
1.0
 26
0.0
 36
0.0
 17
0.0
 27
1.0
 37
0.0
 76
     0
330
1B
  0
LAYOUT
  5
26
102
{ACAD_REACTORS
330
1A
102
}
102
{ACAD_XDICTIONARY
360
1D6
102
}
330
1A
100
AcDbPlotSettings
  1

  2
none_device
  4

  6

 40
0.0
 41
0.0
 42
0.0
 43
0.0
 44
0.0
 45
0.0
 46
0.0
 47
0.0
 48
0.0
 49
0.0
140
0.0
141
0.0
142
1.0
143
1.0
 70
   688
 72
     0
 73
     0
 74
     5
  7

 75
    16
147
1.0
148
0.0
149
0.0
100
AcDbLayout
  1
Layout2
 70
     1
 71
     2
 10
0.0
 20
0.0
 11
0.0
 21
0.0
 12
0.0
 22
0.0
 32
0.0
 14
0.0
 24
0.0
 34
0.0
 15
0.0
 25
0.0
 35
0.0
146
0.0
 13
0.0
 23
0.0
 33
0.0
 16
1.0
 26
0.0
 36
0.0
 17
0.0
 27
1.0
 37
0.0
 76
     0
330
23
  0
LAYOUT
  5
22
102
{ACAD_REACTORS
330
1A
102
}
102
{ACAD_XDICTIONARY
360
1D4
102
}
330
1A
100
AcDbPlotSettings
  1

  2
none_device
  4

  6

 40
0.0
 41
0.0
 42
0.0
 43
0.0
 44
0.0
 45
0.0
 46
0.0
 47
0.0
 48
0.0
 49
0.0
140
0.0
141
0.0
142
1.0
143
1.0
 70
  1712
 72
     0
 73
     0
 74
     0
  7

 75
     0
147
1.0
148
0.0
149
0.0
100
AcDbLayout
  1
Model
 70
     1
 71
     0
 10
-2100.0
 20
-1485.0
 11
2100.0
 21
1485.0
 12
0.0
 22
0.0
 32
0.0
 14
-2100.0
 24
-1485.0
 34
0.0
 15
2100.0
 25
1485.0
 35
0.0
146
0.0
 13
0.0
 23
0.0
 33
0.0
 16
1.0
 26
0.0
 36
0.0
 17
0.0
 27
1.0
 37
0.0
 76
     0
330
1F
331
29
  0
MLINESTYLE
  5
18
102
{ACAD_REACTORS
330
17
102
}
330
17
100
AcDbMlineStyle
  2
Standard
 70
     0
  3

 62
   256
 51
90.0
 52
90.0
 71
     2
 49
0.5
 62
   256
  6
BYLAYER
 49
-0.5
 62
   256
  6
BYLAYER
  0
ACDBPLACEHOLDER
  5
F
102
{ACAD_REACTORS
330
E
102
}
330
E
  0
VISUALSTYLE
  5
2F
102
{ACAD_REACTORS
330
2A
102
}
330
2A
100
AcDbVisualStyle
  2
2dWireframe
 70
     4
 71
     0
 72
     2
 73
     0
 90
        0
 40
-0.6
 41
-30.0
 62
     5
 63
     7
 74
     1
 91
        4
 64
     7
 65
   257
 75
     1
175
     1
 42
1.0
 92
        0
 66
   257
 43
1.0
 76
     1
 77
     6
 78
     2
 67
     7
 79
     5
170
     0
171
     0
290
     0
174
     0
 93
        1
 44
0.0
173
     0
291
     0
 45
0.0
1001
ACAD
1000
AcDbSavedByObjectVersion
1070
     0
  0
VISUALSTYLE
  5
31
102
{ACAD_REACTORS
330
2A
102
}
330
2A
100
AcDbVisualStyle
  2
3D Hidden
 70
     6
 71
     1
 72
     2
 73
     2
 90
        0
 40
-0.6
 41
-30.0
 62
     5
 63
     7
 74
     2
 91
        2
 64
     7
 65
   257
 75
     2
175
     1
 42
40.0
 92
        0
 66
   257
 43
1.0
 76
     1
 77
     6
 78
     2
 67
     7
 79
     3
170
     0
171
     0
290
     0
174
     0
 93
        1
 44
0.0
173
     0
291
     0
 45
0.0
1001
ACAD
1000
AcDbSavedByObjectVersion
1070
     0
  0
VISUALSTYLE
  5
30
102
{ACAD_REACTORS
330
2A
102
}
330
2A
100
AcDbVisualStyle
  2
3dWireframe
 70
     5
 71
     0
 72
     2
 73
     0
 90
        0
 40
-0.6
 41
-30.0
 62
     5
 63
     7
 74
     1
 91
        4
 64
     7
 65
   257
 75
     1
175
     1
 42
1.0
 92
        0
 66
   257
 43
1.0
 76
     1
 77
     6
 78
     2
 67
     7
 79
     5
170
     0
171
     0
290
     0
174
     0
 93
        1
 44
0.0
173
     0
291
     0
 45
0.0
1001
ACAD
1000
AcDbSavedByObjectVersion
1070
     0
  0
VISUALSTYLE
  5
32
102
{ACAD_REACTORS
330
2A
102
}
330
2A
100
AcDbVisualStyle
  2
Basic
 70
     7
 71
     1
 72
     0
 73
     1
 90
        0
 40
-0.6
 41
-30.0
 62
     5
 63
     7
 74
     0
 91
        4
 64
     7
 65
   257
 75
     1
175
     1
 42
1.0
 92
        8
 66
     7
 43
1.0
 76
     1
 77
     6
 78
     2
 67
     7
 79
     5
170
     0
171
     0
290
     0
174
     0
 93
        1
 44
0.0
173
     0
291
     1
 45
0.0
1001
ACAD
1000
AcDbSavedByObjectVersion
1070
     0
  0
VISUALSTYLE
  5
36
102
{ACAD_REACTORS
330
2A
102
}
330
2A
100
AcDbVisualStyle
  2
Brighten
 70
    12
 71
     2
 72
     2
 73
     0
 90
        0
 40
-0.6
 41
-30.0
 62
     5
 63
     7
 74
     1
 91
        4
 64
     7
 65
   257
 75
     1
175
     1
 42
1.0
 92
        8
 66
     7
 43
1.0
 76
     1
 77
     6
 78
     2
 67
     7
 79
     5
170
     0
171
     0
290
     0
174
     0
 93
        1
 44
50.0
173
     0
291
     1
 45
0.0
1001
ACAD
1000
AcDbSavedByObjectVersion
1070
     0
  0
VISUALSTYLE
  5
3A
102
{ACAD_REACTORS
330
2A
102
}
330
2A
100
AcDbVisualStyle
  2
ColorChange
 70
    16
 71
     2
 72
     2
 73
     3
 90
        0
 40
-0.6
 41
-30.0
 62
     5
 63
     8
 74
     1
 91
        4
 64
     7
 65
   257
 75
     1
175
     1
 42
1.0
 92
        8
 66
     8
 43
1.0
 76
     1
 77
     6
 78
     2
 67
     7
 79
     5
170
     0
171
     0
290
     0
174
     0
 93
        1
 44
0.0
173
     0
291
     1
 45
0.0
1001
ACAD
1000
AcDbSavedByObjectVersion
1070
     0
  0
VISUALSTYLE
  5
34
102
{ACAD_REACTORS
330
2A
102
}
330
2A
100
AcDbVisualStyle
  2
Conceptual
 70
     9
 71
     3
 72
     2
 73
     0
 90
        0
 40
-0.6
 41
-30.0
 62
     5
 63
     7
 74
     2
 91
        2
 64
     7
 65
   257
 75
     1
175
     1
 42
40.0
 92
        8
 66
     7
 43
1.0
 76
     1
 77
     6
 78
     2
 67
     7
 79
     3
170
     0
171
     0
290
     0
174
     0
 93
        1
 44
0.0
173
     0
291
     0
 45
0.0
1001
ACAD
1000
AcDbSavedByObjectVersion
1070
     0
  0
VISUALSTYLE
  5
35
102
{ACAD_REACTORS
330
2A
102
}
330
2A
100
AcDbVisualStyle
  2
Dim
 70
    11
 71
     2
 72
     2
 73
     0
 90
        0
 40
-0.6
 41
-30.0
 62
     5
 63
     7
 74
     1
 91
        4
 64
     7
 65
   257
 75
     1
175
     1
 42
1.0
 92
        8
 66
     7
 43
1.0
 76
     1
 77
     6
 78
     2
 67
     7
 79
     5
170
     0
171
     0
290
     0
174
     0
 93
        1
 44
-50.0
173
     0
291
     1
 45
0.0
1001
ACAD
1000
AcDbSavedByObjectVersion
1070
     0
  0
VISUALSTYLE
  5
39
102
{ACAD_REACTORS
330
2A
102
}
330
2A
100
AcDbVisualStyle
  2
Facepattern
 70
    15
 71
     2
 72
     2
 73
     0
 90
        0
 40
-0.6
 41
-30.0
 62
     5
 63
     7
 74
     1
 91
        4
 64
     7
 65
   257
 75
     1
175
     1
 42
1.0
 92
        8
 66
     7
 43
1.0
 76
     1
 77
     6
 78
     2
 67
     7
 79
     5
170
     0
171
     0
290
     0
174
     0
 93
        1
 44
0.0
173
     0
291
     1
 45
0.0
1001
ACAD
1000
AcDbSavedByObjectVersion
1070
     0
  0
VISUALSTYLE
  5
2B
102
{ACAD_REACTORS
330
2A
102
}
330
2A
100
AcDbVisualStyle
  2
Flat
 70
     0
 71
     2
 72
     1
 73
     1
 90
        2
 40
-0.6
 41
30.0
 62
     5
 63
     7
 74
     0
 91
        4
 64
     7
 65
   257
 75
     1
175
     1
 42
1.0
 92
        8
 66
     7
 43
1.0
 76
     1
 77
     6
 78
     2
 67
     7
 79
     5
170
     0
171
     0
290
     0
174
     0
 93
       13
 44
0.0
173
     0
291
     1
 45
0.0
1001
ACAD
1000
AcDbSavedByObjectVersion
1070
     0
  0
VISUALSTYLE
  5
2C
102
{ACAD_REACTORS
330
2A
102
}
330
2A
100
AcDbVisualStyle
  2
FlatWithEdges
 70
     1
 71
     2
 72
     1
 73
     1
 90
        2
 40
-0.6
 41
30.0
 62
     5
 63
     7
 74
     1
 91
        4
 64
     7
 65
   257
 75
     1
175
     1
 42
1.0
 92
        0
 66
   257
 43
1.0
 76
     1
 77
     6
 78
     2
 67
     7
 79
     5
170
     0
171
     0
290
     0
174
     0
 93
       13
 44
0.0
173
     0
291
     1
 45
0.0
1001
ACAD
1000
AcDbSavedByObjectVersion
1070
     0
  0
VISUALSTYLE
  5
2D
102
{ACAD_REACTORS
330
2A
102
}
330
2A
100
AcDbVisualStyle
  2
Gouraud
 70
     2
 71
     2
 72
     2
 73
     1
 90
        2
 40
-0.6
 41
30.0
 62
     5
 63
     7
 74
     0
 91
        4
 64
     7
 65
   257
 75
     1
175
     1
 42
1.0
 92
        0
 66
     7
 43
1.0
 76
     1
 77
     6
 78
     2
 67
     7
 79
     5
170
     0
171
     0
290
     0
174
     0
 93
       13
 44
0.0
173
     0
291
     1
 45
0.0
1001
ACAD
1000
AcDbSavedByObjectVersion
1070
     0
  0
VISUALSTYLE
  5
2E
102
{ACAD_REACTORS
330
2A
102
}
330
2A
100
AcDbVisualStyle
  2
GouraudWithEdges
 70
     3
 71
     2
 72
     2
 73
     1
 90
        2
 40
-0.6
 41
30.0
 62
     5
 63
     7
 74
     1
 91
        4
 64
     7
 65
   257
 75
     1
175
     1
 42
1.0
 92
        0
 66
   257
 43
1.0
 76
     1
 77
     6
 78
     2
 67
     7
 79
     5
170
     0
171
     0
290
     0
174
     0
 93
       13
 44
0.0
173
     0
291
     1
 45
0.0
1001
ACAD
1000
AcDbSavedByObjectVersion
1070
     0
  0
VISUALSTYLE
  5
38
102
{ACAD_REACTORS
330
2A
102
}
330
2A
100
AcDbVisualStyle
  2
Linepattern
 70
    14
 71
     2
 72
     2
 73
     0
 90
        0
 40
-0.6
 41
-30.0
 62
     5
 63
     7
 74
     1
 91
        4
 64
     7
 65
   257
 75
     7
175
     7
 42
1.0
 92
        8
 66
     7
 43
1.0
 76
     1
 77
     6
 78
     2
 67
     7
 79
     5
170
     0
171
     0
290
     0
174
     0
 93
        1
 44
0.0
173
     0
291
     1
 45
0.0
1001
ACAD
1000
AcDbSavedByObjectVersion
1070
     0
  0
VISUALSTYLE
  5
33
102
{ACAD_REACTORS
330
2A
102
}
330
2A
100
AcDbVisualStyle
  2
Realistic
 70
     8
 71
     2
 72
     2
 73
     0
 90
        0
 40
-0.6
 41
-30.0
 62
     5
 63
     7
 74
     1
 91
        0
 64
     7
 65
   257
 75
     1
175
     1
 42
1.0
 92
        8
 66
     8
 43
1.0
 76
     1
 77
     6
 78
     2
 67
     7
 79
     5
170
     0
171
     0
290
     0
174
     0
 93
       13
 44
0.0
173
     0
291
     0
 45
0.0
1001
ACAD
1000
AcDbSavedByObjectVersion
1070
     0
  0
VISUALSTYLE
  5
37
102
{ACAD_REACTORS
330
2A
102
}
330
2A
100
AcDbVisualStyle
  2
Thicken
 70
    13
 71
     2
 72
     2
 73
     0
 90
        0
 40
-0.6
 41
-30.0
 62
     5
 63
     7
 74
     1
 91
        4
 64
     7
 65
   257
 75
     1
175
     1
 42
1.0
 92
       12
 66
     7
 43
1.0
 76
     1
 77
     6
 78
     2
 67
     7
 79
     5
170
     0
171
     0
290
     0
174
     0
 93
        1
 44
0.0
173
     0
291
     1
 45
0.0
1001
ACAD
1000
AcDbSavedByObjectVersion
1070
     0
  0
DICTIONARYVAR
  5
1D1
102
{ACAD_REACTORS
330
1CF
102
}
330
1CF
100
DictionaryVariables
280
     0
  1
80.000000
  0
DICTIONARYVAR
  5
1D0
102
{ACAD_REACTORS
330
1CF
102
}
330
1CF
100
DictionaryVariables
280
     0
  1
5.000000
  0
DICTIONARY
  5
1D2
330
1E
100
AcDbDictionary
280
     1
281
     1
  3
ACAD_XREC_ROUNDTRIP
360
1D3
  0
DICTIONARY
  5
1D6
330
26
100
AcDbDictionary
280
     1
281
     1
  3
ACAD_XREC_ROUNDTRIP
360
1D7
  0
DICTIONARY
  5
1D4
330
22
100
AcDbDictionary
280
     1
281
     1
  3
ACAD_XREC_ROUNDTRIP
360
1D5
  0
XRECORD
  5
1D3
102
{ACAD_REACTORS
330
1D2
102
}
330
1D2
100
AcDbXrecord
280
     1
102
SHADEPLOT
 70
     0
102
SHADEPLOTRESLEVEL
 70
     5
102
SHADEPLOTCUSTOMDPI
 70
   300
  0
XRECORD
  5
1D7
102
{ACAD_REACTORS
330
1D6
102
}
330
1D6
100
AcDbXrecord
280
     1
102
SHADEPLOT
 70
     0
102
SHADEPLOTRESLEVEL
 70
     5
102
SHADEPLOTCUSTOMDPI
 70
   300
  0
XRECORD
  5
1D5
102
{ACAD_REACTORS
330
1D4
102
}
330
1D4
100
AcDbXrecord
280
     1
102
SHADEPLOT
 70
     0
102
SHADEPLOTRESLEVEL
 70
     5
102
SHADEPLOTCUSTOMDPI
 70
   300
  0
ENDSEC
  0
EOF
