  0
SECTION
  2
HEADER
  9
$ACADVER
  1
AC1032
  9
$ACADMAINTVER
 90
        4
  9
$DWGCODEPAGE
  3
ANSI_932
  9
$LASTSAVEDBY
  1
mizuki.kobayashi
  9
$REQUIREDVERSIONS
160
                 0
  9
$INSBASE
 10
0.0
 20
0.0
 30
0.0
  9
$EXTMIN
 10
-2100.0
 20
-1485.0
 30
0.0
  9
$EXTMAX
 10
2100.0
 20
1485.0
 30
0.0
  9
$LIMMIN
 10
-2100.0
 20
-1485.0
  9
$LIMMAX
 10
2100.0
 20
1485.0
  9
$ORTHOMODE
 70
     0
  9
$REGENMODE
 70
     1
  9
$FILLMODE
 70
     1
  9
$QTEXTMODE
 70
     0
  9
$MIRRTEXT
 70
     1
  9
$LTSCALE
 40
10.0
  9
$ATTMODE
 70
     1
  9
$TEXTSIZE
 40
2.5
  9
$TRACEWID
 40
1.0
  9
$TEXTSTYLE
  7
Standard
  9
$CLAYER
  8
0
  9
$CELTYPE
  6
ByLayer
  9
$CECOLOR
 62
   256
  9
$CELTSCALE
 40
1.0
  9
$DISPSILH
 70
     0
  9
$DIMSCALE
 40
1.0
  9
$DIMASZ
 40
2.5
  9
$DIMEXO
 40
0.625
  9
$DIMDLI
 40
3.75
  9
$DIMRND
 40
0.0
  9
$DIMDLE
 40
0.0
  9
$DIMEXE
 40
1.25
  9
$DIMTP
 40
0.0
  9
$DIMTM
 40
0.0
  9
$DIMTXT
 40
2.5
  9
$DIMCEN
 40
2.5
  9
$DIMTSZ
 40
0.0
  9
$DIMTOL
 70
     0
  9
$DIMLIM
 70
     0
  9
$DIMTIH
 70
     0
  9
$DIMTOH
 70
     0
  9
$DIMSE1
 70
     0
  9
$DIMSE2
 70
     0
  9
$DIMTAD
 70
     1
  9
$DIMZIN
 70
     8
  9
$DIMBLK
  1

  9
$DIMASO
 70
     1
  9
$DIMSHO
 70
     1
  9
$DIMPOST
  1

  9
$DIMAPOST
  1

  9
$DIMALT
 70
     0
  9
$DIMALTD
 70
     3
  9
$DIMALTF
 40
0.03937007874016
  9
$DIMLFAC
 40
1.0
  9
$DIMTOFL
 70
     1
  9
$DIMTVP
 40
0.0
  9
$DIMTIX
 70
     0
  9
$DIMSOXD
 70
     0
  9
$DIMSAH
 70
     0
  9
$DIMBLK1
  1

  9
$DIMBLK2
  1

  9
$DIMSTYLE
  2
ISO-25
  9
$DIMCLRD
 70
     0
  9
$DIMCLRE
 70
     0
  9
$DIMCLRT
 70
     0
  9
$DIMTFAC
 40
1.0
  9
$DIMGAP
 40
0.625
  9
$DIMJUST
 70
     0
  9
$DIMSD1
 70
     0
  9
$DIMSD2
 70
     0
  9
$DIMTOLJ
 70
     0
  9
$DIMTZIN
 70
     8
  9
$DIMALTZ
 70
     0
  9
$DIMALTTZ
 70
     0
  9
$DIMUPT
 70
     0
  9
$DIMDEC
 70
     2
  9
$DIMTDEC
 70
     2
  9
$DIMALTU
 70
     2
  9
$DIMALTTD
 70
     3
  9
$DIMTXSTY
  7
Standard
  9
$DIMAUNIT
 70
     0
  9
$DIMADEC
 70
     0
  9
$DIMALTRND
 40
0.0
  9
$DIMAZIN
 70
     0
  9
$DIMDSEP
 70
    44
  9
$DIMATFIT
 70
     3
  9
$DIMFRAC
 70
     0
  9
$DIMLDRBLK
  1

  9
$DIMLUNIT
 70
     2
  9
$DIMLWD
 70
    -2
  9
$DIMLWE
 70
    -2
  9
$DIMTMOVE
 70
     0
  9
$DIMFXL
 40
1.0
  9
$DIMFXLON
 70
     0
  9
$DIMJOGANG
 40
0.7853981633974483
  9
$DIMTFILL
 70
     0
  9
$DIMTFILLCLR
 70
     0
  9
$DIMARCSYM
 70
     0
  9
$DIMLTYPE
  6

  9
$DIMLTEX1
  6

  9
$DIMLTEX2
  6

  9
$DIMTXTDIRECTION
 70
     0
  9
$LUNITS
 70
     2
  9
$LUPREC
 70
     4
  9
$SKETCHINC
 40
1.0
  9
$FILLETRAD
 40
10.0
  9
$AUNITS
 70
     0
  9
$AUPREC
 70
     0
  9
$MENU
  1
.
  9
$ELEVATION
 40
0.0
  9
$PELEVATION
 40
0.0
  9
$THICKNESS
 40
0.0
  9
$LIMCHECK
 70
     0
  9
$CHAMFERA
 40
0.0
  9
$CHAMFERB
 40
0.0
  9
$CHAMFERC
 40
0.0
  9
$CHAMFERD
 40
0.0
  9
$SKPOLY
 70
     0
  9
$TDCREATE
 40
2459192.417479375
  9
$TDUCREATE
 40
2459192.042479375
  9
$TDUPDATE
 40
2459192.417479491
  9
$TDUUPDATE
 40
2459192.042479491
  9
$TDINDWG
 40
0.0000000116
  9
$TDUSRTIMER
 40
0.0000000116
  9
$USRTIMER
 70
     1
  9
$ANGBASE
 50
0.0
  9
$ANGDIR
 70
     0
  9
$PDMODE
 70
     0
  9
$PDSIZE
 40
0.0
  9
$PLINEWID
 40
0.0
  9
$SPLFRAME
 70
     0
  9
$SPLINETYPE
 70
     6
  9
$SPLINESEGS
 70
     8
  9
$HANDSEED
  5
310
  9
$SURFTAB1
 70
     6
  9
$SURFTAB2
 70
     6
  9
$SURFTYPE
 70
     6
  9
$SURFU
 70
     6
  9
$SURFV
 70
     6
  9
$UCSBASE
  2

  9
$UCSNAME
  2

  9
$UCSORG
 10
0.0
 20
0.0
 30
0.0
  9
$UCSXDIR
 10
1.0
 20
0.0
 30
0.0
  9
$UCSYDIR
 10
0.0
 20
1.0
 30
0.0
  9
$UCSORTHOREF
  2

  9
$UCSORTHOVIEW
 70
     0
  9
$UCSORGTOP
 10
0.0
 20
0.0
 30
0.0
  9
$UCSORGBOTTOM
 10
0.0
 20
0.0
 30
0.0
  9
$UCSORGLEFT
 10
0.0
 20
0.0
 30
0.0
  9
$UCSORGRIGHT
 10
0.0
 20
0.0
 30
0.0
  9
$UCSORGFRONT
 10
0.0
 20
0.0
 30
0.0
  9
$UCSORGBACK
 10
0.0
 20
0.0
 30
0.0
  9
$PUCSBASE
  2

  9
$PUCSNAME
  2

  9
$PUCSORG
 10
0.0
 20
0.0
 30
0.0
  9
$PUCSXDIR
 10
1.0
 20
0.0
 30
0.0
  9
$PUCSYDIR
 10
0.0
 20
1.0
 30
0.0
  9
$PUCSORTHOREF
  2

  9
$PUCSORTHOVIEW
 70
     0
  9
$PUCSORGTOP
 10
0.0
 20
0.0
 30
0.0
  9
$PUCSORGBOTTOM
 10
0.0
 20
0.0
 30
0.0
  9
$PUCSORGLEFT
 10
0.0
 20
0.0
 30
0.0
  9
$PUCSORGRIGHT
 10
0.0
 20
0.0
 30
0.0
  9
$PUCSORGFRONT
 10
0.0
 20
0.0
 30
0.0
  9
$PUCSORGBACK
 10
0.0
 20
0.0
 30
0.0
  9
$USERI1
 70
     0
  9
$USERI2
 70
     0
  9
$USERI3
 70
     0
  9
$USERI4
 70
     0
  9
$USERI5
 70
     0
  9
$USERR1
 40
0.0
  9
$USERR2
 40
0.0
  9
$USERR3
 40
0.0
  9
$USERR4
 40
0.0
  9
$USERR5
 40
0.0
  9
$WORLDVIEW
 70
     1
  9
$SHADEDGE
 70
     3
  9
$SHADEDIF
 70
    70
  9
$TILEMODE
 70
     1
  9
$MAXACTVP
 70
    64
  9
$PINSBASE
 10
0.0
 20
0.0
 30
0.0
  9
$PLIMCHECK
 70
     0
  9
$PEXTMIN
 10
1.000000000000000E+20
 20
1.000000000000000E+20
 30
1.000000000000000E+20
  9
$PEXTMAX
 10
-1.000000000000000E+20
 20
-1.000000000000000E+20
 30
-1.000000000000000E+20
  9
$PLIMMIN
 10
0.0
 20
0.0
  9
$PLIMMAX
 10
420.0
 20
297.0
  9
$UNITMODE
 70
     0
  9
$VISRETAIN
 70
     1
  9
$PLINEGEN
 70
     0
  9
$PSLTSCALE
 70
     1
  9
$TREEDEPTH
 70
  3020
  9
$CMLSTYLE
  2
Standard
  9
$CMLJUST
 70
     0
  9
$CMLSCALE
 40
20.0
  9
$PROXYGRAPHICS
 70
     1
  9
$MEASUREMENT
 70
     1
  9
$CELWEIGHT
370
    -1
  9
$ENDCAPS
280
     0
  9
$JOINSTYLE
280
     0
  9
$LWDISPLAY
290
     0
  9
$INSUNITS
 70
     4
  9
$HYPERLINKBASE
  1

  9
$STYLESHEET
  1

  9
$XEDIT
290
     1
  9
$CEPSNTYPE
380
     0
  9
$PSTYLEMODE
290
     1
  9
$FINGERPRINTGUID
  2
{c056c372-74b6-4fde-aae6-cec689d8f89c}
  9
$VERSIONGUID
  2
{FAEB1C32-E019-11D5-929B-00C0DF256EC4}
  9
$EXTNAMES
290
     1
  9
$PSVPSCALE
 40
0.0
  9
$OLESTARTUP
290
     0
  9
$SORTENTS
280
   127
  9
$INDEXCTL
280
     0
  9
$HIDETEXT
280
     1
  9
$XCLIPFRAME
280
     2
  9
$HALOGAP
280
     0
  9
$OBSCOLOR
 70
   257
  9
$OBSLTYPE
280
     0
  9
$INTERSECTIONDISPLAY
280
     0
  9
$INTERSECTIONCOLOR
 70
   257
  9
$DIMASSOC
280
     2
  9
$PROJECTNAME
  1

  9
$CAMERADISPLAY
290
     0
  9
$LENSLENGTH
 40
50.0
  9
$CAMERAHEIGHT
 40
0.0
  9
$STEPSPERSEC
 40
2.0
  9
$STEPSIZE
 40
6.0
  9
$3DDWFPREC
 40
2.0
  9
$PSOLWIDTH
 40
5.0
  9
$PSOLHEIGHT
 40
80.0
  9
$LOFTANG1
 40
1.570796326794897
  9
$LOFTANG2
 40
1.570796326794897
  9
$LOFTMAG1
 40
0.0
  9
$LOFTMAG2
 40
0.0
  9
$LOFTPARAM
 70
     7
  9
$LOFTNORMALS
280
     1
  9
$LATITUDE
 40
37.795
  9
$LONGITUDE
 40
-122.394
  9
$NORTHDIRECTION
 40
0.0
  9
$TIMEZONE
 70
 -8000
  9
$LIGHTGLYPHDISPLAY
280
     1
  9
$TILEMODELIGHTSYNCH
280
     1
  9
$CMATERIAL
347
44
  9
$SOLIDHIST
280
     0
  9
$SHOWHIST
280
     1
  9
$DWFFRAME
280
     2
  9
$DGNFRAME
280
     2
  9
$REALWORLDSCALE
290
     1
  9
$INTERFERECOLOR
 62
   256
  9
$CSHADOW
280
     0
  9
$SHADOWPLANELOCATION
 40
0.0
  0
ENDSEC
  0
SECTION
  2
CLASSES
  0
CLASS
  1
ACDBDICTIONARYWDFLT
  2
AcDbDictionaryWithDefault
  3
ObjectDBX Classes
 90
        0
 91
        3
280
     0
281
     0
  0
CLASS
  1
VISUALSTYLE
  2
AcDbVisualStyle
  3
ObjectDBX Classes
 90
     4095
 91
        3
280
     0
281
     0
  0
CLASS
  1
MATERIAL
  2
AcDbMaterial
  3
ObjectDBX Classes
 90
     1153
 91
        3
280
     0
281
     0
  0
CLASS
  1
SCALE
  2
AcDbScale
  3
ObjectDBX Classes
 90
     1153
 91
        3
280
     0
281
     0
  0
CLASS
  1
TABLESTYLE
  2
AcDbTableStyle
  3
ObjectDBX Classes
 90
     4095
 91
        3
280
     0
281
     0
  0
CLASS
  1
MLEADERSTYLE
  2
AcDbMLeaderStyle
  3
ACDB_MLEADERSTYLE_CLASS
 90
     4095
 91
        3
280
     0
281
     0
  0
CLASS
  1
SUN
  2
AcDbSun
  3
SCENEOE
 90
     1153
 91
        3
280
     0
281
     0
  0
CLASS
  1
DICTIONARYVAR
  2
AcDbDictionaryVar
  3
ObjectDBX Classes
 90
        0
 91
        3
280
     0
281
     0
  0
CLASS
  1
CELLSTYLEMAP
  2
AcDbCellStyleMap
  3
ObjectDBX Classes
 90
     1152
 91
        3
280
     0
281
     0
  0
ENDSEC
  0
SECTION
  2
TABLES
  0
TABLE
  2
VPORT
  5
8
330
0
100
AcDbSymbolTable
 70
     1
  0
VPORT
  5
29
330
8
100
AcDbSymbolTableRecord
100
AcDbViewportTableRecord
  2
*Active
 70
     0
 10
0.0
 20
0.0
 11
1.0
 21
1.0
 12
0.0
 22
0.0
 13
0.0
 23
0.0
 14
10.0
 24
10.0
 15
10.0
 25
10.0
 16
0.0
 26
0.0
 36
1.0
 17
0.0
 27
0.0
 37
0.0
 40
3267.0
 41
1.414141414141414
 42
50.0
 43
0.0
 44
0.0
 50
0.0
 51
0.0
 71
     0
 72
 10000
 73
     1
 74
     3
 75
     0
 76
     0
 77
     0
 78
     0
281
     0
 65
     1
110
0.0
120
0.0
130
0.0
111
1.0
121
0.0
131
0.0
112
0.0
122
1.0
132
0.0
 79
     0
146
0.0
348
2F
 60
     3
 61
     5
292
     1
282
     1
141
0.0
142
0.0
 63
   250
361
6D
  0
ENDTAB
  0
TABLE
  2
LTYPE
  5
5
330
0
100
AcDbSymbolTable
 70
     3
  0
LTYPE
  5
14
330
5
100
AcDbSymbolTableRecord
100
AcDbLinetypeTableRecord
  2
ByBlock
 70
     0
  3

 72
    65
 73
     0
 40
0.0
  0
LTYPE
  5
15
330
5
100
AcDbSymbolTableRecord
100
AcDbLinetypeTableRecord
  2
ByLayer
 70
     0
  3

 72
    65
 73
     0
 40
0.0
  0
LTYPE
  5
16
330
5
100
AcDbSymbolTableRecord
100
AcDbLinetypeTableRecord
  2
Continuous
 70
     0
  3
Solid line
 72
    65
 73
     0
 40
0.0
  0
LTYPE
  5
6F
330
5
100
AcDbSymbolTableRecord
100
AcDbLinetypeTableRecord
  2
JWW_CENTER1
 70
     0
  3
-----  --  ----------  --  -----
 72
    65
 73
     8
 40
13.54666666666667
 49
4.233333333333333
 74
     0
 49
-0.8466666666666667
 74
     0
 49
0.8466666666666667
 74
     0
 49
-0.8466666666666667
 74
     0
 49
4.233333333333333
 74
     0
 49
-0.8466666666666667
 74
     0
 49
0.8466666666666667
 74
     0
 49
-0.8466666666666667
 74
     0
  0
LTYPE
  5
70
330
5
100
AcDbSymbolTableRecord
100
AcDbLinetypeTableRecord
  2
JWW_DASHED1
 70
     0
  3
-  --  --  --  --  --  --  --  -
 72
    65
 73
    12
 40
10.16
 49
0.8466666666666667
 74
     0
 49
-0.8466666666666667
 74
     0
 49
0.8466666666666667
 74
     0
 49
-0.8466666666666667
 74
     0
 49
0.8466666666666667
 74
     0
 49
-0.8466666666666667
 74
     0
 49
0.8466666666666667
 74
     0
 49
-0.8466666666666667
 74
     0
 49
0.8466666666666667
 74
     0
 49
-0.8466666666666667
 74
     0
 49
0.8466666666666667
 74
     0
 49
-0.8466666666666667
 74
     0
  0
ENDTAB
  0
TABLE
  2
LAYER
  5
2
330
0
100
AcDbSymbolTable
 70
    14
  0
LAYER
  5
10
330
2
100
AcDbSymbolTableRecord
100
AcDbLayerTableRecord
  2
0
 70
     0
 62
     7
  6
Continuous
370
    -3
390
F
347
46
348
0
  0
LAYER
  5
71
330
2
100
AcDbSymbolTableRecord
100
AcDbLayerTableRecord
  2
1-8
 70
     0
 62
     7
  6
Continuous
370
    -3
390
F
347
46
348
0
  0
LAYER
  5
72
330
2
100
AcDbSymbolTableRecord
100
AcDbLayerTableRecord
  2
1-1
 70
     0
 62
     7
  6
Continuous
370
    -3
390
F
347
46
348
0
  0
LAYER
  5
73
330
2
100
AcDbSymbolTableRecord
100
AcDbLayerTableRecord
  2
2-4
 70
     0
 62
     7
  6
Continuous
370
    -3
390
F
347
46
348
0
  0
LAYER
  5
74
330
2
100
AcDbSymbolTableRecord
100
AcDbLayerTableRecord
  2
1-4
 70
     0
 62
     7
  6
Continuous
370
    -3
390
F
347
46
348
0
  0
LAYER
  5
75
330
2
100
AcDbSymbolTableRecord
100
AcDbLayerTableRecord
  2
1-E
 70
     0
 62
     7
  6
Continuous
370
    -3
390
F
347
46
348
0
  0
LAYER
  5
76
330
2
100
AcDbSymbolTableRecord
100
AcDbLayerTableRecord
  2
1-3
 70
     0
 62
     7
  6
Continuous
370
    -3
390
F
347
46
348
0
  0
LAYER
  5
77
330
2
100
AcDbSymbolTableRecord
100
AcDbLayerTableRecord
  2
2-1
 70
     0
 62
     7
  6
Continuous
370
    -3
390
F
347
46
348
0
  0
LAYER
  5
78
330
2
100
AcDbSymbolTableRecord
100
AcDbLayerTableRecord
  2
2-0
 70
     0
 62
     7
  6
Continuous
370
    -3
390
F
347
46
348
0
  0
LAYER
  5
79
330
2
100
AcDbSymbolTableRecord
100
AcDbLayerTableRecord
  2
1-0
 70
     0
 62
     7
  6
Continuous
370
    -3
390
F
347
46
348
0
  0
LAYER
  5
7A
330
2
100
AcDbSymbolTableRecord
100
AcDbLayerTableRecord
  2
2-3
 70
     0
 62
     7
  6
Continuous
370
    -3
390
F
347
46
348
0
  0
LAYER
  5
7B
330
2
100
AcDbSymbolTableRecord
100
AcDbLayerTableRecord
  2
1-5
 70
     0
 62
     7
  6
Continuous
370
    -3
390
F
347
46
348
0
  0
LAYER
  5
7C
330
2
100
AcDbSymbolTableRecord
100
AcDbLayerTableRecord
  2
1-9
 70
     0
 62
     7
  6
Continuous
370
    -3
390
F
347
46
348
0
  0
LAYER
  5
7D
330
2
100
AcDbSymbolTableRecord
100
AcDbLayerTableRecord
  2
1-A
 70
     0
 62
     7
  6
Continuous
370
    -3
390
F
347
46
348
0
  0
ENDTAB
  0
TABLE
  2
STYLE
  5
3
330
0
100
AcDbSymbolTable
 70
     2
  0
STYLE
  5
11
330
3
100
AcDbSymbolTableRecord
100
AcDbTextStyleTableRecord
  2
Standard
 70
     0
 40
0.0
 41
1.0
 50
0.0
 71
     0
 42
2.5
  3
txt
  4

  0
STYLE
  5
6E
330
3
100
AcDbSymbolTableRecord
100
AcDbTextStyleTableRecord
  2
ＭＳ ゴシック
 70
     0
 40
0.0
 41
1.0
 50
0.0
 71
     0
 42
2.5
  3

  4

1001
ACAD
1000
MS Gothic
1071
    32817
  0
ENDTAB
  0
TABLE
  2
VIEW
  5
6
330
0
100
AcDbSymbolTable
 70
     0
  0
ENDTAB
  0
TABLE
  2
UCS
  5
7
330
0
100
AcDbSymbolTable
 70
     0
  0
ENDTAB
  0
TABLE
  2
APPID
  5
9
330
0
100
AcDbSymbolTable
 70
     1
  0
APPID
  5
12
330
9
100
AcDbSymbolTableRecord
100
AcDbRegAppTableRecord
  2
ACAD
 70
     0
  0
ENDTAB
  0
TABLE
  2
DIMSTYLE
  5
A
330
0
100
AcDbSymbolTable
 70
     2
100
AcDbDimStyleTable
  0
DIMSTYLE
105
27
330
A
100
AcDbSymbolTableRecord
100
AcDbDimStyleTableRecord
  2
ISO-25
 70
     0
 41
2.5
 42
0.625
 43
3.75
 44
1.25
 73
     0
 74
     0
 77
     1
 78
     8
140
2.5
141
2.5
143
0.03937007874016
147
0.625
171
     3
172
     1
178
     0
271
     2
272
     2
274
     3
278
    44
283
     0
284
     8
340
11
  0
DIMSTYLE
105
7E
330
A
100
AcDbSymbolTableRecord
100
AcDbDimStyleTableRecord
  2
JWAC_DIMSTYLE
 70
     0
  3
x
  4
mm
 41
0.0
 42
0.625
 43
3.75
 44
1.25
 73
     0
 74
     0
 75
     1
 76
     1
 77
     1
 78
     8
140
2.5
141
2.5
143
0.03937007874016
147
0.625
171
     3
172
     1
173
     1
178
     0
271
     2
272
     2
274
     3
278
    32
283
     0
284
     8
340
11
371
     0
372
     0
  0
ENDTAB
  0
TABLE
  2
BLOCK_RECORD
  5
1
330
0
100
AcDbSymbolTable
 70
     1
  0
BLOCK_RECORD
  5
1F
330
1
100
AcDbSymbolTableRecord
100
AcDbBlockTableRecord
  2
*Model_Space
340
22
 70
     0
280
     1
281
     0
  0
BLOCK_RECORD
  5
1B
330
1
100
AcDbSymbolTableRecord
100
AcDbBlockTableRecord
  2
*Paper_Space
340
1E
 70
     0
280
     1
281
     0
  0
BLOCK_RECORD
  5
23
330
1
100
AcDbSymbolTableRecord
100
AcDbBlockTableRecord
  2
*Paper_Space0
340
26
 70
     0
280
     1
281
     0
  0
ENDTAB
  0
ENDSEC
  0
SECTION
  2
BLOCKS
  0
BLOCK
  5
20
330
1F
100
AcDbEntity
  8
0
100
AcDbBlockBegin
  2
*Model_Space
 70
     0
 10
0.0
 20
0.0
 30
0.0
  3
*Model_Space
  1

  0
ENDBLK
  5
21
330
1F
100
AcDbEntity
  8
0
100
AcDbBlockEnd
  0
BLOCK
  5
1C
330
1B
100
AcDbEntity
 67
     1
  8
0
100
AcDbBlockBegin
  2
*Paper_Space
 70
     0
 10
0.0
 20
0.0
 30
0.0
  3
*Paper_Space
  1

  0
ENDBLK
  5
1D
330
1B
100
AcDbEntity
 67
     1
  8
0
100
AcDbBlockEnd
  0
BLOCK
  5
24
330
23
100
AcDbEntity
  8
0
100
AcDbBlockBegin
  2
*Paper_Space0
 70
     0
 10
0.0
 20
0.0
 30
0.0
  3
*Paper_Space0
  1

  0
ENDBLK
  5
25
330
23
100
AcDbEntity
  8
0
100
AcDbBlockEnd
  0
ENDSEC
  0
SECTION
  2
ENTITIES
  0
LINE
  5
7F
330
1F
100
AcDbEntity
  8
1-8
  6
Continuous
 62
     4
370
     9
100
AcDbLine
 10
-1137.790659311655
 20
632.3433046083193
 30
0.0
 11
-1137.790659311655
 21
587.9726430532096
 31
0.0
  0
LINE
  5
80
330
1F
100
AcDbEntity
  8
1-8
  6
Continuous
 62
     4
370
     9
100
AcDbLine
 10
-1137.790659311655
 20
587.9726430532096
 30
0.0
 11
-1028.290619721284
 21
587.9726430532096
 31
0.0
  0
LINE
  5
81
330
1F
100
AcDbEntity
  8
1-8
  6
Continuous
 62
     4
370
     9
100
AcDbLine
 10
-1028.290619721284
 20
632.3433046083193
 30
0.0
 11
-1028.290619721284
 21
587.9726430532096
 31
0.0
  0
LINE
  5
82
330
1F
100
AcDbEntity
  8
1-8
  6
Continuous
 62
     4
370
     9
100
AcDbLine
 10
-1110.366656329181
 20
632.3433046083193
 30
0.0
 11
-1110.366656329181
 21
587.9726430532096
 31
0.0
  0
LINE
  5
83
330
1F
100
AcDbEntity
  8
1-8
  6
Continuous
 62
     4
370
     9
100
AcDbLine
 10
-1055.714622703758
 20
632.3433046083193
 30
0.0
 11
-1055.714622703758
 21
587.9726430532096
 31
0.0
  0
LINE
  5
84
330
1F
100
AcDbEntity
  8
1-8
  6
Continuous
 62
     4
370
     9
100
AcDbLine
 10
-1124.078534100507
 20
637.9725605732688
 30
0.0
 11
-1042.002744932433
 21
637.9725605732688
 31
0.0
  0
LINE
  5
85
330
1F
100
AcDbEntity
  8
1-8
  6
Continuous
 62
     6
370
     5
100
AcDbLine
 10
-1143.040590028505
 20
587.9726430532096
 30
0.0
 11
-1143.040590028505
 21
575.4727255331505
 31
0.0
  0
LINE
  5
86
330
1F
100
AcDbEntity
  8
1-8
  6
Continuous
 62
     6
370
     5
100
AcDbLine
 10
-1023.040565284523
 20
587.9726430532096
 30
0.0
 11
-1023.040565284523
 21
575.4727255331505
 31
0.0
  0
LINE
  5
87
330
1F
100
AcDbEntity
  8
1-8
  6
Continuous
 62
     6
370
     5
100
AcDbLine
 10
-1023.040565284523
 20
587.9726430532096
 30
0.0
 11
-1028.290619721284
 21
587.9726430532096
 31
0.0
  0
LINE
  5
88
330
1F
100
AcDbEntity
  8
1-8
  6
Continuous
 62
     6
370
     5
100
AcDbLine
 10
-1137.790659311655
 20
587.9726430532096
 30
0.0
 11
-1143.040590028505
 21
587.9726430532096
 31
0.0
  0
LINE
  5
89
330
1F
100
AcDbEntity
  8
1-8
  6
Continuous
 62
     4
370
     9
100
AcDbLine
 10
-1137.790659311655
 20
483.602278425887
 30
0.0
 11
-1137.790659311655
 21
527.9729399809967
 31
0.0
  0
LINE
  5
8A
330
1F
100
AcDbEntity
  8
1-8
  6
Continuous
 62
     4
370
     9
100
AcDbLine
 10
-1137.790659311655
 20
527.9729399809967
 30
0.0
 11
-1028.290619721284
 21
527.9729399809967
 31
0.0
  0
LINE
  5
8B
330
1F
100
AcDbEntity
  8
1-8
  6
Continuous
 62
     4
370
     9
100
AcDbLine
 10
-1028.290619721284
 20
483.602278425887
 30
0.0
 11
-1028.290619721284
 21
527.9729399809967
 31
0.0
  0
LINE
  5
8C
330
1F
100
AcDbEntity
  8
1-8
  6
Continuous
 62
     4
370
     9
100
AcDbLine
 10
-1110.366656329181
 20
483.602278425887
 30
0.0
 11
-1110.366656329181
 21
527.9729399809967
 31
0.0
  0
LINE
  5
8D
330
1F
100
AcDbEntity
  8
1-8
  6
Continuous
 62
     4
370
     9
100
AcDbLine
 10
-1055.714622703758
 20
483.602278425887
 30
0.0
 11
-1055.714622703758
 21
527.9729399809967
 31
0.0
  0
LINE
  5
8E
330
1F
100
AcDbEntity
  8
1-8
  6
Continuous
 62
     4
370
     9
100
AcDbLine
 10
-1124.078534100507
 20
477.9730224609375
 30
0.0
 11
-1042.002744932433
 21
477.9730224609375
 31
0.0
  0
LINE
  5
8F
330
1F
100
AcDbEntity
  8
1-8
  6
Continuous
 62
     6
370
     5
100
AcDbLine
 10
-1143.040590028505
 20
527.9729399809967
 30
0.0
 11
-1143.040590028505
 21
540.4728575010557
 31
0.0
  0
LINE
  5
90
330
1F
100
AcDbEntity
  8
1-8
  6
Continuous
 62
     6
370
     5
100
AcDbLine
 10
-1023.040565284523
 20
527.9729399809967
 30
0.0
 11
-1023.040565284523
 21
540.4728575010557
 31
0.0
  0
LINE
  5
91
330
1F
100
AcDbEntity
  8
1-8
  6
Continuous
 62
     6
370
     5
100
AcDbLine
 10
-1023.040565284523
 20
527.9729399809967
 30
0.0
 11
-1028.290619721284
 21
527.9729399809967
 31
0.0
  0
LINE
  5
92
330
1F
100
AcDbEntity
  8
1-8
  6
Continuous
 62
     6
370
     5
100
AcDbLine
 10
-1137.790659311655
 20
527.9729399809967
 30
0.0
 11
-1143.040590028505
 21
527.9729399809967
 31
0.0
  0
LINE
  5
93
330
1F
100
AcDbEntity
  8
1-8
  6
Continuous
 62
     3
370
     9
100
AcDbLine
 10
-1113.040491052576
 20
575.4727255331505
 30
0.0
 11
-1113.040491052576
 21
540.4728575010557
 31
0.0
  0
LINE
  5
94
330
1F
100
AcDbEntity
  8
1-8
  6
Continuous
 62
     3
370
     9
100
AcDbLine
 10
-1053.04054054054
 20
575.4727255331505
 30
0.0
 11
-1053.04054054054
 21
540.4728575010557
 31
0.0
  0
LINE
  5
95
330
1F
100
AcDbEntity
  8
1-8
  6
Continuous
 62
     3
370
     9
100
AcDbLine
 10
-1108.040474556588
 20
575.4727255331505
 30
0.0
 11
-1108.040474556588
 21
540.4728575010557
 31
0.0
  0
LINE
  5
96
330
1F
100
AcDbEntity
  8
1-8
  6
Continuous
 62
     3
370
     9
100
AcDbLine
 10
-1058.040557036529
 20
575.4727255331505
 30
0.0
 11
-1058.040557036529
 21
540.4728575010557
 31
0.0
  0
LINE
  5
97
330
1F
100
AcDbEntity
  8
1-8
  6
Continuous
 62
     3
370
     9
100
AcDbLine
 10
-1108.040474556588
 20
690.4726100612334
 30
0.0
 11
-1108.040474556588
 21
637.9725605732688
 31
0.0
  0
LINE
  5
98
330
1F
100
AcDbEntity
  8
1-8
  6
Continuous
 62
     3
370
     9
100
AcDbLine
 10
-1058.040557036529
 20
690.4726100612334
 30
0.0
 11
-1058.040557036529
 21
637.9725605732688
 31
0.0
  0
LINE
  5
99
330
1F
100
AcDbEntity
  8
1-8
  6
Continuous
 62
     3
370
     9
100
AcDbLine
 10
-1108.040474556588
 20
690.4726100612334
 30
0.0
 11
-1058.040557036529
 21
690.4726100612334
 31
0.0
  0
LINE
  5
9A
330
1F
100
AcDbEntity
  8
1-8
  6
Continuous
 62
     3
370
     9
100
AcDbLine
 10
-1053.04054054054
 20
685.472593565245
 30
0.0
 11
-1053.04054054054
 21
637.9725605732688
 31
0.0
  0
LINE
  5
9B
330
1F
100
AcDbEntity
  8
1-8
  6
Continuous
 62
     3
370
     9
100
AcDbLine
 10
-1113.040491052576
 20
685.472593565245
 30
0.0
 11
-1053.04054054054
 21
685.472593565245
 31
0.0
  0
LINE
  5
9C
330
1F
100
AcDbEntity
  8
1-8
  6
Continuous
 62
     3
370
     9
100
AcDbLine
 10
-1113.040491052576
 20
685.472593565245
 30
0.0
 11
-1113.040491052576
 21
637.9725605732688
 31
0.0
  0
LINE
  5
9D
330
1F
100
AcDbEntity
  8
1-8
  6
Continuous
 62
     3
370
     9
100
AcDbLine
 10
-1113.040491052576
 20
685.472593565245
 30
0.0
 11
-1108.040474556588
 21
690.4726100612334
 31
0.0
  0
LINE
  5
9E
330
1F
100
AcDbEntity
  8
1-8
  6
Continuous
 62
     3
370
     9
100
AcDbLine
 10
-1058.040557036529
 20
690.4726100612334
 30
0.0
 11
-1053.04054054054
 21
685.472593565245
 31
0.0
  0
LINE
  5
9F
330
1F
100
AcDbEntity
  8
1-1
  6
JWW_CENTER1
 62
     2
370
     9
100
AcDbLine
 10
-1083.04063951647
 20
707.9168701171875
 30
0.0
 11
-1083.04063951647
 21
18.82232666015625
 31
0.0
  0
LINE
  5
A0
330
1F
100
AcDbEntity
  8
2-4
  6
Continuous
 62
     2
370
     9
100
AcDbLine
 10
804.9746951541385
 20
-478.1950749577702
 30
0.0
 11
804.9746951541385
 21
-413.1957265493031
 31
0.0
  0
LINE
  5
A1
330
1F
100
AcDbEntity
  8
2-4
  6
Continuous
 62
     2
370
     9
100
AcDbLine
 10
804.9746951541385
 20
-413.1957265493031
 30
0.0
 11
1270.700980521538
 21
-413.1957265493031
 31
0.0
  0
LINE
  5
A2
330
1F
100
AcDbEntity
  8
2-4
  6
Continuous
 62
     2
370
     9
100
AcDbLine
 10
1270.700980521538
 20
-413.1957265493031
 30
0.0
 11
1270.700980521538
 21
-478.1950749577702
 31
0.0
  0
LINE
  5
A3
330
1F
100
AcDbEntity
  8
2-4
  6
Continuous
 62
     2
370
     9
100
AcDbLine
 10
1270.700980521538
 20
-478.1950749577702
 30
0.0
 11
804.9746951541385
 21
-478.1950749577702
 31
0.0
  0
LINE
  5
A4
330
1F
100
AcDbEntity
  8
1-4
  6
Continuous
 62
     2
370
     9
100
AcDbLine
 10
-998.1676668734162
 20
-237.894386085304
 30
0.0
 11
-998.1676668734162
 21
-172.8951613967482
 31
0.0
  0
LINE
  5
A5
330
1F
100
AcDbEntity
  8
1-4
  6
Continuous
 62
     2
370
     9
100
AcDbLine
 10
-998.1676668734162
 20
-172.8951613967482
 30
0.0
 11
-375.413348223712
 21
-172.8951613967482
 31
0.0
  0
LINE
  5
A6
330
1F
100
AcDbEntity
  8
1-4
  6
Continuous
 62
     2
370
     9
100
AcDbLine
 10
-375.413348223712
 20
-172.8951613967482
 30
0.0
 11
-375.413348223712
 21
-237.894386085304
 31
0.0
  0
LINE
  5
A7
330
1F
100
AcDbEntity
  8
1-4
  6
Continuous
 62
     2
370
     9
100
AcDbLine
 10
-375.413348223712
 20
-237.894386085304
 30
0.0
 11
-998.1676668734162
 21
-237.894386085304
 31
0.0
  0
LINE
  5
A8
330
1F
100
AcDbEntity
  8
1-E
  6
Continuous
 62
     7
370
     9
100
AcDbLine
 10
-1083.04063951647
 20
690.4726100612334
 30
0.0
 11
-1092.607652818834
 21
713.5696328652873
 31
0.0
  0
LINE
  5
A9
330
1F
100
AcDbEntity
  8
1-E
  6
Continuous
 62
     7
370
     9
100
AcDbLine
 10
-1083.04063951647
 20
690.4726100612334
 30
0.0
 11
-1086.30375217747
 21
715.2586570945948
 31
0.0
  0
LINE
  5
AA
330
1F
100
AcDbEntity
  8
1-3
  6
Continuous
 62
     4
370
     9
100
AcDbLine
 10
-406.9906286291172
 20
1037.972890493032
 30
0.0
 11
-361.9906038851352
 21
1037.972890493032
 31
0.0
  0
LINE
  5
AB
330
1F
100
AcDbEntity
  8
1-8
  6
Continuous
 62
     7
370
     9
100
AcDbLine
 10
-444.490504909206
 20
320.998807340055
 30
0.0
 11
-324.4906038851352
 21
353.1527462521115
 31
0.0
  0
LINE
  5
AC
330
1F
100
AcDbEntity
  8
1-8
  6
Continuous
 62
     7
370
     9
100
AcDbLine
 10
-444.490504909206
 20
300.2931667018581
 30
0.0
 11
-324.4906038851352
 21
332.4471056139149
 31
0.0
  0
LINE
  5
AD
330
1F
100
AcDbEntity
  8
1-8
  6
Continuous
 62
     3
370
     9
100
AcDbLine
 10
-1108.040474556588
 20
477.9730224609375
 30
0.0
 11
-1108.040474556588
 21
330.3770240577492
 31
0.0
  0
LINE
  5
AE
330
1F
100
AcDbEntity
  8
1-8
  6
Continuous
 62
     3
370
     9
100
AcDbLine
 10
-1113.040491052576
 20
477.9730224609375
 30
0.0
 11
-1113.040491052576
 21
329.0372611380914
 31
0.0
  0
LINE
  5
AF
330
1F
100
AcDbEntity
  8
1-8
  6
Continuous
 62
     3
370
     9
100
AcDbLine
 10
-1053.04054054054
 20
477.9730224609375
 30
0.0
 11
-1053.04054054054
 21
345.1142924540753
 31
0.0
  0
LINE
  5
B0
330
1F
100
AcDbEntity
  8
1-8
  6
Continuous
 62
     3
370
     9
100
AcDbLine
 10
-1058.040557036529
 20
477.9730224609375
 30
0.0
 11
-1058.040557036529
 21
343.7745295344175
 31
0.0
  0
LINE
  5
B1
330
1F
100
AcDbEntity
  8
1-3
  6
Continuous
 62
     4
370
     9
100
AcDbLine
 10
-361.9906038851352
 20
37.97293173300261
 30
0.0
 11
-361.9906038851352
 21
322.3989455764359
 31
0.0
  0
LINE
  5
B2
330
1F
100
AcDbEntity
  8
1-3
  6
Continuous
 62
     4
370
     9
100
AcDbLine
 10
-361.9906038851352
 20
343.1045862146328
 30
0.0
 11
-361.9906038851352
 21
1037.972890493032
 31
0.0
  0
LINE
  5
B3
330
1F
100
AcDbEntity
  8
1-3
  6
Continuous
 62
     4
370
     9
100
AcDbLine
 10
-406.9906286291172
 20
37.97293173300261
 30
0.0
 11
-406.9906286291172
 21
310.3412030194258
 31
0.0
  0
LINE
  5
B4
330
1F
100
AcDbEntity
  8
1-3
  6
Continuous
 62
     4
370
     9
100
AcDbLine
 10
-406.9906286291172
 20
331.0468436576227
 30
0.0
 11
-406.9906286291172
 21
1037.972890493032
 31
0.0
  0
LINE
  5
B5
330
1F
100
AcDbEntity
  8
1-8
  6
Continuous
 62
     7
370
     9
100
AcDbLine
 10
-1143.040466308594
 20
320.998807340055
 30
0.0
 11
-1023.040565284523
 21
353.1527462521115
 31
0.0
  0
LINE
  5
B6
330
1F
100
AcDbEntity
  8
1-8
  6
Continuous
 62
     7
370
     9
100
AcDbLine
 10
-1143.040466308594
 20
300.2931667018581
 30
0.0
 11
-1023.040565284523
 21
332.4471056139149
 31
0.0
  0
LINE
  5
B7
330
1F
100
AcDbEntity
  8
1-8
  6
Continuous
 62
     6
370
     5
100
AcDbLine
 10
-1333.040598276499
 20
37.97293173300261
 30
0.0
 11
-161.9904389252534
 21
37.97293173300261
 31
0.0
  0
LINE
  5
B8
330
1F
100
AcDbEntity
  8
1-4
  6
Continuous
 62
     7
370
     9
100
AcDbLine
 10
-406.9906286291172
 20
-122.0269775390625
 30
0.0
 11
-161.9904389252534
 21
-122.0269775390625
 31
0.0
  0
LINE
  5
B9
330
1F
100
AcDbEntity
  8
1-4
  6
Continuous
 62
     7
370
     9
100
AcDbLine
 10
-406.9906286291172
 20
12.9729729729732
 30
0.0
 11
-406.9906286291172
 21
-125.0269379486909
 31
0.0
  0
LINE
  5
BA
330
1F
100
AcDbEntity
  8
1-8
  6
Continuous
 62
     6
370
     5
100
AcDbLine
 10
-1333.040598276499
 20
-22.0270187790328
 30
0.0
 11
-429.8006212389146
 21
-22.0270187790328
 31
0.0
  0
LINE
  5
BB
330
1F
100
AcDbEntity
  8
1-8
  6
Continuous
 62
     6
370
     5
100
AcDbLine
 10
-383.8647790857263
 20
-22.0270187790328
 30
0.0
 11
-161.9904389252534
 21
-22.0270187790328
 31
0.0
  0
LINE
  5
BC
330
1F
100
AcDbEntity
  8
1-8
  6
Continuous
 62
     6
370
     5
100
AcDbLine
 10
-1333.040598276499
 20
27.97289874102631
 30
0.0
 11
-429.8006212389146
 21
27.97289874102631
 31
0.0
  0
LINE
  5
BD
330
1F
100
AcDbEntity
  8
1-8
  6
Continuous
 62
     6
370
     5
100
AcDbLine
 10
-383.8647790857263
 20
27.97289874102631
 30
0.0
 11
-161.9904389252534
 21
27.97289874102631
 31
0.0
  0
LINE
  5
BE
330
1F
100
AcDbEntity
  8
1-8
  6
Continuous
 62
     6
370
     5
100
AcDbLine
 10
-1333.040598276499
 20
17.97286574905002
 30
0.0
 11
-429.8006212389146
 21
17.97286574905002
 31
0.0
  0
LINE
  5
BF
330
1F
100
AcDbEntity
  8
1-8
  6
Continuous
 62
     6
370
     5
100
AcDbLine
 10
-383.8647790857263
 20
17.97286574905002
 30
0.0
 11
-161.9904389252534
 21
17.97286574905002
 31
0.0
  0
LINE
  5
C0
330
1F
100
AcDbEntity
  8
1-8
  6
Continuous
 62
     6
370
     5
100
AcDbLine
 10
-1333.040598276499
 20
7.972832757073434
 30
0.0
 11
-429.8006212389146
 21
7.972832757073434
 31
0.0
  0
LINE
  5
C1
330
1F
100
AcDbEntity
  8
1-8
  6
Continuous
 62
     6
370
     5
100
AcDbLine
 10
-383.8647790857263
 20
7.972832757073434
 30
0.0
 11
-161.9904389252534
 21
7.972832757073434
 31
0.0
  0
LINE
  5
C2
330
1F
100
AcDbEntity
  8
1-8
  6
Continuous
 62
     6
370
     5
100
AcDbLine
 10
-1333.040598276499
 20
-2.027200234902864
 30
0.0
 11
-429.8006212389146
 21
-2.027200234902864
 31
0.0
  0
LINE
  5
C3
330
1F
100
AcDbEntity
  8
1-8
  6
Continuous
 62
     6
370
     5
100
AcDbLine
 10
-383.8647790857263
 20
-2.027200234902864
 30
0.0
 11
-161.9904389252534
 21
-2.027200234902864
 31
0.0
  0
LINE
  5
C4
330
1F
100
AcDbEntity
  8
1-8
  6
Continuous
 62
     6
370
     5
100
AcDbLine
 10
-1333.040598276499
 20
-12.02723322687916
 30
0.0
 11
-429.8006212389146
 21
-12.02723322687916
 31
0.0
  0
LINE
  5
C5
330
1F
100
AcDbEntity
  8
1-8
  6
Continuous
 62
     6
370
     5
100
AcDbLine
 10
-383.8647790857263
 20
-12.02723322687916
 30
0.0
 11
-161.9904389252534
 21
-12.02723322687916
 31
0.0
  0
LINE
  5
C6
330
1F
100
AcDbEntity
  8
1-4
  6
Continuous
 62
     7
370
     9
100
AcDbLine
 10
-261.9906451251055
 20
37.97293173300261
 30
0.0
 11
-261.9906451251055
 21
1037.972890493032
 31
0.0
  0
LINE
  5
C7
330
1F
100
AcDbEntity
  8
1-4
  6
Continuous
 62
     7
370
     9
100
AcDbLine
 10
-336.9906451251055
 20
1037.972890493032
 30
0.0
 11
-258.9906847154771
 21
1037.972890493032
 31
0.0
  0
LINE
  5
C8
330
1F
100
AcDbEntity
  8
1-4
  6
Continuous
 62
     7
370
     9
100
AcDbLine
 10
-1433.040557036529
 20
37.97293173300261
 30
0.0
 11
-1433.040557036529
 21
690.4726100612334
 31
0.0
  0
LINE
  5
C9
330
1F
100
AcDbEntity
  8
1-4
  6
Continuous
 62
     7
370
     9
100
AcDbLine
 10
-1133.040433316617
 20
690.4726100612334
 30
0.0
 11
-1436.040641166068
 21
690.4726100612334
 31
0.0
  0
LINE
  5
CA
330
1F
100
AcDbEntity
  8
1-4
  6
Continuous
 62
     7
370
     9
100
AcDbLine
 10
-1533.04063951647
 20
37.97293173300261
 30
0.0
 11
-1533.04063951647
 21
790.4726925411742
 31
0.0
  0
LINE
  5
CB
330
1F
100
AcDbEntity
  8
1-4
  6
Continuous
 62
     7
370
     9
100
AcDbLine
 10
-1358.040557036529
 20
37.97293173300261
 30
0.0
 11
-1536.040599926098
 21
37.97293173300261
 31
0.0
  0
LINE
  5
CC
330
1F
100
AcDbEntity
  8
1-E
  6
Continuous
 62
     7
370
     9
100
AcDbLine
 10
-1083.04063951647
 20
690.4726100612334
 30
0.0
 11
-1141.989465661951
 21
910.472593565245
 31
0.0
  0
LINE
  5
CD
330
1F
100
AcDbEntity
  8
1-E
  6
Continuous
 62
     7
370
     9
100
AcDbLine
 10
-1141.989465661951
 20
910.472593565245
 30
0.0
 11
-1473.520474820524
 21
910.472593565245
 31
0.0
  0
LINE
  5
CE
330
1F
100
AcDbEntity
  8
1-E
  6
Continuous
 62
     7
370
     9
100
AcDbLine
 10
-790.061249604096
 20
1147.972511085304
 30
0.0
 11
-470.4989046663852
 21
1147.972511085304
 31
0.0
  0
LINE
  5
CF
330
1F
100
AcDbEntity
  8
1-E
  6
Continuous
 62
     7
370
     9
100
AcDbLine
 10
-406.9906286291172
 20
1037.972890493032
 30
0.0
 11
-470.4989046663852
 21
1147.972511085304
 31
0.0
  0
LINE
  5
D0
330
1F
100
AcDbEntity
  8
1-E
  6
Continuous
 62
     7
370
     9
100
AcDbLine
 10
-406.9906286291172
 20
1037.972890493032
 30
0.0
 11
-422.2096623601141
 21
1057.806676916174
 31
0.0
  0
LINE
  5
D1
330
1F
100
AcDbEntity
  8
1-E
  6
Continuous
 62
     7
370
     9
100
AcDbLine
 10
-406.9906286291172
 20
1037.972890493032
 30
0.0
 11
-416.5577656513935
 21
1061.069913297086
 31
0.0
  0
LINE
  5
D2
330
1F
100
AcDbEntity
  8
1-E
  6
Continuous
 62
     7
370
     9
100
AcDbLine
 10
-545.6719888223182
 20
962.6084116342906
 30
0.0
 11
-560.8910225533148
 21
982.4421980574325
 31
0.0
  0
LINE
  5
D3
330
1F
100
AcDbEntity
  8
1-E
  6
Continuous
 62
     7
370
     9
100
AcDbLine
 10
-545.6719888223182
 20
962.6084116342906
 30
0.0
 11
-555.2391258445946
 21
985.7054344383448
 31
0.0
  0
LINE
  5
D4
330
1F
100
AcDbEntity
  8
1-E
  6
Continuous
 62
     7
370
     9
100
AcDbLine
 10
-545.6719888223182
 20
962.6084116342906
 30
0.0
 11
-583.4100259316932
 21
1027.972610061233
 31
0.0
  0
LINE
  5
D5
330
1F
100
AcDbEntity
  8
1-4
  6
Continuous
 62
     7
370
     9
100
AcDbLine
 10
-614.5801441089526
 20
790.4726925411742
 30
0.0
 11
-1536.040599926098
 21
790.4726925411742
 31
0.0
  0
LINE
  5
D6
330
1F
100
AcDbEntity
  8
2-1
  6
JWW_CENTER1
 62
     2
370
     9
100
AcDbLine
 10
415.7033559438347
 20
412.2972972972974
 30
0.0
 11
1659.972319731842
 21
412.2972972972974
 31
0.0
  0
LINE
  5
D7
330
1F
100
AcDbEntity
  8
2-1
  6
JWW_CENTER1
 62
     2
370
     9
100
AcDbLine
 10
1037.837837837838
 20
-252.6284377639358
 30
0.0
 11
1037.837837837838
 21
1033.96881928315
 31
0.0
  0
LINE
  5
D8
330
1F
100
AcDbEntity
  8
2-0
  6
Continuous
 62
     4
370
     9
100
AcDbLine
 10
524.0686365076016
 20
-101.4723989125844
 30
0.0
 11
545.2598777977198
 21
-107.1506479624153
 31
0.0
  0
LINE
  5
D9
330
1F
100
AcDbEntity
  8
2-0
  6
Continuous
 62
     4
370
     9
100
AcDbLine
 10
545.2598777977198
 20
-107.1506479624153
 30
0.0
 11
560.7179383973818
 21
-91.69283480257604
 31
0.0
  0
LINE
  5
DA
330
1F
100
AcDbEntity
  8
2-0
  6
Continuous
 62
     4
370
     9
100
AcDbLine
 10
555.0391944679058
 20
-70.50134607263516
 30
0.0
 11
560.7179383973818
 21
-91.69283480257604
 31
0.0
  0
LINE
  5
DB
330
1F
100
AcDbEntity
  8
2-0
  6
Continuous
 62
     4
370
     9
100
AcDbLine
 10
555.0391944679058
 20
-70.50134607263516
 30
0.0
 11
533.8474582981422
 21
-64.82284958298123
 31
0.0
  0
LINE
  5
DC
330
1F
100
AcDbEntity
  8
2-0
  6
Continuous
 62
     4
370
     9
100
AcDbLine
 10
518.389892578125
 20
-80.28066274282082
 30
0.0
 11
533.8474582981422
 21
-64.82284958298123
 31
0.0
  0
LINE
  5
DD
330
1F
100
AcDbEntity
  8
2-0
  6
Continuous
 62
     4
370
     9
100
AcDbLine
 10
524.0686365076016
 20
-101.4723989125844
 30
0.0
 11
518.389892578125
 21
-80.28066274282082
 31
0.0
  0
LINE
  5
DE
330
1F
100
AcDbEntity
  8
2-0
  6
Continuous
 62
     4
370
     9
100
AcDbLine
 10
1551.607039168075
 20
-101.4723989125844
 30
0.0
 11
1530.415797877956
 21
-107.1506479624153
 31
0.0
  0
LINE
  5
DF
330
1F
100
AcDbEntity
  8
2-0
  6
Continuous
 62
     4
370
     9
100
AcDbLine
 10
1530.415797877956
 20
-107.1506479624153
 30
0.0
 11
1514.957737278294
 21
-91.69283480257604
 31
0.0
  0
LINE
  5
E0
330
1F
100
AcDbEntity
  8
2-0
  6
Continuous
 62
     4
370
     9
100
AcDbLine
 10
1520.63648120777
 20
-70.50134607263516
 30
0.0
 11
1514.957737278294
 21
-91.69283480257604
 31
0.0
  0
LINE
  5
E1
330
1F
100
AcDbEntity
  8
2-0
  6
Continuous
 62
     4
370
     9
100
AcDbLine
 10
1520.63648120777
 20
-70.50134607263516
 30
0.0
 11
1541.828217377534
 21
-64.82284958298123
 31
0.0
  0
LINE
  5
E2
330
1F
100
AcDbEntity
  8
2-0
  6
Continuous
 62
     4
370
     9
100
AcDbLine
 10
1557.285783097551
 20
-80.28066274282082
 30
0.0
 11
1541.828217377534
 21
-64.82284958298123
 31
0.0
  0
LINE
  5
E3
330
1F
100
AcDbEntity
  8
2-0
  6
Continuous
 62
     4
370
     9
100
AcDbLine
 10
1551.607039168075
 20
-101.4723989125844
 30
0.0
 11
1557.285783097551
 21
-80.28066274282082
 31
0.0
  0
LINE
  5
E4
330
1F
100
AcDbEntity
  8
2-0
  6
Continuous
 62
     4
370
     9
100
AcDbLine
 10
1551.607039168075
 20
926.0667460673565
 30
0.0
 11
1530.415797877956
 21
931.7449951171875
 31
0.0
  0
LINE
  5
E5
330
1F
100
AcDbEntity
  8
2-0
  6
Continuous
 62
     4
370
     9
100
AcDbLine
 10
1530.415797877956
 20
931.7449951171875
 30
0.0
 11
1514.957737278294
 21
916.2874293971709
 31
0.0
  0
LINE
  5
E6
330
1F
100
AcDbEntity
  8
2-0
  6
Continuous
 62
     4
370
     9
100
AcDbLine
 10
1520.63648120777
 20
895.0956932274073
 30
0.0
 11
1514.957737278294
 21
916.2874293971709
 31
0.0
  0
LINE
  5
E7
330
1F
100
AcDbEntity
  8
2-0
  6
Continuous
 62
     4
370
     9
100
AcDbLine
 10
1520.63648120777
 20
895.0956932274073
 30
0.0
 11
1541.828217377534
 21
889.417444177576
 31
0.0
  0
LINE
  5
E8
330
1F
100
AcDbEntity
  8
2-0
  6
Continuous
 62
     4
370
     9
100
AcDbLine
 10
1557.285783097551
 20
904.8750098975929
 30
0.0
 11
1541.828217377534
 21
889.417444177576
 31
0.0
  0
LINE
  5
E9
330
1F
100
AcDbEntity
  8
2-0
  6
Continuous
 62
     4
370
     9
100
AcDbLine
 10
1551.607039168075
 20
926.0667460673565
 30
0.0
 11
1557.285783097551
 21
904.8750098975929
 31
0.0
  0
LINE
  5
EA
330
1F
100
AcDbEntity
  8
2-0
  6
Continuous
 62
     4
370
     9
100
AcDbLine
 10
524.0686365076016
 20
926.0667460673565
 30
0.0
 11
545.2598777977198
 21
931.7449951171875
 31
0.0
  0
LINE
  5
EB
330
1F
100
AcDbEntity
  8
2-0
  6
Continuous
 62
     4
370
     9
100
AcDbLine
 10
545.2598777977198
 20
931.7449951171875
 30
0.0
 11
560.7179383973818
 21
916.2874293971709
 31
0.0
  0
LINE
  5
EC
330
1F
100
AcDbEntity
  8
2-0
  6
Continuous
 62
     4
370
     9
100
AcDbLine
 10
555.0391944679058
 20
895.0956932274073
 30
0.0
 11
560.7179383973818
 21
916.2874293971709
 31
0.0
  0
LINE
  5
ED
330
1F
100
AcDbEntity
  8
2-0
  6
Continuous
 62
     4
370
     9
100
AcDbLine
 10
555.0391944679058
 20
895.0956932274073
 30
0.0
 11
533.8474582981422
 21
889.417444177576
 31
0.0
  0
LINE
  5
EE
330
1F
100
AcDbEntity
  8
2-0
  6
Continuous
 62
     4
370
     9
100
AcDbLine
 10
518.389892578125
 20
904.8750098975929
 30
0.0
 11
533.8474582981422
 21
889.417444177576
 31
0.0
  0
LINE
  5
EF
330
1F
100
AcDbEntity
  8
2-0
  6
Continuous
 62
     4
370
     9
100
AcDbLine
 10
524.0686365076016
 20
926.0667460673565
 30
0.0
 11
518.389892578125
 21
904.8750098975929
 31
0.0
  0
LINE
  5
F0
330
1F
100
AcDbEntity
  8
2-4
  6
Continuous
 62
     7
370
     9
100
AcDbLine
 10
430.6482263513516
 20
1025.379440720017
 30
0.0
 11
395.2930347339529
 21
1060.734632337416
 31
0.0
  0
LINE
  5
F1
330
1F
100
AcDbEntity
  8
2-4
  6
Continuous
 62
     7
370
     9
100
AcDbLine
 10
424.7561892947635
 20
1019.486908783784
 30
0.0
 11
389.4009976773651
 21
1054.842100401183
 31
0.0
  0
LINE
  5
F2
330
1F
100
AcDbEntity
  8
2-4
  6
Continuous
 62
     7
370
     9
100
AcDbLine
 10
788.9603898331927
 20
667.0680195576438
 30
0.0
 11
783.0673630173146
 21
661.1754876214106
 31
0.0
  0
LINE
  5
F3
330
1F
100
AcDbEntity
  8
2-4
  6
Continuous
 62
     7
370
     9
100
AcDbLine
 10
824.3155814505911
 20
631.712827940245
 30
0.0
 11
788.9603898331927
 21
667.0680195576438
 31
0.0
  0
LINE
  5
F4
330
1F
100
AcDbEntity
  8
2-4
  6
Continuous
 62
     7
370
     9
100
AcDbLine
 10
818.422554634713
 20
625.820296004012
 30
0.0
 11
824.3155814505911
 21
631.712827940245
 31
0.0
  0
LINE
  5
F5
330
1F
100
AcDbEntity
  8
2-4
  6
Continuous
 62
     7
370
     9
100
AcDbLine
 10
818.422554634713
 20
625.820296004012
 30
0.0
 11
783.0673630173146
 21
661.1754876214106
 31
0.0
  0
LINE
  5
F6
330
1F
100
AcDbEntity
  8
2-4
  6
Continuous
 62
     7
370
     9
100
AcDbLine
 10
813.9270679370776
 20
630.3160301414698
 30
0.0
 11
822.9185362119932
 21
630.3160301414698
 31
0.0
  0
LINE
  5
F7
330
1F
100
AcDbEntity
  8
2-4
  6
Continuous
 62
     7
370
     9
100
AcDbLine
 10
808.9268040012672
 20
635.3160466374578
 30
0.0
 11
820.7118678737334
 21
635.3160466374578
 31
0.0
  0
LINE
  5
F8
330
1F
100
AcDbEntity
  8
2-4
  6
Continuous
 62
     7
370
     9
100
AcDbLine
 10
803.9270349451016
 20
640.316063133446
 30
0.0
 11
815.7120988175677
 21
640.316063133446
 31
0.0
  0
LINE
  5
F9
330
1F
100
AcDbEntity
  8
2-4
  6
Continuous
 62
     7
370
     9
100
AcDbLine
 10
798.927265888936
 20
645.3160796294342
 30
0.0
 11
810.7123297614021
 21
645.3160796294342
 31
0.0
  0
LINE
  5
FA
330
1F
100
AcDbEntity
  8
2-4
  6
Continuous
 62
     7
370
     9
100
AcDbLine
 10
793.927001953125
 20
650.3160961254224
 30
0.0
 11
805.7120658255911
 21
650.3160961254224
 31
0.0
  0
LINE
  5
FB
330
1F
100
AcDbEntity
  8
2-4
  6
Continuous
 62
     7
370
     9
100
AcDbLine
 10
788.9267380173146
 20
655.3161126214106
 30
0.0
 11
800.7118018897808
 21
655.3161126214106
 31
0.0
  0
LINE
  5
FC
330
1F
100
AcDbEntity
  8
2-4
  6
Continuous
 62
     7
370
     9
100
AcDbLine
 10
783.926968961149
 20
660.3161291173988
 30
0.0
 11
795.7120328336151
 21
660.3161291173988
 31
0.0
  0
LINE
  5
FD
330
1F
100
AcDbEntity
  8
2-4
  6
Continuous
 62
     7
370
     9
100
AcDbLine
 10
787.208515888936
 20
665.316145613387
 30
0.0
 11
790.7122637774495
 21
665.316145613387
 31
0.0
  0
LINE
  5
FE
330
1F
100
AcDbEntity
  8
2-4
  6
Continuous
 62
     7
370
     9
100
AcDbLine
 10
422.8687183277029
 20
1021.374627190668
 30
0.0
 11
426.6436602618245
 21
1021.374627190668
 31
0.0
  0
LINE
  5
FF
330
1F
100
AcDbEntity
  8
2-4
  6
Continuous
 62
     7
370
     9
100
AcDbLine
 10
417.8684543918919
 20
1026.374643686655
 30
0.0
 11
429.6535182643584
 21
1026.374643686655
 31
0.0
  0
LINE
  5
100
330
1F
100
AcDbEntity
  8
2-4
  6
Continuous
 62
     7
370
     9
100
AcDbLine
 10
412.8681904560813
 20
1031.374660182644
 30
0.0
 11
424.6532543285474
 21
1031.374660182644
 31
0.0
  0
LINE
  5
101
330
1F
100
AcDbEntity
  8
2-4
  6
Continuous
 62
     7
370
     9
100
AcDbLine
 10
407.8679265202703
 20
1036.374676678632
 30
0.0
 11
419.6529903927367
 21
1036.374676678632
 31
0.0
  0
LINE
  5
102
330
1F
100
AcDbEntity
  8
2-4
  6
Continuous
 62
     7
370
     9
100
AcDbLine
 10
402.86865234375
 20
1041.37469317462
 30
0.0
 11
414.6537162162164
 21
1041.37469317462
 31
0.0
  0
LINE
  5
103
330
1F
100
AcDbEntity
  8
2-4
  6
Continuous
 62
     7
370
     9
100
AcDbLine
 10
397.8683884079393
 20
1046.374709670608
 30
0.0
 11
409.6534522804055
 21
1046.374709670608
 31
0.0
  0
LINE
  5
104
330
1F
100
AcDbEntity
  8
2-4
  6
Continuous
 62
     7
370
     9
100
AcDbLine
 10
392.8681244721284
 20
1051.374726166596
 30
0.0
 11
404.6531883445948
 21
1051.374726166596
 31
0.0
  0
LINE
  5
105
330
1F
100
AcDbEntity
  8
2-4
  6
Continuous
 62
     7
370
     9
100
AcDbLine
 10
407.078098606419
 20
1037.164504592483
 30
0.0
 11
391.8595597550677
 21
1017.330718169341
 31
0.0
  0
LINE
  5
106
330
1F
100
AcDbEntity
  8
2-4
  6
Continuous
 62
     7
370
     9
100
AcDbLine
 10
407.078098606419
 20
1037.164504592483
 30
0.0
 11
387.2443121832771
 21
1021.945470861487
 31
0.0
  0
LINE
  5
107
330
1F
100
AcDbEntity
  8
2-4
  6
Continuous
 62
     7
370
     9
100
AcDbLine
 10
407.078098606419
 20
1037.164504592483
 30
0.0
 11
371.7229069890203
 21
1001.809065535262
 31
0.0
  0
LINE
  5
108
330
1F
100
AcDbEntity
  8
2-4
  6
Continuous
 62
     7
370
     9
100
AcDbLine
 10
800.7454537056589
 20
643.4978918127113
 30
0.0
 11
785.5259250950172
 21
623.6641053895693
 31
0.0
  0
LINE
  5
109
330
1F
100
AcDbEntity
  8
2-4
  6
Continuous
 62
     7
370
     9
100
AcDbLine
 10
800.7454537056589
 20
643.4978918127113
 30
0.0
 11
780.9116672825172
 21
628.2788580817146
 31
0.0
  0
LINE
  5
10A
330
1F
100
AcDbEntity
  8
2-4
  6
Continuous
 62
     7
370
     9
100
AcDbLine
 10
800.7454537056589
 20
643.4978918127113
 30
0.0
 11
765.3897672086151
 21
608.1424527554898
 31
0.0
  0
LINE
  5
10B
330
1F
100
AcDbEntity
  8
2-4
  6
Continuous
 62
     7
370
     9
100
AcDbLine
 10
424.7561892947635
 20
1019.486908783784
 30
0.0
 11
430.6482263513516
 21
1025.379440720017
 31
0.0
  0
LINE
  5
10C
330
1F
100
AcDbEntity
  8
1-0
  6
Continuous
 62
     2
370
     9
100
AcDbLine
 10
-1203.653943860853
 20
571.180139490076
 30
0.0
 11
-1208.04068075644
 21
540.4728575010557
 31
0.0
  0
LINE
  5
10D
330
1F
100
AcDbEntity
  8
1-0
  6
Continuous
 62
     2
370
     9
100
AcDbLine
 10
-973.0406477644636
 20
575.4729729729731
 30
0.0
 11
-579.3460742847338
 21
740.4208126583617
 31
0.0
  0
LINE
  5
10E
330
1F
100
AcDbEntity
  8
1-0
  6
Continuous
 62
     2
370
     9
100
AcDbLine
 10
-1198.70415764886
 20
575.4729729729731
 30
0.0
 11
-973.0406477644636
 21
575.4729729729731
 31
0.0
  0
LINE
  5
10F
330
1F
100
AcDbEntity
  8
1-0
  6
Continuous
 62
     2
370
     9
100
AcDbLine
 10
-1126.346814954603
 20
567.568260399071
 30
0.0
 11
-1120.54063951647
 21
540.4728575010557
 31
0.0
  0
LINE
  5
110
330
1F
100
AcDbEntity
  8
1-0
  6
Continuous
 62
     2
370
     9
100
AcDbLine
 10
-1039.734464078336
 20
567.568260399071
 30
0.0
 11
-1045.54063951647
 21
540.4728575010557
 31
0.0
  0
LINE
  5
111
330
1F
100
AcDbEntity
  8
1-0
  6
Continuous
 62
     2
370
     9
100
AcDbLine
 10
-473.3028927364865
 20
567.9729482289908
 30
0.0
 11
-515.0171640756967
 21
567.9729482289908
 31
0.0
  0
LINE
  5
112
330
1F
100
AcDbEntity
  8
1-0
  6
Continuous
 62
     2
370
     9
100
AcDbLine
 10
-577.2148750923773
 20
785.707991316512
 30
0.0
 11
-579.3459505648227
 21
740.4208126583617
 31
0.0
  0
LINE
  5
113
330
1F
100
AcDbEntity
  8
1-0
  6
Continuous
 62
     2
370
     9
100
AcDbLine
 10
-551.7069223764779
 20
785.7745526288008
 30
0.0
 11
-539.9706041490708
 21
591.4466981630068
 31
0.0
  0
LINE
  5
114
330
1F
100
AcDbEntity
  8
1-0
  6
Continuous
 62
     2
370
     9
100
AcDbLine
 10
-442.2713408599029
 20
693.2706595755915
 30
0.0
 11
-448.3472257047086
 21
591.4833192567568
 31
0.0
  0
LINE
  5
115
330
1F
100
AcDbEntity
  8
1-0
  6
Continuous
 62
     2
370
     9
100
AcDbLine
 10
-421.6932554502745
 20
693.2897124419342
 30
0.0
 11
-411.9906451251055
 21
540.4728575010557
 31
0.0
  0
LINE
  5
116
330
1F
100
AcDbEntity
  8
1-0
  6
Continuous
 62
     2
370
     9
100
AcDbLine
 10
-411.9906451251055
 20
540.4728575010557
 30
0.0
 11
-1208.04068075644
 21
540.4728575010557
 31
0.0
  0
LINE
  5
117
330
1F
100
AcDbEntity
  8
1-0
  6
Continuous
 62
     2
370
     9
100
AcDbLine
 10
-426.6832506334458
 20
697.9730059649495
 30
0.0
 11
-437.2802321975294
 21
697.9730059649495
 31
0.0
  0
LINE
  5
118
330
1F
100
AcDbEntity
  8
1-0
  6
Continuous
 62
     2
370
     9
100
AcDbLine
 10
-556.6977835990286
 20
790.4729399809967
 30
0.0
 11
-572.2204259923988
 21
790.4729399809967
 31
0.0
  0
LINE
  5
119
330
1F
100
AcDbEntity
  8
1-E
  6
Continuous
 62
     7
370
     9
100
AcDbLine
 10
-941.9906616210938
 20
1027.972610061233
 30
0.0
 11
-583.4100259316932
 21
1027.972610061233
 31
0.0
  0
LINE
  5
11A
330
1F
100
AcDbEntity
  8
1-4
  6
Continuous
 62
     7
370
     9
100
AcDbLine
 10
-1533.04063951647
 20
790.4726925411742
 30
0.0
 11
-1529.777464995513
 21
765.6866455078125
 31
0.0
  0
LINE
  5
11B
330
1F
100
AcDbEntity
  8
1-4
  6
Continuous
 62
     7
370
     9
100
AcDbLine
 10
-1533.04063951647
 20
790.4726925411742
 30
0.0
 11
-1536.303814037426
 21
765.6866455078125
 31
0.0
  0
LINE
  5
11C
330
1F
100
AcDbEntity
  8
1-4
  6
Continuous
 62
     7
370
     9
100
AcDbLine
 10
-1433.040557036529
 20
690.4726100612334
 30
0.0
 11
-1429.777382515572
 21
665.6865630278717
 31
0.0
  0
LINE
  5
11D
330
1F
100
AcDbEntity
  8
1-4
  6
Continuous
 62
     7
370
     9
100
AcDbLine
 10
-1433.040557036529
 20
690.4726100612334
 30
0.0
 11
-1436.303731557485
 21
665.6865630278717
 31
0.0
  0
LINE
  5
11E
330
1F
100
AcDbEntity
  8
1-4
  6
Continuous
 62
     7
370
     9
100
AcDbLine
 10
-1433.040557036529
 20
37.97293173300261
 30
0.0
 11
-1436.303731557485
 21
62.75910248627554
 31
0.0
  0
LINE
  5
11F
330
1F
100
AcDbEntity
  8
1-4
  6
Continuous
 62
     7
370
     9
100
AcDbLine
 10
-1433.040557036529
 20
37.97293173300261
 30
0.0
 11
-1429.777382515572
 21
62.75910248627554
 31
0.0
  0
LINE
  5
120
330
1F
100
AcDbEntity
  8
1-4
  6
Continuous
 62
     7
370
     9
100
AcDbLine
 10
-1533.04063951647
 20
37.97293173300261
 30
0.0
 11
-1536.303814037426
 21
62.75910248627554
 31
0.0
  0
LINE
  5
121
330
1F
100
AcDbEntity
  8
1-4
  6
Continuous
 62
     7
370
     9
100
AcDbLine
 10
-1533.04063951647
 20
37.97293173300261
 30
0.0
 11
-1529.777464995513
 21
62.75910248627554
 31
0.0
  0
LINE
  5
122
330
1F
100
AcDbEntity
  8
1-4
  6
Continuous
 62
     7
370
     9
100
AcDbLine
 10
-261.9906451251055
 20
37.97293173300261
 30
0.0
 11
-265.2537577861062
 21
62.75910248627554
 31
0.0
  0
LINE
  5
123
330
1F
100
AcDbEntity
  8
1-4
  6
Continuous
 62
     7
370
     9
100
AcDbLine
 10
-261.9906451251055
 20
37.97293173300261
 30
0.0
 11
-258.7275324641047
 21
62.75910248627554
 31
0.0
  0
LINE
  5
124
330
1F
100
AcDbEntity
  8
1-4
  6
Continuous
 62
     7
370
     9
100
AcDbLine
 10
-261.9906451251055
 20
1037.972890493032
 30
0.0
 11
-258.7275324641047
 21
1013.186843459671
 31
0.0
  0
LINE
  5
125
330
1F
100
AcDbEntity
  8
1-4
  6
Continuous
 62
     7
370
     9
100
AcDbLine
 10
-261.9906451251055
 20
1037.972890493032
 30
0.0
 11
-265.2537577861062
 21
1013.186843459671
 31
0.0
  0
LINE
  5
126
330
1F
100
AcDbEntity
  8
1-4
  6
Continuous
 62
     7
370
     9
100
AcDbLine
 10
-1028.290619721284
 20
527.9729399809967
 30
0.0
 11
-1013.071585990287
 21
508.1390298379435
 31
0.0
  0
LINE
  5
127
330
1F
100
AcDbEntity
  8
1-4
  6
Continuous
 62
     7
370
     9
100
AcDbLine
 10
-1028.290619721284
 20
527.9729399809967
 30
0.0
 11
-1018.723482699007
 21
504.8759171769427
 31
0.0
  0
LINE
  5
128
330
1F
100
AcDbEntity
  8
1-4
  6
Continuous
 62
     7
370
     9
100
AcDbLine
 10
-1028.290619721284
 20
527.9729399809967
 30
0.0
 11
-959.0087065825592
 21
407.9729152370146
 31
0.0
  0
LINE
  5
129
330
1F
100
AcDbEntity
  8
1-4
  6
Continuous
 62
     7
370
     9
100
AcDbLine
 10
-959.0087065825592
 20
407.9729152370146
 30
0.0
 11
-436.6178357923351
 21
407.9729152370146
 31
0.0
  0
LINE
  5
12A
330
1F
100
AcDbEntity
  8
2-1
  6
Continuous
 62
     2
370
     9
100
AcDbLine
 10
479.8380258921031
 20
882.29736328125
 30
0.0
 11
479.8380258921031
 21
412.2972972972974
 31
0.0
  0
LINE
  5
12B
330
1F
100
AcDbEntity
  8
2-1
  6
Continuous
 62
     2
370
     9
100
AcDbLine
 10
613.1365801836995
 20
732.3473461254224
 30
0.0
 11
545.6609777502115
 21
799.8231959987334
 31
0.0
  0
LINE
  5
12C
330
1F
100
AcDbEntity
  8
2-1
  6
Continuous
 62
     2
370
     9
100
AcDbLine
 10
505.8382601351354
 20
788.0465450802367
 30
0.0
 11
505.8382601351354
 21
520.7373046875
 31
0.0
  0
LINE
  5
12D
330
1F
100
AcDbEntity
  8
2-1
  6
Continuous
 62
     2
370
     9
100
AcDbLine
 10
509.3526479360219
 20
841.7877527185391
 30
0.0
 11
614.9809966216219
 21
736.1594040329394
 31
0.0
  0
LINE
  5
12E
330
1F
100
AcDbEntity
  8
2-1
  6
Continuous
 62
     2
370
     9
100
AcDbLine
 10
505.8382601351354
 20
850.2727116765203
 30
0.0
 11
505.8382601351354
 21
854.6494272592906
 31
0.0
  0
LINE
  5
12F
330
1F
100
AcDbEntity
  8
2-1
  6
Continuous
 62
     2
370
     9
100
AcDbLine
 10
537.175276472762
 20
791.3374947212839
 30
0.0
 11
545.6609777502115
 21
799.8231959987334
 31
0.0
  0
LINE
  5
130
330
1F
100
AcDbEntity
  8
2-1
  6
Continuous
 62
     2
370
     9
100
AcDbLine
 10
537.175276472762
 20
791.3374947212839
 30
0.0
 11
608.5381585198479
 21
719.974365234375
 31
0.0
  0
LINE
  5
131
330
1F
100
AcDbEntity
  8
2-1
  6
Continuous
 62
     2
370
     9
100
AcDbLine
 10
521.7243916279563
 20
804.8098507442992
 30
0.0
 11
537.175276472762
 21
791.3374947212839
 31
0.0
  0
LINE
  5
132
330
1F
100
AcDbEntity
  8
2-1
  6
Continuous
 62
     2
370
     9
100
AcDbLine
 10
504.9469818940037
 20
844.7414418813346
 30
0.0
 11
545.6609777502115
 21
799.8231959987334
 31
0.0
  0
LINE
  5
133
330
1F
100
AcDbEntity
  8
2-1
  6
Continuous
 62
     2
370
     9
100
AcDbLine
 10
501.8379005225933
 20
520.7373046875
 30
0.0
 11
501.8379005225933
 21
854.6494272592906
 31
0.0
  0
LINE
  5
134
330
1F
100
AcDbEntity
  8
2-1
  6
Continuous
 62
     2
370
     9
100
AcDbLine
 10
571.8477816195104
 20
863.649803367821
 30
0.0
 11
653.2344508815459
 21
777.5486631651182
 31
0.0
  0
LINE
  5
135
330
1F
100
AcDbEntity
  8
2-1
  6
Continuous
 62
     2
370
     9
100
AcDbLine
 10
660.5089342271958
 20
781.1407470703125
 30
0.0
 11
572.8068583720443
 21
868.8428229254646
 31
0.0
  0
LINE
  5
136
330
1F
100
AcDbEntity
  8
2-1
  6
Continuous
 62
     2
370
     9
100
AcDbLine
 10
717.787789009713
 20
836.9983075116133
 30
0.0
 11
650.3116916965797
 21
904.4741573849242
 31
0.0
  0
LINE
  5
137
330
1F
100
AcDbEntity
  8
2-1
  6
Continuous
 62
     2
370
     9
100
AcDbLine
 10
662.088590054899
 20
944.296875
 30
0.0
 11
929.3980778874578
 21
944.296380120355
 31
0.0
  0
LINE
  5
138
330
1F
100
AcDbEntity
  8
2-1
  6
Continuous
 62
     2
370
     9
100
AcDbLine
 10
653.6031362172719
 20
923.8118269636825
 30
0.0
 11
732.8618230046453
 21
844.5521504170188
 31
0.0
  0
LINE
  5
139
330
1F
100
AcDbEntity
  8
2-1
  6
Continuous
 62
     2
370
     9
100
AcDbLine
 10
608.3473824165964
 20
940.7824871991133
 30
0.0
 11
713.9757311021958
 21
835.1541385135135
 31
0.0
  0
LINE
  5
13A
330
1F
100
AcDbEntity
  8
2-1
  6
Continuous
 62
     2
370
     9
100
AcDbLine
 10
599.8624234586151
 20
944.296875
 30
0.0
 11
595.4857078758448
 21
944.296875
 31
0.0
  0
LINE
  5
13B
330
1F
100
AcDbEntity
  8
2-1
  6
Continuous
 62
     2
370
     9
100
AcDbLine
 10
658.7971455342063
 20
912.9598586623734
 30
0.0
 11
650.3116916965797
 21
904.4741573849242
 31
0.0
  0
LINE
  5
13C
330
1F
100
AcDbEntity
  8
2-1
  6
Continuous
 62
     2
370
     9
100
AcDbLine
 10
658.7971455342063
 20
912.9598586623734
 30
0.0
 11
730.1607699007604
 21
841.5964817356419
 31
0.0
  0
LINE
  5
13D
330
1F
100
AcDbEntity
  8
2-1
  6
Continuous
 62
     2
370
     9
100
AcDbLine
 10
645.3250369510135
 20
928.4107435071792
 30
0.0
 11
658.7971455342063
 21
912.9598586623734
 31
0.0
  0
LINE
  5
13E
330
1F
100
AcDbEntity
  8
2-1
  6
Continuous
 62
     2
370
     9
100
AcDbLine
 10
605.3936932538011
 20
945.1884006809544
 30
0.0
 11
650.3116916965797
 21
904.4741573849242
 31
0.0
  0
LINE
  5
13F
330
1F
100
AcDbEntity
  8
2-1
  6
Continuous
 62
     2
370
     9
100
AcDbLine
 10
929.3980778874578
 20
948.2964922930745
 30
0.0
 11
595.4857078758448
 21
948.2972346125425
 31
0.0
  0
LINE
  5
140
330
1F
100
AcDbEntity
  8
2-1
  6
Continuous
 62
     2
370
     9
100
AcDbLine
 10
586.4853317673146
 20
878.2876009554477
 30
0.0
 11
672.5862245301943
 21
796.9004368137669
 31
0.0
  0
LINE
  5
141
330
1F
100
AcDbEntity
  8
2-1
  6
Continuous
 62
     2
370
     9
100
AcDbLine
 10
668.9946355046453
 20
789.6262009079394
 30
0.0
 11
581.2923122096709
 21
877.3285242029141
 31
0.0
  0
LINE
  5
142
330
1F
100
AcDbEntity
  8
2-1
  6
Continuous
 62
     2
370
     9
100
AcDbLine
 10
1595.837649783573
 20
882.29736328125
 30
0.0
 11
1595.837649783573
 21
412.2972972972974
 31
0.0
  0
LINE
  5
143
330
1F
100
AcDbEntity
  8
2-1
  6
Continuous
 62
     2
370
     9
100
AcDbLine
 10
1462.539095491977
 20
732.3473461254224
 30
0.0
 11
1530.014945365288
 21
799.8231959987334
 31
0.0
  0
LINE
  5
144
330
1F
100
AcDbEntity
  8
2-1
  6
Continuous
 62
     2
370
     9
100
AcDbLine
 10
1569.837415540541
 20
788.0465450802367
 30
0.0
 11
1569.837415540541
 21
520.7373046875
 31
0.0
  0
LINE
  5
145
330
1F
100
AcDbEntity
  8
2-1
  6
Continuous
 62
     2
370
     9
100
AcDbLine
 10
1549.352367504223
 20
796.5317514780406
 30
0.0
 11
1470.093185837205
 21
717.2730646906675
 31
0.0
  0
LINE
  5
146
330
1F
100
AcDbEntity
  8
2-1
  6
Continuous
 62
     2
370
     9
100
AcDbLine
 10
1566.323027739654
 20
841.7877527185391
 30
0.0
 11
1460.694926493877
 21
736.1594040329394
 31
0.0
  0
LINE
  5
147
330
1F
100
AcDbEntity
  8
2-1
  6
Continuous
 62
     2
370
     9
100
AcDbLine
 10
1569.837415540541
 20
850.2727116765203
 30
0.0
 11
1569.837415540541
 21
854.6494272592906
 31
0.0
  0
LINE
  5
148
330
1F
100
AcDbEntity
  8
2-1
  6
Continuous
 62
     2
370
     9
100
AcDbLine
 10
1538.500646642736
 20
791.3374947212839
 30
0.0
 11
1530.014945365288
 21
799.8231959987334
 31
0.0
  0
LINE
  5
149
330
1F
100
AcDbEntity
  8
2-1
  6
Continuous
 62
     2
370
     9
100
AcDbLine
 10
1538.500646642736
 20
791.3374947212839
 30
0.0
 11
1467.137517155828
 21
719.974365234375
 31
0.0
  0
LINE
  5
14A
330
1F
100
AcDbEntity
  8
2-1
  6
Continuous
 62
     2
370
     9
100
AcDbLine
 10
1553.951531487542
 20
804.8098507442992
 30
0.0
 11
1538.500646642736
 21
791.3374947212839
 31
0.0
  0
LINE
  5
14B
330
1F
100
AcDbEntity
  8
2-1
  6
Continuous
 62
     2
370
     9
100
AcDbLine
 10
1570.728693781673
 20
844.7414418813346
 30
0.0
 11
1530.014945365288
 21
799.8231959987334
 31
0.0
  0
LINE
  5
14C
330
1F
100
AcDbEntity
  8
2-1
  6
Continuous
 62
     2
370
     9
100
AcDbLine
 10
1573.837775153083
 20
520.7373046875
 30
0.0
 11
1573.837775153083
 21
854.6494272592906
 31
0.0
  0
LINE
  5
14D
330
1F
100
AcDbEntity
  8
2-1
  6
Continuous
 62
     2
370
     9
100
AcDbLine
 10
1503.827894056166
 20
863.649803367821
 30
0.0
 11
1422.44122479413
 21
777.5486631651182
 31
0.0
  0
LINE
  5
14E
330
1F
100
AcDbEntity
  8
2-1
  6
Continuous
 62
     2
370
     9
100
AcDbLine
 10
1415.16674144848
 20
781.1407470703125
 30
0.0
 11
1502.869064743455
 21
868.8428229254646
 31
0.0
  0
LINE
  5
14F
330
1F
100
AcDbEntity
  8
2-1
  6
Continuous
 62
     2
370
     9
100
AcDbLine
 10
1357.887886665963
 20
836.9983075116133
 30
0.0
 11
1425.364231418919
 21
904.4741573849242
 31
0.0
  0
LINE
  5
150
330
1F
100
AcDbEntity
  8
2-1
  6
Continuous
 62
     2
370
     9
100
AcDbLine
 10
1413.587085620777
 20
944.296875
 30
0.0
 11
1146.277845228041
 21
944.296380120355
 31
0.0
  0
LINE
  5
151
330
1F
100
AcDbEntity
  8
2-1
  6
Continuous
 62
     2
370
     9
100
AcDbLine
 10
1422.072539458404
 20
923.8118269636825
 30
0.0
 11
1342.813852671031
 21
844.5521504170188
 31
0.0
  0
LINE
  5
152
330
1F
100
AcDbEntity
  8
2-1
  6
Continuous
 62
     2
370
     9
100
AcDbLine
 10
1467.328540698902
 20
940.7824871991133
 30
0.0
 11
1361.700192013303
 21
835.1541385135135
 31
0.0
  0
LINE
  5
153
330
1F
100
AcDbEntity
  8
2-1
  6
Continuous
 62
     2
370
     9
100
AcDbLine
 10
1475.813499656884
 20
944.296875
 30
0.0
 11
1480.189967799831
 21
944.296875
 31
0.0
  0
LINE
  5
154
330
1F
100
AcDbEntity
  8
2-1
  6
Continuous
 62
     2
370
     9
100
AcDbLine
 10
1416.87853014147
 20
912.9598586623734
 30
0.0
 11
1425.364231418919
 21
904.4741573849242
 31
0.0
  0
LINE
  5
155
330
1F
100
AcDbEntity
  8
2-1
  6
Continuous
 62
     2
370
     9
100
AcDbLine
 10
1416.87853014147
 20
912.9598586623734
 30
0.0
 11
1345.514905774916
 21
841.5964817356419
 31
0.0
  0
LINE
  5
156
330
1F
100
AcDbEntity
  8
2-1
  6
Continuous
 62
     2
370
     9
100
AcDbLine
 10
1430.350886164485
 20
928.4107435071792
 30
0.0
 11
1416.87853014147
 21
912.9598586623734
 31
0.0
  0
LINE
  5
157
330
1F
100
AcDbEntity
  8
2-1
  6
Continuous
 62
     2
370
     9
100
AcDbLine
 10
1470.281982421875
 20
945.1884006809544
 30
0.0
 11
1425.364231418919
 21
904.4741573849242
 31
0.0
  0
LINE
  5
158
330
1F
100
AcDbEntity
  8
2-1
  6
Continuous
 62
     2
370
     9
100
AcDbLine
 10
1146.277845228041
 20
948.2964922930745
 30
0.0
 11
1480.189967799831
 21
948.2972346125425
 31
0.0
  0
LINE
  5
159
330
1F
100
AcDbEntity
  8
2-1
  6
Continuous
 62
     2
370
     9
100
AcDbLine
 10
1489.190343908361
 20
878.2876009554477
 30
0.0
 11
1403.089451145482
 21
796.9004368137669
 31
0.0
  0
LINE
  5
15A
330
1F
100
AcDbEntity
  8
2-1
  6
Continuous
 62
     2
370
     9
100
AcDbLine
 10
1406.681287610853
 20
789.6262009079394
 30
0.0
 11
1494.383363466005
 21
877.3285242029141
 31
0.0
  0
LINE
  5
15B
330
1F
100
AcDbEntity
  8
2-1
  6
Continuous
 62
     2
370
     9
100
AcDbLine
 10
1507.837656381968
 20
970.2971092430323
 30
0.0
 11
567.8380192937078
 21
970.2971092430323
 31
0.0
  0
LINE
  5
15C
330
1F
100
AcDbEntity
  8
2-1
  6
Continuous
 62
     2
370
     9
100
AcDbLine
 10
1507.837656381968
 20
972.2971653293919
 30
0.0
 11
567.8380192937078
 21
972.2971653293919
 31
0.0
  0
LINE
  5
15D
330
1F
100
AcDbEntity
  8
2-1
  6
Continuous
 62
     2
370
     9
100
AcDbLine
 10
539.499478726774
 20
783.3555809227198
 30
0.0
 11
526.3233081714526
 21
796.5317514780406
 31
0.0
  0
LINE
  5
15E
330
1F
100
AcDbEntity
  8
2-1
  6
Continuous
 62
     2
370
     9
100
AcDbLine
 10
539.499478726774
 20
766.3856630067568
 30
0.0
 11
526.6249373152453
 21
753.5108741554054
 31
0.0
  0
LINE
  5
15F
330
1F
100
AcDbEntity
  8
2-1
  6
Continuous
 62
     2
370
     9
100
AcDbLine
 10
581.926253035262
 20
723.9591361380915
 30
0.0
 11
569.0514641839104
 21
711.0843472867401
 31
0.0
  0
LINE
  5
160
330
1F
100
AcDbEntity
  8
2-1
  6
Continuous
 62
     2
370
     9
100
AcDbLine
 10
598.8969132706927
 20
723.9588886982688
 30
0.0
 11
605.5827372782943
 21
717.2730646906675
 31
0.0
  0
LINE
  5
161
330
1F
100
AcDbEntity
  8
2-1
  6
Continuous
 62
     2
370
     9
100
AcDbLine
 10
542.8938582136828
 20
764.1228258287586
 30
0.0
 11
529.4531744879646
 21
750.682636982686
 31
0.0
  0
LINE
  5
162
330
1F
100
AcDbEntity
  8
2-1
  6
Continuous
 62
     2
370
     9
100
AcDbLine
 10
579.6634158572635
 20
727.353020745355
 30
0.0
 11
566.2232270111912
 21
713.9125844594596
 31
0.0
  0
LINE
  5
163
330
1F
100
AcDbEntity
  8
2-1
  6
Continuous
 62
     2
370
     9
100
AcDbLine
 10
542.8933633340375
 20
781.0932386243667
 30
0.0
 11
596.6338286528719
 21
727.3527733055323
 31
0.0
  0
LINE
  5
164
330
1F
100
AcDbEntity
  8
2-1
  6
JWW_CENTER1
 62
     2
370
     9
100
AcDbLine
 10
516.117900126689
 20
887.1454517261404
 30
0.0
 11
562.9896834089953
 21
934.017235008446
 31
0.0
  0
LINE
  5
165
330
1F
100
AcDbEntity
  8
2-1
  6
JWW_CENTER1
 62
     2
370
     9
100
AcDbLine
 10
1512.685992266681
 20
887.1454517261404
 30
0.0
 11
1559.557528109164
 21
934.017235008446
 31
0.0
  0
LINE
  5
166
330
1F
100
AcDbEntity
  8
2-1
  6
JWW_CENTER1
 62
     2
370
     9
100
AcDbLine
 10
1559.557775548986
 20
887.1454517261404
 30
0.0
 11
1512.685992266681
 21
934.017235008446
 31
0.0
  0
LINE
  5
167
330
1F
100
AcDbEntity
  8
2-1
  6
Continuous
 62
     2
370
     9
100
AcDbLine
 10
479.8380258921031
 20
-57.70276868665519
 30
0.0
 11
479.8380258921031
 21
412.2972972972974
 31
0.0
  0
LINE
  5
168
330
1F
100
AcDbEntity
  8
2-1
  6
Continuous
 62
     2
370
     9
100
AcDbLine
 10
613.1365801836995
 20
92.2472484691724
 30
0.0
 11
545.6609777502115
 21
24.77139859586146
 31
0.0
  0
LINE
  5
169
330
1F
100
AcDbEntity
  8
2-1
  6
Continuous
 62
     2
370
     9
100
AcDbLine
 10
505.8382601351354
 20
36.54804951435807
 30
0.0
 11
505.8382601351354
 21
303.8572899070948
 31
0.0
  0
LINE
  5
16A
330
1F
100
AcDbEntity
  8
2-1
  6
Continuous
 62
     2
370
     9
100
AcDbLine
 10
509.3526479360219
 20
-17.19315812394427
 30
0.0
 11
614.9809966216219
 21
88.43519056165547
 31
0.0
  0
LINE
  5
16B
330
1F
100
AcDbEntity
  8
2-1
  6
Continuous
 62
     2
370
     9
100
AcDbLine
 10
505.8382601351354
 20
-25.67811708192551
 30
0.0
 11
505.8382601351354
 21
-30.05483266469582
 31
0.0
  0
LINE
  5
16C
330
1F
100
AcDbEntity
  8
2-1
  6
Continuous
 62
     2
370
     9
100
AcDbLine
 10
537.175276472762
 20
33.25709987331095
 30
0.0
 11
545.6609777502115
 21
24.77139859586146
 31
0.0
  0
LINE
  5
16D
330
1F
100
AcDbEntity
  8
2-1
  6
Continuous
 62
     2
370
     9
100
AcDbLine
 10
537.175276472762
 20
33.25709987331095
 30
0.0
 11
608.5381585198479
 21
104.6202293602198
 31
0.0
  0
LINE
  5
16E
330
1F
100
AcDbEntity
  8
2-1
  6
Continuous
 62
     2
370
     9
100
AcDbLine
 10
521.7243916279563
 20
19.78474385029557
 30
0.0
 11
537.175276472762
 21
33.25709987331095
 31
0.0
  0
LINE
  5
16F
330
1F
100
AcDbEntity
  8
2-1
  6
Continuous
 62
     2
370
     9
100
AcDbLine
 10
504.9469818940037
 20
-20.14684728673984
 30
0.0
 11
545.6609777502115
 21
24.77139859586146
 31
0.0
  0
LINE
  5
170
330
1F
100
AcDbEntity
  8
2-1
  6
Continuous
 62
     2
370
     9
100
AcDbLine
 10
501.8379005225933
 20
303.8572899070948
 30
0.0
 11
501.8379005225933
 21
-30.05483266469582
 31
0.0
  0
LINE
  5
171
330
1F
100
AcDbEntity
  8
2-1
  6
Continuous
 62
     2
370
     9
100
AcDbLine
 10
571.8477816195104
 20
-39.0552087732263
 30
0.0
 11
653.2344508815459
 21
47.0459314294763
 31
0.0
  0
LINE
  5
172
330
1F
100
AcDbEntity
  8
2-1
  6
Continuous
 62
     2
370
     9
100
AcDbLine
 10
660.5089342271958
 20
43.45384752428231
 30
0.0
 11
572.8068583720443
 21
-44.24822833086978
 31
0.0
  0
LINE
  5
173
330
1F
100
AcDbEntity
  8
2-1
  6
Continuous
 62
     2
370
     9
100
AcDbLine
 10
717.787789009713
 20
-12.40371291701848
 30
0.0
 11
650.3116916965797
 21
-79.87956279032943
 31
0.0
  0
LINE
  5
174
330
1F
100
AcDbEntity
  8
2-1
  6
Continuous
 62
     2
370
     9
100
AcDbLine
 10
662.088590054899
 20
-119.7022804054052
 30
0.0
 11
929.3980778874578
 21
-119.7017855257602
 31
0.0
  0
LINE
  5
175
330
1F
100
AcDbEntity
  8
2-1
  6
Continuous
 62
     2
370
     9
100
AcDbLine
 10
653.6031362172719
 20
-99.21723236908775
 30
0.0
 11
732.8618230046453
 21
-19.95755582242396
 31
0.0
  0
LINE
  5
176
330
1F
100
AcDbEntity
  8
2-1
  6
Continuous
 62
     2
370
     9
100
AcDbLine
 10
608.3473824165964
 20
-116.1878926045185
 30
0.0
 11
713.9757311021958
 21
-10.55954391891873
 31
0.0
  0
LINE
  5
177
330
1F
100
AcDbEntity
  8
2-1
  6
Continuous
 62
     2
370
     9
100
AcDbLine
 10
599.8624234586151
 20
-119.7022804054052
 30
0.0
 11
595.4857078758448
 21
-119.7022804054052
 31
0.0
  0
LINE
  5
178
330
1F
100
AcDbEntity
  8
2-1
  6
Continuous
 62
     2
370
     9
100
AcDbLine
 10
658.7971455342063
 20
-88.36526406777864
 30
0.0
 11
650.3116916965797
 21
-79.87956279032943
 31
0.0
  0
LINE
  5
179
330
1F
100
AcDbEntity
  8
2-1
  6
Continuous
 62
     2
370
     9
100
AcDbLine
 10
658.7971455342063
 20
-88.36526406777864
 30
0.0
 11
730.1607699007604
 21
-17.00188714104712
 31
0.0
  0
LINE
  5
17A
330
1F
100
AcDbEntity
  8
2-1
  6
Continuous
 62
     2
370
     9
100
AcDbLine
 10
645.3250369510135
 20
-103.8161489125844
 30
0.0
 11
658.7971455342063
 21
-88.36526406777864
 31
0.0
  0
LINE
  5
17B
330
1F
100
AcDbEntity
  8
2-1
  6
Continuous
 62
     2
370
     9
100
AcDbLine
 10
605.3936932538011
 20
-120.5938060863596
 30
0.0
 11
650.3116916965797
 21
-79.87956279032943
 31
0.0
  0
LINE
  5
17C
330
1F
100
AcDbEntity
  8
2-1
  6
Continuous
 62
     2
370
     9
100
AcDbLine
 10
929.3980778874578
 20
-123.7018976984797
 30
0.0
 11
595.4857078758448
 21
-123.7026400179477
 31
0.0
  0
LINE
  5
17D
330
1F
100
AcDbEntity
  8
2-1
  6
Continuous
 62
     2
370
     9
100
AcDbLine
 10
586.4853317673146
 20
-53.69300636085285
 30
0.0
 11
672.5862245301943
 21
27.69415778082788
 31
0.0
  0
LINE
  5
17E
330
1F
100
AcDbEntity
  8
2-1
  6
Continuous
 62
     2
370
     9
100
AcDbLine
 10
668.9946355046453
 20
34.96839368665547
 30
0.0
 11
581.2923122096709
 21
-52.73392960831927
 31
0.0
  0
LINE
  5
17F
330
1F
100
AcDbEntity
  8
2-1
  6
Continuous
 62
     2
370
     9
100
AcDbLine
 10
1595.837649783573
 20
-57.70276868665519
 30
0.0
 11
1595.837649783573
 21
412.2972972972974
 31
0.0
  0
LINE
  5
180
330
1F
100
AcDbEntity
  8
2-1
  6
Continuous
 62
     2
370
     9
100
AcDbLine
 10
1462.539095491977
 20
92.2472484691724
 30
0.0
 11
1530.014945365288
 21
24.77139859586146
 31
0.0
  0
LINE
  5
181
330
1F
100
AcDbEntity
  8
2-1
  6
Continuous
 62
     2
370
     9
100
AcDbLine
 10
1569.837415540541
 20
36.54804951435807
 30
0.0
 11
1569.837415540541
 21
303.8572899070948
 31
0.0
  0
LINE
  5
182
330
1F
100
AcDbEntity
  8
2-1
  6
Continuous
 62
     2
370
     9
100
AcDbLine
 10
1549.352367504223
 20
28.06284311655418
 30
0.0
 11
1470.093185837205
 21
107.3215299039273
 31
0.0
  0
LINE
  5
183
330
1F
100
AcDbEntity
  8
2-1
  6
Continuous
 62
     2
370
     9
100
AcDbLine
 10
1566.323027739654
 20
-17.19315812394427
 30
0.0
 11
1460.694926493877
 21
88.43519056165547
 31
0.0
  0
LINE
  5
184
330
1F
100
AcDbEntity
  8
2-1
  6
Continuous
 62
     2
370
     9
100
AcDbLine
 10
1569.837415540541
 20
-25.67811708192551
 30
0.0
 11
1569.837415540541
 21
-30.05483266469582
 31
0.0
  0
LINE
  5
185
330
1F
100
AcDbEntity
  8
2-1
  6
Continuous
 62
     2
370
     9
100
AcDbLine
 10
1538.500646642736
 20
33.25709987331095
 30
0.0
 11
1530.014945365288
 21
24.77139859586146
 31
0.0
  0
LINE
  5
186
330
1F
100
AcDbEntity
  8
2-1
  6
Continuous
 62
     2
370
     9
100
AcDbLine
 10
1538.500646642736
 20
33.25709987331095
 30
0.0
 11
1467.137517155828
 21
104.6202293602198
 31
0.0
  0
LINE
  5
187
330
1F
100
AcDbEntity
  8
2-1
  6
Continuous
 62
     2
370
     9
100
AcDbLine
 10
1553.951531487542
 20
19.78474385029557
 30
0.0
 11
1538.500646642736
 21
33.25709987331095
 31
0.0
  0
LINE
  5
188
330
1F
100
AcDbEntity
  8
2-1
  6
Continuous
 62
     2
370
     9
100
AcDbLine
 10
1570.728693781673
 20
-20.14684728673984
 30
0.0
 11
1530.014945365288
 21
24.77139859586146
 31
0.0
  0
LINE
  5
189
330
1F
100
AcDbEntity
  8
2-1
  6
Continuous
 62
     2
370
     9
100
AcDbLine
 10
1573.837775153083
 20
303.8572899070948
 30
0.0
 11
1573.837775153083
 21
-30.05483266469582
 31
0.0
  0
LINE
  5
18A
330
1F
100
AcDbEntity
  8
2-1
  6
Continuous
 62
     2
370
     9
100
AcDbLine
 10
1503.827894056166
 20
-39.0552087732263
 30
0.0
 11
1422.44122479413
 21
47.0459314294763
 31
0.0
  0
LINE
  5
18B
330
1F
100
AcDbEntity
  8
2-1
  6
Continuous
 62
     2
370
     9
100
AcDbLine
 10
1415.16674144848
 20
43.45384752428231
 30
0.0
 11
1502.869064743455
 21
-44.24822833086978
 31
0.0
  0
LINE
  5
18C
330
1F
100
AcDbEntity
  8
2-1
  6
Continuous
 62
     2
370
     9
100
AcDbLine
 10
1357.887886665963
 20
-12.40371291701848
 30
0.0
 11
1425.364231418919
 21
-79.87956279032943
 31
0.0
  0
LINE
  5
18D
330
1F
100
AcDbEntity
  8
2-1
  6
Continuous
 62
     2
370
     9
100
AcDbLine
 10
1413.587085620777
 20
-119.7022804054052
 30
0.0
 11
1146.277845228041
 21
-119.7017855257602
 31
0.0
  0
LINE
  5
18E
330
1F
100
AcDbEntity
  8
2-1
  6
Continuous
 62
     2
370
     9
100
AcDbLine
 10
1422.072539458404
 20
-99.21723236908775
 30
0.0
 11
1342.813852671031
 21
-19.95755582242396
 31
0.0
  0
LINE
  5
18F
330
1F
100
AcDbEntity
  8
2-1
  6
Continuous
 62
     2
370
     9
100
AcDbLine
 10
1467.328540698902
 20
-116.1878926045185
 30
0.0
 11
1361.700192013303
 21
-10.55954391891873
 31
0.0
  0
LINE
  5
190
330
1F
100
AcDbEntity
  8
2-1
  6
Continuous
 62
     2
370
     9
100
AcDbLine
 10
1475.813499656884
 20
-119.7022804054052
 30
0.0
 11
1480.189967799831
 21
-119.7022804054052
 31
0.0
  0
LINE
  5
191
330
1F
100
AcDbEntity
  8
2-1
  6
Continuous
 62
     2
370
     9
100
AcDbLine
 10
1416.87853014147
 20
-88.36526406777864
 30
0.0
 11
1425.364231418919
 21
-79.87956279032943
 31
0.0
  0
LINE
  5
192
330
1F
100
AcDbEntity
  8
2-1
  6
Continuous
 62
     2
370
     9
100
AcDbLine
 10
1416.87853014147
 20
-88.36526406777864
 30
0.0
 11
1345.514905774916
 21
-17.00188714104712
 31
0.0
  0
LINE
  5
193
330
1F
100
AcDbEntity
  8
2-1
  6
Continuous
 62
     2
370
     9
100
AcDbLine
 10
1430.350886164485
 20
-103.8161489125844
 30
0.0
 11
1416.87853014147
 21
-88.36526406777864
 31
0.0
  0
LINE
  5
194
330
1F
100
AcDbEntity
  8
2-1
  6
Continuous
 62
     2
370
     9
100
AcDbLine
 10
1470.281982421875
 20
-120.5938060863596
 30
0.0
 11
1425.364231418919
 21
-79.87956279032943
 31
0.0
  0
LINE
  5
195
330
1F
100
AcDbEntity
  8
2-1
  6
Continuous
 62
     2
370
     9
100
AcDbLine
 10
1146.277845228041
 20
-123.7018976984797
 30
0.0
 11
1480.189967799831
 21
-123.7026400179477
 31
0.0
  0
LINE
  5
196
330
1F
100
AcDbEntity
  8
2-1
  6
Continuous
 62
     2
370
     9
100
AcDbLine
 10
1489.190343908361
 20
-53.69300636085285
 30
0.0
 11
1403.089451145482
 21
27.69415778082788
 31
0.0
  0
LINE
  5
197
330
1F
100
AcDbEntity
  8
2-1
  6
Continuous
 62
     2
370
     9
100
AcDbLine
 10
1406.681287610853
 20
34.96839368665547
 30
0.0
 11
1494.383363466005
 21
-52.73392960831927
 31
0.0
  0
LINE
  5
198
330
1F
100
AcDbEntity
  8
2-1
  6
Continuous
 62
     2
370
     9
100
AcDbLine
 10
1507.837656381968
 20
-145.7025146484375
 30
0.0
 11
567.8380192937078
 21
-145.7025146484375
 31
0.0
  0
LINE
  5
199
330
1F
100
AcDbEntity
  8
2-1
  6
Continuous
 62
     2
370
     9
100
AcDbLine
 10
1507.837656381968
 20
-147.7025707347971
 30
0.0
 11
567.8380192937078
 21
-147.7025707347971
 31
0.0
  0
LINE
  5
19A
330
1F
100
AcDbEntity
  8
2-1
  6
JWW_CENTER1
 62
     2
370
     9
100
AcDbLine
 10
562.9896834089953
 20
-62.55085713154557
 30
0.0
 11
516.118147566512
 21
-109.4226404138513
 31
0.0
  0
LINE
  5
19B
330
1F
100
AcDbEntity
  8
2-1
  6
JWW_CENTER1
 62
     2
370
     9
100
AcDbLine
 10
516.117900126689
 20
-62.55085713154557
 30
0.0
 11
562.9896834089953
 21
-109.4226404138513
 31
0.0
  0
LINE
  5
19C
330
1F
100
AcDbEntity
  8
2-1
  6
JWW_CENTER1
 62
     2
370
     9
100
AcDbLine
 10
1512.685992266681
 20
-62.55085713154557
 30
0.0
 11
1559.557528109164
 21
-109.4226404138513
 31
0.0
  0
LINE
  5
19D
330
1F
100
AcDbEntity
  8
2-1
  6
JWW_CENTER1
 62
     2
370
     9
100
AcDbLine
 10
1559.557775548986
 20
-62.55085713154557
 30
0.0
 11
1512.685992266681
 21
-109.4226404138513
 31
0.0
  0
LINE
  5
19E
330
1F
100
AcDbEntity
  8
2-1
  6
Continuous
 62
     2
370
     9
100
AcDbLine
 10
605.5827372782943
 20
107.3215299039273
 30
0.0
 11
526.3233081714526
 21
28.06284311655418
 31
0.0
  0
LINE
  5
19F
330
1F
100
AcDbEntity
  8
2-1
  6
JWW_CENTER1
 62
     2
370
     9
100
AcDbLine
 10
786.0148661845443
 20
664.1227433488177
 30
0.0
 11
427.7017129434122
 21
1022.432679872255
 31
0.0
  0
LINE
  5
1A0
330
1F
100
AcDbEntity
  8
2-4
  6
Continuous
 62
     7
370
     9
100
AcDbLine
 10
395.2930347339529
 20
1060.734632337416
 30
0.0
 11
389.4009976773651
 21
1054.842100401183
 31
0.0
  0
LINE
  5
1A1
330
1F
100
AcDbEntity
  8
2-4
  6
Continuous
 62
     7
370
     9
100
AcDbLine
 10
390.9333924989443
 20
1056.374742662585
 30
0.0
 11
399.6526769689612
 21
1056.374742662585
 31
0.0
  0
LINE
  5
1A2
330
1F
100
AcDbEntity
  8
2-1
  6
Continuous
 62
     2
370
     9
100
AcDbLine
 10
477.8379698057432
 20
882.29736328125
 30
0.0
 11
477.8379698057432
 21
-57.70276868665519
 31
0.0
  0
LINE
  5
1A3
330
1F
100
AcDbEntity
  8
2-1
  6
Continuous
 62
     2
370
     9
100
AcDbLine
 10
1597.837705869933
 20
-57.70276868665519
 30
0.0
 11
1597.837705869933
 21
882.29736328125
 31
0.0
  0
ARC
  5
1A4
330
1F
100
AcDbEntity
  8
1-8
  6
Continuous
 62
     4
370
     9
100
AcDbCircle
 10
-1124.078534100507
 20
618.4574766416807
 30
0.0
 40
19.51515159091434
100
AcDbArc
 50
45.36129760742188
 51
134.6389617919922
  0
ARC
  5
1A5
330
1F
100
AcDbEntity
  8
1-8
  6
Continuous
 62
     4
370
     9
100
AcDbCircle
 10
-1083.04063951647
 20
568.8331727723818
 30
0.0
 40
69.13950378830368
100
AcDbArc
 50
66.71980285644531
 51
113.2803039550781
  0
ARC
  5
1A6
330
1F
100
AcDbEntity
  8
1-8
  6
Continuous
 62
     4
370
     9
100
AcDbCircle
 10
-1042.002744932433
 20
618.4574766416807
 30
0.0
 40
19.51530430767987
100
AcDbArc
 50
45.36129760742188
 51
134.63818359375
  0
ARC
  5
1A7
330
1F
100
AcDbEntity
  8
1-8
  6
Continuous
 62
     4
370
     9
100
AcDbCircle
 10
-1124.078534100507
 20
497.4881063925255
 30
0.0
 40
19.51515159091434
100
AcDbArc
 50
225.3610382080078
 51
314.6387023925781
  0
ARC
  5
1A8
330
1F
100
AcDbEntity
  8
1-8
  6
Continuous
 62
     4
370
     9
100
AcDbCircle
 10
-1083.04063951647
 20
547.1124102618245
 30
0.0
 40
69.13950378830368
100
AcDbArc
 50
246.7196960449218
 51
293.2801971435547
  0
ARC
  5
1A9
330
1F
100
AcDbEntity
  8
1-8
  6
Continuous
 62
     4
370
     9
100
AcDbCircle
 10
-1042.002744932433
 20
497.4881063925255
 30
0.0
 40
19.51530430767987
100
AcDbArc
 50
225.36181640625
 51
314.6387023925781
  0
ELLIPSE
  5
1AA
330
1F
100
AcDbEntity
  8
1-8
  6
Continuous
 62
     6
370
     5
100
AcDbEllipse
 10
-488.2170806059966
 20
824.852476377745
 30
0.0
 11
-8.92941255640666
 21
50.6412150910152
 31
0.0
210
0.0
220
0.0
230
1.0
 40
0.189
 41
0.0
 42
6.283185307179586
  0
CIRCLE
  5
1AB
330
1F
100
AcDbEntity
  8
2-0
  6
Continuous
 62
     4
370
     9
100
AcDbCircle
 10
539.5539154877537
 20
-85.98687249260962
 30
0.0
 40
11.99999918808808
  0
CIRCLE
  5
1AC
330
1F
100
AcDbEntity
  8
2-0
  6
Continuous
 62
     4
370
     9
100
AcDbCircle
 10
539.5816287478885
 20
-85.95891179265209
 30
0.0
 40
19.00003407452558
  0
CIRCLE
  5
1AD
330
1F
100
AcDbEntity
  8
2-0
  6
Continuous
 62
     4
370
     9
100
AcDbCircle
 10
539.5539154877537
 20
-85.98687249260962
 30
0.0
 40
10.10599909601985
  0
CIRCLE
  5
1AE
330
1F
100
AcDbEntity
  8
2-0
  6
Continuous
 62
     4
370
     9
100
AcDbCircle
 10
1536.121760187923
 20
-85.98687249260962
 30
0.0
 40
11.99999918808808
  0
CIRCLE
  5
1AF
330
1F
100
AcDbEntity
  8
2-0
  6
Continuous
 62
     4
370
     9
100
AcDbCircle
 10
1536.094046927788
 20
-85.95891179265209
 30
0.0
 40
19.00003407452558
  0
CIRCLE
  5
1B0
330
1F
100
AcDbEntity
  8
2-0
  6
Continuous
 62
     4
370
     9
100
AcDbCircle
 10
1536.121760187923
 20
-85.98687249260962
 30
0.0
 40
10.10599909601985
  0
CIRCLE
  5
1B1
330
1F
100
AcDbEntity
  8
2-0
  6
Continuous
 62
     4
370
     9
100
AcDbCircle
 10
1536.121760187923
 20
910.5814670872044
 30
0.0
 40
11.99999918808808
  0
CIRCLE
  5
1B2
330
1F
100
AcDbEntity
  8
2-0
  6
Continuous
 62
     4
370
     9
100
AcDbCircle
 10
1536.094046927788
 20
910.5532589474242
 30
0.0
 40
19.00003407452558
  0
CIRCLE
  5
1B3
330
1F
100
AcDbEntity
  8
2-0
  6
Continuous
 62
     4
370
     9
100
AcDbCircle
 10
1536.121760187923
 20
910.5814670872044
 30
0.0
 40
10.10599909601985
  0
CIRCLE
  5
1B4
330
1F
100
AcDbEntity
  8
2-0
  6
Continuous
 62
     4
370
     9
100
AcDbCircle
 10
539.5539154877537
 20
910.5814670872044
 30
0.0
 40
11.99999918808808
  0
CIRCLE
  5
1B5
330
1F
100
AcDbEntity
  8
2-0
  6
Continuous
 62
     4
370
     9
100
AcDbCircle
 10
539.5816287478885
 20
910.5532589474242
 30
0.0
 40
19.00003407452558
  0
CIRCLE
  5
1B6
330
1F
100
AcDbEntity
  8
2-0
  6
Continuous
 62
     4
370
     9
100
AcDbCircle
 10
539.5539154877537
 20
910.5814670872044
 30
0.0
 40
10.10599909601985
  0
ARC
  5
1B7
330
1F
100
AcDbEntity
  8
1-0
  6
Continuous
 62
     2
370
     9
100
AcDbCircle
 10
-515.0171640756967
 20
592.9729069890203
 30
0.0
 40
25.00000128874908
100
AcDbArc
 50
183.5000305175782
 51
270.0
  0
ARC
  5
1B8
330
1F
100
AcDbEntity
  8
1-0
  6
Continuous
 62
     2
370
     9
100
AcDbCircle
 10
-1198.70415764886
 20
570.4729564769849
 30
0.0
 40
5.000000064437454
100
AcDbArc
 50
90.0
 51
171.8692932128906
  0
ARC
  5
1B9
330
1F
100
AcDbEntity
  8
1-0
  6
Continuous
 62
     2
370
     9
100
AcDbCircle
 10
-1136.124894425676
 20
565.4729399809967
 30
0.0
 40
10.00000012887491
100
AcDbArc
 50
12.09503173828125
 51
90.0
  0
ARC
  5
1BA
330
1F
100
AcDbEntity
  8
1-0
  6
Continuous
 62
     2
370
     9
100
AcDbCircle
 10
-1029.956632047086
 20
565.4729399809967
 30
0.0
 40
10.00000012887491
100
AcDbArc
 50
90.0
 51
167.9049682617188
  0
ARC
  5
1BB
330
1F
100
AcDbEntity
  8
1-0
  6
Continuous
 62
     2
370
     9
100
AcDbCircle
 10
-473.3028927364865
 20
592.9729069890203
 30
0.0
 40
25.00000128874908
100
AcDbArc
 50
270.0
 51
356.5840148925781
  0
ARC
  5
1BC
330
1F
100
AcDbEntity
  8
1-0
  6
Continuous
 62
     2
370
     9
100
AcDbCircle
 10
-572.2204259923988
 20
785.4729234850086
 30
0.0
 40
5.000000064437454
100
AcDbArc
 50
90.0
 51
177.3049468994141
  0
ARC
  5
1BD
330
1F
100
AcDbEntity
  8
1-0
  6
Continuous
 62
     2
370
     9
100
AcDbCircle
 10
-556.6977835990286
 20
785.4729234850086
 30
0.0
 40
5.000000064437454
100
AcDbArc
 50
3.456985473632813
 51
89.99999999999999
  0
ARC
  5
1BE
330
1F
100
AcDbEntity
  8
1-0
  6
Continuous
 62
     2
370
     9
100
AcDbCircle
 10
-437.2802321975294
 20
692.9729894689613
 30
0.0
 40
5.000000064437454
100
AcDbArc
 50
90.0
 51
176.5842742919922
  0
ARC
  5
1BF
330
1F
100
AcDbEntity
  8
1-0
  6
Continuous
 62
     2
370
     9
100
AcDbCircle
 10
-426.6832506334458
 20
692.9729894689613
 30
0.0
 40
5.000000064437454
100
AcDbArc
 50
3.633270263671875
 51
90.0
  0
ARC
  5
1C0
330
1F
100
AcDbEntity
  8
1-8
  6
Continuous
 62
     6
370
     5
100
AcDbCircle
 10
-478.9231171479096
 20
764.0139523067992
 30
0.0
 40
73.11712213464686
100
AcDbArc
 50
196.1157531738282
 51
349.6722259521485
  0
ARC
  5
1C1
330
1F
100
AcDbEntity
  8
1-8
  6
Continuous
 62
     6
370
     5
100
AcDbCircle
 10
-493.4081206450591
 20
872.0845320418075
 30
0.0
 40
104.5278368769465
100
AcDbArc
 50
34.23458862304688
 51
231.3305816650391
  0
ARC
  5
1C2
330
1F
100
AcDbEntity
  8
2-1
  6
Continuous
 62
     2
370
     9
100
AcDbCircle
 10
567.8380192937078
 20
882.29736328125
 30
0.0
 40
89.99999536050333
100
AcDbArc
 50
90.0
 51
180.0
  0
ARC
  5
1C3
330
1F
100
AcDbEntity
  8
2-1
  6
Continuous
 62
     2
370
     9
100
AcDbCircle
 10
567.8380192937078
 20
882.29736328125
 30
0.0
 40
88.0000011340992
100
AcDbArc
 50
90.0
 51
180.0
  0
ARC
  5
1C4
330
1F
100
AcDbEntity
  8
2-1
  6
Continuous
 62
     2
370
     9
100
AcDbCircle
 10
1037.837837837838
 20
412.2972972972974
 30
0.0
 40
504.9999340160473
100
AcDbArc
 50
0.0
 51
180.0
  0
ARC
  5
1C5
330
1F
100
AcDbEntity
  8
2-1
  6
Continuous
 62
     2
370
     9
100
AcDbCircle
 10
1037.837837837838
 20
412.2972972972974
 30
0.0
 40
514.999905148068
100
AcDbArc
 50
0.0
 51
180.0
  0
ARC
  5
1C6
330
1F
100
AcDbEntity
  8
2-1
  6
Continuous
 62
     2
370
     9
100
AcDbCircle
 10
517.838101773649
 20
520.7373046875
 30
0.0
 40
11.99999918808808
100
AcDbArc
 50
180.0
 51
348.2198944091797
  0
ARC
  5
1C7
330
1F
100
AcDbEntity
  8
2-1
  6
Continuous
 62
     2
370
     9
100
AcDbCircle
 10
517.838101773649
 20
520.7373046875
 30
0.0
 40
15.99999923963805
100
AcDbArc
 50
180.0
 51
308.3911285400391
  0
ARC
  5
1C8
330
1F
100
AcDbEntity
  8
2-1
  6
Continuous
 62
     2
370
     9
100
AcDbCircle
 10
1037.837837837838
 20
412.2972972972974
 30
0.0
 40
518.9998936008762
100
AcDbArc
 50
169.3518676757812
 51
180.0
  0
ARC
  5
1C9
330
1F
100
AcDbEntity
  8
2-1
  6
Continuous
 62
     2
370
     9
100
AcDbCircle
 10
597.0977783203125
 20
708.7878582928633
 30
0.0
 40
11.99999918808808
100
AcDbArc
 50
326.0713653564453
 51
45.00100708007813
  0
ARC
  5
1CA
330
1F
100
AcDbEntity
  8
2-1
  6
Continuous
 62
     2
370
     9
100
AcDbCircle
 10
600.0531995618667
 20
711.489158836571
 30
0.0
 40
11.99999918808808
100
AcDbArc
 50
325.6501159667969
 51
45.00100708007813
  0
ARC
  5
1CB
330
1F
100
AcDbEntity
  8
2-1
  6
Continuous
 62
     2
370
     9
100
AcDbCircle
 10
623.4657081397808
 20
744.6446104307432
 30
0.0
 40
11.99999918808808
100
AcDbArc
 50
225.0
 51
321.2692565917969
  0
ARC
  5
1CC
330
1F
100
AcDbEntity
  8
2-1
  6
Continuous
 62
     2
370
     9
100
AcDbCircle
 10
621.6215391416807
 20
740.832305083404
 30
0.0
 40
11.99999918808808
100
AcDbArc
 50
225.0
 51
321.7139434814454
  0
ARC
  5
1CD
330
1F
100
AcDbEntity
  8
2-1
  6
Continuous
 62
     2
370
     9
100
AcDbCircle
 10
1037.837837837838
 20
412.2972972972974
 30
0.0
 40
518.2557183343012
100
AcDbArc
 50
141.7146759033203
 51
145.6504364013672
  0
ARC
  5
1CE
330
1F
100
AcDbEntity
  8
2-1
  6
Continuous
 62
     2
370
     9
100
AcDbCircle
 10
1037.837837837838
 20
412.2972972972974
 30
0.0
 40
519.1862157873206
100
AcDbArc
 50
146.0708618164063
 51
168.220458984375
  0
ARC
  5
1CF
330
1F
100
AcDbEntity
  8
2-1
  6
Continuous
 62
     2
370
     9
100
AcDbCircle
 10
517.838101773649
 20
788.0465450802367
 30
0.0
 40
11.99999918808808
100
AcDbArc
 50
45.00100708007812
 51
180.0
  0
ARC
  5
1D0
330
1F
100
AcDbEntity
  8
2-1
  6
Continuous
 62
     2
370
     9
100
AcDbCircle
 10
517.838101773649
 20
850.2727116765203
 30
0.0
 40
11.99999918808808
100
AcDbArc
 50
180.0
 51
224.9979858398438
  0
ARC
  5
1D1
330
1F
100
AcDbEntity
  8
2-1
  6
Continuous
 62
     2
370
     9
100
AcDbCircle
 10
517.838101773649
 20
854.6494272592906
 30
0.0
 40
11.99999918808808
100
AcDbArc
 50
68.78007507324219
 51
180.0
  0
ARC
  5
1D2
330
1F
100
AcDbEntity
  8
2-1
  6
Continuous
 62
     2
370
     9
100
AcDbCircle
 10
517.838101773649
 20
854.6494272592906
 30
0.0
 40
15.99999923963805
100
AcDbArc
 50
68.78007507324219
 51
180.0
  0
ARC
  5
1D3
330
1F
100
AcDbEntity
  8
2-1
  6
Continuous
 62
     2
370
     9
100
AcDbCircle
 10
513.8379896009292
 20
795.7654303473396
 30
0.0
 40
11.99999918808808
100
AcDbArc
 50
48.91342163085938
 51
180.0
  0
ARC
  5
1D4
330
1F
100
AcDbEntity
  8
2-1
  6
Continuous
 62
     2
370
     9
100
AcDbCircle
 10
513.8379896009292
 20
852.8010517842063
 30
0.0
 40
11.99999918808808
100
AcDbArc
 50
180.0
 51
222.1906280517578
  0
ARC
  5
1D5
330
1F
100
AcDbEntity
  8
2-1
  6
Continuous
 62
     2
370
     9
100
AcDbCircle
 10
539.5534206081084
 20
910.5817145270271
 30
0.0
 40
47.9999928861051
100
AcDbArc
 50
248.7821655273437
 51
293.1348419189453
  0
ARC
  5
1D6
330
1F
100
AcDbEntity
  8
2-1
  6
Continuous
 62
     2
370
     9
100
AcDbCircle
 10
563.1275073902026
 20
855.4068405563769
 30
0.0
 40
11.99999918808808
100
AcDbArc
 50
43.38784790039062
 51
113.1352233886719
  0
ARC
  5
1D7
330
1F
100
AcDbEntity
  8
2-1
  6
Continuous
 62
     2
370
     9
100
AcDbCircle
 10
564.3216519742401
 20
860.357369087838
 30
0.0
 40
11.99999918808808
100
AcDbArc
 50
45.00201416015625
 51
116.25146484375
  0
ARC
  5
1D8
330
1F
100
AcDbEntity
  8
2-1
  6
Continuous
 62
     2
370
     9
100
AcDbCircle
 10
644.5139292124156
 20
769.3054529138516
 30
0.0
 40
11.99999918808808
100
AcDbArc
 50
317.7703247070312
 51
43.38784790039061
  0
ARC
  5
1D9
330
1F
100
AcDbEntity
  8
2-1
  6
Continuous
 62
     2
370
     9
100
AcDbCircle
 10
1037.837837837838
 20
412.2972972972974
 30
0.0
 40
519.1862157873206
100
AcDbArc
 50
137.7709350585937
 51
141.2686004638672
  0
ARC
  5
1DA
330
1F
100
AcDbEntity
  8
2-1
  6
Continuous
 62
     2
370
     9
100
AcDbCircle
 10
652.0239752692146
 20
772.6555406725086
 30
0.0
 40
11.99999918808808
100
AcDbArc
 50
316.9545288085938
 51
45.00100708007813
  0
ARC
  5
1DB
330
1F
100
AcDbEntity
  8
2-1
  6
Continuous
 62
     2
370
     9
100
AcDbCircle
 10
929.3980778874578
 20
932.2962910420188
 30
0.0
 40
11.99999918808808
100
AcDbArc
 50
281.7801055908203
 51
89.99999999999997
  0
ARC
  5
1DC
330
1F
100
AcDbEntity
  8
2-1
  6
Continuous
 62
     2
370
     9
100
AcDbCircle
 10
929.3980778874578
 20
932.2962910420188
 30
0.0
 40
15.99999923963805
100
AcDbArc
 50
321.6088714599609
 51
89.99999999999997
  0
ARC
  5
1DD
330
1F
100
AcDbEntity
  8
2-1
  6
Continuous
 62
     2
370
     9
100
AcDbCircle
 10
741.3475242820948
 20
853.0368619351776
 30
0.0
 40
11.99999918808808
100
AcDbArc
 50
224.9989929199219
 51
303.9286346435547
  0
ARC
  5
1DE
330
1F
100
AcDbEntity
  8
2-1
  6
Continuous
 62
     2
370
     9
100
AcDbCircle
 10
738.6457288587417
 20
850.0814406936234
 30
0.0
 40
11.99999918808808
100
AcDbArc
 50
224.9989929199219
 51
304.3498840332031
  0
ARC
  5
1DF
330
1F
100
AcDbEntity
  8
2-1
  6
Continuous
 62
     2
370
     9
100
AcDbCircle
 10
705.4905247043922
 20
826.6689321157096
 30
0.0
 40
11.99999918808808
100
AcDbArc
 50
308.7307434082031
 51
44.99999999999999
  0
ARC
  5
1E0
330
1F
100
AcDbEntity
  8
2-1
  6
Continuous
 62
     2
370
     9
100
AcDbCircle
 10
709.3028300517318
 20
828.5133485536318
 30
0.0
 40
11.99999918808808
100
AcDbArc
 50
308.2860565185546
 51
44.99999999999997
  0
ARC
  5
1E1
330
1F
100
AcDbEntity
  8
2-1
  6
Continuous
 62
     2
370
     9
100
AcDbCircle
 10
1037.837342958193
 20
412.2963075380068
 30
0.0
 40
518.2557183343012
100
AcDbArc
 50
124.3495025634765
 51
128.2852630615234
  0
ARC
  5
1E2
330
1F
100
AcDbEntity
  8
2-1
  6
Continuous
 62
     2
370
     9
100
AcDbCircle
 10
1037.837342958193
 20
412.2963075380068
 30
0.0
 40
519.1862157873206
100
AcDbArc
 50
101.7794799804688
 51
123.9290771484375
  0
ARC
  5
1E3
330
1F
100
AcDbEntity
  8
2-1
  6
Continuous
 62
     2
370
     9
100
AcDbCircle
 10
662.088590054899
 20
932.2970333614867
 30
0.0
 40
11.99999918808808
100
AcDbArc
 50
90.0
 51
224.9989929199219
  0
ARC
  5
1E4
330
1F
100
AcDbEntity
  8
2-1
  6
Continuous
 62
     2
370
     9
100
AcDbCircle
 10
599.8624234586151
 20
932.2970333614867
 30
0.0
 40
11.99999918808808
100
AcDbArc
 50
45.00201416015625
 51
90.0
  0
ARC
  5
1E5
330
1F
100
AcDbEntity
  8
2-1
  6
Continuous
 62
     2
370
     9
100
AcDbCircle
 10
595.4857078758448
 20
932.2970333614867
 30
0.0
 40
11.99999918808808
100
AcDbArc
 50
90.0
 51
201.2199249267578
  0
ARC
  5
1E6
330
1F
100
AcDbEntity
  8
2-1
  6
Continuous
 62
     2
370
     9
100
AcDbCircle
 10
595.4857078758448
 20
932.2970333614867
 30
0.0
 40
15.99999923963805
100
AcDbArc
 50
90.0
 51
201.2199249267578
  0
ARC
  5
1E7
330
1F
100
AcDbEntity
  8
2-1
  6
Continuous
 62
     2
370
     9
100
AcDbCircle
 10
654.3694573479729
 20
936.2971455342063
 30
0.0
 40
11.99999918808808
100
AcDbArc
 50
90.0
 51
221.0865783691406
  0
ARC
  5
1E8
330
1F
100
AcDbEntity
  8
2-1
  6
Continuous
 62
     2
370
     9
100
AcDbCircle
 10
597.3340833509292
 20
936.2971455342063
 30
0.0
 40
11.99999918808808
100
AcDbArc
 50
47.80937194824218
 51
90.0
  0
ARC
  5
1E9
330
1F
100
AcDbEntity
  8
2-1
  6
Continuous
 62
     2
370
     9
100
AcDbCircle
 10
539.5534206081084
 20
910.5817145270271
 30
0.0
 40
47.9999928861051
100
AcDbArc
 50
336.8651580810547
 51
21.21783447265625
  0
ARC
  5
1EA
330
1F
100
AcDbEntity
  8
2-1
  6
Continuous
 62
     2
370
     9
100
AcDbCircle
 10
594.7282945787583
 20
887.0081226245779
 30
0.0
 40
11.99999918808808
100
AcDbArc
 50
156.8647766113281
 51
226.6121520996094
  0
ARC
  5
1EB
330
1F
100
AcDbEntity
  8
2-1
  6
Continuous
 62
     2
370
     9
100
AcDbCircle
 10
589.7780134871203
 20
885.8134831608953
 30
0.0
 40
11.99999918808808
100
AcDbArc
 50
153.74853515625
 51
224.9979858398438
  0
ARC
  5
1EC
330
1F
100
AcDbEntity
  8
2-1
  6
Continuous
 62
     2
370
     9
100
AcDbCircle
 10
680.8291873416385
 20
805.6209584828971
 30
0.0
 40
11.99999918808808
100
AcDbArc
 50
226.6121520996093
 51
312.2296752929688
  0
ARC
  5
1ED
330
1F
100
AcDbEntity
  8
2-1
  6
Continuous
 62
     2
370
     9
100
AcDbCircle
 10
1037.837342958193
 20
412.2963075380068
 30
0.0
 40
519.1862157873206
100
AcDbArc
 50
128.7313385009766
 51
132.22900390625
  0
ARC
  5
1EE
330
1F
100
AcDbEntity
  8
2-1
  6
Continuous
 62
     2
370
     9
100
AcDbCircle
 10
677.4793470228042
 20
798.1111598659209
 30
0.0
 40
11.99999918808808
100
AcDbArc
 50
224.9989929199219
 51
313.0454711914062
  0
ARC
  5
1EF
330
1F
100
AcDbEntity
  8
2-1
  6
Continuous
 62
     2
370
     9
100
AcDbCircle
 10
1507.837656381968
 20
882.29736328125
 30
0.0
 40
89.99999536050333
100
AcDbArc
 50
0.0
 51
90.0
  0
ARC
  5
1F0
330
1F
100
AcDbEntity
  8
2-1
  6
Continuous
 62
     2
370
     9
100
AcDbCircle
 10
1507.837656381968
 20
882.29736328125
 30
0.0
 40
88.0000011340992
100
AcDbArc
 50
0.0
 51
90.0
  0
ARC
  5
1F1
330
1F
100
AcDbEntity
  8
2-1
  6
Continuous
 62
     2
370
     9
100
AcDbCircle
 10
1557.837573902027
 20
520.7373046875
 30
0.0
 40
11.99999918808808
100
AcDbArc
 50
191.7801055908203
 51
0.0
  0
ARC
  5
1F2
330
1F
100
AcDbEntity
  8
2-1
  6
Continuous
 62
     2
370
     9
100
AcDbCircle
 10
1557.837573902027
 20
520.7373046875
 30
0.0
 40
15.99999923963805
100
AcDbArc
 50
231.6088714599609
 51
0.0
  0
ARC
  5
1F3
330
1F
100
AcDbEntity
  8
2-1
  6
Continuous
 62
     2
370
     9
100
AcDbCircle
 10
1037.837837837838
 20
412.2972972972974
 30
0.0
 40
518.9998936008762
100
AcDbArc
 50
0.0
 51
10.64813232421875
  0
ARC
  5
1F4
330
1F
100
AcDbEntity
  8
2-1
  6
Continuous
 62
     2
370
     9
100
AcDbCircle
 10
1478.578144795186
 20
708.7878582928633
 30
0.0
 40
11.99999918808808
100
AcDbArc
 50
134.9989929199219
 51
213.9286346435547
  0
ARC
  5
1F5
330
1F
100
AcDbEntity
  8
2-1
  6
Continuous
 62
     2
370
     9
100
AcDbCircle
 10
1475.622476113809
 20
711.489158836571
 30
0.0
 40
11.99999918808808
100
AcDbArc
 50
134.9989929199219
 51
214.3498840332031
  0
ARC
  5
1F6
330
1F
100
AcDbEntity
  8
2-1
  6
Continuous
 62
     2
370
     9
100
AcDbCircle
 10
1452.209967535895
 20
744.6446104307432
 30
0.0
 40
11.99999918808808
100
AcDbArc
 50
218.7307434082031
 51
315.0
  0
ARC
  5
1F7
330
1F
100
AcDbEntity
  8
2-1
  6
Continuous
 62
     2
370
     9
100
AcDbCircle
 10
1454.054383973818
 20
740.832305083404
 30
0.0
 40
11.99999918808808
100
AcDbArc
 50
218.2860565185547
 51
315.0
  0
ARC
  5
1F8
330
1F
100
AcDbEntity
  8
2-1
  6
Continuous
 62
     2
370
     9
100
AcDbCircle
 10
1037.837837837838
 20
412.2972972972974
 30
0.0
 40
518.2557183343012
100
AcDbArc
 50
34.34956359863281
 51
38.28532409667968
  0
ARC
  5
1F9
330
1F
100
AcDbEntity
  8
2-1
  6
Continuous
 62
     2
370
     9
100
AcDbCircle
 10
1037.837837837838
 20
412.2972972972974
 30
0.0
 40
519.1862157873206
100
AcDbArc
 50
11.779541015625
 51
33.92913818359375
  0
ARC
  5
1FA
330
1F
100
AcDbEntity
  8
2-1
  6
Continuous
 62
     2
370
     9
100
AcDbCircle
 10
1557.837573902027
 20
788.0465450802367
 30
0.0
 40
11.99999918808808
100
AcDbArc
 50
0.0
 51
134.9989929199219
  0
ARC
  5
1FB
330
1F
100
AcDbEntity
  8
2-1
  6
Continuous
 62
     2
370
     9
100
AcDbCircle
 10
1557.837573902027
 20
850.2727116765203
 30
0.0
 40
11.99999918808808
100
AcDbArc
 50
315.0020141601562
 51
0.0000000000000191
  0
ARC
  5
1FC
330
1F
100
AcDbEntity
  8
2-1
  6
Continuous
 62
     2
370
     9
100
AcDbCircle
 10
1557.837573902027
 20
854.6494272592906
 30
0.0
 40
11.99999918808808
100
AcDbArc
 50
0.0
 51
111.2199249267578
  0
ARC
  5
1FD
330
1F
100
AcDbEntity
  8
2-1
  6
Continuous
 62
     2
370
     9
100
AcDbCircle
 10
1557.837573902027
 20
854.6494272592906
 30
0.0
 40
15.99999923963805
100
AcDbArc
 50
0.0
 51
111.2199249267578
  0
ARC
  5
1FE
330
1F
100
AcDbEntity
  8
2-1
  6
Continuous
 62
     2
370
     9
100
AcDbCircle
 10
1561.837686074747
 20
795.7654303473396
 30
0.0
 40
11.99999918808808
100
AcDbArc
 50
0.0
 51
131.0865783691406
  0
ARC
  5
1FF
330
1F
100
AcDbEntity
  8
2-1
  6
Continuous
 62
     2
370
     9
100
AcDbCircle
 10
1561.837686074747
 20
852.8010517842063
 30
0.0
 40
11.99999918808808
100
AcDbArc
 50
317.8093719482422
 51
0.0
  0
ARC
  5
200
330
1F
100
AcDbEntity
  8
2-1
  6
Continuous
 62
     2
370
     9
100
AcDbCircle
 10
1536.122255067568
 20
910.5817145270271
 30
0.0
 40
47.9999928861051
100
AcDbArc
 50
246.8651580810547
 51
291.2178344726563
  0
ARC
  5
201
330
1F
100
AcDbEntity
  8
2-1
  6
Continuous
 62
     2
370
     9
100
AcDbCircle
 10
1512.548415725296
 20
855.4068405563769
 30
0.0
 40
11.99999918808808
100
AcDbArc
 50
66.86477661132812
 51
136.6121520996094
  0
ARC
  5
202
330
1F
100
AcDbEntity
  8
2-1
  6
Continuous
 62
     2
370
     9
100
AcDbCircle
 10
1511.354023701436
 20
860.357369087838
 30
0.0
 40
11.99999918808808
100
AcDbArc
 50
63.74853515625001
 51
134.9979858398438
  0
ARC
  5
203
330
1F
100
AcDbEntity
  8
2-1
  6
Continuous
 62
     2
370
     9
100
AcDbCircle
 10
1431.16174646326
 20
769.3054529138516
 30
0.0
 40
11.99999918808808
100
AcDbArc
 50
136.6121520996094
 51
222.2296752929688
  0
ARC
  5
204
330
1F
100
AcDbEntity
  8
2-1
  6
Continuous
 62
     2
370
     9
100
AcDbCircle
 10
1037.837837837838
 20
412.2972972972974
 30
0.0
 40
519.1862157873206
100
AcDbArc
 50
38.73139953613281
 51
42.22906494140625
  0
ARC
  5
205
330
1F
100
AcDbEntity
  8
2-1
  6
Continuous
 62
     2
370
     9
100
AcDbCircle
 10
1423.651947846284
 20
772.6555406725086
 30
0.0
 40
11.99999918808808
100
AcDbArc
 50
134.9989929199219
 51
223.0454711914062
  0
ARC
  5
206
330
1F
100
AcDbEntity
  8
2-1
  6
Continuous
 62
     2
370
     9
100
AcDbCircle
 10
1146.277845228041
 20
932.2962910420188
 30
0.0
 40
11.99999918808808
100
AcDbArc
 50
90.0
 51
258.2198944091797
  0
ARC
  5
207
330
1F
100
AcDbEntity
  8
2-1
  6
Continuous
 62
     2
370
     9
100
AcDbCircle
 10
1146.277845228041
 20
932.2962910420188
 30
0.0
 40
15.99999923963805
100
AcDbArc
 50
90.0
 51
218.3911285400391
  0
ARC
  5
208
330
1F
100
AcDbEntity
  8
2-1
  6
Continuous
 62
     2
370
     9
100
AcDbCircle
 10
1334.328398833404
 20
853.0368619351776
 30
0.0
 40
11.99999918808808
100
AcDbArc
 50
236.0713653564453
 51
315.0010070800781
  0
ARC
  5
209
330
1F
100
AcDbEntity
  8
2-1
  6
Continuous
 62
     2
370
     9
100
AcDbCircle
 10
1337.029946816934
 20
850.0814406936234
 30
0.0
 40
11.99999918808808
100
AcDbArc
 50
235.6501159667969
 51
315.0010070800781
  0
ARC
  5
20A
330
1F
100
AcDbEntity
  8
2-1
  6
Continuous
 62
     2
370
     9
100
AcDbCircle
 10
1370.185150971284
 20
826.6689321157096
 30
0.0
 40
11.99999918808808
100
AcDbArc
 50
135.0
 51
231.2692565917969
  0
ARC
  5
20B
330
1F
100
AcDbEntity
  8
2-1
  6
Continuous
 62
     2
370
     9
100
AcDbCircle
 10
1366.372845623944
 20
828.5133485536318
 30
0.0
 40
11.99999918808808
100
AcDbArc
 50
135.0
 51
231.7139434814453
  0
ARC
  5
20C
330
1F
100
AcDbEntity
  8
2-1
  6
Continuous
 62
     2
370
     9
100
AcDbCircle
 10
1037.838332717483
 20
412.2963075380068
 30
0.0
 40
518.2557183343012
100
AcDbArc
 50
51.71473693847656
 51
55.65049743652344
  0
ARC
  5
20D
330
1F
100
AcDbEntity
  8
2-1
  6
Continuous
 62
     2
370
     9
100
AcDbCircle
 10
1037.838332717483
 20
412.2963075380068
 30
0.0
 40
519.1862157873206
100
AcDbArc
 50
56.0709228515625
 51
78.22052001953124
  0
ARC
  5
20E
330
1F
100
AcDbEntity
  8
2-1
  6
Continuous
 62
     2
370
     9
100
AcDbCircle
 10
1413.587085620777
 20
932.2970333614867
 30
0.0
 40
11.99999918808808
100
AcDbArc
 50
315.0010070800781
 51
89.99999999999997
  0
ARC
  5
20F
330
1F
100
AcDbEntity
  8
2-1
  6
Continuous
 62
     2
370
     9
100
AcDbCircle
 10
1475.813499656884
 20
932.2970333614867
 30
0.0
 40
11.99999918808808
100
AcDbArc
 50
90.0
 51
134.9979858398438
  0
ARC
  5
210
330
1F
100
AcDbEntity
  8
2-1
  6
Continuous
 62
     2
370
     9
100
AcDbCircle
 10
1480.189967799831
 20
932.2970333614867
 30
0.0
 40
11.99999918808808
100
AcDbArc
 50
338.7800750732422
 51
89.99999999999999
  0
ARC
  5
211
330
1F
100
AcDbEntity
  8
2-1
  6
Continuous
 62
     2
370
     9
100
AcDbCircle
 10
1480.189967799831
 20
932.2970333614867
 30
0.0
 40
15.99999923963805
100
AcDbArc
 50
338.7800750732422
 51
89.99999999999999
  0
ARC
  5
212
330
1F
100
AcDbEntity
  8
2-1
  6
Continuous
 62
     2
370
     9
100
AcDbCircle
 10
1421.306218327703
 20
936.2971455342063
 30
0.0
 40
11.99999918808808
100
AcDbArc
 50
318.9134216308594
 51
90.0
  0
ARC
  5
213
330
1F
100
AcDbEntity
  8
2-1
  6
Continuous
 62
     2
370
     9
100
AcDbCircle
 10
1478.341592324747
 20
936.2971455342063
 30
0.0
 40
11.99999918808808
100
AcDbArc
 50
90.0
 51
132.1906280517578
  0
ARC
  5
214
330
1F
100
AcDbEntity
  8
2-1
  6
Continuous
 62
     2
370
     9
100
AcDbCircle
 10
1536.122255067568
 20
910.5817145270271
 30
0.0
 40
47.9999928861051
100
AcDbArc
 50
158.7821655273438
 51
203.1348419189453
  0
ARC
  5
215
330
1F
100
AcDbEntity
  8
2-1
  6
Continuous
 62
     2
370
     9
100
AcDbCircle
 10
1480.947381096917
 20
887.0081226245779
 30
0.0
 40
11.99999918808808
100
AcDbArc
 50
313.3878479003907
 51
23.13522338867191
  0
ARC
  5
216
330
1F
100
AcDbEntity
  8
2-1
  6
Continuous
 62
     2
370
     9
100
AcDbCircle
 10
1485.897909628379
 20
885.8134831608953
 30
0.0
 40
11.99999918808808
100
AcDbArc
 50
315.0020141601562
 51
26.25146484375002
  0
ARC
  5
217
330
1F
100
AcDbEntity
  8
2-1
  6
Continuous
 62
     2
370
     9
100
AcDbCircle
 10
1394.846488334038
 20
805.6209584828971
 30
0.0
 40
11.99999918808808
100
AcDbArc
 50
227.7703247070313
 51
313.3878479003906
  0
ARC
  5
218
330
1F
100
AcDbEntity
  8
2-1
  6
Continuous
 62
     2
370
     9
100
AcDbCircle
 10
1037.838332717483
 20
412.2963075380068
 30
0.0
 40
519.1862157873206
100
AcDbArc
 50
47.77099609375001
 51
51.26866149902344
  0
ARC
  5
219
330
1F
100
AcDbEntity
  8
2-1
  6
Continuous
 62
     2
370
     9
100
AcDbCircle
 10
1398.196328652872
 20
798.1111598659209
 30
0.0
 40
11.99999918808808
100
AcDbArc
 50
226.9545288085938
 51
315.0010070800781
  0
ARC
  5
21A
330
1F
100
AcDbEntity
  8
2-1
  6
Continuous
 62
     2
370
     9
100
AcDbCircle
 10
539.5534206081084
 20
910.5817145270271
 30
0.0
 40
44.0000005670496
100
AcDbArc
 50
248.7814483642578
 51
21.21855163574219
  0
ARC
  5
21B
330
1F
100
AcDbEntity
  8
2-1
  6
Continuous
 62
     2
370
     9
100
AcDbCircle
 10
1037.837837837838
 20
412.2972972972974
 30
0.0
 40
515.9304026010874
100
AcDbArc
 50
43.04611206054687
 51
46.95384216308594
  0
ARC
  5
21C
330
1F
100
AcDbEntity
  8
2-1
  6
Continuous
 62
     2
370
     9
100
AcDbCircle
 10
1037.837837837838
 20
412.2972972972974
 30
0.0
 40
515.9304026010874
100
AcDbArc
 50
133.0461578369141
 51
136.9538879394532
  0
ARC
  5
21D
330
1F
100
AcDbEntity
  8
2-1
  6
Continuous
 62
     2
370
     9
100
AcDbCircle
 10
1536.122255067568
 20
910.5817145270271
 30
0.0
 40
44.0000005670496
100
AcDbArc
 50
158.7814483642578
 51
291.2185516357422
  0
ARC
  5
21E
330
1F
100
AcDbEntity
  8
2-1
  6
Continuous
 62
     2
370
     9
100
AcDbCircle
 10
1037.837342958193
 20
412.2963075380068
 30
0.0
 40
518.9998936008762
100
AcDbArc
 50
79.35173034667969
 51
100.6480712890625
  0
CIRCLE
  5
21F
330
1F
100
AcDbEntity
  8
2-1
  6
Continuous
 62
     2
370
     9
100
AcDbCircle
 10
547.8382007495776
 20
732.29736328125
 30
0.0
 40
12.99999823441377
  0
CIRCLE
  5
220
330
1F
100
AcDbEntity
  8
2-1
  6
Continuous
 62
     2
370
     9
100
AcDbCircle
 10
547.8382007495776
 20
732.29736328125
 30
0.0
 40
15.99999923963805
  0
ARC
  5
221
330
1F
100
AcDbEntity
  8
2-1
  6
Continuous
 62
     2
370
     9
100
AcDbCircle
 10
547.8382007495776
 20
732.29736328125
 30
0.0
 40
26.00040242478654
100
AcDbArc
 50
135.0
 51
315.0004577636719
  0
ARC
  5
222
330
1F
100
AcDbEntity
  8
2-1
  6
Continuous
 62
     2
370
     9
100
AcDbCircle
 10
547.8382007495776
 20
732.29736328125
 30
0.0
 40
30.00027102393073
100
AcDbArc
 50
135.0
 51
315.0
  0
ARC
  5
223
330
1F
100
AcDbEntity
  8
2-1
  6
Continuous
 62
     2
370
     9
100
AcDbCircle
 10
531.0142723289698
 20
774.8706219647383
 30
0.0
 40
11.99999918808808
100
AcDbArc
 50
314.9989929199219
 51
45.00000000000003
  0
ARC
  5
224
330
1F
100
AcDbEntity
  8
2-1
  6
Continuous
 62
     2
370
     9
100
AcDbCircle
 10
590.4117068728885
 20
715.4736823004646
 30
0.0
 40
11.99999918808808
100
AcDbArc
 50
45.00100708007812
 51
135.0
  0
ARC
  5
225
330
1F
100
AcDbEntity
  8
2-1
  6
Continuous
 62
     2
370
     9
100
AcDbCircle
 10
534.4081569362334
 20
772.6080322265625
 30
0.0
 40
11.99999918808808
100
AcDbArc
 50
315.0010070800781
 51
45.00100708007811
  0
ARC
  5
226
330
1F
100
AcDbEntity
  8
2-1
  6
Continuous
 62
     2
370
     9
100
AcDbCircle
 10
588.1488696948901
 20
718.8673194679054
 30
0.0
 40
11.99999918808808
100
AcDbArc
 50
45.00100708007812
 51
135.0
  0
ARC
  5
227
330
1F
100
AcDbEntity
  8
2-1
  6
Continuous
 62
     2
370
     9
100
AcDbCircle
 10
567.8380192937078
 20
-57.70276868665519
 30
0.0
 40
89.99999536050333
100
AcDbArc
 50
180.0
 51
270.0
  0
ARC
  5
228
330
1F
100
AcDbEntity
  8
2-1
  6
Continuous
 62
     2
370
     9
100
AcDbCircle
 10
567.8380192937078
 20
-57.70276868665519
 30
0.0
 40
88.0000011340992
100
AcDbArc
 50
180.0
 51
270.0
  0
ARC
  5
229
330
1F
100
AcDbEntity
  8
2-1
  6
Continuous
 62
     2
370
     9
100
AcDbCircle
 10
1037.837837837838
 20
412.2972972972974
 30
0.0
 40
504.9999340160473
100
AcDbArc
 50
180.0
 51
0.0
  0
ARC
  5
22A
330
1F
100
AcDbEntity
  8
2-1
  6
Continuous
 62
     2
370
     9
100
AcDbCircle
 10
1037.837837837838
 20
412.2972972972974
 30
0.0
 40
514.999905148068
100
AcDbArc
 50
180.0
 51
0.0
  0
ARC
  5
22B
330
1F
100
AcDbEntity
  8
2-1
  6
Continuous
 62
     2
370
     9
100
AcDbCircle
 10
517.838101773649
 20
303.8572899070948
 30
0.0
 40
11.99999918808808
100
AcDbArc
 50
11.78010559082031
 51
180.0
  0
ARC
  5
22C
330
1F
100
AcDbEntity
  8
2-1
  6
Continuous
 62
     2
370
     9
100
AcDbCircle
 10
517.838101773649
 20
303.8572899070948
 30
0.0
 40
15.99999923963805
100
AcDbArc
 50
51.60887145996094
 51
180.0
  0
ARC
  5
22D
330
1F
100
AcDbEntity
  8
2-1
  6
Continuous
 62
     2
370
     9
100
AcDbCircle
 10
1037.837837837838
 20
412.2972972972974
 30
0.0
 40
518.9998936008762
100
AcDbArc
 50
180.0
 51
190.6481323242188
  0
ARC
  5
22E
330
1F
100
AcDbEntity
  8
2-1
  6
Continuous
 62
     2
370
     9
100
AcDbCircle
 10
597.0977783203125
 20
115.8067363017315
 30
0.0
 40
11.99999918808808
100
AcDbArc
 50
314.9989929199219
 51
33.9286346435547
  0
ARC
  5
22F
330
1F
100
AcDbEntity
  8
2-1
  6
Continuous
 62
     2
370
     9
100
AcDbCircle
 10
600.0531995618667
 20
113.1054357580237
 30
0.0
 40
11.99999918808808
100
AcDbArc
 50
314.9989929199219
 51
34.34988403320313
  0
ARC
  5
230
330
1F
100
AcDbEntity
  8
2-1
  6
Continuous
 62
     2
370
     9
100
AcDbCircle
 10
623.4657081397808
 20
79.9499841638513
 30
0.0
 40
11.99999918808808
100
AcDbArc
 50
38.73074340820312
 51
135.0
  0
ARC
  5
231
330
1F
100
AcDbEntity
  8
2-1
  6
Continuous
 62
     2
370
     9
100
AcDbCircle
 10
621.6215391416807
 20
83.76228951119089
 30
0.0
 40
11.99999918808808
100
AcDbArc
 50
38.28605651855469
 51
135.0
  0
ARC
  5
232
330
1F
100
AcDbEntity
  8
2-1
  6
Continuous
 62
     2
370
     9
100
AcDbCircle
 10
1037.837837837838
 20
412.2972972972974
 30
0.0
 40
518.2557183343012
100
AcDbArc
 50
214.3495635986328
 51
218.2853240966797
  0
ARC
  5
233
330
1F
100
AcDbEntity
  8
2-1
  6
Continuous
 62
     2
370
     9
100
AcDbCircle
 10
1037.837837837838
 20
412.2972972972974
 30
0.0
 40
519.1862157873206
100
AcDbArc
 50
191.779541015625
 51
213.9291381835938
  0
ARC
  5
234
330
1F
100
AcDbEntity
  8
2-1
  6
Continuous
 62
     2
370
     9
100
AcDbCircle
 10
517.838101773649
 20
36.54804951435807
 30
0.0
 40
11.99999918808808
100
AcDbArc
 50
180.0
 51
314.9989929199219
  0
ARC
  5
235
330
1F
100
AcDbEntity
  8
2-1
  6
Continuous
 62
     2
370
     9
100
AcDbCircle
 10
517.838101773649
 20
-25.67811708192551
 30
0.0
 40
11.99999918808808
100
AcDbArc
 50
135.0020141601562
 51
180.0
  0
ARC
  5
236
330
1F
100
AcDbEntity
  8
2-1
  6
Continuous
 62
     2
370
     9
100
AcDbCircle
 10
517.838101773649
 20
-30.05483266469582
 30
0.0
 40
11.99999918808808
100
AcDbArc
 50
180.0
 51
291.2199249267578
  0
ARC
  5
237
330
1F
100
AcDbEntity
  8
2-1
  6
Continuous
 62
     2
370
     9
100
AcDbCircle
 10
517.838101773649
 20
-30.05483266469582
 30
0.0
 40
15.99999923963805
100
AcDbArc
 50
180.0
 51
291.2199249267578
  0
ARC
  5
238
330
1F
100
AcDbEntity
  8
2-1
  6
Continuous
 62
     2
370
     9
100
AcDbCircle
 10
513.8379896009292
 20
28.82916424725522
 30
0.0
 40
11.99999918808808
100
AcDbArc
 50
180.0
 51
311.0865783691406
  0
ARC
  5
239
330
1F
100
AcDbEntity
  8
2-1
  6
Continuous
 62
     2
370
     9
100
AcDbCircle
 10
513.8379896009292
 20
-28.20645718961146
 30
0.0
 40
11.99999918808808
100
AcDbArc
 50
137.8093719482422
 51
180.0
  0
ARC
  5
23A
330
1F
100
AcDbEntity
  8
2-1
  6
Continuous
 62
     2
370
     9
100
AcDbCircle
 10
539.5534206081084
 20
-85.98711993243228
 30
0.0
 40
47.9999928861051
100
AcDbArc
 50
66.86515808105469
 51
111.2178344726562
  0
ARC
  5
23B
330
1F
100
AcDbEntity
  8
2-1
  6
Continuous
 62
     2
370
     9
100
AcDbCircle
 10
563.1275073902026
 20
-30.81224596178203
 30
0.0
 40
11.99999918808808
100
AcDbArc
 50
246.8647766113281
 51
316.6121520996094
  0
ARC
  5
23C
330
1F
100
AcDbEntity
  8
2-1
  6
Continuous
 62
     2
370
     9
100
AcDbCircle
 10
564.3216519742401
 20
-35.76277449324323
 30
0.0
 40
11.99999918808808
100
AcDbArc
 50
243.74853515625
 51
314.9979858398438
  0
ARC
  5
23D
330
1F
100
AcDbEntity
  8
2-1
  6
Continuous
 62
     2
370
     9
100
AcDbCircle
 10
644.5139292124156
 20
55.28914168074323
 30
0.0
 40
11.99999918808808
100
AcDbArc
 50
316.6121520996093
 51
42.22967529296871
  0
ARC
  5
23E
330
1F
100
AcDbEntity
  8
2-1
  6
Continuous
 62
     2
370
     9
100
AcDbCircle
 10
1037.837837837838
 20
412.2972972972974
 30
0.0
 40
519.1862157873206
100
AcDbArc
 50
218.7313995361328
 51
222.2290649414062
  0
ARC
  5
23F
330
1F
100
AcDbEntity
  8
2-1
  6
Continuous
 62
     2
370
     9
100
AcDbCircle
 10
652.0239752692146
 20
51.9390539220862
 30
0.0
 40
11.99999918808808
100
AcDbArc
 50
314.9989929199219
 51
43.04547119140626
  0
ARC
  5
240
330
1F
100
AcDbEntity
  8
2-1
  6
Continuous
 62
     2
370
     9
100
AcDbCircle
 10
929.3980778874578
 20
-107.701696447424
 30
0.0
 40
11.99999918808808
100
AcDbArc
 50
270.0
 51
78.21989440917967
  0
ARC
  5
241
330
1F
100
AcDbEntity
  8
2-1
  6
Continuous
 62
     2
370
     9
100
AcDbCircle
 10
929.3980778874578
 20
-107.701696447424
 30
0.0
 40
15.99999923963805
100
AcDbArc
 50
270.0
 51
38.39112854003906
  0
ARC
  5
242
330
1F
100
AcDbEntity
  8
2-1
  6
Continuous
 62
     2
370
     9
100
AcDbCircle
 10
741.3475242820948
 20
-28.44226734058282
 30
0.0
 40
11.99999918808808
100
AcDbArc
 50
56.07136535644531
 51
135.0010070800781
  0
ARC
  5
243
330
1F
100
AcDbEntity
  8
2-1
  6
Continuous
 62
     2
370
     9
100
AcDbCircle
 10
738.6457288587417
 20
-25.48684609902864
 30
0.0
 40
11.99999918808808
100
AcDbArc
 50
55.65011596679688
 51
135.0010070800781
  0
ARC
  5
244
330
1F
100
AcDbEntity
  8
2-1
  6
Continuous
 62
     2
370
     9
100
AcDbCircle
 10
705.4905247043922
 20
-2.074337521114842
 30
0.0
 40
11.99999918808808
100
AcDbArc
 50
315.0
 51
51.26925659179686
  0
ARC
  5
245
330
1F
100
AcDbEntity
  8
2-1
  6
Continuous
 62
     2
370
     9
100
AcDbCircle
 10
709.3028300517318
 20
-3.918753959036962
 30
0.0
 40
11.99999918808808
100
AcDbArc
 50
315.0
 51
51.71394348144531
  0
ARC
  5
246
330
1F
100
AcDbEntity
  8
2-1
  6
Continuous
 62
     2
370
     9
100
AcDbCircle
 10
1037.837342958193
 20
412.298287056588
 30
0.0
 40
518.2557183343012
100
AcDbArc
 50
231.7147369384766
 51
235.6504974365235
  0
ARC
  5
247
330
1F
100
AcDbEntity
  8
2-1
  6
Continuous
 62
     2
370
     9
100
AcDbCircle
 10
1037.837342958193
 20
412.298287056588
 30
0.0
 40
519.1862157873206
100
AcDbArc
 50
236.0709228515626
 51
258.2205200195312
  0
ARC
  5
248
330
1F
100
AcDbEntity
  8
2-1
  6
Continuous
 62
     2
370
     9
100
AcDbCircle
 10
662.088590054899
 20
-107.7024387668919
 30
0.0
 40
11.99999918808808
100
AcDbArc
 50
135.0010070800781
 51
270.0
  0
ARC
  5
249
330
1F
100
AcDbEntity
  8
2-1
  6
Continuous
 62
     2
370
     9
100
AcDbCircle
 10
599.8624234586151
 20
-107.7024387668919
 30
0.0
 40
11.99999918808808
100
AcDbArc
 50
270.0
 51
314.9979858398438
  0
ARC
  5
24A
330
1F
100
AcDbEntity
  8
2-1
  6
Continuous
 62
     2
370
     9
100
AcDbCircle
 10
595.4857078758448
 20
-107.7024387668919
 30
0.0
 40
11.99999918808808
100
AcDbArc
 50
158.7800750732422
 51
270.0
  0
ARC
  5
24B
330
1F
100
AcDbEntity
  8
2-1
  6
Continuous
 62
     2
370
     9
100
AcDbCircle
 10
595.4857078758448
 20
-107.7024387668919
 30
0.0
 40
15.99999923963805
100
AcDbArc
 50
158.7800750732422
 51
270.0
  0
ARC
  5
24C
330
1F
100
AcDbEntity
  8
2-1
  6
Continuous
 62
     2
370
     9
100
AcDbCircle
 10
654.3694573479729
 20
-111.7025509396115
 30
0.0
 40
11.99999918808808
100
AcDbArc
 50
138.9134216308594
 51
270.0
  0
ARC
  5
24D
330
1F
100
AcDbEntity
  8
2-1
  6
Continuous
 62
     2
370
     9
100
AcDbCircle
 10
597.3340833509292
 20
-111.7025509396115
 30
0.0
 40
11.99999918808808
100
AcDbArc
 50
270.0
 51
312.1906280517578
  0
ARC
  5
24E
330
1F
100
AcDbEntity
  8
2-1
  6
Continuous
 62
     2
370
     9
100
AcDbCircle
 10
539.5534206081084
 20
-85.98711993243228
 30
0.0
 40
47.9999928861051
100
AcDbArc
 50
338.7821655273437
 51
23.1348419189453
  0
ARC
  5
24F
330
1F
100
AcDbEntity
  8
2-1
  6
Continuous
 62
     2
370
     9
100
AcDbCircle
 10
594.7282945787583
 20
-62.41352802998307
 30
0.0
 40
11.99999918808808
100
AcDbArc
 50
133.3878479003906
 51
203.1352233886719
  0
ARC
  5
250
330
1F
100
AcDbEntity
  8
2-1
  6
Continuous
 62
     2
370
     9
100
AcDbCircle
 10
589.7780134871203
 20
-61.21888856630051
 30
0.0
 40
11.99999918808808
100
AcDbArc
 50
135.0020141601562
 51
206.25146484375
  0
ARC
  5
251
330
1F
100
AcDbEntity
  8
2-1
  6
Continuous
 62
     2
370
     9
100
AcDbCircle
 10
680.8291873416385
 20
18.97363611169766
 30
0.0
 40
11.99999918808808
100
AcDbArc
 50
47.77032470703126
 51
133.3878479003906
  0
ARC
  5
252
330
1F
100
AcDbEntity
  8
2-1
  6
Continuous
 62
     2
370
     9
100
AcDbCircle
 10
1037.837342958193
 20
412.298287056588
 30
0.0
 40
519.1862157873206
100
AcDbArc
 50
227.77099609375
 51
231.2686614990235
  0
ARC
  5
253
330
1F
100
AcDbEntity
  8
2-1
  6
Continuous
 62
     2
370
     9
100
AcDbCircle
 10
677.4793470228042
 20
26.48343472867396
 30
0.0
 40
11.99999918808808
100
AcDbArc
 50
46.95452880859374
 51
135.0010070800781
  0
ARC
  5
254
330
1F
100
AcDbEntity
  8
2-1
  6
Continuous
 62
     2
370
     9
100
AcDbCircle
 10
1507.837656381968
 20
-57.70276868665519
 30
0.0
 40
89.99999536050333
100
AcDbArc
 50
270.0
 51
0.0
  0
ARC
  5
255
330
1F
100
AcDbEntity
  8
2-1
  6
Continuous
 62
     2
370
     9
100
AcDbCircle
 10
1507.837656381968
 20
-57.70276868665519
 30
0.0
 40
88.0000011340992
100
AcDbArc
 50
270.0
 51
0.0
  0
ARC
  5
256
330
1F
100
AcDbEntity
  8
2-1
  6
Continuous
 62
     2
370
     9
100
AcDbCircle
 10
1557.837573902027
 20
303.8572899070948
 30
0.0
 40
11.99999918808808
100
AcDbArc
 50
0.0
 51
168.2198944091797
  0
ARC
  5
257
330
1F
100
AcDbEntity
  8
2-1
  6
Continuous
 62
     2
370
     9
100
AcDbCircle
 10
1557.837573902027
 20
303.8572899070948
 30
0.0
 40
15.99999923963805
100
AcDbArc
 50
0.0
 51
128.3911285400391
  0
ARC
  5
258
330
1F
100
AcDbEntity
  8
2-1
  6
Continuous
 62
     2
370
     9
100
AcDbCircle
 10
1037.837837837838
 20
412.2972972972974
 30
0.0
 40
518.9998936008762
100
AcDbArc
 50
349.3518676757812
 51
0.0
  0
ARC
  5
259
330
1F
100
AcDbEntity
  8
2-1
  6
Continuous
 62
     2
370
     9
100
AcDbCircle
 10
1478.578144795186
 20
115.8067363017315
 30
0.0
 40
11.99999918808808
100
AcDbArc
 50
146.0713653564453
 51
225.0010070800781
  0
ARC
  5
25A
330
1F
100
AcDbEntity
  8
2-1
  6
Continuous
 62
     2
370
     9
100
AcDbCircle
 10
1475.622476113809
 20
113.1054357580237
 30
0.0
 40
11.99999918808808
100
AcDbArc
 50
145.6501159667969
 51
225.0010070800781
  0
ARC
  5
25B
330
1F
100
AcDbEntity
  8
2-1
  6
Continuous
 62
     2
370
     9
100
AcDbCircle
 10
1452.209967535895
 20
79.9499841638513
 30
0.0
 40
11.99999918808808
100
AcDbArc
 50
45.0
 51
141.2692565917969
  0
ARC
  5
25C
330
1F
100
AcDbEntity
  8
2-1
  6
Continuous
 62
     2
370
     9
100
AcDbCircle
 10
1454.054383973818
 20
83.76228951119089
 30
0.0
 40
11.99999918808808
100
AcDbArc
 50
45.0
 51
141.7139434814453
  0
ARC
  5
25D
330
1F
100
AcDbEntity
  8
2-1
  6
Continuous
 62
     2
370
     9
100
AcDbCircle
 10
1037.837837837838
 20
412.2972972972974
 30
0.0
 40
518.2557183343012
100
AcDbArc
 50
321.7146759033203
 51
325.6504364013672
  0
ARC
  5
25E
330
1F
100
AcDbEntity
  8
2-1
  6
Continuous
 62
     2
370
     9
100
AcDbCircle
 10
1037.837837837838
 20
412.2972972972974
 30
0.0
 40
519.1862157873206
100
AcDbArc
 50
326.0708618164063
 51
348.220458984375
  0
ARC
  5
25F
330
1F
100
AcDbEntity
  8
2-1
  6
Continuous
 62
     2
370
     9
100
AcDbCircle
 10
1557.837573902027
 20
36.54804951435807
 30
0.0
 40
11.99999918808808
100
AcDbArc
 50
225.0010070800781
 51
0.0
  0
ARC
  5
260
330
1F
100
AcDbEntity
  8
2-1
  6
Continuous
 62
     2
370
     9
100
AcDbCircle
 10
1557.837573902027
 20
-25.67811708192551
 30
0.0
 40
11.99999918808808
100
AcDbArc
 50
0.0
 51
44.99798583984375
  0
ARC
  5
261
330
1F
100
AcDbEntity
  8
2-1
  6
Continuous
 62
     2
370
     9
100
AcDbCircle
 10
1557.837573902027
 20
-30.05483266469582
 30
0.0
 40
11.99999918808808
100
AcDbArc
 50
248.7800750732422
 51
0.0
  0
ARC
  5
262
330
1F
100
AcDbEntity
  8
2-1
  6
Continuous
 62
     2
370
     9
100
AcDbCircle
 10
1557.837573902027
 20
-30.05483266469582
 30
0.0
 40
15.99999923963805
100
AcDbArc
 50
248.7800750732422
 51
0.0
  0
ARC
  5
263
330
1F
100
AcDbEntity
  8
2-1
  6
Continuous
 62
     2
370
     9
100
AcDbCircle
 10
1561.837686074747
 20
28.82916424725522
 30
0.0
 40
11.99999918808808
100
AcDbArc
 50
228.9134216308594
 51
0.0
  0
ARC
  5
264
330
1F
100
AcDbEntity
  8
2-1
  6
Continuous
 62
     2
370
     9
100
AcDbCircle
 10
1561.837686074747
 20
-28.20645718961146
 30
0.0
 40
11.99999918808808
100
AcDbArc
 50
0.0
 51
42.19062805175781
  0
ARC
  5
265
330
1F
100
AcDbEntity
  8
2-1
  6
Continuous
 62
     2
370
     9
100
AcDbCircle
 10
1536.122255067568
 20
-85.98711993243228
 30
0.0
 40
47.9999928861051
100
AcDbArc
 50
68.78216552734375
 51
113.1348419189453
  0
ARC
  5
266
330
1F
100
AcDbEntity
  8
2-1
  6
Continuous
 62
     2
370
     9
100
AcDbCircle
 10
1512.548415725296
 20
-30.81224596178203
 30
0.0
 40
11.99999918808808
100
AcDbArc
 50
223.3878479003906
 51
293.1352233886719
  0
ARC
  5
267
330
1F
100
AcDbEntity
  8
2-1
  6
Continuous
 62
     2
370
     9
100
AcDbCircle
 10
1511.354023701436
 20
-35.76277449324323
 30
0.0
 40
11.99999918808808
100
AcDbArc
 50
225.0020141601562
 51
296.25146484375
  0
ARC
  5
268
330
1F
100
AcDbEntity
  8
2-1
  6
Continuous
 62
     2
370
     9
100
AcDbCircle
 10
1431.16174646326
 20
55.28914168074323
 30
0.0
 40
11.99999918808808
100
AcDbArc
 50
137.7703247070312
 51
223.3878479003906
  0
ARC
  5
269
330
1F
100
AcDbEntity
  8
2-1
  6
Continuous
 62
     2
370
     9
100
AcDbCircle
 10
1037.837837837838
 20
412.2972972972974
 30
0.0
 40
519.1862157873206
100
AcDbArc
 50
317.7709350585938
 51
321.2686004638672
  0
ARC
  5
26A
330
1F
100
AcDbEntity
  8
2-1
  6
Continuous
 62
     2
370
     9
100
AcDbCircle
 10
1423.651947846284
 20
51.9390539220862
 30
0.0
 40
11.99999918808808
100
AcDbArc
 50
136.9545288085938
 51
225.0010070800781
  0
ARC
  5
26B
330
1F
100
AcDbEntity
  8
2-1
  6
Continuous
 62
     2
370
     9
100
AcDbCircle
 10
1146.277845228041
 20
-107.701696447424
 30
0.0
 40
11.99999918808808
100
AcDbArc
 50
101.7801055908203
 51
270.0
  0
ARC
  5
26C
330
1F
100
AcDbEntity
  8
2-1
  6
Continuous
 62
     2
370
     9
100
AcDbCircle
 10
1146.277845228041
 20
-107.701696447424
 30
0.0
 40
15.99999923963805
100
AcDbArc
 50
141.6088714599609
 51
270.0
  0
ARC
  5
26D
330
1F
100
AcDbEntity
  8
2-1
  6
Continuous
 62
     2
370
     9
100
AcDbCircle
 10
1334.328398833404
 20
-28.44226734058282
 30
0.0
 40
11.99999918808808
100
AcDbArc
 50
44.99899291992188
 51
123.9286346435547
  0
ARC
  5
26E
330
1F
100
AcDbEntity
  8
2-1
  6
Continuous
 62
     2
370
     9
100
AcDbCircle
 10
1337.029946816934
 20
-25.48684609902864
 30
0.0
 40
11.99999918808808
100
AcDbArc
 50
44.99899291992188
 51
124.3498840332031
  0
ARC
  5
26F
330
1F
100
AcDbEntity
  8
2-1
  6
Continuous
 62
     2
370
     9
100
AcDbCircle
 10
1370.185150971284
 20
-2.074337521114842
 30
0.0
 40
11.99999918808808
100
AcDbArc
 50
128.7307434082031
 51
225.0
  0
ARC
  5
270
330
1F
100
AcDbEntity
  8
2-1
  6
Continuous
 62
     2
370
     9
100
AcDbCircle
 10
1366.372845623944
 20
-3.918753959036962
 30
0.0
 40
11.99999918808808
100
AcDbArc
 50
128.2860565185547
 51
225.0
  0
ARC
  5
271
330
1F
100
AcDbEntity
  8
2-1
  6
Continuous
 62
     2
370
     9
100
AcDbCircle
 10
1037.838332717483
 20
412.298287056588
 30
0.0
 40
518.2557183343012
100
AcDbArc
 50
304.3495025634766
 51
308.2852630615234
  0
ARC
  5
272
330
1F
100
AcDbEntity
  8
2-1
  6
Continuous
 62
     2
370
     9
100
AcDbCircle
 10
1037.838332717483
 20
412.298287056588
 30
0.0
 40
519.1862157873206
100
AcDbArc
 50
281.7794799804688
 51
303.9290771484376
  0
ARC
  5
273
330
1F
100
AcDbEntity
  8
2-1
  6
Continuous
 62
     2
370
     9
100
AcDbCircle
 10
1413.587085620777
 20
-107.7024387668919
 30
0.0
 40
11.99999918808808
100
AcDbArc
 50
270.0
 51
44.99899291992187
  0
ARC
  5
274
330
1F
100
AcDbEntity
  8
2-1
  6
Continuous
 62
     2
370
     9
100
AcDbCircle
 10
1475.813499656884
 20
-107.7024387668919
 30
0.0
 40
11.99999918808808
100
AcDbArc
 50
225.0020141601562
 51
270.0
  0
ARC
  5
275
330
1F
100
AcDbEntity
  8
2-1
  6
Continuous
 62
     2
370
     9
100
AcDbCircle
 10
1480.189967799831
 20
-107.7024387668919
 30
0.0
 40
11.99999918808808
100
AcDbArc
 50
270.0
 51
21.21992492675781
  0
ARC
  5
276
330
1F
100
AcDbEntity
  8
2-1
  6
Continuous
 62
     2
370
     9
100
AcDbCircle
 10
1480.189967799831
 20
-107.7024387668919
 30
0.0
 40
15.99999923963805
100
AcDbArc
 50
270.0
 51
21.21992492675781
  0
ARC
  5
277
330
1F
100
AcDbEntity
  8
2-1
  6
Continuous
 62
     2
370
     9
100
AcDbCircle
 10
1421.306218327703
 20
-111.7025509396115
 30
0.0
 40
11.99999918808808
100
AcDbArc
 50
270.0
 51
41.08657836914062
  0
ARC
  5
278
330
1F
100
AcDbEntity
  8
2-1
  6
Continuous
 62
     2
370
     9
100
AcDbCircle
 10
1478.341592324747
 20
-111.7025509396115
 30
0.0
 40
11.99999918808808
100
AcDbArc
 50
227.8093719482422
 51
270.0
  0
ARC
  5
279
330
1F
100
AcDbEntity
  8
2-1
  6
Continuous
 62
     2
370
     9
100
AcDbCircle
 10
1536.122255067568
 20
-85.98711993243228
 30
0.0
 40
47.9999928861051
100
AcDbArc
 50
156.8651580810547
 51
201.2178344726562
  0
ARC
  5
27A
330
1F
100
AcDbEntity
  8
2-1
  6
Continuous
 62
     2
370
     9
100
AcDbCircle
 10
1480.947381096917
 20
-62.41352802998307
 30
0.0
 40
11.99999918808808
100
AcDbArc
 50
336.8647766113281
 51
46.61215209960938
  0
ARC
  5
27B
330
1F
100
AcDbEntity
  8
2-1
  6
Continuous
 62
     2
370
     9
100
AcDbCircle
 10
1485.897909628379
 20
-61.21888856630051
 30
0.0
 40
11.99999918808808
100
AcDbArc
 50
333.74853515625
 51
44.99798583984376
  0
ARC
  5
27C
330
1F
100
AcDbEntity
  8
2-1
  6
Continuous
 62
     2
370
     9
100
AcDbCircle
 10
1394.846488334038
 20
18.97363611169766
 30
0.0
 40
11.99999918808808
100
AcDbArc
 50
46.61215209960938
 51
132.2296752929688
  0
ARC
  5
27D
330
1F
100
AcDbEntity
  8
2-1
  6
Continuous
 62
     2
370
     9
100
AcDbCircle
 10
1037.838332717483
 20
412.298287056588
 30
0.0
 40
519.1862157873206
100
AcDbArc
 50
308.7313385009764
 51
312.2290039062499
  0
ARC
  5
27E
330
1F
100
AcDbEntity
  8
2-1
  6
Continuous
 62
     2
370
     9
100
AcDbCircle
 10
1398.196328652872
 20
26.48343472867396
 30
0.0
 40
11.99999918808808
100
AcDbArc
 50
44.99899291992188
 51
133.0454711914062
  0
ARC
  5
27F
330
1F
100
AcDbEntity
  8
2-1
  6
Continuous
 62
     2
370
     9
100
AcDbCircle
 10
539.5534206081084
 20
-85.98711993243228
 30
0.0
 40
44.0000005670496
100
AcDbArc
 50
338.7814483642578
 51
111.2185516357422
  0
ARC
  5
280
330
1F
100
AcDbEntity
  8
2-1
  6
Continuous
 62
     2
370
     9
100
AcDbCircle
 10
1037.837837837838
 20
412.2972972972974
 30
0.0
 40
515.9304026010874
100
AcDbArc
 50
313.0461578369139
 51
316.9538879394531
  0
ARC
  5
281
330
1F
100
AcDbEntity
  8
2-1
  6
Continuous
 62
     2
370
     9
100
AcDbCircle
 10
1037.837837837838
 20
412.2972972972974
 30
0.0
 40
515.9304026010874
100
AcDbArc
 50
223.0461120605469
 51
226.9538421630859
  0
ARC
  5
282
330
1F
100
AcDbEntity
  8
2-1
  6
Continuous
 62
     2
370
     9
100
AcDbCircle
 10
1536.122255067568
 20
-85.98711993243228
 30
0.0
 40
44.0000005670496
100
AcDbArc
 50
68.78144836425781
 51
201.2185516357422
  0
ARC
  5
283
330
1F
100
AcDbEntity
  8
2-1
  6
Continuous
 62
     2
370
     9
100
AcDbCircle
 10
1037.837342958193
 20
412.298287056588
 30
0.0
 40
518.9998936008762
100
AcDbArc
 50
259.3519287109376
 51
280.6482696533203
  0
CIRCLE
  5
284
330
1F
100
AcDbEntity
  8
2-3
  6
Continuous
 62
     4
370
     9
100
AcDbCircle
 10
1037.837837837838
 20
412.2972972972974
 30
0.0
 40
449.9999690700222
  0
CIRCLE
  5
285
330
1F
100
AcDbEntity
  8
2-3
  6
Continuous
 62
     4
370
     9
100
AcDbCircle
 10
1037.837837837838
 20
412.2972972972974
 30
0.0
 40
431.9999591724293
  0
TEXT
  5
286
330
1F
100
AcDbEntity
  8
1-E
  6
Continuous
 62
     7
370
     9
100
AcDbText
 10
-1463.734955658784
 20
923.3555641627959
 30
0.0
 40
22.86
  1
ボルト：ＳＳ４００
 41
1.148148148148148
  7
ＭＳ ゴシック
100
AcDbText
  0
TEXT
  5
287
330
1F
100
AcDbEntity
  8
1-E
  6
Continuous
 62
     7
370
     9
100
AcDbText
 10
-941.9906492491026
 20
1040.668516152872
 30
0.0
 40
22.86
  1
養生材：ポリエチレン
 41
1.15
  7
ＭＳ ゴシック
100
AcDbText
  0
TEXT
  5
288
330
1F
100
AcDbEntity
  8
1-E
  6
Continuous
 62
     7
370
     9
100
AcDbText
 10
-793.3169225744298
 20
1162.817679476352
 30
0.0
 40
22.86
  1
スリーブ：ボイド管
 41
1.148148148148148
  7
ＭＳ ゴシック
100
AcDbText
  0
TEXT
  5
289
330
1F
100
AcDbEntity
  8
2-4
  6
Continuous
 62
     2
370
     9
100
AcDbText
 10
837.8377141179266
 20
-460.0554048775338
 30
0.0
 40
30.48
  1
平面図　Ｓ＝１：５
 41
1.111111111111111
  7
ＭＳ ゴシック
100
AcDbText
  0
TEXT
  5
28A
330
1F
100
AcDbEntity
  8
1-4
  6
Continuous
 62
     6
370
     5
100
AcDbText
 10
-947.6178052747571
 20
429.1638015994511
 30
0.0
 40
22.86
  1
平座金・・
 41
0.8866666666666665
  7
ＭＳ ゴシック
100
AcDbText
  0
TEXT
  5
28B
330
1F
100
AcDbEntity
  8
1-4
  6
Continuous
 62
     6
370
     5
100
AcDbText
 10
-947.6178250699429
 20
372.2995322397594
 30
0.0
 40
22.86
  1
六角ナット：ＳＳ４００，電気亜鉛めっき
 41
0.8964912280701754
  7
ＭＳ ゴシック
100
AcDbText
  0
TEXT
  5
28C
330
1F
100
AcDbEntity
  8
1-4
  6
Continuous
 62
     6
370
     5
100
AcDbText
 10
-812.6178498139251
 20
429.1638015994511
 30
0.0
 40
22.86
  1
：ＳＳ４００，電気亜鉛めっき
 41
0.8952380952380953
  7
ＭＳ ゴシック
100
AcDbText
  0
TEXT
  5
28D
330
1F
100
AcDbEntity
  8
2-4
  6
Continuous
 62
     3
370
     9
100
AcDbText
 10
308.4265009817747
 20
977.1088069784945
 30
0.0
 40
38.1
  1
Ａ
 50
314.999800672275
 41
1.0
  7
ＭＳ ゴシック
100
AcDbText
  0
TEXT
  5
28E
330
1F
100
AcDbEntity
  8
2-4
  6
Continuous
 62
     3
370
     9
100
AcDbText
 10
702.0928685546788
 20
583.4419454489014
 30
0.0
 40
38.1
  1
Ａ'
 50
315.0001251062606
 41
1.066666666666667
  7
ＭＳ ゴシック
100
AcDbText
  0
TEXT
  5
28F
330
1F
100
AcDbEntity
  8
1-4
  6
Continuous
 62
     2
370
     9
100
AcDbText
 10
-965.540507548564
 20
-219.7547160050675
 30
0.0
 40
30.48
  1
Ａ－Ａ'断面図　Ｓ＝１：２
 41
1.115
  7
ＭＳ ゴシック
100
AcDbText
  0
TEXT
  5
290
330
1F
100
AcDbEntity
  8
1-E
  6
Continuous
 62
     7
370
     9
100
AcDbText
 10
-1430.236946312157
 20
876.0594215846709
 30
0.0
 40
22.86
  1
電気亜鉛めっき
 41
1.142857142857143
  7
ＭＳ ゴシック
100
AcDbText
  0
TEXT
  5
291
330
1F
100
AcDbEntity
  8
1-4
  6
Continuous
 62
     2
370
     9
100
AcDbText
 10
248.7023265941724
 20
-1047.197689373944
 30
0.0
 40
30.48
  1
※この図面は、ＭＫＨ（Ｙ）－４５０角枠にセットしたＭＳＶ－１を示します。
 41
1.121527777777778
  7
ＭＳ ゴシック
100
AcDbText
  0
TEXT
  5
292
330
1F
100
AcDbEntity
  8
1-4
  6
Continuous
 62
     2
370
     9
100
AcDbText
 10
-1549.255473795807
 20
381.7228737505118
 30
0.0
 40
30.48
  1
200
 50
90.00000250447816
 41
1.083333333333333
  7
ＭＳ ゴシック
100
AcDbText
  0
TEXT
  5
293
330
1F
100
AcDbEntity
  8
1-4
  6
Continuous
 62
     2
370
     9
100
AcDbText
 10
-1449.255391315866
 20
331.72270879063
 30
0.0
 40
30.48
  1
180
 50
90.00000250447816
 41
1.083333333333333
  7
ＭＳ ゴシック
100
AcDbText
  0
TEXT
  5
294
330
1F
100
AcDbEntity
  8
1-4
  6
Continuous
 62
     2
370
     9
100
AcDbText
 10
-278.2054794044431
 20
505.4729727264408
 30
0.0
 40
30.48
  1
250
 50
90.00000250447816
 41
1.083333333333333
  7
ＭＳ ゴシック
100
AcDbText
  0
LWPOLYLINE
  5
295
330
1F
100
AcDbEntity
  8
1-4
  6
Continuous
 62
     7
370
     9
100
AcDbPolyline
 90
        4
 70
     1
 43
2.0
 10
-405.9906286291172
 20
-122.0269775390625
 42
0.4142135623731
 10
-406.9906286291172
 20
-121.0269775390625
 42
0.4142135623731
 10
-407.9906286291172
 20
-122.0269775390625
 42
0.4142135623731
 10
-406.9906286291172
 20
-123.0269775390625
 42
0.4142135623731
  0
TEXT
  5
296
330
1F
100
AcDbEntity
  8
1-5
  6
Continuous
 62
     6
370
     5
100
AcDbText
 10
-848.1244091394508
 20
-1363.364134942078
 30
0.0
 40
30.48
  1
打込型マンホール鉄蓋　サポートＶ　　ＭＳＶ－１－４５０　Ｃ＝２００
 41
0.9234848484848484
  7
ＭＳ ゴシック
100
AcDbText
  0
TEXT
  5
297
330
1F
100
AcDbEntity
  8
1-4
  6
Continuous
 62
     2
370
     9
100
AcDbText
 10
-279.8021100018475
 20
-106.3869445470862
 30
0.0
 40
30.48
  1
φ448
 41
1.1
  7
ＭＳ ゴシック
100
AcDbText
  0
LINE
  5
298
330
1F
100
AcDbEntity
  8
1-4
  6
Continuous
 62
     2
370
     9
100
AcDbLine
 10
-1433.04068075644
 20
-1033.177853146115
 30
0.0
 11
-1433.04068075644
 21
-968.1783810177365
 31
0.0
  0
LINE
  5
299
330
1F
100
AcDbEntity
  8
1-9
  6
JWW_CENTER1
 62
     2
370
     9
100
AcDbLine
 10
-1083.04063951647
 20
-534.2512058567355
 30
0.0
 11
-1083.04063951647
 21
-792.1055231867609
 31
0.0
  0
LINE
  5
29A
330
1F
100
AcDbEntity
  8
1-9
  6
JWW_CENTER1
 62
     2
370
     9
100
AcDbLine
 10
-1211.967921901394
 20
-663.1783645217481
 30
0.0
 11
-954.1133571315456
 21
-663.1783645217481
 31
0.0
  0
LINE
  5
29B
330
1F
100
AcDbEntity
  8
1-4
  6
Continuous
 62
     2
370
     9
100
AcDbLine
 10
-1433.04068075644
 20
-968.1783810177365
 30
0.0
 11
-733.0404745565877
 21
-968.1783810177365
 31
0.0
  0
LINE
  5
29C
330
1F
100
AcDbEntity
  8
1-4
  6
Continuous
 62
     2
370
     9
100
AcDbLine
 10
-733.0404745565877
 20
-1033.177853146115
 30
0.0
 11
-733.0404745565877
 21
-968.1783810177365
 31
0.0
  0
LINE
  5
29D
330
1F
100
AcDbEntity
  8
1-4
  6
Continuous
 62
     2
370
     9
100
AcDbLine
 10
-733.0404745565877
 20
-1033.177853146115
 30
0.0
 11
-1433.04068075644
 21
-1033.177853146115
 31
0.0
  0
LINE
  5
29E
330
1F
100
AcDbEntity
  8
1-4
  6
Continuous
 62
     7
370
     9
100
AcDbLine
 10
-1188.040614772487
 20
-868.1784222577068
 30
0.0
 11
-978.0406642604519
 21
-868.1784222577068
 31
0.0
  0
LINE
  5
29F
330
1F
100
AcDbEntity
  8
1-4
  6
Continuous
 62
     7
370
     9
100
AcDbLine
 10
-1188.040614772487
 20
-688.1783232817777
 30
0.0
 11
-1188.040614772487
 21
-871.1783826673352
 31
0.0
  0
LINE
  5
2A0
330
1F
100
AcDbEntity
  8
1-4
  6
Continuous
 62
     7
370
     9
100
AcDbLine
 10
-978.0406642604519
 20
-688.1783232817777
 30
0.0
 11
-978.0406642604519
 21
-871.1783826673352
 31
0.0
  0
LINE
  5
2A1
330
1F
100
AcDbEntity
  8
1-4
  6
Continuous
 62
     7
370
     9
100
AcDbLine
 10
-878.0407055004223
 20
-748.1783975137246
 30
0.0
 11
-878.0407055004223
 21
-578.1783315297719
 31
0.0
  0
LINE
  5
2A2
330
1F
100
AcDbEntity
  8
1-4
  6
Continuous
 62
     7
370
     9
100
AcDbLine
 10
-1058.040557036529
 20
-748.1783975137246
 30
0.0
 11
-875.0407450907938
 21
-748.1783975137246
 31
0.0
  0
LINE
  5
2A3
330
1F
100
AcDbEntity
  8
1-4
  6
Continuous
 62
     7
370
     9
100
AcDbLine
 10
-1058.040557036529
 20
-578.1783315297719
 30
0.0
 11
-875.0407450907938
 21
-578.1783315297719
 31
0.0
  0
LINE
  5
2A4
330
1F
100
AcDbEntity
  8
1-4
  6
Continuous
 62
     7
370
     9
100
AcDbLine
 10
-1078.040623020481
 20
-569.5180614574535
 30
0.0
 11
-1068.473609718116
 21
-546.4211623733106
 31
0.0
  0
LINE
  5
2A5
330
1F
100
AcDbEntity
  8
1-4
  6
Continuous
 62
     7
370
     9
100
AcDbLine
 10
-1078.040623020481
 20
-569.5180614574535
 30
0.0
 11
-1062.821589289485
 21
-549.6841513144002
 31
0.0
  0
LINE
  5
2A6
330
1F
100
AcDbEntity
  8
1-4
  6
Continuous
 62
     7
370
     9
100
AcDbLine
 10
-1078.040623020481
 20
-569.5180614574535
 30
0.0
 11
-1039.739412874789
 21
-503.1783315297719
 31
0.0
  0
LINE
  5
2A7
330
1F
100
AcDbEntity
  8
1-4
  6
Continuous
 62
     7
370
     9
100
AcDbLine
 10
-1039.739412874789
 20
-503.1783315297719
 30
0.0
 11
-882.6255179740288
 21
-503.1783315297719
 31
0.0
  0
TEXT
  5
2A8
330
1F
100
AcDbEntity
  8
1-4
  6
Continuous
 62
     7
370
     0
100
AcDbText
 10
-1027.653610641892
 20
-491.00044070682
 30
0.0
 40
22.86
  1
４－φ４
 41
1.125
  7
ＭＳ ゴシック
100
AcDbText
  0
TEXT
  5
2A9
330
1F
100
AcDbEntity
  8
1-4
  6
Continuous
 62
     2
370
     0
100
AcDbText
 10
-893.6807384923987
 20
-684.4283645217481
 30
0.0
 40
30.48
  1
34
 50
90.0
 41
1.0625
  7
ＭＳ ゴシック
100
AcDbText
  0
TEXT
  5
2AA
330
1F
100
AcDbEntity
  8
1-4
  6
Continuous
 62
     2
370
     0
100
AcDbText
 10
-1126.790732306403
 20
-852.5383892657304
 30
0.0
 40
30.48
  1
φ42
 41
1.09375
  7
ＭＳ ゴシック
100
AcDbText
  0
TEXT
  5
2AB
330
1F
100
AcDbEntity
  8
1-4
  6
Continuous
 62
     2
370
     0
100
AcDbText
 10
-1418.040515796558
 20
-1015.038183065878
 30
0.0
 40
30.48
  1
固定プレート平面図　Ｓ＝１：２
 41
1.116666666666666
  7
ＭＳ ゴシック
100
AcDbText
  0
LWPOLYLINE
  5
2AC
330
1F
100
AcDbEntity
  8
1-4
  6
Continuous
 62
     7
370
     9
100
AcDbPolyline
 90
        4
 70
     1
 43
2.0
 10
-1187.040614772488
 20
-868.1784222577068
 42
0.4142135623731
 10
-1188.040614772487
 20
-867.1784222577069
 42
0.4142135623731
 10
-1189.040614772487
 20
-868.1784222577068
 42
0.4142135623731
 10
-1188.040614772487
 20
-869.1784222577066
 42
0.4142135623731
  0
LWPOLYLINE
  5
2AD
330
1F
100
AcDbEntity
  8
1-4
  6
Continuous
 62
     7
370
     9
100
AcDbPolyline
 90
        4
 70
     1
 43
2.0
 10
-977.0406642604519
 20
-868.1784222577068
 42
0.4142135623731
 10
-978.0406642604519
 20
-867.1784222577069
 42
0.4142135623731
 10
-979.0406642604518
 20
-868.1784222577068
 42
0.4142135623731
 10
-978.0406642604519
 20
-869.1784222577066
 42
0.4142135623731
  0
LWPOLYLINE
  5
2AE
330
1F
100
AcDbEntity
  8
1-4
  6
Continuous
 62
     7
370
     9
100
AcDbPolyline
 90
        4
 70
     1
 43
2.0
 10
-877.0407055004223
 20
-748.1783975137246
 42
0.4142135623731
 10
-878.0407055004223
 20
-747.1783975137247
 42
0.4142135623731
 10
-879.0407055004222
 20
-748.1783975137246
 42
0.4142135623731
 10
-878.0407055004223
 20
-749.1783975137246
 42
0.4142135623731
  0
LWPOLYLINE
  5
2AF
330
1F
100
AcDbEntity
  8
1-4
  6
Continuous
 62
     7
370
     9
100
AcDbPolyline
 90
        4
 70
     1
 43
2.0
 10
-877.0407055004223
 20
-578.1783315297719
 42
0.4142135623731
 10
-878.0407055004223
 20
-577.1783315297719
 42
0.4142135623731
 10
-879.0407055004222
 20
-578.1783315297719
 42
0.4142135623731
 10
-878.0407055004223
 20
-579.1783315297719
 42
0.4142135623731
  0
CIRCLE
  5
2B0
330
1F
100
AcDbEntity
  8
1-A
  6
Continuous
 62
     2
370
     9
100
AcDbCircle
 10
-1083.04063951647
 20
-663.1783645217481
 30
0.0
 40
30.0
  0
CIRCLE
  5
2B1
330
1F
100
AcDbEntity
  8
1-A
  6
Continuous
 62
     2
370
     9
100
AcDbCircle
 10
-1083.04063951647
 20
-663.1783645217481
 30
0.0
 40
21.25
  0
LINE
  5
2B2
330
1F
100
AcDbEntity
  8
1-A
  6
Continuous
 62
     2
370
     9
100
AcDbLine
 10
-1128.040764891839
 20
-630.1504881072492
 30
0.0
 11
-1128.040841599103
 21
-618.1781624391149
 31
0.0
  0
LINE
  5
2B3
330
1F
100
AcDbEntity
  8
1-A
  6
Continuous
 62
     2
370
     9
100
AcDbLine
 10
-1128.040841599103
 20
-618.1781624391149
 30
0.0
 11
-1116.068333856583
 21
-618.1782458898748
 31
0.0
  0
ARC
  5
2B4
330
1F
100
AcDbEntity
  8
1-A
  6
Continuous
 62
     2
370
     9
100
AcDbCircle
 10
-1095.540664927819
 20
-650.6783391103991
 30
0.0
 40
35.0
100
AcDbArc
 50
121.0026092529297
 51
148.9973449707031
  0
LINE
  5
2B5
330
1F
100
AcDbEntity
  8
1-A
  6
Continuous
 62
     2
370
     9
100
AcDbLine
 10
-1116.068515930969
 20
-708.1784898971172
 30
0.0
 11
-1128.040841599103
 21
-708.1785666043813
 31
0.0
  0
LINE
  5
2B6
330
1F
100
AcDbEntity
  8
1-A
  6
Continuous
 62
     2
370
     9
100
AcDbLine
 10
-1128.040841599103
 20
-708.1785666043813
 30
0.0
 11
-1128.040758148343
 21
-696.2060588618615
 31
0.0
  0
ARC
  5
2B7
330
1F
100
AcDbEntity
  8
1-A
  6
Continuous
 62
     2
370
     9
100
AcDbCircle
 10
-1095.540664927819
 20
-675.6783899330972
 30
0.0
 40
35.0
100
AcDbArc
 50
211.0026092529297
 51
238.9973449707031
  0
LINE
  5
2B8
330
1F
100
AcDbEntity
  8
1-A
  6
Continuous
 62
     2
370
     9
100
AcDbLine
 10
-1038.040514141101
 20
-696.2062409362471
 30
0.0
 11
-1038.040437433836
 21
-708.1785666043813
 31
0.0
  0
LINE
  5
2B9
330
1F
100
AcDbEntity
  8
1-A
  6
Continuous
 62
     2
370
     9
100
AcDbLine
 10
-1038.040437433836
 20
-708.1785666043813
 30
0.0
 11
-1050.012945176356
 21
-708.1784831536214
 31
0.0
  0
ARC
  5
2BA
330
1F
100
AcDbEntity
  8
1-A
  6
Continuous
 62
     2
370
     9
100
AcDbCircle
 10
-1070.540614105121
 20
-675.6783899330974
 30
0.0
 40
35.0
100
AcDbArc
 50
301.0026092529297
 51
328.9973449707031
  0
LINE
  5
2BB
330
1F
100
AcDbEntity
  8
1-A
  6
Continuous
 62
     2
370
     9
100
AcDbLine
 10
-1050.012763101971
 20
-618.1782391463792
 30
0.0
 11
-1038.040437433836
 21
-618.1781624391149
 31
0.0
  0
LINE
  5
2BC
330
1F
100
AcDbEntity
  8
1-A
  6
Continuous
 62
     2
370
     9
100
AcDbLine
 10
-1038.040437433836
 20
-618.1781624391149
 30
0.0
 11
-1038.040520884596
 21
-630.1506701816347
 31
0.0
  0
ARC
  5
2BD
330
1F
100
AcDbEntity
  8
1-A
  6
Continuous
 62
     2
370
     9
100
AcDbCircle
 10
-1070.540614105121
 20
-650.6783391103991
 30
0.0
 40
35.0
100
AcDbArc
 50
31.00260925292969
 51
58.99734497070312
  0
LINE
  5
2BE
330
1F
100
AcDbEntity
  8
1-A
  6
Continuous
 62
     2
370
     9
100
AcDbLine
 10
-1113.568390557582
 20
-620.6783645217481
 30
0.0
 11
-1116.068333856583
 21
-618.1782458898748
 31
0.0
  0
LINE
  5
2BF
330
1F
100
AcDbEntity
  8
1-A
  6
Continuous
 62
     2
370
     9
100
AcDbLine
 10
-1125.54063951647
 20
-632.6506134826182
 30
0.0
 11
-1128.040764891839
 21
-630.1504881072492
 31
0.0
  0
LINE
  5
2C0
330
1F
100
AcDbEntity
  8
1-A
  6
Continuous
 62
     2
370
     9
100
AcDbLine
 10
-1052.51288847734
 20
-620.6783645217481
 30
0.0
 11
-1050.012763101971
 21
-618.1782391463792
 31
0.0
  0
LINE
  5
2C1
330
1F
100
AcDbEntity
  8
1-A
  6
Continuous
 62
     2
370
     9
100
AcDbLine
 10
-1052.51288847734
 20
-620.6783645217481
 30
0.0
 11
-1113.568390557582
 21
-620.6783645217481
 31
0.0
  0
LINE
  5
2C2
330
1F
100
AcDbEntity
  8
1-A
  6
Continuous
 62
     2
370
     9
100
AcDbLine
 10
-1040.54063951647
 20
-632.6506134806357
 30
0.0
 11
-1038.040520884596
 21
-630.1506701816347
 31
0.0
  0
LINE
  5
2C3
330
1F
100
AcDbEntity
  8
1-A
  6
Continuous
 62
     2
370
     9
100
AcDbLine
 10
-1040.54063951647
 20
-693.7061155608783
 30
0.0
 11
-1038.040514141101
 21
-696.2062409362471
 31
0.0
  0
LINE
  5
2C4
330
1F
100
AcDbEntity
  8
1-A
  6
Continuous
 62
     2
370
     9
100
AcDbLine
 10
-1040.54063951647
 20
-693.7061155608783
 30
0.0
 11
-1040.54063951647
 21
-632.6506134806357
 31
0.0
  0
LINE
  5
2C5
330
1F
100
AcDbEntity
  8
1-A
  6
Continuous
 62
     2
370
     9
100
AcDbLine
 10
-1052.512888475357
 20
-705.6783645217481
 30
0.0
 11
-1050.012945176356
 21
-708.1784831536214
 31
0.0
  0
LINE
  5
2C6
330
1F
100
AcDbEntity
  8
1-A
  6
Continuous
 62
     2
370
     9
100
AcDbLine
 10
-1113.5683905556
 20
-705.6783645217481
 30
0.0
 11
-1116.068515930969
 21
-708.1784898971172
 31
0.0
  0
LINE
  5
2C7
330
1F
100
AcDbEntity
  8
1-A
  6
Continuous
 62
     2
370
     9
100
AcDbLine
 10
-1113.5683905556
 20
-705.6783645217481
 30
0.0
 11
-1052.512888475357
 21
-705.6783645217481
 31
0.0
  0
LINE
  5
2C8
330
1F
100
AcDbEntity
  8
1-A
  6
Continuous
 62
     2
370
     9
100
AcDbLine
 10
-1125.54063951647
 20
-693.7061155628608
 30
0.0
 11
-1128.040758148343
 21
-696.2060588618615
 31
0.0
  0
LINE
  5
2C9
330
1F
100
AcDbEntity
  8
1-A
  6
Continuous
 62
     2
370
     9
100
AcDbLine
 10
-1125.54063951647
 20
-632.6506134826182
 30
0.0
 11
-1125.54063951647
 21
-693.7061155628608
 31
0.0
  0
CIRCLE
  5
2CA
330
1F
100
AcDbEntity
  8
1-0
  6
Continuous
 62
     4
370
     9
100
AcDbCircle
 10
-1083.04063951647
 20
-663.1783645217481
 30
0.0
 40
105.0
  0
CIRCLE
  5
2CB
330
1F
100
AcDbEntity
  8
1-0
  6
Continuous
 62
     4
370
     9
100
AcDbCircle
 10
-998.0406395164697
 20
-663.1783645217481
 30
0.0
 40
10.0
  0
LINE
  5
2CC
330
1F
100
AcDbEntity
  8
1-0
  6
JWW_CENTER1
 62
     4
370
     9
100
AcDbLine
 10
-998.0406395164697
 20
-647.4679481618134
 30
0.0
 11
-998.0406395164697
 21
-679.1721998912456
 31
0.0
  0
CIRCLE
  5
2CD
330
1F
100
AcDbEntity
  8
1-0
  6
Continuous
 62
     4
370
     9
100
AcDbCircle
 10
-1083.04063951647
 20
-578.1783645217481
 30
0.0
 40
10.0
  0
LINE
  5
2CE
330
1F
100
AcDbEntity
  8
1-0
  6
JWW_CENTER1
 62
     4
370
     9
100
AcDbLine
 10
-1098.751055876405
 20
-578.1783645217481
 30
0.0
 11
-1067.046804146972
 21
-578.1783645217481
 31
0.0
  0
CIRCLE
  5
2CF
330
1F
100
AcDbEntity
  8
1-0
  6
Continuous
 62
     4
370
     9
100
AcDbCircle
 10
-1168.04063951647
 20
-663.1783645217481
 30
0.0
 40
10.0
  0
LINE
  5
2D0
330
1F
100
AcDbEntity
  8
1-0
  6
JWW_CENTER1
 62
     4
370
     9
100
AcDbLine
 10
-1168.04063951647
 20
-678.888780881683
 30
0.0
 11
-1168.04063951647
 21
-647.1845291522507
 31
0.0
  0
CIRCLE
  5
2D1
330
1F
100
AcDbEntity
  8
1-0
  6
Continuous
 62
     4
370
     9
100
AcDbCircle
 10
-1083.04063951647
 20
-748.1783645217481
 30
0.0
 40
10.0
  0
LINE
  5
2D2
330
1F
100
AcDbEntity
  8
1-0
  6
JWW_CENTER1
 62
     4
370
     9
100
AcDbLine
 10
-1067.330223156535
 20
-748.1783645217481
 30
0.0
 11
-1099.034474885967
 21
-748.1783645217481
 31
0.0
  0
LINE
  5
2D3
330
1F
100
AcDbEntity
  8
1-8
  6
Continuous
 62
     3
370
     9
100
AcDbLine
 10
-1180.540713748416
 20
50.97280141469611
 30
0.0
 11
-1180.540713748416
 21
45.97303235853047
 31
0.0
  0
LINE
  5
2D4
330
1F
100
AcDbEntity
  8
1-8
  6
Continuous
 62
     3
370
     9
100
AcDbLine
 10
-1155.540631268475
 20
50.97280141469611
 30
0.0
 11
-1180.540713748416
 21
50.97280141469611
 31
0.0
  0
LINE
  5
2D5
330
1F
100
AcDbEntity
  8
1-8
  6
Continuous
 62
     3
370
     9
100
AcDbLine
 10
-1155.540631268475
 20
50.97280141469611
 30
0.0
 11
-1155.540631268475
 21
45.97303235853047
 31
0.0
  0
LINE
  5
2D6
330
1F
100
AcDbEntity
  8
1-8
  6
Continuous
 62
     3
370
     9
100
AcDbLine
 10
-985.540689004434
 20
50.97280141469611
 30
0.0
 11
-985.540689004434
 21
45.97303235853047
 31
0.0
  0
LINE
  5
2D7
330
1F
100
AcDbEntity
  8
1-8
  6
Continuous
 62
     3
370
     9
100
AcDbLine
 10
-1010.540771484375
 20
50.97280141469611
 30
0.0
 11
-985.540689004434
 21
50.97280141469611
 31
0.0
  0
LINE
  5
2D8
330
1F
100
AcDbEntity
  8
1-8
  6
Continuous
 62
     3
370
     9
100
AcDbLine
 10
-1010.540771484375
 20
50.97280141469611
 30
0.0
 11
-1010.540771484375
 21
45.97303235853047
 31
0.0
  0
LINE
  5
2D9
330
1F
100
AcDbEntity
  8
1-8
  6
JWW_DASHED1
 62
     3
370
     9
100
AcDbLine
 10
-1003.04049930057
 20
-79.02738004117396
 30
0.0
 11
-1003.04049930057
 21
45.97303235853047
 31
0.0
  0
LINE
  5
2DA
330
1F
100
AcDbEntity
  8
1-8
  6
JWW_DASHED1
 62
     3
370
     9
100
AcDbLine
 10
-993.040590028505
 20
-79.02738004117396
 30
0.0
 11
-993.040590028505
 21
45.97303235853047
 31
0.0
  0
LINE
  5
2DB
330
1F
100
AcDbEntity
  8
1-8
  6
JWW_DASHED1
 62
     3
370
     9
100
AcDbLine
 10
-993.040590028505
 20
-79.02738004117396
 30
0.0
 11
-998.0406065244931
 21
-104.0272150812922
 31
0.0
  0
LINE
  5
2DC
330
1F
100
AcDbEntity
  8
1-8
  6
JWW_DASHED1
 62
     3
370
     9
100
AcDbLine
 10
-1003.04049930057
 20
-79.02738004117396
 30
0.0
 11
-998.0406065244931
 21
-104.0272150812922
 31
0.0
  0
LINE
  5
2DD
330
1F
100
AcDbEntity
  8
1-8
  6
JWW_DASHED1
 62
     3
370
     9
100
AcDbLine
 10
-1163.040779732369
 20
-79.02738004117396
 30
0.0
 11
-1163.040779732369
 21
45.97303235853047
 31
0.0
  0
LINE
  5
2DE
330
1F
100
AcDbEntity
  8
1-8
  6
JWW_DASHED1
 62
     3
370
     9
100
AcDbLine
 10
-1173.040689004434
 20
-79.02738004117396
 30
0.0
 11
-1173.040689004434
 21
45.97303235853047
 31
0.0
  0
LINE
  5
2DF
330
1F
100
AcDbEntity
  8
1-8
  6
JWW_DASHED1
 62
     3
370
     9
100
AcDbLine
 10
-1173.040689004434
 20
-79.02738004117396
 30
0.0
 11
-1168.040672508446
 21
-104.0272150812922
 31
0.0
  0
LINE
  5
2E0
330
1F
100
AcDbEntity
  8
1-8
  6
JWW_DASHED1
 62
     3
370
     9
100
AcDbLine
 10
-1163.040779732369
 20
-79.02738004117396
 30
0.0
 11
-1168.040672508446
 21
-104.0272150812922
 31
0.0
  0
LINE
  5
2E1
330
1F
100
AcDbEntity
  8
1-A
  6
Continuous
 62
     2
370
     9
100
AcDbLine
 10
-1120.289378214364
 20
57.30175060790657
 30
0.0
 11
-1128.040780454892
 21
50.9729090288053
 31
0.0
  0
LINE
  5
2E2
330
1F
100
AcDbEntity
  8
1-A
  6
Continuous
 62
     2
370
     9
100
AcDbLine
 10
-1120.289378214364
 20
57.30175060790657
 30
0.0
 11
-1113.568392241473
 21
57.30175060790657
 31
0.0
  0
LINE
  5
2E3
330
1F
100
AcDbEntity
  8
1-A
  6
Continuous
 62
     2
370
     9
100
AcDbLine
 10
-1113.568392241473
 20
57.30175060790657
 30
0.0
 11
-1113.568392241473
 21
45.97285305906809
 31
0.0
  0
LINE
  5
2E4
330
1F
100
AcDbEntity
  8
1-A
  6
Continuous
 62
     2
370
     9
100
AcDbLine
 10
-1128.040780454892
 20
50.9729090288053
 30
0.0
 11
-1128.040777083144
 21
45.97290026353846
 31
0.0
  0
LINE
  5
2E5
330
1F
100
AcDbEntity
  8
1-A
  6
Continuous
 62
     2
370
     9
100
AcDbLine
 10
-1125.54063951647
 20
85.97285439946248
 30
0.0
 11
-1125.54063951647
 21
53.01420228511162
 31
0.0
  0
LINE
  5
2E6
330
1F
100
AcDbEntity
  8
1-A
  6
Continuous
 62
     2
370
     9
100
AcDbLine
 10
-1045.791865415222
 20
57.30179275475507
 30
0.0
 11
-1038.040456431198
 21
50.97287025370463
 31
0.0
  0
LINE
  5
2E7
330
1F
100
AcDbEntity
  8
1-A
  6
Continuous
 62
     2
370
     9
100
AcDbLine
 10
-1045.791865415222
 20
57.30179275475507
 30
0.0
 11
-1052.512842958743
 21
57.30179781237695
 31
0.0
  0
LINE
  5
2E8
330
1F
100
AcDbEntity
  8
1-A
  6
Continuous
 62
     2
370
     9
100
AcDbLine
 10
-1052.512842958743
 20
57.30179781237695
 30
0.0
 11
-1052.512842958743
 21
45.97290026353846
 31
0.0
  0
LINE
  5
2E9
330
1F
100
AcDbEntity
  8
1-A
  6
Continuous
 62
     2
370
     9
100
AcDbLine
 10
-1038.040456431198
 20
50.97287025370463
 30
0.0
 11
-1038.040458117072
 21
45.97285305906809
 31
0.0
  0
LINE
  5
2EA
330
1F
100
AcDbEntity
  8
1-A
  6
Continuous
 62
     2
370
     9
100
AcDbLine
 10
-1040.54063951647
 20
85.97277010576548
 30
0.0
 11
-1040.540593997873
 21
53.01424780370809
 31
0.0
  0
LINE
  5
2EB
330
1F
100
AcDbEntity
  8
1-A
  6
Continuous
 62
     2
370
     9
100
AcDbLine
 10
-1125.54063951647
 20
85.97285439946248
 30
0.0
 11
-1040.54063951647
 21
85.97277010576548
 31
0.0
  0
LINE
  5
2EC
330
1F
100
AcDbEntity
  8
1-0
  6
Continuous
 62
     4
370
     9
100
AcDbLine
 10
-1188.040643179687
 20
37.97293173300261
 30
0.0
 11
-978.0406431796945
 21
37.97282158962872
 31
0.0
  0
LINE
  5
2ED
330
1F
100
AcDbEntity
  8
1-0
  6
Continuous
 62
     4
370
     9
100
AcDbLine
 10
-1188.040642615165
 20
45.97293173300329
 30
0.0
 11
-1188.040643179687
 21
37.97293173300261
 31
0.0
  0
LINE
  5
2EE
330
1F
100
AcDbEntity
  8
1-0
  6
Continuous
 62
     4
370
     9
100
AcDbLine
 10
-1188.040642615165
 20
45.97293173300329
 30
0.0
 11
-978.0406426151726
 21
45.97282158962955
 31
0.0
  0
LINE
  5
2EF
330
1F
100
AcDbEntity
  8
1-0
  6
Continuous
 62
     4
370
     9
100
AcDbLine
 10
-978.0406426151726
 20
45.97282158962955
 30
0.0
 11
-978.0406431796945
 21
37.97282158962872
 31
0.0
  0
LINE
  5
2F0
330
1F
100
AcDbEntity
  8
1-0
  6
JWW_CENTER1
 62
     4
370
     9
100
AcDbLine
 10
-1168.04063951647
 20
31.78411642216119
 30
0.0
 11
-1168.04063951647
 21
54.63254306372505
 31
0.0
  0
LINE
  5
2F1
330
1F
100
AcDbEntity
  8
1-0
  6
Continuous
 62
     4
370
     9
100
AcDbLine
 10
-1158.04063951647
 20
37.97291599823296
 30
0.0
 11
-1158.04063951647
 21
45.97291599823393
 31
0.0
  0
LINE
  5
2F2
330
1F
100
AcDbEntity
  8
1-0
  6
Continuous
 62
     4
370
     9
100
AcDbLine
 10
-1178.04063951647
 20
37.97292648807797
 30
0.0
 11
-1178.04063951647
 21
45.97292648807922
 31
0.0
  0
LINE
  5
2F3
330
1F
100
AcDbEntity
  8
1-0
  6
JWW_CENTER1
 62
     4
370
     9
100
AcDbLine
 10
-998.0406462202668
 20
31.78410442606832
 30
0.0
 11
-998.0406462202668
 21
54.63253106763233
 31
0.0
  0
LINE
  5
2F4
330
1F
100
AcDbEntity
  8
1-0
  6
Continuous
 62
     4
370
     9
100
AcDbLine
 10
-1008.040646220267
 20
37.9729040021401
 30
0.0
 11
-1008.040646220267
 21
45.97290400214121
 31
0.0
  0
LINE
  5
2F5
330
1F
100
AcDbEntity
  8
1-0
  6
Continuous
 62
     4
370
     9
100
AcDbLine
 10
-988.0406462202668
 20
37.97291449198525
 30
0.0
 11
-988.0406462202668
 21
45.97291449198622
 31
0.0
  0
LINE
  5
2F6
330
1F
100
AcDbEntity
  8
1-0
  6
Continuous
 62
     4
370
     9
100
AcDbLine
 10
-1050.54064261517
 20
45.9728596153181
 30
0.0
 11
-1050.540643179692
 21
37.97285961531728
 31
0.0
  0
LINE
  5
2F7
330
1F
100
AcDbEntity
  8
1-0
  6
Continuous
 62
     4
370
     9
100
AcDbLine
 10
-1115.540642615168
 20
45.97289370731474
 30
0.0
 11
-1115.54064317969
 21
37.97289370731392
 31
0.0
  0
LINE
  5
2F8
330
1F
100
AcDbEntity
  8
1-4
  6
Continuous
 62
     7
370
     9
100
AcDbLine
 10
-1049.040675807644
 20
85.97278250179926
 30
0.0
 11
-1039.473415065456
 21
109.069681585942
 31
0.0
  0
LINE
  5
2F9
330
1F
100
AcDbEntity
  8
1-4
  6
Continuous
 62
     7
370
     9
100
AcDbLine
 10
-1049.040675807644
 20
85.97278250179926
 30
0.0
 11
-1033.821642076647
 21
105.8065689249412
 31
0.0
  0
LINE
  5
2FA
330
1F
100
AcDbEntity
  8
1-4
  6
Continuous
 62
     7
370
     9
100
AcDbLine
 10
-1049.040675807644
 20
85.97278250179926
 30
0.0
 11
-991.3055419921874
 21
185.972741261829
 31
0.0
  0
TEXT
  5
2FB
330
1F
100
AcDbEntity
  8
1-4
  6
Continuous
 62
     6
370
     0
100
AcDbText
 10
-981.1738743137669
 20
200.9867873318245
 30
0.0
 40
22.86
  1
固定プレート：ＳＧＨＣ他
 41
0.8944444444444445
  7
ＭＳ ゴシック
100
AcDbText
  0
LINE
  5
2FC
330
1F
100
AcDbEntity
  8
1-4
  6
Continuous
 62
     7
370
     9
100
AcDbLine
 10
-991.3055419921874
 20
185.972741261829
 30
0.0
 11
-657.824201281344
 21
185.972741261829
 31
0.0
  0
LINE
  5
2FD
330
1F
100
AcDbEntity
  8
1-8
  6
Continuous
 62
     3
370
     9
100
AcDbLine
 10
-1113.040491052576
 20
308.3316204998945
 30
0.0
 11
-1113.040491052576
 21
85.97284200318335
 31
0.0
  0
LINE
  5
2FE
330
1F
100
AcDbEntity
  8
1-8
  6
Continuous
 62
     3
370
     9
100
AcDbLine
 10
-1108.040474556588
 20
309.6713834195523
 30
0.0
 11
-1108.040474556588
 21
85.97283704471423
 31
0.0
  0
LINE
  5
2FF
330
1F
100
AcDbEntity
  8
1-8
  6
Continuous
 62
     3
370
     9
100
AcDbLine
 10
-1058.040557036529
 20
323.0688888962206
 30
0.0
 11
-1058.040557036529
 21
85.97278746026834
 31
0.0
  0
LINE
  5
300
330
1F
100
AcDbEntity
  8
1-8
  6
Continuous
 62
     3
370
     9
100
AcDbLine
 10
-1053.04054054054
 20
324.4086518158784
 30
0.0
 11
-1053.04054054054
 21
85.97278250179923
 31
0.0
  0
CIRCLE
  5
301
330
1F
100
AcDbEntity
  8
2-1
  6
Continuous
 62
     6
370
     5
100
AcDbCircle
 10
539.5537917678422
 20
-85.98674877269843
 30
0.0
 40
24.0
  0
CIRCLE
  5
302
330
1F
100
AcDbEntity
  8
2-1
  6
Continuous
 62
     6
370
     5
100
AcDbCircle
 10
539.5539154877537
 20
910.5812196473819
 30
0.0
 40
24.0
  0
CIRCLE
  5
303
330
1F
100
AcDbEntity
  8
2-1
  6
Continuous
 62
     6
370
     5
100
AcDbCircle
 10
1536.122007627745
 20
910.5812196473818
 30
0.0
 40
24.0
  0
CIRCLE
  5
304
330
1F
100
AcDbEntity
  8
2-1
  6
Continuous
 62
     6
370
     5
100
AcDbCircle
 10
1536.121760187923
 20
-85.98687249260976
 30
0.0
 40
24.0
  0
ENDSEC
  0
SECTION
  2
OBJECTS
  0
DICTIONARY
  5
C
330
0
100
AcDbDictionary
281
     1
  3
ACAD_DETAILVIEWSTYLE
350
30C
  3
ACAD_GROUP
350
D
  3
ACAD_LAYOUT
350
1A
  3
ACAD_MATERIAL
350
43
  3
ACAD_MLEADERSTYLE
350
6B
  3
ACAD_MLINESTYLE
350
17
  3
ACAD_PLOTSETTINGS
350
19
  3
ACAD_PLOTSTYLENAME
350
E
  3
ACAD_SCALELIST
350
47
  3
ACAD_SECTIONVIEWSTYLE
350
30D
  3
ACAD_TABLESTYLE
350
69
  3
ACAD_VISUALSTYLE
350
2A
  3
ACDB_RECOMPOSE_DATA
350
309
  3
AcDbVariableDictionary
350
305
  0
SUN
  5
6D
330
29
100
AcDbSun
 90
        1
290
     0
 63
     7
421
 16777215
 40
1.0
291
     1
 91
  2455826
 92
 54000000
292
     0
 70
     2
 71
   256
280
     1
  0
DICTIONARY
  5
30C
102
{ACAD_REACTORS
330
C
102
}
330
C
100
AcDbDictionary
281
     1
  0
DICTIONARY
  5
D
102
{ACAD_REACTORS
330
C
102
}
330
C
100
AcDbDictionary
281
     1
  0
DICTIONARY
  5
1A
102
{ACAD_REACTORS
330
C
102
}
330
C
100
AcDbDictionary
281
     1
  3
Layout1
350
1E
  3
Layout2
350
26
  3
Model
350
22
  0
DICTIONARY
  5
43
102
{ACAD_REACTORS
330
C
102
}
330
C
100
AcDbDictionary
281
     1
  3
ByBlock
350
45
  3
ByLayer
350
44
  3
Global
350
46
  0
DICTIONARY
  5
6B
102
{ACAD_REACTORS
330
C
102
}
330
C
100
AcDbDictionary
281
     1
  3
Standard
350
6C
  0
DICTIONARY
  5
17
102
{ACAD_REACTORS
330
C
102
}
330
C
100
AcDbDictionary
281
     1
  3
Standard
350
18
  0
DICTIONARY
  5
19
102
{ACAD_REACTORS
330
C
102
}
330
C
100
AcDbDictionary
281
     1
  0
ACDBDICTIONARYWDFLT
  5
E
102
{ACAD_REACTORS
330
C
102
}
330
C
100
AcDbDictionary
281
     1
  3
Normal
350
F
100
AcDbDictionaryWithDefault
340
F
  0
DICTIONARY
  5
47
102
{ACAD_REACTORS
330
C
102
}
330
C
100
AcDbDictionary
281
     1
  3
A0
350
48
  3
A1
350
49
  3
A2
350
4A
  3
A3
350
4B
  3
A4
350
4C
  3
A5
350
4D
  3
A6
350
4E
  3
A7
350
4F
  3
A8
350
50
  3
A9
350
51
  3
B0
350
52
  3
B1
350
53
  3
B2
350
54
  3
B3
350
55
  3
B4
350
56
  3
B5
350
57
  3
B6
350
58
  3
B7
350
59
  3
B8
350
5A
  3
B9
350
5B
  3
C0
350
5C
  3
C1
350
5D
  3
C2
350
5E
  3
C3
350
5F
  3
C4
350
60
  3
C5
350
61
  3
C6
350
62
  3
C7
350
63
  3
C8
350
64
  3
C9
350
65
  3
D0
350
66
  3
D1
350
67
  3
D2
350
68
  0
DICTIONARY
  5
30D
102
{ACAD_REACTORS
330
C
102
}
330
C
100
AcDbDictionary
281
     1
  0
DICTIONARY
  5
69
102
{ACAD_REACTORS
330
C
102
}
330
C
100
AcDbDictionary
281
     1
  3
Standard
350
6A
  0
DICTIONARY
  5
2A
102
{ACAD_REACTORS
330
C
102
}
330
C
100
AcDbDictionary
281
     1
  3
2dWireframe
350
2F
  3
Basic
350
32
  3
Brighten
350
36
  3
ColorChange
350
3A
  3
Conceptual
350
34
  3
Dim
350
35
  3
EdgeColorOff
350
3D
  3
Facepattern
350
39
  3
Flat
350
2B
  3
FlatWithEdges
350
2C
  3
Gouraud
350
2D
  3
GouraudWithEdges
350
2E
  3
Hidden
350
31
  3
JitterOff
350
3B
  3
Linepattern
350
38
  3
OverhangOff
350
3C
  3
Realistic
350
33
  3
Shaded
350
42
  3
Shaded with edges
350
41
  3
Shades of Gray
350
3E
  3
Sketchy
350
3F
  3
Thicken
350
37
  3
Wireframe
350
30
  3
X-Ray
350
40
  0
XRECORD
  5
309
102
{ACAD_REACTORS
330
C
102
}
330
C
100
AcDbXrecord
280
     1
 90
        1
330
6A
  0
DICTIONARY
  5
305
102
{ACAD_REACTORS
330
C
102
}
330
C
100
AcDbDictionary
281
     1
  3
CANNOSCALE
350
306
  3
CENTEREXE
350
30E
  3
CENTERLTYPEFILE
350
30F
  3
CMLEADERSTYLE
350
30B
  3
CTABLESTYLE
350
30A
  0
LAYOUT
  5
1E
102
{ACAD_REACTORS
330
1A
102
}
330
1A
100
AcDbPlotSettings
  1

  2
none_device
  4

  6

 40
0.0
 41
0.0
 42
0.0
 43
0.0
 44
0.0
 45
0.0
 46
0.0
 47
0.0
 48
0.0
 49
0.0
140
0.0
141
0.0
142
1.0
143
1.0
 70
   688
 72
     1
 73
     0
 74
     5
  7

 75
    16
 76
     0
 77
     5
 78
   300
147
1.0
148
0.0
149
0.0
100
AcDbLayout
  1
Layout1
 70
     1
 71
     1
 10
0.0
 20
0.0
 11
420.0
 21
297.0
 12
0.0
 22
0.0
 32
0.0
 14
1.000000000000000E+20
 24
1.000000000000000E+20
 34
1.000000000000000E+20
 15
-1.000000000000000E+20
 25
-1.000000000000000E+20
 35
-1.000000000000000E+20
146
0.0
 13
0.0
 23
0.0
 33
0.0
 16
1.0
 26
0.0
 36
0.0
 17
0.0
 27
1.0
 37
0.0
 76
     0
330
1B
  0
LAYOUT
  5
26
102
{ACAD_REACTORS
330
1A
102
}
330
1A
100
AcDbPlotSettings
  1

  2
none_device
  4

  6

 40
0.0
 41
0.0
 42
0.0
 43
0.0
 44
0.0
 45
0.0
 46
0.0
 47
0.0
 48
0.0
 49
0.0
140
0.0
141
0.0
142
1.0
143
1.0
 70
   688
 72
     1
 73
     0
 74
     5
  7

 75
    16
 76
     0
 77
     5
 78
   300
147
1.0
148
0.0
149
0.0
100
AcDbLayout
  1
Layout2
 70
     1
 71
     2
 10
0.0
 20
0.0
 11
0.0
 21
0.0
 12
0.0
 22
0.0
 32
0.0
 14
0.0
 24
0.0
 34
0.0
 15
0.0
 25
0.0
 35
0.0
146
0.0
 13
0.0
 23
0.0
 33
0.0
 16
1.0
 26
0.0
 36
0.0
 17
0.0
 27
1.0
 37
0.0
 76
     0
330
23
  0
LAYOUT
  5
22
102
{ACAD_REACTORS
330
1A
102
}
330
1A
100
AcDbPlotSettings
  1

  2
none_device
  4
Letter_(8.50_x_11.00_Inches)
  6

 40
6.35
 41
6.35
 42
6.35000508
 43
6.35000508
 44
215.9
 45
279.4
 46
0.0
 47
0.0
 48
0.0
 49
0.0
140
0.0
141
0.0
142
1.0
143
1.0
 70
  1712
 72
     1
 73
     0
 74
     0
  7

 75
     0
 76
     0
 77
     5
 78
   300
147
1.0
148
0.0
149
0.0
100
AcDbLayout
  1
Model
 70
     1
 71
     0
 10
-2100.0
 20
-1485.0
 11
2100.0
 21
1485.0
 12
0.0
 22
0.0
 32
0.0
 14
-2100.0
 24
-1485.0
 34
0.0
 15
2100.0
 25
1485.0
 35
0.0
146
0.0
 13
0.0
 23
0.0
 33
0.0
 16
1.0
 26
0.0
 36
0.0
 17
0.0
 27
1.0
 37
0.0
 76
     0
330
1F
331
29
  0
MATERIAL
  5
45
102
{ACAD_REACTORS
330
43
102
}
330
43
100
AcDbMaterial
  1
ByBlock
 72
     1
 94
      127
  0
MATERIAL
  5
44
102
{ACAD_REACTORS
330
43
102
}
330
43
100
AcDbMaterial
  1
ByLayer
 72
     1
 94
      127
  0
MATERIAL
  5
46
102
{ACAD_REACTORS
330
43
102
}
330
43
100
AcDbMaterial
  1
Global
 72
     1
 94
      127
  0
MLEADERSTYLE
  5
6C
102
{ACAD_REACTORS
330
6B
102
}
330
6B
100
AcDbMLeaderStyle
179
     2
170
     2
171
     1
172
     0
 90
        2
 40
0.0
 41
0.0
173
     1
 91
-1056964608
340
14
 92
       -2
290
     1
 42
2.0
291
     1
 43
8.0
  3
Standard
341
0
 44
4.0
300

342
11
174
     1
178
     6
175
     1
176
     0
 93
-1056964608
 45
4.0
292
     0
297
     0
 46
4.0
343
0
 94
-1056964608
 47
1.0
 49
1.0
140
1.0
293
     1
141
0.0
294
     1
177
     0
142
1.0
295
     0
296
     0
143
3.75
271
     0
272
     9
273
     9
298
     0
  0
MLINESTYLE
  5
18
102
{ACAD_REACTORS
330
17
102
}
330
17
100
AcDbMlineStyle
  2
Standard
 70
     0
  3

 62
   256
 51
90.0
 52
90.0
 71
     2
 49
0.5
 62
   256
  6
BYLAYER
 49
-0.5
 62
   256
  6
BYLAYER
  0
ACDBPLACEHOLDER
  5
F
102
{ACAD_REACTORS
330
E
102
}
330
E
  0
SCALE
  5
48
102
{ACAD_REACTORS
330
47
102
}
330
47
100
AcDbScale
 70
     0
300
1:1
140
1.0
141
1.0
290
     1
  0
SCALE
  5
49
102
{ACAD_REACTORS
330
47
102
}
330
47
100
AcDbScale
 70
     0
300
1:2
140
1.0
141
2.0
290
     0
  0
SCALE
  5
4A
102
{ACAD_REACTORS
330
47
102
}
330
47
100
AcDbScale
 70
     0
300
1:4
140
1.0
141
4.0
290
     0
  0
SCALE
  5
4B
102
{ACAD_REACTORS
330
47
102
}
330
47
100
AcDbScale
 70
     0
300
1:5
140
1.0
141
5.0
290
     0
  0
SCALE
  5
4C
102
{ACAD_REACTORS
330
47
102
}
330
47
100
AcDbScale
 70
     0
300
1:8
140
1.0
141
8.0
290
     0
  0
SCALE
  5
4D
102
{ACAD_REACTORS
330
47
102
}
330
47
100
AcDbScale
 70
     0
300
1:10
140
1.0
141
10.0
290
     0
  0
SCALE
  5
4E
102
{ACAD_REACTORS
330
47
102
}
330
47
100
AcDbScale
 70
     0
300
1:16
140
1.0
141
16.0
290
     0
  0
SCALE
  5
4F
102
{ACAD_REACTORS
330
47
102
}
330
47
100
AcDbScale
 70
     0
300
1:20
140
1.0
141
20.0
290
     0
  0
SCALE
  5
50
102
{ACAD_REACTORS
330
47
102
}
330
47
100
AcDbScale
 70
     0
300
1:30
140
1.0
141
30.0
290
     0
  0
SCALE
  5
51
102
{ACAD_REACTORS
330
47
102
}
330
47
100
AcDbScale
 70
     0
300
1:40
140
1.0
141
40.0
290
     0
  0
SCALE
  5
52
102
{ACAD_REACTORS
330
47
102
}
330
47
100
AcDbScale
 70
     0
300
1:50
140
1.0
141
50.0
290
     0
  0
SCALE
  5
53
102
{ACAD_REACTORS
330
47
102
}
330
47
100
AcDbScale
 70
     0
300
1:100
140
1.0
141
100.0
290
     0
  0
SCALE
  5
54
102
{ACAD_REACTORS
330
47
102
}
330
47
100
AcDbScale
 70
     0
300
2:1
140
2.0
141
1.0
290
     0
  0
SCALE
  5
55
102
{ACAD_REACTORS
330
47
102
}
330
47
100
AcDbScale
 70
     0
300
4:1
140
4.0
141
1.0
290
     0
  0
SCALE
  5
56
102
{ACAD_REACTORS
330
47
102
}
330
47
100
AcDbScale
 70
     0
300
8:1
140
8.0
141
1.0
290
     0
  0
SCALE
  5
57
102
{ACAD_REACTORS
330
47
102
}
330
47
100
AcDbScale
 70
     0
300
10:1
140
10.0
141
1.0
290
     0
  0
SCALE
  5
58
102
{ACAD_REACTORS
330
47
102
}
330
47
100
AcDbScale
 70
     0
300
100:1
140
100.0
141
1.0
290
     0
  0
SCALE
  5
59
102
{ACAD_REACTORS
330
47
102
}
330
47
100
AcDbScale
 70
     0
300
1/128" = 1'-0"
140
0.0078125
141
12.0
290
     0
  0
SCALE
  5
5A
102
{ACAD_REACTORS
330
47
102
}
330
47
100
AcDbScale
 70
     0
300
1/64" = 1'-0"
140
0.015625
141
12.0
290
     0
  0
SCALE
  5
5B
102
{ACAD_REACTORS
330
47
102
}
330
47
100
AcDbScale
 70
     0
300
1/32" = 1'-0"
140
0.03125
141
12.0
290
     0
  0
SCALE
  5
5C
102
{ACAD_REACTORS
330
47
102
}
330
47
100
AcDbScale
 70
     0
300
1/16" = 1'-0"
140
0.0625
141
12.0
290
     0
  0
SCALE
  5
5D
102
{ACAD_REACTORS
330
47
102
}
330
47
100
AcDbScale
 70
     0
300
3/32" = 1'-0"
140
0.09375
141
12.0
290
     0
  0
SCALE
  5
5E
102
{ACAD_REACTORS
330
47
102
}
330
47
100
AcDbScale
 70
     0
300
1/8" = 1'-0"
140
0.125
141
12.0
290
     0
  0
SCALE
  5
5F
102
{ACAD_REACTORS
330
47
102
}
330
47
100
AcDbScale
 70
     0
300
3/16" = 1'-0"
140
0.1875
141
12.0
290
     0
  0
SCALE
  5
60
102
{ACAD_REACTORS
330
47
102
}
330
47
100
AcDbScale
 70
     0
300
1/4" = 1'-0"
140
0.25
141
12.0
290
     0
  0
SCALE
  5
61
102
{ACAD_REACTORS
330
47
102
}
330
47
100
AcDbScale
 70
     0
300
3/8" = 1'-0"
140
0.375
141
12.0
290
     0
  0
SCALE
  5
62
102
{ACAD_REACTORS
330
47
102
}
330
47
100
AcDbScale
 70
     0
300
1/2" = 1'-0"
140
0.5
141
12.0
290
     0
  0
SCALE
  5
63
102
{ACAD_REACTORS
330
47
102
}
330
47
100
AcDbScale
 70
     0
300
3/4" = 1'-0"
140
0.75
141
12.0
290
     0
  0
SCALE
  5
64
102
{ACAD_REACTORS
330
47
102
}
330
47
100
AcDbScale
 70
     0
300
1" = 1'-0"
140
1.0
141
12.0
290
     0
  0
SCALE
  5
65
102
{ACAD_REACTORS
330
47
102
}
330
47
100
AcDbScale
 70
     0
300
1-1/2" = 1'-0"
140
1.5
141
12.0
290
     0
  0
SCALE
  5
66
102
{ACAD_REACTORS
330
47
102
}
330
47
100
AcDbScale
 70
     0
300
3" = 1'-0"
140
3.0
141
12.0
290
     0
  0
SCALE
  5
67
102
{ACAD_REACTORS
330
47
102
}
330
47
100
AcDbScale
 70
     0
300
6" = 1'-0"
140
6.0
141
12.0
290
     0
  0
SCALE
  5
68
102
{ACAD_REACTORS
330
47
102
}
330
47
100
AcDbScale
 70
     0
300
1'-0" = 1'-0"
140
12.0
141
12.0
290
     0
  0
TABLESTYLE
  5
6A
102
{ACAD_REACTORS
330
69
102
}
102
{ACAD_XDICTIONARY
360
307
102
}
330
69
100
AcDbTableStyle
  3
Standard
 70
     0
 71
     0
 40
0.06
 41
0.06
280
     0
281
     0
  7
Standard
140
4.5
170
     2
 62
     0
 63
   257
283
     0
 90
        4
 91
        0
  1

274
    -2
284
     1
 64
     0
275
    -2
285
     1
 65
     0
276
    -2
286
     1
 66
     0
277
    -2
287
     1
 67
     0
278
    -2
288
     1
 68
     0
279
    -2
289
     1
 69
     0
  7
Standard
140
6.0
170
     5
 62
     0
 63
   257
283
     0
 90
        4
 91
        0
  1

274
    -2
284
     1
 64
     0
275
    -2
285
     1
 65
     0
276
    -2
286
     1
 66
     0
277
    -2
287
     1
 67
     0
278
    -2
288
     1
 68
     0
279
    -2
289
     1
 69
     0
  7
Standard
140
4.5
170
     5
 62
     0
 63
   257
283
     0
 90
        4
 91
        0
  1

274
    -2
284
     1
 64
     0
275
    -2
285
     1
 65
     0
276
    -2
286
     1
 66
     0
277
    -2
287
     1
 67
     0
278
    -2
288
     1
 68
     0
279
    -2
289
     1
 69
     0
  0
VISUALSTYLE
  5
2F
102
{ACAD_REACTORS
330
2A
102
}
330
2A
100
AcDbVisualStyle
  2
2dWireframe
 70
     4
177
     3
291
     0
 70
    58
 90
        0
176
     1
 90
        2
176
     1
 90
        0
176
     1
 90
        0
176
     1
 40
0.6
176
     1
 40
30.0
176
     1
 62
     7
420
 16777215
176
     1
 90
        1
176
     1
 90
        4
176
     1
 62
     7
176
     1
 62
   257
176
     1
 90
        1
176
     1
 90
        1
176
     1
 40
1.0
176
     1
 90
        0
176
     1
 62
   257
176
     1
 40
1.0
176
     1
 90
        1
176
     1
 90
        6
176
     1
 90
        2
176
     1
 62
     7
176
     1
 90
        5
176
     1
 90
        0
176
     1
 90
        0
176
     1
290
     0
176
     1
 90
        1
176
     1
 40
0.0
176
     1
 90
        0
176
     1
290
     1
176
     1
290
     1
176
     1
290
     0
176
     1
290
     0
176
     1
290
     0
176
     1
290
     0
176
     1
290
     0
176
     1
290
     0
176
     1
290
     0
176
     1
 90
       50
176
     1
 40
0.0
176
     1
 40
1.0
176
     1
 90
        0
176
     1
 62
    18
420
        0
176
     1
 90
       50
176
     1
 90
        3
176
     1
 62
     5
420
      255
176
     1
290
     0
176
     1
 90
       50
176
     1
 90
       50
176
     1
 90
       50
176
     1
290
     0
176
     1
 90
       50
176
     1
 62
   256
176
     0
 40
1.0
176
     0
 90
        2
176
     1
  1
strokes_ogs.tif
176
     1
290
     0
176
     1
 40
1.0
176
     1
 40
1.0
176
     1
  0
VISUALSTYLE
  5
32
102
{ACAD_REACTORS
330
2A
102
}
330
2A
100
AcDbVisualStyle
  2
Basic
 70
     7
177
     3
291
     1
 70
    58
 90
        1
176
     1
 90
        0
176
     1
 90
        1
176
     1
 90
        0
176
     1
 40
0.6
176
     1
 40
30.0
176
     1
 62
     7
420
 16777215
176
     1
 90
        0
176
     1
 90
        4
176
     1
 62
     7
176
     1
 62
   257
176
     1
 90
        1
176
     1
 90
        1
176
     1
 40
1.0
176
     1
 90
        8
176
     1
 62
     7
176
     1
 40
1.0
176
     1
 90
        1
176
     1
 90
        6
176
     1
 90
        2
176
     1
 62
     7
176
     1
 90
        5
176
     1
 90
        0
176
     1
 90
        0
176
     1
290
     0
176
     1
 90
        1
176
     1
 40
0.0
176
     1
 90
        0
176
     1
290
     0
176
     1
290
     1
176
     1
290
     1
176
     1
290
     0
176
     1
290
     0
176
     1
290
     0
176
     1
290
     0
176
     1
290
     0
176
     1
290
     0
176
     1
 90
       50
176
     1
 40
0.0
176
     1
 40
1.0
176
     1
 90
        0
176
     1
 62
    18
420
        0
176
     1
 90
       50
176
     1
 90
        3
176
     1
 62
     5
420
      255
176
     1
290
     0
176
     1
 90
       50
176
     1
 90
       50
176
     1
 90
       50
176
     1
290
     0
176
     1
 90
       50
176
     1
 62
   256
176
     0
 40
1.0
176
     0
 90
        2
176
     1
  1
strokes_ogs.tif
176
     1
290
     0
176
     1
 40
1.0
176
     1
 40
1.0
176
     1
  0
VISUALSTYLE
  5
36
102
{ACAD_REACTORS
330
2A
102
}
330
2A
100
AcDbVisualStyle
  2
Brighten
 70
    12
177
     3
291
     1
 70
    58
 90
        2
176
     1
 90
        2
176
     1
 90
        0
176
     1
 90
        0
176
     1
 40
0.6
176
     1
 40
30.0
176
     1
 62
     7
420
 16777215
176
     1
 90
        1
176
     1
 90
        4
176
     1
 62
     7
176
     1
 62
   257
176
     1
 90
        1
176
     1
 90
        1
176
     1
 40
1.0
176
     1
 90
        8
176
     1
 62
     7
176
     1
 40
1.0
176
     1
 90
        1
176
     1
 90
        6
176
     1
 90
        2
176
     1
 62
     7
176
     1
 90
        5
176
     1
 90
        0
176
     1
 90
        0
176
     1
290
     0
176
     1
 90
        1
176
     1
 40
50.0
176
     1
 90
        0
176
     1
290
     0
176
     1
290
     1
176
     1
290
     1
176
     1
290
     0
176
     1
290
     0
176
     1
290
     0
176
     1
290
     0
176
     1
290
     0
176
     1
290
     0
176
     1
 90
       50
176
     1
 40
0.0
176
     1
 40
1.0
176
     1
 90
        0
176
     1
 62
    18
420
        0
176
     1
 90
       50
176
     1
 90
        3
176
     1
 62
     5
420
      255
176
     1
290
     0
176
     1
 90
       50
176
     1
 90
       50
176
     1
 90
       50
176
     1
290
     0
176
     1
 90
       50
176
     1
 62
   256
176
     0
 40
1.0
176
     0
 90
        2
176
     1
  1
strokes_ogs.tif
176
     1
290
     0
176
     1
 40
1.0
176
     1
 40
1.0
176
     1
  0
VISUALSTYLE
  5
3A
102
{ACAD_REACTORS
330
2A
102
}
330
2A
100
AcDbVisualStyle
  2
ColorChange
 70
    16
177
     3
291
     1
 70
    58
 90
        2
176
     1
 90
        2
176
     1
 90
        3
176
     1
 90
        0
176
     1
 40
0.6
176
     1
 40
30.0
176
     1
 62
     8
420
  8421504
176
     1
 90
        1
176
     1
 90
        4
176
     1
 62
     7
176
     1
 62
   257
176
     1
 90
        1
176
     1
 90
        1
176
     1
 40
1.0
176
     1
 90
        8
176
     1
 62
     8
420
  8421504
176
     1
 40
1.0
176
     1
 90
        1
176
     1
 90
        6
176
     1
 90
        2
176
     1
 62
     7
176
     1
 90
        5
176
     1
 90
        0
176
     1
 90
        0
176
     1
290
     0
176
     1
 90
        1
176
     1
 40
0.0
176
     1
 90
        0
176
     1
290
     0
176
     1
290
     1
176
     1
290
     1
176
     1
290
     0
176
     1
290
     0
176
     1
290
     0
176
     1
290
     0
176
     1
290
     0
176
     1
290
     0
176
     1
 90
       50
176
     1
 40
0.0
176
     1
 40
1.0
176
     1
 90
        0
176
     1
 62
    18
420
        0
176
     1
 90
       50
176
     1
 90
        3
176
     1
 62
     5
420
      255
176
     1
290
     0
176
     1
 90
       50
176
     1
 90
       50
176
     1
 90
       50
176
     1
290
     0
176
     1
 90
       50
176
     1
 62
   256
176
     0
 40
1.0
176
     0
 90
        2
176
     1
  1
strokes_ogs.tif
176
     1
290
     0
176
     1
 40
1.0
176
     1
 40
1.0
176
     1
  0
VISUALSTYLE
  5
34
102
{ACAD_REACTORS
330
2A
102
}
330
2A
100
AcDbVisualStyle
  2
Conceptual
 70
     9
177
     3
291
     0
 70
    58
 90
        3
176
     1
 90
        2
176
     1
 90
        0
176
     1
 90
        0
176
     1
 40
0.6
176
     1
 40
30.0
176
     1
 62
     7
420
 16777215
176
     1
 90
        2
176
     1
 90
        2
176
     1
 62
     7
176
     1
 62
   257
176
     1
 90
        1
176
     1
 90
        1
176
     1
 40
179.0
176
     1
 90
        8
176
     1
 62
     7
176
     1
 40
1.0
176
     1
 90
        1
176
     1
 90
        6
176
     1
 90
        2
176
     1
 62
     7
176
     1
 90
        3
176
     1
 90
        0
176
     1
 90
        0
176
     1
290
     0
176
     1
 90
        1
176
     1
 40
0.0
176
     1
 90
        0
176
     1
290
     0
176
     1
290
     1
176
     1
290
     1
176
     1
290
     0
176
     1
290
     0
176
     1
290
     0
176
     1
290
     0
176
     1
290
     0
176
     1
290
     0
176
     1
 90
       50
176
     1
 40
0.0
176
     1
 40
1.0
176
     1
 90
        0
176
     1
 62
    18
420
        0
176
     1
 90
       50
176
     1
 90
        3
176
     1
 62
     5
420
      255
176
     1
290
     0
176
     1
 90
       50
176
     1
 90
       50
176
     1
 90
       50
176
     1
290
     0
176
     1
 90
       50
176
     1
 62
   256
176
     0
 40
1.0
176
     0
 90
        2
176
     1
  1
strokes_ogs.tif
176
     1
290
     0
176
     1
 40
1.0
176
     1
 40
1.0
176
     1
  0
VISUALSTYLE
  5
35
102
{ACAD_REACTORS
330
2A
102
}
330
2A
100
AcDbVisualStyle
  2
Dim
 70
    11
177
     3
291
     1
 70
    58
 90
        2
176
     1
 90
        2
176
     1
 90
        0
176
     1
 90
        0
176
     1
 40
0.6
176
     1
 40
30.0
176
     1
 62
     7
420
 16777215
176
     1
 90
        1
176
     1
 90
        4
176
     1
 62
     7
176
     1
 62
   257
176
     1
 90
        1
176
     1
 90
        1
176
     1
 40
1.0
176
     1
 90
        8
176
     1
 62
     7
176
     1
 40
1.0
176
     1
 90
        1
176
     1
 90
        6
176
     1
 90
        2
176
     1
 62
     7
176
     1
 90
        5
176
     1
 90
        0
176
     1
 90
        0
176
     1
290
     0
176
     1
 90
        1
176
     1
 40
-50.0
176
     1
 90
        0
176
     1
290
     0
176
     1
290
     1
176
     1
290
     1
176
     1
290
     0
176
     1
290
     0
176
     1
290
     0
176
     1
290
     0
176
     1
290
     0
176
     1
290
     0
176
     1
 90
       50
176
     1
 40
0.0
176
     1
 40
1.0
176
     1
 90
        0
176
     1
 62
    18
420
        0
176
     1
 90
       50
176
     1
 90
        3
176
     1
 62
     5
420
      255
176
     1
290
     0
176
     1
 90
       50
176
     1
 90
       50
176
     1
 90
       50
176
     1
290
     0
176
     1
 90
       50
176
     1
 62
   256
176
     0
 40
1.0
176
     0
 90
        2
176
     1
  1
strokes_ogs.tif
176
     1
290
     0
176
     1
 40
1.0
176
     1
 40
1.0
176
     1
  0
VISUALSTYLE
  5
3D
102
{ACAD_REACTORS
330
2A
102
}
330
2A
100
AcDbVisualStyle
  2
EdgeColorOff
 70
    22
177
     3
291
     1
 70
    58
 90
        2
176
     0
 90
        2
176
     0
 90
        0
176
     0
 90
        0
176
     0
 40
0.6
176
     0
 40
30.0
176
     0
 62
     7
420
 16777215
176
     0
 90
        1
176
     0
 90
        4
176
     0
 62
     7
176
     0
 62
   257
176
     0
 90
        1
176
     0
 90
        1
176
     0
 40
1.0
176
     0
 90
        8
176
     2
 62
     7
176
     0
 40
1.0
176
     0
 90
        1
176
     0
 90
        6
176
     0
 90
        2
176
     0
 62
     7
176
     0
 90
        5
176
     0
 90
        0
176
     0
 90
        0
176
     0
290
     0
176
     0
 90
        1
176
     0
 40
0.0
176
     0
 90
        0
176
     0
290
     0
176
     0
290
     1
176
     0
290
     1
176
     0
290
     0
176
     0
290
     0
176
     0
290
     0
176
     0
290
     0
176
     0
290
     0
176
     0
290
     0
176
     0
 90
       50
176
     0
 40
0.0
176
     0
 40
1.0
176
     0
 90
        0
176
     0
 62
    18
420
        0
176
     0
 90
       50
176
     0
 90
        3
176
     0
 62
     5
420
      255
176
     0
290
     0
176
     0
 90
       50
176
     0
 90
       50
176
     0
 90
       50
176
     0
290
     0
176
     0
 90
       50
176
     0
 62
   256
176
     0
 40
1.0
176
     0
 90
        2
176
     0
  1
strokes_ogs.tif
176
     0
290
     0
176
     0
 40
1.0
176
     0
 40
1.0
176
     0
  0
VISUALSTYLE
  5
39
102
{ACAD_REACTORS
330
2A
102
}
330
2A
100
AcDbVisualStyle
  2
Facepattern
 70
    15
177
     3
291
     1
 70
    58
 90
        2
176
     1
 90
        2
176
     1
 90
        0
176
     1
 90
        0
176
     1
 40
0.6
176
     1
 40
30.0
176
     1
 62
     7
420
 16777215
176
     1
 90
        1
176
     1
 90
        4
176
     1
 62
     7
176
     1
 62
   257
176
     1
 90
        1
176
     1
 90
        1
176
     1
 40
1.0
176
     1
 90
        8
176
     1
 62
     7
176
     1
 40
1.0
176
     1
 90
        1
176
     1
 90
        6
176
     1
 90
        2
176
     1
 62
     7
176
     1
 90
        5
176
     1
 90
        0
176
     1
 90
        0
176
     1
290
     0
176
     1
 90
        1
176
     1
 40
0.0
176
     1
 90
        0
176
     1
290
     0
176
     1
290
     1
176
     1
290
     1
176
     1
290
     0
176
     1
290
     0
176
     1
290
     0
176
     1
290
     0
176
     1
290
     0
176
     1
290
     0
176
     1
 90
       50
176
     1
 40
0.0
176
     1
 40
1.0
176
     1
 90
        0
176
     1
 62
    18
420
        0
176
     1
 90
       50
176
     1
 90
        3
176
     1
 62
     5
420
      255
176
     1
290
     0
176
     1
 90
       50
176
     1
 90
       50
176
     1
 90
       50
176
     1
290
     0
176
     1
 90
       50
176
     1
 62
   256
176
     0
 40
1.0
176
     0
 90
        2
176
     1
  1
strokes_ogs.tif
176
     1
290
     0
176
     1
 40
1.0
176
     1
 40
1.0
176
     1
  0
VISUALSTYLE
  5
2B
102
{ACAD_REACTORS
330
2A
102
}
330
2A
100
AcDbVisualStyle
  2
Flat
 70
     0
177
     3
291
     1
 70
    58
 90
        2
176
     1
 90
        1
176
     1
 90
        1
176
     1
 90
        2
176
     1
 40
0.6
176
     1
 40
30.0
176
     1
 62
     7
420
 16777215
176
     1
 90
        0
176
     1
 90
        0
176
     1
 62
     7
176
     1
 62
   257
176
     1
 90
        1
176
     1
 90
        1
176
     1
 40
1.0
176
     1
 90
        8
176
     1
 62
     7
176
     1
 40
1.0
176
     1
 90
        1
176
     1
 90
        6
176
     1
 90
        2
176
     1
 62
     7
176
     1
 90
        5
176
     1
 90
        0
176
     1
 90
        0
176
     1
290
     0
176
     1
 90
       13
176
     1
 40
0.0
176
     1
 90
        0
176
     1
290
     0
176
     1
290
     1
176
     1
290
     1
176
     1
290
     0
176
     1
290
     0
176
     1
290
     0
176
     1
290
     0
176
     1
290
     0
176
     1
290
     0
176
     1
 90
       50
176
     1
 40
0.0
176
     1
 40
1.0
176
     1
 90
        0
176
     1
 62
    18
420
        0
176
     1
 90
       50
176
     1
 90
        3
176
     1
 62
     5
420
      255
176
     1
290
     0
176
     1
 90
       50
176
     1
 90
       50
176
     1
 90
       50
176
     1
290
     0
176
     1
 90
       50
176
     1
 62
   256
176
     0
 40
1.0
176
     0
 90
        2
176
     1
  1
strokes_ogs.tif
176
     1
290
     0
176
     1
 40
1.0
176
     1
 40
1.0
176
     1
  0
VISUALSTYLE
  5
2C
102
{ACAD_REACTORS
330
2A
102
}
330
2A
100
AcDbVisualStyle
  2
FlatWithEdges
 70
     1
177
     3
291
     1
 70
    58
 90
        2
176
     1
 90
        1
176
     1
 90
        1
176
     1
 90
        2
176
     1
 40
0.6
176
     1
 40
30.0
176
     1
 62
     7
420
 16777215
176
     1
 90
        1
176
     1
 90
        0
176
     1
 62
     7
176
     1
 62
   257
176
     1
 90
        1
176
     1
 90
        1
176
     1
 40
1.0
176
     1
 90
        0
176
     1
 62
   257
176
     1
 40
1.0
176
     1
 90
        1
176
     1
 90
        6
176
     1
 90
        2
176
     1
 62
     7
176
     1
 90
        5
176
     1
 90
        0
176
     1
 90
        0
176
     1
290
     0
176
     1
 90
       13
176
     1
 40
0.0
176
     1
 90
        0
176
     1
290
     0
176
     1
290
     1
176
     1
290
     1
176
     1
290
     0
176
     1
290
     0
176
     1
290
     0
176
     1
290
     0
176
     1
290
     0
176
     1
290
     0
176
     1
 90
       50
176
     1
 40
0.0
176
     1
 40
1.0
176
     1
 90
        0
176
     1
 62
    18
420
        0
176
     1
 90
       50
176
     1
 90
        3
176
     1
 62
     5
420
      255
176
     1
290
     0
176
     1
 90
       50
176
     1
 90
       50
176
     1
 90
       50
176
     1
290
     0
176
     1
 90
       50
176
     1
 62
   256
176
     0
 40
1.0
176
     0
 90
        2
176
     1
  1
strokes_ogs.tif
176
     1
290
     0
176
     1
 40
1.0
176
     1
 40
1.0
176
     1
  0
VISUALSTYLE
  5
2D
102
{ACAD_REACTORS
330
2A
102
}
330
2A
100
AcDbVisualStyle
  2
Gouraud
 70
     2
177
     3
291
     1
 70
    58
 90
        2
176
     1
 90
        2
176
     1
 90
        1
176
     1
 90
        2
176
     1
 40
0.6
176
     1
 40
30.0
176
     1
 62
     7
420
 16777215
176
     1
 90
        0
176
     1
 90
        0
176
     1
 62
     7
176
     1
 62
   257
176
     1
 90
        1
176
     1
 90
        1
176
     1
 40
1.0
176
     1
 90
        0
176
     1
 62
     7
176
     1
 40
1.0
176
     1
 90
        1
176
     1
 90
        6
176
     1
 90
        2
176
     1
 62
     7
176
     1
 90
        5
176
     1
 90
        0
176
     1
 90
        0
176
     1
290
     0
176
     1
 90
       13
176
     1
 40
0.0
176
     1
 90
        0
176
     1
290
     0
176
     1
290
     1
176
     1
290
     1
176
     1
290
     0
176
     1
290
     0
176
     1
290
     0
176
     1
290
     0
176
     1
290
     0
176
     1
290
     0
176
     1
 90
       50
176
     1
 40
0.0
176
     1
 40
1.0
176
     1
 90
        0
176
     1
 62
    18
420
        0
176
     1
 90
       50
176
     1
 90
        3
176
     1
 62
     5
420
      255
176
     1
290
     0
176
     1
 90
       50
176
     1
 90
       50
176
     1
 90
       50
176
     1
290
     0
176
     1
 90
       50
176
     1
 62
   256
176
     0
 40
1.0
176
     0
 90
        2
176
     1
  1
strokes_ogs.tif
176
     1
290
     0
176
     1
 40
1.0
176
     1
 40
1.0
176
     1
  0
VISUALSTYLE
  5
2E
102
{ACAD_REACTORS
330
2A
102
}
330
2A
100
AcDbVisualStyle
  2
GouraudWithEdges
 70
     3
177
     3
291
     1
 70
    58
 90
        2
176
     1
 90
        2
176
     1
 90
        1
176
     1
 90
        2
176
     1
 40
0.6
176
     1
 40
30.0
176
     1
 62
     7
420
 16777215
176
     1
 90
        1
176
     1
 90
        0
176
     1
 62
     7
176
     1
 62
   257
176
     1
 90
        1
176
     1
 90
        1
176
     1
 40
1.0
176
     1
 90
        0
176
     1
 62
   257
176
     1
 40
1.0
176
     1
 90
        1
176
     1
 90
        6
176
     1
 90
        2
176
     1
 62
     7
176
     1
 90
        5
176
     1
 90
        0
176
     1
 90
        0
176
     1
290
     0
176
     1
 90
       13
176
     1
 40
0.0
176
     1
 90
        0
176
     1
290
     0
176
     1
290
     1
176
     1
290
     1
176
     1
290
     0
176
     1
290
     0
176
     1
290
     0
176
     1
290
     0
176
     1
290
     0
176
     1
290
     0
176
     1
 90
       50
176
     1
 40
0.0
176
     1
 40
1.0
176
     1
 90
        0
176
     1
 62
    18
420
        0
176
     1
 90
       50
176
     1
 90
        3
176
     1
 62
     5
420
      255
176
     1
290
     0
176
     1
 90
       50
176
     1
 90
       50
176
     1
 90
       50
176
     1
290
     0
176
     1
 90
       50
176
     1
 62
   256
176
     0
 40
1.0
176
     0
 90
        2
176
     1
  1
strokes_ogs.tif
176
     1
290
     0
176
     1
 40
1.0
176
     1
 40
1.0
176
     1
  0
VISUALSTYLE
  5
31
102
{ACAD_REACTORS
330
2A
102
}
330
2A
100
AcDbVisualStyle
  2
Hidden
 70
     6
177
     3
291
     0
 70
    58
 90
        1
176
     1
 90
        2
176
     1
 90
        2
176
     1
 90
        0
176
     1
 40
0.6
176
     1
 40
30.0
176
     1
 62
     7
420
 16777215
176
     1
 90
        2
176
     1
 90
        2
176
     1
 62
     7
176
     1
 62
   257
176
     1
 90
        2
176
     1
 90
        1
176
     1
 40
40.0
176
     1
 90
        0
176
     1
 62
   257
176
     1
 40
1.0
176
     1
 90
        1
176
     1
 90
        6
176
     1
 90
        2
176
     1
 62
     7
176
     1
 90
        3
176
     1
 90
        0
176
     1
 90
        0
176
     1
290
     0
176
     1
 90
        1
176
     1
 40
0.0
176
     1
 90
        0
176
     1
290
     0
176
     1
290
     1
176
     1
290
     1
176
     1
290
     0
176
     1
290
     0
176
     1
290
     0
176
     1
290
     0
176
     1
290
     0
176
     1
290
     0
176
     1
 90
       50
176
     1
 40
0.0
176
     1
 40
1.0
176
     1
 90
        0
176
     1
 62
    18
420
        0
176
     1
 90
       50
176
     1
 90
        3
176
     1
 62
     5
420
      255
176
     1
290
     0
176
     1
 90
       50
176
     1
 90
       50
176
     1
 90
       50
176
     1
290
     0
176
     1
 90
       50
176
     1
 62
   256
176
     0
 40
1.0
176
     0
 90
        2
176
     1
  1
strokes_ogs.tif
176
     1
290
     0
176
     1
 40
1.0
176
     1
 40
1.0
176
     1
  0
VISUALSTYLE
  5
3B
102
{ACAD_REACTORS
330
2A
102
}
330
2A
100
AcDbVisualStyle
  2
JitterOff
 70
    20
177
     3
291
     1
 70
    58
 90
        2
176
     0
 90
        2
176
     0
 90
        0
176
     0
 90
        0
176
     0
 40
0.6
176
     0
 40
30.0
176
     0
 62
     7
420
 16777215
176
     0
 90
        1
176
     0
 90
        4
176
     0
 62
     7
176
     0
 62
   257
176
     0
 90
        1
176
     0
 90
        1
176
     0
 40
1.0
176
     0
 90
       10
176
     2
 62
     7
176
     0
 40
1.0
176
     0
 90
        1
176
     0
 90
        6
176
     0
 90
        2
176
     0
 62
     7
176
     0
 90
        5
176
     0
 90
        0
176
     0
 90
        0
176
     0
290
     0
176
     0
 90
        1
176
     0
 40
0.0
176
     0
 90
        0
176
     0
290
     0
176
     0
290
     1
176
     0
290
     1
176
     0
290
     0
176
     0
290
     0
176
     0
290
     0
176
     0
290
     0
176
     0
290
     0
176
     0
290
     0
176
     0
 90
       50
176
     0
 40
0.0
176
     0
 40
1.0
176
     0
 90
        0
176
     0
 62
    18
420
        0
176
     0
 90
       50
176
     0
 90
        3
176
     0
 62
     5
420
      255
176
     0
290
     0
176
     0
 90
       50
176
     0
 90
       50
176
     0
 90
       50
176
     0
290
     0
176
     0
 90
       50
176
     0
 62
   256
176
     0
 40
1.0
176
     0
 90
        2
176
     0
  1
strokes_ogs.tif
176
     0
290
     0
176
     0
 40
1.0
176
     0
 40
1.0
176
     0
  0
VISUALSTYLE
  5
38
102
{ACAD_REACTORS
330
2A
102
}
330
2A
100
AcDbVisualStyle
  2
Linepattern
 70
    14
177
     3
291
     1
 70
    58
 90
        2
176
     1
 90
        2
176
     1
 90
        0
176
     1
 90
        0
176
     1
 40
0.6
176
     1
 40
30.0
176
     1
 62
     7
420
 16777215
176
     1
 90
        1
176
     1
 90
        4
176
     1
 62
     7
176
     1
 62
   257
176
     1
 90
        7
176
     1
 90
        7
176
     1
 40
1.0
176
     1
 90
        8
176
     1
 62
     7
176
     1
 40
1.0
176
     1
 90
        1
176
     1
 90
        6
176
     1
 90
        2
176
     1
 62
     7
176
     1
 90
        5
176
     1
 90
        0
176
     1
 90
        0
176
     1
290
     0
176
     1
 90
        1
176
     1
 40
0.0
176
     1
 90
        0
176
     1
290
     0
176
     1
290
     1
176
     1
290
     1
176
     1
290
     0
176
     1
290
     0
176
     1
290
     0
176
     1
290
     0
176
     1
290
     0
176
     1
290
     0
176
     1
 90
       50
176
     1
 40
0.0
176
     1
 40
1.0
176
     1
 90
        0
176
     1
 62
    18
420
        0
176
     1
 90
       50
176
     1
 90
        3
176
     1
 62
     5
420
      255
176
     1
290
     0
176
     1
 90
       50
176
     1
 90
       50
176
     1
 90
       50
176
     1
290
     0
176
     1
 90
       50
176
     1
 62
   256
176
     0
 40
1.0
176
     0
 90
        2
176
     1
  1
strokes_ogs.tif
176
     1
290
     0
176
     1
 40
1.0
176
     1
 40
1.0
176
     1
  0
VISUALSTYLE
  5
3C
102
{ACAD_REACTORS
330
2A
102
}
330
2A
100
AcDbVisualStyle
  2
OverhangOff
 70
    21
177
     3
291
     1
 70
    58
 90
        2
176
     0
 90
        2
176
     0
 90
        0
176
     0
 90
        0
176
     0
 40
0.6
176
     0
 40
30.0
176
     0
 62
     7
420
 16777215
176
     0
 90
        1
176
     0
 90
        4
176
     0
 62
     7
176
     0
 62
   257
176
     0
 90
        1
176
     0
 90
        1
176
     0
 40
1.0
176
     0
 90
        9
176
     2
 62
     7
176
     0
 40
1.0
176
     0
 90
        1
176
     0
 90
        6
176
     0
 90
        2
176
     0
 62
     7
176
     0
 90
        5
176
     0
 90
        0
176
     0
 90
        0
176
     0
290
     0
176
     0
 90
        1
176
     0
 40
0.0
176
     0
 90
        0
176
     0
290
     0
176
     0
290
     1
176
     0
290
     1
176
     0
290
     0
176
     0
290
     0
176
     0
290
     0
176
     0
290
     0
176
     0
290
     0
176
     0
290
     0
176
     0
 90
       50
176
     0
 40
0.0
176
     0
 40
1.0
176
     0
 90
        0
176
     0
 62
    18
420
        0
176
     0
 90
       50
176
     0
 90
        3
176
     0
 62
     5
420
      255
176
     0
290
     0
176
     0
 90
       50
176
     0
 90
       50
176
     0
 90
       50
176
     0
290
     0
176
     0
 90
       50
176
     0
 62
   256
176
     0
 40
1.0
176
     0
 90
        2
176
     0
  1
strokes_ogs.tif
176
     0
290
     0
176
     0
 40
1.0
176
     0
 40
1.0
176
     0
  0
VISUALSTYLE
  5
33
102
{ACAD_REACTORS
330
2A
102
}
330
2A
100
AcDbVisualStyle
  2
Realistic
 70
     8
177
     3
291
     0
 70
    58
 90
        2
176
     1
 90
        3
176
     1
 90
        0
176
     1
 90
        2
176
     1
 40
0.6
176
     1
 40
30.0
176
     1
 62
     7
420
 16777215
176
     1
 90
        0
176
     1
 90
        0
176
     1
 62
     7
176
     1
 62
   257
176
     1
 90
        1
176
     1
 90
        1
176
     1
 40
1.0
176
     1
 90
        8
176
     1
 62
   257
176
     1
 40
1.0
176
     1
 90
        1
176
     1
 90
        6
176
     1
 90
        2
176
     1
 62
     7
176
     1
 90
        3
176
     1
 90
        0
176
     1
 90
        0
176
     1
290
     0
176
     1
 90
       13
176
     1
 40
0.0
176
     1
 90
        0
176
     1
290
     0
176
     1
290
     1
176
     1
290
     1
176
     1
290
     0
176
     1
290
     0
176
     1
290
     0
176
     1
290
     0
176
     1
290
     0
176
     1
290
     0
176
     1
 90
       50
176
     1
 40
0.0
176
     1
 40
1.0
176
     1
 90
        0
176
     1
 62
    18
420
        0
176
     1
 90
       50
176
     1
 90
        3
176
     1
 62
     5
420
      255
176
     1
290
     0
176
     1
 90
       50
176
     1
 90
       50
176
     1
 90
       50
176
     1
290
     0
176
     1
 90
       50
176
     1
 62
   256
176
     0
 40
1.0
176
     0
 90
        2
176
     1
  1
strokes_ogs.tif
176
     1
290
     0
176
     1
 40
1.0
176
     1
 40
1.0
176
     1
  0
VISUALSTYLE
  5
42
102
{ACAD_REACTORS
330
2A
102
}
330
2A
100
AcDbVisualStyle
  2
Shaded
 70
    27
177
     3
291
     0
 70
    58
 90
        2
176
     1
 90
        2
176
     1
 90
        1
176
     1
 90
        2
176
     1
 40
0.6
176
     1
 40
30.0
176
     1
 62
     7
420
 16777215
176
     1
 90
        0
176
     1
 90
        4
176
     1
 62
     7
176
     1
 62
   257
176
     1
 90
        1
176
     1
 90
        1
176
     1
 40
1.0
176
     1
 90
        8
176
     1
 62
   257
176
     1
 40
1.0
176
     1
 90
        1
176
     1
 90
        6
176
     1
 90
        2
176
     1
 62
     8
420
  7895160
176
     1
 90
        3
176
     1
 90
        0
176
     1
 90
        0
176
     1
290
     0
176
     1
 90
        5
176
     1
 40
0.0
176
     1
 90
        0
176
     1
290
     0
176
     1
290
     1
176
     1
290
     1
176
     1
290
     0
176
     1
290
     0
176
     1
290
     0
176
     1
290
     0
176
     1
290
     0
176
     1
290
     0
176
     1
 90
       50
176
     1
 40
0.0
176
     1
 40
1.0
176
     1
 90
        0
176
     1
 62
    18
420
        0
176
     1
 90
       50
176
     1
 90
        3
176
     1
 62
     5
420
      255
176
     1
290
     0
176
     1
 90
       50
176
     1
 90
       50
176
     1
 90
       50
176
     1
290
     0
176
     1
 90
       50
176
     1
 62
   256
176
     0
 40
1.0
176
     0
 90
        2
176
     1
  1
strokes_ogs.tif
176
     1
290
     0
176
     1
 40
1.0
176
     1
 40
1.0
176
     1
  0
VISUALSTYLE
  5
41
102
{ACAD_REACTORS
330
2A
102
}
330
2A
100
AcDbVisualStyle
  2
Shaded with edges
 70
    26
177
     3
291
     0
 70
    58
 90
        2
176
     1
 90
        2
176
     1
 90
        1
176
     1
 90
        2
176
     1
 40
0.6
176
     1
 40
30.0
176
     1
 62
     7
420
 16777215
176
     1
 90
        1
176
     1
 90
       10
176
     1
 62
     7
176
     1
 62
   257
176
     1
 90
        2
176
     1
 90
        1
176
     1
 40
1.0
176
     1
 90
        8
176
     1
 62
   257
176
     1
 40
1.0
176
     1
 90
        1
176
     1
 90
        6
176
     1
 90
        2
176
     1
 62
     7
176
     1
 90
        3
176
     1
 90
        0
176
     1
 90
        0
176
     1
290
     0
176
     1
 90
        5
176
     1
 40
0.0
176
     1
 90
        0
176
     1
290
     0
176
     1
290
     1
176
     1
290
     1
176
     1
290
     0
176
     1
290
     0
176
     1
290
     0
176
     1
290
     0
176
     1
290
     0
176
     1
290
     0
176
     1
 90
       50
176
     1
 40
0.0
176
     1
 40
1.0
176
     1
 90
        0
176
     1
 62
    18
420
        0
176
     1
 90
       50
176
     1
 90
        3
176
     1
 62
     5
420
      255
176
     1
290
     0
176
     1
 90
       50
176
     1
 90
       50
176
     1
 90
       50
176
     1
290
     0
176
     1
 90
       50
176
     1
 62
   256
176
     0
 40
1.0
176
     0
 90
        2
176
     1
  1
strokes_ogs.tif
176
     1
290
     0
176
     1
 40
1.0
176
     1
 40
1.0
176
     1
  0
VISUALSTYLE
  5
3E
102
{ACAD_REACTORS
330
2A
102
}
330
2A
100
AcDbVisualStyle
  2
Shades of Gray
 70
    23
177
     3
291
     0
 70
    58
 90
        2
176
     1
 90
        2
176
     1
 90
        3
176
     1
 90
        0
176
     1
 40
0.6
176
     1
 40
30.0
176
     1
 62
     7
420
 16777215
176
     1
 90
        2
176
     1
 90
        2
176
     1
 62
     7
176
     1
 62
     7
176
     1
 90
        1
176
     1
 90
        1
176
     1
 40
40.0
176
     1
 90
        8
176
     1
 62
     7
176
     1
 40
1.0
176
     1
 90
        1
176
     1
 90
        6
176
     1
 90
        2
176
     1
 62
     7
176
     1
 90
        3
176
     1
 90
        0
176
     1
 90
        0
176
     1
290
     0
176
     1
 90
        1
176
     1
 40
0.0
176
     1
 90
        0
176
     1
290
     0
176
     1
290
     1
176
     1
290
     1
176
     1
290
     0
176
     1
290
     0
176
     1
290
     0
176
     1
290
     0
176
     1
290
     0
176
     1
290
     0
176
     1
 90
       50
176
     1
 40
0.0
176
     1
 40
1.0
176
     1
 90
        0
176
     1
 62
    18
420
        0
176
     1
 90
       50
176
     1
 90
        3
176
     1
 62
     5
420
      255
176
     1
290
     0
176
     1
 90
       50
176
     1
 90
       50
176
     1
 90
       50
176
     1
290
     0
176
     1
 90
       50
176
     1
 62
   256
176
     0
 40
1.0
176
     0
 90
        2
176
     1
  1
strokes_ogs.tif
176
     1
290
     0
176
     1
 40
1.0
176
     1
 40
1.0
176
     1
  0
VISUALSTYLE
  5
3F
102
{ACAD_REACTORS
330
2A
102
}
330
2A
100
AcDbVisualStyle
  2
Sketchy
 70
    24
177
     3
291
     0
 70
    58
 90
        1
176
     1
 90
        2
176
     1
 90
        2
176
     1
 90
        0
176
     1
 40
0.6
176
     1
 40
30.0
176
     1
 62
     7
420
 16777215
176
     1
 90
        2
176
     1
 90
        2
176
     1
 62
     7
176
     1
 62
     7
176
     1
 90
        1
176
     1
 90
        1
176
     1
 40
40.0
176
     1
 90
       11
176
     1
 62
     7
176
     1
 40
1.0
176
     1
 90
        1
176
     1
 90
        6
176
     1
 90
        2
176
     1
 62
     7
176
     1
 90
        6
176
     1
 90
        0
176
     1
 90
        0
176
     1
290
     0
176
     1
 90
        1
176
     1
 40
0.0
176
     1
 90
        0
176
     1
290
     0
176
     1
290
     1
176
     1
290
     1
176
     1
290
     0
176
     1
290
     0
176
     1
290
     0
176
     1
290
     0
176
     1
290
     0
176
     1
290
     0
176
     1
 90
       50
176
     1
 40
0.0
176
     1
 40
1.0
176
     1
 90
        0
176
     1
 62
    18
420
        0
176
     1
 90
       50
176
     1
 90
        3
176
     1
 62
     5
420
      255
176
     1
290
     0
176
     1
 90
       50
176
     1
 90
       50
176
     1
 90
       50
176
     1
290
     0
176
     1
 90
       50
176
     1
 62
   256
176
     0
 40
1.0
176
     0
 90
        2
176
     1
  1
strokes_ogs.tif
176
     1
290
     0
176
     1
 40
1.0
176
     1
 40
1.0
176
     1
  0
VISUALSTYLE
  5
37
102
{ACAD_REACTORS
330
2A
102
}
330
2A
100
AcDbVisualStyle
  2
Thicken
 70
    13
177
     3
291
     1
 70
    58
 90
        2
176
     1
 90
        2
176
     1
 90
        0
176
     1
 90
        0
176
     1
 40
0.6
176
     1
 40
30.0
176
     1
 62
     7
420
 16777215
176
     1
 90
        1
176
     1
 90
        4
176
     1
 62
     7
176
     1
 62
   257
176
     1
 90
        1
176
     1
 90
        1
176
     1
 40
1.0
176
     1
 90
       12
176
     1
 62
     7
176
     1
 40
1.0
176
     1
 90
        1
176
     1
 90
        6
176
     1
 90
        2
176
     1
 62
     7
176
     1
 90
        5
176
     1
 90
        0
176
     1
 90
        0
176
     1
290
     0
176
     1
 90
        1
176
     1
 40
0.0
176
     1
 90
        0
176
     1
290
     0
176
     1
290
     1
176
     1
290
     1
176
     1
290
     0
176
     1
290
     0
176
     1
290
     0
176
     1
290
     0
176
     1
290
     0
176
     1
290
     0
176
     1
 90
       50
176
     1
 40
0.0
176
     1
 40
1.0
176
     1
 90
        0
176
     1
 62
    18
420
        0
176
     1
 90
       50
176
     1
 90
        3
176
     1
 62
     5
420
      255
176
     1
290
     0
176
     1
 90
       50
176
     1
 90
       50
176
     1
 90
       50
176
     1
290
     0
176
     1
 90
       50
176
     1
 62
   256
176
     0
 40
1.0
176
     0
 90
        2
176
     1
  1
strokes_ogs.tif
176
     1
290
     0
176
     1
 40
1.0
176
     1
 40
1.0
176
     1
  0
VISUALSTYLE
  5
30
102
{ACAD_REACTORS
330
2A
102
}
330
2A
100
AcDbVisualStyle
  2
Wireframe
 70
     5
177
     3
291
     0
 70
    58
 90
        0
176
     1
 90
        2
176
     1
 90
        0
176
     1
 90
        0
176
     1
 40
0.6
176
     1
 40
30.0
176
     1
 62
     7
420
 16777215
176
     1
 90
        1
176
     1
 90
        4
176
     1
 62
     7
176
     1
 62
   257
176
     1
 90
        1
176
     1
 90
        1
176
     1
 40
1.0
176
     1
 90
        0
176
     1
 62
   257
176
     1
 40
1.0
176
     1
 90
        1
176
     1
 90
        6
176
     1
 90
        2
176
     1
 62
     7
176
     1
 90
        3
176
     1
 90
        0
176
     1
 90
        0
176
     1
290
     0
176
     1
 90
        1
176
     1
 40
0.0
176
     1
 90
        0
176
     1
290
     0
176
     1
290
     1
176
     1
290
     1
176
     1
290
     0
176
     1
290
     0
176
     1
290
     0
176
     1
290
     0
176
     1
290
     0
176
     1
290
     0
176
     1
 90
       50
176
     1
 40
0.0
176
     1
 40
1.0
176
     1
 90
        0
176
     1
 62
    18
420
        0
176
     1
 90
       50
176
     1
 90
        3
176
     1
 62
     5
420
      255
176
     1
290
     0
176
     1
 90
       50
176
     1
 90
       50
176
     1
 90
       50
176
     1
290
     0
176
     1
 90
       50
176
     1
 62
   256
176
     0
 40
1.0
176
     0
 90
        2
176
     1
  1
strokes_ogs.tif
176
     1
290
     0
176
     1
 40
1.0
176
     1
 40
1.0
176
     1
  0
VISUALSTYLE
  5
40
102
{ACAD_REACTORS
330
2A
102
}
330
2A
100
AcDbVisualStyle
  2
X-Ray
 70
    25
177
     3
291
     0
 70
    58
 90
        2
176
     1
 90
        2
176
     1
 90
        1
176
     1
 90
        1
176
     1
 40
0.5
176
     1
 40
30.0
176
     1
 62
     7
420
 16777215
176
     1
 90
        1
176
     1
 90
        0
176
     1
 62
     7
176
     1
 62
   257
176
     1
 90
        1
176
     1
 90
        1
176
     1
 40
1.0
176
     1
 90
        8
176
     1
 62
     7
176
     1
 40
1.0
176
     1
 90
        1
176
     1
 90
        6
176
     1
 90
        2
176
     1
 62
     7
176
     1
 90
        3
176
     1
 90
        0
176
     1
 90
        0
176
     1
290
     0
176
     1
 90
       13
176
     1
 40
0.0
176
     1
 90
        0
176
     1
290
     0
176
     1
290
     1
176
     1
290
     1
176
     1
290
     0
176
     1
290
     0
176
     1
290
     0
176
     1
290
     0
176
     1
290
     0
176
     1
290
     0
176
     1
 90
       50
176
     1
 40
0.0
176
     1
 40
1.0
176
     1
 90
        0
176
     1
 62
    18
420
        0
176
     1
 90
       50
176
     1
 90
        3
176
     1
 62
     5
420
      255
176
     1
290
     0
176
     1
 90
       50
176
     1
 90
       50
176
     1
 90
       50
176
     1
290
     0
176
     1
 90
       50
176
     1
 62
   256
176
     0
 40
1.0
176
     0
 90
        2
176
     1
  1
strokes_ogs.tif
176
     1
290
     0
176
     1
 40
1.0
176
     1
 40
1.0
176
     1
  0
DICTIONARYVAR
  5
306
102
{ACAD_REACTORS
330
305
102
}
330
305
100
DictionaryVariables
280
     0
  1
1:1
  0
DICTIONARYVAR
  5
30E
102
{ACAD_REACTORS
330
305
102
}
330
305
100
DictionaryVariables
280
     0
  1
3.500000
  0
DICTIONARYVAR
  5
30F
102
{ACAD_REACTORS
330
305
102
}
330
305
100
DictionaryVariables
280
     0
  1
acadiso.lin
  0
DICTIONARYVAR
  5
30B
102
{ACAD_REACTORS
330
305
102
}
330
305
100
DictionaryVariables
280
     0
  1
Standard
  0
DICTIONARYVAR
  5
30A
102
{ACAD_REACTORS
330
305
102
}
330
305
100
DictionaryVariables
280
     0
  1
Standard
  0
DICTIONARY
  5
307
330
6A
100
AcDbDictionary
280
     1
281
     1
  3
ACAD_ROUNDTRIP_2008_TABLESTYLE_CELLSTYLEMAP
360
308
  0
CELLSTYLEMAP
  5
308
102
{ACAD_REACTORS
330
307
102
}
330
307
100
AcDbCellStyleMap
 90
        3
300
CELLSTYLE
  1
TABLEFORMAT_BEGIN
 90
        5
170
     1
 91
        0
 92
    32768
 62
   257
 93
        1
300
CONTENTFORMAT
  1
CONTENTFORMAT_BEGIN
 90
        0
 91
        0
 92
        4
 93
        0
300

 40
0.0
140
1.0
 94
        5
 62
     0
340
11
144
6.0
309
CONTENTFORMAT_END
171
     1
301
MARGIN
  1
CELLMARGIN_BEGIN
 40
1.5
 40
1.5
 40
1.5
 40
1.5
 40
1.5
 40
1.5
309
CELLMARGIN_END
 94
        6
 95
        1
302
GRIDFORMAT
  1
GRIDFORMAT_BEGIN
 90
        0
 91
        1
 62
     0
 92
       -2
340
14
 93
        0
 40
0.045
309
GRIDFORMAT_END
 95
        2
302
GRIDFORMAT
  1
GRIDFORMAT_BEGIN
 90
        0
 91
        1
 62
     0
 92
       -2
340
14
 93
        0
 40
0.045
309
GRIDFORMAT_END
 95
        4
302
GRIDFORMAT
  1
GRIDFORMAT_BEGIN
 90
        0
 91
        1
 62
     0
 92
       -2
340
14
 93
        0
 40
0.045
309
GRIDFORMAT_END
 95
        8
302
GRIDFORMAT
  1
GRIDFORMAT_BEGIN
 90
        0
 91
        1
 62
     0
 92
       -2
340
14
 93
        0
 40
0.045
309
GRIDFORMAT_END
 95
       16
302
GRIDFORMAT
  1
GRIDFORMAT_BEGIN
 90
        0
 91
        1
 62
     0
 92
       -2
340
14
 93
        0
 40
0.045
309
GRIDFORMAT_END
 95
       32
302
GRIDFORMAT
  1
GRIDFORMAT_BEGIN
 90
        0
 91
        1
 62
     0
 92
       -2
340
14
 93
        0
 40
0.045
309
GRIDFORMAT_END
309
TABLEFORMAT_END
  1
CELLSTYLE_BEGIN
 90
        1
 91
        1
300
_TITLE
309
CELLSTYLE_END
300
CELLSTYLE
  1
TABLEFORMAT_BEGIN
 90
        5
170
     1
 91
        0
 92
        0
 62
   257
 93
        1
300
CONTENTFORMAT
  1
CONTENTFORMAT_BEGIN
 90
        0
 91
        0
 92
        4
 93
        0
300

 40
0.0
140
1.0
 94
        5
 62
     0
340
11
144
4.5
309
CONTENTFORMAT_END
171
     1
301
MARGIN
  1
CELLMARGIN_BEGIN
 40
1.5
 40
1.5
 40
1.5
 40
1.5
 40
1.5
 40
1.5
309
CELLMARGIN_END
 94
        6
 95
        1
302
GRIDFORMAT
  1
GRIDFORMAT_BEGIN
 90
        0
 91
        1
 62
     0
 92
       -2
340
14
 93
        0
 40
0.045
309
GRIDFORMAT_END
 95
        2
302
GRIDFORMAT
  1
GRIDFORMAT_BEGIN
 90
        0
 91
        1
 62
     0
 92
       -2
340
14
 93
        0
 40
0.045
309
GRIDFORMAT_END
 95
        4
302
GRIDFORMAT
  1
GRIDFORMAT_BEGIN
 90
        0
 91
        1
 62
     0
 92
       -2
340
14
 93
        0
 40
0.045
309
GRIDFORMAT_END
 95
        8
302
GRIDFORMAT
  1
GRIDFORMAT_BEGIN
 90
        0
 91
        1
 62
     0
 92
       -2
340
14
 93
        0
 40
0.045
309
GRIDFORMAT_END
 95
       16
302
GRIDFORMAT
  1
GRIDFORMAT_BEGIN
 90
        0
 91
        1
 62
     0
 92
       -2
340
14
 93
        0
 40
0.045
309
GRIDFORMAT_END
 95
       32
302
GRIDFORMAT
  1
GRIDFORMAT_BEGIN
 90
        0
 91
        1
 62
     0
 92
       -2
340
14
 93
        0
 40
0.045
309
GRIDFORMAT_END
309
TABLEFORMAT_END
  1
CELLSTYLE_BEGIN
 90
        2
 91
        1
300
_HEADER
309
CELLSTYLE_END
300
CELLSTYLE
  1
TABLEFORMAT_BEGIN
 90
        5
170
     1
 91
        0
 92
        0
 62
   257
 93
        1
300
CONTENTFORMAT
  1
CONTENTFORMAT_BEGIN
 90
        0
 91
        0
 92
        4
 93
        0
300

 40
0.0
140
1.0
 94
        2
 62
     0
340
11
144
4.5
309
CONTENTFORMAT_END
171
     1
301
MARGIN
  1
CELLMARGIN_BEGIN
 40
1.5
 40
1.5
 40
1.5
 40
1.5
 40
1.5
 40
1.5
309
CELLMARGIN_END
 94
        6
 95
        1
302
GRIDFORMAT
  1
GRIDFORMAT_BEGIN
 90
        0
 91
        1
 62
     0
 92
       -2
340
14
 93
        0
 40
0.045
309
GRIDFORMAT_END
 95
        2
302
GRIDFORMAT
  1
GRIDFORMAT_BEGIN
 90
        0
 91
        1
 62
     0
 92
       -2
340
14
 93
        0
 40
0.045
309
GRIDFORMAT_END
 95
        4
302
GRIDFORMAT
  1
GRIDFORMAT_BEGIN
 90
        0
 91
        1
 62
     0
 92
       -2
340
14
 93
        0
 40
0.045
309
GRIDFORMAT_END
 95
        8
302
GRIDFORMAT
  1
GRIDFORMAT_BEGIN
 90
        0
 91
        1
 62
     0
 92
       -2
340
14
 93
        0
 40
0.045
309
GRIDFORMAT_END
 95
       16
302
GRIDFORMAT
  1
GRIDFORMAT_BEGIN
 90
        0
 91
        1
 62
     0
 92
       -2
340
14
 93
        0
 40
0.045
309
GRIDFORMAT_END
 95
       32
302
GRIDFORMAT
  1
GRIDFORMAT_BEGIN
 90
        0
 91
        1
 62
     0
 92
       -2
340
14
 93
        0
 40
0.045
309
GRIDFORMAT_END
309
TABLEFORMAT_END
  1
CELLSTYLE_BEGIN
 90
        3
 91
        2
300
_DATA
309
CELLSTYLE_END
  0
ENDSEC
  0
EOF
