  0
SECTION
  2
HEADER
  9
$ACADVER
  1
AC1032
  9
$ACADMAINTVER
 90
        4
  9
$DWGCODEPAGE
  3
ANSI_932
  9
$LASTSAVEDBY
  1
mizuki.kobayashi
  9
$REQUIREDVERSIONS
160
                 0
  9
$INSBASE
 10
0.0
 20
0.0
 30
0.0
  9
$EXTMIN
 10
-2100.0
 20
-1485.0
 30
0.0
  9
$EXTMAX
 10
2100.0
 20
1485.0
 30
0.0
  9
$LIMMIN
 10
-2100.0
 20
-1485.0
  9
$LIMMAX
 10
2100.0
 20
1485.0
  9
$ORTHOMODE
 70
     0
  9
$REGENMODE
 70
     1
  9
$FILLMODE
 70
     1
  9
$QTEXTMODE
 70
     0
  9
$MIRRTEXT
 70
     1
  9
$LTSCALE
 40
10.0
  9
$ATTMODE
 70
     1
  9
$TEXTSIZE
 40
2.5
  9
$TRACEWID
 40
1.0
  9
$TEXTSTYLE
  7
Standard
  9
$CLAYER
  8
0
  9
$CELTYPE
  6
ByLayer
  9
$CECOLOR
 62
   256
  9
$CELTSCALE
 40
1.0
  9
$DISPSILH
 70
     0
  9
$DIMSCALE
 40
1.0
  9
$DIMASZ
 40
2.5
  9
$DIMEXO
 40
0.625
  9
$DIMDLI
 40
3.75
  9
$DIMRND
 40
0.0
  9
$DIMDLE
 40
0.0
  9
$DIMEXE
 40
1.25
  9
$DIMTP
 40
0.0
  9
$DIMTM
 40
0.0
  9
$DIMTXT
 40
2.5
  9
$DIMCEN
 40
2.5
  9
$DIMTSZ
 40
0.0
  9
$DIMTOL
 70
     0
  9
$DIMLIM
 70
     0
  9
$DIMTIH
 70
     0
  9
$DIMTOH
 70
     0
  9
$DIMSE1
 70
     0
  9
$DIMSE2
 70
     0
  9
$DIMTAD
 70
     1
  9
$DIMZIN
 70
     8
  9
$DIMBLK
  1

  9
$DIMASO
 70
     1
  9
$DIMSHO
 70
     1
  9
$DIMPOST
  1

  9
$DIMAPOST
  1

  9
$DIMALT
 70
     0
  9
$DIMALTD
 70
     3
  9
$DIMALTF
 40
0.03937007874016
  9
$DIMLFAC
 40
1.0
  9
$DIMTOFL
 70
     1
  9
$DIMTVP
 40
0.0
  9
$DIMTIX
 70
     0
  9
$DIMSOXD
 70
     0
  9
$DIMSAH
 70
     0
  9
$DIMBLK1
  1

  9
$DIMBLK2
  1

  9
$DIMSTYLE
  2
ISO-25
  9
$DIMCLRD
 70
     0
  9
$DIMCLRE
 70
     0
  9
$DIMCLRT
 70
     0
  9
$DIMTFAC
 40
1.0
  9
$DIMGAP
 40
0.625
  9
$DIMJUST
 70
     0
  9
$DIMSD1
 70
     0
  9
$DIMSD2
 70
     0
  9
$DIMTOLJ
 70
     0
  9
$DIMTZIN
 70
     8
  9
$DIMALTZ
 70
     0
  9
$DIMALTTZ
 70
     0
  9
$DIMUPT
 70
     0
  9
$DIMDEC
 70
     2
  9
$DIMTDEC
 70
     2
  9
$DIMALTU
 70
     2
  9
$DIMALTTD
 70
     3
  9
$DIMTXSTY
  7
Standard
  9
$DIMAUNIT
 70
     0
  9
$DIMADEC
 70
     0
  9
$DIMALTRND
 40
0.0
  9
$DIMAZIN
 70
     0
  9
$DIMDSEP
 70
    44
  9
$DIMATFIT
 70
     3
  9
$DIMFRAC
 70
     0
  9
$DIMLDRBLK
  1

  9
$DIMLUNIT
 70
     2
  9
$DIMLWD
 70
    -2
  9
$DIMLWE
 70
    -2
  9
$DIMTMOVE
 70
     0
  9
$DIMFXL
 40
1.0
  9
$DIMFXLON
 70
     0
  9
$DIMJOGANG
 40
0.7853981633974483
  9
$DIMTFILL
 70
     0
  9
$DIMTFILLCLR
 70
     0
  9
$DIMARCSYM
 70
     0
  9
$DIMLTYPE
  6

  9
$DIMLTEX1
  6

  9
$DIMLTEX2
  6

  9
$DIMTXTDIRECTION
 70
     0
  9
$LUNITS
 70
     2
  9
$LUPREC
 70
     4
  9
$SKETCHINC
 40
1.0
  9
$FILLETRAD
 40
10.0
  9
$AUNITS
 70
     0
  9
$AUPREC
 70
     0
  9
$MENU
  1
.
  9
$ELEVATION
 40
0.0
  9
$PELEVATION
 40
0.0
  9
$THICKNESS
 40
0.0
  9
$LIMCHECK
 70
     0
  9
$CHAMFERA
 40
0.0
  9
$CHAMFERB
 40
0.0
  9
$CHAMFERC
 40
0.0
  9
$CHAMFERD
 40
0.0
  9
$SKPOLY
 70
     0
  9
$TDCREATE
 40
2459192.417455602
  9
$TDUCREATE
 40
2459192.042455602
  9
$TDUPDATE
 40
2459192.417455706
  9
$TDUUPDATE
 40
2459192.042455706
  9
$TDINDWG
 40
0.0000000116
  9
$TDUSRTIMER
 40
0.0000000116
  9
$USRTIMER
 70
     1
  9
$ANGBASE
 50
0.0
  9
$ANGDIR
 70
     0
  9
$PDMODE
 70
     0
  9
$PDSIZE
 40
0.0
  9
$PLINEWID
 40
0.0
  9
$SPLFRAME
 70
     0
  9
$SPLINETYPE
 70
     6
  9
$SPLINESEGS
 70
     8
  9
$HANDSEED
  5
2F7
  9
$SURFTAB1
 70
     6
  9
$SURFTAB2
 70
     6
  9
$SURFTYPE
 70
     6
  9
$SURFU
 70
     6
  9
$SURFV
 70
     6
  9
$UCSBASE
  2

  9
$UCSNAME
  2

  9
$UCSORG
 10
0.0
 20
0.0
 30
0.0
  9
$UCSXDIR
 10
1.0
 20
0.0
 30
0.0
  9
$UCSYDIR
 10
0.0
 20
1.0
 30
0.0
  9
$UCSORTHOREF
  2

  9
$UCSORTHOVIEW
 70
     0
  9
$UCSORGTOP
 10
0.0
 20
0.0
 30
0.0
  9
$UCSORGBOTTOM
 10
0.0
 20
0.0
 30
0.0
  9
$UCSORGLEFT
 10
0.0
 20
0.0
 30
0.0
  9
$UCSORGRIGHT
 10
0.0
 20
0.0
 30
0.0
  9
$UCSORGFRONT
 10
0.0
 20
0.0
 30
0.0
  9
$UCSORGBACK
 10
0.0
 20
0.0
 30
0.0
  9
$PUCSBASE
  2

  9
$PUCSNAME
  2

  9
$PUCSORG
 10
0.0
 20
0.0
 30
0.0
  9
$PUCSXDIR
 10
1.0
 20
0.0
 30
0.0
  9
$PUCSYDIR
 10
0.0
 20
1.0
 30
0.0
  9
$PUCSORTHOREF
  2

  9
$PUCSORTHOVIEW
 70
     0
  9
$PUCSORGTOP
 10
0.0
 20
0.0
 30
0.0
  9
$PUCSORGBOTTOM
 10
0.0
 20
0.0
 30
0.0
  9
$PUCSORGLEFT
 10
0.0
 20
0.0
 30
0.0
  9
$PUCSORGRIGHT
 10
0.0
 20
0.0
 30
0.0
  9
$PUCSORGFRONT
 10
0.0
 20
0.0
 30
0.0
  9
$PUCSORGBACK
 10
0.0
 20
0.0
 30
0.0
  9
$USERI1
 70
     0
  9
$USERI2
 70
     0
  9
$USERI3
 70
     0
  9
$USERI4
 70
     0
  9
$USERI5
 70
     0
  9
$USERR1
 40
0.0
  9
$USERR2
 40
0.0
  9
$USERR3
 40
0.0
  9
$USERR4
 40
0.0
  9
$USERR5
 40
0.0
  9
$WORLDVIEW
 70
     1
  9
$SHADEDGE
 70
     3
  9
$SHADEDIF
 70
    70
  9
$TILEMODE
 70
     1
  9
$MAXACTVP
 70
    64
  9
$PINSBASE
 10
0.0
 20
0.0
 30
0.0
  9
$PLIMCHECK
 70
     0
  9
$PEXTMIN
 10
1.000000000000000E+20
 20
1.000000000000000E+20
 30
1.000000000000000E+20
  9
$PEXTMAX
 10
-1.000000000000000E+20
 20
-1.000000000000000E+20
 30
-1.000000000000000E+20
  9
$PLIMMIN
 10
0.0
 20
0.0
  9
$PLIMMAX
 10
420.0
 20
297.0
  9
$UNITMODE
 70
     0
  9
$VISRETAIN
 70
     1
  9
$PLINEGEN
 70
     0
  9
$PSLTSCALE
 70
     1
  9
$TREEDEPTH
 70
  3020
  9
$CMLSTYLE
  2
Standard
  9
$CMLJUST
 70
     0
  9
$CMLSCALE
 40
20.0
  9
$PROXYGRAPHICS
 70
     1
  9
$MEASUREMENT
 70
     1
  9
$CELWEIGHT
370
    -1
  9
$ENDCAPS
280
     0
  9
$JOINSTYLE
280
     0
  9
$LWDISPLAY
290
     0
  9
$INSUNITS
 70
     4
  9
$HYPERLINKBASE
  1

  9
$STYLESHEET
  1

  9
$XEDIT
290
     1
  9
$CEPSNTYPE
380
     0
  9
$PSTYLEMODE
290
     1
  9
$FINGERPRINTGUID
  2
{6610bdcd-5a6e-4e9e-8de5-dcf6807e3314}
  9
$VERSIONGUID
  2
{FAEB1C32-E019-11D5-929B-00C0DF256EC4}
  9
$EXTNAMES
290
     1
  9
$PSVPSCALE
 40
0.0
  9
$OLESTARTUP
290
     0
  9
$SORTENTS
280
   127
  9
$INDEXCTL
280
     0
  9
$HIDETEXT
280
     1
  9
$XCLIPFRAME
280
     2
  9
$HALOGAP
280
     0
  9
$OBSCOLOR
 70
   257
  9
$OBSLTYPE
280
     0
  9
$INTERSECTIONDISPLAY
280
     0
  9
$INTERSECTIONCOLOR
 70
   257
  9
$DIMASSOC
280
     2
  9
$PROJECTNAME
  1

  9
$CAMERADISPLAY
290
     0
  9
$LENSLENGTH
 40
50.0
  9
$CAMERAHEIGHT
 40
0.0
  9
$STEPSPERSEC
 40
2.0
  9
$STEPSIZE
 40
6.0
  9
$3DDWFPREC
 40
2.0
  9
$PSOLWIDTH
 40
5.0
  9
$PSOLHEIGHT
 40
80.0
  9
$LOFTANG1
 40
1.570796326794897
  9
$LOFTANG2
 40
1.570796326794897
  9
$LOFTMAG1
 40
0.0
  9
$LOFTMAG2
 40
0.0
  9
$LOFTPARAM
 70
     7
  9
$LOFTNORMALS
280
     1
  9
$LATITUDE
 40
37.795
  9
$LONGITUDE
 40
-122.394
  9
$NORTHDIRECTION
 40
0.0
  9
$TIMEZONE
 70
 -8000
  9
$LIGHTGLYPHDISPLAY
280
     1
  9
$TILEMODELIGHTSYNCH
280
     1
  9
$CMATERIAL
347
44
  9
$SOLIDHIST
280
     0
  9
$SHOWHIST
280
     1
  9
$DWFFRAME
280
     2
  9
$DGNFRAME
280
     2
  9
$REALWORLDSCALE
290
     1
  9
$INTERFERECOLOR
 62
   256
  9
$CSHADOW
280
     0
  9
$SHADOWPLANELOCATION
 40
0.0
  0
ENDSEC
  0
SECTION
  2
CLASSES
  0
CLASS
  1
ACDBDICTIONARYWDFLT
  2
AcDbDictionaryWithDefault
  3
ObjectDBX Classes
 90
        0
 91
        3
280
     0
281
     0
  0
CLASS
  1
VISUALSTYLE
  2
AcDbVisualStyle
  3
ObjectDBX Classes
 90
     4095
 91
        3
280
     0
281
     0
  0
CLASS
  1
MATERIAL
  2
AcDbMaterial
  3
ObjectDBX Classes
 90
     1153
 91
        3
280
     0
281
     0
  0
CLASS
  1
SCALE
  2
AcDbScale
  3
ObjectDBX Classes
 90
     1153
 91
        3
280
     0
281
     0
  0
CLASS
  1
TABLESTYLE
  2
AcDbTableStyle
  3
ObjectDBX Classes
 90
     4095
 91
        3
280
     0
281
     0
  0
CLASS
  1
MLEADERSTYLE
  2
AcDbMLeaderStyle
  3
ACDB_MLEADERSTYLE_CLASS
 90
     4095
 91
        3
280
     0
281
     0
  0
CLASS
  1
SUN
  2
AcDbSun
  3
SCENEOE
 90
     1153
 91
        3
280
     0
281
     0
  0
CLASS
  1
DICTIONARYVAR
  2
AcDbDictionaryVar
  3
ObjectDBX Classes
 90
        0
 91
        3
280
     0
281
     0
  0
CLASS
  1
CELLSTYLEMAP
  2
AcDbCellStyleMap
  3
ObjectDBX Classes
 90
     1152
 91
        3
280
     0
281
     0
  0
ENDSEC
  0
SECTION
  2
TABLES
  0
TABLE
  2
VPORT
  5
8
330
0
100
AcDbSymbolTable
 70
     1
  0
VPORT
  5
29
330
8
100
AcDbSymbolTableRecord
100
AcDbViewportTableRecord
  2
*Active
 70
     0
 10
0.0
 20
0.0
 11
1.0
 21
1.0
 12
0.0
 22
0.0
 13
0.0
 23
0.0
 14
10.0
 24
10.0
 15
10.0
 25
10.0
 16
0.0
 26
0.0
 36
1.0
 17
0.0
 27
0.0
 37
0.0
 40
3267.0
 41
1.414141414141414
 42
50.0
 43
0.0
 44
0.0
 50
0.0
 51
0.0
 71
     0
 72
 10000
 73
     1
 74
     3
 75
     0
 76
     0
 77
     0
 78
     0
281
     0
 65
     1
110
0.0
120
0.0
130
0.0
111
1.0
121
0.0
131
0.0
112
0.0
122
1.0
132
0.0
 79
     0
146
0.0
348
2F
 60
     3
 61
     5
292
     1
282
     1
141
0.0
142
0.0
 63
   250
361
6D
  0
ENDTAB
  0
TABLE
  2
LTYPE
  5
5
330
0
100
AcDbSymbolTable
 70
     3
  0
LTYPE
  5
14
330
5
100
AcDbSymbolTableRecord
100
AcDbLinetypeTableRecord
  2
ByBlock
 70
     0
  3

 72
    65
 73
     0
 40
0.0
  0
LTYPE
  5
15
330
5
100
AcDbSymbolTableRecord
100
AcDbLinetypeTableRecord
  2
ByLayer
 70
     0
  3

 72
    65
 73
     0
 40
0.0
  0
LTYPE
  5
16
330
5
100
AcDbSymbolTableRecord
100
AcDbLinetypeTableRecord
  2
Continuous
 70
     0
  3
Solid line
 72
    65
 73
     0
 40
0.0
  0
LTYPE
  5
6F
330
5
100
AcDbSymbolTableRecord
100
AcDbLinetypeTableRecord
  2
JWW_CENTER1
 70
     0
  3
-----  --  ----------  --  -----
 72
    65
 73
     8
 40
13.54666666666667
 49
4.233333333333333
 74
     0
 49
-0.8466666666666667
 74
     0
 49
0.8466666666666667
 74
     0
 49
-0.8466666666666667
 74
     0
 49
4.233333333333333
 74
     0
 49
-0.8466666666666667
 74
     0
 49
0.8466666666666667
 74
     0
 49
-0.8466666666666667
 74
     0
  0
LTYPE
  5
70
330
5
100
AcDbSymbolTableRecord
100
AcDbLinetypeTableRecord
  2
JWW_DASHED1
 70
     0
  3
-  --  --  --  --  --  --  --  -
 72
    65
 73
    12
 40
10.16
 49
0.8466666666666667
 74
     0
 49
-0.8466666666666667
 74
     0
 49
0.8466666666666667
 74
     0
 49
-0.8466666666666667
 74
     0
 49
0.8466666666666667
 74
     0
 49
-0.8466666666666667
 74
     0
 49
0.8466666666666667
 74
     0
 49
-0.8466666666666667
 74
     0
 49
0.8466666666666667
 74
     0
 49
-0.8466666666666667
 74
     0
 49
0.8466666666666667
 74
     0
 49
-0.8466666666666667
 74
     0
  0
ENDTAB
  0
TABLE
  2
LAYER
  5
2
330
0
100
AcDbSymbolTable
 70
    13
  0
LAYER
  5
10
330
2
100
AcDbSymbolTableRecord
100
AcDbLayerTableRecord
  2
0
 70
     0
 62
     7
  6
Continuous
370
    -3
390
F
347
46
348
0
  0
LAYER
  5
71
330
2
100
AcDbSymbolTableRecord
100
AcDbLayerTableRecord
  2
1-8
 70
     0
 62
     7
  6
Continuous
370
    -3
390
F
347
46
348
0
  0
LAYER
  5
72
330
2
100
AcDbSymbolTableRecord
100
AcDbLayerTableRecord
  2
1-1
 70
     0
 62
     7
  6
Continuous
370
    -3
390
F
347
46
348
0
  0
LAYER
  5
73
330
2
100
AcDbSymbolTableRecord
100
AcDbLayerTableRecord
  2
0-4
 70
     0
 62
     7
  6
Continuous
370
    -3
390
F
347
46
348
0
  0
LAYER
  5
74
330
2
100
AcDbSymbolTableRecord
100
AcDbLayerTableRecord
  2
1-4
 70
     0
 62
     7
  6
Continuous
370
    -3
390
F
347
46
348
0
  0
LAYER
  5
75
330
2
100
AcDbSymbolTableRecord
100
AcDbLayerTableRecord
  2
0-0
 70
     0
 62
     7
  6
Continuous
370
    -3
390
F
347
46
348
0
  0
LAYER
  5
76
330
2
100
AcDbSymbolTableRecord
100
AcDbLayerTableRecord
  2
1-0
 70
     0
 62
     7
  6
Continuous
370
    -3
390
F
347
46
348
0
  0
LAYER
  5
77
330
2
100
AcDbSymbolTableRecord
100
AcDbLayerTableRecord
  2
1-3
 70
     0
 62
     7
  6
Continuous
370
    -3
390
F
347
46
348
0
  0
LAYER
  5
78
330
2
100
AcDbSymbolTableRecord
100
AcDbLayerTableRecord
  2
0-1
 70
     0
 62
     7
  6
Continuous
370
    -3
390
F
347
46
348
0
  0
LAYER
  5
79
330
2
100
AcDbSymbolTableRecord
100
AcDbLayerTableRecord
  2
0-3
 70
     0
 62
     7
  6
Continuous
370
    -3
390
F
347
46
348
0
  0
LAYER
  5
7A
330
2
100
AcDbSymbolTableRecord
100
AcDbLayerTableRecord
  2
1-5
 70
     0
 62
     7
  6
Continuous
370
    -3
390
F
347
46
348
0
  0
LAYER
  5
7B
330
2
100
AcDbSymbolTableRecord
100
AcDbLayerTableRecord
  2
1-A
 70
     0
 62
     7
  6
Continuous
370
    -3
390
F
347
46
348
0
  0
LAYER
  5
7C
330
2
100
AcDbSymbolTableRecord
100
AcDbLayerTableRecord
  2
1-9
 70
     0
 62
     7
  6
Continuous
370
    -3
390
F
347
46
348
0
  0
ENDTAB
  0
TABLE
  2
STYLE
  5
3
330
0
100
AcDbSymbolTable
 70
     2
  0
STYLE
  5
11
330
3
100
AcDbSymbolTableRecord
100
AcDbTextStyleTableRecord
  2
Standard
 70
     0
 40
0.0
 41
1.0
 50
0.0
 71
     0
 42
2.5
  3
txt
  4

  0
STYLE
  5
6E
330
3
100
AcDbSymbolTableRecord
100
AcDbTextStyleTableRecord
  2
ＭＳ ゴシック
 70
     0
 40
0.0
 41
1.0
 50
0.0
 71
     0
 42
2.5
  3

  4

1001
ACAD
1000
MS Gothic
1071
    32817
  0
ENDTAB
  0
TABLE
  2
VIEW
  5
6
330
0
100
AcDbSymbolTable
 70
     0
  0
ENDTAB
  0
TABLE
  2
UCS
  5
7
330
0
100
AcDbSymbolTable
 70
     0
  0
ENDTAB
  0
TABLE
  2
APPID
  5
9
330
0
100
AcDbSymbolTable
 70
     1
  0
APPID
  5
12
330
9
100
AcDbSymbolTableRecord
100
AcDbRegAppTableRecord
  2
ACAD
 70
     0
  0
ENDTAB
  0
TABLE
  2
DIMSTYLE
  5
A
330
0
100
AcDbSymbolTable
 70
     2
100
AcDbDimStyleTable
  0
DIMSTYLE
105
27
330
A
100
AcDbSymbolTableRecord
100
AcDbDimStyleTableRecord
  2
ISO-25
 70
     0
 41
2.5
 42
0.625
 43
3.75
 44
1.25
 73
     0
 74
     0
 77
     1
 78
     8
140
2.5
141
2.5
143
0.03937007874016
147
0.625
171
     3
172
     1
178
     0
271
     2
272
     2
274
     3
278
    44
283
     0
284
     8
340
11
  0
DIMSTYLE
105
7D
330
A
100
AcDbSymbolTableRecord
100
AcDbDimStyleTableRecord
  2
JWAC_DIMSTYLE
 70
     0
  3
x
  4
mm
 41
0.0
 42
0.625
 43
3.75
 44
1.25
 73
     0
 74
     0
 75
     1
 76
     1
 77
     1
 78
     8
140
2.5
141
2.5
143
0.03937007874016
147
0.625
171
     3
172
     1
173
     1
178
     0
271
     2
272
     2
274
     3
278
    32
283
     0
284
     8
340
11
371
     0
372
     0
  0
ENDTAB
  0
TABLE
  2
BLOCK_RECORD
  5
1
330
0
100
AcDbSymbolTable
 70
     1
  0
BLOCK_RECORD
  5
1F
330
1
100
AcDbSymbolTableRecord
100
AcDbBlockTableRecord
  2
*Model_Space
340
22
 70
     0
280
     1
281
     0
  0
BLOCK_RECORD
  5
1B
330
1
100
AcDbSymbolTableRecord
100
AcDbBlockTableRecord
  2
*Paper_Space
340
1E
 70
     0
280
     1
281
     0
  0
BLOCK_RECORD
  5
23
330
1
100
AcDbSymbolTableRecord
100
AcDbBlockTableRecord
  2
*Paper_Space0
340
26
 70
     0
280
     1
281
     0
  0
ENDTAB
  0
ENDSEC
  0
SECTION
  2
BLOCKS
  0
BLOCK
  5
20
330
1F
100
AcDbEntity
  8
0
100
AcDbBlockBegin
  2
*Model_Space
 70
     0
 10
0.0
 20
0.0
 30
0.0
  3
*Model_Space
  1

  0
ENDBLK
  5
21
330
1F
100
AcDbEntity
  8
0
100
AcDbBlockEnd
  0
BLOCK
  5
1C
330
1B
100
AcDbEntity
 67
     1
  8
0
100
AcDbBlockBegin
  2
*Paper_Space
 70
     0
 10
0.0
 20
0.0
 30
0.0
  3
*Paper_Space
  1

  0
ENDBLK
  5
1D
330
1B
100
AcDbEntity
 67
     1
  8
0
100
AcDbBlockEnd
  0
BLOCK
  5
24
330
23
100
AcDbEntity
  8
0
100
AcDbBlockBegin
  2
*Paper_Space0
 70
     0
 10
0.0
 20
0.0
 30
0.0
  3
*Paper_Space0
  1

  0
ENDBLK
  5
25
330
23
100
AcDbEntity
  8
0
100
AcDbBlockEnd
  0
ENDSEC
  0
SECTION
  2
ENTITIES
  0
LINE
  5
7E
330
1F
100
AcDbEntity
  8
1-8
  6
Continuous
 62
     4
370
     9
100
AcDbLine
 10
-1210.763632284628
 20
640.4514127164273
 30
0.0
 11
-1210.763632284628
 21
596.0807511613177
 31
0.0
  0
LINE
  5
7F
330
1F
100
AcDbEntity
  8
1-8
  6
Continuous
 62
     4
370
     9
100
AcDbLine
 10
-1210.763632284628
 20
596.0807511613177
 30
0.0
 11
-1101.263592694257
 21
596.0807511613177
 31
0.0
  0
LINE
  5
80
330
1F
100
AcDbEntity
  8
1-8
  6
Continuous
 62
     4
370
     9
100
AcDbLine
 10
-1101.263592694257
 20
640.4514127164273
 30
0.0
 11
-1101.263592694257
 21
596.0807511613177
 31
0.0
  0
LINE
  5
81
330
1F
100
AcDbEntity
  8
1-8
  6
Continuous
 62
     4
370
     9
100
AcDbLine
 10
-1183.339629302154
 20
640.4514127164273
 30
0.0
 11
-1183.339629302154
 21
596.0807511613177
 31
0.0
  0
LINE
  5
82
330
1F
100
AcDbEntity
  8
1-8
  6
Continuous
 62
     4
370
     9
100
AcDbLine
 10
-1128.687595676731
 20
640.4514127164273
 30
0.0
 11
-1128.687595676731
 21
596.0807511613177
 31
0.0
  0
LINE
  5
83
330
1F
100
AcDbEntity
  8
1-8
  6
Continuous
 62
     4
370
     9
100
AcDbLine
 10
-1197.05150707348
 20
646.0806686813769
 30
0.0
 11
-1114.975717905405
 21
646.0806686813769
 31
0.0
  0
LINE
  5
84
330
1F
100
AcDbEntity
  8
1-8
  6
Continuous
 62
     6
370
     5
100
AcDbLine
 10
-1216.013563001478
 20
596.0807511613177
 30
0.0
 11
-1216.013563001478
 21
583.5808336412586
 31
0.0
  0
LINE
  5
85
330
1F
100
AcDbEntity
  8
1-8
  6
Continuous
 62
     6
370
     5
100
AcDbLine
 10
-1096.013538257496
 20
596.0807511613177
 30
0.0
 11
-1096.013538257496
 21
583.5808336412586
 31
0.0
  0
LINE
  5
86
330
1F
100
AcDbEntity
  8
1-8
  6
Continuous
 62
     6
370
     5
100
AcDbLine
 10
-1096.013538257496
 20
596.0807511613177
 30
0.0
 11
-1101.263592694257
 21
596.0807511613177
 31
0.0
  0
LINE
  5
87
330
1F
100
AcDbEntity
  8
1-8
  6
Continuous
 62
     6
370
     5
100
AcDbLine
 10
-1210.763632284628
 20
596.0807511613177
 30
0.0
 11
-1216.013563001478
 21
596.0807511613177
 31
0.0
  0
LINE
  5
88
330
1F
100
AcDbEntity
  8
1-8
  6
Continuous
 62
     4
370
     9
100
AcDbLine
 10
-1210.763632284628
 20
491.7103865339951
 30
0.0
 11
-1210.763632284628
 21
536.081048089105
 31
0.0
  0
LINE
  5
89
330
1F
100
AcDbEntity
  8
1-8
  6
Continuous
 62
     4
370
     9
100
AcDbLine
 10
-1210.763632284628
 20
536.081048089105
 30
0.0
 11
-1101.263592694257
 21
536.081048089105
 31
0.0
  0
LINE
  5
8A
330
1F
100
AcDbEntity
  8
1-8
  6
Continuous
 62
     4
370
     9
100
AcDbLine
 10
-1101.263592694257
 20
491.7103865339951
 30
0.0
 11
-1101.263592694257
 21
536.081048089105
 31
0.0
  0
LINE
  5
8B
330
1F
100
AcDbEntity
  8
1-8
  6
Continuous
 62
     4
370
     9
100
AcDbLine
 10
-1183.339629302154
 20
491.7103865339951
 30
0.0
 11
-1183.339629302154
 21
536.081048089105
 31
0.0
  0
LINE
  5
8C
330
1F
100
AcDbEntity
  8
1-8
  6
Continuous
 62
     4
370
     9
100
AcDbLine
 10
-1128.687595676731
 20
491.7103865339951
 30
0.0
 11
-1128.687595676731
 21
536.081048089105
 31
0.0
  0
LINE
  5
8D
330
1F
100
AcDbEntity
  8
1-8
  6
Continuous
 62
     4
370
     9
100
AcDbLine
 10
-1197.05150707348
 20
486.0811305690459
 30
0.0
 11
-1114.975717905405
 21
486.0811305690459
 31
0.0
  0
LINE
  5
8E
330
1F
100
AcDbEntity
  8
1-8
  6
Continuous
 62
     6
370
     5
100
AcDbLine
 10
-1216.013563001478
 20
536.081048089105
 30
0.0
 11
-1216.013563001478
 21
548.5809656091641
 31
0.0
  0
LINE
  5
8F
330
1F
100
AcDbEntity
  8
1-8
  6
Continuous
 62
     6
370
     5
100
AcDbLine
 10
-1096.013538257496
 20
536.081048089105
 30
0.0
 11
-1096.013538257496
 21
548.5809656091641
 31
0.0
  0
LINE
  5
90
330
1F
100
AcDbEntity
  8
1-8
  6
Continuous
 62
     6
370
     5
100
AcDbLine
 10
-1096.013538257496
 20
536.081048089105
 30
0.0
 11
-1101.263592694257
 21
536.081048089105
 31
0.0
  0
LINE
  5
91
330
1F
100
AcDbEntity
  8
1-8
  6
Continuous
 62
     6
370
     5
100
AcDbLine
 10
-1210.763632284628
 20
536.081048089105
 30
0.0
 11
-1216.013563001478
 21
536.081048089105
 31
0.0
  0
LINE
  5
92
330
1F
100
AcDbEntity
  8
1-8
  6
Continuous
 62
     3
370
     9
100
AcDbLine
 10
-1186.013464025549
 20
583.5808336412586
 30
0.0
 11
-1186.013464025549
 21
548.5809656091641
 31
0.0
  0
LINE
  5
93
330
1F
100
AcDbEntity
  8
1-8
  6
Continuous
 62
     3
370
     9
100
AcDbLine
 10
-1126.013513513513
 20
583.5808336412586
 30
0.0
 11
-1126.013513513513
 21
548.5809656091641
 31
0.0
  0
LINE
  5
94
330
1F
100
AcDbEntity
  8
1-8
  6
Continuous
 62
     3
370
     9
100
AcDbLine
 10
-1181.013447529561
 20
583.5808336412586
 30
0.0
 11
-1181.013447529561
 21
548.5809656091641
 31
0.0
  0
LINE
  5
95
330
1F
100
AcDbEntity
  8
1-8
  6
Continuous
 62
     3
370
     9
100
AcDbLine
 10
-1131.013530009502
 20
583.5808336412586
 30
0.0
 11
-1131.013530009502
 21
548.5809656091641
 31
0.0
  0
LINE
  5
96
330
1F
100
AcDbEntity
  8
1-8
  6
Continuous
 62
     3
370
     9
100
AcDbLine
 10
-1181.013447529561
 20
696.0808336412586
 30
0.0
 11
-1181.013447529561
 21
646.0806686813769
 31
0.0
  0
LINE
  5
97
330
1F
100
AcDbEntity
  8
1-8
  6
Continuous
 62
     3
370
     9
100
AcDbLine
 10
-1131.013530009502
 20
696.0808336412586
 30
0.0
 11
-1131.013530009502
 21
646.0806686813769
 31
0.0
  0
LINE
  5
98
330
1F
100
AcDbEntity
  8
1-8
  6
Continuous
 62
     3
370
     9
100
AcDbLine
 10
-1181.013447529561
 20
696.0808336412586
 30
0.0
 11
-1131.013530009502
 21
696.0808336412586
 31
0.0
  0
LINE
  5
99
330
1F
100
AcDbEntity
  8
1-8
  6
Continuous
 62
     3
370
     9
100
AcDbLine
 10
-1126.013513513513
 20
691.0808171452703
 30
0.0
 11
-1126.013513513513
 21
646.0806686813769
 31
0.0
  0
LINE
  5
9A
330
1F
100
AcDbEntity
  8
1-8
  6
Continuous
 62
     3
370
     9
100
AcDbLine
 10
-1186.013464025549
 20
691.0808171452703
 30
0.0
 11
-1126.013513513513
 21
691.0808171452703
 31
0.0
  0
LINE
  5
9B
330
1F
100
AcDbEntity
  8
1-8
  6
Continuous
 62
     3
370
     9
100
AcDbLine
 10
-1186.013464025549
 20
691.0808171452703
 30
0.0
 11
-1186.013464025549
 21
646.0806686813769
 31
0.0
  0
LINE
  5
9C
330
1F
100
AcDbEntity
  8
1-8
  6
Continuous
 62
     3
370
     9
100
AcDbLine
 10
-1186.013464025549
 20
691.0808171452703
 30
0.0
 11
-1181.013447529561
 21
696.0808336412586
 31
0.0
  0
LINE
  5
9D
330
1F
100
AcDbEntity
  8
1-8
  6
Continuous
 62
     3
370
     9
100
AcDbLine
 10
-1131.013530009502
 20
696.0808336412586
 30
0.0
 11
-1126.013513513513
 21
691.0808171452703
 31
0.0
  0
LINE
  5
9E
330
1F
100
AcDbEntity
  8
1-1
  6
JWW_CENTER1
 62
     2
370
     9
100
AcDbLine
 10
-1156.013612489442
 20
713.525093697213
 30
0.0
 11
-1156.013612489442
 21
26.93043476826432
 31
0.0
  0
LINE
  5
9F
330
1F
100
AcDbEntity
  8
0-4
  6
Continuous
 62
     2
370
     9
100
AcDbLine
 10
667.1368573163011
 20
-486.3031830658784
 30
0.0
 11
667.1368573163011
 21
-421.3038346574114
 31
0.0
  0
LINE
  5
A0
330
1F
100
AcDbEntity
  8
0-4
  6
Continuous
 62
     2
370
     9
100
AcDbLine
 10
667.1368573163011
 20
-421.3038346574114
 30
0.0
 11
1132.8631426837
 21
-421.3038346574114
 31
0.0
  0
LINE
  5
A1
330
1F
100
AcDbEntity
  8
0-4
  6
Continuous
 62
     2
370
     9
100
AcDbLine
 10
1132.8631426837
 20
-421.3038346574114
 30
0.0
 11
1132.8631426837
 21
-486.3031830658784
 31
0.0
  0
LINE
  5
A2
330
1F
100
AcDbEntity
  8
0-4
  6
Continuous
 62
     2
370
     9
100
AcDbLine
 10
1132.8631426837
 20
-486.3031830658784
 30
0.0
 11
667.1368573163011
 21
-486.3031830658784
 31
0.0
  0
LINE
  5
A3
330
1F
100
AcDbEntity
  8
0-4
  6
Continuous
 62
     7
370
     9
100
AcDbLine
 10
268.2544605152029
 20
1106.691878035262
 30
0.0
 11
262.3619285789698
 21
1100.799346099029
 31
0.0
  0
LINE
  5
A4
330
1F
100
AcDbEntity
  8
0-4
  6
Continuous
 62
     7
370
     9
100
AcDbLine
 10
303.6096521326016
 20
1071.336686417863
 30
0.0
 11
268.2544605152029
 21
1106.691878035262
 31
0.0
  0
LINE
  5
A5
330
1F
100
AcDbEntity
  8
0-4
  6
Continuous
 62
     7
370
     9
100
AcDbLine
 10
297.7171201963685
 20
1065.44415448163
 30
0.0
 11
303.6096521326016
 21
1071.336686417863
 31
0.0
  0
LINE
  5
A6
330
1F
100
AcDbEntity
  8
0-4
  6
Continuous
 62
     7
370
     9
100
AcDbLine
 10
297.7171201963685
 20
1065.44415448163
 30
0.0
 11
262.3619285789698
 21
1100.799346099029
 31
0.0
  0
LINE
  5
A7
330
1F
100
AcDbEntity
  8
0-4
  6
Continuous
 62
     7
370
     9
100
AcDbLine
 10
621.0269412478885
 20
753.9191498627533
 30
0.0
 11
615.1344093116558
 21
748.0266179265203
 31
0.0
  0
LINE
  5
A8
330
1F
100
AcDbEntity
  8
0-4
  6
Continuous
 62
     7
370
     9
100
AcDbLine
 10
656.3821328652875
 20
718.563958245355
 30
0.0
 11
621.0269412478885
 21
753.9191498627533
 31
0.0
  0
LINE
  5
A9
330
1F
100
AcDbEntity
  8
0-4
  6
Continuous
 62
     7
370
     9
100
AcDbLine
 10
650.4896009290542
 20
712.6714263091217
 30
0.0
 11
656.3821328652875
 21
718.563958245355
 31
0.0
  0
LINE
  5
AA
330
1F
100
AcDbEntity
  8
0-4
  6
Continuous
 62
     7
370
     9
100
AcDbLine
 10
650.4896009290542
 20
712.6714263091217
 30
0.0
 11
615.1344093116558
 21
748.0266179265203
 31
0.0
  0
LINE
  5
AB
330
1F
100
AcDbEntity
  8
0-4
  6
Continuous
 62
     7
370
     9
100
AcDbLine
 10
645.9938667915964
 20
717.1671604465794
 30
0.0
 11
654.985335066512
 21
717.1671604465794
 31
0.0
  0
LINE
  5
AC
330
1F
100
AcDbEntity
  8
0-4
  6
Continuous
 62
     7
370
     9
100
AcDbLine
 10
640.9938502956084
 20
722.1671769425677
 30
0.0
 11
652.7789141680745
 21
722.1671769425677
 31
0.0
  0
LINE
  5
AD
330
1F
100
AcDbEntity
  8
0-4
  6
Continuous
 62
     7
370
     9
100
AcDbLine
 10
635.9938337996203
 20
727.1671934385557
 30
0.0
 11
647.7788976720865
 21
727.1671934385557
 31
0.0
  0
LINE
  5
AE
330
1F
100
AcDbEntity
  8
0-4
  6
Continuous
 62
     7
370
     9
100
AcDbLine
 10
630.9938173036318
 20
732.167209934544
 30
0.0
 11
642.7788811760979
 21
732.167209934544
 31
0.0
  0
LINE
  5
AF
330
1F
100
AcDbEntity
  8
0-4
  6
Continuous
 62
     7
370
     9
100
AcDbLine
 10
625.9938008076438
 20
737.1672264305323
 30
0.0
 11
637.7788646801099
 21
737.1672264305323
 31
0.0
  0
LINE
  5
B0
330
1F
100
AcDbEntity
  8
0-4
  6
Continuous
 62
     7
370
     9
100
AcDbLine
 10
620.9937843116558
 20
742.1672429265203
 30
0.0
 11
632.7788481841219
 21
742.1672429265203
 31
0.0
  0
LINE
  5
B1
330
1F
100
AcDbEntity
  8
0-4
  6
Continuous
 62
     7
370
     9
100
AcDbLine
 10
615.9937678156672
 20
747.1672594225086
 30
0.0
 11
627.7788316881333
 21
747.1672594225086
 31
0.0
  0
LINE
  5
B2
330
1F
100
AcDbEntity
  8
0-4
  6
Continuous
 62
     7
370
     9
100
AcDbLine
 10
619.2750673036318
 20
752.1672759184967
 30
0.0
 11
622.7788151921453
 21
752.1672759184967
 31
0.0
  0
LINE
  5
B3
330
1F
100
AcDbEntity
  8
0-4
  6
Continuous
 62
     7
370
     9
100
AcDbLine
 10
295.8294017894849
 20
1067.331872888514
 30
0.0
 11
299.6048386032518
 21
1067.331872888514
 31
0.0
  0
LINE
  5
B4
330
1F
100
AcDbEntity
  8
0-4
  6
Continuous
 62
     7
370
     9
100
AcDbLine
 10
290.8293852934966
 20
1072.331889384502
 30
0.0
 11
302.614449165963
 21
1072.331889384502
 31
0.0
  0
LINE
  5
B5
330
1F
100
AcDbEntity
  8
0-4
  6
Continuous
 62
     7
370
     9
100
AcDbLine
 10
285.8293687975086
 20
1077.33190588049
 30
0.0
 11
297.6144326699747
 21
1077.33190588049
 31
0.0
  0
LINE
  5
B6
330
1F
100
AcDbEntity
  8
0-4
  6
Continuous
 62
     7
370
     9
100
AcDbLine
 10
280.8293523015203
 20
1082.331922376478
 30
0.0
 11
292.6144161739867
 21
1082.331922376478
 31
0.0
  0
LINE
  5
B7
330
1F
100
AcDbEntity
  8
0-4
  6
Continuous
 62
     7
370
     9
100
AcDbLine
 10
275.8293358055323
 20
1087.331938872466
 30
0.0
 11
287.6143996779984
 21
1087.331938872466
 31
0.0
  0
LINE
  5
B8
330
1F
100
AcDbEntity
  8
0-4
  6
Continuous
 62
     7
370
     9
100
AcDbLine
 10
270.829319309544
 20
1092.331955368455
 30
0.0
 11
282.6143831820102
 21
1092.331955368455
 31
0.0
  0
LINE
  5
B9
330
1F
100
AcDbEntity
  8
0-4
  6
Continuous
 62
     7
370
     9
100
AcDbLine
 10
265.829302813556
 20
1097.331971864443
 30
0.0
 11
277.6143666860222
 21
1097.331971864443
 31
0.0
  0
LINE
  5
BA
330
1F
100
AcDbEntity
  8
0-4
  6
Continuous
 62
     7
370
     9
100
AcDbLine
 10
263.8945708403716
 20
1102.331988360431
 30
0.0
 11
272.6143501900339
 21
1102.331988360431
 31
0.0
  0
LINE
  5
BB
330
1F
100
AcDbEntity
  8
0-4
  6
Continuous
 62
     7
370
     9
100
AcDbLine
 10
280.039524387669
 20
1083.12175029033
 30
0.0
 11
264.8204906566724
 21
1063.287963867188
 31
0.0
  0
LINE
  5
BC
330
1F
100
AcDbEntity
  8
0-4
  6
Continuous
 62
     7
370
     9
100
AcDbLine
 10
280.039524387669
 20
1083.12175029033
 30
0.0
 11
260.2057379645271
 21
1067.902716559333
 31
0.0
  0
LINE
  5
BD
330
1F
100
AcDbEntity
  8
0-4
  6
Continuous
 62
     7
370
     9
100
AcDbLine
 10
280.039524387669
 20
1083.12175029033
 30
0.0
 11
244.6840853304477
 21
1047.766311233108
 31
0.0
  0
LINE
  5
BE
330
1F
100
AcDbEntity
  8
0-4
  6
Continuous
 62
     7
370
     9
100
AcDbLine
 10
632.8120051203547
 20
730.349022117821
 30
0.0
 11
617.5929713893584
 21
710.5152356946792
 31
0.0
  0
LINE
  5
BF
330
1F
100
AcDbEntity
  8
0-4
  6
Continuous
 62
     7
370
     9
100
AcDbLine
 10
632.8120051203547
 20
730.349022117821
 30
0.0
 11
612.978218697213
 21
715.1299883868245
 31
0.0
  0
LINE
  5
C0
330
1F
100
AcDbEntity
  8
0-4
  6
Continuous
 62
     7
370
     9
100
AcDbLine
 10
632.8120051203547
 20
730.349022117821
 30
0.0
 11
597.4565660631333
 21
694.9935830605998
 31
0.0
  0
LINE
  5
C1
330
1F
100
AcDbEntity
  8
1-4
  6
Continuous
 62
     2
370
     9
100
AcDbLine
 10
-1071.140639846389
 20
-229.7862779771958
 30
0.0
 11
-1071.140639846389
 21
-164.7870532886401
 31
0.0
  0
LINE
  5
C2
330
1F
100
AcDbEntity
  8
1-4
  6
Continuous
 62
     2
370
     9
100
AcDbLine
 10
-1071.140639846389
 20
-164.7870532886401
 30
0.0
 11
-448.3863211966849
 21
-164.7870532886401
 31
0.0
  0
LINE
  5
C3
330
1F
100
AcDbEntity
  8
1-4
  6
Continuous
 62
     2
370
     9
100
AcDbLine
 10
-448.3863211966849
 20
-164.7870532886401
 30
0.0
 11
-448.3863211966849
 21
-229.7862779771958
 31
0.0
  0
LINE
  5
C4
330
1F
100
AcDbEntity
  8
1-4
  6
Continuous
 62
     2
370
     9
100
AcDbLine
 10
-448.3863211966849
 20
-229.7862779771958
 30
0.0
 11
-1071.140639846389
 21
-229.7862779771958
 31
0.0
  0
LINE
  5
C5
330
1F
100
AcDbEntity
  8
1-4
  6
Continuous
 62
     7
370
     9
100
AcDbLine
 10
-1156.013612489442
 20
696.0808336412586
 30
0.0
 11
-1165.580625791808
 21
719.1778564453125
 31
0.0
  0
LINE
  5
C6
330
1F
100
AcDbEntity
  8
1-4
  6
Continuous
 62
     7
370
     9
100
AcDbLine
 10
-1156.013612489442
 20
696.0808336412586
 30
0.0
 11
-1159.276725150443
 21
720.86688067462
 31
0.0
  0
LINE
  5
C7
330
1F
100
AcDbEntity
  8
0-0
  6
Continuous
 62
     2
370
     9
100
AcDbLine
 10
308.3332783467063
 20
-24.2792160446578
 30
0.0
 11
308.3332783467063
 21
962.3874478726776
 31
0.0
  0
LINE
  5
C8
330
1F
100
AcDbEntity
  8
0-0
  6
Continuous
 62
     2
370
     9
100
AcDbLine
 10
310.0000329919766
 20
-24.2792160446578
 30
0.0
 11
310.0000329919766
 21
962.3874478726776
 31
0.0
  0
LINE
  5
C9
330
1F
100
AcDbEntity
  8
0-0
  6
Continuous
 62
     2
370
     9
100
AcDbLine
 10
406.6668536211995
 20
1060.720775707348
 30
0.0
 11
1393.333641258446
 21
1060.720775707348
 31
0.0
  0
LINE
  5
CA
330
1F
100
AcDbEntity
  8
0-0
  6
Continuous
 62
     2
370
     9
100
AcDbLine
 10
1491.666721653294
 20
-24.2792160446578
 30
0.0
 11
1491.666721653294
 21
962.3874478726776
 31
0.0
  0
LINE
  5
CB
330
1F
100
AcDbEntity
  8
0-0
  6
Continuous
 62
     2
370
     9
100
AcDbLine
 10
1489.999967008024
 20
-24.2792160446578
 30
0.0
 11
1489.999967008024
 21
962.3874478726776
 31
0.0
  0
LINE
  5
CC
330
1F
100
AcDbEntity
  8
0-0
  6
Continuous
 62
     2
370
     9
100
AcDbLine
 10
406.6668536211995
 20
-120.9460366738807
 30
0.0
 11
1393.333641258446
 21
-120.9460366738807
 31
0.0
  0
LINE
  5
CD
330
1F
100
AcDbEntity
  8
0-0
  6
Continuous
 62
     2
370
     9
100
AcDbLine
 10
406.6668536211995
 20
-122.6126675992398
 30
0.0
 11
1393.333641258446
 21
-122.6126675992398
 31
0.0
  0
LINE
  5
CE
330
1F
100
AcDbEntity
  8
0-0
  6
JWW_CENTER1
 62
     2
370
     9
100
AcDbLine
 10
349.9712145006336
 20
985.6918252480998
 30
0.0
 11
383.3619813661318
 21
1019.082839553421
 31
0.0
  0
LINE
  5
CF
330
1F
100
AcDbEntity
  8
0-0
  6
Continuous
 62
     2
370
     9
100
AcDbLine
 10
348.9888784047722
 20
845.0653406091641
 30
0.0
 11
364.599609375
 21
860.6763190192146
 31
0.0
  0
LINE
  5
D0
330
1F
100
AcDbEntity
  8
0-0
  6
Continuous
 62
     2
370
     9
100
AcDbLine
 10
384.3443174619935
 20
809.7099015519427
 30
0.0
 11
399.9548009923987
 21
825.3206325221709
 31
0.0
  0
LINE
  5
D1
330
1F
100
AcDbEntity
  8
0-0
  6
Continuous
 62
     2
370
     9
100
AcDbLine
 10
381.9872057115711
 20
812.0670133023651
 30
0.0
 11
396.6551909575594
 21
826.7349985483531
 31
0.0
  0
LINE
  5
D2
330
1F
100
AcDbEntity
  8
0-0
  6
Continuous
 62
     2
370
     9
100
AcDbLine
 10
366.0139754011826
 20
873.8752540382179
 30
0.0
 11
413.1542308910474
 21
826.7347511085304
 31
0.0
  0
LINE
  5
D3
330
1F
100
AcDbEntity
  8
0-0
  6
Continuous
 62
     2
370
     9
100
AcDbLine
 10
351.3459901551943
 20
842.7082288587417
 30
0.0
 11
366.0139754011826
 21
857.37621410473
 31
0.0
  0
LINE
  5
D4
330
1F
100
AcDbEntity
  8
0-0
  6
JWW_CENTER1
 62
     2
370
     9
100
AcDbLine
 10
377.7010531038852
 20
816.3531659100508
 30
0.0
 11
355.2248568148227
 21
838.8293621991133
 31
0.0
  0
LINE
  5
D5
330
1F
100
AcDbEntity
  8
0-0
  6
JWW_CENTER1
 62
     2
370
     9
100
AcDbLine
 10
354.3224437816724
 20
815.0429720491977
 30
0.0
 11
378.2892175622891
 21
839.0102407094596
 31
0.0
  0
LINE
  5
D6
330
1F
100
AcDbEntity
  8
0-0
  6
Continuous
 62
     2
370
     9
100
AcDbLine
 10
478.3736770217484
 20
1020.316327069257
 30
0.0
 11
570.0266245249156
 21
928.6633795660896
 31
0.0
  0
LINE
  5
D7
330
1F
100
AcDbEntity
  8
0-0
  6
Continuous
 62
     2
370
     9
100
AcDbLine
 10
440.66162109375
 20
1034.458502692145
 30
0.0
 11
554.3909021326016
 21
920.729221653294
 31
0.0
  0
LINE
  5
D8
330
1F
100
AcDbEntity
  8
0-0
  6
Continuous
 62
     2
370
     9
100
AcDbLine
 10
560.2898675042229
 20
919.5442323426943
 30
0.0
 11
443.0187328441724
 21
1036.815614442568
 31
0.0
  0
LINE
  5
D9
330
1F
100
AcDbEntity
  8
0-0
  6
Continuous
 62
     2
370
     9
100
AcDbLine
 10
569.8291675464526
 20
924.1468604835304
 30
0.0
 11
476.016565271326
 21
1017.959215318835
 31
0.0
  0
LINE
  5
DA
330
1F
100
AcDbEntity
  8
0-0
  6
Continuous
 62
     2
370
     9
100
AcDbLine
 10
433.5902858424834
 20
1037.387447872678
 30
0.0
 11
409.9677008551521
 21
1037.387447872678
 31
0.0
  0
LINE
  5
DB
330
1F
100
AcDbEntity
  8
0-0
  6
Continuous
 62
     2
370
     9
100
AcDbLine
 10
507.2224385029563
 20
877.9770639780406
 30
0.0
 11
405.6667018581084
 21
975.3941221494936
 31
0.0
  0
LINE
  5
DC
330
1F
100
AcDbEntity
  8
0-0
  6
Continuous
 62
     2
370
     9
100
AcDbLine
 10
399.7120625263938
 20
976.4128318992823
 30
0.0
 11
506.4627982474661
 21
869.6620961782096
 31
0.0
  0
LINE
  5
DD
330
1F
100
AcDbEntity
  8
0-0
  6
Continuous
 62
     2
370
     9
100
AcDbLine
 10
392.6409747149495
 20
969.3419915276606
 30
0.0
 11
499.3919578758448
 21
862.591255806588
 31
0.0
  0
LINE
  5
DE
330
1F
100
AcDbEntity
  8
0-0
  6
Continuous
 62
     2
370
     9
100
AcDbLine
 10
491.0769900760135
 20
861.8316155510981
 30
0.0
 11
393.6599319045609
 21
963.3871047561234
 31
0.0
  0
LINE
  5
DF
330
1F
100
AcDbEntity
  8
0-0
  6
Continuous
 62
     2
370
     9
100
AcDbLine
 10
334.5955513619089
 20
928.3926804001269
 30
0.0
 11
448.3248324007602
 21
814.6631519214529
 31
0.0
  0
LINE
  5
E0
330
1F
100
AcDbEntity
  8
0-0
  6
Continuous
 62
     2
370
     9
100
AcDbLine
 10
449.5095742715372
 20
808.7641865498313
 30
0.0
 11
332.2384396114867
 21
926.0353212098818
 31
0.0
  0
LINE
  5
E1
330
1F
100
AcDbEntity
  8
0-0
  6
Continuous
 62
     2
370
     9
100
AcDbLine
 10
444.9071935705237
 20
799.2248865076016
 30
0.0
 11
351.0948387352198
 21
893.0374887827281
 31
0.0
  0
LINE
  5
E2
330
1F
100
AcDbEntity
  8
0-0
  6
Continuous
 62
     2
370
     9
100
AcDbLine
 10
331.6666061813768
 20
935.4635207717484
 30
0.0
 11
331.6666061813768
 21
959.0861057590794
 31
0.0
  0
LINE
  5
E3
330
1F
100
AcDbEntity
  8
0-0
  6
Continuous
 62
     2
370
     9
100
AcDbLine
 10
348.7377269847974
 20
890.6803770323061
 30
0.0
 11
364.599609375
 21
874.8182472022804
 31
0.0
  0
LINE
  5
E4
330
1F
100
AcDbEntity
  8
0-0
  6
Continuous
 62
     2
370
     9
100
AcDbLine
 10
414.0969766152872
 20
825.3208799619936
 30
0.0
 11
440.3906744879646
 21
799.0274295291385
 31
0.0
  0
LINE
  5
E5
330
1F
100
AcDbEntity
  8
0-0
  6
Continuous
 62
     2
370
     9
100
AcDbLine
 10
485.4447648331927
 20
1037.387447872678
 30
0.0
 11
798.4120961782094
 21
1037.387447872678
 31
0.0
  0
LINE
  5
E6
330
1F
100
AcDbEntity
  8
0-0
  6
Continuous
 62
     2
370
     9
100
AcDbLine
 10
409.9677008551521
 20
1040.720709723395
 30
0.0
 11
798.4120961782094
 21
1040.720709723395
 31
0.0
  0
LINE
  5
E7
330
1F
100
AcDbEntity
  8
0-0
  6
Continuous
 62
     2
370
     9
100
AcDbLine
 10
331.6666061813768
 20
883.6090417810391
 30
0.0
 11
331.6666061813768
 21
570.6418341559333
 31
0.0
  0
LINE
  5
E8
330
1F
100
AcDbEntity
  8
0-0
  6
Continuous
 62
     2
370
     9
100
AcDbLine
 10
328.3333443306589
 20
959.0861057590794
 30
0.0
 11
328.3333443306589
 21
570.6418341559333
 31
0.0
  0
LINE
  5
E9
330
1F
100
AcDbEntity
  8
0-0
  6
Continuous
 62
     2
370
     9
100
AcDbLine
 10
361.1416378536742
 20
897.1321229676943
 30
0.0
 11
354.0707974820526
 21
890.0612825960727
 31
0.0
  0
LINE
  5
EA
330
1F
100
AcDbEntity
  8
0-0
  6
Continuous
 62
     2
370
     9
100
AcDbLine
 10
471.9219310863599
 20
1007.91241620038
 30
0.0
 11
478.9927714579818
 21
1014.983256572002
 31
0.0
  0
LINE
  5
EB
330
1F
100
AcDbEntity
  8
0-0
  6
JWW_CENTER1
 62
     2
370
     9
100
AcDbLine
 10
1450.02903293919
 20
985.6918252480998
 30
0.0
 11
1416.638018633868
 21
1019.082839553421
 31
0.0
  0
LINE
  5
EC
330
1F
100
AcDbEntity
  8
0-0
  6
Continuous
 62
     2
370
     9
100
AcDbLine
 10
1321.626570418075
 20
1020.316327069257
 30
0.0
 11
1229.973375475084
 21
928.6633795660896
 31
0.0
  0
LINE
  5
ED
330
1F
100
AcDbEntity
  8
0-0
  6
Continuous
 62
     2
370
     9
100
AcDbLine
 10
1359.338873785895
 20
1034.458502692145
 30
0.0
 11
1245.609097867399
 21
920.729221653294
 31
0.0
  0
LINE
  5
EE
330
1F
100
AcDbEntity
  8
0-0
  6
Continuous
 62
     2
370
     9
100
AcDbLine
 10
1239.710132495777
 20
919.5442323426943
 30
0.0
 11
1356.981267155828
 21
1036.815614442568
 31
0.0
  0
LINE
  5
EF
330
1F
100
AcDbEntity
  8
0-0
  6
Continuous
 62
     2
370
     9
100
AcDbLine
 10
1230.170832453548
 20
924.1468604835304
 30
0.0
 11
1323.983682168497
 21
1017.959215318835
 31
0.0
  0
LINE
  5
F0
330
1F
100
AcDbEntity
  8
0-0
  6
Continuous
 62
     2
370
     9
100
AcDbLine
 10
1366.409714157517
 20
1037.387447872678
 30
0.0
 11
1390.032299144848
 21
1037.387447872678
 31
0.0
  0
LINE
  5
F1
330
1F
100
AcDbEntity
  8
0-0
  6
Continuous
 62
     2
370
     9
100
AcDbLine
 10
1292.777561497044
 20
877.9770639780406
 30
0.0
 11
1394.333298141892
 21
975.3941221494936
 31
0.0
  0
LINE
  5
F2
330
1F
100
AcDbEntity
  8
0-0
  6
Continuous
 62
     2
370
     9
100
AcDbLine
 10
1400.288184913429
 20
976.4128318992823
 30
0.0
 11
1293.537201752534
 21
869.6620961782096
 31
0.0
  0
LINE
  5
F3
330
1F
100
AcDbEntity
  8
0-0
  6
Continuous
 62
     2
370
     9
100
AcDbLine
 10
1407.359025285051
 20
969.3419915276606
 30
0.0
 11
1300.608042124156
 21
862.591255806588
 31
0.0
  0
LINE
  5
F4
330
1F
100
AcDbEntity
  8
0-0
  6
Continuous
 62
     2
370
     9
100
AcDbLine
 10
1308.923009923986
 20
861.8316155510981
 30
0.0
 11
1406.34006809544
 21
963.3871047561234
 31
0.0
  0
LINE
  5
F5
330
1F
100
AcDbEntity
  8
0-0
  6
Continuous
 62
     2
370
     9
100
AcDbLine
 10
1465.404448638091
 20
928.3926804001269
 30
0.0
 11
1351.67516759924
 21
814.6631519214529
 31
0.0
  0
LINE
  5
F6
330
1F
100
AcDbEntity
  8
0-0
  6
Continuous
 62
     2
370
     9
100
AcDbLine
 10
1350.490425728463
 20
808.7641865498313
 30
0.0
 11
1467.761560388514
 21
926.0353212098818
 31
0.0
  0
LINE
  5
F7
330
1F
100
AcDbEntity
  8
0-0
  6
Continuous
 62
     2
370
     9
100
AcDbLine
 10
1355.092806429477
 20
799.2248865076016
 30
0.0
 11
1448.905161264781
 21
893.0374887827281
 31
0.0
  0
LINE
  5
F8
330
1F
100
AcDbEntity
  8
0-0
  6
Continuous
 62
     2
370
     9
100
AcDbLine
 10
1468.333641258446
 20
935.4635207717484
 30
0.0
 11
1468.333641258446
 21
959.0861057590794
 31
0.0
  0
LINE
  5
F9
330
1F
100
AcDbEntity
  8
0-0
  6
Continuous
 62
     2
370
     9
100
AcDbLine
 10
1451.262273015203
 20
890.6803770323061
 30
0.0
 11
1359.609572951858
 21
799.0274295291385
 31
0.0
  0
LINE
  5
FA
330
1F
100
AcDbEntity
  8
0-0
  6
Continuous
 62
     2
370
     9
100
AcDbLine
 10
1314.555235166808
 20
1037.387447872678
 30
0.0
 11
1001.587903821791
 21
1037.387447872678
 31
0.0
  0
LINE
  5
FB
330
1F
100
AcDbEntity
  8
0-0
  6
Continuous
 62
     2
370
     9
100
AcDbLine
 10
1390.032299144848
 20
1040.720709723395
 30
0.0
 11
1001.587903821791
 21
1040.720709723395
 31
0.0
  0
LINE
  5
FC
330
1F
100
AcDbEntity
  8
0-0
  6
Continuous
 62
     2
370
     9
100
AcDbLine
 10
1468.333641258446
 20
883.6090417810391
 30
0.0
 11
1468.333641258446
 21
570.6418341559333
 31
0.0
  0
LINE
  5
FD
330
1F
100
AcDbEntity
  8
0-0
  6
Continuous
 62
     2
370
     9
100
AcDbLine
 10
1471.666655669341
 20
959.0861057590794
 30
0.0
 11
1471.666655669341
 21
570.6418341559333
 31
0.0
  0
LINE
  5
FE
330
1F
100
AcDbEntity
  8
0-0
  6
Continuous
 62
     2
370
     9
100
AcDbLine
 10
1438.858609586149
 20
897.1321229676943
 30
0.0
 11
1445.92944995777
 21
890.0612825960727
 31
0.0
  0
LINE
  5
FF
330
1F
100
AcDbEntity
  8
0-0
  6
Continuous
 62
     2
370
     9
100
AcDbLine
 10
1328.078316353463
 20
1007.91241620038
 30
0.0
 11
1321.007475981841
 21
1014.983256572002
 31
0.0
  0
LINE
  5
100
330
1F
100
AcDbEntity
  8
0-0
  6
JWW_CENTER1
 62
     2
370
     9
100
AcDbLine
 10
1416.638018633868
 20
-80.9747314453125
 30
0.0
 11
1450.02903293919
 21
-47.58371713999139
 31
0.0
  0
LINE
  5
101
330
1F
100
AcDbEntity
  8
0-0
  6
Continuous
 62
     2
370
     9
100
AcDbLine
 10
1451.262273015203
 20
47.42773107580234
 30
0.0
 11
1359.609572951858
 21
139.0806785789698
 31
0.0
  0
LINE
  5
102
330
1F
100
AcDbEntity
  8
0-0
  6
Continuous
 62
     2
370
     9
100
AcDbLine
 10
1465.404448638091
 20
9.715551427892706
 30
0.0
 11
1351.67516759924
 21
123.4449561866555
 31
0.0
  0
LINE
  5
103
330
1F
100
AcDbEntity
  8
0-0
  6
Continuous
 62
     2
370
     9
100
AcDbLine
 10
1350.490425728463
 20
129.3437978383659
 30
0.0
 11
1467.761560388514
 21
12.0727868982263
 31
0.0
  0
LINE
  5
104
330
1F
100
AcDbEntity
  8
0-0
  6
Continuous
 62
     2
370
     9
100
AcDbLine
 10
1355.092806429477
 20
138.8832216005068
 30
0.0
 11
1448.905161264781
 21
45.07061932538022
 31
0.0
  0
LINE
  5
105
330
1F
100
AcDbEntity
  8
0-0
  6
Continuous
 62
     2
370
     9
100
AcDbLine
 10
1468.333641258446
 20
2.644463616448434
 30
0.0
 11
1468.333641258446
 21
-20.97812137088255
 31
0.0
  0
LINE
  5
106
330
1F
100
AcDbEntity
  8
0-0
  6
Continuous
 62
     2
370
     9
100
AcDbLine
 10
1308.923009923986
 20
76.27649255701016
 30
0.0
 11
1406.34006809544
 21
-25.27912036792657
 31
0.0
  0
LINE
  5
107
330
1F
100
AcDbEntity
  8
0-0
  6
Continuous
 62
     2
370
     9
100
AcDbLine
 10
1407.359025285051
 20
-31.23388341955234
 30
0.0
 11
1300.608042124156
 21
75.51685230152032
 31
0.0
  0
LINE
  5
108
330
1F
100
AcDbEntity
  8
0-0
  6
Continuous
 62
     2
370
     9
100
AcDbLine
 10
1400.288184913429
 20
-38.30484751108514
 30
0.0
 11
1293.537201752534
 21
68.44588820998752
 31
0.0
  0
LINE
  5
109
330
1F
100
AcDbEntity
  8
0-0
  6
Continuous
 62
     2
370
     9
100
AcDbLine
 10
1292.777561497044
 20
60.13092041015625
 30
0.0
 11
1394.333298141892
 21
-37.28601404138516
 31
0.0
  0
LINE
  5
10A
330
1F
100
AcDbEntity
  8
0-0
  6
Continuous
 62
     2
370
     9
100
AcDbLine
 10
1359.338873785895
 20
-96.35039458403696
 30
0.0
 11
1245.609097867399
 21
17.37888645481434
 31
0.0
  0
LINE
  5
10B
330
1F
100
AcDbEntity
  8
0-0
  6
Continuous
 62
     2
370
     9
100
AcDbLine
 10
1239.710132495777
 20
18.56375204550261
 30
0.0
 11
1356.981267155828
 21
-98.70750633445937
 31
0.0
  0
LINE
  5
10C
330
1F
100
AcDbEntity
  8
0-0
  6
Continuous
 62
     2
370
     9
100
AcDbLine
 10
1230.170832453548
 20
13.96124762457788
 30
0.0
 11
1323.983682168497
 21
-79.8511072107263
 31
0.0
  0
LINE
  5
10D
330
1F
100
AcDbEntity
  8
0-0
  6
Continuous
 62
     2
370
     9
100
AcDbLine
 10
1366.409714157517
 20
-99.27933976456927
 30
0.0
 11
1390.032299144848
 21
-99.27933976456927
 31
0.0
  0
LINE
  5
10E
330
1F
100
AcDbEntity
  8
0-0
  6
Continuous
 62
     2
370
     9
100
AcDbLine
 10
1321.626570418075
 20
-82.20834268105989
 30
0.0
 11
1229.973375475084
 21
9.444728542018765
 31
0.0
  0
LINE
  5
10F
330
1F
100
AcDbEntity
  8
0-0
  6
Continuous
 62
     2
370
     9
100
AcDbLine
 10
1468.333641258446
 20
54.49894260715809
 30
0.0
 11
1468.333641258446
 21
367.466273952175
 31
0.0
  0
LINE
  5
110
330
1F
100
AcDbEntity
  8
0-0
  6
Continuous
 62
     2
370
     9
100
AcDbLine
 10
1471.666655669341
 20
-20.97812137088255
 30
0.0
 11
1471.666655669341
 21
367.466273952175
 31
0.0
  0
LINE
  5
111
330
1F
100
AcDbEntity
  8
0-0
  6
Continuous
 62
     2
370
     9
100
AcDbLine
 10
1314.555235166808
 20
-99.27933976456927
 30
0.0
 11
1001.587903821791
 21
-99.27933976456927
 31
0.0
  0
LINE
  5
112
330
1F
100
AcDbEntity
  8
0-0
  6
Continuous
 62
     2
370
     9
100
AcDbLine
 10
1390.032299144848
 20
-102.6127253351984
 30
0.0
 11
1001.587903821791
 21
-102.6127253351984
 31
0.0
  0
LINE
  5
113
330
1F
100
AcDbEntity
  8
0-0
  6
Continuous
 62
     2
370
     9
100
AcDbLine
 10
1328.078316353463
 20
-69.80430809227187
 30
0.0
 11
1321.007475981841
 21
-76.87514846389348
 31
0.0
  0
LINE
  5
114
330
1F
100
AcDbEntity
  8
0-0
  6
Continuous
 62
     2
370
     9
100
AcDbLine
 10
1438.858609586149
 20
40.9759851404138
 30
0.0
 11
1445.92944995777
 21
48.0468255120357
 31
0.0
  0
LINE
  5
115
330
1F
100
AcDbEntity
  8
0-0
  6
JWW_CENTER1
 62
     2
370
     9
100
AcDbLine
 10
439.485787056588
 20
-109.3110450538427
 30
0.0
 11
570.6427496832771
 21
21.84591757284636
 31
0.0
  0
LINE
  5
116
330
1F
100
AcDbEntity
  8
0-0
  6
JWW_CENTER1
 62
     2
370
     9
100
AcDbLine
 10
323.2143092799834
 20
10.11924949852215
 30
0.0
 11
452.7896365603885
 21
139.6945767789273
 31
0.0
  0
LINE
  5
117
330
1F
100
AcDbEntity
  8
0-0
  6
JWW_CENTER1
 62
     2
370
     9
100
AcDbLine
 10
349.9712145006336
 20
-47.58359342008021
 30
0.0
 11
383.3622288059544
 21
-80.9747314453125
 31
0.0
  0
LINE
  5
118
330
1F
100
AcDbEntity
  8
0-0
  6
Continuous
 62
     2
370
     9
100
AcDbLine
 10
478.3736770217484
 20
-82.20834268105989
 30
0.0
 11
570.0266245249156
 21
9.444728542018765
 31
0.0
  0
LINE
  5
119
330
1F
100
AcDbEntity
  8
0-0
  6
Continuous
 62
     2
370
     9
100
AcDbLine
 10
440.66162109375
 20
-96.35039458403696
 30
0.0
 11
554.3909021326016
 21
17.37888645481434
 31
0.0
  0
LINE
  5
11A
330
1F
100
AcDbEntity
  8
0-0
  6
Continuous
 62
     2
370
     9
100
AcDbLine
 10
560.2898675042229
 20
18.56375204550261
 30
0.0
 11
443.0187328441724
 21
-98.70750633445937
 31
0.0
  0
LINE
  5
11B
330
1F
100
AcDbEntity
  8
0-0
  6
Continuous
 62
     2
370
     9
100
AcDbLine
 10
569.8291675464526
 20
13.96124762457788
 30
0.0
 11
476.016565271326
 21
-79.8511072107263
 31
0.0
  0
LINE
  5
11C
330
1F
100
AcDbEntity
  8
0-0
  6
Continuous
 62
     2
370
     9
100
AcDbLine
 10
433.5902858424834
 20
-99.27933976456927
 30
0.0
 11
409.9677008551521
 21
-99.27933976456927
 31
0.0
  0
LINE
  5
11D
330
1F
100
AcDbEntity
  8
0-0
  6
Continuous
 62
     2
370
     9
100
AcDbLine
 10
507.2224385029563
 20
60.13092041015625
 30
0.0
 11
405.6667018581084
 21
-37.28601404138516
 31
0.0
  0
LINE
  5
11E
330
1F
100
AcDbEntity
  8
0-0
  6
Continuous
 62
     2
370
     9
100
AcDbLine
 10
399.7120625263938
 20
-38.30484751108514
 30
0.0
 11
506.4627982474661
 21
68.44588820998752
 31
0.0
  0
LINE
  5
11F
330
1F
100
AcDbEntity
  8
0-0
  6
Continuous
 62
     2
370
     9
100
AcDbLine
 10
392.6409747149495
 20
-31.23388341955234
 30
0.0
 11
499.3919578758448
 21
75.51685230152032
 31
0.0
  0
LINE
  5
120
330
1F
100
AcDbEntity
  8
0-0
  6
Continuous
 62
     2
370
     9
100
AcDbLine
 10
491.0769900760135
 20
76.27649255701016
 30
0.0
 11
393.6599319045609
 21
-25.27912036792657
 31
0.0
  0
LINE
  5
121
330
1F
100
AcDbEntity
  8
0-0
  6
Continuous
 62
     2
370
     9
100
AcDbLine
 10
334.5955513619089
 20
9.715551427892706
 30
0.0
 11
448.3248324007602
 21
123.4449561866555
 31
0.0
  0
LINE
  5
122
330
1F
100
AcDbEntity
  8
0-0
  6
Continuous
 62
     2
370
     9
100
AcDbLine
 10
449.5095742715372
 20
129.3437978383659
 30
0.0
 11
332.2384396114867
 21
12.0727868982263
 31
0.0
  0
LINE
  5
123
330
1F
100
AcDbEntity
  8
0-0
  6
Continuous
 62
     2
370
     9
100
AcDbLine
 10
444.9071935705237
 20
138.8832216005068
 30
0.0
 11
351.0948387352198
 21
45.07061932538022
 31
0.0
  0
LINE
  5
124
330
1F
100
AcDbEntity
  8
0-0
  6
Continuous
 62
     2
370
     9
100
AcDbLine
 10
331.6666061813768
 20
2.644463616448434
 30
0.0
 11
331.6666061813768
 21
-20.97812137088255
 31
0.0
  0
LINE
  5
125
330
1F
100
AcDbEntity
  8
0-0
  6
Continuous
 62
     2
370
     9
100
AcDbLine
 10
348.7377269847974
 20
47.42773107580234
 30
0.0
 11
440.3906744879646
 21
139.0806785789698
 31
0.0
  0
LINE
  5
126
330
1F
100
AcDbEntity
  8
0-0
  6
Continuous
 62
     2
370
     9
100
AcDbLine
 10
485.4447648331927
 20
-99.27933976456927
 30
0.0
 11
798.4120961782094
 21
-99.27933976456927
 31
0.0
  0
LINE
  5
127
330
1F
100
AcDbEntity
  8
0-0
  6
Continuous
 62
     2
370
     9
100
AcDbLine
 10
409.9677008551521
 20
-102.6127253351984
 30
0.0
 11
798.4120961782094
 21
-102.6127253351984
 31
0.0
  0
LINE
  5
128
330
1F
100
AcDbEntity
  8
0-0
  6
Continuous
 62
     2
370
     9
100
AcDbLine
 10
331.6666061813768
 20
54.49894260715809
 30
0.0
 11
331.6666061813768
 21
367.466273952175
 31
0.0
  0
LINE
  5
129
330
1F
100
AcDbEntity
  8
0-0
  6
Continuous
 62
     2
370
     9
100
AcDbLine
 10
328.3333443306589
 20
-20.97812137088255
 30
0.0
 11
328.3333443306589
 21
367.466273952175
 31
0.0
  0
LINE
  5
12A
330
1F
100
AcDbEntity
  8
0-0
  6
Continuous
 62
     2
370
     9
100
AcDbLine
 10
361.1416378536742
 20
40.9759851404138
 30
0.0
 11
354.0707974820526
 21
48.0468255120357
 31
0.0
  0
LINE
  5
12B
330
1F
100
AcDbEntity
  8
0-0
  6
Continuous
 62
     2
370
     9
100
AcDbLine
 10
471.9219310863599
 20
-69.80430809227187
 30
0.0
 11
478.9927714579818
 21
-76.87514846389348
 31
0.0
  0
LINE
  5
12C
330
1F
100
AcDbEntity
  8
0-0
  6
Continuous
 62
     2
370
     9
100
AcDbLine
 10
406.6668536211995
 20
1059.054021062078
 30
0.0
 11
1393.333641258446
 21
1059.054021062078
 31
0.0
  0
LINE
  5
12D
330
1F
100
AcDbEntity
  8
0-0
  6
JWW_CENTER1
 62
     2
370
     9
100
AcDbLine
 10
1416.204998944257
 20
-47.15069745037994
 30
0.0
 11
1453.981141786318
 21
-84.92708773226354
 31
0.0
  0
LINE
  5
12E
330
1F
100
AcDbEntity
  8
0-0
  6
JWW_CENTER1
 62
     2
370
     9
100
AcDbLine
 10
345.589302681588
 20
-85.35676698426926
 30
0.0
 11
386.5232725401185
 21
-44.42279712573907
 31
0.0
  0
LINE
  5
12F
330
1F
100
AcDbEntity
  8
0-0
  6
JWW_CENTER1
 62
     2
370
     9
100
AcDbLine
 10
1414.256657780828
 20
983.3107118348818
 30
0.0
 11
1454.502250052788
 21
1023.556056667019
 31
0.0
  0
LINE
  5
130
330
1F
100
AcDbEntity
  8
0-0
  6
JWW_CENTER1
 62
     2
370
     9
100
AcDbLine
 10
900.0
 20
1094.616814690667
 30
0.0
 11
900.0
 21
-150.3339695286107
 31
0.0
  0
LINE
  5
131
330
1F
100
AcDbEntity
  8
0-0
  6
JWW_CENTER1
 62
     2
370
     9
100
AcDbLine
 10
284.5909324852198
 20
469.0540540540542
 30
0.0
 11
1512.097827808277
 21
469.0540540540542
 31
0.0
  0
LINE
  5
132
330
1F
100
AcDbEntity
  8
0-0
  6
JWW_CENTER1
 62
     2
370
     9
100
AcDbLine
 10
300.6636336043076
 20
1068.390667889569
 30
0.0
 11
618.0804278399495
 21
750.9726364548144
 31
0.0
  0
LINE
  5
133
330
1F
100
AcDbEntity
  8
1-0
  6
Continuous
 62
     2
370
     9
100
AcDbLine
 10
-1199.319911647487
 20
575.6761210673565
 30
0.0
 11
-1193.513612489442
 21
548.5809656091641
 31
0.0
  0
LINE
  5
134
330
1F
100
AcDbEntity
  8
1-0
  6
Continuous
 62
     2
370
     9
100
AcDbLine
 10
-1112.707437051309
 20
575.6761210673565
 30
0.0
 11
-1118.513612489442
 21
548.5809656091641
 31
0.0
  0
LINE
  5
135
330
1F
100
AcDbEntity
  8
1-0
  6
Continuous
 62
     2
370
     9
100
AcDbLine
 10
-493.9990069415117
 20
583.5808336412586
 30
0.0
 11
-453.7179070550042
 21
583.5808336412586
 31
0.0
  0
LINE
  5
136
330
1F
100
AcDbEntity
  8
1-0
  6
Continuous
 62
     2
370
     9
100
AcDbLine
 10
-557.8471415751687
 20
746.4929859058279
 30
0.0
 11
-1046.013744457348
 21
583.5808336412586
 31
0.0
  0
LINE
  5
137
330
1F
100
AcDbEntity
  8
1-0
  6
Continuous
 62
     2
370
     9
100
AcDbLine
 10
-1271.677130621833
 20
583.5808336412586
 30
0.0
 11
-1046.013744457348
 21
583.5808336412586
 31
0.0
  0
LINE
  5
138
330
1F
100
AcDbEntity
  8
1-0
  6
Continuous
 62
     2
370
     9
100
AcDbLine
 10
-1276.626916833826
 20
579.2880001583617
 30
0.0
 11
-1281.013777449324
 21
548.5809656091641
 31
0.0
  0
LINE
  5
139
330
1F
100
AcDbEntity
  8
1-0
  6
Continuous
 62
     2
370
     9
100
AcDbLine
 10
-423.3007482580234
 20
696.3861743823904
 30
0.0
 11
-428.7644669816299
 21
607.054707295186
 31
0.0
  0
LINE
  5
13A
330
1F
100
AcDbEntity
  8
1-0
  6
Continuous
 62
     2
370
     9
100
AcDbLine
 10
-555.7379645270269
 20
791.3159674567146
 30
0.0
 11
-557.8471415751687
 21
746.4929859058279
 31
0.0
  0
LINE
  5
13B
330
1F
100
AcDbEntity
  8
1-0
  6
Continuous
 62
     2
370
     9
100
AcDbLine
 10
-530.2265476536106
 20
791.3862403663429
 30
0.0
 11
-518.9523232949745
 21
607.054707295186
 31
0.0
  0
LINE
  5
13C
330
1F
100
AcDbEntity
  8
1-0
  6
Continuous
 62
     2
370
     9
100
AcDbLine
 10
-535.2171614363385
 20
796.0809161211995
 30
0.0
 11
-550.7433917071367
 21
796.0809161211995
 31
0.0
  0
LINE
  5
13D
330
1F
100
AcDbEntity
  8
1-0
  6
Continuous
 62
     2
370
     9
100
AcDbLine
 10
-407.6965744430953
 20
701.0810975770693
 30
0.0
 11
-418.3101344752956
 21
701.0810975770693
 31
0.0
  0
LINE
  5
13E
330
1F
100
AcDbEntity
  8
1-0
  6
Continuous
 62
     2
370
     9
100
AcDbLine
 10
-402.7071978594805
 20
696.408196526605
 30
0.0
 11
-393.0136190878378
 21
548.5809656091641
 31
0.0
  0
LINE
  5
13F
330
1F
100
AcDbEntity
  8
1-0
  6
Continuous
 62
     2
370
     9
100
AcDbLine
 10
-1281.013777449324
 20
548.5809656091641
 30
0.0
 11
-393.0136190878378
 21
548.5809656091641
 31
0.0
  0
LINE
  5
140
330
1F
100
AcDbEntity
  8
1-3
  6
Continuous
 62
     4
370
     9
100
AcDbLine
 10
-388.0136025918495
 20
1046.08099860114
 30
0.0
 11
-343.0135778478672
 21
1046.08099860114
 31
0.0
  0
LINE
  5
141
330
1F
100
AcDbEntity
  8
1-8
  6
Continuous
 62
     7
370
     9
100
AcDbLine
 10
-425.5134788719383
 20
329.106915448163
 30
0.0
 11
-305.5135778478672
 21
361.2608543602198
 31
0.0
  0
LINE
  5
142
330
1F
100
AcDbEntity
  8
1-8
  6
Continuous
 62
     7
370
     9
100
AcDbLine
 10
-425.5134788719383
 20
308.4012748099664
 30
0.0
 11
-305.5135778478672
 21
340.5552137220229
 31
0.0
  0
LINE
  5
143
330
1F
100
AcDbEntity
  8
1-8
  6
Continuous
 62
     3
370
     9
100
AcDbLine
 10
-1181.013447529561
 20
486.0811305690459
 30
0.0
 11
-1181.013447529561
 21
338.4851321658573
 31
0.0
  0
LINE
  5
144
330
1F
100
AcDbEntity
  8
1-8
  6
Continuous
 62
     3
370
     9
100
AcDbLine
 10
-1186.013464025549
 20
486.0811305690459
 30
0.0
 11
-1186.013464025549
 21
337.1453692461995
 31
0.0
  0
LINE
  5
145
330
1F
100
AcDbEntity
  8
1-8
  6
Continuous
 62
     3
370
     9
100
AcDbLine
 10
-1126.013513513513
 20
486.0811305690459
 30
0.0
 11
-1126.013513513513
 21
353.2224005621833
 31
0.0
  0
LINE
  5
146
330
1F
100
AcDbEntity
  8
1-8
  6
Continuous
 62
     3
370
     9
100
AcDbLine
 10
-1131.013530009502
 20
486.0811305690459
 30
0.0
 11
-1131.013530009502
 21
351.8826376425255
 31
0.0
  0
LINE
  5
147
330
1F
100
AcDbEntity
  8
1-3
  6
Continuous
 62
     4
370
     9
100
AcDbLine
 10
-343.0135778478672
 20
46.08103984111068
 30
0.0
 11
-343.0135778478672
 21
330.507053684544
 31
0.0
  0
LINE
  5
148
330
1F
100
AcDbEntity
  8
1-3
  6
Continuous
 62
     4
370
     9
100
AcDbLine
 10
-343.0135778478672
 20
351.2126943227409
 30
0.0
 11
-343.0135778478672
 21
1046.08099860114
 31
0.0
  0
LINE
  5
149
330
1F
100
AcDbEntity
  8
1-3
  6
Continuous
 62
     4
370
     9
100
AcDbLine
 10
-388.0136025918495
 20
46.08103984111068
 30
0.0
 11
-388.0136025918495
 21
318.4493111275339
 31
0.0
  0
LINE
  5
14A
330
1F
100
AcDbEntity
  8
1-3
  6
Continuous
 62
     4
370
     9
100
AcDbLine
 10
-388.0136025918495
 20
339.1549517657307
 30
0.0
 11
-388.0136025918495
 21
1046.08099860114
 31
0.0
  0
LINE
  5
14B
330
1F
100
AcDbEntity
  8
1-8
  6
Continuous
 62
     7
370
     9
100
AcDbLine
 10
-1216.013439281567
 20
329.106915448163
 30
0.0
 11
-1096.013538257496
 21
361.2608543602198
 31
0.0
  0
LINE
  5
14C
330
1F
100
AcDbEntity
  8
1-8
  6
Continuous
 62
     7
370
     9
100
AcDbLine
 10
-1216.013439281567
 20
308.4012748099664
 30
0.0
 11
-1096.013538257496
 21
340.5552137220229
 31
0.0
  0
LINE
  5
14D
330
1F
100
AcDbEntity
  8
1-8
  6
Continuous
 62
     6
370
     5
100
AcDbLine
 10
-1406.013571249472
 20
46.08103984111068
 30
0.0
 11
-143.0135366078969
 21
46.08103984111068
 31
0.0
  0
LINE
  5
14E
330
1F
100
AcDbEntity
  8
1-4
  6
Continuous
 62
     7
370
     9
100
AcDbLine
 10
-388.0136025918495
 20
-113.9188694309544
 30
0.0
 11
-143.0135366078969
 21
-113.9188694309544
 31
0.0
  0
LINE
  5
14F
330
1F
100
AcDbEntity
  8
1-4
  6
Continuous
 62
     7
370
     9
100
AcDbLine
 10
-388.0136025918495
 20
21.08108108108127
 30
0.0
 11
-388.0136025918495
 21
-116.9188298405828
 31
0.0
  0
LINE
  5
150
330
1F
100
AcDbEntity
  8
1-8
  6
Continuous
 62
     6
370
     5
100
AcDbLine
 10
-1406.013571249472
 20
-13.91891067092473
 30
0.0
 11
-410.8235952016469
 21
-13.91891067092473
 31
0.0
  0
LINE
  5
151
330
1F
100
AcDbEntity
  8
1-8
  6
Continuous
 62
     6
370
     5
100
AcDbLine
 10
-364.8877530484586
 20
-13.91891067092473
 30
0.0
 11
-143.0135366078969
 21
-13.91891067092473
 31
0.0
  0
LINE
  5
152
330
1F
100
AcDbEntity
  8
1-8
  6
Continuous
 62
     6
370
     5
100
AcDbLine
 10
-1406.013571249472
 20
36.08100684913438
 30
0.0
 11
-410.8235952016469
 21
36.08100684913438
 31
0.0
  0
LINE
  5
153
330
1F
100
AcDbEntity
  8
1-8
  6
Continuous
 62
     6
370
     5
100
AcDbLine
 10
-364.8877530484586
 20
36.08100684913438
 30
0.0
 11
-143.0135366078969
 21
36.08100684913438
 31
0.0
  0
LINE
  5
154
330
1F
100
AcDbEntity
  8
1-8
  6
Continuous
 62
     6
370
     5
100
AcDbLine
 10
-1406.013571249472
 20
26.08097385715809
 30
0.0
 11
-410.8235952016469
 21
26.08097385715809
 31
0.0
  0
LINE
  5
155
330
1F
100
AcDbEntity
  8
1-8
  6
Continuous
 62
     6
370
     5
100
AcDbLine
 10
-364.8877530484586
 20
26.08097385715809
 30
0.0
 11
-143.0135366078969
 21
26.08097385715809
 31
0.0
  0
LINE
  5
156
330
1F
100
AcDbEntity
  8
1-8
  6
Continuous
 62
     6
370
     5
100
AcDbLine
 10
-1406.013571249472
 20
16.08094086518179
 30
0.0
 11
-410.8235952016469
 21
16.08094086518179
 31
0.0
  0
LINE
  5
157
330
1F
100
AcDbEntity
  8
1-8
  6
Continuous
 62
     6
370
     5
100
AcDbLine
 10
-364.8877530484586
 20
16.08094086518179
 30
0.0
 11
-143.0135366078969
 21
16.08094086518179
 31
0.0
  0
LINE
  5
158
330
1F
100
AcDbEntity
  8
1-8
  6
Continuous
 62
     6
370
     5
100
AcDbLine
 10
-1406.013571249472
 20
6.080907873205206
 30
0.0
 11
-410.8235952016469
 21
6.080907873205206
 31
0.0
  0
LINE
  5
159
330
1F
100
AcDbEntity
  8
1-8
  6
Continuous
 62
     6
370
     5
100
AcDbLine
 10
-364.8877530484586
 20
6.080907873205206
 30
0.0
 11
-143.0135366078969
 21
6.080907873205206
 31
0.0
  0
LINE
  5
15A
330
1F
100
AcDbEntity
  8
1-8
  6
Continuous
 62
     6
370
     5
100
AcDbLine
 10
-1406.013571249472
 20
-3.919125118771092
 30
0.0
 11
-410.8235952016469
 21
-3.919125118771092
 31
0.0
  0
LINE
  5
15B
330
1F
100
AcDbEntity
  8
1-8
  6
Continuous
 62
     6
370
     5
100
AcDbLine
 10
-364.8877530484586
 20
-3.919125118771092
 30
0.0
 11
-143.0135366078969
 21
-3.919125118771092
 31
0.0
  0
LINE
  5
15C
330
1F
100
AcDbEntity
  8
1-4
  6
Continuous
 62
     7
370
     9
100
AcDbLine
 10
-243.0136190878378
 20
46.08103984111068
 30
0.0
 11
-243.0136190878378
 21
1046.08099860114
 31
0.0
  0
LINE
  5
15D
330
1F
100
AcDbEntity
  8
1-4
  6
Continuous
 62
     7
370
     9
100
AcDbLine
 10
-318.0136190878378
 20
1046.08099860114
 30
0.0
 11
-240.0136586782094
 21
1046.08099860114
 31
0.0
  0
LINE
  5
15E
330
1F
100
AcDbEntity
  8
1-4
  6
Continuous
 62
     7
370
     9
100
AcDbLine
 10
-1506.013530009502
 20
46.08103984111068
 30
0.0
 11
-1506.013530009502
 21
696.0808336412586
 31
0.0
  0
LINE
  5
15F
330
1F
100
AcDbEntity
  8
1-4
  6
Continuous
 62
     7
370
     9
100
AcDbLine
 10
-1206.01340628959
 20
696.0808336412586
 30
0.0
 11
-1509.013614139041
 21
696.0808336412586
 31
0.0
  0
LINE
  5
160
330
1F
100
AcDbEntity
  8
1-4
  6
Continuous
 62
     7
370
     9
100
AcDbLine
 10
-1606.013612489442
 20
46.08103984111068
 30
0.0
 11
-1606.013612489442
 21
796.0809161211995
 31
0.0
  0
LINE
  5
161
330
1F
100
AcDbEntity
  8
1-4
  6
Continuous
 62
     7
370
     9
100
AcDbLine
 10
-1431.013530009502
 20
46.08103984111068
 30
0.0
 11
-1609.013572899071
 21
46.08103984111068
 31
0.0
  0
LINE
  5
162
330
1F
100
AcDbEntity
  8
1-4
  6
Continuous
 62
     7
370
     9
100
AcDbLine
 10
-575.7433504671665
 20
796.0809161211995
 30
0.0
 11
-1609.013572899071
 21
796.0809161211995
 31
0.0
  0
LINE
  5
163
330
1F
100
AcDbEntity
  8
1-4
  6
Continuous
 62
     7
370
     9
100
AcDbLine
 10
-1156.013612489442
 20
696.0808336412586
 30
0.0
 11
-1214.962438634924
 21
916.0808171452703
 31
0.0
  0
LINE
  5
164
330
1F
100
AcDbEntity
  8
1-4
  6
Continuous
 62
     7
370
     9
100
AcDbLine
 10
-1214.962438634924
 20
916.0808171452703
 30
0.0
 11
-1546.493447793497
 21
916.0808171452703
 31
0.0
  0
LINE
  5
165
330
1F
100
AcDbEntity
  8
1-4
  6
Continuous
 62
     7
370
     9
100
AcDbLine
 10
-388.0136025918495
 20
1046.08099860114
 30
0.0
 11
-403.2326363228461
 21
1065.914785024282
 31
0.0
  0
LINE
  5
166
330
1F
100
AcDbEntity
  8
1-4
  6
Continuous
 62
     7
370
     9
100
AcDbLine
 10
-388.0136025918495
 20
1046.08099860114
 30
0.0
 11
-397.5807396141258
 21
1069.178021405194
 31
0.0
  0
LINE
  5
167
330
1F
100
AcDbEntity
  8
1-4
  6
Continuous
 62
     7
370
     9
100
AcDbLine
 10
-525.3214243296029
 20
970.641792915963
 30
0.0
 11
-540.5404580605995
 21
990.475579339105
 31
0.0
  0
LINE
  5
168
330
1F
100
AcDbEntity
  8
1-4
  6
Continuous
 62
     7
370
     9
100
AcDbLine
 10
-525.3214243296029
 20
970.641792915963
 30
0.0
 11
-534.8885613518792
 21
993.7388157200169
 31
0.0
  0
LINE
  5
169
330
1F
100
AcDbEntity
  8
1-4
  6
Continuous
 62
     7
370
     9
100
AcDbLine
 10
-525.3214243296029
 20
970.641792915963
 30
0.0
 11
-563.1026396880279
 21
1036.080718169341
 31
0.0
  0
LINE
  5
16A
330
1F
100
AcDbEntity
  8
1-4
  6
Continuous
 62
     7
370
     9
100
AcDbLine
 10
-937.0152653874577
 20
1036.080718169341
 30
0.0
 11
-563.1026396880279
 21
1036.080718169341
 31
0.0
  0
LINE
  5
16B
330
1F
100
AcDbEntity
  8
1-4
  6
Continuous
 62
     7
370
     9
100
AcDbLine
 10
-388.0136025918495
 20
1046.08099860114
 30
0.0
 11
-451.5218786291172
 21
1156.080619193413
 31
0.0
  0
LINE
  5
16C
330
1F
100
AcDbEntity
  8
1-4
  6
Continuous
 62
     7
370
     9
100
AcDbLine
 10
-771.0842235668283
 20
1156.080619193413
 30
0.0
 11
-451.5218786291172
 21
1156.080619193413
 31
0.0
  0
LINE
  5
16D
330
1F
100
AcDbEntity
  8
0-1
  6
Continuous
 62
     2
370
     9
100
AcDbLine
 10
353.7619925834039
 20
1015.292061470651
 30
0.0
 11
371.4217727248734
 21
1020.023853198902
 31
0.0
  0
LINE
  5
16E
330
1F
100
AcDbEntity
  8
0-1
  6
Continuous
 62
     2
370
     9
100
AcDbLine
 10
371.4217727248734
 20
1020.023853198902
 30
0.0
 11
384.3032424514359
 21
1007.14238347234
 31
0.0
  0
LINE
  5
16F
330
1F
100
AcDbEntity
  8
0-1
  6
Continuous
 62
     2
370
     9
100
AcDbLine
 10
379.5714507231844
 20
989.48260333087
 30
0.0
 11
384.3032424514359
 21
1007.14238347234
 31
0.0
  0
LINE
  5
170
330
1F
100
AcDbEntity
  8
0-1
  6
Continuous
 62
     2
370
     9
100
AcDbLine
 10
379.5714507231844
 20
989.48260333087
 30
0.0
 11
361.9114231418919
 21
984.7508116026186
 31
0.0
  0
LINE
  5
171
330
1F
100
AcDbEntity
  8
0-1
  6
Continuous
 62
     2
370
     9
100
AcDbLine
 10
349.0302008551521
 20
997.6322813291811
 30
0.0
 11
361.9114231418919
 21
984.7508116026186
 31
0.0
  0
LINE
  5
172
330
1F
100
AcDbEntity
  8
0-1
  6
Continuous
 62
     2
370
     9
100
AcDbLine
 10
353.7619925834039
 20
1015.292061470651
 30
0.0
 11
349.0302008551521
 21
997.6322813291811
 31
0.0
  0
LINE
  5
173
330
1F
100
AcDbEntity
  8
0-1
  6
Continuous
 62
     2
370
     9
100
AcDbLine
 10
1446.238007416596
 20
1015.292061470651
 30
0.0
 11
1428.578227275127
 21
1020.023853198902
 31
0.0
  0
LINE
  5
174
330
1F
100
AcDbEntity
  8
0-1
  6
Continuous
 62
     2
370
     9
100
AcDbLine
 10
1428.578227275127
 20
1020.023853198902
 30
0.0
 11
1415.696757548565
 21
1007.14238347234
 31
0.0
  0
LINE
  5
175
330
1F
100
AcDbEntity
  8
0-1
  6
Continuous
 62
     2
370
     9
100
AcDbLine
 10
1420.428549276816
 20
989.48260333087
 30
0.0
 11
1415.696757548565
 21
1007.14238347234
 31
0.0
  0
LINE
  5
176
330
1F
100
AcDbEntity
  8
0-1
  6
Continuous
 62
     2
370
     9
100
AcDbLine
 10
1420.428549276816
 20
989.48260333087
 30
0.0
 11
1438.088576858108
 21
984.7508116026186
 31
0.0
  0
LINE
  5
177
330
1F
100
AcDbEntity
  8
0-1
  6
Continuous
 62
     2
370
     9
100
AcDbLine
 10
1450.969799144848
 20
997.6322813291811
 30
0.0
 11
1438.088576858108
 21
984.7508116026186
 31
0.0
  0
LINE
  5
178
330
1F
100
AcDbEntity
  8
0-1
  6
Continuous
 62
     2
370
     9
100
AcDbLine
 10
1446.238007416596
 20
1015.292061470651
 30
0.0
 11
1450.969799144848
 21
997.6322813291811
 31
0.0
  0
LINE
  5
179
330
1F
100
AcDbEntity
  8
0-1
  6
Continuous
 62
     2
370
     9
100
AcDbLine
 10
1446.238007416596
 20
-77.18395336254218
 30
0.0
 11
1428.578227275127
 21
-81.91574509079373
 31
0.0
  0
LINE
  5
17A
330
1F
100
AcDbEntity
  8
0-1
  6
Continuous
 62
     2
370
     9
100
AcDbLine
 10
1428.578227275127
 20
-81.91574509079373
 30
0.0
 11
1415.696757548565
 21
-69.03427536423123
 31
0.0
  0
LINE
  5
17B
330
1F
100
AcDbEntity
  8
0-1
  6
Continuous
 62
     2
370
     9
100
AcDbLine
 10
1420.428549276816
 20
-51.37449522276171
 30
0.0
 11
1415.696757548565
 21
-69.03427536423123
 31
0.0
  0
LINE
  5
17C
330
1F
100
AcDbEntity
  8
0-1
  6
Continuous
 62
     2
370
     9
100
AcDbLine
 10
1420.428549276816
 20
-51.37449522276171
 30
0.0
 11
1438.088576858108
 21
-46.64270349451016
 31
0.0
  0
LINE
  5
17D
330
1F
100
AcDbEntity
  8
0-1
  6
Continuous
 62
     2
370
     9
100
AcDbLine
 10
1450.969799144848
 20
-59.52417322107266
 30
0.0
 11
1438.088576858108
 21
-46.64270349451016
 31
0.0
  0
LINE
  5
17E
330
1F
100
AcDbEntity
  8
0-1
  6
Continuous
 62
     2
370
     9
100
AcDbLine
 10
1446.238007416596
 20
-77.18395336254218
 30
0.0
 11
1450.969799144848
 21
-59.52417322107266
 31
0.0
  0
LINE
  5
17F
330
1F
100
AcDbEntity
  8
0-1
  6
Continuous
 62
     2
370
     9
100
AcDbLine
 10
353.7619925834039
 20
-77.18395336254218
 30
0.0
 11
371.4217727248734
 21
-81.91574509079373
 31
0.0
  0
LINE
  5
180
330
1F
100
AcDbEntity
  8
0-1
  6
Continuous
 62
     2
370
     9
100
AcDbLine
 10
371.4217727248734
 20
-81.91574509079373
 30
0.0
 11
384.3032424514359
 21
-69.03427536423123
 31
0.0
  0
LINE
  5
181
330
1F
100
AcDbEntity
  8
0-1
  6
Continuous
 62
     2
370
     9
100
AcDbLine
 10
379.5714507231844
 20
-51.37449522276171
 30
0.0
 11
384.3032424514359
 21
-69.03427536423123
 31
0.0
  0
LINE
  5
182
330
1F
100
AcDbEntity
  8
0-1
  6
Continuous
 62
     2
370
     9
100
AcDbLine
 10
379.5714507231844
 20
-51.37449522276171
 30
0.0
 11
361.9114231418919
 21
-46.64270349451016
 31
0.0
  0
LINE
  5
183
330
1F
100
AcDbEntity
  8
0-1
  6
Continuous
 62
     2
370
     9
100
AcDbLine
 10
349.0302008551521
 20
-59.52417322107266
 30
0.0
 11
361.9114231418919
 21
-46.64270349451016
 31
0.0
  0
LINE
  5
184
330
1F
100
AcDbEntity
  8
0-1
  6
Continuous
 62
     2
370
     9
100
AcDbLine
 10
353.7619925834039
 20
-77.18395336254218
 30
0.0
 11
349.0302008551521
 21
-59.52417322107266
 31
0.0
  0
LINE
  5
185
330
1F
100
AcDbEntity
  8
1-4
  6
Continuous
 62
     7
370
     9
100
AcDbLine
 10
-1101.263592694257
 20
536.081048089105
 30
0.0
 11
-1086.04455896326
 21
516.2471379460516
 31
0.0
  0
LINE
  5
186
330
1F
100
AcDbEntity
  8
1-4
  6
Continuous
 62
     7
370
     9
100
AcDbLine
 10
-1101.263592694257
 20
536.081048089105
 30
0.0
 11
-1091.69645567198
 21
512.9840252850508
 31
0.0
  0
LINE
  5
187
330
1F
100
AcDbEntity
  8
1-4
  6
Continuous
 62
     7
370
     9
100
AcDbLine
 10
-1101.263592694257
 20
536.081048089105
 30
0.0
 11
-1031.981679555532
 21
416.0810233451227
 31
0.0
  0
LINE
  5
188
330
1F
100
AcDbEntity
  8
1-4
  6
Continuous
 62
     7
370
     9
100
AcDbLine
 10
-1031.981679555532
 20
416.0810233451227
 30
0.0
 11
-509.5908087653081
 21
416.0810233451227
 31
0.0
  0
ARC
  5
189
330
1F
100
AcDbEntity
  8
1-8
  6
Continuous
 62
     4
370
     9
100
AcDbCircle
 10
-1197.05150707348
 20
626.5655847497891
 30
0.0
 40
19.51515159091434
100
AcDbArc
 50
45.36129760742188
 51
134.6389617919922
  0
ARC
  5
18A
330
1F
100
AcDbEntity
  8
1-8
  6
Continuous
 62
     4
370
     9
100
AcDbCircle
 10
-1156.013612489442
 20
576.9412808804898
 30
0.0
 40
69.13950378830368
100
AcDbArc
 50
66.71980285644531
 51
113.2803039550781
  0
ARC
  5
18B
330
1F
100
AcDbEntity
  8
1-8
  6
Continuous
 62
     4
370
     9
100
AcDbCircle
 10
-1114.975717905405
 20
626.5655847497891
 30
0.0
 40
19.51530430767987
100
AcDbArc
 50
45.36129760742188
 51
134.63818359375
  0
ARC
  5
18C
330
1F
100
AcDbEntity
  8
1-8
  6
Continuous
 62
     4
370
     9
100
AcDbCircle
 10
-1197.05150707348
 20
505.5962145006336
 30
0.0
 40
19.51515159091434
100
AcDbArc
 50
225.3610382080078
 51
314.6387023925781
  0
ARC
  5
18D
330
1F
100
AcDbEntity
  8
1-8
  6
Continuous
 62
     4
370
     9
100
AcDbCircle
 10
-1156.013612489442
 20
555.2205183699325
 30
0.0
 40
69.13950378830368
100
AcDbArc
 50
246.7196960449219
 51
293.2801971435547
  0
ARC
  5
18E
330
1F
100
AcDbEntity
  8
1-8
  6
Continuous
 62
     4
370
     9
100
AcDbCircle
 10
-1114.975717905405
 20
505.5962145006336
 30
0.0
 40
19.51530430767987
100
AcDbArc
 50
225.36181640625
 51
314.6387023925781
  0
CIRCLE
  5
18F
330
1F
100
AcDbEntity
  8
0-0
  6
Continuous
 62
     2
370
     9
100
AcDbCircle
 10
366.666721653294
 20
827.3877448004646
 30
0.0
 40
10.83333298966691
  0
ARC
  5
190
330
1F
100
AcDbEntity
  8
0-0
  6
Continuous
 62
     2
370
     9
100
AcDbCircle
 10
366.666721653294
 20
827.3877448004646
 30
0.0
 40
21.66666597933382
100
AcDbArc
 50
135.0
 51
315.0
  0
ARC
  5
191
330
1F
100
AcDbEntity
  8
0-0
  6
Continuous
 62
     2
370
     9
100
AcDbCircle
 10
406.6668536211995
 20
962.3874478726776
 30
0.0
 40
96.66667371182828
100
AcDbArc
 50
90.0
 51
180.0
  0
ARC
  5
192
330
1F
100
AcDbEntity
  8
0-0
  6
Continuous
 62
     2
370
     9
100
AcDbCircle
 10
406.6668536211995
 20
962.3874478726776
 30
0.0
 40
98.33333556716508
100
AcDbArc
 50
90.0
 51
180.0
  0
ARC
  5
193
330
1F
100
AcDbEntity
  8
0-0
  6
Continuous
 62
     2
370
     9
100
AcDbCircle
 10
1393.333641258446
 20
962.3874478726776
 30
0.0
 40
96.66667371182828
100
AcDbArc
 50
0.0
 51
90.0
  0
ARC
  5
194
330
1F
100
AcDbEntity
  8
0-0
  6
Continuous
 62
     2
370
     9
100
AcDbCircle
 10
1393.333641258446
 20
962.3874478726776
 30
0.0
 40
98.33333556716508
100
AcDbArc
 50
0.0
 51
90.0
  0
ARC
  5
195
330
1F
100
AcDbEntity
  8
0-0
  6
Continuous
 62
     2
370
     9
100
AcDbCircle
 10
406.6668536211995
 20
-24.2792160446578
 30
0.0
 40
96.66667371182828
100
AcDbArc
 50
180.0
 51
270.0
  0
ARC
  5
196
330
1F
100
AcDbEntity
  8
0-0
  6
Continuous
 62
     2
370
     9
100
AcDbCircle
 10
406.6668536211995
 20
-24.2792160446578
 30
0.0
 40
98.33333556716508
100
AcDbArc
 50
180.0
 51
270.0
  0
ARC
  5
197
330
1F
100
AcDbEntity
  8
0-0
  6
Continuous
 62
     2
370
     9
100
AcDbCircle
 10
1393.333641258446
 20
-24.2792160446578
 30
0.0
 40
96.66667371182828
100
AcDbArc
 50
270.0
 51
0.0
  0
ARC
  5
198
330
1F
100
AcDbEntity
  8
0-0
  6
Continuous
 62
     2
370
     9
100
AcDbCircle
 10
1393.333641258446
 20
-24.2792160446578
 30
0.0
 40
98.33333556716508
100
AcDbArc
 50
270.0
 51
0.0
  0
ARC
  5
199
330
1F
100
AcDbEntity
  8
0-0
  6
Continuous
 62
     2
370
     9
100
AcDbCircle
 10
366.666721653294
 20
827.3877448004646
 30
0.0
 40
25.00000128874908
100
AcDbArc
 50
135.0
 51
315.0
  0
ARC
  5
19A
330
1F
100
AcDbEntity
  8
0-0
  6
Continuous
 62
     2
370
     9
100
AcDbCircle
 10
357.528521563556
 20
867.7471593908363
 30
0.0
 40
10.00000012887491
100
AcDbArc
 50
315.0003356933594
 51
44.99966430664062
  0
ARC
  5
19B
330
1F
100
AcDbEntity
  8
0-0
  6
Continuous
 62
     2
370
     9
100
AcDbCircle
 10
407.0261362436656
 20
818.2497921505492
 30
0.0
 40
10.00000012887491
100
AcDbArc
 50
45.0
 51
135.0006713867188
  0
ARC
  5
19C
330
1F
100
AcDbEntity
  8
0-0
  6
Continuous
 62
     2
370
     9
100
AcDbCircle
 10
404.9048346442146
 20
818.4853548616977
 30
0.0
 40
11.66666681702073
100
AcDbArc
 50
45.00057983398438
 51
135.0
  0
ARC
  5
19D
330
1F
100
AcDbEntity
  8
0-0
  6
Continuous
 62
     2
370
     9
100
AcDbCircle
 10
357.7643317145271
 20
865.6258577913852
 30
0.0
 40
11.66666681702073
100
AcDbArc
 50
315.0002899169922
 51
45.00000000000005
  0
CIRCLE
  5
19E
330
1F
100
AcDbEntity
  8
0-0
  6
Continuous
 62
     2
370
     9
100
AcDbCircle
 10
900.0
 20
469.0540540540542
 30
0.0
 40
545.8333195866766
  0
CIRCLE
  5
19F
330
1F
100
AcDbEntity
  8
0-0
  6
Continuous
 62
     2
370
     9
100
AcDbCircle
 10
900.0
 20
469.0540540540542
 30
0.0
 40
554.1666597933383
  0
ARC
  5
1A0
330
1F
100
AcDbEntity
  8
0-0
  6
Continuous
 62
     2
370
     9
100
AcDbCircle
 10
366.666721653294
 20
827.3877448004646
 30
0.0
 40
13.33333350516654
100
AcDbArc
 50
23.15711975097656
 51
23.15695190429688
  0
ARC
  5
1A1
330
1F
100
AcDbEntity
  8
0-0
  6
Continuous
 62
     2
370
     9
100
AcDbCircle
 10
577.0979597761828
 20
935.7344673775339
 30
0.0
 40
10.00000012887491
100
AcDbArc
 50
224.9993286132812
 51
304.6800689697266
  0
ARC
  5
1A2
330
1F
100
AcDbEntity
  8
0-0
  6
Continuous
 62
     2
370
     9
100
AcDbCircle
 10
547.3195668813344
 20
913.6581338418498
 30
0.0
 40
10.00000012887491
100
AcDbArc
 50
308.4235076904296
 51
44.99932861328125
  0
ARC
  5
1A3
330
1F
100
AcDbEntity
  8
0-0
  6
Continuous
 62
     2
370
     9
100
AcDbCircle
 10
555.5756440033787
 20
914.8302562816724
 30
0.0
 40
6.666666752583272
100
AcDbArc
 50
307.6914825439453
 51
45.00000000000003
  0
ARC
  5
1A4
330
1F
100
AcDbEntity
  8
0-0
  6
Continuous
 62
     2
370
     9
100
AcDbCircle
 10
574.5433910472974
 20
928.861083984375
 30
0.0
 40
6.666666752583272
100
AcDbArc
 50
225.0
 51
305.2913360595703
  0
ARC
  5
1A5
330
1F
100
AcDbEntity
  8
0-0
  6
Continuous
 62
     2
370
     9
100
AcDbCircle
 10
900.0
 20
469.0540540540542
 30
0.0
 40
556.6666680413324
100
AcDbArc
 50
125.2913055419922
 51
127.6910858154297
  0
ARC
  5
1A6
330
1F
100
AcDbEntity
  8
0-0
  6
Continuous
 62
     2
370
     9
100
AcDbCircle
 10
485.4447648331927
 20
1027.387414880701
 30
0.0
 40
10.00000012887491
100
AcDbArc
 50
90.0
 51
224.9993286132812
  0
ARC
  5
1A7
330
1F
100
AcDbEntity
  8
0-0
  6
Continuous
 62
     2
370
     9
100
AcDbCircle
 10
433.5902858424834
 20
1027.387414880701
 30
0.0
 40
10.00000012887491
100
AcDbArc
 50
45.00067138671875
 51
90.0
  0
ARC
  5
1A8
330
1F
100
AcDbEntity
  8
0-0
  6
Continuous
 62
     2
370
     9
100
AcDbCircle
 10
433.5907807221284
 20
1027.387414880701
 30
0.0
 40
13.33333350516654
100
AcDbArc
 50
45.0
 51
90.0
  0
ARC
  5
1A9
330
1F
100
AcDbEntity
  8
0-0
  6
Continuous
 62
     2
370
     9
100
AcDbCircle
 10
485.4447648331927
 20
1027.387414880701
 30
0.0
 40
13.33333350516654
100
AcDbArc
 50
90.0
 51
225.0
  0
ARC
  5
1AA
330
1F
100
AcDbEntity
  8
0-0
  6
Continuous
 62
     2
370
     9
100
AcDbCircle
 10
409.9677008551521
 20
1027.387414880701
 30
0.0
 40
10.00000012887491
100
AcDbArc
 50
90.0
 51
210.0000457763672
  0
ARC
  5
1AB
330
1F
100
AcDbEntity
  8
0-0
  6
Continuous
 62
     2
370
     9
100
AcDbCircle
 10
409.9677008551521
 20
1027.387414880701
 30
0.0
 40
13.33333350516654
100
AcDbArc
 50
90.0
 51
210.0003356933594
  0
ARC
  5
1AC
330
1F
100
AcDbEntity
  8
0-0
  6
Continuous
 62
     2
370
     9
100
AcDbCircle
 10
366.666721653294
 20
1002.38733240076
 30
0.0
 40
40.00000051549964
100
AcDbArc
 50
336.7005462646485
 51
30.00010681152346
  0
ARC
  5
1AD
330
1F
100
AcDbEntity
  8
0-0
  6
Continuous
 62
     2
370
     9
100
AcDbCircle
 10
412.5890783361487
 20
982.6104571368245
 30
0.0
 40
10.00000012887491
100
AcDbArc
 50
156.7007598876953
 51
226.1918029785157
  0
ARC
  5
1AE
330
1F
100
AcDbEntity
  8
0-0
  6
Continuous
 62
     2
370
     9
100
AcDbCircle
 10
514.1448149809969
 20
885.1936464051943
 30
0.0
 40
10.00000012887491
100
AcDbArc
 50
226.1911163330078
 51
312.8376007080078
  0
ARC
  5
1AF
330
1F
100
AcDbEntity
  8
0-0
  6
Continuous
 62
     2
370
     9
100
AcDbCircle
 10
900.0
 20
469.0540540540542
 30
0.0
 40
557.4999835040119
100
AcDbArc
 50
128.4230499267578
 51
132.8374481201172
  0
ARC
  5
1B0
330
1F
100
AcDbEntity
  8
0-0
  6
Continuous
 62
     2
370
     9
100
AcDbCircle
 10
511.1770217483109
 20
874.3763196790542
 30
0.0
 40
6.666666752583272
100
AcDbArc
 50
225.0
 51
313.8095703125
  0
ARC
  5
1B1
330
1F
100
AcDbEntity
  8
0-0
  6
Continuous
 62
     2
370
     9
100
AcDbCircle
 10
404.4260385874156
 20
981.1270554001269
 30
0.0
 40
6.666666752583272
100
AcDbArc
 50
150.6179656982422
 51
225.0
  0
ARC
  5
1B2
330
1F
100
AcDbEntity
  8
0-0
  6
Continuous
 62
     2
370
     9
100
AcDbCircle
 10
483.8604076488599
 20
854.9092390730575
 30
0.0
 40
10.00000012887491
100
AcDbArc
 50
317.1624603271484
 51
43.80888366699217
  0
ARC
  5
1B3
330
1F
100
AcDbEntity
  8
0-0
  6
Continuous
 62
     2
370
     9
100
AcDbCircle
 10
494.677734375
 20
857.8770323057436
 30
0.0
 40
6.666666752583272
100
AcDbArc
 50
316.1904296875
 51
45.00000000000003
  0
ARC
  5
1B4
330
1F
100
AcDbEntity
  8
0-0
  6
Continuous
 62
     2
370
     9
100
AcDbCircle
 10
900.0
 20
469.0540540540542
 30
0.0
 40
555.0000371159734
100
AcDbArc
 50
133.809799194336
 51
136.1902008056641
  0
ARC
  5
1B5
330
1F
100
AcDbEntity
  8
0-0
  6
Continuous
 62
     2
370
     9
100
AcDbCircle
 10
386.44359691723
 20
956.4649757179054
 30
0.0
 40
10.00000012887491
100
AcDbArc
 50
43.80819702148438
 51
113.2996063232422
  0
ARC
  5
1B6
330
1F
100
AcDbEntity
  8
0-0
  6
Continuous
 62
     2
370
     9
100
AcDbCircle
 10
387.92724609375
 20
964.6280154666385
 30
0.0
 40
6.666666752583272
100
AcDbArc
 50
45.0
 51
119.3814086914062
  0
ARC
  5
1B7
330
1F
100
AcDbEntity
  8
0-0
  6
Continuous
 62
     2
370
     9
100
AcDbCircle
 10
433.3195866765203
 20
791.9560942778717
 30
0.0
 40
10.00000012887491
100
AcDbArc
 50
325.3199310302734
 51
45.00067138671878
  0
ARC
  5
1B8
330
1F
100
AcDbEntity
  8
0-0
  6
Continuous
 62
     2
370
     9
100
AcDbCircle
 10
455.3959202122044
 20
821.7342397328971
 30
0.0
 40
10.00000012887491
100
AcDbArc
 50
225.0006713867188
 51
321.5764923095704
  0
ARC
  5
1B9
330
1F
100
AcDbEntity
  8
0-0
  6
Continuous
 62
     2
370
     9
100
AcDbCircle
 10
454.2237977723818
 20
813.4784100506758
 30
0.0
 40
6.666666752583272
100
AcDbArc
 50
225.0
 51
322.3085174560547
  0
ARC
  5
1BA
330
1F
100
AcDbEntity
  8
0-0
  6
Continuous
 62
     2
370
     9
100
AcDbCircle
 10
440.1929700696792
 20
794.5109104465794
 30
0.0
 40
6.666666752583272
100
AcDbArc
 50
324.7086639404297
 51
45.00000000000003
  0
ARC
  5
1BB
330
1F
100
AcDbEntity
  8
0-0
  6
Continuous
 62
     2
370
     9
100
AcDbCircle
 10
900.0
 20
469.0540540540542
 30
0.0
 40
556.6666680413324
100
AcDbArc
 50
142.3089141845703
 51
144.7086944580078
  0
ARC
  5
1BC
330
1F
100
AcDbEntity
  8
0-0
  6
Continuous
 62
     2
370
     9
100
AcDbCircle
 10
341.6666391733531
 20
883.6090417810391
 30
0.0
 40
10.00000012887491
100
AcDbArc
 50
45.00067138671875
 51
180.0
  0
ARC
  5
1BD
330
1F
100
AcDbEntity
  8
0-0
  6
Continuous
 62
     2
370
     9
100
AcDbCircle
 10
341.6666391733531
 20
935.4635207717484
 30
0.0
 40
10.00000012887491
100
AcDbArc
 50
180.0
 51
224.9993286132812
  0
ARC
  5
1BE
330
1F
100
AcDbEntity
  8
0-0
  6
Continuous
 62
     2
370
     9
100
AcDbCircle
 10
341.6666391733531
 20
935.4635207717484
 30
0.0
 40
13.33333350516654
100
AcDbArc
 50
180.0
 51
225.0
  0
ARC
  5
1BF
330
1F
100
AcDbEntity
  8
0-0
  6
Continuous
 62
     2
370
     9
100
AcDbCircle
 10
341.6666391733531
 20
883.6092892208617
 30
0.0
 40
13.33333350516654
100
AcDbArc
 50
45.0
 51
180.0
  0
ARC
  5
1C0
330
1F
100
AcDbEntity
  8
0-0
  6
Continuous
 62
     2
370
     9
100
AcDbCircle
 10
900.0
 20
469.0540540540542
 30
0.0
 40
557.4999835040119
100
AcDbArc
 50
137.1625518798828
 51
141.5769500732422
  0
ARC
  5
1C1
330
1F
100
AcDbEntity
  8
0-0
  6
Continuous
 62
     2
370
     9
100
AcDbCircle
 10
341.6666391733531
 20
959.0861057590794
 30
0.0
 40
10.00000012887491
100
AcDbArc
 50
59.99995422363281
 51
180.0
  0
ARC
  5
1C2
330
1F
100
AcDbEntity
  8
0-0
  6
Continuous
 62
     2
370
     9
100
AcDbCircle
 10
366.666721653294
 20
1002.38733240076
 30
0.0
 40
40.00000051549964
100
AcDbArc
 50
239.9998779296874
 51
293.2995605468751
  0
ARC
  5
1C3
330
1F
100
AcDbEntity
  8
0-0
  6
Continuous
 62
     2
370
     9
100
AcDbCircle
 10
366.666721653294
 20
1002.38733240076
 30
0.0
 40
36.66666907233162
100
AcDbArc
 50
240.0
 51
29.99999999999999
  0
ARC
  5
1C4
330
1F
100
AcDbEntity
  8
0-0
  6
Continuous
 62
     2
370
     9
100
AcDbCircle
 10
341.6666391733531
 20
959.0861057590794
 30
0.0
 40
13.33333350516654
100
AcDbArc
 50
59.99966430664062
 51
180.0
  0
ARC
  5
1C5
330
1F
100
AcDbEntity
  8
0-0
  6
Continuous
 62
     2
370
     9
100
AcDbCircle
 10
900.0
 20
469.0540540540542
 30
0.0
 40
557.4999835040119
100
AcDbArc
 50
100.3120574951172
 51
124.6798553466797
  0
ARC
  5
1C6
330
1F
100
AcDbEntity
  8
0-0
  6
Continuous
 62
     2
370
     9
100
AcDbCircle
 10
798.4120961782094
 20
1027.387414880701
 30
0.0
 40
10.00000012887491
100
AcDbArc
 50
280.3123779296875
 51
90.00000000000001
  0
ARC
  5
1C7
330
1F
100
AcDbEntity
  8
0-0
  6
Continuous
 62
     2
370
     9
100
AcDbCircle
 10
900.0
 20
469.0540540540542
 30
0.0
 40
557.4999835040119
100
AcDbArc
 50
170.5863037109375
 51
189.4136962890625
  0
ARC
  5
1C8
330
1F
100
AcDbEntity
  8
0-0
  6
Continuous
 62
     2
370
     9
100
AcDbCircle
 10
900.0
 20
469.0540540540542
 30
0.0
 40
557.4999835040119
100
AcDbArc
 50
145.3201446533203
 51
169.6879425048828
  0
ARC
  5
1C9
330
1F
100
AcDbEntity
  8
0-0
  6
Continuous
 62
     2
370
     9
100
AcDbCircle
 10
341.6666391733531
 20
570.6418341559333
 30
0.0
 40
10.00000012887491
100
AcDbArc
 50
180.0
 51
349.6881713867188
  0
ARC
  5
1CA
330
1F
100
AcDbEntity
  8
0-0
  6
Continuous
 62
     2
370
     9
100
AcDbCircle
 10
341.6666391733531
 20
570.6418341559333
 30
0.0
 40
13.33333350516654
100
AcDbArc
 50
180.0
 51
308.7252655029297
  0
ARC
  5
1CB
330
1F
100
AcDbEntity
  8
0-0
  6
Continuous
 62
     2
370
     9
100
AcDbCircle
 10
1222.902040223818
 20
935.7344673775339
 30
0.0
 40
10.00000012887491
100
AcDbArc
 50
235.3199310302735
 51
315.0006713867188
  0
ARC
  5
1CC
330
1F
100
AcDbEntity
  8
0-0
  6
Continuous
 62
     2
370
     9
100
AcDbCircle
 10
1252.680433118666
 20
913.6581338418498
 30
0.0
 40
10.00000012887491
100
AcDbArc
 50
135.0006713867188
 51
231.5764923095703
  0
ARC
  5
1CD
330
1F
100
AcDbEntity
  8
0-0
  6
Continuous
 62
     2
370
     9
100
AcDbCircle
 10
1244.424355996622
 20
914.8302562816724
 30
0.0
 40
6.666666752583272
100
AcDbArc
 50
135.0
 51
232.3085174560547
  0
ARC
  5
1CE
330
1F
100
AcDbEntity
  8
0-0
  6
Continuous
 62
     2
370
     9
100
AcDbCircle
 10
1225.457103832348
 20
928.861083984375
 30
0.0
 40
6.666666752583272
100
AcDbArc
 50
234.7086639404296
 51
315.0
  0
ARC
  5
1CF
330
1F
100
AcDbEntity
  8
0-0
  6
Continuous
 62
     2
370
     9
100
AcDbCircle
 10
900.0
 20
469.0540540540542
 30
0.0
 40
556.6666680413324
100
AcDbArc
 50
52.30891418457032
 51
54.70869445800782
  0
ARC
  5
1D0
330
1F
100
AcDbEntity
  8
0-0
  6
Continuous
 62
     2
370
     9
100
AcDbCircle
 10
1314.555235166808
 20
1027.387414880701
 30
0.0
 40
10.00000012887491
100
AcDbArc
 50
315.0006713867188
 51
90.0
  0
ARC
  5
1D1
330
1F
100
AcDbEntity
  8
0-0
  6
Continuous
 62
     2
370
     9
100
AcDbCircle
 10
1366.409714157517
 20
1027.387414880701
 30
0.0
 40
10.00000012887491
100
AcDbArc
 50
90.0
 51
134.9993286132812
  0
ARC
  5
1D2
330
1F
100
AcDbEntity
  8
0-0
  6
Continuous
 62
     2
370
     9
100
AcDbCircle
 10
1366.409714157517
 20
1027.387414880701
 30
0.0
 40
13.33333350516654
100
AcDbArc
 50
90.0
 51
135.0
  0
ARC
  5
1D3
330
1F
100
AcDbEntity
  8
0-0
  6
Continuous
 62
     2
370
     9
100
AcDbCircle
 10
1314.555235166808
 20
1027.387414880701
 30
0.0
 40
13.33333350516654
100
AcDbArc
 50
315.0000000000001
 51
90.00000000000006
  0
ARC
  5
1D4
330
1F
100
AcDbEntity
  8
0-0
  6
Continuous
 62
     2
370
     9
100
AcDbCircle
 10
1390.032299144848
 20
1027.387414880701
 30
0.0
 40
10.00000012887491
100
AcDbArc
 50
329.9999542236329
 51
90.00000000000001
  0
ARC
  5
1D5
330
1F
100
AcDbEntity
  8
0-0
  6
Continuous
 62
     2
370
     9
100
AcDbCircle
 10
1390.032299144848
 20
1027.387414880701
 30
0.0
 40
13.33333350516654
100
AcDbArc
 50
329.9996643066407
 51
90.00000000000006
  0
ARC
  5
1D6
330
1F
100
AcDbEntity
  8
0-0
  6
Continuous
 62
     2
370
     9
100
AcDbCircle
 10
1433.333278346706
 20
1002.38733240076
 30
0.0
 40
40.00000051549964
100
AcDbArc
 50
149.9998931884766
 51
203.2994537353515
  0
ARC
  5
1D7
330
1F
100
AcDbEntity
  8
0-0
  6
Continuous
 62
     2
370
     9
100
AcDbCircle
 10
1387.410921663852
 20
982.6104571368245
 30
0.0
 40
10.00000012887491
100
AcDbArc
 50
313.8081970214844
 51
23.29924011230472
  0
ARC
  5
1D8
330
1F
100
AcDbEntity
  8
0-0
  6
Continuous
 62
     2
370
     9
100
AcDbCircle
 10
1285.855185019004
 20
885.1936464051943
 30
0.0
 40
10.00000012887491
100
AcDbArc
 50
227.1623992919922
 51
313.8088836669922
  0
ARC
  5
1D9
330
1F
100
AcDbEntity
  8
0-0
  6
Continuous
 62
     2
370
     9
100
AcDbCircle
 10
900.0
 20
469.0540540540542
 30
0.0
 40
557.4999835040119
100
AcDbArc
 50
47.16255187988282
 51
51.57695007324219
  0
ARC
  5
1DA
330
1F
100
AcDbEntity
  8
0-0
  6
Continuous
 62
     2
370
     9
100
AcDbCircle
 10
1288.82297825169
 20
874.3763196790542
 30
0.0
 40
6.666666752583272
100
AcDbArc
 50
226.1904296875
 51
315.0
  0
ARC
  5
1DB
330
1F
100
AcDbEntity
  8
0-0
  6
Continuous
 62
     2
370
     9
100
AcDbCircle
 10
1395.573961412585
 20
981.1270554001269
 30
0.0
 40
6.666666752583272
100
AcDbArc
 50
315.0000000000001
 51
29.38203430175787
  0
ARC
  5
1DC
330
1F
100
AcDbEntity
  8
0-0
  6
Continuous
 62
     2
370
     9
100
AcDbCircle
 10
1316.139839790963
 20
854.9092390730575
 30
0.0
 40
10.00000012887491
100
AcDbArc
 50
136.1911163330078
 51
222.8375396728516
  0
ARC
  5
1DD
330
1F
100
AcDbEntity
  8
0-0
  6
Continuous
 62
     2
370
     9
100
AcDbCircle
 10
1305.322265625
 20
857.8770323057436
 30
0.0
 40
6.666666752583272
100
AcDbArc
 50
135.0
 51
223.8095703125
  0
ARC
  5
1DE
330
1F
100
AcDbEntity
  8
0-0
  6
Continuous
 62
     2
370
     9
100
AcDbCircle
 10
900.0
 20
469.0540540540542
 30
0.0
 40
555.0000371159734
100
AcDbArc
 50
43.80979919433594
 51
46.19020080566407
  0
ARC
  5
1DF
330
1F
100
AcDbEntity
  8
0-0
  6
Continuous
 62
     2
370
     9
100
AcDbCircle
 10
1413.55640308277
 20
956.4649757179054
 30
0.0
 40
10.00000012887491
100
AcDbArc
 50
66.70039367675781
 51
136.1918029785157
  0
ARC
  5
1E0
330
1F
100
AcDbEntity
  8
0-0
  6
Continuous
 62
     2
370
     9
100
AcDbCircle
 10
1412.073248785895
 20
964.6280154666385
 30
0.0
 40
6.666666752583272
100
AcDbArc
 50
60.61859130859376
 51
135.0
  0
ARC
  5
1E1
330
1F
100
AcDbEntity
  8
0-0
  6
Continuous
 62
     2
370
     9
100
AcDbCircle
 10
1366.68041332348
 20
791.9560942778717
 30
0.0
 40
10.00000012887491
100
AcDbArc
 50
134.9993286132812
 51
214.6800689697266
  0
ARC
  5
1E2
330
1F
100
AcDbEntity
  8
0-0
  6
Continuous
 62
     2
370
     9
100
AcDbCircle
 10
1344.604327227618
 20
821.7342397328971
 30
0.0
 40
10.00000012887491
100
AcDbArc
 50
218.4235076904297
 51
314.9993286132812
  0
ARC
  5
1E3
330
1F
100
AcDbEntity
  8
0-0
  6
Continuous
 62
     2
370
     9
100
AcDbCircle
 10
1345.776202227618
 20
813.4784100506758
 30
0.0
 40
6.666666752583272
100
AcDbArc
 50
217.6914825439454
 51
315.0
  0
ARC
  5
1E4
330
1F
100
AcDbEntity
  8
0-0
  6
Continuous
 62
     2
370
     9
100
AcDbCircle
 10
1359.807029930321
 20
794.5109104465794
 30
0.0
 40
6.666666752583272
100
AcDbArc
 50
135.0
 51
215.2913360595703
  0
ARC
  5
1E5
330
1F
100
AcDbEntity
  8
0-0
  6
Continuous
 62
     2
370
     9
100
AcDbCircle
 10
900.0
 20
469.0540540540542
 30
0.0
 40
556.6666680413324
100
AcDbArc
 50
35.29130554199219
 51
37.69108581542969
  0
ARC
  5
1E6
330
1F
100
AcDbEntity
  8
0-0
  6
Continuous
 62
     2
370
     9
100
AcDbCircle
 10
1458.33360826647
 20
883.6090417810391
 30
0.0
 40
10.00000012887491
100
AcDbArc
 50
0.0
 51
134.9993286132812
  0
ARC
  5
1E7
330
1F
100
AcDbEntity
  8
0-0
  6
Continuous
 62
     2
370
     9
100
AcDbCircle
 10
1458.33360826647
 20
935.4635207717484
 30
0.0
 40
10.00000012887491
100
AcDbArc
 50
315.0006713867188
 51
0.0
  0
ARC
  5
1E8
330
1F
100
AcDbEntity
  8
0-0
  6
Continuous
 62
     2
370
     9
100
AcDbCircle
 10
1458.33360826647
 20
935.4635207717484
 30
0.0
 40
13.33333350516654
100
AcDbArc
 50
315.0000000000001
 51
0.0000000000000509
  0
ARC
  5
1E9
330
1F
100
AcDbEntity
  8
0-0
  6
Continuous
 62
     2
370
     9
100
AcDbCircle
 10
1458.33360826647
 20
883.6092892208617
 30
0.0
 40
13.33333350516654
100
AcDbArc
 50
0.0
 51
135.0
  0
ARC
  5
1EA
330
1F
100
AcDbEntity
  8
0-0
  6
Continuous
 62
     2
370
     9
100
AcDbCircle
 10
900.0
 20
469.0540540540542
 30
0.0
 40
557.4999835040119
100
AcDbArc
 50
38.42304992675781
 51
42.83744812011719
  0
ARC
  5
1EB
330
1F
100
AcDbEntity
  8
0-0
  6
Continuous
 62
     2
370
     9
100
AcDbCircle
 10
1458.33360826647
 20
959.0861057590794
 30
0.0
 40
10.00000012887491
100
AcDbArc
 50
0.0
 51
120.0000457763672
  0
ARC
  5
1EC
330
1F
100
AcDbEntity
  8
0-0
  6
Continuous
 62
     2
370
     9
100
AcDbCircle
 10
1433.333773226352
 20
1002.38733240076
 30
0.0
 40
40.00000051549964
100
AcDbArc
 50
246.7004394531251
 51
300.0001220703125
  0
ARC
  5
1ED
330
1F
100
AcDbEntity
  8
0-0
  6
Continuous
 62
     2
370
     9
100
AcDbCircle
 10
1433.333278346706
 20
1002.38733240076
 30
0.0
 40
36.66666907233162
100
AcDbArc
 50
150.0
 51
300.0
  0
ARC
  5
1EE
330
1F
100
AcDbEntity
  8
0-0
  6
Continuous
 62
     2
370
     9
100
AcDbCircle
 10
1458.33360826647
 20
959.0861057590794
 30
0.0
 40
13.33333350516654
100
AcDbArc
 50
0.0
 51
120.0003356933594
  0
ARC
  5
1EF
330
1F
100
AcDbEntity
  8
0-0
  6
Continuous
 62
     2
370
     9
100
AcDbCircle
 10
1001.587903821791
 20
1027.387414880701
 30
0.0
 40
13.33333350516654
100
AcDbArc
 50
90.0
 51
218.7255401611328
  0
ARC
  5
1F0
330
1F
100
AcDbEntity
  8
0-0
  6
Continuous
 62
     2
370
     9
100
AcDbCircle
 10
900.0
 20
469.0540540540542
 30
0.0
 40
557.4999835040119
100
AcDbArc
 50
55.32014465332031
 51
79.68794250488281
  0
ARC
  5
1F1
330
1F
100
AcDbEntity
  8
0-0
  6
Continuous
 62
     2
370
     9
100
AcDbCircle
 10
1001.587903821791
 20
1027.387414880701
 30
0.0
 40
10.00000012887491
100
AcDbArc
 50
90.0
 51
259.6876220703125
  0
ARC
  5
1F2
330
1F
100
AcDbEntity
  8
0-0
  6
Continuous
 62
     2
370
     9
100
AcDbCircle
 10
900.0
 20
469.0540540540542
 30
0.0
 40
557.4999835040119
100
AcDbArc
 50
350.5863037109375
 51
9.413696289062521
  0
ARC
  5
1F3
330
1F
100
AcDbEntity
  8
0-0
  6
Continuous
 62
     2
370
     9
100
AcDbCircle
 10
900.0
 20
469.0540540540542
 30
0.0
 40
557.4999835040119
100
AcDbArc
 50
10.31205749511719
 51
34.67985534667969
  0
ARC
  5
1F4
330
1F
100
AcDbEntity
  8
0-0
  6
Continuous
 62
     2
370
     9
100
AcDbCircle
 10
1458.33360826647
 20
570.6418341559333
 30
0.0
 40
10.00000012887491
100
AcDbArc
 50
190.3118286132812
 51
0.0000000000000254
  0
ARC
  5
1F5
330
1F
100
AcDbEntity
  8
0-0
  6
Continuous
 62
     2
370
     9
100
AcDbCircle
 10
1458.33360826647
 20
570.6418341559333
 30
0.0
 40
13.33333350516654
100
AcDbArc
 50
231.2747344970703
 51
0.0000000000000254
  0
ARC
  5
1F6
330
1F
100
AcDbEntity
  8
0-0
  6
Continuous
 62
     2
370
     9
100
AcDbCircle
 10
798.4120961782094
 20
1027.387414880701
 30
0.0
 40
13.33333350516654
100
AcDbArc
 50
321.2744598388672
 51
90.0
  0
ARC
  5
1F7
330
1F
100
AcDbEntity
  8
0-0
  6
Continuous
 62
     2
370
     9
100
AcDbCircle
 10
900.0
 20
469.0540540540542
 30
0.0
 40
557.4999835040119
100
AcDbArc
 50
80.5863037109375
 51
99.4136962890625
  0
ARC
  5
1F8
330
1F
100
AcDbEntity
  8
0-0
  6
Continuous
 62
     2
370
     9
100
AcDbCircle
 10
1366.68041332348
 20
146.1518901103253
 30
0.0
 40
10.00000012887491
100
AcDbArc
 50
145.3199310302734
 51
225.0006713867188
  0
ARC
  5
1F9
330
1F
100
AcDbEntity
  8
0-0
  6
Continuous
 62
     2
370
     9
100
AcDbCircle
 10
1344.604327227618
 20
116.3737446553
 30
0.0
 40
10.00000012887491
100
AcDbArc
 50
45.00067138671875
 51
141.5764923095703
  0
ARC
  5
1FA
330
1F
100
AcDbEntity
  8
0-0
  6
Continuous
 62
     2
370
     9
100
AcDbCircle
 10
1345.776202227618
 20
124.6296980574326
 30
0.0
 40
6.666666752583272
100
AcDbArc
 50
45.0
 51
142.3085174560547
  0
ARC
  5
1FB
330
1F
100
AcDbEntity
  8
0-0
  6
Continuous
 62
     2
370
     9
100
AcDbCircle
 10
1359.807029930321
 20
143.5973213814401
 30
0.0
 40
6.666666752583272
100
AcDbArc
 50
144.7086639404297
 51
225.0
  0
ARC
  5
1FC
330
1F
100
AcDbEntity
  8
0-0
  6
Continuous
 62
     2
370
     9
100
AcDbCircle
 10
900.0
 20
469.0540540540542
 30
0.0
 40
556.6666680413324
100
AcDbArc
 50
322.3089141845703
 51
324.7086944580078
  0
ARC
  5
1FD
330
1F
100
AcDbEntity
  8
0-0
  6
Continuous
 62
     2
370
     9
100
AcDbCircle
 10
1458.33360826647
 20
54.49894260715809
 30
0.0
 40
10.00000012887491
100
AcDbArc
 50
225.0006713867188
 51
0.0000000000000254
  0
ARC
  5
1FE
330
1F
100
AcDbEntity
  8
0-0
  6
Continuous
 62
     2
370
     9
100
AcDbCircle
 10
1458.33360826647
 20
2.644463616448434
 30
0.0
 40
10.00000012887491
100
AcDbArc
 50
0.0
 51
44.99932861328126
  0
ARC
  5
1FF
330
1F
100
AcDbEntity
  8
0-0
  6
Continuous
 62
     2
370
     9
100
AcDbCircle
 10
1458.33360826647
 20
2.644711056271092
 30
0.0
 40
13.33333350516654
100
AcDbArc
 50
0.0
 51
45.0
  0
ARC
  5
200
330
1F
100
AcDbEntity
  8
0-0
  6
Continuous
 62
     2
370
     9
100
AcDbCircle
 10
1458.33360826647
 20
54.49881888724661
 30
0.0
 40
13.33333350516654
100
AcDbArc
 50
225.0
 51
0.0
  0
ARC
  5
201
330
1F
100
AcDbEntity
  8
0-0
  6
Continuous
 62
     2
370
     9
100
AcDbCircle
 10
1458.33360826647
 20
-20.97812137088255
 30
0.0
 40
10.00000012887491
100
AcDbArc
 50
239.9999542236328
 51
0.0000000000000254
  0
ARC
  5
202
330
1F
100
AcDbEntity
  8
0-0
  6
Continuous
 62
     2
370
     9
100
AcDbCircle
 10
1458.33360826647
 20
-20.97812137088255
 30
0.0
 40
13.33333350516654
100
AcDbArc
 50
239.9996643066407
 51
0.0000000000000509
  0
ARC
  5
203
330
1F
100
AcDbEntity
  8
0-0
  6
Continuous
 62
     2
370
     9
100
AcDbCircle
 10
1433.333278346706
 20
-64.27922429265209
 30
0.0
 40
40.00000051549964
100
AcDbArc
 50
59.99989318847656
 51
113.2994537353515
  0
ARC
  5
204
330
1F
100
AcDbEntity
  8
0-0
  6
Continuous
 62
     2
370
     9
100
AcDbCircle
 10
1413.55640308277
 20
-18.35674388988593
 30
0.0
 40
10.00000012887491
100
AcDbArc
 50
223.8081970214843
 51
293.2992401123047
  0
ARC
  5
205
330
1F
100
AcDbEntity
  8
0-0
  6
Continuous
 62
     2
370
     9
100
AcDbCircle
 10
1316.139839790963
 20
83.19899275496198
 30
0.0
 40
10.00000012887491
100
AcDbArc
 50
137.1623992919922
 51
223.8088836669922
  0
ARC
  5
206
330
1F
100
AcDbEntity
  8
0-0
  6
Continuous
 62
     2
370
     9
100
AcDbCircle
 10
900.0
 20
469.0540540540542
 30
0.0
 40
557.4999835040119
100
AcDbArc
 50
317.1625518798829
 51
321.5769500732422
  0
ARC
  5
207
330
1F
100
AcDbEntity
  8
0-0
  6
Continuous
 62
     2
370
     9
100
AcDbCircle
 10
1305.322265625
 20
80.23095208245365
 30
0.0
 40
6.666666752583272
100
AcDbArc
 50
136.1904296875
 51
225.0
  0
ARC
  5
208
330
1F
100
AcDbEntity
  8
0-0
  6
Continuous
 62
     2
370
     9
100
AcDbCircle
 10
1412.073248785895
 20
-26.519783638619
 30
0.0
 40
6.666666752583272
100
AcDbArc
 50
225.0
 51
299.3820343017578
  0
ARC
  5
209
330
1F
100
AcDbEntity
  8
0-0
  6
Continuous
 62
     2
370
     9
100
AcDbCircle
 10
1285.855185019004
 20
52.9144617029138
 30
0.0
 40
10.00000012887491
100
AcDbArc
 50
46.19111633300781
 51
132.8375396728516
  0
ARC
  5
20A
330
1F
100
AcDbEntity
  8
0-0
  6
Continuous
 62
     2
370
     9
100
AcDbCircle
 10
1288.82297825169
 20
63.73178842905418
 30
0.0
 40
6.666666752583272
100
AcDbArc
 50
45.0
 51
133.8095703125
  0
ARC
  5
20B
330
1F
100
AcDbEntity
  8
0-0
  6
Continuous
 62
     2
370
     9
100
AcDbCircle
 10
900.0
 20
469.0540540540542
 30
0.0
 40
555.0000371159734
100
AcDbArc
 50
313.809799194336
 51
316.1902008056641
  0
ARC
  5
20C
330
1F
100
AcDbEntity
  8
0-0
  6
Continuous
 62
     2
370
     9
100
AcDbCircle
 10
1387.410921663852
 20
-44.50247274862733
 30
0.0
 40
10.00000012887491
100
AcDbArc
 50
336.7003936767578
 51
46.19180297851565
  0
ARC
  5
20D
330
1F
100
AcDbEntity
  8
0-0
  6
Continuous
 62
     2
370
     9
100
AcDbCircle
 10
1395.573961412585
 20
-43.01882357210729
 30
0.0
 40
6.666666752583272
100
AcDbArc
 50
330.6185913085938
 51
45.00000000000005
  0
ARC
  5
20E
330
1F
100
AcDbEntity
  8
0-0
  6
Continuous
 62
     2
370
     9
100
AcDbCircle
 10
1222.902040223818
 20
2.373640730574493
 30
0.0
 40
10.00000012887491
100
AcDbArc
 50
44.99932861328126
 51
124.6800689697266
  0
ARC
  5
20F
330
1F
100
AcDbEntity
  8
0-0
  6
Continuous
 62
     2
370
     9
100
AcDbCircle
 10
1252.680433118666
 20
24.44997426625861
 30
0.0
 40
10.00000012887491
100
AcDbArc
 50
128.4235076904297
 51
224.9993286132812
  0
ARC
  5
210
330
1F
100
AcDbEntity
  8
0-0
  6
Continuous
 62
     2
370
     9
100
AcDbCircle
 10
1244.424355996622
 20
23.27785182643595
 30
0.0
 40
6.666666752583272
100
AcDbArc
 50
127.6914825439453
 51
225.0
  0
ARC
  5
211
330
1F
100
AcDbEntity
  8
0-0
  6
Continuous
 62
     2
370
     9
100
AcDbCircle
 10
1225.457103832348
 20
9.247147843644541
 30
0.0
 40
6.666666752583272
100
AcDbArc
 50
45.0
 51
125.2913360595703
  0
ARC
  5
212
330
1F
100
AcDbEntity
  8
0-0
  6
Continuous
 62
     2
370
     9
100
AcDbCircle
 10
900.0
 20
469.0540540540542
 30
0.0
 40
556.6666680413324
100
AcDbArc
 50
305.2913055419922
 51
307.6910858154297
  0
ARC
  5
213
330
1F
100
AcDbEntity
  8
0-0
  6
Continuous
 62
     2
370
     9
100
AcDbCircle
 10
1314.555235166808
 20
-89.27930677259269
 30
0.0
 40
10.00000012887491
100
AcDbArc
 50
270.0
 51
44.99932861328126
  0
ARC
  5
214
330
1F
100
AcDbEntity
  8
0-0
  6
Continuous
 62
     2
370
     9
100
AcDbCircle
 10
1366.409714157517
 20
-89.27930677259269
 30
0.0
 40
10.00000012887491
100
AcDbArc
 50
225.0006713867188
 51
270.0
  0
ARC
  5
215
330
1F
100
AcDbEntity
  8
0-0
  6
Continuous
 62
     2
370
     9
100
AcDbCircle
 10
1366.409714157517
 20
-89.27930677259269
 30
0.0
 40
13.33333350516654
100
AcDbArc
 50
225.0
 51
270.0
  0
ARC
  5
216
330
1F
100
AcDbEntity
  8
0-0
  6
Continuous
 62
     2
370
     9
100
AcDbCircle
 10
1314.555235166808
 20
-89.27930677259269
 30
0.0
 40
13.33333350516654
100
AcDbArc
 50
270.0
 51
45.0
  0
ARC
  5
217
330
1F
100
AcDbEntity
  8
0-0
  6
Continuous
 62
     2
370
     9
100
AcDbCircle
 10
900.0
 20
469.0540540540542
 30
0.0
 40
557.4999835040119
100
AcDbArc
 50
308.4230499267578
 51
312.8374481201171
  0
ARC
  5
218
330
1F
100
AcDbEntity
  8
0-0
  6
Continuous
 62
     2
370
     9
100
AcDbCircle
 10
1390.032299144848
 20
-89.27930677259269
 30
0.0
 40
10.00000012887491
100
AcDbArc
 50
270.0
 51
30.00004577636718
  0
ARC
  5
219
330
1F
100
AcDbEntity
  8
0-0
  6
Continuous
 62
     2
370
     9
100
AcDbCircle
 10
1433.333278346706
 20
-64.27947173247446
 30
0.0
 40
40.00000051549964
100
AcDbArc
 50
156.700439453125
 51
210.0001220703125
  0
ARC
  5
21A
330
1F
100
AcDbEntity
  8
0-0
  6
Continuous
 62
     2
370
     9
100
AcDbCircle
 10
1433.333278346706
 20
-64.27922429265209
 30
0.0
 40
36.66666907233162
100
AcDbArc
 50
60.0
 51
210.0
  0
ARC
  5
21B
330
1F
100
AcDbEntity
  8
0-0
  6
Continuous
 62
     2
370
     9
100
AcDbCircle
 10
1390.032299144848
 20
-89.27930677259269
 30
0.0
 40
13.33333350516654
100
AcDbArc
 50
270.0
 51
30.00033569335939
  0
ARC
  5
21C
330
1F
100
AcDbEntity
  8
0-0
  6
Continuous
 62
     2
370
     9
100
AcDbCircle
 10
1458.33360826647
 20
367.466273952175
 30
0.0
 40
13.33333350516654
100
AcDbArc
 50
0.0
 51
128.7255401611328
  0
ARC
  5
21D
330
1F
100
AcDbEntity
  8
0-0
  6
Continuous
 62
     2
370
     9
100
AcDbCircle
 10
900.0
 20
469.0540540540542
 30
0.0
 40
557.4999835040119
100
AcDbArc
 50
325.3201446533203
 51
349.6879425048828
  0
ARC
  5
21E
330
1F
100
AcDbEntity
  8
0-0
  6
Continuous
 62
     2
370
     9
100
AcDbCircle
 10
1458.33360826647
 20
367.466273952175
 30
0.0
 40
10.00000012887491
100
AcDbArc
 50
0.0
 51
169.6876220703125
  0
ARC
  5
21F
330
1F
100
AcDbEntity
  8
0-0
  6
Continuous
 62
     2
370
     9
100
AcDbCircle
 10
900.0
 20
469.0540540540542
 30
0.0
 40
557.4999835040119
100
AcDbArc
 50
260.5863037109375
 51
279.4136962890625
  0
ARC
  5
220
330
1F
100
AcDbEntity
  8
0-0
  6
Continuous
 62
     2
370
     9
100
AcDbCircle
 10
900.0
 20
469.0540540540542
 30
0.0
 40
557.4999835040119
100
AcDbArc
 50
280.3120574951172
 51
304.6798553466797
  0
ARC
  5
221
330
1F
100
AcDbEntity
  8
0-0
  6
Continuous
 62
     2
370
     9
100
AcDbCircle
 10
1001.587903821791
 20
-89.27930677259269
 30
0.0
 40
10.00000012887491
100
AcDbArc
 50
100.3118286132812
 51
270.0
  0
ARC
  5
222
330
1F
100
AcDbEntity
  8
0-0
  6
Continuous
 62
     2
370
     9
100
AcDbCircle
 10
1001.587903821791
 20
-89.27930677259269
 30
0.0
 40
13.33333350516654
100
AcDbArc
 50
141.2747344970703
 51
270.0
  0
ARC
  5
223
330
1F
100
AcDbEntity
  8
0-0
  6
Continuous
 62
     2
370
     9
100
AcDbCircle
 10
577.0979597761828
 20
2.373640730574493
 30
0.0
 40
10.00000012887491
100
AcDbArc
 50
55.31993103027344
 51
135.0006713867188
  0
ARC
  5
224
330
1F
100
AcDbEntity
  8
0-0
  6
Continuous
 62
     2
370
     9
100
AcDbCircle
 10
547.3195668813344
 20
24.44997426625861
 30
0.0
 40
10.00000012887491
100
AcDbArc
 50
315.0006713867188
 51
51.57649230957031
  0
ARC
  5
225
330
1F
100
AcDbEntity
  8
0-0
  6
Continuous
 62
     2
370
     9
100
AcDbCircle
 10
555.5756440033787
 20
23.27785182643595
 30
0.0
 40
6.666666752583272
100
AcDbArc
 50
315.0000000000001
 51
52.30851745605474
  0
ARC
  5
226
330
1F
100
AcDbEntity
  8
0-0
  6
Continuous
 62
     2
370
     9
100
AcDbCircle
 10
574.5433910472974
 20
9.247147843644541
 30
0.0
 40
6.666666752583272
100
AcDbArc
 50
54.70866394042969
 51
135.0
  0
ARC
  5
227
330
1F
100
AcDbEntity
  8
0-0
  6
Continuous
 62
     2
370
     9
100
AcDbCircle
 10
900.0
 20
469.0540540540542
 30
0.0
 40
556.6666680413324
100
AcDbArc
 50
232.3089141845703
 51
234.7086944580078
  0
ARC
  5
228
330
1F
100
AcDbEntity
  8
0-0
  6
Continuous
 62
     2
370
     9
100
AcDbCircle
 10
485.4447648331927
 20
-89.27930677259269
 30
0.0
 40
10.00000012887491
100
AcDbArc
 50
135.0006713867188
 51
270.0
  0
ARC
  5
229
330
1F
100
AcDbEntity
  8
0-0
  6
Continuous
 62
     2
370
     9
100
AcDbCircle
 10
433.5902858424834
 20
-89.27930677259269
 30
0.0
 40
10.00000012887491
100
AcDbArc
 50
270.0
 51
314.9993286132812
  0
ARC
  5
22A
330
1F
100
AcDbEntity
  8
0-0
  6
Continuous
 62
     2
370
     9
100
AcDbCircle
 10
433.5907807221284
 20
-89.27930677259269
 30
0.0
 40
13.33333350516654
100
AcDbArc
 50
270.0
 51
315.0
  0
ARC
  5
22B
330
1F
100
AcDbEntity
  8
0-0
  6
Continuous
 62
     2
370
     9
100
AcDbCircle
 10
485.4447648331927
 20
-89.27930677259269
 30
0.0
 40
13.33333350516654
100
AcDbArc
 50
135.0
 51
270.0
  0
ARC
  5
22C
330
1F
100
AcDbEntity
  8
0-0
  6
Continuous
 62
     2
370
     9
100
AcDbCircle
 10
409.9677008551521
 20
-89.27930677259269
 30
0.0
 40
10.00000012887491
100
AcDbArc
 50
149.9999542236328
 51
270.0
  0
ARC
  5
22D
330
1F
100
AcDbEntity
  8
0-0
  6
Continuous
 62
     2
370
     9
100
AcDbCircle
 10
409.9677008551521
 20
-89.27930677259269
 30
0.0
 40
13.33333350516654
100
AcDbArc
 50
149.9996643066406
 51
270.0
  0
ARC
  5
22E
330
1F
100
AcDbEntity
  8
0-0
  6
Continuous
 62
     2
370
     9
100
AcDbCircle
 10
366.666721653294
 20
-64.27922429265209
 30
0.0
 40
40.00000051549964
100
AcDbArc
 50
329.9998931884766
 51
23.29945373535161
  0
ARC
  5
22F
330
1F
100
AcDbEntity
  8
0-0
  6
Continuous
 62
     2
370
     9
100
AcDbCircle
 10
412.5890783361487
 20
-44.50247274862733
 30
0.0
 40
10.00000012887491
100
AcDbArc
 50
133.8081970214844
 51
203.2992401123047
  0
ARC
  5
230
330
1F
100
AcDbEntity
  8
0-0
  6
Continuous
 62
     2
370
     9
100
AcDbCircle
 10
514.1448149809969
 20
52.9144617029138
 30
0.0
 40
10.00000012887491
100
AcDbArc
 50
47.16239929199219
 51
133.8088836669922
  0
ARC
  5
231
330
1F
100
AcDbEntity
  8
0-0
  6
Continuous
 62
     2
370
     9
100
AcDbCircle
 10
900.0
 20
469.0540540540542
 30
0.0
 40
557.4999835040119
100
AcDbArc
 50
227.1625518798828
 51
231.5769500732422
  0
ARC
  5
232
330
1F
100
AcDbEntity
  8
0-0
  6
Continuous
 62
     2
370
     9
100
AcDbCircle
 10
511.1770217483109
 20
63.73178842905418
 30
0.0
 40
6.666666752583272
100
AcDbArc
 50
46.1904296875
 51
135.0
  0
ARC
  5
233
330
1F
100
AcDbEntity
  8
0-0
  6
Continuous
 62
     2
370
     9
100
AcDbCircle
 10
404.4260385874156
 20
-43.01882357210729
 30
0.0
 40
6.666666752583272
100
AcDbArc
 50
135.0
 51
209.3820343017578
  0
ARC
  5
234
330
1F
100
AcDbEntity
  8
0-0
  6
Continuous
 62
     2
370
     9
100
AcDbCircle
 10
483.8604076488599
 20
83.19899275496198
 30
0.0
 40
10.00000012887491
100
AcDbArc
 50
316.1911163330078
 51
42.83753967285156
  0
ARC
  5
235
330
1F
100
AcDbEntity
  8
0-0
  6
Continuous
 62
     2
370
     9
100
AcDbCircle
 10
494.677734375
 20
80.23095208245365
 30
0.0
 40
6.666666752583272
100
AcDbArc
 50
315.0000000000001
 51
43.80957031250006
  0
ARC
  5
236
330
1F
100
AcDbEntity
  8
0-0
  6
Continuous
 62
     2
370
     9
100
AcDbCircle
 10
900.0
 20
469.0540540540542
 30
0.0
 40
555.0000371159734
100
AcDbArc
 50
223.8097991943359
 51
226.1902008056641
  0
ARC
  5
237
330
1F
100
AcDbEntity
  8
0-0
  6
Continuous
 62
     2
370
     9
100
AcDbCircle
 10
386.44359691723
 20
-18.35674388988593
 30
0.0
 40
10.00000012887491
100
AcDbArc
 50
246.7003936767578
 51
316.1918029785156
  0
ARC
  5
238
330
1F
100
AcDbEntity
  8
0-0
  6
Continuous
 62
     2
370
     9
100
AcDbCircle
 10
387.92724609375
 20
-26.519783638619
 30
0.0
 40
6.666666752583272
100
AcDbArc
 50
240.6185913085937
 51
315.0
  0
ARC
  5
239
330
1F
100
AcDbEntity
  8
0-0
  6
Continuous
 62
     2
370
     9
100
AcDbCircle
 10
433.3195866765203
 20
146.1518901103253
 30
0.0
 40
10.00000012887491
100
AcDbArc
 50
314.9993286132812
 51
34.68006896972658
  0
ARC
  5
23A
330
1F
100
AcDbEntity
  8
0-0
  6
Continuous
 62
     2
370
     9
100
AcDbCircle
 10
455.3959202122044
 20
116.3737446553
 30
0.0
 40
10.00000012887491
100
AcDbArc
 50
38.42350769042969
 51
134.9993286132812
  0
ARC
  5
23B
330
1F
100
AcDbEntity
  8
0-0
  6
Continuous
 62
     2
370
     9
100
AcDbCircle
 10
454.2237977723818
 20
124.6296980574326
 30
0.0
 40
6.666666752583272
100
AcDbArc
 50
37.69148254394531
 51
135.0
  0
ARC
  5
23C
330
1F
100
AcDbEntity
  8
0-0
  6
Continuous
 62
     2
370
     9
100
AcDbCircle
 10
440.1929700696792
 20
143.5973213814401
 30
0.0
 40
6.666666752583272
100
AcDbArc
 50
315.0000000000001
 51
35.29133605957038
  0
ARC
  5
23D
330
1F
100
AcDbEntity
  8
0-0
  6
Continuous
 62
     2
370
     9
100
AcDbCircle
 10
900.0
 20
469.0540540540542
 30
0.0
 40
556.6666680413324
100
AcDbArc
 50
215.2913055419922
 51
217.6910858154297
  0
ARC
  5
23E
330
1F
100
AcDbEntity
  8
0-0
  6
Continuous
 62
     2
370
     9
100
AcDbCircle
 10
341.6666391733531
 20
54.49894260715809
 30
0.0
 40
10.00000012887491
100
AcDbArc
 50
180.0
 51
314.9993286132812
  0
ARC
  5
23F
330
1F
100
AcDbEntity
  8
0-0
  6
Continuous
 62
     2
370
     9
100
AcDbCircle
 10
341.6666391733531
 20
2.644463616448434
 30
0.0
 40
10.00000012887491
100
AcDbArc
 50
135.0006713867188
 51
180.0
  0
ARC
  5
240
330
1F
100
AcDbEntity
  8
0-0
  6
Continuous
 62
     2
370
     9
100
AcDbCircle
 10
341.6666391733531
 20
2.644711056271092
 30
0.0
 40
13.33333350516654
100
AcDbArc
 50
135.0
 51
180.0
  0
ARC
  5
241
330
1F
100
AcDbEntity
  8
0-0
  6
Continuous
 62
     2
370
     9
100
AcDbCircle
 10
341.6666391733531
 20
54.49881888724661
 30
0.0
 40
13.33333350516654
100
AcDbArc
 50
180.0
 51
315.0
  0
ARC
  5
242
330
1F
100
AcDbEntity
  8
0-0
  6
Continuous
 62
     2
370
     9
100
AcDbCircle
 10
900.0
 20
469.0540540540542
 30
0.0
 40
557.4999835040119
100
AcDbArc
 50
218.4230499267578
 51
222.8374481201172
  0
ARC
  5
243
330
1F
100
AcDbEntity
  8
0-0
  6
Continuous
 62
     2
370
     9
100
AcDbCircle
 10
341.6666391733531
 20
-20.97812137088255
 30
0.0
 40
10.00000012887491
100
AcDbArc
 50
180.0
 51
300.0000457763672
  0
ARC
  5
244
330
1F
100
AcDbEntity
  8
0-0
  6
Continuous
 62
     2
370
     9
100
AcDbCircle
 10
366.6664742134714
 20
-64.27922429265209
 30
0.0
 40
40.00000051549964
100
AcDbArc
 50
66.700439453125
 51
120.0001220703125
  0
ARC
  5
245
330
1F
100
AcDbEntity
  8
0-0
  6
Continuous
 62
     2
370
     9
100
AcDbCircle
 10
366.666721653294
 20
-64.27922429265209
 30
0.0
 40
36.66666907233162
100
AcDbArc
 50
330.0
 51
120.0
  0
ARC
  5
246
330
1F
100
AcDbEntity
  8
0-0
  6
Continuous
 62
     2
370
     9
100
AcDbCircle
 10
341.6666391733531
 20
-20.97812137088255
 30
0.0
 40
13.33333350516654
100
AcDbArc
 50
180.0
 51
300.0003356933594
  0
ARC
  5
247
330
1F
100
AcDbEntity
  8
0-0
  6
Continuous
 62
     2
370
     9
100
AcDbCircle
 10
798.4120961782094
 20
-89.27930677259269
 30
0.0
 40
13.33333350516654
100
AcDbArc
 50
270.0
 51
38.72554016113281
  0
ARC
  5
248
330
1F
100
AcDbEntity
  8
0-0
  6
Continuous
 62
     2
370
     9
100
AcDbCircle
 10
900.0
 20
469.0540540540542
 30
0.0
 40
557.4999835040119
100
AcDbArc
 50
235.3201446533203
 51
259.6879425048829
  0
ARC
  5
249
330
1F
100
AcDbEntity
  8
0-0
  6
Continuous
 62
     2
370
     9
100
AcDbCircle
 10
798.4120961782094
 20
-89.27930677259269
 30
0.0
 40
10.00000012887491
100
AcDbArc
 50
270.0
 51
79.68762207031251
  0
ARC
  5
24A
330
1F
100
AcDbEntity
  8
0-0
  6
Continuous
 62
     2
370
     9
100
AcDbCircle
 10
900.0
 20
469.0540540540542
 30
0.0
 40
557.4999835040119
100
AcDbArc
 50
190.3120574951171
 51
214.6798553466797
  0
ARC
  5
24B
330
1F
100
AcDbEntity
  8
0-0
  6
Continuous
 62
     2
370
     9
100
AcDbCircle
 10
341.6666391733531
 20
367.466273952175
 30
0.0
 40
10.00000012887491
100
AcDbArc
 50
10.31182861328125
 51
180.0
  0
ARC
  5
24C
330
1F
100
AcDbEntity
  8
0-0
  6
Continuous
 62
     2
370
     9
100
AcDbCircle
 10
341.6666391733531
 20
367.466273952175
 30
0.0
 40
13.33333350516654
100
AcDbArc
 50
51.27473449707031
 51
180.0
  0
ARC
  5
24D
330
1F
100
AcDbEntity
  8
1-0
  6
Continuous
 62
     2
370
     9
100
AcDbCircle
 10
-1209.097867398649
 20
573.5808006492823
 30
0.0
 40
10.00000012887491
100
AcDbArc
 50
12.09498596191406
 51
90.0
  0
ARC
  5
24E
330
1F
100
AcDbEntity
  8
1-0
  6
Continuous
 62
     2
370
     9
100
AcDbCircle
 10
-1102.929481300148
 20
573.5808006492823
 30
0.0
 40
10.00000012887491
100
AcDbArc
 50
90.0
 51
167.9050140380859
  0
ARC
  5
24F
330
1F
100
AcDbEntity
  8
1-0
  6
Continuous
 62
     2
370
     9
100
AcDbCircle
 10
-453.7179070550042
 20
608.5809161211995
 30
0.0
 40
25.00000128874908
100
AcDbArc
 50
269.9999237060547
 51
356.4999694824219
  0
ARC
  5
250
330
1F
100
AcDbEntity
  8
1-0
  6
Continuous
 62
     2
370
     9
100
AcDbCircle
 10
-493.9990069415117
 20
608.5809161211995
 30
0.0
 40
25.00000128874908
100
AcDbArc
 50
183.5000457763672
 51
270.0
  0
ARC
  5
251
330
1F
100
AcDbEntity
  8
1-0
  6
Continuous
 62
     2
370
     9
100
AcDbCircle
 10
-1271.677130621833
 20
578.5808171452703
 30
0.0
 40
5.000000064437454
100
AcDbArc
 50
90.0
 51
171.8693237304688
  0
ARC
  5
252
330
1F
100
AcDbEntity
  8
1-0
  6
Continuous
 62
     2
370
     9
100
AcDbCircle
 10
-418.3101344752956
 20
696.0808336412586
 30
0.0
 40
5.000000064437454
100
AcDbArc
 50
90.0
 51
176.5003814697266
  0
ARC
  5
253
330
1F
100
AcDbEntity
  8
1-0
  6
Continuous
 62
     2
370
     9
100
AcDbCircle
 10
-407.6965744430953
 20
696.0808336412586
 30
0.0
 40
5.000000064437454
100
AcDbArc
 50
3.751327514648438
 51
90.0
  0
ARC
  5
254
330
1F
100
AcDbEntity
  8
1-0
  6
Continuous
 62
     2
370
     9
100
AcDbCircle
 10
-550.7433917071367
 20
791.0808996252113
 30
0.0
 40
5.000000064437454
100
AcDbArc
 50
90.0
 51
177.3049774169922
  0
ARC
  5
255
330
1F
100
AcDbEntity
  8
1-0
  6
Continuous
 62
     2
370
     9
100
AcDbCircle
 10
-535.2171614363385
 20
791.0808996252113
 30
0.0
 40
5.000000064437454
100
AcDbArc
 50
3.499618530273438
 51
90.00000000000001
  0
ARC
  5
256
330
1F
100
AcDbEntity
  8
1-8
  6
Continuous
 62
     6
370
     5
100
AcDbCircle
 10
-458.5725526551943
 20
763.073433540963
 30
0.0
 40
73.11712213464686
100
AcDbArc
 50
200.8458404541016
 51
344.7991027832032
  0
ARC
  5
257
330
1F
100
AcDbEntity
  8
1-8
  6
Continuous
 62
     6
370
     5
100
AcDbCircle
 10
-473.0575561523438
 20
880.1181607633026
 30
0.0
 40
104.5278368769465
100
AcDbArc
 50
35.55072021484375
 51
233.5108795166016
  0
ELLIPSE
  5
258
330
1F
100
AcDbEntity
  8
1-8
  6
Continuous
 62
     6
370
     5
100
AcDbEllipse
 10
-467.8665161132812
 20
832.8861050992401
 30
0.0
 11
-8.929412556406671
 21
50.6412150910152
 31
0.0
210
0.0
220
0.0
230
1.0
 40
0.189
 41
0.0
 42
6.283185307179586
  0
CIRCLE
  5
259
330
1F
100
AcDbEntity
  8
0-1
  6
Continuous
 62
     2
370
     9
100
AcDbCircle
 10
366.666721653294
 20
1002.38733240076
 30
0.0
 40
10.00000012887491
  0
CIRCLE
  5
25A
330
1F
100
AcDbEntity
  8
0-1
  6
Continuous
 62
     2
370
     9
100
AcDbCircle
 10
366.6897335567992
 20
1002.364320497255
 30
0.0
 40
15.83336205095858
  0
CIRCLE
  5
25B
330
1F
100
AcDbEntity
  8
0-1
  6
Continuous
 62
     2
370
     9
100
AcDbCircle
 10
366.666721653294
 20
1002.38733240076
 30
0.0
 40
8.421666557724413
  0
CIRCLE
  5
25C
330
1F
100
AcDbEntity
  8
0-1
  6
Continuous
 62
     2
370
     9
100
AcDbCircle
 10
1433.333278346706
 20
1002.38733240076
 30
0.0
 40
10.00000012887491
  0
CIRCLE
  5
25D
330
1F
100
AcDbEntity
  8
0-1
  6
Continuous
 62
     2
370
     9
100
AcDbCircle
 10
1433.310266443201
 20
1002.364320497255
 30
0.0
 40
15.83336205095858
  0
CIRCLE
  5
25E
330
1F
100
AcDbEntity
  8
0-1
  6
Continuous
 62
     2
370
     9
100
AcDbCircle
 10
1433.333278346706
 20
1002.38733240076
 30
0.0
 40
8.421666557724413
  0
CIRCLE
  5
25F
330
1F
100
AcDbEntity
  8
0-1
  6
Continuous
 62
     2
370
     9
100
AcDbCircle
 10
1433.333278346706
 20
-64.27922429265209
 30
0.0
 40
10.00000012887491
  0
CIRCLE
  5
260
330
1F
100
AcDbEntity
  8
0-1
  6
Continuous
 62
     2
370
     9
100
AcDbCircle
 10
1433.310266443201
 20
-64.25621238914687
 30
0.0
 40
15.83336205095858
  0
CIRCLE
  5
261
330
1F
100
AcDbEntity
  8
0-1
  6
Continuous
 62
     2
370
     9
100
AcDbCircle
 10
1433.333278346706
 20
-64.27922429265209
 30
0.0
 40
8.421666557724413
  0
CIRCLE
  5
262
330
1F
100
AcDbEntity
  8
0-1
  6
Continuous
 62
     2
370
     9
100
AcDbCircle
 10
366.666721653294
 20
-64.27922429265209
 30
0.0
 40
10.00000012887491
  0
CIRCLE
  5
263
330
1F
100
AcDbEntity
  8
0-1
  6
Continuous
 62
     2
370
     9
100
AcDbCircle
 10
366.6897335567992
 20
-64.25621238914687
 30
0.0
 40
15.83336205095858
  0
CIRCLE
  5
264
330
1F
100
AcDbEntity
  8
0-1
  6
Continuous
 62
     2
370
     9
100
AcDbCircle
 10
366.666721653294
 20
-64.27922429265209
 30
0.0
 40
8.421666557724413
  0
CIRCLE
  5
265
330
1F
100
AcDbEntity
  8
0-3
  6
Continuous
 62
     4
370
     9
100
AcDbCircle
 10
900.0
 20
469.0540540540542
 30
0.0
 40
498.3333484546558
  0
CIRCLE
  5
266
330
1F
100
AcDbEntity
  8
0-3
  6
Continuous
 62
     4
370
     9
100
AcDbCircle
 10
900.0
 20
469.0540540540542
 30
0.0
 40
483.333360826647
  0
TEXT
  5
267
330
1F
100
AcDbEntity
  8
1-4
  6
Continuous
 62
     7
370
     0
100
AcDbText
 10
-1536.707928631757
 20
928.9637877428211
 30
0.0
 40
22.86
  1
ボルト：ＳＳ４００
 41
1.148148148148148
  7
ＭＳ ゴシック
100
AcDbText
  0
TEXT
  5
268
330
1F
100
AcDbEntity
  8
1-4
  6
Continuous
 62
     7
370
     0
100
AcDbText
 10
-921.683263005437
 20
1048.77662426098
 30
0.0
 40
22.86
  1
養生材：ポリエチレン
 41
1.15
  7
ＭＳ ゴシック
100
AcDbText
  0
TEXT
  5
269
330
1F
100
AcDbEntity
  8
0-4
  6
Continuous
 62
     2
370
     0
100
AcDbText
 10
699.9998762800888
 20
-468.1635129856418
 30
0.0
 40
30.48
  1
平面図　Ｓ＝１：６
 41
1.111111111111111
  7
ＭＳ ゴシック
100
AcDbText
  0
TEXT
  5
26A
330
1F
100
AcDbEntity
  8
1-4
  6
Continuous
 62
     2
370
     0
100
AcDbText
 10
-260.8250839645797
 20
-98.27883643897785
 30
0.0
 40
30.48
  1
φ598
 41
1.1
  7
ＭＳ ゴシック
100
AcDbText
  0
TEXT
  5
26B
330
1F
100
AcDbEntity
  8
1-4
  6
Continuous
 62
     7
370
     0
100
AcDbText
 10
-774.3398965371621
 20
1170.925787584459
 30
0.0
 40
22.86
  1
スリーブ：ボイド管
 41
1.148148148148148
  7
ＭＳ ゴシック
100
AcDbText
  0
TEXT
  5
26C
330
1F
100
AcDbEntity
  8
1-4
  6
Continuous
 62
     7
370
     0
100
AcDbText
 10
-1508.765561902845
 20
881.6676451646961
 30
0.0
 40
22.86
  1
電気亜鉛めっき
 41
1.142857142857143
  7
ＭＳ ゴシック
100
AcDbText
  0
TEXT
  5
26D
330
1F
100
AcDbEntity
  8
1-4
  6
Continuous
 62
     2
370
     0
100
AcDbText
 10
110.8644887563347
 20
-1039.089581265836
 30
0.0
 40
30.48
  1
※この図面は、ＭＫＨ（Ｙ）－６００角枠にセットしたＭＳＶ－１を示します。
 41
1.121527777777778
  7
ＭＳ ゴシック
100
AcDbText
  0
TEXT
  5
26E
330
1F
100
AcDbEntity
  8
1-4
  6
Continuous
 62
     6
370
     0
100
AcDbText
 10
-1020.59077824773
 20
437.2719097075591
 30
0.0
 40
22.86
  1
平座金・・
 41
0.8866666666666665
  7
ＭＳ ゴシック
100
AcDbText
  0
TEXT
  5
26F
330
1F
100
AcDbEntity
  8
1-4
  6
Continuous
 62
     6
370
     0
100
AcDbText
 10
-1020.590798042916
 20
380.4076403478675
 30
0.0
 40
22.86
  1
六角ナット：ＳＳ４００，電気亜鉛めっき
 41
0.8964912280701754
  7
ＭＳ ゴシック
100
AcDbText
  0
TEXT
  5
270
330
1F
100
AcDbEntity
  8
1-4
  6
Continuous
 62
     6
370
     0
100
AcDbText
 10
-885.5908227868981
 20
437.2719097075591
 30
0.0
 40
22.86
  1
：ＳＳ４００，電気亜鉛めっき
 41
0.8952380952380953
  7
ＭＳ ゴシック
100
AcDbText
  0
TEXT
  5
271
330
1F
100
AcDbEntity
  8
1-4
  6
Continuous
 62
     2
370
     0
100
AcDbText
 10
-1038.513480521537
 20
-211.6466078969594
 30
0.0
 40
30.48
  1
Ａ－Ａ'断面図　Ｓ＝１：２
 41
1.115
  7
ＭＳ ゴシック
100
AcDbText
  0
TEXT
  5
272
330
1F
100
AcDbEntity
  8
0-4
  6
Continuous
 62
     3
370
     0
100
AcDbText
 10
181.3872293213038
 20
1023.066008519989
 30
0.0
 40
38.1
  1
Ａ
 50
315.0
  7
ＭＳ ゴシック
100
AcDbText
  0
TEXT
  5
273
330
1F
100
AcDbEntity
  8
0-4
  6
Continuous
 62
     3
370
     0
100
AcDbText
 10
534.1596163334465
 20
670.2933740680239
 30
0.0
 40
38.1
  1
Ａ'
 50
315.0
 41
1.066666666666667
  7
ＭＳ ゴシック
100
AcDbText
  0
LWPOLYLINE
  5
274
330
1F
100
AcDbEntity
  8
1-4
  6
Continuous
 62
     7
370
     9
100
AcDbPolyline
 90
        4
 70
     1
 43
2.0
 10
-387.0136025918495
 20
-113.9188694309544
 42
0.4142135623731
 10
-388.0136025918495
 20
-112.9188694309544
 42
0.4142135623731
 10
-389.0136025918495
 20
-113.9188694309544
 42
0.4142135623731
 10
-388.0136025918495
 20
-114.9188694309544
 42
0.4142135623731
  0
LWPOLYLINE
  5
275
330
1F
100
AcDbEntity
  8
1-4
  6
Continuous
 62
     7
370
     9
100
AcDbPolyline
 90
        4
 70
     1
 43
2.0
 10
-242.0136190878378
 20
46.08103984111068
 42
0.4142135623731
 10
-243.0136190878378
 20
47.08103984111068
 42
0.4142135623731
 10
-244.0136190878378
 20
46.08103984111068
 42
0.4142135623731
 10
-243.0136190878378
 20
45.08103984111068
 42
0.4142135623731
  0
LWPOLYLINE
  5
276
330
1F
100
AcDbEntity
  8
1-4
  6
Continuous
 62
     7
370
     9
100
AcDbPolyline
 90
        4
 70
     1
 43
2.0
 10
-242.0136190878378
 20
1046.08099860114
 42
0.4142135623731
 10
-243.0136190878378
 20
1047.08099860114
 42
0.4142135623731
 10
-244.0136190878378
 20
1046.08099860114
 42
0.4142135623731
 10
-243.0136190878378
 20
1045.08099860114
 42
0.4142135623731
  0
LWPOLYLINE
  5
277
330
1F
100
AcDbEntity
  8
1-4
  6
Continuous
 62
     7
370
     9
100
AcDbPolyline
 90
        4
 70
     1
 43
2.0
 10
-1505.013530009502
 20
46.08103984111068
 42
0.4142135623731
 10
-1506.013530009502
 20
47.08103984111068
 42
0.4142135623731
 10
-1507.013530009501
 20
46.08103984111068
 42
0.4142135623731
 10
-1506.013530009502
 20
45.08103984111068
 42
0.4142135623731
  0
LWPOLYLINE
  5
278
330
1F
100
AcDbEntity
  8
1-4
  6
Continuous
 62
     7
370
     9
100
AcDbPolyline
 90
        4
 70
     1
 43
2.0
 10
-1505.013530009502
 20
696.0808336412586
 42
0.4142135623731
 10
-1506.013530009502
 20
697.0808336412586
 42
0.4142135623731
 10
-1507.013530009501
 20
696.0808336412586
 42
0.4142135623731
 10
-1506.013530009502
 20
695.0808336412587
 42
0.4142135623731
  0
LWPOLYLINE
  5
279
330
1F
100
AcDbEntity
  8
1-4
  6
Continuous
 62
     7
370
     9
100
AcDbPolyline
 90
        4
 70
     1
 43
2.0
 10
-1605.013612489442
 20
46.08103984111068
 42
0.4142135623731
 10
-1606.013612489442
 20
47.08103984111068
 42
0.4142135623731
 10
-1607.013612489442
 20
46.08103984111068
 42
0.4142135623731
 10
-1606.013612489442
 20
45.08103984111068
 42
0.4142135623731
  0
LWPOLYLINE
  5
27A
330
1F
100
AcDbEntity
  8
1-4
  6
Continuous
 62
     7
370
     9
100
AcDbPolyline
 90
        4
 70
     1
 43
2.0
 10
-1605.013612489442
 20
796.0809161211995
 42
0.4142135623731
 10
-1606.013612489442
 20
797.0809161211994
 42
0.4142135623731
 10
-1607.013612489442
 20
796.0809161211995
 42
0.4142135623731
 10
-1606.013612489442
 20
795.0809161211996
 42
0.4142135623731
  0
TEXT
  5
27B
330
1F
100
AcDbEntity
  8
1-4
  6
Continuous
 62
     2
370
     0
100
AcDbText
 10
-1621.653614551441
 20
388.5809161211994
 30
0.0
 40
30.48
  1
200
 50
90.0
 41
1.083333333333333
  7
ＭＳ ゴシック
100
AcDbText
  0
TEXT
  5
27C
330
1F
100
AcDbEntity
  8
1-4
  6
Continuous
 62
     2
370
     0
100
AcDbText
 10
-258.653652079814
 20
513.5809573611699
 30
0.0
 40
30.48
  1
250
 50
90.0
 41
1.083333333333333
  7
ＭＳ ゴシック
100
AcDbText
  0
TEXT
  5
27D
330
1F
100
AcDbEntity
  8
1-4
  6
Continuous
 62
     2
370
     0
100
AcDbText
 10
-1521.653501141522
 20
338.5808748812291
 30
0.0
 40
30.48
  1
180
 50
90.0
 41
1.083333333333333
  7
ＭＳ ゴシック
100
AcDbText
  0
TEXT
  5
27E
330
1F
100
AcDbEntity
  8
1-5
  6
Continuous
 62
     6
370
     0
100
AcDbText
 10
-820.2908591644612
 20
-1359.17972587186
 30
0.0
 40
30.48
  1
打込型マンホール鉄蓋　サポートＶ　　ＭＳＶ－１－６００　Ｃ＝２００
 41
0.8992424242424241
  7
ＭＳ ゴシック
100
AcDbText
  0
LINE
  5
27F
330
1F
100
AcDbEntity
  8
1-8
  6
Continuous
 62
     3
370
     9
100
AcDbLine
 10
-1253.513686721389
 20
59.08090952280418
 30
0.0
 11
-1253.513686721389
 21
54.08114046663854
 31
0.0
  0
LINE
  5
280
330
1F
100
AcDbEntity
  8
1-8
  6
Continuous
 62
     3
370
     9
100
AcDbLine
 10
-1228.513604241448
 20
59.08090952280418
 30
0.0
 11
-1253.513686721389
 21
59.08090952280418
 31
0.0
  0
LINE
  5
281
330
1F
100
AcDbEntity
  8
1-8
  6
Continuous
 62
     3
370
     9
100
AcDbLine
 10
-1228.513604241448
 20
59.08090952280418
 30
0.0
 11
-1228.513604241448
 21
54.08114046663854
 31
0.0
  0
LINE
  5
282
330
1F
100
AcDbEntity
  8
1-8
  6
Continuous
 62
     3
370
     9
100
AcDbLine
 10
-1058.513661977407
 20
59.08090952280418
 30
0.0
 11
-1058.513661977407
 21
54.08114046663854
 31
0.0
  0
LINE
  5
283
330
1F
100
AcDbEntity
  8
1-8
  6
Continuous
 62
     3
370
     9
100
AcDbLine
 10
-1083.513744457348
 20
59.08090952280418
 30
0.0
 11
-1058.513661977407
 21
59.08090952280418
 31
0.0
  0
LINE
  5
284
330
1F
100
AcDbEntity
  8
1-8
  6
Continuous
 62
     3
370
     9
100
AcDbLine
 10
-1083.513744457348
 20
59.08090952280418
 30
0.0
 11
-1083.513744457348
 21
54.08114046663854
 31
0.0
  0
LINE
  5
285
330
1F
100
AcDbEntity
  8
1-8
  6
JWW_DASHED1
 62
     3
370
     9
100
AcDbLine
 10
-1076.013472273543
 20
-70.91927193306589
 30
0.0
 11
-1076.013472273543
 21
54.08114046663854
 31
0.0
  0
LINE
  5
286
330
1F
100
AcDbEntity
  8
1-8
  6
JWW_DASHED1
 62
     3
370
     9
100
AcDbLine
 10
-1066.013563001478
 20
-70.91927193306589
 30
0.0
 11
-1066.013563001478
 21
54.08114046663854
 31
0.0
  0
LINE
  5
287
330
1F
100
AcDbEntity
  8
1-8
  6
JWW_DASHED1
 62
     3
370
     9
100
AcDbLine
 10
-1066.013563001478
 20
-70.91927193306589
 30
0.0
 11
-1071.013579497466
 21
-95.91910697318411
 31
0.0
  0
LINE
  5
288
330
1F
100
AcDbEntity
  8
1-8
  6
JWW_DASHED1
 62
     3
370
     9
100
AcDbLine
 10
-1076.013472273543
 20
-70.91927193306589
 30
0.0
 11
-1071.013579497466
 21
-95.91910697318411
 31
0.0
  0
LINE
  5
289
330
1F
100
AcDbEntity
  8
1-8
  6
JWW_DASHED1
 62
     3
370
     9
100
AcDbLine
 10
-1236.013752705342
 20
-70.91927193306589
 30
0.0
 11
-1236.013752705342
 21
54.08114046663854
 31
0.0
  0
LINE
  5
28A
330
1F
100
AcDbEntity
  8
1-8
  6
JWW_DASHED1
 62
     3
370
     9
100
AcDbLine
 10
-1246.013661977407
 20
-70.91927193306589
 30
0.0
 11
-1246.013661977407
 21
54.08114046663854
 31
0.0
  0
LINE
  5
28B
330
1F
100
AcDbEntity
  8
1-8
  6
JWW_DASHED1
 62
     3
370
     9
100
AcDbLine
 10
-1246.013661977407
 20
-70.91927193306589
 30
0.0
 11
-1241.013645481419
 21
-95.91910697318411
 31
0.0
  0
LINE
  5
28C
330
1F
100
AcDbEntity
  8
1-8
  6
JWW_DASHED1
 62
     3
370
     9
100
AcDbLine
 10
-1236.013752705342
 20
-70.91927193306589
 30
0.0
 11
-1241.013645481419
 21
-95.91910697318411
 31
0.0
  0
LINE
  5
28D
330
1F
100
AcDbEntity
  8
1-A
  6
Continuous
 62
     2
370
     9
100
AcDbLine
 10
-1193.262351187337
 20
65.40985871601464
 30
0.0
 11
-1201.013753427865
 21
59.08101713691337
 31
0.0
  0
LINE
  5
28E
330
1F
100
AcDbEntity
  8
1-A
  6
Continuous
 62
     2
370
     9
100
AcDbLine
 10
-1193.262351187337
 20
65.40985871601464
 30
0.0
 11
-1186.541365214446
 21
65.40985871601464
 31
0.0
  0
LINE
  5
28F
330
1F
100
AcDbEntity
  8
1-A
  6
Continuous
 62
     2
370
     9
100
AcDbLine
 10
-1186.541365214446
 20
65.40985871601464
 30
0.0
 11
-1186.541365214446
 21
54.08096116717616
 31
0.0
  0
LINE
  5
290
330
1F
100
AcDbEntity
  8
1-A
  6
Continuous
 62
     2
370
     9
100
AcDbLine
 10
-1201.013753427865
 20
59.08101713691337
 30
0.0
 11
-1201.013750056117
 21
54.08100837164653
 31
0.0
  0
LINE
  5
291
330
1F
100
AcDbEntity
  8
1-A
  6
Continuous
 62
     2
370
     9
100
AcDbLine
 10
-1198.513612489442
 20
94.08096250757055
 30
0.0
 11
-1198.513612489442
 21
61.12231039321969
 31
0.0
  0
LINE
  5
292
330
1F
100
AcDbEntity
  8
1-A
  6
Continuous
 62
     2
370
     9
100
AcDbLine
 10
-1118.764838388195
 20
65.40990086286314
 30
0.0
 11
-1111.013429404171
 21
59.0809783618127
 31
0.0
  0
LINE
  5
293
330
1F
100
AcDbEntity
  8
1-A
  6
Continuous
 62
     2
370
     9
100
AcDbLine
 10
-1118.764838388195
 20
65.40990086286314
 30
0.0
 11
-1125.485815931716
 21
65.40990592048502
 31
0.0
  0
LINE
  5
294
330
1F
100
AcDbEntity
  8
1-A
  6
Continuous
 62
     2
370
     9
100
AcDbLine
 10
-1125.485815931716
 20
65.40990592048502
 30
0.0
 11
-1125.485815931716
 21
54.08100837164653
 31
0.0
  0
LINE
  5
295
330
1F
100
AcDbEntity
  8
1-A
  6
Continuous
 62
     2
370
     9
100
AcDbLine
 10
-1111.013429404171
 20
59.0809783618127
 30
0.0
 11
-1111.013431090045
 21
54.08096116717616
 31
0.0
  0
LINE
  5
296
330
1F
100
AcDbEntity
  8
1-A
  6
Continuous
 62
     2
370
     9
100
AcDbLine
 10
-1113.513612489442
 20
94.08087821387355
 30
0.0
 11
-1113.513566970846
 21
61.12235591181616
 31
0.0
  0
LINE
  5
297
330
1F
100
AcDbEntity
  8
1-A
  6
Continuous
 62
     2
370
     9
100
AcDbLine
 10
-1198.513612489442
 20
94.08096250757055
 30
0.0
 11
-1113.513612489442
 21
94.08087821387355
 31
0.0
  0
LINE
  5
298
330
1F
100
AcDbEntity
  8
1-0
  6
Continuous
 62
     4
370
     9
100
AcDbLine
 10
-1261.01361615266
 20
46.08103984111068
 30
0.0
 11
-1051.013616152668
 21
46.08092969773679
 31
0.0
  0
LINE
  5
299
330
1F
100
AcDbEntity
  8
1-0
  6
Continuous
 62
     4
370
     9
100
AcDbLine
 10
-1261.013615588138
 20
54.08103984111136
 30
0.0
 11
-1261.01361615266
 21
46.08103984111068
 31
0.0
  0
LINE
  5
29A
330
1F
100
AcDbEntity
  8
1-0
  6
Continuous
 62
     4
370
     9
100
AcDbLine
 10
-1261.013615588138
 20
54.08103984111136
 30
0.0
 11
-1051.013615588146
 21
54.08092969773762
 31
0.0
  0
LINE
  5
29B
330
1F
100
AcDbEntity
  8
1-0
  6
Continuous
 62
     4
370
     9
100
AcDbLine
 10
-1051.013615588146
 20
54.08092969773762
 30
0.0
 11
-1051.013616152668
 21
46.08092969773679
 31
0.0
  0
LINE
  5
29C
330
1F
100
AcDbEntity
  8
1-0
  6
JWW_CENTER1
 62
     4
370
     9
100
AcDbLine
 10
-1241.013612489442
 20
39.89222453026926
 30
0.0
 11
-1241.013612489442
 21
62.74065117183312
 31
0.0
  0
LINE
  5
29D
330
1F
100
AcDbEntity
  8
1-0
  6
Continuous
 62
     4
370
     9
100
AcDbLine
 10
-1231.013612489442
 20
46.08102410634103
 30
0.0
 11
-1231.013612489442
 21
54.081024106342
 31
0.0
  0
LINE
  5
29E
330
1F
100
AcDbEntity
  8
1-0
  6
Continuous
 62
     4
370
     9
100
AcDbLine
 10
-1251.013612489442
 20
46.08103459618604
 30
0.0
 11
-1251.013612489442
 21
54.08103459618729
 31
0.0
  0
LINE
  5
29F
330
1F
100
AcDbEntity
  8
1-0
  6
JWW_CENTER1
 62
     4
370
     9
100
AcDbLine
 10
-1071.01361919324
 20
39.89221253417639
 30
0.0
 11
-1071.01361919324
 21
62.7406391757404
 31
0.0
  0
LINE
  5
2A0
330
1F
100
AcDbEntity
  8
1-0
  6
Continuous
 62
     4
370
     9
100
AcDbLine
 10
-1081.01361919324
 20
46.08101211024817
 30
0.0
 11
-1081.01361919324
 21
54.08101211024928
 31
0.0
  0
LINE
  5
2A1
330
1F
100
AcDbEntity
  8
1-0
  6
Continuous
 62
     4
370
     9
100
AcDbLine
 10
-1061.01361919324
 20
46.08102260009332
 30
0.0
 11
-1061.01361919324
 21
54.08102260009429
 31
0.0
  0
LINE
  5
2A2
330
1F
100
AcDbEntity
  8
1-0
  6
Continuous
 62
     4
370
     9
100
AcDbLine
 10
-1123.513615588143
 20
54.08096772342617
 30
0.0
 11
-1123.513616152665
 21
46.08096772342535
 31
0.0
  0
LINE
  5
2A3
330
1F
100
AcDbEntity
  8
1-0
  6
Continuous
 62
     4
370
     9
100
AcDbLine
 10
-1188.513615588141
 20
54.08100181542281
 30
0.0
 11
-1188.513616152663
 21
46.08100181542198
 31
0.0
  0
LINE
  5
2A4
330
1F
100
AcDbEntity
  8
1-4
  6
Continuous
 62
     7
370
     9
100
AcDbLine
 10
-1122.013648780616
 20
94.08089060990733
 30
0.0
 11
-1112.446388038429
 21
117.17778969405
 31
0.0
  0
LINE
  5
2A5
330
1F
100
AcDbEntity
  8
1-4
  6
Continuous
 62
     7
370
     9
100
AcDbLine
 10
-1122.013648780616
 20
94.08089060990733
 30
0.0
 11
-1106.79461504962
 21
113.9146770330493
 31
0.0
  0
LINE
  5
2A6
330
1F
100
AcDbEntity
  8
1-4
  6
Continuous
 62
     7
370
     9
100
AcDbLine
 10
-1122.013648780616
 20
94.08089060990733
 30
0.0
 11
-1064.27851496516
 21
194.080849369937
 31
0.0
  0
TEXT
  5
2A7
330
1F
100
AcDbEntity
  8
1-4
  6
Continuous
 62
     6
370
     0
100
AcDbText
 10
-1054.14684728674
 20
209.0948954399326
 30
0.0
 40
22.86
  1
固定プレート：ＳＧＨＣ他
 41
0.8944444444444445
  7
ＭＳ ゴシック
100
AcDbText
  0
LINE
  5
2A8
330
1F
100
AcDbEntity
  8
1-4
  6
Continuous
 62
     7
370
     9
100
AcDbLine
 10
-1064.27851496516
 20
194.080849369937
 30
0.0
 11
-730.797174254317
 21
194.080849369937
 31
0.0
  0
LINE
  5
2A9
330
1F
100
AcDbEntity
  8
1-8
  6
Continuous
 62
     3
370
     9
100
AcDbLine
 10
-1186.013464025549
 20
316.4397286080026
 30
0.0
 11
-1186.013464025549
 21
94.08095011129141
 31
0.0
  0
LINE
  5
2AA
330
1F
100
AcDbEntity
  8
1-8
  6
Continuous
 62
     3
370
     9
100
AcDbLine
 10
-1181.013447529561
 20
317.7794915276607
 30
0.0
 11
-1181.013447529561
 21
94.0809451528223
 31
0.0
  0
LINE
  5
2AB
330
1F
100
AcDbEntity
  8
1-8
  6
Continuous
 62
     3
370
     9
100
AcDbLine
 10
-1131.013530009502
 20
331.1769970043287
 30
0.0
 11
-1131.013530009502
 21
94.0808955683764
 31
0.0
  0
LINE
  5
2AC
330
1F
100
AcDbEntity
  8
1-8
  6
Continuous
 62
     3
370
     9
100
AcDbLine
 10
-1126.013513513513
 20
332.5167599239865
 30
0.0
 11
-1126.013513513513
 21
94.08089060990733
 31
0.0
  0
LINE
  5
2AD
330
1F
100
AcDbEntity
  8
1-4
  6
Continuous
 62
     2
370
     9
100
AcDbLine
 10
-1506.013653729413
 20
-1025.069745038007
 30
0.0
 11
-1506.013653729413
 21
-960.0702729096283
 31
0.0
  0
LINE
  5
2AE
330
1F
100
AcDbEntity
  8
1-9
  6
JWW_CENTER1
 62
     2
370
     9
100
AcDbLine
 10
-1156.013612489442
 20
-526.1430977486275
 30
0.0
 11
-1156.013612489442
 21
-783.9974150786529
 31
0.0
  0
LINE
  5
2AF
330
1F
100
AcDbEntity
  8
1-9
  6
JWW_CENTER1
 62
     2
370
     9
100
AcDbLine
 10
-1284.940894874367
 20
-655.0702564136401
 30
0.0
 11
-1027.086330104519
 21
-655.0702564136401
 31
0.0
  0
LINE
  5
2B0
330
1F
100
AcDbEntity
  8
1-4
  6
Continuous
 62
     2
370
     9
100
AcDbLine
 10
-1506.013653729413
 20
-960.0702729096283
 30
0.0
 11
-806.0134475295606
 21
-960.0702729096283
 31
0.0
  0
LINE
  5
2B1
330
1F
100
AcDbEntity
  8
1-4
  6
Continuous
 62
     2
370
     9
100
AcDbLine
 10
-806.0134475295606
 20
-1025.069745038007
 30
0.0
 11
-806.0134475295606
 21
-960.0702729096283
 31
0.0
  0
LINE
  5
2B2
330
1F
100
AcDbEntity
  8
1-4
  6
Continuous
 62
     2
370
     9
100
AcDbLine
 10
-806.0134475295606
 20
-1025.069745038007
 30
0.0
 11
-1506.013653729413
 21
-1025.069745038007
 31
0.0
  0
LINE
  5
2B3
330
1F
100
AcDbEntity
  8
1-4
  6
Continuous
 62
     7
370
     9
100
AcDbLine
 10
-1261.01358774546
 20
-860.0703141495987
 30
0.0
 11
-1051.013637233425
 21
-860.0703141495987
 31
0.0
  0
LINE
  5
2B4
330
1F
100
AcDbEntity
  8
1-4
  6
Continuous
 62
     7
370
     9
100
AcDbLine
 10
-1261.01358774546
 20
-680.0702151736697
 30
0.0
 11
-1261.01358774546
 21
-863.0702745592271
 31
0.0
  0
LINE
  5
2B5
330
1F
100
AcDbEntity
  8
1-4
  6
Continuous
 62
     7
370
     9
100
AcDbLine
 10
-1051.013637233425
 20
-680.0702151736697
 30
0.0
 11
-1051.013637233425
 21
-863.0702745592271
 31
0.0
  0
LINE
  5
2B6
330
1F
100
AcDbEntity
  8
1-4
  6
Continuous
 62
     7
370
     9
100
AcDbLine
 10
-951.0136784733952
 20
-740.0702894056166
 30
0.0
 11
-951.0136784733952
 21
-570.0702234216637
 31
0.0
  0
LINE
  5
2B7
330
1F
100
AcDbEntity
  8
1-4
  6
Continuous
 62
     7
370
     9
100
AcDbLine
 10
-1131.013530009502
 20
-740.0702894056166
 30
0.0
 11
-948.0137180637668
 21
-740.0702894056166
 31
0.0
  0
LINE
  5
2B8
330
1F
100
AcDbEntity
  8
1-4
  6
Continuous
 62
     7
370
     9
100
AcDbLine
 10
-1131.013530009502
 20
-570.0702234216637
 30
0.0
 11
-948.0137180637668
 21
-570.0702234216637
 31
0.0
  0
LINE
  5
2B9
330
1F
100
AcDbEntity
  8
1-4
  6
Continuous
 62
     7
370
     9
100
AcDbLine
 10
-1151.013595993454
 20
-561.4099533493454
 30
0.0
 11
-1141.446582691089
 21
-538.3130542652026
 31
0.0
  0
LINE
  5
2BA
330
1F
100
AcDbEntity
  8
1-4
  6
Continuous
 62
     7
370
     9
100
AcDbLine
 10
-1151.013595993454
 20
-561.4099533493454
 30
0.0
 11
-1135.794562262458
 21
-541.5760432062922
 31
0.0
  0
LINE
  5
2BB
330
1F
100
AcDbEntity
  8
1-4
  6
Continuous
 62
     7
370
     9
100
AcDbLine
 10
-1151.013595993454
 20
-561.4099533493454
 30
0.0
 11
-1112.712385847762
 21
-495.0702234216638
 31
0.0
  0
LINE
  5
2BC
330
1F
100
AcDbEntity
  8
1-4
  6
Continuous
 62
     7
370
     9
100
AcDbLine
 10
-1112.712385847762
 20
-495.0702234216638
 30
0.0
 11
-955.5984909470017
 21
-495.0702234216638
 31
0.0
  0
TEXT
  5
2BD
330
1F
100
AcDbEntity
  8
1-4
  6
Continuous
 62
     7
370
     0
100
AcDbText
 10
-1100.626583614865
 20
-482.892332598712
 30
0.0
 40
22.86
  1
４－φ４
 41
1.125
  7
ＭＳ ゴシック
100
AcDbText
  0
TEXT
  5
2BE
330
1F
100
AcDbEntity
  8
1-4
  6
Continuous
 62
     2
370
     0
100
AcDbText
 10
-966.6537114653717
 20
-676.3202564136401
 30
0.0
 40
30.48
  1
34
 50
90.0
 41
1.0625
  7
ＭＳ ゴシック
100
AcDbText
  0
TEXT
  5
2BF
330
1F
100
AcDbEntity
  8
1-4
  6
Continuous
 62
     2
370
     0
100
AcDbText
 10
-1199.763705279376
 20
-844.4302811576224
 30
0.0
 40
30.48
  1
φ42
 41
1.09375
  7
ＭＳ ゴシック
100
AcDbText
  0
TEXT
  5
2C0
330
1F
100
AcDbEntity
  8
1-4
  6
Continuous
 62
     2
370
     0
100
AcDbText
 10
-1491.013488769531
 20
-1006.93007495777
 30
0.0
 40
30.48
  1
固定プレート平面図　Ｓ＝１：２
 41
1.116666666666666
  7
ＭＳ ゴシック
100
AcDbText
  0
LWPOLYLINE
  5
2C1
330
1F
100
AcDbEntity
  8
1-4
  6
Continuous
 62
     7
370
     9
100
AcDbPolyline
 90
        4
 70
     1
 43
2.0
 10
-1260.01358774546
 20
-860.0703141495987
 42
0.4142135623731
 10
-1261.01358774546
 20
-859.0703141495987
 42
0.4142135623731
 10
-1262.01358774546
 20
-860.0703141495987
 42
0.4142135623731
 10
-1261.01358774546
 20
-861.0703141495986
 42
0.4142135623731
  0
LWPOLYLINE
  5
2C2
330
1F
100
AcDbEntity
  8
1-4
  6
Continuous
 62
     7
370
     9
100
AcDbPolyline
 90
        4
 70
     1
 43
2.0
 10
-1050.013637233425
 20
-860.0703141495987
 42
0.4142135623731
 10
-1051.013637233425
 20
-859.0703141495987
 42
0.4142135623731
 10
-1052.013637233425
 20
-860.0703141495987
 42
0.4142135623731
 10
-1051.013637233425
 20
-861.0703141495986
 42
0.4142135623731
  0
LWPOLYLINE
  5
2C3
330
1F
100
AcDbEntity
  8
1-4
  6
Continuous
 62
     7
370
     9
100
AcDbPolyline
 90
        4
 70
     1
 43
2.0
 10
-950.0136784733952
 20
-740.0702894056166
 42
0.4142135623731
 10
-951.0136784733952
 20
-739.0702894056166
 42
0.4142135623731
 10
-952.0136784733951
 20
-740.0702894056166
 42
0.4142135623731
 10
-951.0136784733952
 20
-741.0702894056164
 42
0.4142135623731
  0
LWPOLYLINE
  5
2C4
330
1F
100
AcDbEntity
  8
1-4
  6
Continuous
 62
     7
370
     9
100
AcDbPolyline
 90
        4
 70
     1
 43
2.0
 10
-950.0136784733952
 20
-570.0702234216637
 42
0.4142135623731
 10
-951.0136784733952
 20
-569.0702234216637
 42
0.4142135623731
 10
-952.0136784733951
 20
-570.0702234216637
 42
0.4142135623731
 10
-951.0136784733952
 20
-571.0702234216639
 42
0.4142135623731
  0
CIRCLE
  5
2C5
330
1F
100
AcDbEntity
  8
1-A
  6
Continuous
 62
     2
370
     9
100
AcDbCircle
 10
-1156.013612489442
 20
-655.0702564136401
 30
0.0
 40
30.0
  0
CIRCLE
  5
2C6
330
1F
100
AcDbEntity
  8
1-A
  6
Continuous
 62
     2
370
     9
100
AcDbCircle
 10
-1156.013612489442
 20
-655.0702564136401
 30
0.0
 40
21.25
  0
LINE
  5
2C7
330
1F
100
AcDbEntity
  8
1-A
  6
Continuous
 62
     2
370
     9
100
AcDbLine
 10
-1201.013737864812
 20
-622.0423799991411
 30
0.0
 11
-1201.013814572076
 21
-610.0700543310068
 31
0.0
  0
LINE
  5
2C8
330
1F
100
AcDbEntity
  8
1-A
  6
Continuous
 62
     2
370
     9
100
AcDbLine
 10
-1201.013814572076
 20
-610.0700543310068
 30
0.0
 11
-1189.041306829556
 21
-610.0701377817668
 31
0.0
  0
ARC
  5
2C9
330
1F
100
AcDbEntity
  8
1-A
  6
Continuous
 62
     2
370
     9
100
AcDbCircle
 10
-1168.513637900792
 20
-642.570231002291
 30
0.0
 40
35.0
100
AcDbArc
 50
121.0026092529297
 51
148.9973449707031
  0
LINE
  5
2CA
330
1F
100
AcDbEntity
  8
1-A
  6
Continuous
 62
     2
370
     9
100
AcDbLine
 10
-1189.041488903942
 20
-700.0703817890092
 30
0.0
 11
-1201.013814572076
 21
-700.0704584962733
 31
0.0
  0
LINE
  5
2CB
330
1F
100
AcDbEntity
  8
1-A
  6
Continuous
 62
     2
370
     9
100
AcDbLine
 10
-1201.013814572076
 20
-700.0704584962733
 30
0.0
 11
-1201.013731121316
 21
-688.0979507537535
 31
0.0
  0
ARC
  5
2CC
330
1F
100
AcDbEntity
  8
1-A
  6
Continuous
 62
     2
370
     9
100
AcDbCircle
 10
-1168.513637900792
 20
-667.5702818249891
 30
0.0
 40
35.0
100
AcDbArc
 50
211.0026092529297
 51
238.9973449707031
  0
LINE
  5
2CD
330
1F
100
AcDbEntity
  8
1-A
  6
Continuous
 62
     2
370
     9
100
AcDbLine
 10
-1111.013487114074
 20
-688.0981328281391
 30
0.0
 11
-1111.013410406809
 21
-700.0704584962733
 31
0.0
  0
LINE
  5
2CE
330
1F
100
AcDbEntity
  8
1-A
  6
Continuous
 62
     2
370
     9
100
AcDbLine
 10
-1111.013410406809
 20
-700.0704584962733
 30
0.0
 11
-1122.985918149329
 21
-700.0703750455134
 31
0.0
  0
ARC
  5
2CF
330
1F
100
AcDbEntity
  8
1-A
  6
Continuous
 62
     2
370
     9
100
AcDbCircle
 10
-1143.513587078093
 20
-667.5702818249893
 30
0.0
 40
35.0
100
AcDbArc
 50
301.0026092529297
 51
328.9973449707031
  0
LINE
  5
2D0
330
1F
100
AcDbEntity
  8
1-A
  6
Continuous
 62
     2
370
     9
100
AcDbLine
 10
-1122.985736074944
 20
-610.070131038271
 30
0.0
 11
-1111.013410406809
 21
-610.0700543310069
 31
0.0
  0
LINE
  5
2D1
330
1F
100
AcDbEntity
  8
1-A
  6
Continuous
 62
     2
370
     9
100
AcDbLine
 10
-1111.013410406809
 20
-610.0700543310069
 30
0.0
 11
-1111.013493857569
 21
-622.0425620735267
 31
0.0
  0
ARC
  5
2D2
330
1F
100
AcDbEntity
  8
1-A
  6
Continuous
 62
     2
370
     9
100
AcDbCircle
 10
-1143.513587078093
 20
-642.570231002291
 30
0.0
 40
35.0
100
AcDbArc
 50
31.00260925292969
 51
58.99734497070312
  0
LINE
  5
2D3
330
1F
100
AcDbEntity
  8
1-A
  6
Continuous
 62
     2
370
     9
100
AcDbLine
 10
-1186.541363530555
 20
-612.5702564136401
 30
0.0
 11
-1189.041306829556
 21
-610.0701377817668
 31
0.0
  0
LINE
  5
2D4
330
1F
100
AcDbEntity
  8
1-A
  6
Continuous
 62
     2
370
     9
100
AcDbLine
 10
-1198.513612489442
 20
-624.54250537451
 30
0.0
 11
-1201.013737864812
 21
-622.0423799991411
 31
0.0
  0
LINE
  5
2D5
330
1F
100
AcDbEntity
  8
1-A
  6
Continuous
 62
     2
370
     9
100
AcDbLine
 10
-1125.485861450313
 20
-612.5702564136401
 30
0.0
 11
-1122.985736074944
 21
-610.070131038271
 31
0.0
  0
LINE
  5
2D6
330
1F
100
AcDbEntity
  8
1-A
  6
Continuous
 62
     2
370
     9
100
AcDbLine
 10
-1125.485861450313
 20
-612.5702564136401
 30
0.0
 11
-1186.541363530555
 21
-612.5702564136401
 31
0.0
  0
LINE
  5
2D7
330
1F
100
AcDbEntity
  8
1-A
  6
Continuous
 62
     2
370
     9
100
AcDbLine
 10
-1113.513612489442
 20
-624.5425053725276
 30
0.0
 11
-1111.013493857569
 21
-622.0425620735267
 31
0.0
  0
LINE
  5
2D8
330
1F
100
AcDbEntity
  8
1-A
  6
Continuous
 62
     2
370
     9
100
AcDbLine
 10
-1113.513612489442
 20
-685.5980074527702
 30
0.0
 11
-1111.013487114074
 21
-688.0981328281391
 31
0.0
  0
LINE
  5
2D9
330
1F
100
AcDbEntity
  8
1-A
  6
Continuous
 62
     2
370
     9
100
AcDbLine
 10
-1113.513612489442
 20
-685.5980074527702
 30
0.0
 11
-1113.513612489442
 21
-624.5425053725276
 31
0.0
  0
LINE
  5
2DA
330
1F
100
AcDbEntity
  8
1-A
  6
Continuous
 62
     2
370
     9
100
AcDbLine
 10
-1125.48586144833
 20
-697.5702564136401
 30
0.0
 11
-1122.985918149329
 21
-700.0703750455134
 31
0.0
  0
LINE
  5
2DB
330
1F
100
AcDbEntity
  8
1-A
  6
Continuous
 62
     2
370
     9
100
AcDbLine
 10
-1186.541363528573
 20
-697.5702564136401
 30
0.0
 11
-1189.041488903942
 21
-700.0703817890092
 31
0.0
  0
LINE
  5
2DC
330
1F
100
AcDbEntity
  8
1-A
  6
Continuous
 62
     2
370
     9
100
AcDbLine
 10
-1186.541363528573
 20
-697.5702564136401
 30
0.0
 11
-1125.48586144833
 21
-697.5702564136401
 31
0.0
  0
LINE
  5
2DD
330
1F
100
AcDbEntity
  8
1-A
  6
Continuous
 62
     2
370
     9
100
AcDbLine
 10
-1198.513612489442
 20
-685.5980074547527
 30
0.0
 11
-1201.013731121316
 21
-688.0979507537535
 31
0.0
  0
LINE
  5
2DE
330
1F
100
AcDbEntity
  8
1-A
  6
Continuous
 62
     2
370
     9
100
AcDbLine
 10
-1198.513612489442
 20
-624.54250537451
 30
0.0
 11
-1198.513612489442
 21
-685.5980074547527
 31
0.0
  0
CIRCLE
  5
2DF
330
1F
100
AcDbEntity
  8
1-0
  6
Continuous
 62
     4
370
     9
100
AcDbCircle
 10
-1156.013612489442
 20
-655.0702564136401
 30
0.0
 40
105.0
  0
CIRCLE
  5
2E0
330
1F
100
AcDbEntity
  8
1-0
  6
Continuous
 62
     4
370
     9
100
AcDbCircle
 10
-1071.013612489442
 20
-655.0702564136401
 30
0.0
 40
10.0
  0
LINE
  5
2E1
330
1F
100
AcDbEntity
  8
1-0
  6
JWW_CENTER1
 62
     4
370
     9
100
AcDbLine
 10
-1071.013612489442
 20
-639.3598400537054
 30
0.0
 11
-1071.013612489442
 21
-671.0640917831375
 31
0.0
  0
CIRCLE
  5
2E2
330
1F
100
AcDbEntity
  8
1-0
  6
Continuous
 62
     4
370
     9
100
AcDbCircle
 10
-1156.013612489442
 20
-570.0702564136401
 30
0.0
 40
10.0
  0
LINE
  5
2E3
330
1F
100
AcDbEntity
  8
1-0
  6
JWW_CENTER1
 62
     4
370
     9
100
AcDbLine
 10
-1171.724028849377
 20
-570.0702564136401
 30
0.0
 11
-1140.019777119945
 21
-570.0702564136401
 31
0.0
  0
CIRCLE
  5
2E4
330
1F
100
AcDbEntity
  8
1-0
  6
Continuous
 62
     4
370
     9
100
AcDbCircle
 10
-1241.013612489442
 20
-655.0702564136401
 30
0.0
 40
10.0
  0
LINE
  5
2E5
330
1F
100
AcDbEntity
  8
1-0
  6
JWW_CENTER1
 62
     4
370
     9
100
AcDbLine
 10
-1241.013612489442
 20
-670.7806727735749
 30
0.0
 11
-1241.013612489442
 21
-639.0764210441426
 31
0.0
  0
CIRCLE
  5
2E6
330
1F
100
AcDbEntity
  8
1-0
  6
Continuous
 62
     4
370
     9
100
AcDbCircle
 10
-1156.013612489442
 20
-740.0702564136401
 30
0.0
 40
10.0
  0
LINE
  5
2E7
330
1F
100
AcDbEntity
  8
1-0
  6
JWW_CENTER1
 62
     4
370
     9
100
AcDbLine
 10
-1140.303196129508
 20
-740.0702564136401
 30
0.0
 11
-1172.00744785894
 21
-740.0702564136401
 31
0.0
  0
CIRCLE
  5
2E8
330
1F
100
AcDbEntity
  8
0-0
  6
Continuous
 62
     6
370
     5
100
AcDbCircle
 10
366.6541018360678
 20
-64.29178227685709
 30
0.0
 40
20.0
  0
CIRCLE
  5
2E9
330
1F
100
AcDbEntity
  8
0-0
  6
Continuous
 62
     6
370
     5
100
AcDbCircle
 10
366.6667216532942
 20
1002.38733240076
 30
0.0
 40
20.0
  0
CIRCLE
  5
2EA
330
1F
100
AcDbEntity
  8
0-0
  6
Continuous
 62
     6
370
     5
100
AcDbCircle
 10
1433.300574669508
 20
1002.354566890541
 30
0.0
 40
20.0
  0
CIRCLE
  5
2EB
330
1F
100
AcDbEntity
  8
0-0
  6
Continuous
 62
     6
370
     5
100
AcDbCircle
 10
1433.333278346706
 20
-64.27922429265195
 30
0.0
 40
20.0
  0
ENDSEC
  0
SECTION
  2
OBJECTS
  0
DICTIONARY
  5
C
330
0
100
AcDbDictionary
281
     1
  3
ACAD_DETAILVIEWSTYLE
350
2F3
  3
ACAD_GROUP
350
D
  3
ACAD_LAYOUT
350
1A
  3
ACAD_MATERIAL
350
43
  3
ACAD_MLEADERSTYLE
350
6B
  3
ACAD_MLINESTYLE
350
17
  3
ACAD_PLOTSETTINGS
350
19
  3
ACAD_PLOTSTYLENAME
350
E
  3
ACAD_SCALELIST
350
47
  3
ACAD_SECTIONVIEWSTYLE
350
2F4
  3
ACAD_TABLESTYLE
350
69
  3
ACAD_VISUALSTYLE
350
2A
  3
ACDB_RECOMPOSE_DATA
350
2F0
  3
AcDbVariableDictionary
350
2EC
  0
SUN
  5
6D
330
29
100
AcDbSun
 90
        1
290
     0
 63
     7
421
 16777215
 40
1.0
291
     1
 91
  2455826
 92
 54000000
292
     0
 70
     2
 71
   256
280
     1
  0
DICTIONARY
  5
2F3
102
{ACAD_REACTORS
330
C
102
}
330
C
100
AcDbDictionary
281
     1
  0
DICTIONARY
  5
D
102
{ACAD_REACTORS
330
C
102
}
330
C
100
AcDbDictionary
281
     1
  0
DICTIONARY
  5
1A
102
{ACAD_REACTORS
330
C
102
}
330
C
100
AcDbDictionary
281
     1
  3
Layout1
350
1E
  3
Layout2
350
26
  3
Model
350
22
  0
DICTIONARY
  5
43
102
{ACAD_REACTORS
330
C
102
}
330
C
100
AcDbDictionary
281
     1
  3
ByBlock
350
45
  3
ByLayer
350
44
  3
Global
350
46
  0
DICTIONARY
  5
6B
102
{ACAD_REACTORS
330
C
102
}
330
C
100
AcDbDictionary
281
     1
  3
Standard
350
6C
  0
DICTIONARY
  5
17
102
{ACAD_REACTORS
330
C
102
}
330
C
100
AcDbDictionary
281
     1
  3
Standard
350
18
  0
DICTIONARY
  5
19
102
{ACAD_REACTORS
330
C
102
}
330
C
100
AcDbDictionary
281
     1
  0
ACDBDICTIONARYWDFLT
  5
E
102
{ACAD_REACTORS
330
C
102
}
330
C
100
AcDbDictionary
281
     1
  3
Normal
350
F
100
AcDbDictionaryWithDefault
340
F
  0
DICTIONARY
  5
47
102
{ACAD_REACTORS
330
C
102
}
330
C
100
AcDbDictionary
281
     1
  3
A0
350
48
  3
A1
350
49
  3
A2
350
4A
  3
A3
350
4B
  3
A4
350
4C
  3
A5
350
4D
  3
A6
350
4E
  3
A7
350
4F
  3
A8
350
50
  3
A9
350
51
  3
B0
350
52
  3
B1
350
53
  3
B2
350
54
  3
B3
350
55
  3
B4
350
56
  3
B5
350
57
  3
B6
350
58
  3
B7
350
59
  3
B8
350
5A
  3
B9
350
5B
  3
C0
350
5C
  3
C1
350
5D
  3
C2
350
5E
  3
C3
350
5F
  3
C4
350
60
  3
C5
350
61
  3
C6
350
62
  3
C7
350
63
  3
C8
350
64
  3
C9
350
65
  3
D0
350
66
  3
D1
350
67
  3
D2
350
68
  0
DICTIONARY
  5
2F4
102
{ACAD_REACTORS
330
C
102
}
330
C
100
AcDbDictionary
281
     1
  0
DICTIONARY
  5
69
102
{ACAD_REACTORS
330
C
102
}
330
C
100
AcDbDictionary
281
     1
  3
Standard
350
6A
  0
DICTIONARY
  5
2A
102
{ACAD_REACTORS
330
C
102
}
330
C
100
AcDbDictionary
281
     1
  3
2dWireframe
350
2F
  3
Basic
350
32
  3
Brighten
350
36
  3
ColorChange
350
3A
  3
Conceptual
350
34
  3
Dim
350
35
  3
EdgeColorOff
350
3D
  3
Facepattern
350
39
  3
Flat
350
2B
  3
FlatWithEdges
350
2C
  3
Gouraud
350
2D
  3
GouraudWithEdges
350
2E
  3
Hidden
350
31
  3
JitterOff
350
3B
  3
Linepattern
350
38
  3
OverhangOff
350
3C
  3
Realistic
350
33
  3
Shaded
350
42
  3
Shaded with edges
350
41
  3
Shades of Gray
350
3E
  3
Sketchy
350
3F
  3
Thicken
350
37
  3
Wireframe
350
30
  3
X-Ray
350
40
  0
XRECORD
  5
2F0
102
{ACAD_REACTORS
330
C
102
}
330
C
100
AcDbXrecord
280
     1
 90
        1
330
6A
  0
DICTIONARY
  5
2EC
102
{ACAD_REACTORS
330
C
102
}
330
C
100
AcDbDictionary
281
     1
  3
CANNOSCALE
350
2ED
  3
CENTEREXE
350
2F5
  3
CENTERLTYPEFILE
350
2F6
  3
CMLEADERSTYLE
350
2F2
  3
CTABLESTYLE
350
2F1
  0
LAYOUT
  5
1E
102
{ACAD_REACTORS
330
1A
102
}
330
1A
100
AcDbPlotSettings
  1

  2
none_device
  4

  6

 40
0.0
 41
0.0
 42
0.0
 43
0.0
 44
0.0
 45
0.0
 46
0.0
 47
0.0
 48
0.0
 49
0.0
140
0.0
141
0.0
142
1.0
143
1.0
 70
   688
 72
     1
 73
     0
 74
     5
  7

 75
    16
 76
     0
 77
     5
 78
   300
147
1.0
148
0.0
149
0.0
100
AcDbLayout
  1
Layout1
 70
     1
 71
     1
 10
0.0
 20
0.0
 11
420.0
 21
297.0
 12
0.0
 22
0.0
 32
0.0
 14
1.000000000000000E+20
 24
1.000000000000000E+20
 34
1.000000000000000E+20
 15
-1.000000000000000E+20
 25
-1.000000000000000E+20
 35
-1.000000000000000E+20
146
0.0
 13
0.0
 23
0.0
 33
0.0
 16
1.0
 26
0.0
 36
0.0
 17
0.0
 27
1.0
 37
0.0
 76
     0
330
1B
  0
LAYOUT
  5
26
102
{ACAD_REACTORS
330
1A
102
}
330
1A
100
AcDbPlotSettings
  1

  2
none_device
  4

  6

 40
0.0
 41
0.0
 42
0.0
 43
0.0
 44
0.0
 45
0.0
 46
0.0
 47
0.0
 48
0.0
 49
0.0
140
0.0
141
0.0
142
1.0
143
1.0
 70
   688
 72
     1
 73
     0
 74
     5
  7

 75
    16
 76
     0
 77
     5
 78
   300
147
1.0
148
0.0
149
0.0
100
AcDbLayout
  1
Layout2
 70
     1
 71
     2
 10
0.0
 20
0.0
 11
0.0
 21
0.0
 12
0.0
 22
0.0
 32
0.0
 14
0.0
 24
0.0
 34
0.0
 15
0.0
 25
0.0
 35
0.0
146
0.0
 13
0.0
 23
0.0
 33
0.0
 16
1.0
 26
0.0
 36
0.0
 17
0.0
 27
1.0
 37
0.0
 76
     0
330
23
  0
LAYOUT
  5
22
102
{ACAD_REACTORS
330
1A
102
}
330
1A
100
AcDbPlotSettings
  1

  2
none_device
  4
Letter_(8.50_x_11.00_Inches)
  6

 40
6.35
 41
6.35
 42
6.35000508
 43
6.35000508
 44
215.9
 45
279.4
 46
0.0
 47
0.0
 48
0.0
 49
0.0
140
0.0
141
0.0
142
1.0
143
1.0
 70
  1712
 72
     1
 73
     0
 74
     0
  7

 75
     0
 76
     0
 77
     5
 78
   300
147
1.0
148
0.0
149
0.0
100
AcDbLayout
  1
Model
 70
     1
 71
     0
 10
-2100.0
 20
-1485.0
 11
2100.0
 21
1485.0
 12
0.0
 22
0.0
 32
0.0
 14
-2100.0
 24
-1485.0
 34
0.0
 15
2100.0
 25
1485.0
 35
0.0
146
0.0
 13
0.0
 23
0.0
 33
0.0
 16
1.0
 26
0.0
 36
0.0
 17
0.0
 27
1.0
 37
0.0
 76
     0
330
1F
331
29
  0
MATERIAL
  5
45
102
{ACAD_REACTORS
330
43
102
}
330
43
100
AcDbMaterial
  1
ByBlock
 72
     1
 94
      127
  0
MATERIAL
  5
44
102
{ACAD_REACTORS
330
43
102
}
330
43
100
AcDbMaterial
  1
ByLayer
 72
     1
 94
      127
  0
MATERIAL
  5
46
102
{ACAD_REACTORS
330
43
102
}
330
43
100
AcDbMaterial
  1
Global
 72
     1
 94
      127
  0
MLEADERSTYLE
  5
6C
102
{ACAD_REACTORS
330
6B
102
}
330
6B
100
AcDbMLeaderStyle
179
     2
170
     2
171
     1
172
     0
 90
        2
 40
0.0
 41
0.0
173
     1
 91
-1056964608
340
14
 92
       -2
290
     1
 42
2.0
291
     1
 43
8.0
  3
Standard
341
0
 44
4.0
300

342
11
174
     1
178
     6
175
     1
176
     0
 93
-1056964608
 45
4.0
292
     0
297
     0
 46
4.0
343
0
 94
-1056964608
 47
1.0
 49
1.0
140
1.0
293
     1
141
0.0
294
     1
177
     0
142
1.0
295
     0
296
     0
143
3.75
271
     0
272
     9
273
     9
298
     0
  0
MLINESTYLE
  5
18
102
{ACAD_REACTORS
330
17
102
}
330
17
100
AcDbMlineStyle
  2
Standard
 70
     0
  3

 62
   256
 51
90.0
 52
90.0
 71
     2
 49
0.5
 62
   256
  6
BYLAYER
 49
-0.5
 62
   256
  6
BYLAYER
  0
ACDBPLACEHOLDER
  5
F
102
{ACAD_REACTORS
330
E
102
}
330
E
  0
SCALE
  5
48
102
{ACAD_REACTORS
330
47
102
}
330
47
100
AcDbScale
 70
     0
300
1:1
140
1.0
141
1.0
290
     1
  0
SCALE
  5
49
102
{ACAD_REACTORS
330
47
102
}
330
47
100
AcDbScale
 70
     0
300
1:2
140
1.0
141
2.0
290
     0
  0
SCALE
  5
4A
102
{ACAD_REACTORS
330
47
102
}
330
47
100
AcDbScale
 70
     0
300
1:4
140
1.0
141
4.0
290
     0
  0
SCALE
  5
4B
102
{ACAD_REACTORS
330
47
102
}
330
47
100
AcDbScale
 70
     0
300
1:5
140
1.0
141
5.0
290
     0
  0
SCALE
  5
4C
102
{ACAD_REACTORS
330
47
102
}
330
47
100
AcDbScale
 70
     0
300
1:8
140
1.0
141
8.0
290
     0
  0
SCALE
  5
4D
102
{ACAD_REACTORS
330
47
102
}
330
47
100
AcDbScale
 70
     0
300
1:10
140
1.0
141
10.0
290
     0
  0
SCALE
  5
4E
102
{ACAD_REACTORS
330
47
102
}
330
47
100
AcDbScale
 70
     0
300
1:16
140
1.0
141
16.0
290
     0
  0
SCALE
  5
4F
102
{ACAD_REACTORS
330
47
102
}
330
47
100
AcDbScale
 70
     0
300
1:20
140
1.0
141
20.0
290
     0
  0
SCALE
  5
50
102
{ACAD_REACTORS
330
47
102
}
330
47
100
AcDbScale
 70
     0
300
1:30
140
1.0
141
30.0
290
     0
  0
SCALE
  5
51
102
{ACAD_REACTORS
330
47
102
}
330
47
100
AcDbScale
 70
     0
300
1:40
140
1.0
141
40.0
290
     0
  0
SCALE
  5
52
102
{ACAD_REACTORS
330
47
102
}
330
47
100
AcDbScale
 70
     0
300
1:50
140
1.0
141
50.0
290
     0
  0
SCALE
  5
53
102
{ACAD_REACTORS
330
47
102
}
330
47
100
AcDbScale
 70
     0
300
1:100
140
1.0
141
100.0
290
     0
  0
SCALE
  5
54
102
{ACAD_REACTORS
330
47
102
}
330
47
100
AcDbScale
 70
     0
300
2:1
140
2.0
141
1.0
290
     0
  0
SCALE
  5
55
102
{ACAD_REACTORS
330
47
102
}
330
47
100
AcDbScale
 70
     0
300
4:1
140
4.0
141
1.0
290
     0
  0
SCALE
  5
56
102
{ACAD_REACTORS
330
47
102
}
330
47
100
AcDbScale
 70
     0
300
8:1
140
8.0
141
1.0
290
     0
  0
SCALE
  5
57
102
{ACAD_REACTORS
330
47
102
}
330
47
100
AcDbScale
 70
     0
300
10:1
140
10.0
141
1.0
290
     0
  0
SCALE
  5
58
102
{ACAD_REACTORS
330
47
102
}
330
47
100
AcDbScale
 70
     0
300
100:1
140
100.0
141
1.0
290
     0
  0
SCALE
  5
59
102
{ACAD_REACTORS
330
47
102
}
330
47
100
AcDbScale
 70
     0
300
1/128" = 1'-0"
140
0.0078125
141
12.0
290
     0
  0
SCALE
  5
5A
102
{ACAD_REACTORS
330
47
102
}
330
47
100
AcDbScale
 70
     0
300
1/64" = 1'-0"
140
0.015625
141
12.0
290
     0
  0
SCALE
  5
5B
102
{ACAD_REACTORS
330
47
102
}
330
47
100
AcDbScale
 70
     0
300
1/32" = 1'-0"
140
0.03125
141
12.0
290
     0
  0
SCALE
  5
5C
102
{ACAD_REACTORS
330
47
102
}
330
47
100
AcDbScale
 70
     0
300
1/16" = 1'-0"
140
0.0625
141
12.0
290
     0
  0
SCALE
  5
5D
102
{ACAD_REACTORS
330
47
102
}
330
47
100
AcDbScale
 70
     0
300
3/32" = 1'-0"
140
0.09375
141
12.0
290
     0
  0
SCALE
  5
5E
102
{ACAD_REACTORS
330
47
102
}
330
47
100
AcDbScale
 70
     0
300
1/8" = 1'-0"
140
0.125
141
12.0
290
     0
  0
SCALE
  5
5F
102
{ACAD_REACTORS
330
47
102
}
330
47
100
AcDbScale
 70
     0
300
3/16" = 1'-0"
140
0.1875
141
12.0
290
     0
  0
SCALE
  5
60
102
{ACAD_REACTORS
330
47
102
}
330
47
100
AcDbScale
 70
     0
300
1/4" = 1'-0"
140
0.25
141
12.0
290
     0
  0
SCALE
  5
61
102
{ACAD_REACTORS
330
47
102
}
330
47
100
AcDbScale
 70
     0
300
3/8" = 1'-0"
140
0.375
141
12.0
290
     0
  0
SCALE
  5
62
102
{ACAD_REACTORS
330
47
102
}
330
47
100
AcDbScale
 70
     0
300
1/2" = 1'-0"
140
0.5
141
12.0
290
     0
  0
SCALE
  5
63
102
{ACAD_REACTORS
330
47
102
}
330
47
100
AcDbScale
 70
     0
300
3/4" = 1'-0"
140
0.75
141
12.0
290
     0
  0
SCALE
  5
64
102
{ACAD_REACTORS
330
47
102
}
330
47
100
AcDbScale
 70
     0
300
1" = 1'-0"
140
1.0
141
12.0
290
     0
  0
SCALE
  5
65
102
{ACAD_REACTORS
330
47
102
}
330
47
100
AcDbScale
 70
     0
300
1-1/2" = 1'-0"
140
1.5
141
12.0
290
     0
  0
SCALE
  5
66
102
{ACAD_REACTORS
330
47
102
}
330
47
100
AcDbScale
 70
     0
300
3" = 1'-0"
140
3.0
141
12.0
290
     0
  0
SCALE
  5
67
102
{ACAD_REACTORS
330
47
102
}
330
47
100
AcDbScale
 70
     0
300
6" = 1'-0"
140
6.0
141
12.0
290
     0
  0
SCALE
  5
68
102
{ACAD_REACTORS
330
47
102
}
330
47
100
AcDbScale
 70
     0
300
1'-0" = 1'-0"
140
12.0
141
12.0
290
     0
  0
TABLESTYLE
  5
6A
102
{ACAD_REACTORS
330
69
102
}
102
{ACAD_XDICTIONARY
360
2EE
102
}
330
69
100
AcDbTableStyle
  3
Standard
 70
     0
 71
     0
 40
0.06
 41
0.06
280
     0
281
     0
  7
Standard
140
4.5
170
     2
 62
     0
 63
   257
283
     0
 90
        4
 91
        0
  1

274
    -2
284
     1
 64
     0
275
    -2
285
     1
 65
     0
276
    -2
286
     1
 66
     0
277
    -2
287
     1
 67
     0
278
    -2
288
     1
 68
     0
279
    -2
289
     1
 69
     0
  7
Standard
140
6.0
170
     5
 62
     0
 63
   257
283
     0
 90
        4
 91
        0
  1

274
    -2
284
     1
 64
     0
275
    -2
285
     1
 65
     0
276
    -2
286
     1
 66
     0
277
    -2
287
     1
 67
     0
278
    -2
288
     1
 68
     0
279
    -2
289
     1
 69
     0
  7
Standard
140
4.5
170
     5
 62
     0
 63
   257
283
     0
 90
        4
 91
        0
  1

274
    -2
284
     1
 64
     0
275
    -2
285
     1
 65
     0
276
    -2
286
     1
 66
     0
277
    -2
287
     1
 67
     0
278
    -2
288
     1
 68
     0
279
    -2
289
     1
 69
     0
  0
VISUALSTYLE
  5
2F
102
{ACAD_REACTORS
330
2A
102
}
330
2A
100
AcDbVisualStyle
  2
2dWireframe
 70
     4
177
     3
291
     0
 70
    58
 90
        0
176
     1
 90
        2
176
     1
 90
        0
176
     1
 90
        0
176
     1
 40
0.6
176
     1
 40
30.0
176
     1
 62
     7
420
 16777215
176
     1
 90
        1
176
     1
 90
        4
176
     1
 62
     7
176
     1
 62
   257
176
     1
 90
        1
176
     1
 90
        1
176
     1
 40
1.0
176
     1
 90
        0
176
     1
 62
   257
176
     1
 40
1.0
176
     1
 90
        1
176
     1
 90
        6
176
     1
 90
        2
176
     1
 62
     7
176
     1
 90
        5
176
     1
 90
        0
176
     1
 90
        0
176
     1
290
     0
176
     1
 90
        1
176
     1
 40
0.0
176
     1
 90
        0
176
     1
290
     1
176
     1
290
     1
176
     1
290
     0
176
     1
290
     0
176
     1
290
     0
176
     1
290
     0
176
     1
290
     0
176
     1
290
     0
176
     1
290
     0
176
     1
 90
       50
176
     1
 40
0.0
176
     1
 40
1.0
176
     1
 90
        0
176
     1
 62
    18
420
        0
176
     1
 90
       50
176
     1
 90
        3
176
     1
 62
     5
420
      255
176
     1
290
     0
176
     1
 90
       50
176
     1
 90
       50
176
     1
 90
       50
176
     1
290
     0
176
     1
 90
       50
176
     1
 62
   256
176
     0
 40
1.0
176
     0
 90
        2
176
     1
  1
strokes_ogs.tif
176
     1
290
     0
176
     1
 40
1.0
176
     1
 40
1.0
176
     1
  0
VISUALSTYLE
  5
32
102
{ACAD_REACTORS
330
2A
102
}
330
2A
100
AcDbVisualStyle
  2
Basic
 70
     7
177
     3
291
     1
 70
    58
 90
        1
176
     1
 90
        0
176
     1
 90
        1
176
     1
 90
        0
176
     1
 40
0.6
176
     1
 40
30.0
176
     1
 62
     7
420
 16777215
176
     1
 90
        0
176
     1
 90
        4
176
     1
 62
     7
176
     1
 62
   257
176
     1
 90
        1
176
     1
 90
        1
176
     1
 40
1.0
176
     1
 90
        8
176
     1
 62
     7
176
     1
 40
1.0
176
     1
 90
        1
176
     1
 90
        6
176
     1
 90
        2
176
     1
 62
     7
176
     1
 90
        5
176
     1
 90
        0
176
     1
 90
        0
176
     1
290
     0
176
     1
 90
        1
176
     1
 40
0.0
176
     1
 90
        0
176
     1
290
     0
176
     1
290
     1
176
     1
290
     1
176
     1
290
     0
176
     1
290
     0
176
     1
290
     0
176
     1
290
     0
176
     1
290
     0
176
     1
290
     0
176
     1
 90
       50
176
     1
 40
0.0
176
     1
 40
1.0
176
     1
 90
        0
176
     1
 62
    18
420
        0
176
     1
 90
       50
176
     1
 90
        3
176
     1
 62
     5
420
      255
176
     1
290
     0
176
     1
 90
       50
176
     1
 90
       50
176
     1
 90
       50
176
     1
290
     0
176
     1
 90
       50
176
     1
 62
   256
176
     0
 40
1.0
176
     0
 90
        2
176
     1
  1
strokes_ogs.tif
176
     1
290
     0
176
     1
 40
1.0
176
     1
 40
1.0
176
     1
  0
VISUALSTYLE
  5
36
102
{ACAD_REACTORS
330
2A
102
}
330
2A
100
AcDbVisualStyle
  2
Brighten
 70
    12
177
     3
291
     1
 70
    58
 90
        2
176
     1
 90
        2
176
     1
 90
        0
176
     1
 90
        0
176
     1
 40
0.6
176
     1
 40
30.0
176
     1
 62
     7
420
 16777215
176
     1
 90
        1
176
     1
 90
        4
176
     1
 62
     7
176
     1
 62
   257
176
     1
 90
        1
176
     1
 90
        1
176
     1
 40
1.0
176
     1
 90
        8
176
     1
 62
     7
176
     1
 40
1.0
176
     1
 90
        1
176
     1
 90
        6
176
     1
 90
        2
176
     1
 62
     7
176
     1
 90
        5
176
     1
 90
        0
176
     1
 90
        0
176
     1
290
     0
176
     1
 90
        1
176
     1
 40
50.0
176
     1
 90
        0
176
     1
290
     0
176
     1
290
     1
176
     1
290
     1
176
     1
290
     0
176
     1
290
     0
176
     1
290
     0
176
     1
290
     0
176
     1
290
     0
176
     1
290
     0
176
     1
 90
       50
176
     1
 40
0.0
176
     1
 40
1.0
176
     1
 90
        0
176
     1
 62
    18
420
        0
176
     1
 90
       50
176
     1
 90
        3
176
     1
 62
     5
420
      255
176
     1
290
     0
176
     1
 90
       50
176
     1
 90
       50
176
     1
 90
       50
176
     1
290
     0
176
     1
 90
       50
176
     1
 62
   256
176
     0
 40
1.0
176
     0
 90
        2
176
     1
  1
strokes_ogs.tif
176
     1
290
     0
176
     1
 40
1.0
176
     1
 40
1.0
176
     1
  0
VISUALSTYLE
  5
3A
102
{ACAD_REACTORS
330
2A
102
}
330
2A
100
AcDbVisualStyle
  2
ColorChange
 70
    16
177
     3
291
     1
 70
    58
 90
        2
176
     1
 90
        2
176
     1
 90
        3
176
     1
 90
        0
176
     1
 40
0.6
176
     1
 40
30.0
176
     1
 62
     8
420
  8421504
176
     1
 90
        1
176
     1
 90
        4
176
     1
 62
     7
176
     1
 62
   257
176
     1
 90
        1
176
     1
 90
        1
176
     1
 40
1.0
176
     1
 90
        8
176
     1
 62
     8
420
  8421504
176
     1
 40
1.0
176
     1
 90
        1
176
     1
 90
        6
176
     1
 90
        2
176
     1
 62
     7
176
     1
 90
        5
176
     1
 90
        0
176
     1
 90
        0
176
     1
290
     0
176
     1
 90
        1
176
     1
 40
0.0
176
     1
 90
        0
176
     1
290
     0
176
     1
290
     1
176
     1
290
     1
176
     1
290
     0
176
     1
290
     0
176
     1
290
     0
176
     1
290
     0
176
     1
290
     0
176
     1
290
     0
176
     1
 90
       50
176
     1
 40
0.0
176
     1
 40
1.0
176
     1
 90
        0
176
     1
 62
    18
420
        0
176
     1
 90
       50
176
     1
 90
        3
176
     1
 62
     5
420
      255
176
     1
290
     0
176
     1
 90
       50
176
     1
 90
       50
176
     1
 90
       50
176
     1
290
     0
176
     1
 90
       50
176
     1
 62
   256
176
     0
 40
1.0
176
     0
 90
        2
176
     1
  1
strokes_ogs.tif
176
     1
290
     0
176
     1
 40
1.0
176
     1
 40
1.0
176
     1
  0
VISUALSTYLE
  5
34
102
{ACAD_REACTORS
330
2A
102
}
330
2A
100
AcDbVisualStyle
  2
Conceptual
 70
     9
177
     3
291
     0
 70
    58
 90
        3
176
     1
 90
        2
176
     1
 90
        0
176
     1
 90
        0
176
     1
 40
0.6
176
     1
 40
30.0
176
     1
 62
     7
420
 16777215
176
     1
 90
        2
176
     1
 90
        2
176
     1
 62
     7
176
     1
 62
   257
176
     1
 90
        1
176
     1
 90
        1
176
     1
 40
179.0
176
     1
 90
        8
176
     1
 62
     7
176
     1
 40
1.0
176
     1
 90
        1
176
     1
 90
        6
176
     1
 90
        2
176
     1
 62
     7
176
     1
 90
        3
176
     1
 90
        0
176
     1
 90
        0
176
     1
290
     0
176
     1
 90
        1
176
     1
 40
0.0
176
     1
 90
        0
176
     1
290
     0
176
     1
290
     1
176
     1
290
     1
176
     1
290
     0
176
     1
290
     0
176
     1
290
     0
176
     1
290
     0
176
     1
290
     0
176
     1
290
     0
176
     1
 90
       50
176
     1
 40
0.0
176
     1
 40
1.0
176
     1
 90
        0
176
     1
 62
    18
420
        0
176
     1
 90
       50
176
     1
 90
        3
176
     1
 62
     5
420
      255
176
     1
290
     0
176
     1
 90
       50
176
     1
 90
       50
176
     1
 90
       50
176
     1
290
     0
176
     1
 90
       50
176
     1
 62
   256
176
     0
 40
1.0
176
     0
 90
        2
176
     1
  1
strokes_ogs.tif
176
     1
290
     0
176
     1
 40
1.0
176
     1
 40
1.0
176
     1
  0
VISUALSTYLE
  5
35
102
{ACAD_REACTORS
330
2A
102
}
330
2A
100
AcDbVisualStyle
  2
Dim
 70
    11
177
     3
291
     1
 70
    58
 90
        2
176
     1
 90
        2
176
     1
 90
        0
176
     1
 90
        0
176
     1
 40
0.6
176
     1
 40
30.0
176
     1
 62
     7
420
 16777215
176
     1
 90
        1
176
     1
 90
        4
176
     1
 62
     7
176
     1
 62
   257
176
     1
 90
        1
176
     1
 90
        1
176
     1
 40
1.0
176
     1
 90
        8
176
     1
 62
     7
176
     1
 40
1.0
176
     1
 90
        1
176
     1
 90
        6
176
     1
 90
        2
176
     1
 62
     7
176
     1
 90
        5
176
     1
 90
        0
176
     1
 90
        0
176
     1
290
     0
176
     1
 90
        1
176
     1
 40
-50.0
176
     1
 90
        0
176
     1
290
     0
176
     1
290
     1
176
     1
290
     1
176
     1
290
     0
176
     1
290
     0
176
     1
290
     0
176
     1
290
     0
176
     1
290
     0
176
     1
290
     0
176
     1
 90
       50
176
     1
 40
0.0
176
     1
 40
1.0
176
     1
 90
        0
176
     1
 62
    18
420
        0
176
     1
 90
       50
176
     1
 90
        3
176
     1
 62
     5
420
      255
176
     1
290
     0
176
     1
 90
       50
176
     1
 90
       50
176
     1
 90
       50
176
     1
290
     0
176
     1
 90
       50
176
     1
 62
   256
176
     0
 40
1.0
176
     0
 90
        2
176
     1
  1
strokes_ogs.tif
176
     1
290
     0
176
     1
 40
1.0
176
     1
 40
1.0
176
     1
  0
VISUALSTYLE
  5
3D
102
{ACAD_REACTORS
330
2A
102
}
330
2A
100
AcDbVisualStyle
  2
EdgeColorOff
 70
    22
177
     3
291
     1
 70
    58
 90
        2
176
     0
 90
        2
176
     0
 90
        0
176
     0
 90
        0
176
     0
 40
0.6
176
     0
 40
30.0
176
     0
 62
     7
420
 16777215
176
     0
 90
        1
176
     0
 90
        4
176
     0
 62
     7
176
     0
 62
   257
176
     0
 90
        1
176
     0
 90
        1
176
     0
 40
1.0
176
     0
 90
        8
176
     2
 62
     7
176
     0
 40
1.0
176
     0
 90
        1
176
     0
 90
        6
176
     0
 90
        2
176
     0
 62
     7
176
     0
 90
        5
176
     0
 90
        0
176
     0
 90
        0
176
     0
290
     0
176
     0
 90
        1
176
     0
 40
0.0
176
     0
 90
        0
176
     0
290
     0
176
     0
290
     1
176
     0
290
     1
176
     0
290
     0
176
     0
290
     0
176
     0
290
     0
176
     0
290
     0
176
     0
290
     0
176
     0
290
     0
176
     0
 90
       50
176
     0
 40
0.0
176
     0
 40
1.0
176
     0
 90
        0
176
     0
 62
    18
420
        0
176
     0
 90
       50
176
     0
 90
        3
176
     0
 62
     5
420
      255
176
     0
290
     0
176
     0
 90
       50
176
     0
 90
       50
176
     0
 90
       50
176
     0
290
     0
176
     0
 90
       50
176
     0
 62
   256
176
     0
 40
1.0
176
     0
 90
        2
176
     0
  1
strokes_ogs.tif
176
     0
290
     0
176
     0
 40
1.0
176
     0
 40
1.0
176
     0
  0
VISUALSTYLE
  5
39
102
{ACAD_REACTORS
330
2A
102
}
330
2A
100
AcDbVisualStyle
  2
Facepattern
 70
    15
177
     3
291
     1
 70
    58
 90
        2
176
     1
 90
        2
176
     1
 90
        0
176
     1
 90
        0
176
     1
 40
0.6
176
     1
 40
30.0
176
     1
 62
     7
420
 16777215
176
     1
 90
        1
176
     1
 90
        4
176
     1
 62
     7
176
     1
 62
   257
176
     1
 90
        1
176
     1
 90
        1
176
     1
 40
1.0
176
     1
 90
        8
176
     1
 62
     7
176
     1
 40
1.0
176
     1
 90
        1
176
     1
 90
        6
176
     1
 90
        2
176
     1
 62
     7
176
     1
 90
        5
176
     1
 90
        0
176
     1
 90
        0
176
     1
290
     0
176
     1
 90
        1
176
     1
 40
0.0
176
     1
 90
        0
176
     1
290
     0
176
     1
290
     1
176
     1
290
     1
176
     1
290
     0
176
     1
290
     0
176
     1
290
     0
176
     1
290
     0
176
     1
290
     0
176
     1
290
     0
176
     1
 90
       50
176
     1
 40
0.0
176
     1
 40
1.0
176
     1
 90
        0
176
     1
 62
    18
420
        0
176
     1
 90
       50
176
     1
 90
        3
176
     1
 62
     5
420
      255
176
     1
290
     0
176
     1
 90
       50
176
     1
 90
       50
176
     1
 90
       50
176
     1
290
     0
176
     1
 90
       50
176
     1
 62
   256
176
     0
 40
1.0
176
     0
 90
        2
176
     1
  1
strokes_ogs.tif
176
     1
290
     0
176
     1
 40
1.0
176
     1
 40
1.0
176
     1
  0
VISUALSTYLE
  5
2B
102
{ACAD_REACTORS
330
2A
102
}
330
2A
100
AcDbVisualStyle
  2
Flat
 70
     0
177
     3
291
     1
 70
    58
 90
        2
176
     1
 90
        1
176
     1
 90
        1
176
     1
 90
        2
176
     1
 40
0.6
176
     1
 40
30.0
176
     1
 62
     7
420
 16777215
176
     1
 90
        0
176
     1
 90
        0
176
     1
 62
     7
176
     1
 62
   257
176
     1
 90
        1
176
     1
 90
        1
176
     1
 40
1.0
176
     1
 90
        8
176
     1
 62
     7
176
     1
 40
1.0
176
     1
 90
        1
176
     1
 90
        6
176
     1
 90
        2
176
     1
 62
     7
176
     1
 90
        5
176
     1
 90
        0
176
     1
 90
        0
176
     1
290
     0
176
     1
 90
       13
176
     1
 40
0.0
176
     1
 90
        0
176
     1
290
     0
176
     1
290
     1
176
     1
290
     1
176
     1
290
     0
176
     1
290
     0
176
     1
290
     0
176
     1
290
     0
176
     1
290
     0
176
     1
290
     0
176
     1
 90
       50
176
     1
 40
0.0
176
     1
 40
1.0
176
     1
 90
        0
176
     1
 62
    18
420
        0
176
     1
 90
       50
176
     1
 90
        3
176
     1
 62
     5
420
      255
176
     1
290
     0
176
     1
 90
       50
176
     1
 90
       50
176
     1
 90
       50
176
     1
290
     0
176
     1
 90
       50
176
     1
 62
   256
176
     0
 40
1.0
176
     0
 90
        2
176
     1
  1
strokes_ogs.tif
176
     1
290
     0
176
     1
 40
1.0
176
     1
 40
1.0
176
     1
  0
VISUALSTYLE
  5
2C
102
{ACAD_REACTORS
330
2A
102
}
330
2A
100
AcDbVisualStyle
  2
FlatWithEdges
 70
     1
177
     3
291
     1
 70
    58
 90
        2
176
     1
 90
        1
176
     1
 90
        1
176
     1
 90
        2
176
     1
 40
0.6
176
     1
 40
30.0
176
     1
 62
     7
420
 16777215
176
     1
 90
        1
176
     1
 90
        0
176
     1
 62
     7
176
     1
 62
   257
176
     1
 90
        1
176
     1
 90
        1
176
     1
 40
1.0
176
     1
 90
        0
176
     1
 62
   257
176
     1
 40
1.0
176
     1
 90
        1
176
     1
 90
        6
176
     1
 90
        2
176
     1
 62
     7
176
     1
 90
        5
176
     1
 90
        0
176
     1
 90
        0
176
     1
290
     0
176
     1
 90
       13
176
     1
 40
0.0
176
     1
 90
        0
176
     1
290
     0
176
     1
290
     1
176
     1
290
     1
176
     1
290
     0
176
     1
290
     0
176
     1
290
     0
176
     1
290
     0
176
     1
290
     0
176
     1
290
     0
176
     1
 90
       50
176
     1
 40
0.0
176
     1
 40
1.0
176
     1
 90
        0
176
     1
 62
    18
420
        0
176
     1
 90
       50
176
     1
 90
        3
176
     1
 62
     5
420
      255
176
     1
290
     0
176
     1
 90
       50
176
     1
 90
       50
176
     1
 90
       50
176
     1
290
     0
176
     1
 90
       50
176
     1
 62
   256
176
     0
 40
1.0
176
     0
 90
        2
176
     1
  1
strokes_ogs.tif
176
     1
290
     0
176
     1
 40
1.0
176
     1
 40
1.0
176
     1
  0
VISUALSTYLE
  5
2D
102
{ACAD_REACTORS
330
2A
102
}
330
2A
100
AcDbVisualStyle
  2
Gouraud
 70
     2
177
     3
291
     1
 70
    58
 90
        2
176
     1
 90
        2
176
     1
 90
        1
176
     1
 90
        2
176
     1
 40
0.6
176
     1
 40
30.0
176
     1
 62
     7
420
 16777215
176
     1
 90
        0
176
     1
 90
        0
176
     1
 62
     7
176
     1
 62
   257
176
     1
 90
        1
176
     1
 90
        1
176
     1
 40
1.0
176
     1
 90
        0
176
     1
 62
     7
176
     1
 40
1.0
176
     1
 90
        1
176
     1
 90
        6
176
     1
 90
        2
176
     1
 62
     7
176
     1
 90
        5
176
     1
 90
        0
176
     1
 90
        0
176
     1
290
     0
176
     1
 90
       13
176
     1
 40
0.0
176
     1
 90
        0
176
     1
290
     0
176
     1
290
     1
176
     1
290
     1
176
     1
290
     0
176
     1
290
     0
176
     1
290
     0
176
     1
290
     0
176
     1
290
     0
176
     1
290
     0
176
     1
 90
       50
176
     1
 40
0.0
176
     1
 40
1.0
176
     1
 90
        0
176
     1
 62
    18
420
        0
176
     1
 90
       50
176
     1
 90
        3
176
     1
 62
     5
420
      255
176
     1
290
     0
176
     1
 90
       50
176
     1
 90
       50
176
     1
 90
       50
176
     1
290
     0
176
     1
 90
       50
176
     1
 62
   256
176
     0
 40
1.0
176
     0
 90
        2
176
     1
  1
strokes_ogs.tif
176
     1
290
     0
176
     1
 40
1.0
176
     1
 40
1.0
176
     1
  0
VISUALSTYLE
  5
2E
102
{ACAD_REACTORS
330
2A
102
}
330
2A
100
AcDbVisualStyle
  2
GouraudWithEdges
 70
     3
177
     3
291
     1
 70
    58
 90
        2
176
     1
 90
        2
176
     1
 90
        1
176
     1
 90
        2
176
     1
 40
0.6
176
     1
 40
30.0
176
     1
 62
     7
420
 16777215
176
     1
 90
        1
176
     1
 90
        0
176
     1
 62
     7
176
     1
 62
   257
176
     1
 90
        1
176
     1
 90
        1
176
     1
 40
1.0
176
     1
 90
        0
176
     1
 62
   257
176
     1
 40
1.0
176
     1
 90
        1
176
     1
 90
        6
176
     1
 90
        2
176
     1
 62
     7
176
     1
 90
        5
176
     1
 90
        0
176
     1
 90
        0
176
     1
290
     0
176
     1
 90
       13
176
     1
 40
0.0
176
     1
 90
        0
176
     1
290
     0
176
     1
290
     1
176
     1
290
     1
176
     1
290
     0
176
     1
290
     0
176
     1
290
     0
176
     1
290
     0
176
     1
290
     0
176
     1
290
     0
176
     1
 90
       50
176
     1
 40
0.0
176
     1
 40
1.0
176
     1
 90
        0
176
     1
 62
    18
420
        0
176
     1
 90
       50
176
     1
 90
        3
176
     1
 62
     5
420
      255
176
     1
290
     0
176
     1
 90
       50
176
     1
 90
       50
176
     1
 90
       50
176
     1
290
     0
176
     1
 90
       50
176
     1
 62
   256
176
     0
 40
1.0
176
     0
 90
        2
176
     1
  1
strokes_ogs.tif
176
     1
290
     0
176
     1
 40
1.0
176
     1
 40
1.0
176
     1
  0
VISUALSTYLE
  5
31
102
{ACAD_REACTORS
330
2A
102
}
330
2A
100
AcDbVisualStyle
  2
Hidden
 70
     6
177
     3
291
     0
 70
    58
 90
        1
176
     1
 90
        2
176
     1
 90
        2
176
     1
 90
        0
176
     1
 40
0.6
176
     1
 40
30.0
176
     1
 62
     7
420
 16777215
176
     1
 90
        2
176
     1
 90
        2
176
     1
 62
     7
176
     1
 62
   257
176
     1
 90
        2
176
     1
 90
        1
176
     1
 40
40.0
176
     1
 90
        0
176
     1
 62
   257
176
     1
 40
1.0
176
     1
 90
        1
176
     1
 90
        6
176
     1
 90
        2
176
     1
 62
     7
176
     1
 90
        3
176
     1
 90
        0
176
     1
 90
        0
176
     1
290
     0
176
     1
 90
        1
176
     1
 40
0.0
176
     1
 90
        0
176
     1
290
     0
176
     1
290
     1
176
     1
290
     1
176
     1
290
     0
176
     1
290
     0
176
     1
290
     0
176
     1
290
     0
176
     1
290
     0
176
     1
290
     0
176
     1
 90
       50
176
     1
 40
0.0
176
     1
 40
1.0
176
     1
 90
        0
176
     1
 62
    18
420
        0
176
     1
 90
       50
176
     1
 90
        3
176
     1
 62
     5
420
      255
176
     1
290
     0
176
     1
 90
       50
176
     1
 90
       50
176
     1
 90
       50
176
     1
290
     0
176
     1
 90
       50
176
     1
 62
   256
176
     0
 40
1.0
176
     0
 90
        2
176
     1
  1
strokes_ogs.tif
176
     1
290
     0
176
     1
 40
1.0
176
     1
 40
1.0
176
     1
  0
VISUALSTYLE
  5
3B
102
{ACAD_REACTORS
330
2A
102
}
330
2A
100
AcDbVisualStyle
  2
JitterOff
 70
    20
177
     3
291
     1
 70
    58
 90
        2
176
     0
 90
        2
176
     0
 90
        0
176
     0
 90
        0
176
     0
 40
0.6
176
     0
 40
30.0
176
     0
 62
     7
420
 16777215
176
     0
 90
        1
176
     0
 90
        4
176
     0
 62
     7
176
     0
 62
   257
176
     0
 90
        1
176
     0
 90
        1
176
     0
 40
1.0
176
     0
 90
       10
176
     2
 62
     7
176
     0
 40
1.0
176
     0
 90
        1
176
     0
 90
        6
176
     0
 90
        2
176
     0
 62
     7
176
     0
 90
        5
176
     0
 90
        0
176
     0
 90
        0
176
     0
290
     0
176
     0
 90
        1
176
     0
 40
0.0
176
     0
 90
        0
176
     0
290
     0
176
     0
290
     1
176
     0
290
     1
176
     0
290
     0
176
     0
290
     0
176
     0
290
     0
176
     0
290
     0
176
     0
290
     0
176
     0
290
     0
176
     0
 90
       50
176
     0
 40
0.0
176
     0
 40
1.0
176
     0
 90
        0
176
     0
 62
    18
420
        0
176
     0
 90
       50
176
     0
 90
        3
176
     0
 62
     5
420
      255
176
     0
290
     0
176
     0
 90
       50
176
     0
 90
       50
176
     0
 90
       50
176
     0
290
     0
176
     0
 90
       50
176
     0
 62
   256
176
     0
 40
1.0
176
     0
 90
        2
176
     0
  1
strokes_ogs.tif
176
     0
290
     0
176
     0
 40
1.0
176
     0
 40
1.0
176
     0
  0
VISUALSTYLE
  5
38
102
{ACAD_REACTORS
330
2A
102
}
330
2A
100
AcDbVisualStyle
  2
Linepattern
 70
    14
177
     3
291
     1
 70
    58
 90
        2
176
     1
 90
        2
176
     1
 90
        0
176
     1
 90
        0
176
     1
 40
0.6
176
     1
 40
30.0
176
     1
 62
     7
420
 16777215
176
     1
 90
        1
176
     1
 90
        4
176
     1
 62
     7
176
     1
 62
   257
176
     1
 90
        7
176
     1
 90
        7
176
     1
 40
1.0
176
     1
 90
        8
176
     1
 62
     7
176
     1
 40
1.0
176
     1
 90
        1
176
     1
 90
        6
176
     1
 90
        2
176
     1
 62
     7
176
     1
 90
        5
176
     1
 90
        0
176
     1
 90
        0
176
     1
290
     0
176
     1
 90
        1
176
     1
 40
0.0
176
     1
 90
        0
176
     1
290
     0
176
     1
290
     1
176
     1
290
     1
176
     1
290
     0
176
     1
290
     0
176
     1
290
     0
176
     1
290
     0
176
     1
290
     0
176
     1
290
     0
176
     1
 90
       50
176
     1
 40
0.0
176
     1
 40
1.0
176
     1
 90
        0
176
     1
 62
    18
420
        0
176
     1
 90
       50
176
     1
 90
        3
176
     1
 62
     5
420
      255
176
     1
290
     0
176
     1
 90
       50
176
     1
 90
       50
176
     1
 90
       50
176
     1
290
     0
176
     1
 90
       50
176
     1
 62
   256
176
     0
 40
1.0
176
     0
 90
        2
176
     1
  1
strokes_ogs.tif
176
     1
290
     0
176
     1
 40
1.0
176
     1
 40
1.0
176
     1
  0
VISUALSTYLE
  5
3C
102
{ACAD_REACTORS
330
2A
102
}
330
2A
100
AcDbVisualStyle
  2
OverhangOff
 70
    21
177
     3
291
     1
 70
    58
 90
        2
176
     0
 90
        2
176
     0
 90
        0
176
     0
 90
        0
176
     0
 40
0.6
176
     0
 40
30.0
176
     0
 62
     7
420
 16777215
176
     0
 90
        1
176
     0
 90
        4
176
     0
 62
     7
176
     0
 62
   257
176
     0
 90
        1
176
     0
 90
        1
176
     0
 40
1.0
176
     0
 90
        9
176
     2
 62
     7
176
     0
 40
1.0
176
     0
 90
        1
176
     0
 90
        6
176
     0
 90
        2
176
     0
 62
     7
176
     0
 90
        5
176
     0
 90
        0
176
     0
 90
        0
176
     0
290
     0
176
     0
 90
        1
176
     0
 40
0.0
176
     0
 90
        0
176
     0
290
     0
176
     0
290
     1
176
     0
290
     1
176
     0
290
     0
176
     0
290
     0
176
     0
290
     0
176
     0
290
     0
176
     0
290
     0
176
     0
290
     0
176
     0
 90
       50
176
     0
 40
0.0
176
     0
 40
1.0
176
     0
 90
        0
176
     0
 62
    18
420
        0
176
     0
 90
       50
176
     0
 90
        3
176
     0
 62
     5
420
      255
176
     0
290
     0
176
     0
 90
       50
176
     0
 90
       50
176
     0
 90
       50
176
     0
290
     0
176
     0
 90
       50
176
     0
 62
   256
176
     0
 40
1.0
176
     0
 90
        2
176
     0
  1
strokes_ogs.tif
176
     0
290
     0
176
     0
 40
1.0
176
     0
 40
1.0
176
     0
  0
VISUALSTYLE
  5
33
102
{ACAD_REACTORS
330
2A
102
}
330
2A
100
AcDbVisualStyle
  2
Realistic
 70
     8
177
     3
291
     0
 70
    58
 90
        2
176
     1
 90
        3
176
     1
 90
        0
176
     1
 90
        2
176
     1
 40
0.6
176
     1
 40
30.0
176
     1
 62
     7
420
 16777215
176
     1
 90
        0
176
     1
 90
        0
176
     1
 62
     7
176
     1
 62
   257
176
     1
 90
        1
176
     1
 90
        1
176
     1
 40
1.0
176
     1
 90
        8
176
     1
 62
   257
176
     1
 40
1.0
176
     1
 90
        1
176
     1
 90
        6
176
     1
 90
        2
176
     1
 62
     7
176
     1
 90
        3
176
     1
 90
        0
176
     1
 90
        0
176
     1
290
     0
176
     1
 90
       13
176
     1
 40
0.0
176
     1
 90
        0
176
     1
290
     0
176
     1
290
     1
176
     1
290
     1
176
     1
290
     0
176
     1
290
     0
176
     1
290
     0
176
     1
290
     0
176
     1
290
     0
176
     1
290
     0
176
     1
 90
       50
176
     1
 40
0.0
176
     1
 40
1.0
176
     1
 90
        0
176
     1
 62
    18
420
        0
176
     1
 90
       50
176
     1
 90
        3
176
     1
 62
     5
420
      255
176
     1
290
     0
176
     1
 90
       50
176
     1
 90
       50
176
     1
 90
       50
176
     1
290
     0
176
     1
 90
       50
176
     1
 62
   256
176
     0
 40
1.0
176
     0
 90
        2
176
     1
  1
strokes_ogs.tif
176
     1
290
     0
176
     1
 40
1.0
176
     1
 40
1.0
176
     1
  0
VISUALSTYLE
  5
42
102
{ACAD_REACTORS
330
2A
102
}
330
2A
100
AcDbVisualStyle
  2
Shaded
 70
    27
177
     3
291
     0
 70
    58
 90
        2
176
     1
 90
        2
176
     1
 90
        1
176
     1
 90
        2
176
     1
 40
0.6
176
     1
 40
30.0
176
     1
 62
     7
420
 16777215
176
     1
 90
        0
176
     1
 90
        4
176
     1
 62
     7
176
     1
 62
   257
176
     1
 90
        1
176
     1
 90
        1
176
     1
 40
1.0
176
     1
 90
        8
176
     1
 62
   257
176
     1
 40
1.0
176
     1
 90
        1
176
     1
 90
        6
176
     1
 90
        2
176
     1
 62
     8
420
  7895160
176
     1
 90
        3
176
     1
 90
        0
176
     1
 90
        0
176
     1
290
     0
176
     1
 90
        5
176
     1
 40
0.0
176
     1
 90
        0
176
     1
290
     0
176
     1
290
     1
176
     1
290
     1
176
     1
290
     0
176
     1
290
     0
176
     1
290
     0
176
     1
290
     0
176
     1
290
     0
176
     1
290
     0
176
     1
 90
       50
176
     1
 40
0.0
176
     1
 40
1.0
176
     1
 90
        0
176
     1
 62
    18
420
        0
176
     1
 90
       50
176
     1
 90
        3
176
     1
 62
     5
420
      255
176
     1
290
     0
176
     1
 90
       50
176
     1
 90
       50
176
     1
 90
       50
176
     1
290
     0
176
     1
 90
       50
176
     1
 62
   256
176
     0
 40
1.0
176
     0
 90
        2
176
     1
  1
strokes_ogs.tif
176
     1
290
     0
176
     1
 40
1.0
176
     1
 40
1.0
176
     1
  0
VISUALSTYLE
  5
41
102
{ACAD_REACTORS
330
2A
102
}
330
2A
100
AcDbVisualStyle
  2
Shaded with edges
 70
    26
177
     3
291
     0
 70
    58
 90
        2
176
     1
 90
        2
176
     1
 90
        1
176
     1
 90
        2
176
     1
 40
0.6
176
     1
 40
30.0
176
     1
 62
     7
420
 16777215
176
     1
 90
        1
176
     1
 90
       10
176
     1
 62
     7
176
     1
 62
   257
176
     1
 90
        2
176
     1
 90
        1
176
     1
 40
1.0
176
     1
 90
        8
176
     1
 62
   257
176
     1
 40
1.0
176
     1
 90
        1
176
     1
 90
        6
176
     1
 90
        2
176
     1
 62
     7
176
     1
 90
        3
176
     1
 90
        0
176
     1
 90
        0
176
     1
290
     0
176
     1
 90
        5
176
     1
 40
0.0
176
     1
 90
        0
176
     1
290
     0
176
     1
290
     1
176
     1
290
     1
176
     1
290
     0
176
     1
290
     0
176
     1
290
     0
176
     1
290
     0
176
     1
290
     0
176
     1
290
     0
176
     1
 90
       50
176
     1
 40
0.0
176
     1
 40
1.0
176
     1
 90
        0
176
     1
 62
    18
420
        0
176
     1
 90
       50
176
     1
 90
        3
176
     1
 62
     5
420
      255
176
     1
290
     0
176
     1
 90
       50
176
     1
 90
       50
176
     1
 90
       50
176
     1
290
     0
176
     1
 90
       50
176
     1
 62
   256
176
     0
 40
1.0
176
     0
 90
        2
176
     1
  1
strokes_ogs.tif
176
     1
290
     0
176
     1
 40
1.0
176
     1
 40
1.0
176
     1
  0
VISUALSTYLE
  5
3E
102
{ACAD_REACTORS
330
2A
102
}
330
2A
100
AcDbVisualStyle
  2
Shades of Gray
 70
    23
177
     3
291
     0
 70
    58
 90
        2
176
     1
 90
        2
176
     1
 90
        3
176
     1
 90
        0
176
     1
 40
0.6
176
     1
 40
30.0
176
     1
 62
     7
420
 16777215
176
     1
 90
        2
176
     1
 90
        2
176
     1
 62
     7
176
     1
 62
     7
176
     1
 90
        1
176
     1
 90
        1
176
     1
 40
40.0
176
     1
 90
        8
176
     1
 62
     7
176
     1
 40
1.0
176
     1
 90
        1
176
     1
 90
        6
176
     1
 90
        2
176
     1
 62
     7
176
     1
 90
        3
176
     1
 90
        0
176
     1
 90
        0
176
     1
290
     0
176
     1
 90
        1
176
     1
 40
0.0
176
     1
 90
        0
176
     1
290
     0
176
     1
290
     1
176
     1
290
     1
176
     1
290
     0
176
     1
290
     0
176
     1
290
     0
176
     1
290
     0
176
     1
290
     0
176
     1
290
     0
176
     1
 90
       50
176
     1
 40
0.0
176
     1
 40
1.0
176
     1
 90
        0
176
     1
 62
    18
420
        0
176
     1
 90
       50
176
     1
 90
        3
176
     1
 62
     5
420
      255
176
     1
290
     0
176
     1
 90
       50
176
     1
 90
       50
176
     1
 90
       50
176
     1
290
     0
176
     1
 90
       50
176
     1
 62
   256
176
     0
 40
1.0
176
     0
 90
        2
176
     1
  1
strokes_ogs.tif
176
     1
290
     0
176
     1
 40
1.0
176
     1
 40
1.0
176
     1
  0
VISUALSTYLE
  5
3F
102
{ACAD_REACTORS
330
2A
102
}
330
2A
100
AcDbVisualStyle
  2
Sketchy
 70
    24
177
     3
291
     0
 70
    58
 90
        1
176
     1
 90
        2
176
     1
 90
        2
176
     1
 90
        0
176
     1
 40
0.6
176
     1
 40
30.0
176
     1
 62
     7
420
 16777215
176
     1
 90
        2
176
     1
 90
        2
176
     1
 62
     7
176
     1
 62
     7
176
     1
 90
        1
176
     1
 90
        1
176
     1
 40
40.0
176
     1
 90
       11
176
     1
 62
     7
176
     1
 40
1.0
176
     1
 90
        1
176
     1
 90
        6
176
     1
 90
        2
176
     1
 62
     7
176
     1
 90
        6
176
     1
 90
        0
176
     1
 90
        0
176
     1
290
     0
176
     1
 90
        1
176
     1
 40
0.0
176
     1
 90
        0
176
     1
290
     0
176
     1
290
     1
176
     1
290
     1
176
     1
290
     0
176
     1
290
     0
176
     1
290
     0
176
     1
290
     0
176
     1
290
     0
176
     1
290
     0
176
     1
 90
       50
176
     1
 40
0.0
176
     1
 40
1.0
176
     1
 90
        0
176
     1
 62
    18
420
        0
176
     1
 90
       50
176
     1
 90
        3
176
     1
 62
     5
420
      255
176
     1
290
     0
176
     1
 90
       50
176
     1
 90
       50
176
     1
 90
       50
176
     1
290
     0
176
     1
 90
       50
176
     1
 62
   256
176
     0
 40
1.0
176
     0
 90
        2
176
     1
  1
strokes_ogs.tif
176
     1
290
     0
176
     1
 40
1.0
176
     1
 40
1.0
176
     1
  0
VISUALSTYLE
  5
37
102
{ACAD_REACTORS
330
2A
102
}
330
2A
100
AcDbVisualStyle
  2
Thicken
 70
    13
177
     3
291
     1
 70
    58
 90
        2
176
     1
 90
        2
176
     1
 90
        0
176
     1
 90
        0
176
     1
 40
0.6
176
     1
 40
30.0
176
     1
 62
     7
420
 16777215
176
     1
 90
        1
176
     1
 90
        4
176
     1
 62
     7
176
     1
 62
   257
176
     1
 90
        1
176
     1
 90
        1
176
     1
 40
1.0
176
     1
 90
       12
176
     1
 62
     7
176
     1
 40
1.0
176
     1
 90
        1
176
     1
 90
        6
176
     1
 90
        2
176
     1
 62
     7
176
     1
 90
        5
176
     1
 90
        0
176
     1
 90
        0
176
     1
290
     0
176
     1
 90
        1
176
     1
 40
0.0
176
     1
 90
        0
176
     1
290
     0
176
     1
290
     1
176
     1
290
     1
176
     1
290
     0
176
     1
290
     0
176
     1
290
     0
176
     1
290
     0
176
     1
290
     0
176
     1
290
     0
176
     1
 90
       50
176
     1
 40
0.0
176
     1
 40
1.0
176
     1
 90
        0
176
     1
 62
    18
420
        0
176
     1
 90
       50
176
     1
 90
        3
176
     1
 62
     5
420
      255
176
     1
290
     0
176
     1
 90
       50
176
     1
 90
       50
176
     1
 90
       50
176
     1
290
     0
176
     1
 90
       50
176
     1
 62
   256
176
     0
 40
1.0
176
     0
 90
        2
176
     1
  1
strokes_ogs.tif
176
     1
290
     0
176
     1
 40
1.0
176
     1
 40
1.0
176
     1
  0
VISUALSTYLE
  5
30
102
{ACAD_REACTORS
330
2A
102
}
330
2A
100
AcDbVisualStyle
  2
Wireframe
 70
     5
177
     3
291
     0
 70
    58
 90
        0
176
     1
 90
        2
176
     1
 90
        0
176
     1
 90
        0
176
     1
 40
0.6
176
     1
 40
30.0
176
     1
 62
     7
420
 16777215
176
     1
 90
        1
176
     1
 90
        4
176
     1
 62
     7
176
     1
 62
   257
176
     1
 90
        1
176
     1
 90
        1
176
     1
 40
1.0
176
     1
 90
        0
176
     1
 62
   257
176
     1
 40
1.0
176
     1
 90
        1
176
     1
 90
        6
176
     1
 90
        2
176
     1
 62
     7
176
     1
 90
        3
176
     1
 90
        0
176
     1
 90
        0
176
     1
290
     0
176
     1
 90
        1
176
     1
 40
0.0
176
     1
 90
        0
176
     1
290
     0
176
     1
290
     1
176
     1
290
     1
176
     1
290
     0
176
     1
290
     0
176
     1
290
     0
176
     1
290
     0
176
     1
290
     0
176
     1
290
     0
176
     1
 90
       50
176
     1
 40
0.0
176
     1
 40
1.0
176
     1
 90
        0
176
     1
 62
    18
420
        0
176
     1
 90
       50
176
     1
 90
        3
176
     1
 62
     5
420
      255
176
     1
290
     0
176
     1
 90
       50
176
     1
 90
       50
176
     1
 90
       50
176
     1
290
     0
176
     1
 90
       50
176
     1
 62
   256
176
     0
 40
1.0
176
     0
 90
        2
176
     1
  1
strokes_ogs.tif
176
     1
290
     0
176
     1
 40
1.0
176
     1
 40
1.0
176
     1
  0
VISUALSTYLE
  5
40
102
{ACAD_REACTORS
330
2A
102
}
330
2A
100
AcDbVisualStyle
  2
X-Ray
 70
    25
177
     3
291
     0
 70
    58
 90
        2
176
     1
 90
        2
176
     1
 90
        1
176
     1
 90
        1
176
     1
 40
0.5
176
     1
 40
30.0
176
     1
 62
     7
420
 16777215
176
     1
 90
        1
176
     1
 90
        0
176
     1
 62
     7
176
     1
 62
   257
176
     1
 90
        1
176
     1
 90
        1
176
     1
 40
1.0
176
     1
 90
        8
176
     1
 62
     7
176
     1
 40
1.0
176
     1
 90
        1
176
     1
 90
        6
176
     1
 90
        2
176
     1
 62
     7
176
     1
 90
        3
176
     1
 90
        0
176
     1
 90
        0
176
     1
290
     0
176
     1
 90
       13
176
     1
 40
0.0
176
     1
 90
        0
176
     1
290
     0
176
     1
290
     1
176
     1
290
     1
176
     1
290
     0
176
     1
290
     0
176
     1
290
     0
176
     1
290
     0
176
     1
290
     0
176
     1
290
     0
176
     1
 90
       50
176
     1
 40
0.0
176
     1
 40
1.0
176
     1
 90
        0
176
     1
 62
    18
420
        0
176
     1
 90
       50
176
     1
 90
        3
176
     1
 62
     5
420
      255
176
     1
290
     0
176
     1
 90
       50
176
     1
 90
       50
176
     1
 90
       50
176
     1
290
     0
176
     1
 90
       50
176
     1
 62
   256
176
     0
 40
1.0
176
     0
 90
        2
176
     1
  1
strokes_ogs.tif
176
     1
290
     0
176
     1
 40
1.0
176
     1
 40
1.0
176
     1
  0
DICTIONARYVAR
  5
2ED
102
{ACAD_REACTORS
330
2EC
102
}
330
2EC
100
DictionaryVariables
280
     0
  1
1:1
  0
DICTIONARYVAR
  5
2F5
102
{ACAD_REACTORS
330
2EC
102
}
330
2EC
100
DictionaryVariables
280
     0
  1
3.500000
  0
DICTIONARYVAR
  5
2F6
102
{ACAD_REACTORS
330
2EC
102
}
330
2EC
100
DictionaryVariables
280
     0
  1
acadiso.lin
  0
DICTIONARYVAR
  5
2F2
102
{ACAD_REACTORS
330
2EC
102
}
330
2EC
100
DictionaryVariables
280
     0
  1
Standard
  0
DICTIONARYVAR
  5
2F1
102
{ACAD_REACTORS
330
2EC
102
}
330
2EC
100
DictionaryVariables
280
     0
  1
Standard
  0
DICTIONARY
  5
2EE
330
6A
100
AcDbDictionary
280
     1
281
     1
  3
ACAD_ROUNDTRIP_2008_TABLESTYLE_CELLSTYLEMAP
360
2EF
  0
CELLSTYLEMAP
  5
2EF
102
{ACAD_REACTORS
330
2EE
102
}
330
2EE
100
AcDbCellStyleMap
 90
        3
300
CELLSTYLE
  1
TABLEFORMAT_BEGIN
 90
        5
170
     1
 91
        0
 92
    32768
 62
   257
 93
        1
300
CONTENTFORMAT
  1
CONTENTFORMAT_BEGIN
 90
        0
 91
        0
 92
        4
 93
        0
300

 40
0.0
140
1.0
 94
        5
 62
     0
340
11
144
6.0
309
CONTENTFORMAT_END
171
     1
301
MARGIN
  1
CELLMARGIN_BEGIN
 40
1.5
 40
1.5
 40
1.5
 40
1.5
 40
1.5
 40
1.5
309
CELLMARGIN_END
 94
        6
 95
        1
302
GRIDFORMAT
  1
GRIDFORMAT_BEGIN
 90
        0
 91
        1
 62
     0
 92
       -2
340
14
 93
        0
 40
0.045
309
GRIDFORMAT_END
 95
        2
302
GRIDFORMAT
  1
GRIDFORMAT_BEGIN
 90
        0
 91
        1
 62
     0
 92
       -2
340
14
 93
        0
 40
0.045
309
GRIDFORMAT_END
 95
        4
302
GRIDFORMAT
  1
GRIDFORMAT_BEGIN
 90
        0
 91
        1
 62
     0
 92
       -2
340
14
 93
        0
 40
0.045
309
GRIDFORMAT_END
 95
        8
302
GRIDFORMAT
  1
GRIDFORMAT_BEGIN
 90
        0
 91
        1
 62
     0
 92
       -2
340
14
 93
        0
 40
0.045
309
GRIDFORMAT_END
 95
       16
302
GRIDFORMAT
  1
GRIDFORMAT_BEGIN
 90
        0
 91
        1
 62
     0
 92
       -2
340
14
 93
        0
 40
0.045
309
GRIDFORMAT_END
 95
       32
302
GRIDFORMAT
  1
GRIDFORMAT_BEGIN
 90
        0
 91
        1
 62
     0
 92
       -2
340
14
 93
        0
 40
0.045
309
GRIDFORMAT_END
309
TABLEFORMAT_END
  1
CELLSTYLE_BEGIN
 90
        1
 91
        1
300
_TITLE
309
CELLSTYLE_END
300
CELLSTYLE
  1
TABLEFORMAT_BEGIN
 90
        5
170
     1
 91
        0
 92
        0
 62
   257
 93
        1
300
CONTENTFORMAT
  1
CONTENTFORMAT_BEGIN
 90
        0
 91
        0
 92
        4
 93
        0
300

 40
0.0
140
1.0
 94
        5
 62
     0
340
11
144
4.5
309
CONTENTFORMAT_END
171
     1
301
MARGIN
  1
CELLMARGIN_BEGIN
 40
1.5
 40
1.5
 40
1.5
 40
1.5
 40
1.5
 40
1.5
309
CELLMARGIN_END
 94
        6
 95
        1
302
GRIDFORMAT
  1
GRIDFORMAT_BEGIN
 90
        0
 91
        1
 62
     0
 92
       -2
340
14
 93
        0
 40
0.045
309
GRIDFORMAT_END
 95
        2
302
GRIDFORMAT
  1
GRIDFORMAT_BEGIN
 90
        0
 91
        1
 62
     0
 92
       -2
340
14
 93
        0
 40
0.045
309
GRIDFORMAT_END
 95
        4
302
GRIDFORMAT
  1
GRIDFORMAT_BEGIN
 90
        0
 91
        1
 62
     0
 92
       -2
340
14
 93
        0
 40
0.045
309
GRIDFORMAT_END
 95
        8
302
GRIDFORMAT
  1
GRIDFORMAT_BEGIN
 90
        0
 91
        1
 62
     0
 92
       -2
340
14
 93
        0
 40
0.045
309
GRIDFORMAT_END
 95
       16
302
GRIDFORMAT
  1
GRIDFORMAT_BEGIN
 90
        0
 91
        1
 62
     0
 92
       -2
340
14
 93
        0
 40
0.045
309
GRIDFORMAT_END
 95
       32
302
GRIDFORMAT
  1
GRIDFORMAT_BEGIN
 90
        0
 91
        1
 62
     0
 92
       -2
340
14
 93
        0
 40
0.045
309
GRIDFORMAT_END
309
TABLEFORMAT_END
  1
CELLSTYLE_BEGIN
 90
        2
 91
        1
300
_HEADER
309
CELLSTYLE_END
300
CELLSTYLE
  1
TABLEFORMAT_BEGIN
 90
        5
170
     1
 91
        0
 92
        0
 62
   257
 93
        1
300
CONTENTFORMAT
  1
CONTENTFORMAT_BEGIN
 90
        0
 91
        0
 92
        4
 93
        0
300

 40
0.0
140
1.0
 94
        2
 62
     0
340
11
144
4.5
309
CONTENTFORMAT_END
171
     1
301
MARGIN
  1
CELLMARGIN_BEGIN
 40
1.5
 40
1.5
 40
1.5
 40
1.5
 40
1.5
 40
1.5
309
CELLMARGIN_END
 94
        6
 95
        1
302
GRIDFORMAT
  1
GRIDFORMAT_BEGIN
 90
        0
 91
        1
 62
     0
 92
       -2
340
14
 93
        0
 40
0.045
309
GRIDFORMAT_END
 95
        2
302
GRIDFORMAT
  1
GRIDFORMAT_BEGIN
 90
        0
 91
        1
 62
     0
 92
       -2
340
14
 93
        0
 40
0.045
309
GRIDFORMAT_END
 95
        4
302
GRIDFORMAT
  1
GRIDFORMAT_BEGIN
 90
        0
 91
        1
 62
     0
 92
       -2
340
14
 93
        0
 40
0.045
309
GRIDFORMAT_END
 95
        8
302
GRIDFORMAT
  1
GRIDFORMAT_BEGIN
 90
        0
 91
        1
 62
     0
 92
       -2
340
14
 93
        0
 40
0.045
309
GRIDFORMAT_END
 95
       16
302
GRIDFORMAT
  1
GRIDFORMAT_BEGIN
 90
        0
 91
        1
 62
     0
 92
       -2
340
14
 93
        0
 40
0.045
309
GRIDFORMAT_END
 95
       32
302
GRIDFORMAT
  1
GRIDFORMAT_BEGIN
 90
        0
 91
        1
 62
     0
 92
       -2
340
14
 93
        0
 40
0.045
309
GRIDFORMAT_END
309
TABLEFORMAT_END
  1
CELLSTYLE_BEGIN
 90
        3
 91
        2
300
_DATA
309
CELLSTYLE_END
  0
ENDSEC
  0
EOF
