  0
SECTION
  2
HEADER
  9
$ACADVER
  1
AC1032
  9
$ACADMAINTVER
 90
        4
  9
$DWGCODEPAGE
  3
ANSI_932
  9
$LASTSAVEDBY
  1
mizuki.kobayashi
  9
$REQUIREDVERSIONS
160
                 0
  9
$INSBASE
 10
0.0
 20
0.0
 30
0.0
  9
$EXTMIN
 10
-2100.0
 20
-1485.0
 30
0.0
  9
$EXTMAX
 10
2100.0
 20
1485.0
 30
0.0
  9
$LIMMIN
 10
-2100.0
 20
-1485.0
  9
$LIMMAX
 10
2100.0
 20
1485.0
  9
$ORTHOMODE
 70
     0
  9
$REGENMODE
 70
     1
  9
$FILLMODE
 70
     1
  9
$QTEXTMODE
 70
     0
  9
$MIRRTEXT
 70
     1
  9
$LTSCALE
 40
10.0
  9
$ATTMODE
 70
     1
  9
$TEXTSIZE
 40
2.5
  9
$TRACEWID
 40
1.0
  9
$TEXTSTYLE
  7
Standard
  9
$CLAYER
  8
0
  9
$CELTYPE
  6
ByLayer
  9
$CECOLOR
 62
   256
  9
$CELTSCALE
 40
1.0
  9
$DISPSILH
 70
     0
  9
$DIMSCALE
 40
1.0
  9
$DIMASZ
 40
2.5
  9
$DIMEXO
 40
0.625
  9
$DIMDLI
 40
3.75
  9
$DIMRND
 40
0.0
  9
$DIMDLE
 40
0.0
  9
$DIMEXE
 40
1.25
  9
$DIMTP
 40
0.0
  9
$DIMTM
 40
0.0
  9
$DIMTXT
 40
2.5
  9
$DIMCEN
 40
2.5
  9
$DIMTSZ
 40
0.0
  9
$DIMTOL
 70
     0
  9
$DIMLIM
 70
     0
  9
$DIMTIH
 70
     0
  9
$DIMTOH
 70
     0
  9
$DIMSE1
 70
     0
  9
$DIMSE2
 70
     0
  9
$DIMTAD
 70
     1
  9
$DIMZIN
 70
     8
  9
$DIMBLK
  1

  9
$DIMASO
 70
     1
  9
$DIMSHO
 70
     1
  9
$DIMPOST
  1

  9
$DIMAPOST
  1

  9
$DIMALT
 70
     0
  9
$DIMALTD
 70
     3
  9
$DIMALTF
 40
0.03937007874016
  9
$DIMLFAC
 40
1.0
  9
$DIMTOFL
 70
     1
  9
$DIMTVP
 40
0.0
  9
$DIMTIX
 70
     0
  9
$DIMSOXD
 70
     0
  9
$DIMSAH
 70
     0
  9
$DIMBLK1
  1

  9
$DIMBLK2
  1

  9
$DIMSTYLE
  2
ISO-25
  9
$DIMCLRD
 70
     0
  9
$DIMCLRE
 70
     0
  9
$DIMCLRT
 70
     0
  9
$DIMTFAC
 40
1.0
  9
$DIMGAP
 40
0.625
  9
$DIMJUST
 70
     0
  9
$DIMSD1
 70
     0
  9
$DIMSD2
 70
     0
  9
$DIMTOLJ
 70
     0
  9
$DIMTZIN
 70
     8
  9
$DIMALTZ
 70
     0
  9
$DIMALTTZ
 70
     0
  9
$DIMUPT
 70
     0
  9
$DIMDEC
 70
     2
  9
$DIMTDEC
 70
     2
  9
$DIMALTU
 70
     2
  9
$DIMALTTD
 70
     3
  9
$DIMTXSTY
  7
Standard
  9
$DIMAUNIT
 70
     0
  9
$DIMADEC
 70
     0
  9
$DIMALTRND
 40
0.0
  9
$DIMAZIN
 70
     0
  9
$DIMDSEP
 70
    44
  9
$DIMATFIT
 70
     3
  9
$DIMFRAC
 70
     0
  9
$DIMLDRBLK
  1

  9
$DIMLUNIT
 70
     2
  9
$DIMLWD
 70
    -2
  9
$DIMLWE
 70
    -2
  9
$DIMTMOVE
 70
     0
  9
$DIMFXL
 40
1.0
  9
$DIMFXLON
 70
     0
  9
$DIMJOGANG
 40
0.7853981633974483
  9
$DIMTFILL
 70
     0
  9
$DIMTFILLCLR
 70
     0
  9
$DIMARCSYM
 70
     0
  9
$DIMLTYPE
  6

  9
$DIMLTEX1
  6

  9
$DIMLTEX2
  6

  9
$DIMTXTDIRECTION
 70
     0
  9
$LUNITS
 70
     2
  9
$LUPREC
 70
     4
  9
$SKETCHINC
 40
1.0
  9
$FILLETRAD
 40
10.0
  9
$AUNITS
 70
     0
  9
$AUPREC
 70
     0
  9
$MENU
  1
.
  9
$ELEVATION
 40
0.0
  9
$PELEVATION
 40
0.0
  9
$THICKNESS
 40
0.0
  9
$LIMCHECK
 70
     0
  9
$CHAMFERA
 40
0.0
  9
$CHAMFERB
 40
0.0
  9
$CHAMFERC
 40
0.0
  9
$CHAMFERD
 40
0.0
  9
$SKPOLY
 70
     0
  9
$TDCREATE
 40
2459192.417459224
  9
$TDUCREATE
 40
2459192.042459224
  9
$TDUPDATE
 40
2459192.417459305
  9
$TDUUPDATE
 40
2459192.042459305
  9
$TDINDWG
 40
0.0000000116
  9
$TDUSRTIMER
 40
0.0000000116
  9
$USRTIMER
 70
     1
  9
$ANGBASE
 50
0.0
  9
$ANGDIR
 70
     0
  9
$PDMODE
 70
     0
  9
$PDSIZE
 40
0.0
  9
$PLINEWID
 40
0.0
  9
$SPLFRAME
 70
     0
  9
$SPLINETYPE
 70
     6
  9
$SPLINESEGS
 70
     8
  9
$HANDSEED
  5
269
  9
$SURFTAB1
 70
     6
  9
$SURFTAB2
 70
     6
  9
$SURFTYPE
 70
     6
  9
$SURFU
 70
     6
  9
$SURFV
 70
     6
  9
$UCSBASE
  2

  9
$UCSNAME
  2

  9
$UCSORG
 10
0.0
 20
0.0
 30
0.0
  9
$UCSXDIR
 10
1.0
 20
0.0
 30
0.0
  9
$UCSYDIR
 10
0.0
 20
1.0
 30
0.0
  9
$UCSORTHOREF
  2

  9
$UCSORTHOVIEW
 70
     0
  9
$UCSORGTOP
 10
0.0
 20
0.0
 30
0.0
  9
$UCSORGBOTTOM
 10
0.0
 20
0.0
 30
0.0
  9
$UCSORGLEFT
 10
0.0
 20
0.0
 30
0.0
  9
$UCSORGRIGHT
 10
0.0
 20
0.0
 30
0.0
  9
$UCSORGFRONT
 10
0.0
 20
0.0
 30
0.0
  9
$UCSORGBACK
 10
0.0
 20
0.0
 30
0.0
  9
$PUCSBASE
  2

  9
$PUCSNAME
  2

  9
$PUCSORG
 10
0.0
 20
0.0
 30
0.0
  9
$PUCSXDIR
 10
1.0
 20
0.0
 30
0.0
  9
$PUCSYDIR
 10
0.0
 20
1.0
 30
0.0
  9
$PUCSORTHOREF
  2

  9
$PUCSORTHOVIEW
 70
     0
  9
$PUCSORGTOP
 10
0.0
 20
0.0
 30
0.0
  9
$PUCSORGBOTTOM
 10
0.0
 20
0.0
 30
0.0
  9
$PUCSORGLEFT
 10
0.0
 20
0.0
 30
0.0
  9
$PUCSORGRIGHT
 10
0.0
 20
0.0
 30
0.0
  9
$PUCSORGFRONT
 10
0.0
 20
0.0
 30
0.0
  9
$PUCSORGBACK
 10
0.0
 20
0.0
 30
0.0
  9
$USERI1
 70
     0
  9
$USERI2
 70
     0
  9
$USERI3
 70
     0
  9
$USERI4
 70
     0
  9
$USERI5
 70
     0
  9
$USERR1
 40
0.0
  9
$USERR2
 40
0.0
  9
$USERR3
 40
0.0
  9
$USERR4
 40
0.0
  9
$USERR5
 40
0.0
  9
$WORLDVIEW
 70
     1
  9
$SHADEDGE
 70
     3
  9
$SHADEDIF
 70
    70
  9
$TILEMODE
 70
     1
  9
$MAXACTVP
 70
    64
  9
$PINSBASE
 10
0.0
 20
0.0
 30
0.0
  9
$PLIMCHECK
 70
     0
  9
$PEXTMIN
 10
1.000000000000000E+20
 20
1.000000000000000E+20
 30
1.000000000000000E+20
  9
$PEXTMAX
 10
-1.000000000000000E+20
 20
-1.000000000000000E+20
 30
-1.000000000000000E+20
  9
$PLIMMIN
 10
0.0
 20
0.0
  9
$PLIMMAX
 10
420.0
 20
297.0
  9
$UNITMODE
 70
     0
  9
$VISRETAIN
 70
     1
  9
$PLINEGEN
 70
     0
  9
$PSLTSCALE
 70
     1
  9
$TREEDEPTH
 70
  3020
  9
$CMLSTYLE
  2
Standard
  9
$CMLJUST
 70
     0
  9
$CMLSCALE
 40
20.0
  9
$PROXYGRAPHICS
 70
     1
  9
$MEASUREMENT
 70
     1
  9
$CELWEIGHT
370
    -1
  9
$ENDCAPS
280
     0
  9
$JOINSTYLE
280
     0
  9
$LWDISPLAY
290
     0
  9
$INSUNITS
 70
     4
  9
$HYPERLINKBASE
  1

  9
$STYLESHEET
  1

  9
$XEDIT
290
     1
  9
$CEPSNTYPE
380
     0
  9
$PSTYLEMODE
290
     1
  9
$FINGERPRINTGUID
  2
{d6e69eef-bbb3-4dab-912e-025b052bd942}
  9
$VERSIONGUID
  2
{FAEB1C32-E019-11D5-929B-00C0DF256EC4}
  9
$EXTNAMES
290
     1
  9
$PSVPSCALE
 40
0.0
  9
$OLESTARTUP
290
     0
  9
$SORTENTS
280
   127
  9
$INDEXCTL
280
     0
  9
$HIDETEXT
280
     1
  9
$XCLIPFRAME
280
     2
  9
$HALOGAP
280
     0
  9
$OBSCOLOR
 70
   257
  9
$OBSLTYPE
280
     0
  9
$INTERSECTIONDISPLAY
280
     0
  9
$INTERSECTIONCOLOR
 70
   257
  9
$DIMASSOC
280
     2
  9
$PROJECTNAME
  1

  9
$CAMERADISPLAY
290
     0
  9
$LENSLENGTH
 40
50.0
  9
$CAMERAHEIGHT
 40
0.0
  9
$STEPSPERSEC
 40
2.0
  9
$STEPSIZE
 40
6.0
  9
$3DDWFPREC
 40
2.0
  9
$PSOLWIDTH
 40
5.0
  9
$PSOLHEIGHT
 40
80.0
  9
$LOFTANG1
 40
1.570796326794897
  9
$LOFTANG2
 40
1.570796326794897
  9
$LOFTMAG1
 40
0.0
  9
$LOFTMAG2
 40
0.0
  9
$LOFTPARAM
 70
     7
  9
$LOFTNORMALS
280
     1
  9
$LATITUDE
 40
37.795
  9
$LONGITUDE
 40
-122.394
  9
$NORTHDIRECTION
 40
0.0
  9
$TIMEZONE
 70
 -8000
  9
$LIGHTGLYPHDISPLAY
280
     1
  9
$TILEMODELIGHTSYNCH
280
     1
  9
$CMATERIAL
347
44
  9
$SOLIDHIST
280
     0
  9
$SHOWHIST
280
     1
  9
$DWFFRAME
280
     2
  9
$DGNFRAME
280
     2
  9
$REALWORLDSCALE
290
     1
  9
$INTERFERECOLOR
 62
   256
  9
$CSHADOW
280
     0
  9
$SHADOWPLANELOCATION
 40
0.0
  0
ENDSEC
  0
SECTION
  2
CLASSES
  0
CLASS
  1
ACDBDICTIONARYWDFLT
  2
AcDbDictionaryWithDefault
  3
ObjectDBX Classes
 90
        0
 91
        3
280
     0
281
     0
  0
CLASS
  1
VISUALSTYLE
  2
AcDbVisualStyle
  3
ObjectDBX Classes
 90
     4095
 91
        3
280
     0
281
     0
  0
CLASS
  1
MATERIAL
  2
AcDbMaterial
  3
ObjectDBX Classes
 90
     1153
 91
        3
280
     0
281
     0
  0
CLASS
  1
SCALE
  2
AcDbScale
  3
ObjectDBX Classes
 90
     1153
 91
        3
280
     0
281
     0
  0
CLASS
  1
TABLESTYLE
  2
AcDbTableStyle
  3
ObjectDBX Classes
 90
     4095
 91
        3
280
     0
281
     0
  0
CLASS
  1
MLEADERSTYLE
  2
AcDbMLeaderStyle
  3
ACDB_MLEADERSTYLE_CLASS
 90
     4095
 91
        3
280
     0
281
     0
  0
CLASS
  1
SUN
  2
AcDbSun
  3
SCENEOE
 90
     1153
 91
        3
280
     0
281
     0
  0
CLASS
  1
DICTIONARYVAR
  2
AcDbDictionaryVar
  3
ObjectDBX Classes
 90
        0
 91
        3
280
     0
281
     0
  0
CLASS
  1
CELLSTYLEMAP
  2
AcDbCellStyleMap
  3
ObjectDBX Classes
 90
     1152
 91
        3
280
     0
281
     0
  0
ENDSEC
  0
SECTION
  2
TABLES
  0
TABLE
  2
VPORT
  5
8
330
0
100
AcDbSymbolTable
 70
     1
  0
VPORT
  5
29
330
8
100
AcDbSymbolTableRecord
100
AcDbViewportTableRecord
  2
*Active
 70
     0
 10
0.0
 20
0.0
 11
1.0
 21
1.0
 12
0.0
 22
0.0
 13
0.0
 23
0.0
 14
10.0
 24
10.0
 15
10.0
 25
10.0
 16
0.0
 26
0.0
 36
1.0
 17
0.0
 27
0.0
 37
0.0
 40
3267.0
 41
1.414141414141414
 42
50.0
 43
0.0
 44
0.0
 50
0.0
 51
0.0
 71
     0
 72
 10000
 73
     1
 74
     3
 75
     0
 76
     0
 77
     0
 78
     0
281
     0
 65
     1
110
0.0
120
0.0
130
0.0
111
1.0
121
0.0
131
0.0
112
0.0
122
1.0
132
0.0
 79
     0
146
0.0
348
2F
 60
     3
 61
     5
292
     1
282
     1
141
0.0
142
0.0
 63
   250
361
6D
  0
ENDTAB
  0
TABLE
  2
LTYPE
  5
5
330
0
100
AcDbSymbolTable
 70
     5
  0
LTYPE
  5
14
330
5
100
AcDbSymbolTableRecord
100
AcDbLinetypeTableRecord
  2
ByBlock
 70
     0
  3

 72
    65
 73
     0
 40
0.0
  0
LTYPE
  5
15
330
5
100
AcDbSymbolTableRecord
100
AcDbLinetypeTableRecord
  2
ByLayer
 70
     0
  3

 72
    65
 73
     0
 40
0.0
  0
LTYPE
  5
16
330
5
100
AcDbSymbolTableRecord
100
AcDbLinetypeTableRecord
  2
Continuous
 70
     0
  3
Solid line
 72
    65
 73
     0
 40
0.0
  0
LTYPE
  5
6F
330
5
100
AcDbSymbolTableRecord
100
AcDbLinetypeTableRecord
  2
JWW_DASHED2
 70
     0
  3
--    ----    ----    ----    --
 72
    65
 73
     8
 40
13.54666666666667
 49
1.693333333333333
 74
     0
 49
-1.693333333333333
 74
     0
 49
1.693333333333333
 74
     0
 49
-1.693333333333333
 74
     0
 49
1.693333333333333
 74
     0
 49
-1.693333333333333
 74
     0
 49
1.693333333333333
 74
     0
 49
-1.693333333333333
 74
     0
  0
LTYPE
  5
70
330
5
100
AcDbSymbolTableRecord
100
AcDbLinetypeTableRecord
  2
JWW_CENTER1
 70
     0
  3
-----  --  ----------  --  -----
 72
    65
 73
     8
 40
13.54666666666667
 49
4.233333333333333
 74
     0
 49
-0.8466666666666667
 74
     0
 49
0.8466666666666667
 74
     0
 49
-0.8466666666666667
 74
     0
 49
4.233333333333333
 74
     0
 49
-0.8466666666666667
 74
     0
 49
0.8466666666666667
 74
     0
 49
-0.8466666666666667
 74
     0
  0
LTYPE
  5
71
330
5
100
AcDbSymbolTableRecord
100
AcDbLinetypeTableRecord
  2
JWW_CENTER2
 70
     0
  3
-------------  --  -------------
 72
    65
 73
     4
 40
13.54666666666667
 49
11.00666666666667
 74
     0
 49
-0.8466666666666667
 74
     0
 49
0.8466666666666667
 74
     0
 49
-0.8466666666666667
 74
     0
  0
LTYPE
  5
72
330
5
100
AcDbSymbolTableRecord
100
AcDbLinetypeTableRecord
  2
JWW_DASHED1
 70
     0
  3
-  --  --  --  --  --  --  --  -
 72
    65
 73
    12
 40
10.16
 49
0.8466666666666667
 74
     0
 49
-0.8466666666666667
 74
     0
 49
0.8466666666666667
 74
     0
 49
-0.8466666666666667
 74
     0
 49
0.8466666666666667
 74
     0
 49
-0.8466666666666667
 74
     0
 49
0.8466666666666667
 74
     0
 49
-0.8466666666666667
 74
     0
 49
0.8466666666666667
 74
     0
 49
-0.8466666666666667
 74
     0
 49
0.8466666666666667
 74
     0
 49
-0.8466666666666667
 74
     0
  0
ENDTAB
  0
TABLE
  2
LAYER
  5
2
330
0
100
AcDbSymbolTable
 70
     9
  0
LAYER
  5
10
330
2
100
AcDbSymbolTableRecord
100
AcDbLayerTableRecord
  2
0
 70
     0
 62
     7
  6
Continuous
370
    -3
390
F
347
46
348
0
  0
LAYER
  5
73
330
2
100
AcDbSymbolTableRecord
100
AcDbLayerTableRecord
  2
0-4_寸法
 70
     0
 62
     7
  6
Continuous
370
    -3
390
F
347
46
348
0
  0
LAYER
  5
74
330
2
100
AcDbSymbolTableRecord
100
AcDbLayerTableRecord
  2
1-E
 70
     0
 62
     7
  6
Continuous
370
    -3
390
F
347
46
348
0
  0
LAYER
  5
75
330
2
100
AcDbSymbolTableRecord
100
AcDbLayerTableRecord
  2
1-4_寸法
 70
     0
 62
     7
  6
Continuous
370
    -3
390
F
347
46
348
0
  0
LAYER
  5
76
330
2
100
AcDbSymbolTableRecord
100
AcDbLayerTableRecord
  2
F-5ﾚｲﾔ
 70
     0
 62
     7
  6
Continuous
370
    -3
390
F
347
46
348
0
  0
LAYER
  5
77
330
2
100
AcDbSymbolTableRecord
100
AcDbLayerTableRecord
  2
1-9
 70
     0
 62
     7
  6
Continuous
370
    -3
390
F
347
46
348
0
  0
LAYER
  5
78
330
2
100
AcDbSymbolTableRecord
100
AcDbLayerTableRecord
  2
1-A
 70
     0
 62
     7
  6
Continuous
370
    -3
390
F
347
46
348
0
  0
LAYER
  5
79
330
2
100
AcDbSymbolTableRecord
100
AcDbLayerTableRecord
  2
1-0_通り芯
 70
     0
 62
     7
  6
Continuous
370
    -3
390
F
347
46
348
0
  0
LAYER
  5
7A
330
2
100
AcDbSymbolTableRecord
100
AcDbLayerTableRecord
  2
1-8
 70
     0
 62
     7
  6
Continuous
370
    -3
390
F
347
46
348
0
  0
ENDTAB
  0
TABLE
  2
STYLE
  5
3
330
0
100
AcDbSymbolTable
 70
     2
  0
STYLE
  5
11
330
3
100
AcDbSymbolTableRecord
100
AcDbTextStyleTableRecord
  2
Standard
 70
     0
 40
0.0
 41
1.0
 50
0.0
 71
     0
 42
2.5
  3
txt
  4

  0
STYLE
  5
6E
330
3
100
AcDbSymbolTableRecord
100
AcDbTextStyleTableRecord
  2
ＭＳ ゴシック
 70
     0
 40
0.0
 41
1.0
 50
0.0
 71
     0
 42
2.5
  3

  4

1001
ACAD
1000
MS Gothic
1071
    32817
  0
ENDTAB
  0
TABLE
  2
VIEW
  5
6
330
0
100
AcDbSymbolTable
 70
     0
  0
ENDTAB
  0
TABLE
  2
UCS
  5
7
330
0
100
AcDbSymbolTable
 70
     0
  0
ENDTAB
  0
TABLE
  2
APPID
  5
9
330
0
100
AcDbSymbolTable
 70
     1
  0
APPID
  5
12
330
9
100
AcDbSymbolTableRecord
100
AcDbRegAppTableRecord
  2
ACAD
 70
     0
  0
ENDTAB
  0
TABLE
  2
DIMSTYLE
  5
A
330
0
100
AcDbSymbolTable
 70
     2
100
AcDbDimStyleTable
  0
DIMSTYLE
105
27
330
A
100
AcDbSymbolTableRecord
100
AcDbDimStyleTableRecord
  2
ISO-25
 70
     0
 41
2.5
 42
0.625
 43
3.75
 44
1.25
 73
     0
 74
     0
 77
     1
 78
     8
140
2.5
141
2.5
143
0.03937007874016
147
0.625
171
     3
172
     1
178
     0
271
     2
272
     2
274
     3
278
    44
283
     0
284
     8
340
11
  0
DIMSTYLE
105
7B
330
A
100
AcDbSymbolTableRecord
100
AcDbDimStyleTableRecord
  2
JWAC_DIMSTYLE
 70
     0
  3
x
  4
mm
 41
0.0
 42
0.625
 43
3.75
 44
1.25
 73
     0
 74
     0
 75
     1
 76
     1
 77
     1
 78
     8
140
2.5
141
2.5
143
0.03937007874016
147
0.625
171
     3
172
     1
173
     1
178
     0
271
     2
272
     2
274
     3
278
    32
283
     0
284
     8
340
11
371
     0
372
     0
  0
ENDTAB
  0
TABLE
  2
BLOCK_RECORD
  5
1
330
0
100
AcDbSymbolTable
 70
     1
  0
BLOCK_RECORD
  5
1F
330
1
100
AcDbSymbolTableRecord
100
AcDbBlockTableRecord
  2
*Model_Space
340
22
 70
     0
280
     1
281
     0
  0
BLOCK_RECORD
  5
1B
330
1
100
AcDbSymbolTableRecord
100
AcDbBlockTableRecord
  2
*Paper_Space
340
1E
 70
     0
280
     1
281
     0
  0
BLOCK_RECORD
  5
23
330
1
100
AcDbSymbolTableRecord
100
AcDbBlockTableRecord
  2
*Paper_Space0
340
26
 70
     0
280
     1
281
     0
  0
ENDTAB
  0
ENDSEC
  0
SECTION
  2
BLOCKS
  0
BLOCK
  5
20
330
1F
100
AcDbEntity
  8
0
100
AcDbBlockBegin
  2
*Model_Space
 70
     0
 10
0.0
 20
0.0
 30
0.0
  3
*Model_Space
  1

  0
ENDBLK
  5
21
330
1F
100
AcDbEntity
  8
0
100
AcDbBlockEnd
  0
BLOCK
  5
1C
330
1B
100
AcDbEntity
 67
     1
  8
0
100
AcDbBlockBegin
  2
*Paper_Space
 70
     0
 10
0.0
 20
0.0
 30
0.0
  3
*Paper_Space
  1

  0
ENDBLK
  5
1D
330
1B
100
AcDbEntity
 67
     1
  8
0
100
AcDbBlockEnd
  0
BLOCK
  5
24
330
23
100
AcDbEntity
  8
0
100
AcDbBlockBegin
  2
*Paper_Space0
 70
     0
 10
0.0
 20
0.0
 30
0.0
  3
*Paper_Space0
  1

  0
ENDBLK
  5
25
330
23
100
AcDbEntity
  8
0
100
AcDbBlockEnd
  0
ENDSEC
  0
SECTION
  2
ENTITIES
  0
SOLID
  5
7C
330
1F
100
AcDbEntity
  8
0-4_寸法
  6
Continuous
 62
     4
370
     9
100
AcDbTrace
 10
403.451824574268
 20
984.9070994076121
 30
0.0
 11
406.9873584802008
 21
988.4426333135448
 31
0.0
 12
438.8071636335951
 22
949.5517603482847
 32
0.0
 13
442.3426975395279
 23
953.0872942542175
 33
0.0
  0
SOLID
  5
7D
330
1F
100
AcDbEntity
  8
0-4_寸法
  6
Continuous
 62
     4
370
     9
100
AcDbTrace
 10
613.6102726737852
 20
774.7486513080935
 30
0.0
 11
617.1458065797179
 21
778.2841852140263
 31
0.0
 12
648.9656117331123
 22
739.393312248766
 32
0.0
 13
652.501145639045
 23
742.9288461546989
 33
0.0
  0
ARC
  5
7E
330
1F
100
AcDbEntity
  8
0-4_寸法
  6
Continuous
 62
     2
370
     9
100
AcDbCircle
 10
1397.411784170927
 20
890.1506448539577
 30
0.0
 40
15.83333112098075
100
AcDbArc
 50
195.0002288818359
 51
14.9990997314453
  0
CIRCLE
  5
7F
330
1F
100
AcDbEntity
  8
0-4_寸法
  6
Continuous
 62
     2
370
     9
100
AcDbCircle
 10
1397.412237761129
 20
890.1508096296435
 30
0.0
 40
15.83333333333333
  0
CIRCLE
  5
80
330
1F
100
AcDbEntity
  8
0-4_寸法
  6
Continuous
 62
     2
370
     9
100
AcDbCircle
 10
1397.4206507151
 20
890.1191373323463
 30
0.0
 40
15.83336205095858
  0
LINE
  5
81
330
1F
100
AcDbEntity
  8
1-E
  6
Continuous
 62
     2
370
     9
100
AcDbLine
 10
-1011.147493929476
 20
-237.894386085304
 30
0.0
 11
-1011.147493929476
 21
-172.8951613967482
 31
0.0
  0
LINE
  5
82
330
1F
100
AcDbEntity
  8
1-E
  6
Continuous
 62
     2
370
     9
100
AcDbLine
 10
-1011.147493929476
 20
-172.8951613967482
 30
0.0
 11
-388.3931752797719
 21
-172.8951613967482
 31
0.0
  0
LINE
  5
83
330
1F
100
AcDbEntity
  8
1-E
  6
Continuous
 62
     2
370
     9
100
AcDbLine
 10
-388.3931752797719
 20
-172.8951613967482
 30
0.0
 11
-388.3931752797719
 21
-237.894386085304
 31
0.0
  0
LINE
  5
84
330
1F
100
AcDbEntity
  8
1-E
  6
Continuous
 62
     2
370
     9
100
AcDbLine
 10
-388.3931752797719
 20
-237.894386085304
 30
0.0
 11
-1011.147493929476
 21
-237.894386085304
 31
0.0
  0
TEXT
  5
85
330
1F
100
AcDbEntity
  8
1-E
  6
Continuous
 62
     2
370
     0
100
AcDbText
 10
-978.520334604624
 20
-219.7547160050675
 30
0.0
 40
30.48
  1
Ａ－Ａ'断面図　Ｓ＝１：２
 41
1.115
  7
ＭＳ ゴシック
100
AcDbText
  0
LINE
  5
86
330
1F
100
AcDbEntity
  8
0-4_寸法
  6
Continuous
 62
     2
370
     9
100
AcDbLine
 10
723.93585490334
 20
-494.4112911739865
 30
0.0
 11
723.93585490334
 21
-429.4119427655194
 31
0.0
  0
LINE
  5
87
330
1F
100
AcDbEntity
  8
0-4_寸法
  6
Continuous
 62
     2
370
     9
100
AcDbLine
 10
723.93585490334
 20
-429.4119427655194
 30
0.0
 11
1189.662140270739
 21
-429.4119427655194
 31
0.0
  0
LINE
  5
88
330
1F
100
AcDbEntity
  8
0-4_寸法
  6
Continuous
 62
     2
370
     9
100
AcDbLine
 10
1189.662140270739
 20
-429.4119427655194
 30
0.0
 11
1189.662140270739
 21
-494.4112911739865
 31
0.0
  0
LINE
  5
89
330
1F
100
AcDbEntity
  8
0-4_寸法
  6
Continuous
 62
     2
370
     9
100
AcDbLine
 10
1189.662140270739
 20
-494.4112911739865
 30
0.0
 11
723.93585490334
 21
-494.4112911739865
 31
0.0
  0
TEXT
  5
8A
330
1F
100
AcDbEntity
  8
0-4_寸法
  6
Continuous
 62
     2
370
     0
100
AcDbText
 10
756.7988738671281
 20
-476.27162109375
 30
0.0
 40
30.48
  1
平面図　Ｓ＝１：６
 41
1.111111111111111
  7
ＭＳ ゴシック
100
AcDbText
  0
LINE
  5
8B
330
1F
100
AcDbEntity
  8
1-4_寸法
  6
Continuous
 62
     2
370
     9
100
AcDbLine
 10
-661.883602642152
 20
765.4726513012037
 30
0.0
 11
-689.383602642152
 21
765.4726513012037
 31
0.0
  0
LINE
  5
8C
330
1F
100
AcDbEntity
  8
1-4_寸法
  6
Continuous
 62
     2
370
     9
100
AcDbLine
 10
-529.383602642152
 20
670.4726513012037
 30
0.0
 11
-551.883602642152
 21
670.4726513012037
 31
0.0
  0
LINE
  5
8D
330
1F
100
AcDbEntity
  8
1-4_寸法
  6
Continuous
 62
     2
370
     9
100
AcDbLine
 10
-726.883602642152
 20
542.9726513012042
 30
0.0
 11
-736.883602642152
 21
547.9726513012037
 31
0.0
  0
LINE
  5
8E
330
1F
100
AcDbEntity
  8
1-4_寸法
  6
Continuous
 62
     2
370
     9
100
AcDbLine
 10
-700.5578882154812
 20
566.5703680959388
 30
0.0
 11
-689.383602642152
 21
765.4726513012037
 31
0.0
  0
ARC
  5
8F
330
1F
100
AcDbEntity
  8
1-4_寸法
  6
Continuous
 62
     2
370
     9
100
AcDbCircle
 10
-725.5185292691932
 20
567.9726513012037
 30
0.0
 40
25.0
100
AcDbArc
 50
270.0
 51
356.7845160082519
  0
LINE
  5
90
330
1F
100
AcDbEntity
  8
1-4_寸法
  6
Continuous
 62
     2
370
     9
100
AcDbLine
 10
-648.4556312056209
 20
566.291074992651
 30
0.0
 11
-661.883602642152
 21
765.4726513012037
 31
0.0
  0
ARC
  5
91
330
1F
100
AcDbEntity
  8
1-4_寸法
  6
Continuous
 62
     2
370
     9
100
AcDbCircle
 10
-623.5122492954123
 20
567.9726513012037
 30
0.0
 40
25.0
100
AcDbArc
 50
183.8568009855898
 51
270.0
  0
LINE
  5
92
330
1F
100
AcDbEntity
  8
1-4_寸法
  6
Continuous
 62
     2
370
     9
100
AcDbLine
 10
-582.956229650867
 20
542.9726513012042
 30
0.0
 11
-623.5122492954123
 21
542.9726513012042
 31
0.0
  0
LINE
  5
93
330
1F
100
AcDbEntity
  8
1-4_寸法
  6
Continuous
 62
     2
370
     9
100
AcDbLine
 10
-557.9993703214923
 20
566.5046007524171
 30
0.0
 11
-551.883602642152
 21
670.4726513012037
 31
0.0
  0
ARC
  5
94
330
1F
100
AcDbEntity
  8
1-4_寸法
  6
Continuous
 62
     2
370
     9
100
AcDbCircle
 10
-582.956229650867
 20
567.9726513012037
 30
0.0
 40
25.0
100
AcDbArc
 50
270.0
 51
356.6335393365703
  0
ARC
  5
95
330
1F
100
AcDbEntity
  8
1-4_寸法
  6
Continuous
 62
     2
370
     9
100
AcDbCircle
 10
-714.800513674556
 20
580.4726513012042
 30
0.0
 40
15.0
100
AcDbArc
 50
270.0
 51
356.7845160082515
  0
LINE
  5
96
330
1F
100
AcDbEntity
  8
1-4_寸法
  6
Continuous
 62
     2
370
     9
100
AcDbLine
 10
-725.5185292691932
 20
542.9726513012042
 30
0.0
 11
-726.883602642152
 21
542.9726513012042
 31
0.0
  0
LINE
  5
97
330
1F
100
AcDbEntity
  8
1-4_寸法
  6
Continuous
 62
     2
370
     9
100
AcDbLine
 10
-714.800513674556
 20
565.4726513012042
 30
0.0
 11
-861.883602642152
 21
565.4726513012042
 31
0.0
  0
LINE
  5
98
330
1F
100
AcDbEntity
  8
1-4_寸法
  6
JWW_DASHED2
 62
     2
370
     9
100
AcDbLine
 10
-825.6777768448599
 20
559.4435223147406
 30
0.0
 11
-816.8836026421526
 21
515.4726513012037
 31
0.0
  0
ARC
  5
99
330
1F
100
AcDbEntity
  8
1-4_寸法
  6
JWW_DASHED2
 62
     2
370
     9
100
AcDbCircle
 10
-833.0321319125416
 20
557.9726513012031
 30
0.0
 40
7.5
100
AcDbArc
 50
11.30993247401915
 51
90.0
  0
ARC
  5
9A
330
1F
100
AcDbEntity
  8
1-4_寸法
  6
JWW_DASHED2
 62
     2
370
     9
100
AcDbCircle
 10
-740.7350733717631
 20
557.9726513012031
 30
0.0
 40
7.5
100
AcDbArc
 50
90.0
 51
168.6900675259809
  0
LINE
  5
9B
330
1F
100
AcDbEntity
  8
1-4_寸法
  6
JWW_DASHED2
 62
     2
370
     9
100
AcDbLine
 10
-756.883602642152
 20
515.4726513012037
 30
0.0
 11
-748.0894284394453
 21
559.4435223147406
 31
0.0
  0
LINE
  5
9C
330
1F
100
AcDbEntity
  8
1-4_寸法
  6
Continuous
 62
     2
370
     9
100
AcDbLine
 10
-861.883602642152
 20
565.4726513012042
 30
0.0
 11
-871.8836026421526
 21
515.4726513012037
 31
0.0
  0
LINE
  5
9D
330
1F
100
AcDbEntity
  8
1-4_寸法
  6
Continuous
 62
     4
370
     9
100
AcDbLine
 10
-841.6336224373383
 20
458.6020722260346
 30
0.0
 11
-841.6336224373383
 21
502.9727337811445
 31
0.0
  0
LINE
  5
9E
330
1F
100
AcDbEntity
  8
1-4_寸法
  6
Continuous
 62
     4
370
     9
100
AcDbLine
 10
-841.6336224373383
 20
502.9727337811445
 30
0.0
 11
-732.1335828469666
 21
502.9727337811445
 31
0.0
  0
LINE
  5
9F
330
1F
100
AcDbEntity
  8
1-4_寸法
  6
Continuous
 62
     4
370
     9
100
AcDbLine
 10
-732.1335828469666
 20
458.6020722260346
 30
0.0
 11
-732.1335828469666
 21
502.9727337811445
 31
0.0
  0
LINE
  5
A0
330
1F
100
AcDbEntity
  8
1-4_寸法
  6
Continuous
 62
     4
370
     9
100
AcDbLine
 10
-814.2096194548635
 20
458.6020722260346
 30
0.0
 11
-814.2096194548635
 21
502.9727337811445
 31
0.0
  0
LINE
  5
A1
330
1F
100
AcDbEntity
  8
1-4_寸法
  6
Continuous
 62
     4
370
     9
100
AcDbLine
 10
-759.5575858294415
 20
458.6020722260346
 30
0.0
 11
-759.5575858294415
 21
502.9727337811445
 31
0.0
  0
LINE
  5
A2
330
1F
100
AcDbEntity
  8
1-4_寸法
  6
Continuous
 62
     4
370
     9
100
AcDbLine
 10
-827.9214972261896
 20
452.9728162610854
 30
0.0
 11
-745.8457080581154
 21
452.9728162610854
 31
0.0
  0
LINE
  5
A3
330
1F
100
AcDbEntity
  8
1-4_寸法
  6
Continuous
 62
     6
370
     5
100
AcDbLine
 10
-846.883553154188
 20
502.9727337811445
 30
0.0
 11
-846.883553154188
 21
515.4726513012037
 31
0.0
  0
LINE
  5
A4
330
1F
100
AcDbEntity
  8
1-4_寸法
  6
Continuous
 62
     6
370
     5
100
AcDbLine
 10
-726.8835284102057
 20
502.9727337811445
 30
0.0
 11
-732.1335828469666
 21
502.9727337811445
 31
0.0
  0
LINE
  5
A5
330
1F
100
AcDbEntity
  8
1-4_寸法
  6
Continuous
 62
     6
370
     5
100
AcDbLine
 10
-841.6336224373383
 20
502.9727337811445
 30
0.0
 11
-846.883553154188
 21
502.9727337811445
 31
0.0
  0
LINE
  5
A6
330
1F
100
AcDbEntity
  8
1-4_寸法
  6
Continuous
 62
     7
370
     9
100
AcDbLine
 10
-846.8834294342765
 20
320.998807340055
 30
0.0
 11
-726.8835284102057
 21
353.1527462521115
 31
0.0
  0
LINE
  5
A7
330
1F
100
AcDbEntity
  8
1-4_寸法
  6
Continuous
 62
     7
370
     9
100
AcDbLine
 10
-846.8834294342765
 20
300.2931667018581
 30
0.0
 11
-726.8835284102057
 21
332.4471056139149
 31
0.0
  0
LINE
  5
A8
330
1F
100
AcDbEntity
  8
1-4_寸法
  6
Continuous
 62
     7
370
     9
100
AcDbLine
 10
-1080.885290181743
 20
1027.972610061233
 30
0.0
 11
-706.972664482313
 21
1027.972610061233
 31
0.0
  0
LINE
  5
A9
330
1F
100
AcDbEntity
  8
1-4_寸法
  6
Continuous
 62
     7
370
     9
100
AcDbLine
 10
-841.6336224373383
 20
502.9727337811445
 30
0.0
 11
-856.8526561683349
 21
483.1388236380914
 31
0.0
  0
LINE
  5
AA
330
1F
100
AcDbEntity
  8
1-4_寸法
  6
Continuous
 62
     7
370
     9
100
AcDbLine
 10
-841.6336224373383
 20
502.9727337811445
 30
0.0
 11
-851.2007594596146
 21
479.8757109770904
 31
0.0
  0
LINE
  5
AB
330
1F
100
AcDbEntity
  8
1-4_寸法
  6
Continuous
 62
     7
370
     9
100
AcDbLine
 10
-841.6336224373383
 20
502.9727337811445
 30
0.0
 11
-910.9155355760629
 21
382.9727090371622
 31
0.0
  0
LINE
  5
AC
330
1F
100
AcDbEntity
  8
1-4_寸法
  6
Continuous
 62
     7
370
     9
100
AcDbLine
 10
-910.9155355760629
 20
382.9727090371622
 30
0.0
 11
-1433.306282646375
 21
382.9727090371622
 31
0.0
  0
LINE
  5
AD
330
1F
100
AcDbEntity
  8
1-4_寸法
  6
Continuous
 62
     3
370
     9
100
AcDbLine
 10
-756.8835036662234
 20
452.9728162610854
 30
0.0
 11
-756.8835036662234
 21
345.1142924540753
 31
0.0
  0
LINE
  5
AE
330
1F
100
AcDbEntity
  8
1-4_寸法
  6
Continuous
 62
     3
370
     9
100
AcDbLine
 10
-761.8835201622118
 20
452.9728162610854
 30
0.0
 11
-761.8835201622118
 21
343.7745295344175
 31
0.0
  0
LINE
  5
AF
330
1F
100
AcDbEntity
  8
1-4_寸法
  6
Continuous
 62
     3
370
     9
100
AcDbLine
 10
-811.8834376822708
 20
452.9728162610854
 30
0.0
 11
-811.8834376822708
 21
330.3770240577492
 31
0.0
  0
LINE
  5
B0
330
1F
100
AcDbEntity
  8
1-4_寸法
  6
Continuous
 62
     3
370
     9
100
AcDbLine
 10
-816.8834541782588
 20
452.9728162610854
 30
0.0
 11
-816.8834541782588
 21
329.0372611380914
 31
0.0
  0
ARC
  5
B1
330
1F
100
AcDbEntity
  8
1-4_寸法
  6
Continuous
 62
     4
370
     9
100
AcDbCircle
 10
-827.9214972261896
 20
472.4879001926732
 30
0.0
 40
19.51515159091434
100
AcDbArc
 50
225.3610382080078
 51
314.6387023925781
  0
ARC
  5
B2
330
1F
100
AcDbEntity
  8
1-4_寸法
  6
Continuous
 62
     4
370
     9
100
AcDbCircle
 10
-786.8836026421524
 20
522.1122040619721
 30
0.0
 40
69.13950378830368
100
AcDbArc
 50
246.7196960449219
 51
293.2801971435547
  0
ARC
  5
B3
330
1F
100
AcDbEntity
  8
1-4_寸法
  6
Continuous
 62
     4
370
     9
100
AcDbCircle
 10
-745.8457080581154
 20
472.4879001926732
 30
0.0
 40
19.51530430767987
100
AcDbArc
 50
225.36181640625
 51
314.6387023925781
  0
TEXT
  5
B4
330
1F
100
AcDbEntity
  8
1-4_寸法
  6
Continuous
 62
     7
370
     0
100
AcDbText
 10
-1065.553287799722
 20
1040.668516152872
 30
0.0
 40
22.86
  1
養生材：ポリエチレン
 41
1.15
  7
ＭＳ ゴシック
100
AcDbText
  0
TEXT
  5
B5
330
1F
100
AcDbEntity
  8
1-4_寸法
  6
Continuous
 62
     6
370
     0
100
AcDbText
 10
-1433.306293368768
 20
347.2993260399073
 30
0.0
 40
22.86
  1
六角ナット：ＳＳ４００，電気亜鉛めっき
 41
0.896491228070175
  7
ＭＳ ゴシック
100
AcDbText
  0
TEXT
  5
B6
330
1F
100
AcDbEntity
  8
1-4_寸法
  6
Continuous
 62
     6
370
     0
100
AcDbText
 10
-1298.306441832661
 20
404.163595399599
 30
0.0
 40
22.86
  1
：ＳＳ４００，電気亜鉛めっき
 41
0.8952380952380955
  7
ＭＳ ゴシック
100
AcDbText
  0
TEXT
  5
B7
330
1F
100
AcDbEntity
  8
1-4_寸法
  6
Continuous
 62
     6
370
     0
100
AcDbText
 10
-1433.306273573582
 20
403.9316604308806
 30
0.0
 40
22.86
  1
平座金・・
 41
0.8866666666666674
  7
ＭＳ ゴシック
100
AcDbText
  0
LINE
  5
B8
330
1F
100
AcDbEntity
  8
1-4_寸法
  6
Continuous
 62
     4
370
     9
100
AcDbLine
 10
-841.6336224373383
 20
622.343230376373
 30
0.0
 11
-841.6336224373383
 21
577.9725688212634
 31
0.0
  0
LINE
  5
B9
330
1F
100
AcDbEntity
  8
1-4_寸法
  6
Continuous
 62
     4
370
     9
100
AcDbLine
 10
-841.6336224373383
 20
577.9725688212634
 30
0.0
 11
-732.1335828469666
 21
577.9725688212634
 31
0.0
  0
LINE
  5
BA
330
1F
100
AcDbEntity
  8
1-4_寸法
  6
Continuous
 62
     4
370
     9
100
AcDbLine
 10
-732.1335828469666
 20
622.343230376373
 30
0.0
 11
-732.1335828469666
 21
577.9725688212634
 31
0.0
  0
LINE
  5
BB
330
1F
100
AcDbEntity
  8
1-4_寸法
  6
Continuous
 62
     4
370
     9
100
AcDbLine
 10
-814.2096194548635
 20
622.343230376373
 30
0.0
 11
-814.2096194548635
 21
577.9725688212634
 31
0.0
  0
LINE
  5
BC
330
1F
100
AcDbEntity
  8
1-4_寸法
  6
Continuous
 62
     4
370
     9
100
AcDbLine
 10
-759.5575858294415
 20
622.343230376373
 30
0.0
 11
-759.5575858294415
 21
577.9725688212634
 31
0.0
  0
LINE
  5
BD
330
1F
100
AcDbEntity
  8
1-4_寸法
  6
Continuous
 62
     4
370
     9
100
AcDbLine
 10
-827.9214972261896
 20
627.9724863413225
 30
0.0
 11
-745.8457080581154
 21
627.9724863413225
 31
0.0
  0
LINE
  5
BE
330
1F
100
AcDbEntity
  8
1-4_寸法
  6
Continuous
 62
     6
370
     5
100
AcDbLine
 10
-846.883553154188
 20
577.9725688212634
 30
0.0
 11
-846.883553154188
 21
565.4726513012042
 31
0.0
  0
LINE
  5
BF
330
1F
100
AcDbEntity
  8
1-4_寸法
  6
Continuous
 62
     6
370
     5
100
AcDbLine
 10
-726.8835284102057
 20
577.9725688212634
 30
0.0
 11
-732.1335828469666
 21
577.9725688212634
 31
0.0
  0
LINE
  5
C0
330
1F
100
AcDbEntity
  8
1-4_寸法
  6
Continuous
 62
     6
370
     5
100
AcDbLine
 10
-841.6336224373383
 20
577.9725688212634
 30
0.0
 11
-846.883553154188
 21
577.9725688212634
 31
0.0
  0
ARC
  5
C1
330
1F
100
AcDbEntity
  8
1-4_寸法
  6
Continuous
 62
     4
370
     9
100
AcDbCircle
 10
-827.9214972261896
 20
608.4574024097344
 30
0.0
 40
19.51515159091434
100
AcDbArc
 50
45.36129760742188
 51
134.6389617919922
  0
ARC
  5
C2
330
1F
100
AcDbEntity
  8
1-4_寸法
  6
Continuous
 62
     4
370
     9
100
AcDbCircle
 10
-786.8836026421524
 20
558.8330985404355
 30
0.0
 40
69.13950378830368
100
AcDbArc
 50
66.71980285644531
 51
113.2803039550781
  0
ARC
  5
C3
330
1F
100
AcDbEntity
  8
1-4_寸法
  6
Continuous
 62
     4
370
     9
100
AcDbCircle
 10
-745.8457080581154
 20
608.4574024097344
 30
0.0
 40
19.51530430767987
100
AcDbArc
 50
45.36129760742188
 51
134.63818359375
  0
LINE
  5
C4
330
1F
100
AcDbEntity
  8
1-4_寸法
  6
Continuous
 62
     6
370
     5
100
AcDbLine
 10
-726.8835284102057
 20
577.9725688212634
 30
0.0
 11
-726.8835284102057
 21
565.4726513012042
 31
0.0
  0
LINE
  5
C5
330
1F
100
AcDbEntity
  8
1-4_寸法
  6
Continuous
 62
     6
370
     5
100
AcDbLine
 10
-846.883553154188
 20
565.4726513012042
 30
0.0
 11
-726.8835284102057
 21
565.4726513012042
 31
0.0
  0
LINE
  5
C6
330
1F
100
AcDbEntity
  8
1-4_寸法
  6
Continuous
 62
     3
370
     9
100
AcDbLine
 10
-816.8834541782588
 20
565.4726513012042
 30
0.0
 11
-816.8834541782588
 21
515.4726513012037
 31
0.0
  0
LINE
  5
C7
330
1F
100
AcDbEntity
  8
1-4_寸法
  6
Continuous
 62
     3
370
     9
100
AcDbLine
 10
-811.8834376822708
 20
565.4726513012042
 30
0.0
 11
-811.8834376822708
 21
515.4726513012037
 31
0.0
  0
LINE
  5
C8
330
1F
100
AcDbEntity
  8
1-4_寸法
  6
Continuous
 62
     3
370
     9
100
AcDbLine
 10
-761.8835201622118
 20
515.4726513012037
 30
0.0
 11
-761.8835201622118
 21
565.4726513012042
 31
0.0
  0
LINE
  5
C9
330
1F
100
AcDbEntity
  8
1-4_寸法
  6
Continuous
 62
     3
370
     9
100
AcDbLine
 10
-756.8835036662234
 20
515.4726513012037
 30
0.0
 11
-756.8835036662234
 21
565.4726513012042
 31
0.0
  0
LINE
  5
CA
330
1F
100
AcDbEntity
  8
1-4_寸法
  6
Continuous
 62
     6
370
     5
100
AcDbLine
 10
-726.8835284102057
 20
515.4726513012037
 30
0.0
 11
-846.883553154188
 21
515.4726513012037
 31
0.0
  0
LINE
  5
CB
330
1F
100
AcDbEntity
  8
1-4_寸法
  6
Continuous
 62
     6
370
     5
100
AcDbLine
 10
-726.8835284102057
 20
502.9727337811445
 30
0.0
 11
-726.8835284102057
 21
515.4726513012037
 31
0.0
  0
LINE
  5
CC
330
1F
100
AcDbEntity
  8
1-4_寸法
  6
Continuous
 62
     2
370
     9
100
AcDbLine
 10
-521.8836026421526
 20
515.4726513012037
 30
0.0
 11
-871.8836026421526
 21
515.4726513012037
 31
0.0
  0
LINE
  5
CD
330
1F
100
AcDbEntity
  8
1-4_寸法
  6
Continuous
 62
     2
370
     9
100
AcDbLine
 10
-529.383602642152
 20
670.4726513012037
 30
0.0
 11
-521.8836026421526
 21
515.4726513012037
 31
0.0
  0
LINE
  5
CE
330
1F
100
AcDbEntity
  8
1-4_寸法
  6
Continuous
 62
     6
370
     5
100
AcDbLine
 10
-493.7577366027734
 20
-22.0270187790328
 30
0.0
 11
-246.8882627588123
 21
-22.0270187790328
 31
0.0
  0
LINE
  5
CF
330
1F
100
AcDbEntity
  8
1-4_寸法
  6
Continuous
 62
     6
370
     5
100
AcDbLine
 10
-493.7577366027734
 20
27.97289874102631
 30
0.0
 11
-246.8882627588123
 21
27.97289874102631
 31
0.0
  0
LINE
  5
D0
330
1F
100
AcDbEntity
  8
1-4_寸法
  6
Continuous
 62
     6
370
     5
100
AcDbLine
 10
-493.7577366027734
 20
17.97286574905002
 30
0.0
 11
-246.8882627588123
 21
17.97286574905002
 31
0.0
  0
LINE
  5
D1
330
1F
100
AcDbEntity
  8
1-4_寸法
  6
Continuous
 62
     6
370
     5
100
AcDbLine
 10
-493.7577366027734
 20
7.972832757073434
 30
0.0
 11
-246.8882627588123
 21
7.972832757073434
 31
0.0
  0
LINE
  5
D2
330
1F
100
AcDbEntity
  8
1-4_寸法
  6
Continuous
 62
     6
370
     5
100
AcDbLine
 10
-493.7577366027734
 20
-2.027200234902864
 30
0.0
 11
-246.8882627588123
 21
-2.027200234902864
 31
0.0
  0
LINE
  5
D3
330
1F
100
AcDbEntity
  8
1-4_寸法
  6
Continuous
 62
     6
370
     5
100
AcDbLine
 10
-493.7577366027734
 20
-12.02723322687916
 30
0.0
 11
-246.8882627588123
 21
-12.02723322687916
 31
0.0
  0
LINE
  5
D4
330
1F
100
AcDbEntity
  8
1-4_寸法
  6
Continuous
 62
     7
370
     9
100
AcDbLine
 10
-516.8836026421526
 20
12.9729729729732
 30
0.0
 11
-516.8836026421526
 21
-125.0269379486909
 31
0.0
  0
LINE
  5
D5
330
1F
100
AcDbEntity
  8
1-4_寸法
  6
Continuous
 62
     4
370
     9
100
AcDbLine
 10
-516.8836026421526
 20
1040.472692541174
 30
0.0
 11
-471.8835778981703
 21
1040.472692541174
 31
0.0
  0
LINE
  5
D6
330
1F
100
AcDbEntity
  8
1-4_寸法
  6
Continuous
 62
     4
370
     9
100
AcDbLine
 10
-471.8835778981703
 20
343.1045862146328
 30
0.0
 11
-471.8835778981703
 21
1040.472692541174
 31
0.0
  0
LINE
  5
D7
330
1F
100
AcDbEntity
  8
1-4_寸法
  6
Continuous
 62
     4
370
     9
100
AcDbLine
 10
-516.8836026421526
 20
331.0468436576227
 30
0.0
 11
-516.8836026421526
 21
1040.472692541174
 31
0.0
  0
LINE
  5
D8
330
1F
100
AcDbEntity
  8
1-4_寸法
  6
Continuous
 62
     4
370
     9
100
AcDbLine
 10
-471.8835778981703
 20
37.97293173300261
 30
0.0
 11
-471.8835778981703
 21
322.3989455764359
 31
0.0
  0
LINE
  5
D9
330
1F
100
AcDbEntity
  8
1-4_寸法
  6
Continuous
 62
     4
370
     9
100
AcDbLine
 10
-516.8836026421526
 20
37.97293173300261
 30
0.0
 11
-516.8836026421526
 21
310.3412030194258
 31
0.0
  0
LINE
  5
DA
330
1F
100
AcDbEntity
  8
1-4_寸法
  6
Continuous
 62
     7
370
     9
100
AcDbLine
 10
-554.3834789222415
 20
300.2931667018581
 30
0.0
 11
-434.3835778981703
 21
332.4471056139149
 31
0.0
  0
LINE
  5
DB
330
1F
100
AcDbEntity
  8
1-4_寸法
  6
Continuous
 62
     7
370
     9
100
AcDbLine
 10
-554.3834789222415
 20
320.998807340055
 30
0.0
 11
-434.3835778981703
 21
353.1527462521115
 31
0.0
  0
LINE
  5
DC
330
1F
100
AcDbEntity
  8
1-4_寸法
  6
Continuous
 62
     7
370
     9
100
AcDbLine
 10
-516.8836026421526
 20
-122.0269775390625
 30
0.0
 11
-492.09743188888
 21
-118.7638648780614
 31
0.0
  0
LINE
  5
DD
330
1F
100
AcDbEntity
  8
1-4_寸法
  6
Continuous
 62
     7
370
     9
100
AcDbLine
 10
-516.8836026421526
 20
-122.0269775390625
 30
0.0
 11
-492.09743188888
 21
-125.2900902000633
 31
0.0
  0
TEXT
  5
DE
330
1F
100
AcDbEntity
  8
1-4_寸法
  6
Continuous
 62
     2
370
     0
100
AcDbText
 10
-364.6998266114833
 20
-106.3869445470862
 30
0.0
 40
30.48
  1
φ648
 41
1.1
  7
ＭＳ ゴシック
100
AcDbText
  0
LINE
  5
DF
330
1F
100
AcDbEntity
  8
1-4_寸法
  6
Continuous
 62
     7
370
     9
100
AcDbLine
 10
-516.8836026421526
 20
1040.472692541174
 30
0.0
 11
-532.1026363731493
 21
1060.306478964316
 31
0.0
  0
LINE
  5
E0
330
1F
100
AcDbEntity
  8
1-4_寸法
  6
Continuous
 62
     7
370
     9
100
AcDbLine
 10
-516.8836026421526
 20
1040.472692541174
 30
0.0
 11
-526.450739664429
 21
1063.569715345228
 31
0.0
  0
LINE
  5
E1
330
1F
100
AcDbEntity
  8
1-4_寸法
  6
Continuous
 62
     7
370
     9
100
AcDbLine
 10
-516.8836026421526
 20
-122.0269775390625
 30
0.0
 11
-241.8882627588123
 21
-122.0269775390625
 31
0.0
  0
LINE
  5
E2
330
1F
100
AcDbEntity
  8
1-4_寸法
  6
Continuous
 62
     7
370
     9
100
AcDbLine
 10
-516.8836026421526
 20
1040.472692541174
 30
0.0
 11
-580.3918786794206
 21
1150.472313133446
 31
0.0
  0
LINE
  5
E3
330
1F
100
AcDbEntity
  8
1-4_寸法
  6
Continuous
 62
     7
370
     9
100
AcDbLine
 10
-899.9542236171318
 20
1150.472313133446
 30
0.0
 11
-580.3918786794206
 21
1150.472313133446
 31
0.0
  0
TEXT
  5
E4
330
1F
100
AcDbEntity
  8
1-4_寸法
  6
Continuous
 62
     7
370
     0
100
AcDbText
 10
-903.2098965874651
 20
1165.317481524494
 30
0.0
 40
22.86
  1
スリーブ：ボイド管
 41
1.148148148148148
  7
ＭＳ ゴシック
100
AcDbText
  0
LINE
  5
E5
330
1F
100
AcDbEntity
  8
1-4_寸法
  6
Continuous
 62
     6
370
     5
100
AcDbLine
 10
-1036.883437682271
 20
27.97289874102631
 30
0.0
 11
-539.6888773993315
 21
27.97289874102631
 31
0.0
  0
LINE
  5
E6
330
1F
100
AcDbEntity
  8
1-4_寸法
  6
Continuous
 62
     6
370
     5
100
AcDbLine
 10
-1036.883437682271
 20
-22.0270187790328
 30
0.0
 11
-539.6888773993315
 21
-22.0270187790328
 31
0.0
  0
LINE
  5
E7
330
1F
100
AcDbEntity
  8
1-4_寸法
  6
Continuous
 62
     6
370
     5
100
AcDbLine
 10
-1036.883437682271
 20
17.97286574905002
 30
0.0
 11
-539.6888773993315
 21
17.97286574905002
 31
0.0
  0
LINE
  5
E8
330
1F
100
AcDbEntity
  8
1-4_寸法
  6
Continuous
 62
     6
370
     5
100
AcDbLine
 10
-1036.883437682271
 20
7.972832757073434
 30
0.0
 11
-539.6888773993315
 21
7.972832757073434
 31
0.0
  0
LINE
  5
E9
330
1F
100
AcDbEntity
  8
1-4_寸法
  6
Continuous
 62
     6
370
     5
100
AcDbLine
 10
-1036.883437682271
 20
-2.027200234902864
 30
0.0
 11
-539.6888773993315
 21
-2.027200234902864
 31
0.0
  0
LINE
  5
EA
330
1F
100
AcDbEntity
  8
1-4_寸法
  6
Continuous
 62
     6
370
     5
100
AcDbLine
 10
-1036.883437682271
 20
-12.02723322687916
 30
0.0
 11
-539.6888773993315
 21
-12.02723322687916
 31
0.0
  0
LINE
  5
EB
330
1F
100
AcDbEntity
  8
1-4_寸法
  6
Continuous
 62
     6
370
     5
100
AcDbLine
 10
-1036.883437682271
 20
37.97293173300261
 30
0.0
 11
-246.8882627588123
 21
37.97293173300261
 31
0.0
  0
LINE
  5
EC
330
1F
100
AcDbEntity
  8
1-4_寸法
  6
Continuous
 62
     7
370
     9
100
AcDbLine
 10
-451.8836191381409
 20
1040.472692541174
 30
0.0
 11
-295.2008968266272
 21
1040.472692541174
 31
0.0
  0
LINE
  5
ED
330
1F
100
AcDbEntity
  8
1-4_寸法
  6
Continuous
 62
     7
370
     9
100
AcDbLine
 10
-298.2008572362555
 20
1040.472692541174
 30
0.0
 11
-294.9377445752548
 21
1013.186843459671
 31
0.0
  0
LINE
  5
EE
330
1F
100
AcDbEntity
  8
1-4_寸法
  6
Continuous
 62
     7
370
     9
100
AcDbLine
 10
-298.2008572362555
 20
1040.472692541174
 30
0.0
 11
-301.4639698972563
 21
1013.186843459671
 31
0.0
  0
LINE
  5
EF
330
1F
100
AcDbEntity
  8
1-4_寸法
  6
Continuous
 62
     7
370
     9
100
AcDbLine
 10
-298.2008572362555
 20
37.97293173300261
 30
0.0
 11
-298.2008572362555
 21
1040.472692541174
 31
0.0
  0
LINE
  5
F0
330
1F
100
AcDbEntity
  8
1-4_寸法
  6
Continuous
 62
     7
370
     9
100
AcDbLine
 10
-298.2008572362555
 20
37.97293173300261
 30
0.0
 11
-294.9377445752548
 21
65.25878081450571
 31
0.0
  0
LINE
  5
F1
330
1F
100
AcDbEntity
  8
1-4_寸法
  6
Continuous
 62
     7
370
     9
100
AcDbLine
 10
-298.2008572362555
 20
37.97293173300261
 30
0.0
 11
-301.4639698972563
 21
65.25878081450571
 31
0.0
  0
TEXT
  5
F2
330
1F
100
AcDbEntity
  8
1-4_寸法
  6
Continuous
 62
     2
370
   211
100
AcDbText
 10
-309.8408572362555
 20
506.7228121370883
 30
0.0
 40
30.48
  1
250
 50
90.0
 41
1.083333333333333
  7
ＭＳ ゴシック
100
AcDbText
  0
ELLIPSE
  5
F3
330
1F
100
AcDbEntity
  8
1-4_寸法
  6
Continuous
 62
     6
370
     5
100
AcDbEllipse
 10
-591.2719076510369
 20
750.6035058355002
 30
0.0
 11
-6.381359424687612
 21
36.19048768967694
 31
0.0
210
0.0
220
0.0
230
1.0
 40
0.2692
 41
0.0
 42
6.283185307179586
  0
ARC
  5
F4
330
1F
100
AcDbEntity
  8
1-4_寸法
  6
Continuous
 62
     6
370
     5
100
AcDbCircle
 10
-587.7711064103171
 20
771.7354829823455
 30
0.0
 40
74.37664390371523
100
AcDbArc
 50
17.61940079897579
 51
184.8302693766008
  0
ARC
  5
F5
330
1F
100
AcDbEntity
  8
1-4_寸法
  6
Continuous
 62
     6
370
     5
100
AcDbCircle
 10
-591.4030978285012
 20
733.5393426802375
 30
0.0
 40
74.75517424945768
100
AcDbArc
 50
208.0806179660177
 51
355.4491589388912
  0
LINE
  5
F6
330
1F
100
AcDbEntity
  8
1-4_寸法
  6
Continuous
 62
     7
370
     9
100
AcDbLine
 10
-706.972664482313
 20
1027.972610061233
 30
0.0
 11
-607.9426237481025
 21
843.3245537031718
 31
0.0
  0
LINE
  5
F7
330
1F
100
AcDbEntity
  8
1-4_寸法
  6
Continuous
 62
     7
370
     9
100
AcDbLine
 10
-607.9426237481025
 20
843.3245537031718
 30
0.0
 11
-622.533085703235
 21
863.6252536895228
 31
0.0
  0
LINE
  5
F8
330
1F
100
AcDbEntity
  8
1-4_寸法
  6
Continuous
 62
     7
370
     9
100
AcDbLine
 10
-607.9426237481025
 20
843.3245537031718
 30
0.0
 11
-616.7817199826727
 21
866.7098135425664
 31
0.0
  0
LINE
  5
F9
330
1F
100
AcDbEntity
  8
1-4_寸法
  6
Continuous
 62
     7
370
     9
100
AcDbLine
 10
-1595.056357657538
 20
37.97293173300261
 30
0.0
 11
-1595.056357657538
 21
765.4726513012037
 31
0.0
  0
LINE
  5
FA
330
1F
100
AcDbEntity
  8
1-4_寸法
  6
Continuous
 62
     7
370
     9
100
AcDbLine
 10
-1595.056357657538
 20
37.97293173300261
 30
0.0
 11
-1598.31951246304
 21
62.75905326734801
 31
0.0
  0
LINE
  5
FB
330
1F
100
AcDbEntity
  8
1-4_寸法
  6
Continuous
 62
     7
370
     9
100
AcDbLine
 10
-1595.056357657538
 20
37.97293173300261
 30
0.0
 11
-1591.793202852037
 21
62.75905326734801
 31
0.0
  0
LINE
  5
FC
330
1F
100
AcDbEntity
  8
1-4_寸法
  6
Continuous
 62
     7
370
     9
100
AcDbLine
 10
-1595.056357657538
 20
765.4726513012037
 30
0.0
 11
-1598.31951246304
 21
740.6865297668583
 31
0.0
  0
LINE
  5
FD
330
1F
100
AcDbEntity
  8
1-4_寸法
  6
Continuous
 62
     7
370
     9
100
AcDbLine
 10
-1595.056357657538
 20
765.4726513012037
 30
0.0
 11
-1591.793202852037
 21
740.6865297668583
 31
0.0
  0
LINE
  5
FE
330
1F
100
AcDbEntity
  8
1-4_寸法
  6
Continuous
 62
     7
370
     9
100
AcDbLine
 10
-1598.056357657538
 20
37.97293173300261
 30
0.0
 11
-1056.883437682271
 21
37.97293173300261
 31
0.0
  0
LINE
  5
FF
330
1F
100
AcDbEntity
  8
1-4_寸法
  6
Continuous
 62
     7
370
     9
100
AcDbLine
 10
-1598.056357657538
 20
765.4726513012037
 30
0.0
 11
-709.383602642152
 21
765.4726513012037
 31
0.0
  0
LINE
  5
100
330
1F
100
AcDbEntity
  8
1-4_寸法
  6
Continuous
 62
     7
370
     9
100
AcDbLine
 10
-1489.926028989737
 20
37.97293173300261
 30
0.0
 11
-1493.189183795238
 21
62.75905326734801
 31
0.0
  0
LINE
  5
101
330
1F
100
AcDbEntity
  8
1-4_寸法
  6
Continuous
 62
     7
370
     9
100
AcDbLine
 10
-1489.926028989737
 20
37.97293173300261
 30
0.0
 11
-1486.662874184235
 21
62.75905326734801
 31
0.0
  0
LINE
  5
102
330
1F
100
AcDbEntity
  8
1-4_寸法
  6
Continuous
 62
     2
370
     9
100
AcDbLine
 10
-736.883602642152
 20
547.9726513012037
 30
0.0
 11
-756.8835036662234
 21
547.9726513012037
 31
0.0
  0
LINE
  5
103
330
1F
100
AcDbEntity
  8
1-4_寸法
  6
JWW_CENTER1
 62
     2
370
     9
100
AcDbLine
 10
-786.8836026421524
 20
667.9168103192296
 30
0.0
 11
-786.8836026421524
 21
18.82232666015625
 31
0.0
  0
LINE
  5
104
330
1F
100
AcDbEntity
  8
1-4_寸法
  6
Continuous
 62
     3
370
     9
100
AcDbLine
 10
-811.8834376822708
 20
665.4726513012037
 30
0.0
 11
-761.8835201622118
 21
665.4726513012037
 31
0.0
  0
LINE
  5
105
330
1F
100
AcDbEntity
  8
1-4_寸法
  6
Continuous
 62
     3
370
     9
100
AcDbLine
 10
-816.8834541782588
 20
660.4726348052156
 30
0.0
 11
-756.8835036662234
 21
660.4726348052156
 31
0.0
  0
LINE
  5
106
330
1F
100
AcDbEntity
  8
1-4_寸法
  6
Continuous
 62
     3
370
     9
100
AcDbLine
 10
-816.8834541782588
 20
660.4726348052156
 30
0.0
 11
-811.8834376822708
 21
665.4726513012037
 31
0.0
  0
LINE
  5
107
330
1F
100
AcDbEntity
  8
1-4_寸法
  6
Continuous
 62
     3
370
     9
100
AcDbLine
 10
-761.8835201622118
 20
665.4726513012037
 30
0.0
 11
-756.8835036662234
 21
660.4726348052156
 31
0.0
  0
LINE
  5
108
330
1F
100
AcDbEntity
  8
1-4_寸法
  6
Continuous
 62
     3
370
     9
100
AcDbLine
 10
-811.8834376822708
 20
665.4726513012037
 30
0.0
 11
-811.8834376822708
 21
627.9724863413225
 31
0.0
  0
LINE
  5
109
330
1F
100
AcDbEntity
  8
1-4_寸法
  6
Continuous
 62
     3
370
     9
100
AcDbLine
 10
-761.8835201622118
 20
665.4726513012037
 30
0.0
 11
-761.8835201622118
 21
627.9724863413225
 31
0.0
  0
LINE
  5
10A
330
1F
100
AcDbEntity
  8
1-4_寸法
  6
Continuous
 62
     3
370
     9
100
AcDbLine
 10
-756.8835036662234
 20
660.4726348052156
 30
0.0
 11
-756.8835036662234
 21
627.9724863413225
 31
0.0
  0
LINE
  5
10B
330
1F
100
AcDbEntity
  8
1-4_寸法
  6
Continuous
 62
     3
370
     9
100
AcDbLine
 10
-816.8834541782588
 20
660.4726348052156
 30
0.0
 11
-816.8834541782588
 21
627.9724863413225
 31
0.0
  0
LINE
  5
10C
330
1F
100
AcDbEntity
  8
1-4_寸法
  6
Continuous
 62
     7
370
     9
100
AcDbLine
 10
-1489.926028989737
 20
37.97293173300261
 30
0.0
 11
-1489.926028989737
 21
665.4726513012037
 31
0.0
  0
LINE
  5
10D
330
1F
100
AcDbEntity
  8
1-4_寸法
  6
Continuous
 62
     7
370
     9
100
AcDbLine
 10
-1489.926028989737
 20
665.4726513012037
 30
0.0
 11
-1493.189183795238
 21
640.6865297668583
 31
0.0
  0
LINE
  5
10E
330
1F
100
AcDbEntity
  8
1-4_寸法
  6
Continuous
 62
     7
370
     9
100
AcDbLine
 10
-1489.926028989737
 20
665.4726513012037
 30
0.0
 11
-1486.662874184235
 21
640.6865297668583
 31
0.0
  0
LINE
  5
10F
330
1F
100
AcDbEntity
  8
1-4_寸法
  6
Continuous
 62
     7
370
     9
100
AcDbLine
 10
-1492.926028989737
 20
665.4726513012037
 30
0.0
 11
-831.8834376822708
 21
665.4726513012037
 31
0.0
  0
TEXT
  5
110
330
1F
100
AcDbEntity
  8
1-4_寸法
  6
Continuous
 62
     7
370
     0
100
AcDbText
 10
-1221.593298333945
 20
888.9848498073803
 30
0.0
 40
22.86
  1
ボルト：ＳＳ４００
 41
1.148148148148149
  7
ＭＳ ゴシック
100
AcDbText
  0
TEXT
  5
111
330
1F
100
AcDbEntity
  8
1-4_寸法
  6
Continuous
 62
     7
370
     0
100
AcDbText
 10
-1188.095381777252
 20
841.6887072292553
 30
0.0
 40
22.86
  1
電気亜鉛めっき
 41
1.142857142857143
  7
ＭＳ ゴシック
100
AcDbText
  0
LINE
  5
112
330
1F
100
AcDbEntity
  8
1-4_寸法
  6
Continuous
 62
     7
370
     9
100
AcDbLine
 10
-899.8478083371117
 20
876.1018792098292
 30
0.0
 11
-1231.422428764424
 21
876.1018792098292
 31
0.0
  0
LINE
  5
113
330
1F
100
AcDbEntity
  8
1-4_寸法
  6
Continuous
 62
     7
370
     9
100
AcDbLine
 10
-899.8478083371117
 20
876.1018792098292
 30
0.0
 11
-786.8836026421524
 21
665.4726513012037
 31
0.0
  0
LINE
  5
114
330
1F
100
AcDbEntity
  8
1-4_寸法
  6
Continuous
 62
     7
370
     9
100
AcDbLine
 10
-786.8836026421524
 20
665.4726513012037
 30
0.0
 11
-801.4740645972848
 21
685.773351287555
 31
0.0
  0
LINE
  5
115
330
1F
100
AcDbEntity
  8
1-4_寸法
  6
Continuous
 62
     7
370
     9
100
AcDbLine
 10
-786.8836026421524
 20
665.4726513012037
 30
0.0
 11
-795.7226988767227
 21
688.8579111405986
 31
0.0
  0
TEXT
  5
116
330
1F
100
AcDbEntity
  8
1-4_寸法
  6
Continuous
 62
     2
370
   211
100
AcDbText
 10
-1501.566028989737
 20
339.2228214160821
 30
0.0
 40
30.48
  1
180
 50
90.0
 41
1.083333333333333
  7
ＭＳ ゴシック
100
AcDbText
  0
TEXT
  5
117
330
1F
100
AcDbEntity
  8
1-4_寸法
  6
Continuous
 62
     2
370
   211
100
AcDbText
 10
-1606.696357657539
 20
369.2227915171031
 30
0.0
 40
30.48
  1
200
 50
90.0
 41
1.083333333333333
  7
ＭＳ ゴシック
100
AcDbText
  0
CIRCLE
  5
118
330
1F
100
AcDbEntity
  8
0-4_寸法
  6
Continuous
 62
     6
370
     5
100
AcDbCircle
 10
1397.411742881484
 20
890.1508096296435
 30
0.0
 40
20.00000025774982
  0
ARC
  5
119
330
1F
100
AcDbEntity
  8
0-4_寸法
  6
Continuous
 62
     2
370
     9
100
AcDbCircle
 10
1546.197803111636
 20
334.87234085325
 30
0.0
 40
580.8333113386825
100
AcDbArc
 50
103.4378814697265
 51
103.4378967285156
  0
ARC
  5
11A
330
1F
100
AcDbEntity
  8
0-4_寸法
  6
Continuous
 62
     2
370
     9
100
AcDbCircle
 10
1399.568923255217
 20
882.100602440032
 30
0.0
 40
15.83333402066618
100
AcDbArc
 50
195.0002288818359
 51
195.0005187988281
  0
CIRCLE
  5
11B
330
1F
100
AcDbEntity
  8
0-4_寸法
  6
Continuous
 62
     2
370
     9
100
AcDbCircle
 10
1397.41223776113
 20
890.1508096296435
 30
0.0
 40
8.421666557724413
  0
CIRCLE
  5
11C
330
1F
100
AcDbEntity
  8
0-4_寸法
  6
Continuous
 62
     2
370
     9
100
AcDbCircle
 10
1397.41223776113
 20
890.1508096296435
 30
0.0
 40
10.00000012887491
  0
LINE
  5
11D
330
1F
100
AcDbEntity
  8
0-4_寸法
  6
Continuous
 62
     2
370
     9
100
AcDbLine
 10
1410.348391688494
 20
903.0468783057416
 30
0.0
 11
1415.06360494863
 21
885.4504427588666
 31
0.0
  0
LINE
  5
11E
330
1F
100
AcDbEntity
  8
0-4_寸法
  6
Continuous
 62
     2
370
     9
100
AcDbLine
 10
1379.76087057363
 20
894.8511765004206
 30
0.0
 11
1384.476083833765
 21
877.2544935137229
 31
0.0
  0
LINE
  5
11F
330
1F
100
AcDbEntity
  8
0-4_寸法
  6
Continuous
 62
     2
370
     9
100
AcDbLine
 10
1392.688611547024
 20
907.7789174738159
 30
0.0
 11
1379.76087057363
 21
894.8511765004206
 31
0.0
  0
LINE
  5
120
330
1F
100
AcDbEntity
  8
0-4_寸法
  6
Continuous
 62
     2
370
     9
100
AcDbLine
 10
1402.135863975234
 20
872.5227017854713
 30
0.0
 11
1384.476083833765
 21
877.2544935137229
 31
0.0
  0
LINE
  5
121
330
1F
100
AcDbEntity
  8
0-4_寸法
  6
Continuous
 62
     2
370
     9
100
AcDbLine
 10
1402.135863975234
 20
872.5227017854713
 30
0.0
 11
1415.06360494863
 21
885.4504427588666
 31
0.0
  0
LINE
  5
122
330
1F
100
AcDbEntity
  8
0-4_寸法
  6
Continuous
 62
     2
370
     9
100
AcDbLine
 10
1392.688611547024
 20
907.7789174738159
 30
0.0
 11
1410.348391688494
 21
903.0468783057416
 31
0.0
  0
CIRCLE
  5
123
330
1F
100
AcDbEntity
  8
0-4_寸法
  6
Continuous
 62
     2
370
     9
100
AcDbCircle
 10
949.5779430096491
 20
442.3165148781633
 30
0.0
 40
588.3333333333333
  0
CIRCLE
  5
124
330
1F
100
AcDbEntity
  8
0-4_寸法
  6
Continuous
 62
     2
370
     9
100
AcDbCircle
 10
949.5779430096491
 20
442.3165148781633
 30
0.0
 40
583.3333333333333
  0
CIRCLE
  5
125
330
1F
100
AcDbEntity
  8
0-4_寸法
  6
Continuous
 62
     2
370
     9
100
AcDbCircle
 10
949.5779430096491
 20
442.3165148781633
 30
0.0
 40
597.4999999999998
  0
ARC
  5
126
330
1F
100
AcDbEntity
  8
0-4_寸法
  6
Continuous
 62
     2
370
     9
100
AcDbCircle
 10
312.071329253036
 20
409.8394173936262
 30
0.0
 40
5.0
100
AcDbArc
 50
2.916351469024635
 51
76.98545418650033
  0
ARC
  5
127
330
1F
100
AcDbEntity
  8
0-4_寸法
  6
Continuous
 62
     2
370
     9
100
AcDbCircle
 10
312.071329253036
 20
474.7936123627005
 30
0.0
 40
5.0
100
AcDbArc
 50
283.0145458134997
 51
357.0836485309754
  0
ARC
  5
128
330
1F
100
AcDbEntity
  8
0-4_寸法
  6
Continuous
 62
     2
370
     9
100
AcDbCircle
 10
319.5779430096491
 20
442.3165148781633
 30
0.0
 40
28.33333333333332
100
AcDbArc
 50
103.0145458134999
 51
256.9854541865001
  0
ARC
  5
129
330
1F
100
AcDbEntity
  8
0-4_寸法
  6
Continuous
 62
     2
370
     9
100
AcDbCircle
 10
319.5779430096491
 20
442.3165148781633
 30
0.0
 40
25.0
100
AcDbArc
 50
90.0
 51
270.0
  0
ARC
  5
12A
330
1F
100
AcDbEntity
  8
0-4_寸法
  6
Continuous
 62
     2
370
     9
100
AcDbCircle
 10
344.0753534001664
 20
472.3165148781634
 30
0.0
 40
5.0
100
AcDbArc
 50
270.0
 51
357.163564608682
  0
ARC
  5
12B
330
1F
100
AcDbEntity
  8
0-4_寸法
  6
Continuous
 62
     2
370
     9
100
AcDbCircle
 10
344.0753534001664
 20
412.3165148781634
 30
0.0
 40
5.0
100
AcDbArc
 50
2.836435391318074
 51
90.0
  0
LINE
  5
12C
330
1F
100
AcDbEntity
  8
0-4_寸法
  6
Continuous
 62
     2
370
     9
100
AcDbLine
 10
319.5779430096491
 20
417.3165148781632
 30
0.0
 11
344.0753534001664
 21
417.3165148781632
 31
0.0
  0
LINE
  5
12D
330
1F
100
AcDbEntity
  8
0-4_寸法
  6
Continuous
 62
     2
370
     9
100
AcDbLine
 10
319.5779430096491
 20
467.3165148781634
 30
0.0
 11
344.0753534001664
 21
467.3165148781634
 31
0.0
  0
ARC
  5
12E
330
1F
100
AcDbEntity
  8
0-4_寸法
  6
Continuous
 62
     2
370
     9
100
AcDbCircle
 10
949.5779430096491
 20
442.3165148781633
 30
0.0
 40
601.2453183520597
100
AcDbArc
 50
177.1635646086816
 51
182.8364353913184
  0
LINE
  5
12F
330
1F
100
AcDbEntity
  8
0-4_寸法
  6
Continuous
 62
     2
370
     9
100
AcDbLine
 10
336.8030387149867
 20
468.48318154483
 30
0.0
 11
340.153829604215
 21
468.8165148781634
 31
0.0
  0
ARC
  5
130
330
1F
100
AcDbEntity
  8
0-4_寸法
  6
Continuous
 62
     2
370
     9
100
AcDbCircle
 10
323.6867783492107
 20
473.48318154483
 30
0.0
 40
5.0
100
AcDbArc
 50
177.149273238704
 51
270.0
  0
LINE
  5
131
330
1F
100
AcDbEntity
  8
0-4_寸法
  6
Continuous
 62
     2
370
     9
100
AcDbLine
 10
340.153829604215
 20
468.8165148781634
 30
0.0
 11
343.7296167394152
 21
468.8165148781634
 31
0.0
  0
ARC
  5
132
330
1F
100
AcDbEntity
  8
0-4_寸法
  6
Continuous
 62
     2
370
     9
100
AcDbCircle
 10
343.7296167394152
 20
473.8165148781633
 30
0.0
 40
5.0
100
AcDbArc
 50
270.0
 51
357.0236884510655
  0
LINE
  5
133
330
1F
100
AcDbEntity
  8
0-4_寸法
  6
Continuous
 62
     2
370
     9
100
AcDbLine
 10
323.6867783492107
 20
468.48318154483
 30
0.0
 11
336.8030387149867
 21
468.48318154483
 31
0.0
  0
LINE
  5
134
330
1F
100
AcDbEntity
  8
0-4_寸法
  6
Continuous
 62
     2
370
     9
100
AcDbLine
 10
336.8030387149867
 20
416.1498482114966
 30
0.0
 11
340.153829604215
 21
415.8165148781634
 31
0.0
  0
ARC
  5
135
330
1F
100
AcDbEntity
  8
0-4_寸法
  6
Continuous
 62
     2
370
     9
100
AcDbCircle
 10
323.6867783492107
 20
411.1498482114966
 30
0.0
 40
5.0
100
AcDbArc
 50
90.0
 51
182.850726761296
  0
LINE
  5
136
330
1F
100
AcDbEntity
  8
0-4_寸法
  6
Continuous
 62
     2
370
     9
100
AcDbLine
 10
340.153829604215
 20
415.8165148781634
 30
0.0
 11
343.7296167394152
 21
415.8165148781634
 31
0.0
  0
ARC
  5
137
330
1F
100
AcDbEntity
  8
0-4_寸法
  6
Continuous
 62
     2
370
     9
100
AcDbCircle
 10
343.7296167394152
 20
410.8165148781633
 30
0.0
 40
5.0
100
AcDbArc
 50
2.97631154893445
 51
90.0
  0
LINE
  5
138
330
1F
100
AcDbEntity
  8
0-4_寸法
  6
Continuous
 62
     2
370
     9
100
AcDbLine
 10
323.6867783492107
 20
416.1498482114966
 30
0.0
 11
336.8030387149867
 21
416.1498482114966
 31
0.0
  0
CIRCLE
  5
139
330
1F
100
AcDbEntity
  8
0-4_寸法
  6
Continuous
 62
     2
370
     9
100
AcDbCircle
 10
319.5779430096491
 20
442.3165148781633
 30
0.0
 40
10.0
  0
ARC
  5
13A
330
1F
100
AcDbEntity
  8
0-4_寸法
  6
Continuous
 62
     2
370
     9
100
AcDbCircle
 10
501.7436482581695
 20
890.1508096296435
 30
0.0
 40
36.66666666666671
100
AcDbArc
 50
45.0
 51
225.0
  0
ARC
  5
13B
330
1F
100
AcDbEntity
  8
0-4_寸法
  6
Continuous
 62
     2
370
     9
100
AcDbCircle
 10
501.7436482581695
 20
890.1508096296435
 30
0.0
 40
39.16666666666669
100
AcDbArc
 50
49.51878828133433
 51
220.4812117186657
  0
ARC
  5
13C
330
1F
100
AcDbEntity
  8
0-4_寸法
  6
Continuous
 62
     2
370
     9
100
AcDbCircle
 10
530.416589211431
 20
923.7448106050441
 30
0.0
 40
5.0
100
AcDbArc
 50
229.518788281334
 51
311.0448530987912
  0
LINE
  5
13D
330
1F
100
AcDbEntity
  8
0-4_寸法
  6
Continuous
 62
     2
370
     9
100
AcDbLine
 10
527.6708969016761
 20
916.0780582731502
 30
0.0
 11
547.9714199990707
 21
895.7775351757556
 31
0.0
  0
ARC
  5
13E
330
1F
100
AcDbEntity
  8
0-4_寸法
  6
Continuous
 62
     2
370
     9
100
AcDbCircle
 10
537.7660049509001
 20
914.6744710760108
 30
0.0
 40
5.0
100
AcDbArc
 50
131.0826259818895
 51
225.0
  0
LINE
  5
13F
330
1F
100
AcDbEntity
  8
0-4_寸法
  6
Continuous
 62
     2
370
     9
100
AcDbLine
 10
534.2304710449667
 20
911.1389371700782
 30
0.0
 11
543.4482372611944
 21
901.9211709538511
 31
0.0
  0
LINE
  5
140
330
1F
100
AcDbEntity
  8
0-4_寸法
  6
Continuous
 62
     2
370
     9
100
AcDbLine
 10
543.4482372611944
 20
901.9211709538511
 30
0.0
 11
545.9662650664569
 21
899.6977709740825
 31
0.0
  0
LINE
  5
141
330
1F
100
AcDbEntity
  8
0-4_寸法
  6
Continuous
 62
     2
370
     9
100
AcDbLine
 10
545.9662650664569
 20
899.6977709740827
 30
0.0
 11
548.5645827889226
 21
897.0994532516171
 31
0.0
  0
ARC
  5
142
330
1F
100
AcDbEntity
  8
0-4_寸法
  6
Continuous
 62
     2
370
     9
100
AcDbCircle
 10
552.1001166948554
 20
900.6349871575497
 30
0.0
 40
5.0
100
AcDbArc
 50
225.0
 51
310.9335448979174
  0
ARC
  5
143
330
1F
100
AcDbEntity
  8
0-4_寸法
  6
Continuous
 62
     2
370
     9
100
AcDbCircle
 10
551.5069539050029
 20
899.3130690816885
 30
0.0
 40
5.0
100
AcDbArc
 50
225.0
 51
311.0577888479756
  0
ARC
  5
144
330
1F
100
AcDbEntity
  8
0-4_寸法
  6
Continuous
 62
     2
370
     9
100
AcDbCircle
 10
949.5779430096491
 20
442.3165148781633
 30
0.0
 40
601.0580524344567
100
AcDbArc
 50
131.0577888479766
 51
138.9422111520234
  0
ARC
  5
145
330
1F
100
AcDbEntity
  8
0-4_寸法
  6
Continuous
 62
     2
370
     9
100
AcDbCircle
 10
468.1496472827683
 20
861.4778686763817
 30
0.0
 40
5.0
100
AcDbArc
 50
318.9551469012088
 51
40.48121171866603
  0
ARC
  5
146
330
1F
100
AcDbEntity
  8
0-4_寸法
  6
Continuous
 62
     2
370
     9
100
AcDbCircle
 10
477.2199868118014
 20
854.1284529369127
 30
0.0
 40
5.0
100
AcDbArc
 50
45.0
 51
138.9173740181105
  0
LINE
  5
147
330
1F
100
AcDbEntity
  8
0-4_寸法
  6
Continuous
 62
     2
370
     9
100
AcDbLine
 10
475.8163996146624
 20
864.2235609861368
 30
0.0
 11
496.116922712057
 21
843.9230378887421
 31
0.0
  0
LINE
  5
148
330
1F
100
AcDbEntity
  8
0-4_寸法
  6
Continuous
 62
     2
370
     9
100
AcDbLine
 10
480.7555207177342
 20
857.6639868428454
 30
0.0
 11
489.9732869339613
 21
848.4462206266182
 31
0.0
  0
LINE
  5
149
330
1F
100
AcDbEntity
  8
0-4_寸法
  6
Continuous
 62
     2
370
     9
100
AcDbLine
 10
492.1966869137299
 20
845.9281928213554
 30
0.0
 11
489.9732869339613
 21
848.4462206266182
 31
0.0
  0
LINE
  5
14A
330
1F
100
AcDbEntity
  8
0-4_寸法
  6
Continuous
 62
     2
370
     9
100
AcDbLine
 10
492.1966869137299
 20
845.9281928213554
 30
0.0
 11
494.7950046361956
 21
843.3298750988899
 31
0.0
  0
ARC
  5
14B
330
1F
100
AcDbEntity
  8
0-4_寸法
  6
Continuous
 62
     2
370
     9
100
AcDbCircle
 10
491.2594707302628
 20
839.7943411929573
 30
0.0
 40
5.0
100
AcDbArc
 50
319.0664551020826
 51
44.99999999999999
  0
ARC
  5
14C
330
1F
100
AcDbEntity
  8
0-4_寸法
  6
Continuous
 62
     2
370
     9
100
AcDbCircle
 10
492.5813888061242
 20
840.3875039828092
 30
0.0
 40
5.0
100
AcDbArc
 50
318.942211152023
 51
44.99999999999999
  0
ARC
  5
14D
330
1F
100
AcDbEntity
  8
0-4_寸法
  6
Continuous
 62
     2
370
     9
100
AcDbCircle
 10
1397.412237761129
 20
890.1508096296435
 30
0.0
 40
36.66666666666671
100
AcDbArc
 50
315.0
 51
135.0
  0
ARC
  5
14E
330
1F
100
AcDbEntity
  8
0-4_寸法
  6
Continuous
 62
     2
370
     9
100
AcDbCircle
 10
1397.412237761129
 20
890.1508096296435
 30
0.0
 40
39.16666666666669
100
AcDbArc
 50
319.5187882813343
 51
130.4812117186657
  0
ARC
  5
14F
330
1F
100
AcDbEntity
  8
0-4_寸法
  6
Continuous
 62
     2
370
     9
100
AcDbCircle
 10
1431.00623873653
 20
861.4778686763817
 30
0.0
 40
5.0
100
AcDbArc
 50
139.518788281334
 51
221.0448530987911
  0
LINE
  5
150
330
1F
100
AcDbEntity
  8
0-4_寸法
  6
Continuous
 62
     2
370
     9
100
AcDbLine
 10
1423.339486404636
 20
864.2235609861368
 30
0.0
 11
1403.038963307242
 21
843.9230378887421
 31
0.0
  0
ARC
  5
151
330
1F
100
AcDbEntity
  8
0-4_寸法
  6
Continuous
 62
     2
370
     9
100
AcDbCircle
 10
1421.935899207497
 20
854.1284529369127
 30
0.0
 40
5.0
100
AcDbArc
 50
41.08262598188948
 51
135.0
  0
LINE
  5
152
330
1F
100
AcDbEntity
  8
0-4_寸法
  6
Continuous
 62
     2
370
     9
100
AcDbLine
 10
1418.400365301565
 20
857.6639868428456
 30
0.0
 11
1409.182599085337
 21
848.4462206266182
 31
0.0
  0
LINE
  5
153
330
1F
100
AcDbEntity
  8
0-4_寸法
  6
Continuous
 62
     2
370
     9
100
AcDbLine
 10
1409.182599085337
 20
848.4462206266182
 30
0.0
 11
1406.959199105568
 21
845.9281928213554
 31
0.0
  0
LINE
  5
154
330
1F
100
AcDbEntity
  8
0-4_寸法
  6
Continuous
 62
     2
370
     9
100
AcDbLine
 10
1406.959199105569
 20
845.9281928213554
 30
0.0
 11
1404.360881383103
 21
843.3298750988899
 31
0.0
  0
ARC
  5
155
330
1F
100
AcDbEntity
  8
0-4_寸法
  6
Continuous
 62
     2
370
     9
100
AcDbCircle
 10
1407.896415289036
 20
839.7943411929573
 30
0.0
 40
5.0
100
AcDbArc
 50
135.0
 51
220.9335448979174
  0
ARC
  5
156
330
1F
100
AcDbEntity
  8
0-4_寸法
  6
Continuous
 62
     2
370
     9
100
AcDbCircle
 10
1406.574497213174
 20
840.3875039828094
 30
0.0
 40
5.0
100
AcDbArc
 50
135.0
 51
221.0577888479756
  0
ARC
  5
157
330
1F
100
AcDbEntity
  8
0-4_寸法
  6
Continuous
 62
     2
370
     9
100
AcDbCircle
 10
949.5779430096491
 20
442.3165148781633
 30
0.0
 40
601.0580524344567
100
AcDbArc
 50
41.05778884797659
 51
48.94221115202341
  0
ARC
  5
158
330
1F
100
AcDbEntity
  8
0-4_寸法
  6
Continuous
 62
     2
370
     9
100
AcDbCircle
 10
1368.739296807868
 20
923.7448106050441
 30
0.0
 40
5.0
100
AcDbArc
 50
228.9551469012088
 51
310.481211718666
  0
ARC
  5
159
330
1F
100
AcDbEntity
  8
0-4_寸法
  6
Continuous
 62
     2
370
     9
100
AcDbCircle
 10
1361.389881068399
 20
914.6744710760112
 30
0.0
 40
5.0
100
AcDbArc
 50
315.0
 51
48.91737401811054
  0
LINE
  5
15A
330
1F
100
AcDbEntity
  8
0-4_寸法
  6
Continuous
 62
     2
370
     9
100
AcDbLine
 10
1371.484989117623
 20
916.0780582731502
 30
0.0
 11
1351.184466020228
 21
895.7775351757556
 31
0.0
  0
LINE
  5
15B
330
1F
100
AcDbEntity
  8
0-4_寸法
  6
Continuous
 62
     2
370
     9
100
AcDbLine
 10
1364.925414974331
 20
911.1389371700784
 30
0.0
 11
1355.707648758104
 21
901.9211709538511
 31
0.0
  0
LINE
  5
15C
330
1F
100
AcDbEntity
  8
0-4_寸法
  6
Continuous
 62
     2
370
     9
100
AcDbLine
 10
1353.189620952841
 20
899.6977709740827
 30
0.0
 11
1355.707648758104
 21
901.9211709538511
 31
0.0
  0
LINE
  5
15D
330
1F
100
AcDbEntity
  8
0-4_寸法
  6
Continuous
 62
     2
370
     9
100
AcDbLine
 10
1353.189620952841
 20
899.6977709740827
 30
0.0
 11
1350.591303230376
 21
897.0994532516171
 31
0.0
  0
ARC
  5
15E
330
1F
100
AcDbEntity
  8
0-4_寸法
  6
Continuous
 62
     2
370
     9
100
AcDbCircle
 10
1347.055769324443
 20
900.6349871575497
 30
0.0
 40
5.0
100
AcDbArc
 50
229.0664551020826
 51
315.0
  0
ARC
  5
15F
330
1F
100
AcDbEntity
  8
0-4_寸法
  6
Continuous
 62
     2
370
     9
100
AcDbCircle
 10
1347.648932114295
 20
899.3130690816885
 30
0.0
 40
5.0
100
AcDbArc
 50
228.9422111520231
 51
315.0
  0
ARC
  5
160
330
1F
100
AcDbEntity
  8
0-4_寸法
  6
Continuous
 62
     2
370
     9
100
AcDbCircle
 10
1397.41223776113
 20
-5.517779873316684
 30
0.0
 40
36.66666666666671
100
AcDbArc
 50
225.0
 51
44.99999999999995
  0
ARC
  5
161
330
1F
100
AcDbEntity
  8
0-4_寸法
  6
Continuous
 62
     2
370
     9
100
AcDbCircle
 10
1397.41223776113
 20
-5.517779873316684
 30
0.0
 40
39.16666666666669
100
AcDbArc
 50
229.5187882813343
 51
40.4812117186657
  0
ARC
  5
162
330
1F
100
AcDbEntity
  8
0-4_寸法
  6
Continuous
 62
     2
370
     9
100
AcDbCircle
 10
1368.739296807868
 20
-39.11178084871736
 30
0.0
 40
5.0
100
AcDbArc
 50
49.51878828133397
 51
131.0448530987912
  0
LINE
  5
163
330
1F
100
AcDbEntity
  8
0-4_寸法
  6
Continuous
 62
     2
370
     9
100
AcDbLine
 10
1371.484989117623
 20
-31.44502851682354
 30
0.0
 11
1351.184466020229
 21
-11.14450541942887
 31
0.0
  0
ARC
  5
164
330
1F
100
AcDbEntity
  8
0-4_寸法
  6
Continuous
 62
     2
370
     9
100
AcDbCircle
 10
1361.389881068399
 20
-30.0414413196841
 30
0.0
 40
5.0
100
AcDbArc
 50
311.0826259818895
 51
45.00000000000006
  0
LINE
  5
165
330
1F
100
AcDbEntity
  8
0-4_寸法
  6
Continuous
 62
     2
370
     9
100
AcDbLine
 10
1364.925414974331
 20
-26.50590741375158
 30
0.0
 11
1355.707648758104
 21
-17.28814119752421
 31
0.0
  0
LINE
  5
166
330
1F
100
AcDbEntity
  8
0-4_寸法
  6
Continuous
 62
     2
370
     9
100
AcDbLine
 10
1355.707648758104
 20
-17.28814119752421
 30
0.0
 11
1353.189620952841
 21
-15.06474121775561
 31
0.0
  0
LINE
  5
167
330
1F
100
AcDbEntity
  8
0-4_寸法
  6
Continuous
 62
     2
370
     9
100
AcDbLine
 10
1353.189620952841
 20
-15.06474121775582
 30
0.0
 11
1350.591303230376
 21
-12.46642349529029
 31
0.0
  0
ARC
  5
168
330
1F
100
AcDbEntity
  8
0-4_寸法
  6
Continuous
 62
     2
370
     9
100
AcDbCircle
 10
1347.055769324443
 20
-16.00195740122302
 30
0.0
 40
5.0
100
AcDbArc
 50
45.0
 51
130.9335448979174
  0
ARC
  5
169
330
1F
100
AcDbEntity
  8
0-4_寸法
  6
Continuous
 62
     2
370
     9
100
AcDbCircle
 10
1347.648932114295
 20
-14.68003932536163
 30
0.0
 40
5.0
100
AcDbArc
 50
45.0
 51
131.0577888479756
  0
ARC
  5
16A
330
1F
100
AcDbEntity
  8
0-4_寸法
  6
Continuous
 62
     2
370
     9
100
AcDbCircle
 10
949.5779430096491
 20
442.3165148781633
 30
0.0
 40
601.0580524344567
100
AcDbArc
 50
311.0577888479766
 51
318.9422111520234
  0
ARC
  5
16B
330
1F
100
AcDbEntity
  8
0-4_寸法
  6
Continuous
 62
     2
370
     9
100
AcDbCircle
 10
1431.00623873653
 20
23.15516107994494
 30
0.0
 40
5.0
100
AcDbArc
 50
138.9551469012088
 51
220.481211718666
  0
ARC
  5
16C
330
1F
100
AcDbEntity
  8
0-4_寸法
  6
Continuous
 62
     2
370
     9
100
AcDbCircle
 10
1421.935899207497
 20
30.50457681941406
 30
0.0
 40
5.0
100
AcDbArc
 50
225.0
 51
318.9173740181105
  0
LINE
  5
16D
330
1F
100
AcDbEntity
  8
0-4_寸法
  6
Continuous
 62
     2
370
     9
100
AcDbLine
 10
1423.339486404636
 20
20.40946877019007
 30
0.0
 11
1403.038963307242
 21
40.70999186758467
 31
0.0
  0
LINE
  5
16E
330
1F
100
AcDbEntity
  8
0-4_寸法
  6
Continuous
 62
     2
370
     9
100
AcDbLine
 10
1418.400365301565
 20
26.9690429134813
 30
0.0
 11
1409.182599085337
 21
36.18680912970856
 31
0.0
  0
LINE
  5
16F
330
1F
100
AcDbEntity
  8
0-4_寸法
  6
Continuous
 62
     2
370
     9
100
AcDbLine
 10
1406.959199105569
 20
38.70483693497132
 30
0.0
 11
1409.182599085337
 21
36.18680912970856
 31
0.0
  0
LINE
  5
170
330
1F
100
AcDbEntity
  8
0-4_寸法
  6
Continuous
 62
     2
370
     9
100
AcDbLine
 10
1406.959199105569
 20
38.70483693497132
 30
0.0
 11
1404.360881383103
 21
41.30315465743685
 31
0.0
  0
ARC
  5
171
330
1F
100
AcDbEntity
  8
0-4_寸法
  6
Continuous
 62
     2
370
     9
100
AcDbCircle
 10
1407.896415289036
 20
44.83868856336951
 30
0.0
 40
5.0
100
AcDbArc
 50
139.0664551020826
 51
225.0
  0
ARC
  5
172
330
1F
100
AcDbEntity
  8
0-4_寸法
  6
Continuous
 62
     2
370
     9
100
AcDbCircle
 10
1406.574497213174
 20
44.24552577351744
 30
0.0
 40
5.0
100
AcDbArc
 50
138.942211152023
 51
225.0
  0
ARC
  5
173
330
1F
100
AcDbEntity
  8
0-4_寸法
  6
Continuous
 62
     2
370
     9
100
AcDbCircle
 10
501.7436482581695
 20
-5.517779873316933
 30
0.0
 40
36.66666666666671
100
AcDbArc
 50
135.0
 51
315.0
  0
ARC
  5
174
330
1F
100
AcDbEntity
  8
0-4_寸法
  6
Continuous
 62
     2
370
     9
100
AcDbCircle
 10
501.7436482581695
 20
-5.517779873316933
 30
0.0
 40
39.16666666666669
100
AcDbArc
 50
139.5187882813343
 51
310.4812117186657
  0
ARC
  5
175
330
1F
100
AcDbEntity
  8
0-4_寸法
  6
Continuous
 62
     2
370
     9
100
AcDbCircle
 10
468.1496472827683
 20
23.15516107994469
 30
0.0
 40
5.0
100
AcDbArc
 50
319.518788281334
 51
41.04485309879117
  0
LINE
  5
176
330
1F
100
AcDbEntity
  8
0-4_寸法
  6
Continuous
 62
     2
370
     9
100
AcDbLine
 10
475.8163996146624
 20
20.40946877018992
 30
0.0
 11
496.116922712057
 21
40.70999186758442
 31
0.0
  0
ARC
  5
177
330
1F
100
AcDbEntity
  8
0-4_寸法
  6
Continuous
 62
     2
370
     9
100
AcDbCircle
 10
477.219986811802
 20
30.50457681941381
 30
0.0
 40
5.0
100
AcDbArc
 50
221.0826259818895
 51
315.0000000000001
  0
LINE
  5
178
330
1F
100
AcDbEntity
  8
0-4_寸法
  6
Continuous
 62
     2
370
     9
100
AcDbLine
 10
480.7555207177342
 20
26.96904291348105
 30
0.0
 11
489.9732869339613
 21
36.18680912970838
 31
0.0
  0
LINE
  5
179
330
1F
100
AcDbEntity
  8
0-4_寸法
  6
Continuous
 62
     2
370
     9
100
AcDbLine
 10
489.9732869339613
 20
36.18680912970838
 30
0.0
 11
492.1966869137304
 21
38.70483693497118
 31
0.0
  0
LINE
  5
17A
330
1F
100
AcDbEntity
  8
0-4_寸法
  6
Continuous
 62
     2
370
     9
100
AcDbLine
 10
492.1966869137299
 20
38.70483693497118
 30
0.0
 11
494.7950046361956
 21
41.30315465743664
 31
0.0
  0
ARC
  5
17B
330
1F
100
AcDbEntity
  8
0-4_寸法
  6
Continuous
 62
     2
370
     9
100
AcDbCircle
 10
491.2594707302628
 20
44.8386885633694
 30
0.0
 40
5.0
100
AcDbArc
 50
315.0
 51
40.9335448979174
  0
ARC
  5
17C
330
1F
100
AcDbEntity
  8
0-4_寸法
  6
Continuous
 62
     2
370
     9
100
AcDbCircle
 10
492.5813888061242
 20
44.24552577351719
 30
0.0
 40
5.0
100
AcDbArc
 50
315.0
 51
41.05778884797559
  0
ARC
  5
17D
330
1F
100
AcDbEntity
  8
0-4_寸法
  6
Continuous
 62
     2
370
     9
100
AcDbCircle
 10
949.5779430096491
 20
442.3165148781633
 30
0.0
 40
601.0580524344567
100
AcDbArc
 50
221.0577888479766
 51
228.9422111520234
  0
ARC
  5
17E
330
1F
100
AcDbEntity
  8
0-4_寸法
  6
Continuous
 62
     2
370
     9
100
AcDbCircle
 10
530.416589211431
 20
-39.11178084871757
 30
0.0
 40
5.0
100
AcDbArc
 50
48.95514690120883
 51
130.481211718666
  0
ARC
  5
17F
330
1F
100
AcDbEntity
  8
0-4_寸法
  6
Continuous
 62
     2
370
     9
100
AcDbCircle
 10
537.7660049509001
 20
-30.04144131968445
 30
0.0
 40
5.0
100
AcDbArc
 50
135.0
 51
228.9173740181106
  0
LINE
  5
180
330
1F
100
AcDbEntity
  8
0-4_寸法
  6
Continuous
 62
     2
370
     9
100
AcDbLine
 10
527.6708969016761
 20
-31.44502851682361
 30
0.0
 11
547.9714199990707
 21
-11.14450541942908
 31
0.0
  0
LINE
  5
181
330
1F
100
AcDbEntity
  8
0-4_寸法
  6
Continuous
 62
     2
370
     9
100
AcDbLine
 10
534.2304710449673
 20
-26.50590741375172
 30
0.0
 11
543.4482372611944
 21
-17.28814119752446
 31
0.0
  0
LINE
  5
182
330
1F
100
AcDbEntity
  8
0-4_寸法
  6
Continuous
 62
     2
370
     9
100
AcDbLine
 10
545.9662650664569
 20
-15.06474121775597
 30
0.0
 11
543.4482372611944
 21
-17.28814119752446
 31
0.0
  0
LINE
  5
183
330
1F
100
AcDbEntity
  8
0-4_寸法
  6
Continuous
 62
     2
370
     9
100
AcDbLine
 10
545.9662650664569
 20
-15.06474121775597
 30
0.0
 11
548.5645827889226
 21
-12.46642349529047
 31
0.0
  0
ARC
  5
184
330
1F
100
AcDbEntity
  8
0-4_寸法
  6
Continuous
 62
     2
370
     9
100
AcDbCircle
 10
552.1001166948554
 20
-16.00195740122317
 30
0.0
 40
5.0
100
AcDbArc
 50
49.0664551020826
 51
135.0
  0
ARC
  5
185
330
1F
100
AcDbEntity
  8
0-4_寸法
  6
Continuous
 62
     2
370
     9
100
AcDbCircle
 10
551.5069539050035
 20
-14.68003932536185
 30
0.0
 40
5.0
100
AcDbArc
 50
48.94221115202305
 51
135.0
  0
ARC
  5
186
330
1F
100
AcDbEntity
  8
0-4_寸法
  6
Continuous
 62
     2
370
     9
100
AcDbCircle
 10
949.5779430096491
 20
442.3165148781633
 30
0.0
 40
601.6666666666665
100
AcDbArc
 50
139.0664551020827
 51
177.0236884510659
  0
ARC
  5
187
330
1F
100
AcDbEntity
  8
0-4_寸法
  6
Continuous
 62
     2
370
     9
100
AcDbCircle
 10
949.5779430096491
 20
442.3165148781633
 30
0.0
 40
631.6666666666666
100
AcDbArc
 50
138.9173740181105
 51
177.149273238704
  0
ARC
  5
188
330
1F
100
AcDbEntity
  8
0-4_寸法
  6
Continuous
 62
     2
370
     9
100
AcDbCircle
 10
949.5779430096491
 20
442.3165148781633
 30
0.0
 40
633.3333333333333
100
AcDbArc
 50
138.9551469012085
 51
177.0836485309751
  0
ARC
  5
189
330
1F
100
AcDbEntity
  8
0-4_寸法
  6
Continuous
 62
     2
370
     9
100
AcDbCircle
 10
949.5779430096491
 20
442.3165148781633
 30
0.0
 40
613.3333333333333
100
AcDbArc
 50
138.534572979172
 51
177.5548455326443
  0
ARC
  5
18A
330
1F
100
AcDbEntity
  8
0-4_寸法
  6
Continuous
 62
     2
370
     9
100
AcDbCircle
 10
949.5779430096491
 20
442.3165148781633
 30
0.0
 40
609.9999999999999
100
AcDbArc
 50
138.5735184698207
 51
177.5101374644738
  0
ARC
  5
18B
330
1F
100
AcDbEntity
  8
0-4_寸法
  6
Continuous
 62
     2
370
     9
100
AcDbCircle
 10
949.5779430096491
 20
442.3165148781633
 30
0.0
 40
633.3333333333333
100
AcDbArc
 50
48.95514690120851
 51
131.0448530987915
  0
ARC
  5
18C
330
1F
100
AcDbEntity
  8
0-4_寸法
  6
Continuous
 62
     2
370
     9
100
AcDbCircle
 10
949.5779430096491
 20
442.3165148781633
 30
0.0
 40
631.6666666666666
100
AcDbArc
 50
48.91737401811046
 51
131.0826259818896
  0
ARC
  5
18D
330
1F
100
AcDbEntity
  8
0-4_寸法
  6
Continuous
 62
     2
370
     9
100
AcDbCircle
 10
949.5779430096491
 20
442.3165148781633
 30
0.0
 40
613.3333333333333
100
AcDbArc
 50
48.53457297917206
 51
131.4654270208279
  0
ARC
  5
18E
330
1F
100
AcDbEntity
  8
0-4_寸法
  6
Continuous
 62
     2
370
     9
100
AcDbCircle
 10
949.5779430096491
 20
442.3165148781633
 30
0.0
 40
609.9999999999999
100
AcDbArc
 50
48.57351846982071
 51
131.4264815301793
  0
ARC
  5
18F
330
1F
100
AcDbEntity
  8
0-4_寸法
  6
Continuous
 62
     2
370
     9
100
AcDbCircle
 10
949.5779430096491
 20
442.3165148781633
 30
0.0
 40
601.6666666666665
100
AcDbArc
 50
49.06645510208271
 51
130.9335448979173
  0
ARC
  5
190
330
1F
100
AcDbEntity
  8
0-4_寸法
  6
Continuous
 62
     2
370
     9
100
AcDbCircle
 10
949.5779430096491
 20
442.3165148781633
 30
0.0
 40
633.3333333333333
100
AcDbArc
 50
318.9551469012085
 51
41.0448530987915
  0
ARC
  5
191
330
1F
100
AcDbEntity
  8
0-4_寸法
  6
Continuous
 62
     2
370
     9
100
AcDbCircle
 10
949.5779430096491
 20
442.3165148781633
 30
0.0
 40
631.6666666666666
100
AcDbArc
 50
318.9173740181105
 51
41.08262598188955
  0
ARC
  5
192
330
1F
100
AcDbEntity
  8
0-4_寸法
  6
Continuous
 62
     2
370
     9
100
AcDbCircle
 10
949.5779430096491
 20
442.3165148781633
 30
0.0
 40
613.3333333333333
100
AcDbArc
 50
318.5345729791721
 51
41.46542702082795
  0
ARC
  5
193
330
1F
100
AcDbEntity
  8
0-4_寸法
  6
Continuous
 62
     2
370
     9
100
AcDbCircle
 10
949.5779430096491
 20
442.3165148781633
 30
0.0
 40
609.9999999999999
100
AcDbArc
 50
318.5735184698207
 51
41.4264815301793
  0
ARC
  5
194
330
1F
100
AcDbEntity
  8
0-4_寸法
  6
Continuous
 62
     2
370
     9
100
AcDbCircle
 10
949.5779430096491
 20
442.3165148781633
 30
0.0
 40
601.6666666666665
100
AcDbArc
 50
319.0664551020827
 51
40.93354489791729
  0
ARC
  5
195
330
1F
100
AcDbEntity
  8
0-4_寸法
  6
Continuous
 62
     2
370
     9
100
AcDbCircle
 10
949.5779430096491
 20
442.3165148781633
 30
0.0
 40
633.3333333333333
100
AcDbArc
 50
182.9163514690249
 51
221.0448530987915
  0
ARC
  5
196
330
1F
100
AcDbEntity
  8
0-4_寸法
  6
Continuous
 62
     2
370
     9
100
AcDbCircle
 10
949.5779430096491
 20
442.3165148781633
 30
0.0
 40
633.3333333333333
100
AcDbArc
 50
228.9551469012085
 51
311.0448530987915
  0
ARC
  5
197
330
1F
100
AcDbEntity
  8
0-4_寸法
  6
Continuous
 62
     2
370
     9
100
AcDbCircle
 10
949.5779430096491
 20
442.3165148781633
 30
0.0
 40
631.6666666666666
100
AcDbArc
 50
182.850726761296
 51
221.0826259818896
  0
ARC
  5
198
330
1F
100
AcDbEntity
  8
0-4_寸法
  6
Continuous
 62
     2
370
     9
100
AcDbCircle
 10
949.5779430096491
 20
442.3165148781633
 30
0.0
 40
631.6666666666666
100
AcDbArc
 50
228.9173740181105
 51
311.0826259818896
  0
ARC
  5
199
330
1F
100
AcDbEntity
  8
0-4_寸法
  6
Continuous
 62
     2
370
     9
100
AcDbCircle
 10
949.5779430096491
 20
442.3165148781633
 30
0.0
 40
613.3333333333333
100
AcDbArc
 50
182.4451544673557
 51
221.465427020828
  0
ARC
  5
19A
330
1F
100
AcDbEntity
  8
0-4_寸法
  6
Continuous
 62
     2
370
     9
100
AcDbCircle
 10
949.5779430096491
 20
442.3165148781633
 30
0.0
 40
613.3333333333333
100
AcDbArc
 50
228.5345729791721
 51
311.465427020828
  0
ARC
  5
19B
330
1F
100
AcDbEntity
  8
0-4_寸法
  6
Continuous
 62
     2
370
     9
100
AcDbCircle
 10
949.5779430096491
 20
442.3165148781633
 30
0.0
 40
609.9999999999999
100
AcDbArc
 50
182.4898625355262
 51
221.4264815301792
  0
ARC
  5
19C
330
1F
100
AcDbEntity
  8
0-4_寸法
  6
Continuous
 62
     2
370
     9
100
AcDbCircle
 10
949.5779430096491
 20
442.3165148781633
 30
0.0
 40
609.9999999999999
100
AcDbArc
 50
228.5735184698207
 51
311.4264815301793
  0
ARC
  5
19D
330
1F
100
AcDbEntity
  8
0-4_寸法
  6
Continuous
 62
     2
370
     9
100
AcDbCircle
 10
949.5779430096491
 20
442.3165148781633
 30
0.0
 40
601.6666666666665
100
AcDbArc
 50
182.9763115489342
 51
220.9335448979173
  0
ARC
  5
19E
330
1F
100
AcDbEntity
  8
0-4_寸法
  6
Continuous
 62
     2
370
     9
100
AcDbCircle
 10
949.5779430096491
 20
442.3165148781633
 30
0.0
 40
601.6666666666665
100
AcDbArc
 50
229.0664551020827
 51
310.9335448979173
  0
CIRCLE
  5
19F
330
1F
100
AcDbEntity
  8
0-4_寸法
  6
Continuous
 62
     2
370
     9
100
AcDbCircle
 10
501.7436482581695
 20
890.1508096296435
 30
0.0
 40
12.5
  0
CIRCLE
  5
1A0
330
1F
100
AcDbEntity
  8
0-4_寸法
  6
Continuous
 62
     2
370
     9
100
AcDbCircle
 10
1397.412237761129
 20
890.1508096296435
 30
0.0
 40
12.5
  0
CIRCLE
  5
1A1
330
1F
100
AcDbEntity
  8
0-4_寸法
  6
Continuous
 62
     2
370
     9
100
AcDbCircle
 10
1397.41223776113
 20
-5.517779873316684
 30
0.0
 40
15.83333333333333
  0
CIRCLE
  5
1A2
330
1F
100
AcDbEntity
  8
0-4_寸法
  6
Continuous
 62
     2
370
     9
100
AcDbCircle
 10
1397.41223776113
 20
-5.517779873316684
 30
0.0
 40
12.5
  0
CIRCLE
  5
1A3
330
1F
100
AcDbEntity
  8
0-4_寸法
  6
Continuous
 62
     2
370
     9
100
AcDbCircle
 10
501.7436482581695
 20
-5.517779873316933
 30
0.0
 40
15.83333333333333
  0
CIRCLE
  5
1A4
330
1F
100
AcDbEntity
  8
0-4_寸法
  6
Continuous
 62
     2
370
     9
100
AcDbCircle
 10
501.7436482581695
 20
-5.517779873316933
 30
0.0
 40
12.5
  0
LINE
  5
1A5
330
1F
100
AcDbEntity
  8
0-4_寸法
  6
JWW_CENTER2
 62
     7
370
     9
100
AcDbLine
 10
949.5779430096491
 20
442.3165148781633
 30
0.0
 11
270.8601007540591
 21
442.3165148781633
 31
0.0
  0
LINE
  5
1A6
330
1F
100
AcDbEntity
  8
0-4_寸法
  6
JWW_CENTER2
 62
     7
370
     9
100
AcDbLine
 10
949.5779430096491
 20
442.3165148781633
 30
0.0
 11
1616.593231533346
 21
442.3165148781633
 31
0.0
  0
LINE
  5
1A7
330
1F
100
AcDbEntity
  8
0-4_寸法
  6
JWW_CENTER2
 62
     7
370
     9
100
AcDbLine
 10
949.5779430096491
 20
1125.018114301423
 30
0.0
 11
949.5779430096491
 21
-236.3462137049866
 31
0.0
  0
LINE
  5
1A8
330
1F
100
AcDbEntity
  8
0-4_寸法
  6
JWW_CENTER2
 62
     7
370
     9
100
AcDbLine
 10
319.5779430096491
 20
458.9863108074769
 30
0.0
 11
319.5779430096491
 21
422.5839311035174
 31
0.0
  0
LINE
  5
1A9
330
1F
100
AcDbEntity
  8
0-4_寸法
  6
JWW_CENTER2
 62
     7
370
     9
100
AcDbLine
 10
535.5391405033729
 20
856.3553173844393
 30
0.0
 11
467.9481560129653
 21
923.9463018748471
 31
0.0
  0
LINE
  5
1AA
330
1F
100
AcDbEntity
  8
0-4_寸法
  6
JWW_CENTER2
 62
     7
370
     9
100
AcDbLine
 10
482.7181459799147
 20
871.125307351389
 30
0.0
 11
518.9855957776831
 21
907.3927571491574
 31
0.0
  0
LINE
  5
1AB
330
1F
100
AcDbEntity
  8
0-4_寸法
  6
JWW_CENTER2
 62
     7
370
     9
100
AcDbLine
 10
467.9481560129656
 20
-39.31327211852114
 30
0.0
 11
535.5391405033731
 21
28.27771237188706
 31
0.0
  0
LINE
  5
1AC
330
1F
100
AcDbEntity
  8
0-4_寸法
  6
JWW_CENTER2
 62
     7
370
     9
100
AcDbLine
 10
484.5017007386554
 20
11.7241676461972
 30
0.0
 11
520.7691505364238
 21
-24.54328215157119
 31
0.0
  0
LINE
  5
1AD
330
1F
100
AcDbEntity
  8
0-4_寸法
  6
JWW_CENTER2
 62
     7
370
     9
100
AcDbLine
 10
1431.207730006334
 20
-39.31327211852031
 30
0.0
 11
1363.616745515926
 21
28.2777123718872
 31
0.0
  0
LINE
  5
1AE
330
1F
100
AcDbEntity
  8
0-4_寸法
  6
JWW_CENTER2
 62
     7
370
     9
100
AcDbLine
 10
1380.170290241615
 20
-22.75972739283081
 30
0.0
 11
1416.437740039384
 21
13.50772240493754
 31
0.0
  0
LINE
  5
1AF
330
1F
100
AcDbEntity
  8
0-4_寸法
  6
JWW_CENTER2
 62
     7
370
     9
100
AcDbLine
 10
1363.616745515925
 20
856.3553173844402
 30
0.0
 11
1431.207730006333
 21
923.9463018748477
 31
0.0
  0
LINE
  5
1B0
330
1F
100
AcDbEntity
  8
0-4_寸法
  6
JWW_CENTER2
 62
     7
370
     9
100
AcDbLine
 10
1378.386735482875
 20
909.1763119078983
 30
0.0
 11
1414.654185280643
 21
872.9088621101296
 31
0.0
  0
CIRCLE
  5
1B1
330
1F
100
AcDbEntity
  8
0-4_寸法
  6
Continuous
 62
     4
370
     9
100
AcDbCircle
 10
949.5779430096491
 20
442.3165148781633
 30
0.0
 40
524.9986779582391
  0
CIRCLE
  5
1B2
330
1F
100
AcDbEntity
  8
0-4_寸法
  6
Continuous
 62
     4
370
     9
100
AcDbCircle
 10
949.5779430096491
 20
442.3165148781633
 30
0.0
 40
539.9986779582391
  0
CIRCLE
  5
1B3
330
1F
100
AcDbEntity
  8
0-4_寸法
  6
Continuous
 62
     2
370
     9
100
AcDbCircle
 10
949.5779430096491
 20
442.3165148781633
 30
0.0
 40
541.6666666666666
  0
CIRCLE
  5
1B4
330
1F
100
AcDbEntity
  8
0-4_寸法
  6
Continuous
 62
     2
370
     9
100
AcDbCircle
 10
949.5779430096491
 20
442.3165148781633
 30
0.0
 40
544.1666666666666
  0
CIRCLE
  5
1B5
330
1F
100
AcDbEntity
  8
0-4_寸法
  6
Continuous
 62
     2
370
     9
100
AcDbCircle
 10
949.5779430096491
 20
442.3165148781633
 30
0.0
 40
551.6666666666666
  0
CIRCLE
  5
1B6
330
1F
100
AcDbEntity
  8
0-4_寸法
  6
Continuous
 62
     2
370
     9
100
AcDbCircle
 10
949.5779430096491
 20
442.3165148781633
 30
0.0
 40
583.8333333333334
  0
CIRCLE
  5
1B7
330
1F
100
AcDbEntity
  8
0-4_寸法
  6
Continuous
 62
     2
370
     9
100
AcDbCircle
 10
949.5779430096491
 20
442.3165148781633
 30
0.0
 40
553.6666666666666
  0
LINE
  5
1B8
330
1F
100
AcDbEntity
  8
0-4_寸法
  6
Continuous
 62
     2
370
     9
100
AcDbLine
 10
497.0200220440648
 20
907.7789174738159
 30
0.0
 11
514.6798021855346
 21
903.0468783057416
 31
0.0
  0
LINE
  5
1B9
330
1F
100
AcDbEntity
  8
0-4_寸法
  6
Continuous
 62
     2
370
     9
100
AcDbLine
 10
506.4672744722742
 20
872.5227017854713
 30
0.0
 11
519.3950154456695
 21
885.4504427588666
 31
0.0
  0
LINE
  5
1BA
330
1F
100
AcDbEntity
  8
0-4_寸法
  6
Continuous
 62
     2
370
     9
100
AcDbLine
 10
506.4672744722742
 20
872.5227017854713
 30
0.0
 11
488.807494330805
 21
877.2544935137229
 31
0.0
  0
LINE
  5
1BB
330
1F
100
AcDbEntity
  8
0-4_寸法
  6
Continuous
 62
     2
370
     9
100
AcDbLine
 10
497.0200220440648
 20
907.7789174738159
 30
0.0
 11
484.0922810706695
 21
894.8511765004206
 31
0.0
  0
LINE
  5
1BC
330
1F
100
AcDbEntity
  8
0-4_寸法
  6
Continuous
 62
     2
370
     9
100
AcDbLine
 10
484.0922810706695
 20
894.8511765004206
 30
0.0
 11
488.807494330805
 21
877.2544935137229
 31
0.0
  0
LINE
  5
1BD
330
1F
100
AcDbEntity
  8
0-4_寸法
  6
Continuous
 62
     2
370
     9
100
AcDbLine
 10
514.6798021855346
 20
903.0468783057416
 30
0.0
 11
519.3950154456695
 21
885.4504427588666
 31
0.0
  0
CIRCLE
  5
1BE
330
1F
100
AcDbEntity
  8
0-4_寸法
  6
Continuous
 62
     2
370
     9
100
AcDbCircle
 10
501.7436482581695
 20
890.1508096296435
 30
0.0
 40
10.00000012887491
  0
CIRCLE
  5
1BF
330
1F
100
AcDbEntity
  8
0-4_寸法
  6
Continuous
 62
     2
370
     9
100
AcDbCircle
 10
501.7520612121393
 20
890.1191373323463
 30
0.0
 40
15.83336205095858
  0
CIRCLE
  5
1C0
330
1F
100
AcDbEntity
  8
0-4_寸法
  6
Continuous
 62
     2
370
     9
100
AcDbCircle
 10
501.7436482581695
 20
890.1508096296435
 30
0.0
 40
8.421666557724413
  0
ARC
  5
1C1
330
1F
100
AcDbEntity
  8
0-4_寸法
  6
Continuous
 62
     2
370
     9
100
AcDbCircle
 10
503.9003337522576
 20
882.100602440032
 30
0.0
 40
15.83333402066618
100
AcDbArc
 50
195.0002288818359
 51
195.0005187988281
  0
ARC
  5
1C2
330
1F
100
AcDbEntity
  8
0-4_寸法
  6
Continuous
 62
     2
370
     9
100
AcDbCircle
 10
650.5292136086763
 20
334.87234085325
 30
0.0
 40
580.8333113386825
100
AcDbArc
 50
103.4378814697265
 51
103.4378967285156
  0
CIRCLE
  5
1C3
330
1F
100
AcDbEntity
  8
0-4_寸法
  6
Continuous
 62
     6
370
     5
100
AcDbCircle
 10
501.7431533785242
 20
890.1508096296435
 30
0.0
 40
20.00000025774982
  0
ARC
  5
1C4
330
1F
100
AcDbEntity
  8
0-4_寸法
  6
Continuous
 62
     2
370
     9
100
AcDbCircle
 10
1397.411784170927
 20
-5.517944649002544
 30
0.0
 40
15.83333112098075
100
AcDbArc
 50
195.0002288818359
 51
14.9990997314453
  0
LINE
  5
1C5
330
1F
100
AcDbEntity
  8
0-4_寸法
  6
Continuous
 62
     2
370
     9
100
AcDbLine
 10
1392.688611547024
 20
12.11032797085565
 30
0.0
 11
1410.348391688494
 21
7.378288802781441
 31
0.0
  0
LINE
  5
1C6
330
1F
100
AcDbEntity
  8
0-4_寸法
  6
Continuous
 62
     2
370
     9
100
AcDbLine
 10
1402.135863975234
 20
-23.14588771748888
 30
0.0
 11
1415.06360494863
 21
-10.21814674409356
 31
0.0
  0
LINE
  5
1C7
330
1F
100
AcDbEntity
  8
0-4_寸法
  6
Continuous
 62
     2
370
     9
100
AcDbLine
 10
1402.135863975234
 20
-23.14588771748888
 30
0.0
 11
1384.476083833765
 21
-18.41409598923732
 31
0.0
  0
LINE
  5
1C8
330
1F
100
AcDbEntity
  8
0-4_寸法
  6
Continuous
 62
     2
370
     9
100
AcDbLine
 10
1392.688611547024
 20
12.11032797085565
 30
0.0
 11
1379.76087057363
 21
-0.8174130025396664
 31
0.0
  0
LINE
  5
1C9
330
1F
100
AcDbEntity
  8
0-4_寸法
  6
Continuous
 62
     2
370
     9
100
AcDbLine
 10
1379.76087057363
 20
-0.8174130025396664
 30
0.0
 11
1384.476083833765
 21
-18.41409598923732
 31
0.0
  0
LINE
  5
1CA
330
1F
100
AcDbEntity
  8
0-4_寸法
  6
Continuous
 62
     2
370
     9
100
AcDbLine
 10
1410.348391688494
 20
7.378288802781441
 30
0.0
 11
1415.06360494863
 21
-10.21814674409356
 31
0.0
  0
CIRCLE
  5
1CB
330
1F
100
AcDbEntity
  8
0-4_寸法
  6
Continuous
 62
     2
370
     9
100
AcDbCircle
 10
1397.41223776113
 20
-5.517779873316755
 30
0.0
 40
10.00000012887491
  0
CIRCLE
  5
1CC
330
1F
100
AcDbEntity
  8
0-4_寸法
  6
Continuous
 62
     2
370
     9
100
AcDbCircle
 10
1397.4206507151
 20
-5.549452170613876
 30
0.0
 40
15.83336205095858
  0
CIRCLE
  5
1CD
330
1F
100
AcDbEntity
  8
0-4_寸法
  6
Continuous
 62
     2
370
     9
100
AcDbCircle
 10
1397.41223776113
 20
-5.517779873316755
 30
0.0
 40
8.421666557724413
  0
ARC
  5
1CE
330
1F
100
AcDbEntity
  8
0-4_寸法
  6
Continuous
 62
     2
370
     9
100
AcDbCircle
 10
1399.568923255217
 20
-13.56798706292821
 30
0.0
 40
15.83333402066618
100
AcDbArc
 50
195.0002288818359
 51
195.0005187988281
  0
ARC
  5
1CF
330
1F
100
AcDbEntity
  8
0-4_寸法
  6
Continuous
 62
     2
370
     9
100
AcDbCircle
 10
1546.197803111636
 20
-560.7962486497103
 30
0.0
 40
580.8333113386825
100
AcDbArc
 50
103.4378814697265
 51
103.4378967285156
  0
CIRCLE
  5
1D0
330
1F
100
AcDbEntity
  8
0-4_寸法
  6
Continuous
 62
     6
370
     5
100
AcDbCircle
 10
1397.411742881484
 20
-5.517779873316755
 30
0.0
 40
20.00000025774982
  0
ARC
  5
1D1
330
1F
100
AcDbEntity
  8
0-4_寸法
  6
Continuous
 62
     2
370
     9
100
AcDbCircle
 10
501.7436895476123
 20
-5.517944649002722
 30
0.0
 40
15.83333112098075
100
AcDbArc
 50
195.0002288818359
 51
14.9990997314453
  0
LINE
  5
1D2
330
1F
100
AcDbEntity
  8
0-4_寸法
  6
Continuous
 62
     2
370
     9
100
AcDbLine
 10
497.0205169237101
 20
12.11032797085547
 30
0.0
 11
514.68029706518
 21
7.378288802781263
 31
0.0
  0
LINE
  5
1D3
330
1F
100
AcDbEntity
  8
0-4_寸法
  6
Continuous
 62
     2
370
     9
100
AcDbLine
 10
506.4677693519195
 20
-23.14588771748905
 30
0.0
 11
519.3955103253154
 21
-10.21814674409374
 31
0.0
  0
LINE
  5
1D4
330
1F
100
AcDbEntity
  8
0-4_寸法
  6
Continuous
 62
     2
370
     9
100
AcDbLine
 10
506.4677693519195
 20
-23.14588771748905
 30
0.0
 11
488.8079892104508
 21
-18.4140959892375
 31
0.0
  0
LINE
  5
1D5
330
1F
100
AcDbEntity
  8
0-4_寸法
  6
Continuous
 62
     2
370
     9
100
AcDbLine
 10
497.0205169237101
 20
12.11032797085547
 30
0.0
 11
484.0927759503154
 21
-0.8174130025398441
 31
0.0
  0
LINE
  5
1D6
330
1F
100
AcDbEntity
  8
0-4_寸法
  6
Continuous
 62
     2
370
     9
100
AcDbLine
 10
484.0927759503154
 20
-0.8174130025398441
 30
0.0
 11
488.8079892104508
 21
-18.4140959892375
 31
0.0
  0
LINE
  5
1D7
330
1F
100
AcDbEntity
  8
0-4_寸法
  6
Continuous
 62
     2
370
     9
100
AcDbLine
 10
514.68029706518
 20
7.378288802781263
 30
0.0
 11
519.3955103253154
 21
-10.21814674409374
 31
0.0
  0
CIRCLE
  5
1D8
330
1F
100
AcDbEntity
  8
0-4_寸法
  6
Continuous
 62
     2
370
     9
100
AcDbCircle
 10
501.7441431378154
 20
-5.517779873316933
 30
0.0
 40
10.00000012887491
  0
CIRCLE
  5
1D9
330
1F
100
AcDbEntity
  8
0-4_寸法
  6
Continuous
 62
     2
370
     9
100
AcDbCircle
 10
501.7525560917852
 20
-5.549452170614053
 30
0.0
 40
15.83336205095858
  0
CIRCLE
  5
1DA
330
1F
100
AcDbEntity
  8
0-4_寸法
  6
Continuous
 62
     2
370
     9
100
AcDbCircle
 10
501.7441431378154
 20
-5.517779873316933
 30
0.0
 40
8.421666557724413
  0
ARC
  5
1DB
330
1F
100
AcDbEntity
  8
0-4_寸法
  6
Continuous
 62
     2
370
     9
100
AcDbCircle
 10
503.9008286319029
 20
-13.56798706292839
 30
0.0
 40
15.83333402066618
100
AcDbArc
 50
195.0002288818359
 51
195.0005187988281
  0
ARC
  5
1DC
330
1F
100
AcDbEntity
  8
0-4_寸法
  6
Continuous
 62
     2
370
     9
100
AcDbCircle
 10
650.5297084883216
 20
-560.7962486497104
 30
0.0
 40
580.8333113386825
100
AcDbArc
 50
103.4378814697265
 51
103.4378967285156
  0
CIRCLE
  5
1DD
330
1F
100
AcDbEntity
  8
0-4_寸法
  6
Continuous
 62
     6
370
     5
100
AcDbCircle
 10
501.7436482581695
 20
-5.517779873316933
 30
0.0
 40
20.00000025774982
  0
CIRCLE
  5
1DE
330
1F
100
AcDbEntity
  8
0-4_寸法
  6
Continuous
 62
     2
370
     9
100
AcDbCircle
 10
319.5784378892949
 20
442.3165148781633
 30
0.0
 40
10.00000012887491
  0
CIRCLE
  5
1DF
330
1F
100
AcDbEntity
  8
0-4_寸法
  6
Continuous
 62
     2
370
     9
100
AcDbCircle
 10
319.5784378892949
 20
442.3165148781633
 30
0.0
 40
8.421666557724413
  0
ARC
  5
1E0
330
1F
100
AcDbEntity
  8
0-4_寸法
  6
Continuous
 62
     2
370
     9
100
AcDbCircle
 10
321.7351233833824
 20
434.2663076885518
 30
0.0
 40
15.83333402066618
100
AcDbArc
 50
195.0002288818359
 51
195.0005187988281
  0
ARC
  5
1E1
330
1F
100
AcDbEntity
  8
0-4_寸法
  6
Continuous
 62
     2
370
     9
100
AcDbCircle
 10
468.3640032398011
 20
-112.9619538982302
 30
0.0
 40
580.8333113386825
100
AcDbArc
 50
103.4378814697265
 51
103.4378967285156
  0
LINE
  5
1E2
330
1F
100
AcDbEntity
  8
0-4_寸法
  6
Continuous
 62
     4
370
     9
100
AcDbLine
 10
422.8972610568979
 20
968.9971968309147
 30
0.0
 11
373.3997863738395
 21
919.4997221478565
 31
0.0
  0
LINE
  5
1E3
330
1F
100
AcDbEntity
  8
0-4_寸法
  6
Continuous
 62
     4
370
     9
100
AcDbLine
 10
422.8972610568979
 20
968.9971968309147
 30
0.0
 11
407.3409118707937
 21
942.1271391458259
 31
0.0
  0
LINE
  5
1E4
330
1F
100
AcDbEntity
  8
0-4_寸法
  6
Continuous
 62
     4
370
     9
100
AcDbLine
 10
422.8972610568979
 20
968.9971968309147
 30
0.0
 11
396.027203371809
 21
953.4408476448108
 31
0.0
  0
LINE
  5
1E5
330
1F
100
AcDbEntity
  8
0-4_寸法
  6
JWW_CENTER1
 62
     4
370
     9
100
AcDbLine
 10
422.8972610568979
 20
968.9971968309147
 30
0.0
 11
633.0557091564151
 21
758.8387487313959
 31
0.0
  0
LINE
  5
1E6
330
1F
100
AcDbEntity
  8
0-4_寸法
  6
Continuous
 62
     4
370
     9
100
AcDbLine
 10
633.0557091564151
 20
758.8387487313962
 30
0.0
 11
583.5582344733577
 21
709.3412740483379
 31
0.0
  0
LINE
  5
1E7
330
1F
100
AcDbEntity
  8
0-4_寸法
  6
Continuous
 62
     4
370
     9
100
AcDbLine
 10
633.0557091564151
 20
758.8387487313962
 30
0.0
 11
606.1856514713264
 21
743.282399545292
 31
0.0
  0
LINE
  5
1E8
330
1F
100
AcDbEntity
  8
0-4_寸法
  6
Continuous
 62
     4
370
     9
100
AcDbLine
 10
633.0557091564151
 20
758.8387487313962
 30
0.0
 11
617.4993599703112
 21
731.9686910463074
 31
0.0
  0
TEXT
  5
1E9
330
1F
100
AcDbEntity
  8
0-4_寸法
  6
Continuous
 62
     2
370
     9
100
AcDbText
 10
545.1199098480564
 20
685.0450850467681
 30
0.0
 40
30.48
  1
A’
 50
314.9999999999998
 41
1.041666666666673
  7
ＭＳ ゴシック
100
AcDbText
  0
TEXT
  5
1EA
330
1F
100
AcDbEntity
  8
0-4_寸法
  6
Continuous
 62
     2
370
     9
100
AcDbText
 10
334.9614617485387
 20
895.2035331462869
 30
0.0
 40
30.48
  1
A
 50
314.9999999999998
 41
1.000000000000003
  7
ＭＳ ゴシック
100
AcDbText
  0
LINE
  5
1EB
330
1F
100
AcDbEntity
  8
0-4_寸法
  6
Continuous
 62
     7
370
     9
100
AcDbLine
 10
335.4829457495964
 20
723.8901071210715
 30
0.0
 11
1231.151535252556
 21
-171.7784823818906
 31
0.0
  0
LINE
  5
1EC
330
1F
100
AcDbEntity
  8
0-4_寸法
  6
Continuous
 62
     7
370
     9
100
AcDbLine
 10
335.4829457495964
 20
723.8901071210715
 30
0.0
 11
355.3167792568772
 21
708.6710713958535
 31
0.0
  0
LINE
  5
1ED
330
1F
100
AcDbEntity
  8
0-4_寸法
  6
Continuous
 62
     7
370
     9
100
AcDbLine
 10
335.4829457495964
 20
723.8901071210715
 30
0.0
 11
350.7019814748145
 21
704.0562736137906
 31
0.0
  0
LINE
  5
1EE
330
1F
100
AcDbEntity
  8
0-4_寸法
  6
Continuous
 62
     7
370
     9
100
AcDbLine
 10
1231.151535252556
 20
-171.7784823818906
 30
0.0
 11
1215.932499527337
 21
-151.9446488746097
 31
0.0
  0
LINE
  5
1EF
330
1F
100
AcDbEntity
  8
0-4_寸法
  6
Continuous
 62
     7
370
     9
100
AcDbLine
 10
1231.151535252556
 20
-171.7784823818906
 30
0.0
 11
1211.317701745274
 21
-156.5594466566725
 31
0.0
  0
LINE
  5
1F0
330
1F
100
AcDbEntity
  8
0-4_寸法
  6
Continuous
 62
     7
370
     9
100
AcDbLine
 10
333.3616254060368
 20
721.7687867775119
 30
0.0
 11
468.5760103561836
 21
856.9831717276581
 31
0.0
  0
LINE
  5
1F1
330
1F
100
AcDbEntity
  8
0-4_寸法
  6
Continuous
 62
     7
370
     9
100
AcDbLine
 10
1229.030214908996
 20
-173.8998027254502
 30
0.0
 11
1366.028154617885
 21
-36.90186301656171
 31
0.0
  0
TEXT
  5
1F2
330
1F
100
AcDbEntity
  8
0-4_寸法
  6
Continuous
 62
     2
370
   211
100
AcDbText
 10
768.5669930455246
 20
307.2675056911647
 30
0.0
 40
30.48
  1
760
 50
314.9999999999998
 41
1.083333333333332
  7
ＭＳ ゴシック
100
AcDbText
  0
TEXT
  5
1F3
330
1F
100
AcDbEntity
  8
1-4_寸法
  6
Continuous
 62
     2
370
     0
100
AcDbText
 10
136.6859229835305
 20
-1012.889168206292
 30
0.0
 40
30.48
  1
※この図面は、ＭＫＨＹ－６５０丸枠にセットしたＭＳＶ－１を示します。
 41
1.121323529411764
  7
ＭＳ ゴシック
100
AcDbText
  0
TEXT
  5
1F4
330
1F
100
AcDbEntity
  8
F-5ﾚｲﾔ
  6
Continuous
 62
     2
370
     0
100
AcDbText
 10
-856.3746953898521
 20
-1357.412777818666
 30
0.0
 40
30.48
  1
打込型マンホール鉄蓋　サポートＶ　　ＭＳＶ－１－６５０　Ｃ＝２００
 41
0.8992424242424241
  7
ＭＳ ゴシック
100
AcDbText
  0
LINE
  5
1F5
330
1F
100
AcDbEntity
  8
1-4_寸法
  6
Continuous
 62
     2
370
     9
100
AcDbLine
 10
-1049.770375844595
 20
-1033.177853146115
 30
0.0
 11
-1049.770375844595
 21
-968.1783810177365
 31
0.0
  0
LINE
  5
1F6
330
1F
100
AcDbEntity
  8
1-9
  6
JWW_CENTER1
 62
     2
370
     9
100
AcDbLine
 10
-699.770334604624
 20
-534.2512058567355
 30
0.0
 11
-699.770334604624
 21
-792.1055231867609
 31
0.0
  0
LINE
  5
1F7
330
1F
100
AcDbEntity
  8
1-9
  6
JWW_CENTER1
 62
     2
370
     9
100
AcDbLine
 10
-828.6976169895481
 20
-663.1783645217481
 30
0.0
 11
-570.8430522197
 21
-663.1783645217481
 31
0.0
  0
LINE
  5
1F8
330
1F
100
AcDbEntity
  8
1-4_寸法
  6
Continuous
 62
     2
370
     9
100
AcDbLine
 10
-1049.770375844595
 20
-968.1783810177365
 30
0.0
 11
-349.7701696447422
 21
-968.1783810177365
 31
0.0
  0
LINE
  5
1F9
330
1F
100
AcDbEntity
  8
1-4_寸法
  6
Continuous
 62
     2
370
     9
100
AcDbLine
 10
-349.7701696447422
 20
-1033.177853146115
 30
0.0
 11
-349.7701696447422
 21
-968.1783810177365
 31
0.0
  0
LINE
  5
1FA
330
1F
100
AcDbEntity
  8
1-4_寸法
  6
Continuous
 62
     2
370
     9
100
AcDbLine
 10
-349.7701696447422
 20
-1033.177853146115
 30
0.0
 11
-1049.770375844595
 21
-1033.177853146115
 31
0.0
  0
LINE
  5
1FB
330
1F
100
AcDbEntity
  8
1-4_寸法
  6
Continuous
 62
     7
370
     9
100
AcDbLine
 10
-804.7703098606418
 20
-868.1784222577068
 30
0.0
 11
-594.7703593486062
 21
-868.1784222577068
 31
0.0
  0
LINE
  5
1FC
330
1F
100
AcDbEntity
  8
1-4_寸法
  6
Continuous
 62
     7
370
     9
100
AcDbLine
 10
-804.7703098606418
 20
-688.1783232817777
 30
0.0
 11
-804.7703098606418
 21
-871.1783826673352
 31
0.0
  0
LINE
  5
1FD
330
1F
100
AcDbEntity
  8
1-4_寸法
  6
Continuous
 62
     7
370
     9
100
AcDbLine
 10
-594.7703593486062
 20
-688.1783232817777
 30
0.0
 11
-594.7703593486062
 21
-871.1783826673352
 31
0.0
  0
LINE
  5
1FE
330
1F
100
AcDbEntity
  8
1-4_寸法
  6
Continuous
 62
     7
370
     9
100
AcDbLine
 10
-494.7704005885766
 20
-748.1783975137246
 30
0.0
 11
-494.7704005885766
 21
-578.1783315297719
 31
0.0
  0
LINE
  5
1FF
330
1F
100
AcDbEntity
  8
1-4_寸法
  6
Continuous
 62
     7
370
     9
100
AcDbLine
 10
-674.7702521246832
 20
-748.1783975137246
 30
0.0
 11
-491.7704401789483
 21
-748.1783975137246
 31
0.0
  0
LINE
  5
200
330
1F
100
AcDbEntity
  8
1-4_寸法
  6
Continuous
 62
     7
370
     9
100
AcDbLine
 10
-674.7702521246832
 20
-578.1783315297719
 30
0.0
 11
-491.7704401789483
 21
-578.1783315297719
 31
0.0
  0
LINE
  5
201
330
1F
100
AcDbEntity
  8
1-4_寸法
  6
Continuous
 62
     7
370
     9
100
AcDbLine
 10
-694.7703181086358
 20
-569.5180614574535
 30
0.0
 11
-685.2033048062709
 21
-546.4211623733106
 31
0.0
  0
LINE
  5
202
330
1F
100
AcDbEntity
  8
1-4_寸法
  6
Continuous
 62
     7
370
     9
100
AcDbLine
 10
-694.7703181086358
 20
-569.5180614574535
 30
0.0
 11
-679.5512843776391
 21
-549.6841513144002
 31
0.0
  0
LINE
  5
203
330
1F
100
AcDbEntity
  8
1-4_寸法
  6
Continuous
 62
     7
370
     9
100
AcDbLine
 10
-694.7703181086358
 20
-569.5180614574535
 30
0.0
 11
-656.4691079629432
 21
-503.1783315297719
 31
0.0
  0
LINE
  5
204
330
1F
100
AcDbEntity
  8
1-4_寸法
  6
Continuous
 62
     7
370
     9
100
AcDbLine
 10
-656.4691079629432
 20
-503.1783315297719
 30
0.0
 11
-499.3552130621832
 21
-503.1783315297719
 31
0.0
  0
TEXT
  5
205
330
1F
100
AcDbEntity
  8
1-4_寸法
  6
Continuous
 62
     7
370
     0
100
AcDbText
 10
-644.3833057300463
 20
-491.00044070682
 30
0.0
 40
22.86
  1
４－φ４
 41
1.125
  7
ＭＳ ゴシック
100
AcDbText
  0
TEXT
  5
206
330
1F
100
AcDbEntity
  8
1-4_寸法
  6
Continuous
 62
     2
370
     0
100
AcDbText
 10
-510.4104335805531
 20
-684.4283645217481
 30
0.0
 40
30.48
  1
34
 50
90.0
 41
1.0625
  7
ＭＳ ゴシック
100
AcDbText
  0
TEXT
  5
207
330
1F
100
AcDbEntity
  8
1-4_寸法
  6
Continuous
 62
     2
370
     0
100
AcDbText
 10
-743.5204273945576
 20
-852.5383892657304
 30
0.0
 40
30.48
  1
φ42
 41
1.09375
  7
ＭＳ ゴシック
100
AcDbText
  0
TEXT
  5
208
330
1F
100
AcDbEntity
  8
1-4_寸法
  6
Continuous
 62
     2
370
     0
100
AcDbText
 10
-1034.770210884713
 20
-1015.038183065878
 30
0.0
 40
30.48
  1
固定プレート平面図　Ｓ＝１：２
 41
1.116666666666666
  7
ＭＳ ゴシック
100
AcDbText
  0
LWPOLYLINE
  5
209
330
1F
100
AcDbEntity
  8
1-4_寸法
  6
Continuous
 62
     7
370
     9
100
AcDbPolyline
 90
        4
 70
     1
 43
2.0
 10
-803.7703098606419
 20
-868.1784222577068
 42
0.4142135623731
 10
-804.7703098606418
 20
-867.1784222577069
 42
0.4142135623731
 10
-805.7703098606418
 20
-868.1784222577068
 42
0.4142135623731
 10
-804.7703098606418
 20
-869.1784222577066
 42
0.4142135623731
  0
LWPOLYLINE
  5
20A
330
1F
100
AcDbEntity
  8
1-4_寸法
  6
Continuous
 62
     7
370
     9
100
AcDbPolyline
 90
        4
 70
     1
 43
2.0
 10
-593.7703593486062
 20
-868.1784222577068
 42
0.4142135623731
 10
-594.7703593486062
 20
-867.1784222577069
 42
0.4142135623731
 10
-595.7703593486062
 20
-868.1784222577068
 42
0.4142135623731
 10
-594.7703593486062
 20
-869.1784222577066
 42
0.4142135623731
  0
LWPOLYLINE
  5
20B
330
1F
100
AcDbEntity
  8
1-4_寸法
  6
Continuous
 62
     7
370
     9
100
AcDbPolyline
 90
        4
 70
     1
 43
2.0
 10
-493.7704005885766
 20
-748.1783975137246
 42
0.4142135623731
 10
-494.7704005885766
 20
-747.1783975137247
 42
0.4142135623731
 10
-495.7704005885767
 20
-748.1783975137246
 42
0.4142135623731
 10
-494.7704005885766
 20
-749.1783975137246
 42
0.4142135623731
  0
LWPOLYLINE
  5
20C
330
1F
100
AcDbEntity
  8
1-4_寸法
  6
Continuous
 62
     7
370
     9
100
AcDbPolyline
 90
        4
 70
     1
 43
2.0
 10
-493.7704005885766
 20
-578.1783315297719
 42
0.4142135623731
 10
-494.7704005885766
 20
-577.1783315297719
 42
0.4142135623731
 10
-495.7704005885767
 20
-578.1783315297719
 42
0.4142135623731
 10
-494.7704005885766
 20
-579.1783315297719
 42
0.4142135623731
  0
CIRCLE
  5
20D
330
1F
100
AcDbEntity
  8
1-A
  6
Continuous
 62
     2
370
     9
100
AcDbCircle
 10
-699.770334604624
 20
-663.1783645217481
 30
0.0
 40
30.0
  0
CIRCLE
  5
20E
330
1F
100
AcDbEntity
  8
1-A
  6
Continuous
 62
     2
370
     9
100
AcDbCircle
 10
-699.770334604624
 20
-663.1783645217481
 30
0.0
 40
21.25
  0
LINE
  5
20F
330
1F
100
AcDbEntity
  8
1-A
  6
Continuous
 62
     2
370
     9
100
AcDbLine
 10
-744.7704599799931
 20
-630.1504881072492
 30
0.0
 11
-744.7705366872573
 21
-618.1781624391149
 31
0.0
  0
LINE
  5
210
330
1F
100
AcDbEntity
  8
1-A
  6
Continuous
 62
     2
370
     9
100
AcDbLine
 10
-744.7705366872573
 20
-618.1781624391149
 30
0.0
 11
-732.7980289447374
 21
-618.1782458898748
 31
0.0
  0
ARC
  5
211
330
1F
100
AcDbEntity
  8
1-A
  6
Continuous
 62
     2
370
     9
100
AcDbCircle
 10
-712.2703600159731
 20
-650.6783391103991
 30
0.0
 40
35.0
100
AcDbArc
 50
121.0026092529297
 51
148.9973449707031
  0
LINE
  5
212
330
1F
100
AcDbEntity
  8
1-A
  6
Continuous
 62
     2
370
     9
100
AcDbLine
 10
-732.7982110191231
 20
-708.1784898971172
 30
0.0
 11
-744.7705366872574
 21
-708.1785666043813
 31
0.0
  0
LINE
  5
213
330
1F
100
AcDbEntity
  8
1-A
  6
Continuous
 62
     2
370
     9
100
AcDbLine
 10
-744.7705366872574
 20
-708.1785666043813
 30
0.0
 11
-744.7704532364975
 21
-696.2060588618615
 31
0.0
  0
ARC
  5
214
330
1F
100
AcDbEntity
  8
1-A
  6
Continuous
 62
     2
370
     9
100
AcDbCircle
 10
-712.2703600159732
 20
-675.6783899330972
 30
0.0
 40
35.0
100
AcDbArc
 50
211.0026092529297
 51
238.9973449707031
  0
LINE
  5
215
330
1F
100
AcDbEntity
  8
1-A
  6
Continuous
 62
     2
370
     9
100
AcDbLine
 10
-654.770209229255
 20
-696.2062409362471
 30
0.0
 11
-654.7701325219908
 21
-708.1785666043813
 31
0.0
  0
LINE
  5
216
330
1F
100
AcDbEntity
  8
1-A
  6
Continuous
 62
     2
370
     9
100
AcDbLine
 10
-654.7701325219908
 20
-708.1785666043813
 30
0.0
 11
-666.7426402645107
 21
-708.1784831536214
 31
0.0
  0
ARC
  5
217
330
1F
100
AcDbEntity
  8
1-A
  6
Continuous
 62
     2
370
     9
100
AcDbCircle
 10
-687.270309193275
 20
-675.6783899330974
 30
0.0
 40
35.0
100
AcDbArc
 50
301.0026092529297
 51
328.9973449707031
  0
LINE
  5
218
330
1F
100
AcDbEntity
  8
1-A
  6
Continuous
 62
     2
370
     9
100
AcDbLine
 10
-666.7424581901251
 20
-618.1782391463792
 30
0.0
 11
-654.7701325219907
 21
-618.1781624391149
 31
0.0
  0
LINE
  5
219
330
1F
100
AcDbEntity
  8
1-A
  6
Continuous
 62
     2
370
     9
100
AcDbLine
 10
-654.7701325219907
 20
-618.1781624391149
 30
0.0
 11
-654.7702159727507
 21
-630.1506701816347
 31
0.0
  0
ARC
  5
21A
330
1F
100
AcDbEntity
  8
1-A
  6
Continuous
 62
     2
370
     9
100
AcDbCircle
 10
-687.2703091932749
 20
-650.6783391103991
 30
0.0
 40
35.0
100
AcDbArc
 50
31.00260925292969
 51
58.99734497070312
  0
LINE
  5
21B
330
1F
100
AcDbEntity
  8
1-A
  6
Continuous
 62
     2
370
     9
100
AcDbLine
 10
-730.2980856457366
 20
-620.6783645217481
 30
0.0
 11
-732.7980289447374
 21
-618.1782458898748
 31
0.0
  0
LINE
  5
21C
330
1F
100
AcDbEntity
  8
1-A
  6
Continuous
 62
     2
370
     9
100
AcDbLine
 10
-742.270334604624
 20
-632.6506134826182
 30
0.0
 11
-744.7704599799931
 21
-630.1504881072492
 31
0.0
  0
LINE
  5
21D
330
1F
100
AcDbEntity
  8
1-A
  6
Continuous
 62
     2
370
     9
100
AcDbLine
 10
-669.242583565494
 20
-620.6783645217481
 30
0.0
 11
-666.7424581901251
 21
-618.1782391463792
 31
0.0
  0
LINE
  5
21E
330
1F
100
AcDbEntity
  8
1-A
  6
Continuous
 62
     2
370
     9
100
AcDbLine
 10
-669.242583565494
 20
-620.6783645217481
 30
0.0
 11
-730.2980856457366
 21
-620.6783645217481
 31
0.0
  0
LINE
  5
21F
330
1F
100
AcDbEntity
  8
1-A
  6
Continuous
 62
     2
370
     9
100
AcDbLine
 10
-657.270334604624
 20
-632.6506134806357
 30
0.0
 11
-654.7702159727507
 21
-630.1506701816347
 31
0.0
  0
LINE
  5
220
330
1F
100
AcDbEntity
  8
1-A
  6
Continuous
 62
     2
370
     9
100
AcDbLine
 10
-657.270334604624
 20
-693.7061155608783
 30
0.0
 11
-654.770209229255
 21
-696.2062409362471
 31
0.0
  0
LINE
  5
221
330
1F
100
AcDbEntity
  8
1-A
  6
Continuous
 62
     2
370
     9
100
AcDbLine
 10
-657.270334604624
 20
-693.7061155608783
 30
0.0
 11
-657.270334604624
 21
-632.6506134806357
 31
0.0
  0
LINE
  5
222
330
1F
100
AcDbEntity
  8
1-A
  6
Continuous
 62
     2
370
     9
100
AcDbLine
 10
-669.2425835635116
 20
-705.6783645217481
 30
0.0
 11
-666.7426402645107
 21
-708.1784831536214
 31
0.0
  0
LINE
  5
223
330
1F
100
AcDbEntity
  8
1-A
  6
Continuous
 62
     2
370
     9
100
AcDbLine
 10
-730.2980856437541
 20
-705.6783645217481
 30
0.0
 11
-732.7982110191231
 21
-708.1784898971172
 31
0.0
  0
LINE
  5
224
330
1F
100
AcDbEntity
  8
1-A
  6
Continuous
 62
     2
370
     9
100
AcDbLine
 10
-730.2980856437541
 20
-705.6783645217481
 30
0.0
 11
-669.2425835635116
 21
-705.6783645217481
 31
0.0
  0
LINE
  5
225
330
1F
100
AcDbEntity
  8
1-A
  6
Continuous
 62
     2
370
     9
100
AcDbLine
 10
-742.270334604624
 20
-693.7061155628608
 30
0.0
 11
-744.7704532364975
 21
-696.2060588618615
 31
0.0
  0
LINE
  5
226
330
1F
100
AcDbEntity
  8
1-A
  6
Continuous
 62
     2
370
     9
100
AcDbLine
 10
-742.270334604624
 20
-632.6506134826182
 30
0.0
 11
-742.270334604624
 21
-693.7061155628608
 31
0.0
  0
CIRCLE
  5
227
330
1F
100
AcDbEntity
  8
1-0_通り芯
  6
Continuous
 62
     4
370
     9
100
AcDbCircle
 10
-699.770334604624
 20
-663.1783645217481
 30
0.0
 40
105.0
  0
CIRCLE
  5
228
330
1F
100
AcDbEntity
  8
1-0_通り芯
  6
Continuous
 62
     4
370
     9
100
AcDbCircle
 10
-614.770334604624
 20
-663.1783645217481
 30
0.0
 40
10.0
  0
LINE
  5
229
330
1F
100
AcDbEntity
  8
1-0_通り芯
  6
JWW_CENTER1
 62
     4
370
     9
100
AcDbLine
 10
-614.770334604624
 20
-647.4679481618134
 30
0.0
 11
-614.770334604624
 21
-679.1721998912456
 31
0.0
  0
CIRCLE
  5
22A
330
1F
100
AcDbEntity
  8
1-0_通り芯
  6
Continuous
 62
     4
370
     9
100
AcDbCircle
 10
-699.770334604624
 20
-578.1783645217481
 30
0.0
 40
10.0
  0
LINE
  5
22B
330
1F
100
AcDbEntity
  8
1-0_通り芯
  6
JWW_CENTER1
 62
     4
370
     9
100
AcDbLine
 10
-715.4807509645589
 20
-578.1783645217481
 30
0.0
 11
-683.7764992351266
 21
-578.1783645217481
 31
0.0
  0
CIRCLE
  5
22C
330
1F
100
AcDbEntity
  8
1-0_通り芯
  6
Continuous
 62
     4
370
     9
100
AcDbCircle
 10
-784.770334604624
 20
-663.1783645217481
 30
0.0
 40
10.0
  0
LINE
  5
22D
330
1F
100
AcDbEntity
  8
1-0_通り芯
  6
JWW_CENTER1
 62
     4
370
     9
100
AcDbLine
 10
-784.770334604624
 20
-678.888780881683
 30
0.0
 11
-784.770334604624
 21
-647.1845291522507
 31
0.0
  0
CIRCLE
  5
22E
330
1F
100
AcDbEntity
  8
1-0_通り芯
  6
Continuous
 62
     4
370
     9
100
AcDbCircle
 10
-699.770334604624
 20
-748.1783645217481
 30
0.0
 40
10.0
  0
LINE
  5
22F
330
1F
100
AcDbEntity
  8
1-0_通り芯
  6
JWW_CENTER1
 62
     4
370
     9
100
AcDbLine
 10
-684.0599182446895
 20
-748.1783645217481
 30
0.0
 11
-715.7641699741216
 21
-748.1783645217481
 31
0.0
  0
LINE
  5
230
330
1F
100
AcDbEntity
  8
1-8
  6
Continuous
 62
     3
370
     9
100
AcDbLine
 10
-884.3836768740991
 20
50.97280141469611
 30
0.0
 11
-884.3836768740991
 21
45.97303235853047
 31
0.0
  0
LINE
  5
231
330
1F
100
AcDbEntity
  8
1-8
  6
Continuous
 62
     3
370
     9
100
AcDbLine
 10
-859.3835943941582
 20
50.97280141469611
 30
0.0
 11
-884.3836768740991
 21
50.97280141469611
 31
0.0
  0
LINE
  5
232
330
1F
100
AcDbEntity
  8
1-8
  6
Continuous
 62
     3
370
     9
100
AcDbLine
 10
-859.3835943941582
 20
50.97280141469611
 30
0.0
 11
-859.3835943941582
 21
45.97303235853047
 31
0.0
  0
LINE
  5
233
330
1F
100
AcDbEntity
  8
1-8
  6
Continuous
 62
     3
370
     9
100
AcDbLine
 10
-689.3836521301168
 20
50.97280141469611
 30
0.0
 11
-689.3836521301168
 21
45.97303235853047
 31
0.0
  0
LINE
  5
234
330
1F
100
AcDbEntity
  8
1-8
  6
Continuous
 62
     3
370
     9
100
AcDbLine
 10
-714.3837346100577
 20
50.97280141469611
 30
0.0
 11
-689.3836521301168
 21
50.97280141469611
 31
0.0
  0
LINE
  5
235
330
1F
100
AcDbEntity
  8
1-8
  6
Continuous
 62
     3
370
     9
100
AcDbLine
 10
-714.3837346100577
 20
50.97280141469611
 30
0.0
 11
-714.3837346100577
 21
45.97303235853047
 31
0.0
  0
LINE
  5
236
330
1F
100
AcDbEntity
  8
1-8
  6
JWW_DASHED1
 62
     3
370
     9
100
AcDbLine
 10
-706.8834624262527
 20
-79.02738004117396
 30
0.0
 11
-706.8834624262527
 21
45.97303235853047
 31
0.0
  0
LINE
  5
237
330
1F
100
AcDbEntity
  8
1-8
  6
JWW_DASHED1
 62
     3
370
     9
100
AcDbLine
 10
-696.8835531541878
 20
-79.02738004117396
 30
0.0
 11
-696.8835531541878
 21
45.97303235853047
 31
0.0
  0
LINE
  5
238
330
1F
100
AcDbEntity
  8
1-8
  6
JWW_DASHED1
 62
     3
370
     9
100
AcDbLine
 10
-696.8835531541878
 20
-79.02738004117396
 30
0.0
 11
-701.8835696501759
 21
-104.0272150812922
 31
0.0
  0
LINE
  5
239
330
1F
100
AcDbEntity
  8
1-8
  6
JWW_DASHED1
 62
     3
370
     9
100
AcDbLine
 10
-706.8834624262527
 20
-79.02738004117396
 30
0.0
 11
-701.8835696501759
 21
-104.0272150812922
 31
0.0
  0
LINE
  5
23A
330
1F
100
AcDbEntity
  8
1-8
  6
JWW_DASHED1
 62
     3
370
     9
100
AcDbLine
 10
-866.8837428580518
 20
-79.02738004117396
 30
0.0
 11
-866.8837428580518
 21
45.97303235853047
 31
0.0
  0
LINE
  5
23B
330
1F
100
AcDbEntity
  8
1-8
  6
JWW_DASHED1
 62
     3
370
     9
100
AcDbLine
 10
-876.8836521301168
 20
-79.02738004117396
 30
0.0
 11
-876.8836521301168
 21
45.97303235853047
 31
0.0
  0
LINE
  5
23C
330
1F
100
AcDbEntity
  8
1-8
  6
JWW_DASHED1
 62
     3
370
     9
100
AcDbLine
 10
-876.8836521301168
 20
-79.02738004117396
 30
0.0
 11
-871.8836356341286
 21
-104.0272150812922
 31
0.0
  0
LINE
  5
23D
330
1F
100
AcDbEntity
  8
1-8
  6
JWW_DASHED1
 62
     3
370
     9
100
AcDbLine
 10
-866.8837428580518
 20
-79.02738004117396
 30
0.0
 11
-871.8836356341286
 21
-104.0272150812922
 31
0.0
  0
LINE
  5
23E
330
1F
100
AcDbEntity
  8
1-A
  6
Continuous
 62
     2
370
     9
100
AcDbLine
 10
-824.1323413400464
 20
57.30175060790657
 30
0.0
 11
-831.8837435805749
 21
50.9729090288053
 31
0.0
  0
LINE
  5
23F
330
1F
100
AcDbEntity
  8
1-A
  6
Continuous
 62
     2
370
     9
100
AcDbLine
 10
-824.1323413400464
 20
57.30175060790657
 30
0.0
 11
-817.4113553671561
 21
57.30175060790657
 31
0.0
  0
LINE
  5
240
330
1F
100
AcDbEntity
  8
1-A
  6
Continuous
 62
     2
370
     9
100
AcDbLine
 10
-817.4113553671561
 20
57.30175060790657
 30
0.0
 11
-817.4113553671561
 21
45.97285305906809
 31
0.0
  0
LINE
  5
241
330
1F
100
AcDbEntity
  8
1-A
  6
Continuous
 62
     2
370
     9
100
AcDbLine
 10
-831.8837435805749
 20
50.9729090288053
 30
0.0
 11
-831.883740208827
 21
45.97290026353846
 31
0.0
  0
LINE
  5
242
330
1F
100
AcDbEntity
  8
1-A
  6
Continuous
 62
     2
370
     9
100
AcDbLine
 10
-829.3836026421524
 20
85.97285439946248
 30
0.0
 11
-829.3836026421524
 21
53.01420228511162
 31
0.0
  0
LINE
  5
243
330
1F
100
AcDbEntity
  8
1-A
  6
Continuous
 62
     2
370
     9
100
AcDbLine
 10
-749.6348285409051
 20
57.30179275475507
 30
0.0
 11
-741.883419556881
 21
50.97287025370463
 31
0.0
  0
LINE
  5
244
330
1F
100
AcDbEntity
  8
1-A
  6
Continuous
 62
     2
370
     9
100
AcDbLine
 10
-749.6348285409051
 20
57.30179275475507
 30
0.0
 11
-756.3558060844259
 21
57.30179781237695
 31
0.0
  0
LINE
  5
245
330
1F
100
AcDbEntity
  8
1-A
  6
Continuous
 62
     2
370
     9
100
AcDbLine
 10
-756.3558060844259
 20
57.30179781237695
 30
0.0
 11
-756.3558060844259
 21
45.97290026353846
 31
0.0
  0
LINE
  5
246
330
1F
100
AcDbEntity
  8
1-A
  6
Continuous
 62
     2
370
     9
100
AcDbLine
 10
-741.883419556881
 20
50.97287025370463
 30
0.0
 11
-741.883421242755
 21
45.97285305906809
 31
0.0
  0
LINE
  5
247
330
1F
100
AcDbEntity
  8
1-A
  6
Continuous
 62
     2
370
     9
100
AcDbLine
 10
-744.3836026421524
 20
85.97277010576548
 30
0.0
 11
-744.3835571235558
 21
53.01424780370809
 31
0.0
  0
LINE
  5
248
330
1F
100
AcDbEntity
  8
1-A
  6
Continuous
 62
     2
370
     9
100
AcDbLine
 10
-829.3836026421524
 20
85.97285439946248
 30
0.0
 11
-744.3836026421524
 21
85.97277010576548
 31
0.0
  0
LINE
  5
249
330
1F
100
AcDbEntity
  8
1-0_通り芯
  6
Continuous
 62
     4
370
     9
100
AcDbLine
 10
-891.88360630537
 20
37.97293173300261
 30
0.0
 11
-681.8836063053773
 21
37.97282158962872
 31
0.0
  0
LINE
  5
24A
330
1F
100
AcDbEntity
  8
1-0_通り芯
  6
Continuous
 62
     4
370
     9
100
AcDbLine
 10
-891.883605740848
 20
45.97293173300329
 30
0.0
 11
-891.88360630537
 21
37.97293173300261
 31
0.0
  0
LINE
  5
24B
330
1F
100
AcDbEntity
  8
1-0_通り芯
  6
Continuous
 62
     4
370
     9
100
AcDbLine
 10
-891.883605740848
 20
45.97293173300329
 30
0.0
 11
-681.8836057408554
 21
45.97282158962955
 31
0.0
  0
LINE
  5
24C
330
1F
100
AcDbEntity
  8
1-0_通り芯
  6
Continuous
 62
     4
370
     9
100
AcDbLine
 10
-681.8836057408554
 20
45.97282158962955
 30
0.0
 11
-681.8836063053773
 21
37.97282158962872
 31
0.0
  0
LINE
  5
24D
330
1F
100
AcDbEntity
  8
1-0_通り芯
  6
JWW_CENTER1
 62
     4
370
     9
100
AcDbLine
 10
-871.8836026421524
 20
31.78411642216119
 30
0.0
 11
-871.8836026421524
 21
54.63254306372505
 31
0.0
  0
LINE
  5
24E
330
1F
100
AcDbEntity
  8
1-0_通り芯
  6
Continuous
 62
     4
370
     9
100
AcDbLine
 10
-861.8836026421524
 20
37.97291599823296
 30
0.0
 11
-861.8836026421524
 21
45.97291599823393
 31
0.0
  0
LINE
  5
24F
330
1F
100
AcDbEntity
  8
1-0_通り芯
  6
Continuous
 62
     4
370
     9
100
AcDbLine
 10
-881.8836026421524
 20
37.97292648807797
 30
0.0
 11
-881.8836026421524
 21
45.97292648807922
 31
0.0
  0
LINE
  5
250
330
1F
100
AcDbEntity
  8
1-0_通り芯
  6
JWW_CENTER1
 62
     4
370
     9
100
AcDbLine
 10
-701.8836093459497
 20
31.78410442606832
 30
0.0
 11
-701.8836093459497
 21
54.63253106763233
 31
0.0
  0
LINE
  5
251
330
1F
100
AcDbEntity
  8
1-0_通り芯
  6
Continuous
 62
     4
370
     9
100
AcDbLine
 10
-711.8836093459497
 20
37.9729040021401
 30
0.0
 11
-711.8836093459497
 21
45.97290400214121
 31
0.0
  0
LINE
  5
252
330
1F
100
AcDbEntity
  8
1-0_通り芯
  6
Continuous
 62
     4
370
     9
100
AcDbLine
 10
-691.8836093459497
 20
37.97291449198525
 30
0.0
 11
-691.8836093459497
 21
45.97291449198622
 31
0.0
  0
LINE
  5
253
330
1F
100
AcDbEntity
  8
1-0_通り芯
  6
Continuous
 62
     4
370
     9
100
AcDbLine
 10
-754.3836057408528
 20
45.9728596153181
 30
0.0
 11
-754.3836063053748
 21
37.97285961531728
 31
0.0
  0
LINE
  5
254
330
1F
100
AcDbEntity
  8
1-0_通り芯
  6
Continuous
 62
     4
370
     9
100
AcDbLine
 10
-819.3836057408505
 20
45.97289370731474
 30
0.0
 11
-819.3836063053725
 21
37.97289370731392
 31
0.0
  0
LINE
  5
255
330
1F
100
AcDbEntity
  8
1-4_寸法
  6
Continuous
 62
     3
370
     9
100
AcDbLine
 10
-816.8834541782588
 20
308.3316204998945
 30
0.0
 11
-816.8834541782588
 21
85.97284200318335
 31
0.0
  0
LINE
  5
256
330
1F
100
AcDbEntity
  8
1-4_寸法
  6
Continuous
 62
     3
370
     9
100
AcDbLine
 10
-811.8834376822708
 20
309.6713834195523
 30
0.0
 11
-811.8834376822708
 21
85.9728370447142
 31
0.0
  0
LINE
  5
257
330
1F
100
AcDbEntity
  8
1-4_寸法
  6
Continuous
 62
     3
370
     9
100
AcDbLine
 10
-761.8835201622118
 20
323.0688888962206
 30
0.0
 11
-761.8835201622118
 21
85.97278746026838
 31
0.0
  0
LINE
  5
258
330
1F
100
AcDbEntity
  8
1-4_寸法
  6
Continuous
 62
     3
370
     9
100
AcDbLine
 10
-756.8835036662234
 20
324.4086518158784
 30
0.0
 11
-756.8835036662234
 21
85.97278250179926
 31
0.0
  0
LINE
  5
259
330
1F
100
AcDbEntity
  8
1-4_寸法
  6
Continuous
 62
     7
370
     9
100
AcDbLine
 10
-820.8835663509784
 20
85.97278250179927
 30
0.0
 11
-830.4508270931659
 21
109.069681585942
 31
0.0
  0
LINE
  5
25A
330
1F
100
AcDbEntity
  8
1-4_寸法
  6
Continuous
 62
     7
370
     9
100
AcDbLine
 10
-820.8835663509784
 20
85.97278250179927
 30
0.0
 11
-836.102600081975
 21
105.8065689249412
 31
0.0
  0
LINE
  5
25B
330
1F
100
AcDbEntity
  8
1-4_寸法
  6
Continuous
 62
     7
370
     9
100
AcDbLine
 10
-820.8835663509784
 20
85.97278250179927
 30
0.0
 11
-878.6187001664346
 21
185.972741261829
 31
0.0
  0
LINE
  5
25C
330
1F
100
AcDbEntity
  8
1-4_寸法
  6
Continuous
 62
     7
370
     9
100
AcDbLine
 10
-1212.100040877278
 20
185.972741261829
 30
0.0
 11
-878.6187001664346
 21
185.972741261829
 31
0.0
  0
TEXT
  5
25D
330
1F
100
AcDbEntity
  8
1-4_寸法
  6
Continuous
 62
     6
370
     0
100
AcDbText
 10
-1201.968373198857
 20
200.9867873318245
 30
0.0
 40
22.86
  1
固定プレート：ＳＧＨＣ他
 41
0.8944444444444445
  7
ＭＳ ゴシック
100
AcDbText
  0
ENDSEC
  0
SECTION
  2
OBJECTS
  0
DICTIONARY
  5
C
330
0
100
AcDbDictionary
281
     1
  3
ACAD_DETAILVIEWSTYLE
350
265
  3
ACAD_GROUP
350
D
  3
ACAD_LAYOUT
350
1A
  3
ACAD_MATERIAL
350
43
  3
ACAD_MLEADERSTYLE
350
6B
  3
ACAD_MLINESTYLE
350
17
  3
ACAD_PLOTSETTINGS
350
19
  3
ACAD_PLOTSTYLENAME
350
E
  3
ACAD_SCALELIST
350
47
  3
ACAD_SECTIONVIEWSTYLE
350
266
  3
ACAD_TABLESTYLE
350
69
  3
ACAD_VISUALSTYLE
350
2A
  3
ACDB_RECOMPOSE_DATA
350
262
  3
AcDbVariableDictionary
350
25E
  0
SUN
  5
6D
330
29
100
AcDbSun
 90
        1
290
     0
 63
     7
421
 16777215
 40
1.0
291
     1
 91
  2455826
 92
 54000000
292
     0
 70
     2
 71
   256
280
     1
  0
DICTIONARY
  5
265
102
{ACAD_REACTORS
330
C
102
}
330
C
100
AcDbDictionary
281
     1
  0
DICTIONARY
  5
D
102
{ACAD_REACTORS
330
C
102
}
330
C
100
AcDbDictionary
281
     1
  0
DICTIONARY
  5
1A
102
{ACAD_REACTORS
330
C
102
}
330
C
100
AcDbDictionary
281
     1
  3
Layout1
350
1E
  3
Layout2
350
26
  3
Model
350
22
  0
DICTIONARY
  5
43
102
{ACAD_REACTORS
330
C
102
}
330
C
100
AcDbDictionary
281
     1
  3
ByBlock
350
45
  3
ByLayer
350
44
  3
Global
350
46
  0
DICTIONARY
  5
6B
102
{ACAD_REACTORS
330
C
102
}
330
C
100
AcDbDictionary
281
     1
  3
Standard
350
6C
  0
DICTIONARY
  5
17
102
{ACAD_REACTORS
330
C
102
}
330
C
100
AcDbDictionary
281
     1
  3
Standard
350
18
  0
DICTIONARY
  5
19
102
{ACAD_REACTORS
330
C
102
}
330
C
100
AcDbDictionary
281
     1
  0
ACDBDICTIONARYWDFLT
  5
E
102
{ACAD_REACTORS
330
C
102
}
330
C
100
AcDbDictionary
281
     1
  3
Normal
350
F
100
AcDbDictionaryWithDefault
340
F
  0
DICTIONARY
  5
47
102
{ACAD_REACTORS
330
C
102
}
330
C
100
AcDbDictionary
281
     1
  3
A0
350
48
  3
A1
350
49
  3
A2
350
4A
  3
A3
350
4B
  3
A4
350
4C
  3
A5
350
4D
  3
A6
350
4E
  3
A7
350
4F
  3
A8
350
50
  3
A9
350
51
  3
B0
350
52
  3
B1
350
53
  3
B2
350
54
  3
B3
350
55
  3
B4
350
56
  3
B5
350
57
  3
B6
350
58
  3
B7
350
59
  3
B8
350
5A
  3
B9
350
5B
  3
C0
350
5C
  3
C1
350
5D
  3
C2
350
5E
  3
C3
350
5F
  3
C4
350
60
  3
C5
350
61
  3
C6
350
62
  3
C7
350
63
  3
C8
350
64
  3
C9
350
65
  3
D0
350
66
  3
D1
350
67
  3
D2
350
68
  0
DICTIONARY
  5
266
102
{ACAD_REACTORS
330
C
102
}
330
C
100
AcDbDictionary
281
     1
  0
DICTIONARY
  5
69
102
{ACAD_REACTORS
330
C
102
}
330
C
100
AcDbDictionary
281
     1
  3
Standard
350
6A
  0
DICTIONARY
  5
2A
102
{ACAD_REACTORS
330
C
102
}
330
C
100
AcDbDictionary
281
     1
  3
2dWireframe
350
2F
  3
Basic
350
32
  3
Brighten
350
36
  3
ColorChange
350
3A
  3
Conceptual
350
34
  3
Dim
350
35
  3
EdgeColorOff
350
3D
  3
Facepattern
350
39
  3
Flat
350
2B
  3
FlatWithEdges
350
2C
  3
Gouraud
350
2D
  3
GouraudWithEdges
350
2E
  3
Hidden
350
31
  3
JitterOff
350
3B
  3
Linepattern
350
38
  3
OverhangOff
350
3C
  3
Realistic
350
33
  3
Shaded
350
42
  3
Shaded with edges
350
41
  3
Shades of Gray
350
3E
  3
Sketchy
350
3F
  3
Thicken
350
37
  3
Wireframe
350
30
  3
X-Ray
350
40
  0
XRECORD
  5
262
102
{ACAD_REACTORS
330
C
102
}
330
C
100
AcDbXrecord
280
     1
 90
        1
330
6A
  0
DICTIONARY
  5
25E
102
{ACAD_REACTORS
330
C
102
}
330
C
100
AcDbDictionary
281
     1
  3
CANNOSCALE
350
25F
  3
CENTEREXE
350
267
  3
CENTERLTYPEFILE
350
268
  3
CMLEADERSTYLE
350
264
  3
CTABLESTYLE
350
263
  0
LAYOUT
  5
1E
102
{ACAD_REACTORS
330
1A
102
}
330
1A
100
AcDbPlotSettings
  1

  2
none_device
  4

  6

 40
0.0
 41
0.0
 42
0.0
 43
0.0
 44
0.0
 45
0.0
 46
0.0
 47
0.0
 48
0.0
 49
0.0
140
0.0
141
0.0
142
1.0
143
1.0
 70
   688
 72
     1
 73
     0
 74
     5
  7

 75
    16
 76
     0
 77
     5
 78
   300
147
1.0
148
0.0
149
0.0
100
AcDbLayout
  1
Layout1
 70
     1
 71
     1
 10
0.0
 20
0.0
 11
420.0
 21
297.0
 12
0.0
 22
0.0
 32
0.0
 14
1.000000000000000E+20
 24
1.000000000000000E+20
 34
1.000000000000000E+20
 15
-1.000000000000000E+20
 25
-1.000000000000000E+20
 35
-1.000000000000000E+20
146
0.0
 13
0.0
 23
0.0
 33
0.0
 16
1.0
 26
0.0
 36
0.0
 17
0.0
 27
1.0
 37
0.0
 76
     0
330
1B
  0
LAYOUT
  5
26
102
{ACAD_REACTORS
330
1A
102
}
330
1A
100
AcDbPlotSettings
  1

  2
none_device
  4

  6

 40
0.0
 41
0.0
 42
0.0
 43
0.0
 44
0.0
 45
0.0
 46
0.0
 47
0.0
 48
0.0
 49
0.0
140
0.0
141
0.0
142
1.0
143
1.0
 70
   688
 72
     1
 73
     0
 74
     5
  7

 75
    16
 76
     0
 77
     5
 78
   300
147
1.0
148
0.0
149
0.0
100
AcDbLayout
  1
Layout2
 70
     1
 71
     2
 10
0.0
 20
0.0
 11
0.0
 21
0.0
 12
0.0
 22
0.0
 32
0.0
 14
0.0
 24
0.0
 34
0.0
 15
0.0
 25
0.0
 35
0.0
146
0.0
 13
0.0
 23
0.0
 33
0.0
 16
1.0
 26
0.0
 36
0.0
 17
0.0
 27
1.0
 37
0.0
 76
     0
330
23
  0
LAYOUT
  5
22
102
{ACAD_REACTORS
330
1A
102
}
330
1A
100
AcDbPlotSettings
  1

  2
none_device
  4
Letter_(8.50_x_11.00_Inches)
  6

 40
6.35
 41
6.35
 42
6.35000508
 43
6.35000508
 44
215.9
 45
279.4
 46
0.0
 47
0.0
 48
0.0
 49
0.0
140
0.0
141
0.0
142
1.0
143
1.0
 70
  1712
 72
     1
 73
     0
 74
     0
  7

 75
     0
 76
     0
 77
     5
 78
   300
147
1.0
148
0.0
149
0.0
100
AcDbLayout
  1
Model
 70
     1
 71
     0
 10
-2100.0
 20
-1485.0
 11
2100.0
 21
1485.0
 12
0.0
 22
0.0
 32
0.0
 14
-2100.0
 24
-1485.0
 34
0.0
 15
2100.0
 25
1485.0
 35
0.0
146
0.0
 13
0.0
 23
0.0
 33
0.0
 16
1.0
 26
0.0
 36
0.0
 17
0.0
 27
1.0
 37
0.0
 76
     0
330
1F
331
29
  0
MATERIAL
  5
45
102
{ACAD_REACTORS
330
43
102
}
330
43
100
AcDbMaterial
  1
ByBlock
 72
     1
 94
      127
  0
MATERIAL
  5
44
102
{ACAD_REACTORS
330
43
102
}
330
43
100
AcDbMaterial
  1
ByLayer
 72
     1
 94
      127
  0
MATERIAL
  5
46
102
{ACAD_REACTORS
330
43
102
}
330
43
100
AcDbMaterial
  1
Global
 72
     1
 94
      127
  0
MLEADERSTYLE
  5
6C
102
{ACAD_REACTORS
330
6B
102
}
330
6B
100
AcDbMLeaderStyle
179
     2
170
     2
171
     1
172
     0
 90
        2
 40
0.0
 41
0.0
173
     1
 91
-1056964608
340
14
 92
       -2
290
     1
 42
2.0
291
     1
 43
8.0
  3
Standard
341
0
 44
4.0
300

342
11
174
     1
178
     6
175
     1
176
     0
 93
-1056964608
 45
4.0
292
     0
297
     0
 46
4.0
343
0
 94
-1056964608
 47
1.0
 49
1.0
140
1.0
293
     1
141
0.0
294
     1
177
     0
142
1.0
295
     0
296
     0
143
3.75
271
     0
272
     9
273
     9
298
     0
  0
MLINESTYLE
  5
18
102
{ACAD_REACTORS
330
17
102
}
330
17
100
AcDbMlineStyle
  2
Standard
 70
     0
  3

 62
   256
 51
90.0
 52
90.0
 71
     2
 49
0.5
 62
   256
  6
BYLAYER
 49
-0.5
 62
   256
  6
BYLAYER
  0
ACDBPLACEHOLDER
  5
F
102
{ACAD_REACTORS
330
E
102
}
330
E
  0
SCALE
  5
48
102
{ACAD_REACTORS
330
47
102
}
330
47
100
AcDbScale
 70
     0
300
1:1
140
1.0
141
1.0
290
     1
  0
SCALE
  5
49
102
{ACAD_REACTORS
330
47
102
}
330
47
100
AcDbScale
 70
     0
300
1:2
140
1.0
141
2.0
290
     0
  0
SCALE
  5
4A
102
{ACAD_REACTORS
330
47
102
}
330
47
100
AcDbScale
 70
     0
300
1:4
140
1.0
141
4.0
290
     0
  0
SCALE
  5
4B
102
{ACAD_REACTORS
330
47
102
}
330
47
100
AcDbScale
 70
     0
300
1:5
140
1.0
141
5.0
290
     0
  0
SCALE
  5
4C
102
{ACAD_REACTORS
330
47
102
}
330
47
100
AcDbScale
 70
     0
300
1:8
140
1.0
141
8.0
290
     0
  0
SCALE
  5
4D
102
{ACAD_REACTORS
330
47
102
}
330
47
100
AcDbScale
 70
     0
300
1:10
140
1.0
141
10.0
290
     0
  0
SCALE
  5
4E
102
{ACAD_REACTORS
330
47
102
}
330
47
100
AcDbScale
 70
     0
300
1:16
140
1.0
141
16.0
290
     0
  0
SCALE
  5
4F
102
{ACAD_REACTORS
330
47
102
}
330
47
100
AcDbScale
 70
     0
300
1:20
140
1.0
141
20.0
290
     0
  0
SCALE
  5
50
102
{ACAD_REACTORS
330
47
102
}
330
47
100
AcDbScale
 70
     0
300
1:30
140
1.0
141
30.0
290
     0
  0
SCALE
  5
51
102
{ACAD_REACTORS
330
47
102
}
330
47
100
AcDbScale
 70
     0
300
1:40
140
1.0
141
40.0
290
     0
  0
SCALE
  5
52
102
{ACAD_REACTORS
330
47
102
}
330
47
100
AcDbScale
 70
     0
300
1:50
140
1.0
141
50.0
290
     0
  0
SCALE
  5
53
102
{ACAD_REACTORS
330
47
102
}
330
47
100
AcDbScale
 70
     0
300
1:100
140
1.0
141
100.0
290
     0
  0
SCALE
  5
54
102
{ACAD_REACTORS
330
47
102
}
330
47
100
AcDbScale
 70
     0
300
2:1
140
2.0
141
1.0
290
     0
  0
SCALE
  5
55
102
{ACAD_REACTORS
330
47
102
}
330
47
100
AcDbScale
 70
     0
300
4:1
140
4.0
141
1.0
290
     0
  0
SCALE
  5
56
102
{ACAD_REACTORS
330
47
102
}
330
47
100
AcDbScale
 70
     0
300
8:1
140
8.0
141
1.0
290
     0
  0
SCALE
  5
57
102
{ACAD_REACTORS
330
47
102
}
330
47
100
AcDbScale
 70
     0
300
10:1
140
10.0
141
1.0
290
     0
  0
SCALE
  5
58
102
{ACAD_REACTORS
330
47
102
}
330
47
100
AcDbScale
 70
     0
300
100:1
140
100.0
141
1.0
290
     0
  0
SCALE
  5
59
102
{ACAD_REACTORS
330
47
102
}
330
47
100
AcDbScale
 70
     0
300
1/128" = 1'-0"
140
0.0078125
141
12.0
290
     0
  0
SCALE
  5
5A
102
{ACAD_REACTORS
330
47
102
}
330
47
100
AcDbScale
 70
     0
300
1/64" = 1'-0"
140
0.015625
141
12.0
290
     0
  0
SCALE
  5
5B
102
{ACAD_REACTORS
330
47
102
}
330
47
100
AcDbScale
 70
     0
300
1/32" = 1'-0"
140
0.03125
141
12.0
290
     0
  0
SCALE
  5
5C
102
{ACAD_REACTORS
330
47
102
}
330
47
100
AcDbScale
 70
     0
300
1/16" = 1'-0"
140
0.0625
141
12.0
290
     0
  0
SCALE
  5
5D
102
{ACAD_REACTORS
330
47
102
}
330
47
100
AcDbScale
 70
     0
300
3/32" = 1'-0"
140
0.09375
141
12.0
290
     0
  0
SCALE
  5
5E
102
{ACAD_REACTORS
330
47
102
}
330
47
100
AcDbScale
 70
     0
300
1/8" = 1'-0"
140
0.125
141
12.0
290
     0
  0
SCALE
  5
5F
102
{ACAD_REACTORS
330
47
102
}
330
47
100
AcDbScale
 70
     0
300
3/16" = 1'-0"
140
0.1875
141
12.0
290
     0
  0
SCALE
  5
60
102
{ACAD_REACTORS
330
47
102
}
330
47
100
AcDbScale
 70
     0
300
1/4" = 1'-0"
140
0.25
141
12.0
290
     0
  0
SCALE
  5
61
102
{ACAD_REACTORS
330
47
102
}
330
47
100
AcDbScale
 70
     0
300
3/8" = 1'-0"
140
0.375
141
12.0
290
     0
  0
SCALE
  5
62
102
{ACAD_REACTORS
330
47
102
}
330
47
100
AcDbScale
 70
     0
300
1/2" = 1'-0"
140
0.5
141
12.0
290
     0
  0
SCALE
  5
63
102
{ACAD_REACTORS
330
47
102
}
330
47
100
AcDbScale
 70
     0
300
3/4" = 1'-0"
140
0.75
141
12.0
290
     0
  0
SCALE
  5
64
102
{ACAD_REACTORS
330
47
102
}
330
47
100
AcDbScale
 70
     0
300
1" = 1'-0"
140
1.0
141
12.0
290
     0
  0
SCALE
  5
65
102
{ACAD_REACTORS
330
47
102
}
330
47
100
AcDbScale
 70
     0
300
1-1/2" = 1'-0"
140
1.5
141
12.0
290
     0
  0
SCALE
  5
66
102
{ACAD_REACTORS
330
47
102
}
330
47
100
AcDbScale
 70
     0
300
3" = 1'-0"
140
3.0
141
12.0
290
     0
  0
SCALE
  5
67
102
{ACAD_REACTORS
330
47
102
}
330
47
100
AcDbScale
 70
     0
300
6" = 1'-0"
140
6.0
141
12.0
290
     0
  0
SCALE
  5
68
102
{ACAD_REACTORS
330
47
102
}
330
47
100
AcDbScale
 70
     0
300
1'-0" = 1'-0"
140
12.0
141
12.0
290
     0
  0
TABLESTYLE
  5
6A
102
{ACAD_REACTORS
330
69
102
}
102
{ACAD_XDICTIONARY
360
260
102
}
330
69
100
AcDbTableStyle
  3
Standard
 70
     0
 71
     0
 40
0.06
 41
0.06
280
     0
281
     0
  7
Standard
140
4.5
170
     2
 62
     0
 63
   257
283
     0
 90
        4
 91
        0
  1

274
    -2
284
     1
 64
     0
275
    -2
285
     1
 65
     0
276
    -2
286
     1
 66
     0
277
    -2
287
     1
 67
     0
278
    -2
288
     1
 68
     0
279
    -2
289
     1
 69
     0
  7
Standard
140
6.0
170
     5
 62
     0
 63
   257
283
     0
 90
        4
 91
        0
  1

274
    -2
284
     1
 64
     0
275
    -2
285
     1
 65
     0
276
    -2
286
     1
 66
     0
277
    -2
287
     1
 67
     0
278
    -2
288
     1
 68
     0
279
    -2
289
     1
 69
     0
  7
Standard
140
4.5
170
     5
 62
     0
 63
   257
283
     0
 90
        4
 91
        0
  1

274
    -2
284
     1
 64
     0
275
    -2
285
     1
 65
     0
276
    -2
286
     1
 66
     0
277
    -2
287
     1
 67
     0
278
    -2
288
     1
 68
     0
279
    -2
289
     1
 69
     0
  0
VISUALSTYLE
  5
2F
102
{ACAD_REACTORS
330
2A
102
}
330
2A
100
AcDbVisualStyle
  2
2dWireframe
 70
     4
177
     3
291
     0
 70
    58
 90
        0
176
     1
 90
        2
176
     1
 90
        0
176
     1
 90
        0
176
     1
 40
0.6
176
     1
 40
30.0
176
     1
 62
     7
420
 16777215
176
     1
 90
        1
176
     1
 90
        4
176
     1
 62
     7
176
     1
 62
   257
176
     1
 90
        1
176
     1
 90
        1
176
     1
 40
1.0
176
     1
 90
        0
176
     1
 62
   257
176
     1
 40
1.0
176
     1
 90
        1
176
     1
 90
        6
176
     1
 90
        2
176
     1
 62
     7
176
     1
 90
        5
176
     1
 90
        0
176
     1
 90
        0
176
     1
290
     0
176
     1
 90
        1
176
     1
 40
0.0
176
     1
 90
        0
176
     1
290
     1
176
     1
290
     1
176
     1
290
     0
176
     1
290
     0
176
     1
290
     0
176
     1
290
     0
176
     1
290
     0
176
     1
290
     0
176
     1
290
     0
176
     1
 90
       50
176
     1
 40
0.0
176
     1
 40
1.0
176
     1
 90
        0
176
     1
 62
    18
420
        0
176
     1
 90
       50
176
     1
 90
        3
176
     1
 62
     5
420
      255
176
     1
290
     0
176
     1
 90
       50
176
     1
 90
       50
176
     1
 90
       50
176
     1
290
     0
176
     1
 90
       50
176
     1
 62
   256
176
     0
 40
1.0
176
     0
 90
        2
176
     1
  1
strokes_ogs.tif
176
     1
290
     0
176
     1
 40
1.0
176
     1
 40
1.0
176
     1
  0
VISUALSTYLE
  5
32
102
{ACAD_REACTORS
330
2A
102
}
330
2A
100
AcDbVisualStyle
  2
Basic
 70
     7
177
     3
291
     1
 70
    58
 90
        1
176
     1
 90
        0
176
     1
 90
        1
176
     1
 90
        0
176
     1
 40
0.6
176
     1
 40
30.0
176
     1
 62
     7
420
 16777215
176
     1
 90
        0
176
     1
 90
        4
176
     1
 62
     7
176
     1
 62
   257
176
     1
 90
        1
176
     1
 90
        1
176
     1
 40
1.0
176
     1
 90
        8
176
     1
 62
     7
176
     1
 40
1.0
176
     1
 90
        1
176
     1
 90
        6
176
     1
 90
        2
176
     1
 62
     7
176
     1
 90
        5
176
     1
 90
        0
176
     1
 90
        0
176
     1
290
     0
176
     1
 90
        1
176
     1
 40
0.0
176
     1
 90
        0
176
     1
290
     0
176
     1
290
     1
176
     1
290
     1
176
     1
290
     0
176
     1
290
     0
176
     1
290
     0
176
     1
290
     0
176
     1
290
     0
176
     1
290
     0
176
     1
 90
       50
176
     1
 40
0.0
176
     1
 40
1.0
176
     1
 90
        0
176
     1
 62
    18
420
        0
176
     1
 90
       50
176
     1
 90
        3
176
     1
 62
     5
420
      255
176
     1
290
     0
176
     1
 90
       50
176
     1
 90
       50
176
     1
 90
       50
176
     1
290
     0
176
     1
 90
       50
176
     1
 62
   256
176
     0
 40
1.0
176
     0
 90
        2
176
     1
  1
strokes_ogs.tif
176
     1
290
     0
176
     1
 40
1.0
176
     1
 40
1.0
176
     1
  0
VISUALSTYLE
  5
36
102
{ACAD_REACTORS
330
2A
102
}
330
2A
100
AcDbVisualStyle
  2
Brighten
 70
    12
177
     3
291
     1
 70
    58
 90
        2
176
     1
 90
        2
176
     1
 90
        0
176
     1
 90
        0
176
     1
 40
0.6
176
     1
 40
30.0
176
     1
 62
     7
420
 16777215
176
     1
 90
        1
176
     1
 90
        4
176
     1
 62
     7
176
     1
 62
   257
176
     1
 90
        1
176
     1
 90
        1
176
     1
 40
1.0
176
     1
 90
        8
176
     1
 62
     7
176
     1
 40
1.0
176
     1
 90
        1
176
     1
 90
        6
176
     1
 90
        2
176
     1
 62
     7
176
     1
 90
        5
176
     1
 90
        0
176
     1
 90
        0
176
     1
290
     0
176
     1
 90
        1
176
     1
 40
50.0
176
     1
 90
        0
176
     1
290
     0
176
     1
290
     1
176
     1
290
     1
176
     1
290
     0
176
     1
290
     0
176
     1
290
     0
176
     1
290
     0
176
     1
290
     0
176
     1
290
     0
176
     1
 90
       50
176
     1
 40
0.0
176
     1
 40
1.0
176
     1
 90
        0
176
     1
 62
    18
420
        0
176
     1
 90
       50
176
     1
 90
        3
176
     1
 62
     5
420
      255
176
     1
290
     0
176
     1
 90
       50
176
     1
 90
       50
176
     1
 90
       50
176
     1
290
     0
176
     1
 90
       50
176
     1
 62
   256
176
     0
 40
1.0
176
     0
 90
        2
176
     1
  1
strokes_ogs.tif
176
     1
290
     0
176
     1
 40
1.0
176
     1
 40
1.0
176
     1
  0
VISUALSTYLE
  5
3A
102
{ACAD_REACTORS
330
2A
102
}
330
2A
100
AcDbVisualStyle
  2
ColorChange
 70
    16
177
     3
291
     1
 70
    58
 90
        2
176
     1
 90
        2
176
     1
 90
        3
176
     1
 90
        0
176
     1
 40
0.6
176
     1
 40
30.0
176
     1
 62
     8
420
  8421504
176
     1
 90
        1
176
     1
 90
        4
176
     1
 62
     7
176
     1
 62
   257
176
     1
 90
        1
176
     1
 90
        1
176
     1
 40
1.0
176
     1
 90
        8
176
     1
 62
     8
420
  8421504
176
     1
 40
1.0
176
     1
 90
        1
176
     1
 90
        6
176
     1
 90
        2
176
     1
 62
     7
176
     1
 90
        5
176
     1
 90
        0
176
     1
 90
        0
176
     1
290
     0
176
     1
 90
        1
176
     1
 40
0.0
176
     1
 90
        0
176
     1
290
     0
176
     1
290
     1
176
     1
290
     1
176
     1
290
     0
176
     1
290
     0
176
     1
290
     0
176
     1
290
     0
176
     1
290
     0
176
     1
290
     0
176
     1
 90
       50
176
     1
 40
0.0
176
     1
 40
1.0
176
     1
 90
        0
176
     1
 62
    18
420
        0
176
     1
 90
       50
176
     1
 90
        3
176
     1
 62
     5
420
      255
176
     1
290
     0
176
     1
 90
       50
176
     1
 90
       50
176
     1
 90
       50
176
     1
290
     0
176
     1
 90
       50
176
     1
 62
   256
176
     0
 40
1.0
176
     0
 90
        2
176
     1
  1
strokes_ogs.tif
176
     1
290
     0
176
     1
 40
1.0
176
     1
 40
1.0
176
     1
  0
VISUALSTYLE
  5
34
102
{ACAD_REACTORS
330
2A
102
}
330
2A
100
AcDbVisualStyle
  2
Conceptual
 70
     9
177
     3
291
     0
 70
    58
 90
        3
176
     1
 90
        2
176
     1
 90
        0
176
     1
 90
        0
176
     1
 40
0.6
176
     1
 40
30.0
176
     1
 62
     7
420
 16777215
176
     1
 90
        2
176
     1
 90
        2
176
     1
 62
     7
176
     1
 62
   257
176
     1
 90
        1
176
     1
 90
        1
176
     1
 40
179.0
176
     1
 90
        8
176
     1
 62
     7
176
     1
 40
1.0
176
     1
 90
        1
176
     1
 90
        6
176
     1
 90
        2
176
     1
 62
     7
176
     1
 90
        3
176
     1
 90
        0
176
     1
 90
        0
176
     1
290
     0
176
     1
 90
        1
176
     1
 40
0.0
176
     1
 90
        0
176
     1
290
     0
176
     1
290
     1
176
     1
290
     1
176
     1
290
     0
176
     1
290
     0
176
     1
290
     0
176
     1
290
     0
176
     1
290
     0
176
     1
290
     0
176
     1
 90
       50
176
     1
 40
0.0
176
     1
 40
1.0
176
     1
 90
        0
176
     1
 62
    18
420
        0
176
     1
 90
       50
176
     1
 90
        3
176
     1
 62
     5
420
      255
176
     1
290
     0
176
     1
 90
       50
176
     1
 90
       50
176
     1
 90
       50
176
     1
290
     0
176
     1
 90
       50
176
     1
 62
   256
176
     0
 40
1.0
176
     0
 90
        2
176
     1
  1
strokes_ogs.tif
176
     1
290
     0
176
     1
 40
1.0
176
     1
 40
1.0
176
     1
  0
VISUALSTYLE
  5
35
102
{ACAD_REACTORS
330
2A
102
}
330
2A
100
AcDbVisualStyle
  2
Dim
 70
    11
177
     3
291
     1
 70
    58
 90
        2
176
     1
 90
        2
176
     1
 90
        0
176
     1
 90
        0
176
     1
 40
0.6
176
     1
 40
30.0
176
     1
 62
     7
420
 16777215
176
     1
 90
        1
176
     1
 90
        4
176
     1
 62
     7
176
     1
 62
   257
176
     1
 90
        1
176
     1
 90
        1
176
     1
 40
1.0
176
     1
 90
        8
176
     1
 62
     7
176
     1
 40
1.0
176
     1
 90
        1
176
     1
 90
        6
176
     1
 90
        2
176
     1
 62
     7
176
     1
 90
        5
176
     1
 90
        0
176
     1
 90
        0
176
     1
290
     0
176
     1
 90
        1
176
     1
 40
-50.0
176
     1
 90
        0
176
     1
290
     0
176
     1
290
     1
176
     1
290
     1
176
     1
290
     0
176
     1
290
     0
176
     1
290
     0
176
     1
290
     0
176
     1
290
     0
176
     1
290
     0
176
     1
 90
       50
176
     1
 40
0.0
176
     1
 40
1.0
176
     1
 90
        0
176
     1
 62
    18
420
        0
176
     1
 90
       50
176
     1
 90
        3
176
     1
 62
     5
420
      255
176
     1
290
     0
176
     1
 90
       50
176
     1
 90
       50
176
     1
 90
       50
176
     1
290
     0
176
     1
 90
       50
176
     1
 62
   256
176
     0
 40
1.0
176
     0
 90
        2
176
     1
  1
strokes_ogs.tif
176
     1
290
     0
176
     1
 40
1.0
176
     1
 40
1.0
176
     1
  0
VISUALSTYLE
  5
3D
102
{ACAD_REACTORS
330
2A
102
}
330
2A
100
AcDbVisualStyle
  2
EdgeColorOff
 70
    22
177
     3
291
     1
 70
    58
 90
        2
176
     0
 90
        2
176
     0
 90
        0
176
     0
 90
        0
176
     0
 40
0.6
176
     0
 40
30.0
176
     0
 62
     7
420
 16777215
176
     0
 90
        1
176
     0
 90
        4
176
     0
 62
     7
176
     0
 62
   257
176
     0
 90
        1
176
     0
 90
        1
176
     0
 40
1.0
176
     0
 90
        8
176
     2
 62
     7
176
     0
 40
1.0
176
     0
 90
        1
176
     0
 90
        6
176
     0
 90
        2
176
     0
 62
     7
176
     0
 90
        5
176
     0
 90
        0
176
     0
 90
        0
176
     0
290
     0
176
     0
 90
        1
176
     0
 40
0.0
176
     0
 90
        0
176
     0
290
     0
176
     0
290
     1
176
     0
290
     1
176
     0
290
     0
176
     0
290
     0
176
     0
290
     0
176
     0
290
     0
176
     0
290
     0
176
     0
290
     0
176
     0
 90
       50
176
     0
 40
0.0
176
     0
 40
1.0
176
     0
 90
        0
176
     0
 62
    18
420
        0
176
     0
 90
       50
176
     0
 90
        3
176
     0
 62
     5
420
      255
176
     0
290
     0
176
     0
 90
       50
176
     0
 90
       50
176
     0
 90
       50
176
     0
290
     0
176
     0
 90
       50
176
     0
 62
   256
176
     0
 40
1.0
176
     0
 90
        2
176
     0
  1
strokes_ogs.tif
176
     0
290
     0
176
     0
 40
1.0
176
     0
 40
1.0
176
     0
  0
VISUALSTYLE
  5
39
102
{ACAD_REACTORS
330
2A
102
}
330
2A
100
AcDbVisualStyle
  2
Facepattern
 70
    15
177
     3
291
     1
 70
    58
 90
        2
176
     1
 90
        2
176
     1
 90
        0
176
     1
 90
        0
176
     1
 40
0.6
176
     1
 40
30.0
176
     1
 62
     7
420
 16777215
176
     1
 90
        1
176
     1
 90
        4
176
     1
 62
     7
176
     1
 62
   257
176
     1
 90
        1
176
     1
 90
        1
176
     1
 40
1.0
176
     1
 90
        8
176
     1
 62
     7
176
     1
 40
1.0
176
     1
 90
        1
176
     1
 90
        6
176
     1
 90
        2
176
     1
 62
     7
176
     1
 90
        5
176
     1
 90
        0
176
     1
 90
        0
176
     1
290
     0
176
     1
 90
        1
176
     1
 40
0.0
176
     1
 90
        0
176
     1
290
     0
176
     1
290
     1
176
     1
290
     1
176
     1
290
     0
176
     1
290
     0
176
     1
290
     0
176
     1
290
     0
176
     1
290
     0
176
     1
290
     0
176
     1
 90
       50
176
     1
 40
0.0
176
     1
 40
1.0
176
     1
 90
        0
176
     1
 62
    18
420
        0
176
     1
 90
       50
176
     1
 90
        3
176
     1
 62
     5
420
      255
176
     1
290
     0
176
     1
 90
       50
176
     1
 90
       50
176
     1
 90
       50
176
     1
290
     0
176
     1
 90
       50
176
     1
 62
   256
176
     0
 40
1.0
176
     0
 90
        2
176
     1
  1
strokes_ogs.tif
176
     1
290
     0
176
     1
 40
1.0
176
     1
 40
1.0
176
     1
  0
VISUALSTYLE
  5
2B
102
{ACAD_REACTORS
330
2A
102
}
330
2A
100
AcDbVisualStyle
  2
Flat
 70
     0
177
     3
291
     1
 70
    58
 90
        2
176
     1
 90
        1
176
     1
 90
        1
176
     1
 90
        2
176
     1
 40
0.6
176
     1
 40
30.0
176
     1
 62
     7
420
 16777215
176
     1
 90
        0
176
     1
 90
        0
176
     1
 62
     7
176
     1
 62
   257
176
     1
 90
        1
176
     1
 90
        1
176
     1
 40
1.0
176
     1
 90
        8
176
     1
 62
     7
176
     1
 40
1.0
176
     1
 90
        1
176
     1
 90
        6
176
     1
 90
        2
176
     1
 62
     7
176
     1
 90
        5
176
     1
 90
        0
176
     1
 90
        0
176
     1
290
     0
176
     1
 90
       13
176
     1
 40
0.0
176
     1
 90
        0
176
     1
290
     0
176
     1
290
     1
176
     1
290
     1
176
     1
290
     0
176
     1
290
     0
176
     1
290
     0
176
     1
290
     0
176
     1
290
     0
176
     1
290
     0
176
     1
 90
       50
176
     1
 40
0.0
176
     1
 40
1.0
176
     1
 90
        0
176
     1
 62
    18
420
        0
176
     1
 90
       50
176
     1
 90
        3
176
     1
 62
     5
420
      255
176
     1
290
     0
176
     1
 90
       50
176
     1
 90
       50
176
     1
 90
       50
176
     1
290
     0
176
     1
 90
       50
176
     1
 62
   256
176
     0
 40
1.0
176
     0
 90
        2
176
     1
  1
strokes_ogs.tif
176
     1
290
     0
176
     1
 40
1.0
176
     1
 40
1.0
176
     1
  0
VISUALSTYLE
  5
2C
102
{ACAD_REACTORS
330
2A
102
}
330
2A
100
AcDbVisualStyle
  2
FlatWithEdges
 70
     1
177
     3
291
     1
 70
    58
 90
        2
176
     1
 90
        1
176
     1
 90
        1
176
     1
 90
        2
176
     1
 40
0.6
176
     1
 40
30.0
176
     1
 62
     7
420
 16777215
176
     1
 90
        1
176
     1
 90
        0
176
     1
 62
     7
176
     1
 62
   257
176
     1
 90
        1
176
     1
 90
        1
176
     1
 40
1.0
176
     1
 90
        0
176
     1
 62
   257
176
     1
 40
1.0
176
     1
 90
        1
176
     1
 90
        6
176
     1
 90
        2
176
     1
 62
     7
176
     1
 90
        5
176
     1
 90
        0
176
     1
 90
        0
176
     1
290
     0
176
     1
 90
       13
176
     1
 40
0.0
176
     1
 90
        0
176
     1
290
     0
176
     1
290
     1
176
     1
290
     1
176
     1
290
     0
176
     1
290
     0
176
     1
290
     0
176
     1
290
     0
176
     1
290
     0
176
     1
290
     0
176
     1
 90
       50
176
     1
 40
0.0
176
     1
 40
1.0
176
     1
 90
        0
176
     1
 62
    18
420
        0
176
     1
 90
       50
176
     1
 90
        3
176
     1
 62
     5
420
      255
176
     1
290
     0
176
     1
 90
       50
176
     1
 90
       50
176
     1
 90
       50
176
     1
290
     0
176
     1
 90
       50
176
     1
 62
   256
176
     0
 40
1.0
176
     0
 90
        2
176
     1
  1
strokes_ogs.tif
176
     1
290
     0
176
     1
 40
1.0
176
     1
 40
1.0
176
     1
  0
VISUALSTYLE
  5
2D
102
{ACAD_REACTORS
330
2A
102
}
330
2A
100
AcDbVisualStyle
  2
Gouraud
 70
     2
177
     3
291
     1
 70
    58
 90
        2
176
     1
 90
        2
176
     1
 90
        1
176
     1
 90
        2
176
     1
 40
0.6
176
     1
 40
30.0
176
     1
 62
     7
420
 16777215
176
     1
 90
        0
176
     1
 90
        0
176
     1
 62
     7
176
     1
 62
   257
176
     1
 90
        1
176
     1
 90
        1
176
     1
 40
1.0
176
     1
 90
        0
176
     1
 62
     7
176
     1
 40
1.0
176
     1
 90
        1
176
     1
 90
        6
176
     1
 90
        2
176
     1
 62
     7
176
     1
 90
        5
176
     1
 90
        0
176
     1
 90
        0
176
     1
290
     0
176
     1
 90
       13
176
     1
 40
0.0
176
     1
 90
        0
176
     1
290
     0
176
     1
290
     1
176
     1
290
     1
176
     1
290
     0
176
     1
290
     0
176
     1
290
     0
176
     1
290
     0
176
     1
290
     0
176
     1
290
     0
176
     1
 90
       50
176
     1
 40
0.0
176
     1
 40
1.0
176
     1
 90
        0
176
     1
 62
    18
420
        0
176
     1
 90
       50
176
     1
 90
        3
176
     1
 62
     5
420
      255
176
     1
290
     0
176
     1
 90
       50
176
     1
 90
       50
176
     1
 90
       50
176
     1
290
     0
176
     1
 90
       50
176
     1
 62
   256
176
     0
 40
1.0
176
     0
 90
        2
176
     1
  1
strokes_ogs.tif
176
     1
290
     0
176
     1
 40
1.0
176
     1
 40
1.0
176
     1
  0
VISUALSTYLE
  5
2E
102
{ACAD_REACTORS
330
2A
102
}
330
2A
100
AcDbVisualStyle
  2
GouraudWithEdges
 70
     3
177
     3
291
     1
 70
    58
 90
        2
176
     1
 90
        2
176
     1
 90
        1
176
     1
 90
        2
176
     1
 40
0.6
176
     1
 40
30.0
176
     1
 62
     7
420
 16777215
176
     1
 90
        1
176
     1
 90
        0
176
     1
 62
     7
176
     1
 62
   257
176
     1
 90
        1
176
     1
 90
        1
176
     1
 40
1.0
176
     1
 90
        0
176
     1
 62
   257
176
     1
 40
1.0
176
     1
 90
        1
176
     1
 90
        6
176
     1
 90
        2
176
     1
 62
     7
176
     1
 90
        5
176
     1
 90
        0
176
     1
 90
        0
176
     1
290
     0
176
     1
 90
       13
176
     1
 40
0.0
176
     1
 90
        0
176
     1
290
     0
176
     1
290
     1
176
     1
290
     1
176
     1
290
     0
176
     1
290
     0
176
     1
290
     0
176
     1
290
     0
176
     1
290
     0
176
     1
290
     0
176
     1
 90
       50
176
     1
 40
0.0
176
     1
 40
1.0
176
     1
 90
        0
176
     1
 62
    18
420
        0
176
     1
 90
       50
176
     1
 90
        3
176
     1
 62
     5
420
      255
176
     1
290
     0
176
     1
 90
       50
176
     1
 90
       50
176
     1
 90
       50
176
     1
290
     0
176
     1
 90
       50
176
     1
 62
   256
176
     0
 40
1.0
176
     0
 90
        2
176
     1
  1
strokes_ogs.tif
176
     1
290
     0
176
     1
 40
1.0
176
     1
 40
1.0
176
     1
  0
VISUALSTYLE
  5
31
102
{ACAD_REACTORS
330
2A
102
}
330
2A
100
AcDbVisualStyle
  2
Hidden
 70
     6
177
     3
291
     0
 70
    58
 90
        1
176
     1
 90
        2
176
     1
 90
        2
176
     1
 90
        0
176
     1
 40
0.6
176
     1
 40
30.0
176
     1
 62
     7
420
 16777215
176
     1
 90
        2
176
     1
 90
        2
176
     1
 62
     7
176
     1
 62
   257
176
     1
 90
        2
176
     1
 90
        1
176
     1
 40
40.0
176
     1
 90
        0
176
     1
 62
   257
176
     1
 40
1.0
176
     1
 90
        1
176
     1
 90
        6
176
     1
 90
        2
176
     1
 62
     7
176
     1
 90
        3
176
     1
 90
        0
176
     1
 90
        0
176
     1
290
     0
176
     1
 90
        1
176
     1
 40
0.0
176
     1
 90
        0
176
     1
290
     0
176
     1
290
     1
176
     1
290
     1
176
     1
290
     0
176
     1
290
     0
176
     1
290
     0
176
     1
290
     0
176
     1
290
     0
176
     1
290
     0
176
     1
 90
       50
176
     1
 40
0.0
176
     1
 40
1.0
176
     1
 90
        0
176
     1
 62
    18
420
        0
176
     1
 90
       50
176
     1
 90
        3
176
     1
 62
     5
420
      255
176
     1
290
     0
176
     1
 90
       50
176
     1
 90
       50
176
     1
 90
       50
176
     1
290
     0
176
     1
 90
       50
176
     1
 62
   256
176
     0
 40
1.0
176
     0
 90
        2
176
     1
  1
strokes_ogs.tif
176
     1
290
     0
176
     1
 40
1.0
176
     1
 40
1.0
176
     1
  0
VISUALSTYLE
  5
3B
102
{ACAD_REACTORS
330
2A
102
}
330
2A
100
AcDbVisualStyle
  2
JitterOff
 70
    20
177
     3
291
     1
 70
    58
 90
        2
176
     0
 90
        2
176
     0
 90
        0
176
     0
 90
        0
176
     0
 40
0.6
176
     0
 40
30.0
176
     0
 62
     7
420
 16777215
176
     0
 90
        1
176
     0
 90
        4
176
     0
 62
     7
176
     0
 62
   257
176
     0
 90
        1
176
     0
 90
        1
176
     0
 40
1.0
176
     0
 90
       10
176
     2
 62
     7
176
     0
 40
1.0
176
     0
 90
        1
176
     0
 90
        6
176
     0
 90
        2
176
     0
 62
     7
176
     0
 90
        5
176
     0
 90
        0
176
     0
 90
        0
176
     0
290
     0
176
     0
 90
        1
176
     0
 40
0.0
176
     0
 90
        0
176
     0
290
     0
176
     0
290
     1
176
     0
290
     1
176
     0
290
     0
176
     0
290
     0
176
     0
290
     0
176
     0
290
     0
176
     0
290
     0
176
     0
290
     0
176
     0
 90
       50
176
     0
 40
0.0
176
     0
 40
1.0
176
     0
 90
        0
176
     0
 62
    18
420
        0
176
     0
 90
       50
176
     0
 90
        3
176
     0
 62
     5
420
      255
176
     0
290
     0
176
     0
 90
       50
176
     0
 90
       50
176
     0
 90
       50
176
     0
290
     0
176
     0
 90
       50
176
     0
 62
   256
176
     0
 40
1.0
176
     0
 90
        2
176
     0
  1
strokes_ogs.tif
176
     0
290
     0
176
     0
 40
1.0
176
     0
 40
1.0
176
     0
  0
VISUALSTYLE
  5
38
102
{ACAD_REACTORS
330
2A
102
}
330
2A
100
AcDbVisualStyle
  2
Linepattern
 70
    14
177
     3
291
     1
 70
    58
 90
        2
176
     1
 90
        2
176
     1
 90
        0
176
     1
 90
        0
176
     1
 40
0.6
176
     1
 40
30.0
176
     1
 62
     7
420
 16777215
176
     1
 90
        1
176
     1
 90
        4
176
     1
 62
     7
176
     1
 62
   257
176
     1
 90
        7
176
     1
 90
        7
176
     1
 40
1.0
176
     1
 90
        8
176
     1
 62
     7
176
     1
 40
1.0
176
     1
 90
        1
176
     1
 90
        6
176
     1
 90
        2
176
     1
 62
     7
176
     1
 90
        5
176
     1
 90
        0
176
     1
 90
        0
176
     1
290
     0
176
     1
 90
        1
176
     1
 40
0.0
176
     1
 90
        0
176
     1
290
     0
176
     1
290
     1
176
     1
290
     1
176
     1
290
     0
176
     1
290
     0
176
     1
290
     0
176
     1
290
     0
176
     1
290
     0
176
     1
290
     0
176
     1
 90
       50
176
     1
 40
0.0
176
     1
 40
1.0
176
     1
 90
        0
176
     1
 62
    18
420
        0
176
     1
 90
       50
176
     1
 90
        3
176
     1
 62
     5
420
      255
176
     1
290
     0
176
     1
 90
       50
176
     1
 90
       50
176
     1
 90
       50
176
     1
290
     0
176
     1
 90
       50
176
     1
 62
   256
176
     0
 40
1.0
176
     0
 90
        2
176
     1
  1
strokes_ogs.tif
176
     1
290
     0
176
     1
 40
1.0
176
     1
 40
1.0
176
     1
  0
VISUALSTYLE
  5
3C
102
{ACAD_REACTORS
330
2A
102
}
330
2A
100
AcDbVisualStyle
  2
OverhangOff
 70
    21
177
     3
291
     1
 70
    58
 90
        2
176
     0
 90
        2
176
     0
 90
        0
176
     0
 90
        0
176
     0
 40
0.6
176
     0
 40
30.0
176
     0
 62
     7
420
 16777215
176
     0
 90
        1
176
     0
 90
        4
176
     0
 62
     7
176
     0
 62
   257
176
     0
 90
        1
176
     0
 90
        1
176
     0
 40
1.0
176
     0
 90
        9
176
     2
 62
     7
176
     0
 40
1.0
176
     0
 90
        1
176
     0
 90
        6
176
     0
 90
        2
176
     0
 62
     7
176
     0
 90
        5
176
     0
 90
        0
176
     0
 90
        0
176
     0
290
     0
176
     0
 90
        1
176
     0
 40
0.0
176
     0
 90
        0
176
     0
290
     0
176
     0
290
     1
176
     0
290
     1
176
     0
290
     0
176
     0
290
     0
176
     0
290
     0
176
     0
290
     0
176
     0
290
     0
176
     0
290
     0
176
     0
 90
       50
176
     0
 40
0.0
176
     0
 40
1.0
176
     0
 90
        0
176
     0
 62
    18
420
        0
176
     0
 90
       50
176
     0
 90
        3
176
     0
 62
     5
420
      255
176
     0
290
     0
176
     0
 90
       50
176
     0
 90
       50
176
     0
 90
       50
176
     0
290
     0
176
     0
 90
       50
176
     0
 62
   256
176
     0
 40
1.0
176
     0
 90
        2
176
     0
  1
strokes_ogs.tif
176
     0
290
     0
176
     0
 40
1.0
176
     0
 40
1.0
176
     0
  0
VISUALSTYLE
  5
33
102
{ACAD_REACTORS
330
2A
102
}
330
2A
100
AcDbVisualStyle
  2
Realistic
 70
     8
177
     3
291
     0
 70
    58
 90
        2
176
     1
 90
        3
176
     1
 90
        0
176
     1
 90
        2
176
     1
 40
0.6
176
     1
 40
30.0
176
     1
 62
     7
420
 16777215
176
     1
 90
        0
176
     1
 90
        0
176
     1
 62
     7
176
     1
 62
   257
176
     1
 90
        1
176
     1
 90
        1
176
     1
 40
1.0
176
     1
 90
        8
176
     1
 62
   257
176
     1
 40
1.0
176
     1
 90
        1
176
     1
 90
        6
176
     1
 90
        2
176
     1
 62
     7
176
     1
 90
        3
176
     1
 90
        0
176
     1
 90
        0
176
     1
290
     0
176
     1
 90
       13
176
     1
 40
0.0
176
     1
 90
        0
176
     1
290
     0
176
     1
290
     1
176
     1
290
     1
176
     1
290
     0
176
     1
290
     0
176
     1
290
     0
176
     1
290
     0
176
     1
290
     0
176
     1
290
     0
176
     1
 90
       50
176
     1
 40
0.0
176
     1
 40
1.0
176
     1
 90
        0
176
     1
 62
    18
420
        0
176
     1
 90
       50
176
     1
 90
        3
176
     1
 62
     5
420
      255
176
     1
290
     0
176
     1
 90
       50
176
     1
 90
       50
176
     1
 90
       50
176
     1
290
     0
176
     1
 90
       50
176
     1
 62
   256
176
     0
 40
1.0
176
     0
 90
        2
176
     1
  1
strokes_ogs.tif
176
     1
290
     0
176
     1
 40
1.0
176
     1
 40
1.0
176
     1
  0
VISUALSTYLE
  5
42
102
{ACAD_REACTORS
330
2A
102
}
330
2A
100
AcDbVisualStyle
  2
Shaded
 70
    27
177
     3
291
     0
 70
    58
 90
        2
176
     1
 90
        2
176
     1
 90
        1
176
     1
 90
        2
176
     1
 40
0.6
176
     1
 40
30.0
176
     1
 62
     7
420
 16777215
176
     1
 90
        0
176
     1
 90
        4
176
     1
 62
     7
176
     1
 62
   257
176
     1
 90
        1
176
     1
 90
        1
176
     1
 40
1.0
176
     1
 90
        8
176
     1
 62
   257
176
     1
 40
1.0
176
     1
 90
        1
176
     1
 90
        6
176
     1
 90
        2
176
     1
 62
     8
420
  7895160
176
     1
 90
        3
176
     1
 90
        0
176
     1
 90
        0
176
     1
290
     0
176
     1
 90
        5
176
     1
 40
0.0
176
     1
 90
        0
176
     1
290
     0
176
     1
290
     1
176
     1
290
     1
176
     1
290
     0
176
     1
290
     0
176
     1
290
     0
176
     1
290
     0
176
     1
290
     0
176
     1
290
     0
176
     1
 90
       50
176
     1
 40
0.0
176
     1
 40
1.0
176
     1
 90
        0
176
     1
 62
    18
420
        0
176
     1
 90
       50
176
     1
 90
        3
176
     1
 62
     5
420
      255
176
     1
290
     0
176
     1
 90
       50
176
     1
 90
       50
176
     1
 90
       50
176
     1
290
     0
176
     1
 90
       50
176
     1
 62
   256
176
     0
 40
1.0
176
     0
 90
        2
176
     1
  1
strokes_ogs.tif
176
     1
290
     0
176
     1
 40
1.0
176
     1
 40
1.0
176
     1
  0
VISUALSTYLE
  5
41
102
{ACAD_REACTORS
330
2A
102
}
330
2A
100
AcDbVisualStyle
  2
Shaded with edges
 70
    26
177
     3
291
     0
 70
    58
 90
        2
176
     1
 90
        2
176
     1
 90
        1
176
     1
 90
        2
176
     1
 40
0.6
176
     1
 40
30.0
176
     1
 62
     7
420
 16777215
176
     1
 90
        1
176
     1
 90
       10
176
     1
 62
     7
176
     1
 62
   257
176
     1
 90
        2
176
     1
 90
        1
176
     1
 40
1.0
176
     1
 90
        8
176
     1
 62
   257
176
     1
 40
1.0
176
     1
 90
        1
176
     1
 90
        6
176
     1
 90
        2
176
     1
 62
     7
176
     1
 90
        3
176
     1
 90
        0
176
     1
 90
        0
176
     1
290
     0
176
     1
 90
        5
176
     1
 40
0.0
176
     1
 90
        0
176
     1
290
     0
176
     1
290
     1
176
     1
290
     1
176
     1
290
     0
176
     1
290
     0
176
     1
290
     0
176
     1
290
     0
176
     1
290
     0
176
     1
290
     0
176
     1
 90
       50
176
     1
 40
0.0
176
     1
 40
1.0
176
     1
 90
        0
176
     1
 62
    18
420
        0
176
     1
 90
       50
176
     1
 90
        3
176
     1
 62
     5
420
      255
176
     1
290
     0
176
     1
 90
       50
176
     1
 90
       50
176
     1
 90
       50
176
     1
290
     0
176
     1
 90
       50
176
     1
 62
   256
176
     0
 40
1.0
176
     0
 90
        2
176
     1
  1
strokes_ogs.tif
176
     1
290
     0
176
     1
 40
1.0
176
     1
 40
1.0
176
     1
  0
VISUALSTYLE
  5
3E
102
{ACAD_REACTORS
330
2A
102
}
330
2A
100
AcDbVisualStyle
  2
Shades of Gray
 70
    23
177
     3
291
     0
 70
    58
 90
        2
176
     1
 90
        2
176
     1
 90
        3
176
     1
 90
        0
176
     1
 40
0.6
176
     1
 40
30.0
176
     1
 62
     7
420
 16777215
176
     1
 90
        2
176
     1
 90
        2
176
     1
 62
     7
176
     1
 62
     7
176
     1
 90
        1
176
     1
 90
        1
176
     1
 40
40.0
176
     1
 90
        8
176
     1
 62
     7
176
     1
 40
1.0
176
     1
 90
        1
176
     1
 90
        6
176
     1
 90
        2
176
     1
 62
     7
176
     1
 90
        3
176
     1
 90
        0
176
     1
 90
        0
176
     1
290
     0
176
     1
 90
        1
176
     1
 40
0.0
176
     1
 90
        0
176
     1
290
     0
176
     1
290
     1
176
     1
290
     1
176
     1
290
     0
176
     1
290
     0
176
     1
290
     0
176
     1
290
     0
176
     1
290
     0
176
     1
290
     0
176
     1
 90
       50
176
     1
 40
0.0
176
     1
 40
1.0
176
     1
 90
        0
176
     1
 62
    18
420
        0
176
     1
 90
       50
176
     1
 90
        3
176
     1
 62
     5
420
      255
176
     1
290
     0
176
     1
 90
       50
176
     1
 90
       50
176
     1
 90
       50
176
     1
290
     0
176
     1
 90
       50
176
     1
 62
   256
176
     0
 40
1.0
176
     0
 90
        2
176
     1
  1
strokes_ogs.tif
176
     1
290
     0
176
     1
 40
1.0
176
     1
 40
1.0
176
     1
  0
VISUALSTYLE
  5
3F
102
{ACAD_REACTORS
330
2A
102
}
330
2A
100
AcDbVisualStyle
  2
Sketchy
 70
    24
177
     3
291
     0
 70
    58
 90
        1
176
     1
 90
        2
176
     1
 90
        2
176
     1
 90
        0
176
     1
 40
0.6
176
     1
 40
30.0
176
     1
 62
     7
420
 16777215
176
     1
 90
        2
176
     1
 90
        2
176
     1
 62
     7
176
     1
 62
     7
176
     1
 90
        1
176
     1
 90
        1
176
     1
 40
40.0
176
     1
 90
       11
176
     1
 62
     7
176
     1
 40
1.0
176
     1
 90
        1
176
     1
 90
        6
176
     1
 90
        2
176
     1
 62
     7
176
     1
 90
        6
176
     1
 90
        0
176
     1
 90
        0
176
     1
290
     0
176
     1
 90
        1
176
     1
 40
0.0
176
     1
 90
        0
176
     1
290
     0
176
     1
290
     1
176
     1
290
     1
176
     1
290
     0
176
     1
290
     0
176
     1
290
     0
176
     1
290
     0
176
     1
290
     0
176
     1
290
     0
176
     1
 90
       50
176
     1
 40
0.0
176
     1
 40
1.0
176
     1
 90
        0
176
     1
 62
    18
420
        0
176
     1
 90
       50
176
     1
 90
        3
176
     1
 62
     5
420
      255
176
     1
290
     0
176
     1
 90
       50
176
     1
 90
       50
176
     1
 90
       50
176
     1
290
     0
176
     1
 90
       50
176
     1
 62
   256
176
     0
 40
1.0
176
     0
 90
        2
176
     1
  1
strokes_ogs.tif
176
     1
290
     0
176
     1
 40
1.0
176
     1
 40
1.0
176
     1
  0
VISUALSTYLE
  5
37
102
{ACAD_REACTORS
330
2A
102
}
330
2A
100
AcDbVisualStyle
  2
Thicken
 70
    13
177
     3
291
     1
 70
    58
 90
        2
176
     1
 90
        2
176
     1
 90
        0
176
     1
 90
        0
176
     1
 40
0.6
176
     1
 40
30.0
176
     1
 62
     7
420
 16777215
176
     1
 90
        1
176
     1
 90
        4
176
     1
 62
     7
176
     1
 62
   257
176
     1
 90
        1
176
     1
 90
        1
176
     1
 40
1.0
176
     1
 90
       12
176
     1
 62
     7
176
     1
 40
1.0
176
     1
 90
        1
176
     1
 90
        6
176
     1
 90
        2
176
     1
 62
     7
176
     1
 90
        5
176
     1
 90
        0
176
     1
 90
        0
176
     1
290
     0
176
     1
 90
        1
176
     1
 40
0.0
176
     1
 90
        0
176
     1
290
     0
176
     1
290
     1
176
     1
290
     1
176
     1
290
     0
176
     1
290
     0
176
     1
290
     0
176
     1
290
     0
176
     1
290
     0
176
     1
290
     0
176
     1
 90
       50
176
     1
 40
0.0
176
     1
 40
1.0
176
     1
 90
        0
176
     1
 62
    18
420
        0
176
     1
 90
       50
176
     1
 90
        3
176
     1
 62
     5
420
      255
176
     1
290
     0
176
     1
 90
       50
176
     1
 90
       50
176
     1
 90
       50
176
     1
290
     0
176
     1
 90
       50
176
     1
 62
   256
176
     0
 40
1.0
176
     0
 90
        2
176
     1
  1
strokes_ogs.tif
176
     1
290
     0
176
     1
 40
1.0
176
     1
 40
1.0
176
     1
  0
VISUALSTYLE
  5
30
102
{ACAD_REACTORS
330
2A
102
}
330
2A
100
AcDbVisualStyle
  2
Wireframe
 70
     5
177
     3
291
     0
 70
    58
 90
        0
176
     1
 90
        2
176
     1
 90
        0
176
     1
 90
        0
176
     1
 40
0.6
176
     1
 40
30.0
176
     1
 62
     7
420
 16777215
176
     1
 90
        1
176
     1
 90
        4
176
     1
 62
     7
176
     1
 62
   257
176
     1
 90
        1
176
     1
 90
        1
176
     1
 40
1.0
176
     1
 90
        0
176
     1
 62
   257
176
     1
 40
1.0
176
     1
 90
        1
176
     1
 90
        6
176
     1
 90
        2
176
     1
 62
     7
176
     1
 90
        3
176
     1
 90
        0
176
     1
 90
        0
176
     1
290
     0
176
     1
 90
        1
176
     1
 40
0.0
176
     1
 90
        0
176
     1
290
     0
176
     1
290
     1
176
     1
290
     1
176
     1
290
     0
176
     1
290
     0
176
     1
290
     0
176
     1
290
     0
176
     1
290
     0
176
     1
290
     0
176
     1
 90
       50
176
     1
 40
0.0
176
     1
 40
1.0
176
     1
 90
        0
176
     1
 62
    18
420
        0
176
     1
 90
       50
176
     1
 90
        3
176
     1
 62
     5
420
      255
176
     1
290
     0
176
     1
 90
       50
176
     1
 90
       50
176
     1
 90
       50
176
     1
290
     0
176
     1
 90
       50
176
     1
 62
   256
176
     0
 40
1.0
176
     0
 90
        2
176
     1
  1
strokes_ogs.tif
176
     1
290
     0
176
     1
 40
1.0
176
     1
 40
1.0
176
     1
  0
VISUALSTYLE
  5
40
102
{ACAD_REACTORS
330
2A
102
}
330
2A
100
AcDbVisualStyle
  2
X-Ray
 70
    25
177
     3
291
     0
 70
    58
 90
        2
176
     1
 90
        2
176
     1
 90
        1
176
     1
 90
        1
176
     1
 40
0.5
176
     1
 40
30.0
176
     1
 62
     7
420
 16777215
176
     1
 90
        1
176
     1
 90
        0
176
     1
 62
     7
176
     1
 62
   257
176
     1
 90
        1
176
     1
 90
        1
176
     1
 40
1.0
176
     1
 90
        8
176
     1
 62
     7
176
     1
 40
1.0
176
     1
 90
        1
176
     1
 90
        6
176
     1
 90
        2
176
     1
 62
     7
176
     1
 90
        3
176
     1
 90
        0
176
     1
 90
        0
176
     1
290
     0
176
     1
 90
       13
176
     1
 40
0.0
176
     1
 90
        0
176
     1
290
     0
176
     1
290
     1
176
     1
290
     1
176
     1
290
     0
176
     1
290
     0
176
     1
290
     0
176
     1
290
     0
176
     1
290
     0
176
     1
290
     0
176
     1
 90
       50
176
     1
 40
0.0
176
     1
 40
1.0
176
     1
 90
        0
176
     1
 62
    18
420
        0
176
     1
 90
       50
176
     1
 90
        3
176
     1
 62
     5
420
      255
176
     1
290
     0
176
     1
 90
       50
176
     1
 90
       50
176
     1
 90
       50
176
     1
290
     0
176
     1
 90
       50
176
     1
 62
   256
176
     0
 40
1.0
176
     0
 90
        2
176
     1
  1
strokes_ogs.tif
176
     1
290
     0
176
     1
 40
1.0
176
     1
 40
1.0
176
     1
  0
DICTIONARYVAR
  5
25F
102
{ACAD_REACTORS
330
25E
102
}
330
25E
100
DictionaryVariables
280
     0
  1
1:1
  0
DICTIONARYVAR
  5
267
102
{ACAD_REACTORS
330
25E
102
}
330
25E
100
DictionaryVariables
280
     0
  1
3.500000
  0
DICTIONARYVAR
  5
268
102
{ACAD_REACTORS
330
25E
102
}
330
25E
100
DictionaryVariables
280
     0
  1
acadiso.lin
  0
DICTIONARYVAR
  5
264
102
{ACAD_REACTORS
330
25E
102
}
330
25E
100
DictionaryVariables
280
     0
  1
Standard
  0
DICTIONARYVAR
  5
263
102
{ACAD_REACTORS
330
25E
102
}
330
25E
100
DictionaryVariables
280
     0
  1
Standard
  0
DICTIONARY
  5
260
330
6A
100
AcDbDictionary
280
     1
281
     1
  3
ACAD_ROUNDTRIP_2008_TABLESTYLE_CELLSTYLEMAP
360
261
  0
CELLSTYLEMAP
  5
261
102
{ACAD_REACTORS
330
260
102
}
330
260
100
AcDbCellStyleMap
 90
        3
300
CELLSTYLE
  1
TABLEFORMAT_BEGIN
 90
        5
170
     1
 91
        0
 92
    32768
 62
   257
 93
        1
300
CONTENTFORMAT
  1
CONTENTFORMAT_BEGIN
 90
        0
 91
        0
 92
        4
 93
        0
300

 40
0.0
140
1.0
 94
        5
 62
     0
340
11
144
6.0
309
CONTENTFORMAT_END
171
     1
301
MARGIN
  1
CELLMARGIN_BEGIN
 40
1.5
 40
1.5
 40
1.5
 40
1.5
 40
1.5
 40
1.5
309
CELLMARGIN_END
 94
        6
 95
        1
302
GRIDFORMAT
  1
GRIDFORMAT_BEGIN
 90
        0
 91
        1
 62
     0
 92
       -2
340
14
 93
        0
 40
0.045
309
GRIDFORMAT_END
 95
        2
302
GRIDFORMAT
  1
GRIDFORMAT_BEGIN
 90
        0
 91
        1
 62
     0
 92
       -2
340
14
 93
        0
 40
0.045
309
GRIDFORMAT_END
 95
        4
302
GRIDFORMAT
  1
GRIDFORMAT_BEGIN
 90
        0
 91
        1
 62
     0
 92
       -2
340
14
 93
        0
 40
0.045
309
GRIDFORMAT_END
 95
        8
302
GRIDFORMAT
  1
GRIDFORMAT_BEGIN
 90
        0
 91
        1
 62
     0
 92
       -2
340
14
 93
        0
 40
0.045
309
GRIDFORMAT_END
 95
       16
302
GRIDFORMAT
  1
GRIDFORMAT_BEGIN
 90
        0
 91
        1
 62
     0
 92
       -2
340
14
 93
        0
 40
0.045
309
GRIDFORMAT_END
 95
       32
302
GRIDFORMAT
  1
GRIDFORMAT_BEGIN
 90
        0
 91
        1
 62
     0
 92
       -2
340
14
 93
        0
 40
0.045
309
GRIDFORMAT_END
309
TABLEFORMAT_END
  1
CELLSTYLE_BEGIN
 90
        1
 91
        1
300
_TITLE
309
CELLSTYLE_END
300
CELLSTYLE
  1
TABLEFORMAT_BEGIN
 90
        5
170
     1
 91
        0
 92
        0
 62
   257
 93
        1
300
CONTENTFORMAT
  1
CONTENTFORMAT_BEGIN
 90
        0
 91
        0
 92
        4
 93
        0
300

 40
0.0
140
1.0
 94
        5
 62
     0
340
11
144
4.5
309
CONTENTFORMAT_END
171
     1
301
MARGIN
  1
CELLMARGIN_BEGIN
 40
1.5
 40
1.5
 40
1.5
 40
1.5
 40
1.5
 40
1.5
309
CELLMARGIN_END
 94
        6
 95
        1
302
GRIDFORMAT
  1
GRIDFORMAT_BEGIN
 90
        0
 91
        1
 62
     0
 92
       -2
340
14
 93
        0
 40
0.045
309
GRIDFORMAT_END
 95
        2
302
GRIDFORMAT
  1
GRIDFORMAT_BEGIN
 90
        0
 91
        1
 62
     0
 92
       -2
340
14
 93
        0
 40
0.045
309
GRIDFORMAT_END
 95
        4
302
GRIDFORMAT
  1
GRIDFORMAT_BEGIN
 90
        0
 91
        1
 62
     0
 92
       -2
340
14
 93
        0
 40
0.045
309
GRIDFORMAT_END
 95
        8
302
GRIDFORMAT
  1
GRIDFORMAT_BEGIN
 90
        0
 91
        1
 62
     0
 92
       -2
340
14
 93
        0
 40
0.045
309
GRIDFORMAT_END
 95
       16
302
GRIDFORMAT
  1
GRIDFORMAT_BEGIN
 90
        0
 91
        1
 62
     0
 92
       -2
340
14
 93
        0
 40
0.045
309
GRIDFORMAT_END
 95
       32
302
GRIDFORMAT
  1
GRIDFORMAT_BEGIN
 90
        0
 91
        1
 62
     0
 92
       -2
340
14
 93
        0
 40
0.045
309
GRIDFORMAT_END
309
TABLEFORMAT_END
  1
CELLSTYLE_BEGIN
 90
        2
 91
        1
300
_HEADER
309
CELLSTYLE_END
300
CELLSTYLE
  1
TABLEFORMAT_BEGIN
 90
        5
170
     1
 91
        0
 92
        0
 62
   257
 93
        1
300
CONTENTFORMAT
  1
CONTENTFORMAT_BEGIN
 90
        0
 91
        0
 92
        4
 93
        0
300

 40
0.0
140
1.0
 94
        2
 62
     0
340
11
144
4.5
309
CONTENTFORMAT_END
171
     1
301
MARGIN
  1
CELLMARGIN_BEGIN
 40
1.5
 40
1.5
 40
1.5
 40
1.5
 40
1.5
 40
1.5
309
CELLMARGIN_END
 94
        6
 95
        1
302
GRIDFORMAT
  1
GRIDFORMAT_BEGIN
 90
        0
 91
        1
 62
     0
 92
       -2
340
14
 93
        0
 40
0.045
309
GRIDFORMAT_END
 95
        2
302
GRIDFORMAT
  1
GRIDFORMAT_BEGIN
 90
        0
 91
        1
 62
     0
 92
       -2
340
14
 93
        0
 40
0.045
309
GRIDFORMAT_END
 95
        4
302
GRIDFORMAT
  1
GRIDFORMAT_BEGIN
 90
        0
 91
        1
 62
     0
 92
       -2
340
14
 93
        0
 40
0.045
309
GRIDFORMAT_END
 95
        8
302
GRIDFORMAT
  1
GRIDFORMAT_BEGIN
 90
        0
 91
        1
 62
     0
 92
       -2
340
14
 93
        0
 40
0.045
309
GRIDFORMAT_END
 95
       16
302
GRIDFORMAT
  1
GRIDFORMAT_BEGIN
 90
        0
 91
        1
 62
     0
 92
       -2
340
14
 93
        0
 40
0.045
309
GRIDFORMAT_END
 95
       32
302
GRIDFORMAT
  1
GRIDFORMAT_BEGIN
 90
        0
 91
        1
 62
     0
 92
       -2
340
14
 93
        0
 40
0.045
309
GRIDFORMAT_END
309
TABLEFORMAT_END
  1
CELLSTYLE_BEGIN
 90
        3
 91
        2
300
_DATA
309
CELLSTYLE_END
  0
ENDSEC
  0
EOF
