  0
SECTION
  2
HEADER
  9
$ACADVER
  1
AC1032
  9
$ACADMAINTVER
 90
        4
  9
$DWGCODEPAGE
  3
ANSI_932
  9
$LASTSAVEDBY
  1
mizuki.kobayashi
  9
$REQUIREDVERSIONS
160
                 0
  9
$INSBASE
 10
0.0
 20
0.0
 30
0.0
  9
$EXTMIN
 10
-2100.0
 20
-1485.0
 30
0.0
  9
$EXTMAX
 10
2100.0
 20
1485.0
 30
0.0
  9
$LIMMIN
 10
-2100.0
 20
-1485.0
  9
$LIMMAX
 10
2100.0
 20
1485.0
  9
$ORTHOMODE
 70
     0
  9
$REGENMODE
 70
     1
  9
$FILLMODE
 70
     1
  9
$QTEXTMODE
 70
     0
  9
$MIRRTEXT
 70
     1
  9
$LTSCALE
 40
10.0
  9
$ATTMODE
 70
     1
  9
$TEXTSIZE
 40
2.5
  9
$TRACEWID
 40
1.0
  9
$TEXTSTYLE
  7
Standard
  9
$CLAYER
  8
0
  9
$CELTYPE
  6
ByLayer
  9
$CECOLOR
 62
   256
  9
$CELTSCALE
 40
1.0
  9
$DISPSILH
 70
     0
  9
$DIMSCALE
 40
1.0
  9
$DIMASZ
 40
2.5
  9
$DIMEXO
 40
0.625
  9
$DIMDLI
 40
3.75
  9
$DIMRND
 40
0.0
  9
$DIMDLE
 40
0.0
  9
$DIMEXE
 40
1.25
  9
$DIMTP
 40
0.0
  9
$DIMTM
 40
0.0
  9
$DIMTXT
 40
2.5
  9
$DIMCEN
 40
2.5
  9
$DIMTSZ
 40
0.0
  9
$DIMTOL
 70
     0
  9
$DIMLIM
 70
     0
  9
$DIMTIH
 70
     0
  9
$DIMTOH
 70
     0
  9
$DIMSE1
 70
     0
  9
$DIMSE2
 70
     0
  9
$DIMTAD
 70
     1
  9
$DIMZIN
 70
     8
  9
$DIMBLK
  1

  9
$DIMASO
 70
     1
  9
$DIMSHO
 70
     1
  9
$DIMPOST
  1

  9
$DIMAPOST
  1

  9
$DIMALT
 70
     0
  9
$DIMALTD
 70
     3
  9
$DIMALTF
 40
0.03937007874016
  9
$DIMLFAC
 40
1.0
  9
$DIMTOFL
 70
     1
  9
$DIMTVP
 40
0.0
  9
$DIMTIX
 70
     0
  9
$DIMSOXD
 70
     0
  9
$DIMSAH
 70
     0
  9
$DIMBLK1
  1

  9
$DIMBLK2
  1

  9
$DIMSTYLE
  2
ISO-25
  9
$DIMCLRD
 70
     0
  9
$DIMCLRE
 70
     0
  9
$DIMCLRT
 70
     0
  9
$DIMTFAC
 40
1.0
  9
$DIMGAP
 40
0.625
  9
$DIMJUST
 70
     0
  9
$DIMSD1
 70
     0
  9
$DIMSD2
 70
     0
  9
$DIMTOLJ
 70
     0
  9
$DIMTZIN
 70
     8
  9
$DIMALTZ
 70
     0
  9
$DIMALTTZ
 70
     0
  9
$DIMUPT
 70
     0
  9
$DIMDEC
 70
     2
  9
$DIMTDEC
 70
     2
  9
$DIMALTU
 70
     2
  9
$DIMALTTD
 70
     3
  9
$DIMTXSTY
  7
Standard
  9
$DIMAUNIT
 70
     0
  9
$DIMADEC
 70
     0
  9
$DIMALTRND
 40
0.0
  9
$DIMAZIN
 70
     0
  9
$DIMDSEP
 70
    44
  9
$DIMATFIT
 70
     3
  9
$DIMFRAC
 70
     0
  9
$DIMLDRBLK
  1

  9
$DIMLUNIT
 70
     2
  9
$DIMLWD
 70
    -2
  9
$DIMLWE
 70
    -2
  9
$DIMTMOVE
 70
     0
  9
$DIMFXL
 40
1.0
  9
$DIMFXLON
 70
     0
  9
$DIMJOGANG
 40
0.7853981633974483
  9
$DIMTFILL
 70
     0
  9
$DIMTFILLCLR
 70
     0
  9
$DIMARCSYM
 70
     0
  9
$DIMLTYPE
  6

  9
$DIMLTEX1
  6

  9
$DIMLTEX2
  6

  9
$DIMTXTDIRECTION
 70
     0
  9
$LUNITS
 70
     2
  9
$LUPREC
 70
     4
  9
$SKETCHINC
 40
1.0
  9
$FILLETRAD
 40
10.0
  9
$AUNITS
 70
     0
  9
$AUPREC
 70
     0
  9
$MENU
  1
.
  9
$ELEVATION
 40
0.0
  9
$PELEVATION
 40
0.0
  9
$THICKNESS
 40
0.0
  9
$LIMCHECK
 70
     0
  9
$CHAMFERA
 40
0.0
  9
$CHAMFERB
 40
0.0
  9
$CHAMFERC
 40
0.0
  9
$CHAMFERD
 40
0.0
  9
$SKPOLY
 70
     0
  9
$TDCREATE
 40
2459192.417462419
  9
$TDUCREATE
 40
2459192.042462419
  9
$TDUPDATE
 40
2459192.417462511
  9
$TDUUPDATE
 40
2459192.042462511
  9
$TDINDWG
 40
0.0000000116
  9
$TDUSRTIMER
 40
0.0000000116
  9
$USRTIMER
 70
     1
  9
$ANGBASE
 50
0.0
  9
$ANGDIR
 70
     0
  9
$PDMODE
 70
     0
  9
$PDSIZE
 40
0.0
  9
$PLINEWID
 40
0.0
  9
$SPLFRAME
 70
     0
  9
$SPLINETYPE
 70
     6
  9
$SPLINESEGS
 70
     8
  9
$HANDSEED
  5
2E1
  9
$SURFTAB1
 70
     6
  9
$SURFTAB2
 70
     6
  9
$SURFTYPE
 70
     6
  9
$SURFU
 70
     6
  9
$SURFV
 70
     6
  9
$UCSBASE
  2

  9
$UCSNAME
  2

  9
$UCSORG
 10
0.0
 20
0.0
 30
0.0
  9
$UCSXDIR
 10
1.0
 20
0.0
 30
0.0
  9
$UCSYDIR
 10
0.0
 20
1.0
 30
0.0
  9
$UCSORTHOREF
  2

  9
$UCSORTHOVIEW
 70
     0
  9
$UCSORGTOP
 10
0.0
 20
0.0
 30
0.0
  9
$UCSORGBOTTOM
 10
0.0
 20
0.0
 30
0.0
  9
$UCSORGLEFT
 10
0.0
 20
0.0
 30
0.0
  9
$UCSORGRIGHT
 10
0.0
 20
0.0
 30
0.0
  9
$UCSORGFRONT
 10
0.0
 20
0.0
 30
0.0
  9
$UCSORGBACK
 10
0.0
 20
0.0
 30
0.0
  9
$PUCSBASE
  2

  9
$PUCSNAME
  2

  9
$PUCSORG
 10
0.0
 20
0.0
 30
0.0
  9
$PUCSXDIR
 10
1.0
 20
0.0
 30
0.0
  9
$PUCSYDIR
 10
0.0
 20
1.0
 30
0.0
  9
$PUCSORTHOREF
  2

  9
$PUCSORTHOVIEW
 70
     0
  9
$PUCSORGTOP
 10
0.0
 20
0.0
 30
0.0
  9
$PUCSORGBOTTOM
 10
0.0
 20
0.0
 30
0.0
  9
$PUCSORGLEFT
 10
0.0
 20
0.0
 30
0.0
  9
$PUCSORGRIGHT
 10
0.0
 20
0.0
 30
0.0
  9
$PUCSORGFRONT
 10
0.0
 20
0.0
 30
0.0
  9
$PUCSORGBACK
 10
0.0
 20
0.0
 30
0.0
  9
$USERI1
 70
     0
  9
$USERI2
 70
     0
  9
$USERI3
 70
     0
  9
$USERI4
 70
     0
  9
$USERI5
 70
     0
  9
$USERR1
 40
0.0
  9
$USERR2
 40
0.0
  9
$USERR3
 40
0.0
  9
$USERR4
 40
0.0
  9
$USERR5
 40
0.0
  9
$WORLDVIEW
 70
     1
  9
$SHADEDGE
 70
     3
  9
$SHADEDIF
 70
    70
  9
$TILEMODE
 70
     1
  9
$MAXACTVP
 70
    64
  9
$PINSBASE
 10
0.0
 20
0.0
 30
0.0
  9
$PLIMCHECK
 70
     0
  9
$PEXTMIN
 10
1.000000000000000E+20
 20
1.000000000000000E+20
 30
1.000000000000000E+20
  9
$PEXTMAX
 10
-1.000000000000000E+20
 20
-1.000000000000000E+20
 30
-1.000000000000000E+20
  9
$PLIMMIN
 10
0.0
 20
0.0
  9
$PLIMMAX
 10
420.0
 20
297.0
  9
$UNITMODE
 70
     0
  9
$VISRETAIN
 70
     1
  9
$PLINEGEN
 70
     0
  9
$PSLTSCALE
 70
     1
  9
$TREEDEPTH
 70
  3020
  9
$CMLSTYLE
  2
Standard
  9
$CMLJUST
 70
     0
  9
$CMLSCALE
 40
20.0
  9
$PROXYGRAPHICS
 70
     1
  9
$MEASUREMENT
 70
     1
  9
$CELWEIGHT
370
    -1
  9
$ENDCAPS
280
     0
  9
$JOINSTYLE
280
     0
  9
$LWDISPLAY
290
     0
  9
$INSUNITS
 70
     4
  9
$HYPERLINKBASE
  1

  9
$STYLESHEET
  1

  9
$XEDIT
290
     1
  9
$CEPSNTYPE
380
     0
  9
$PSTYLEMODE
290
     1
  9
$FINGERPRINTGUID
  2
{f6099318-98f1-4e6d-bc66-a5c47bcdd51f}
  9
$VERSIONGUID
  2
{FAEB1C32-E019-11D5-929B-00C0DF256EC4}
  9
$EXTNAMES
290
     1
  9
$PSVPSCALE
 40
0.0
  9
$OLESTARTUP
290
     0
  9
$SORTENTS
280
   127
  9
$INDEXCTL
280
     0
  9
$HIDETEXT
280
     1
  9
$XCLIPFRAME
280
     2
  9
$HALOGAP
280
     0
  9
$OBSCOLOR
 70
   257
  9
$OBSLTYPE
280
     0
  9
$INTERSECTIONDISPLAY
280
     0
  9
$INTERSECTIONCOLOR
 70
   257
  9
$DIMASSOC
280
     2
  9
$PROJECTNAME
  1

  9
$CAMERADISPLAY
290
     0
  9
$LENSLENGTH
 40
50.0
  9
$CAMERAHEIGHT
 40
0.0
  9
$STEPSPERSEC
 40
2.0
  9
$STEPSIZE
 40
6.0
  9
$3DDWFPREC
 40
2.0
  9
$PSOLWIDTH
 40
5.0
  9
$PSOLHEIGHT
 40
80.0
  9
$LOFTANG1
 40
1.570796326794897
  9
$LOFTANG2
 40
1.570796326794897
  9
$LOFTMAG1
 40
0.0
  9
$LOFTMAG2
 40
0.0
  9
$LOFTPARAM
 70
     7
  9
$LOFTNORMALS
280
     1
  9
$LATITUDE
 40
37.795
  9
$LONGITUDE
 40
-122.394
  9
$NORTHDIRECTION
 40
0.0
  9
$TIMEZONE
 70
 -8000
  9
$LIGHTGLYPHDISPLAY
280
     1
  9
$TILEMODELIGHTSYNCH
280
     1
  9
$CMATERIAL
347
44
  9
$SOLIDHIST
280
     0
  9
$SHOWHIST
280
     1
  9
$DWFFRAME
280
     2
  9
$DGNFRAME
280
     2
  9
$REALWORLDSCALE
290
     1
  9
$INTERFERECOLOR
 62
   256
  9
$CSHADOW
280
     0
  9
$SHADOWPLANELOCATION
 40
0.0
  0
ENDSEC
  0
SECTION
  2
CLASSES
  0
CLASS
  1
ACDBDICTIONARYWDFLT
  2
AcDbDictionaryWithDefault
  3
ObjectDBX Classes
 90
        0
 91
        3
280
     0
281
     0
  0
CLASS
  1
VISUALSTYLE
  2
AcDbVisualStyle
  3
ObjectDBX Classes
 90
     4095
 91
        3
280
     0
281
     0
  0
CLASS
  1
MATERIAL
  2
AcDbMaterial
  3
ObjectDBX Classes
 90
     1153
 91
        3
280
     0
281
     0
  0
CLASS
  1
SCALE
  2
AcDbScale
  3
ObjectDBX Classes
 90
     1153
 91
        3
280
     0
281
     0
  0
CLASS
  1
TABLESTYLE
  2
AcDbTableStyle
  3
ObjectDBX Classes
 90
     4095
 91
        3
280
     0
281
     0
  0
CLASS
  1
MLEADERSTYLE
  2
AcDbMLeaderStyle
  3
ACDB_MLEADERSTYLE_CLASS
 90
     4095
 91
        3
280
     0
281
     0
  0
CLASS
  1
SUN
  2
AcDbSun
  3
SCENEOE
 90
     1153
 91
        3
280
     0
281
     0
  0
CLASS
  1
DICTIONARYVAR
  2
AcDbDictionaryVar
  3
ObjectDBX Classes
 90
        0
 91
        3
280
     0
281
     0
  0
CLASS
  1
CELLSTYLEMAP
  2
AcDbCellStyleMap
  3
ObjectDBX Classes
 90
     1152
 91
        3
280
     0
281
     0
  0
ENDSEC
  0
SECTION
  2
TABLES
  0
TABLE
  2
VPORT
  5
8
330
0
100
AcDbSymbolTable
 70
     1
  0
VPORT
  5
29
330
8
100
AcDbSymbolTableRecord
100
AcDbViewportTableRecord
  2
*Active
 70
     0
 10
0.0
 20
0.0
 11
1.0
 21
1.0
 12
0.0
 22
0.0
 13
0.0
 23
0.0
 14
10.0
 24
10.0
 15
10.0
 25
10.0
 16
0.0
 26
0.0
 36
1.0
 17
0.0
 27
0.0
 37
0.0
 40
3267.0
 41
1.414141414141414
 42
50.0
 43
0.0
 44
0.0
 50
0.0
 51
0.0
 71
     0
 72
 10000
 73
     1
 74
     3
 75
     0
 76
     0
 77
     0
 78
     0
281
     0
 65
     1
110
0.0
120
0.0
130
0.0
111
1.0
121
0.0
131
0.0
112
0.0
122
1.0
132
0.0
 79
     0
146
0.0
348
2F
 60
     3
 61
     5
292
     1
282
     1
141
0.0
142
0.0
 63
   250
361
6D
  0
ENDTAB
  0
TABLE
  2
LTYPE
  5
5
330
0
100
AcDbSymbolTable
 70
     3
  0
LTYPE
  5
14
330
5
100
AcDbSymbolTableRecord
100
AcDbLinetypeTableRecord
  2
ByBlock
 70
     0
  3

 72
    65
 73
     0
 40
0.0
  0
LTYPE
  5
15
330
5
100
AcDbSymbolTableRecord
100
AcDbLinetypeTableRecord
  2
ByLayer
 70
     0
  3

 72
    65
 73
     0
 40
0.0
  0
LTYPE
  5
16
330
5
100
AcDbSymbolTableRecord
100
AcDbLinetypeTableRecord
  2
Continuous
 70
     0
  3
Solid line
 72
    65
 73
     0
 40
0.0
  0
LTYPE
  5
6F
330
5
100
AcDbSymbolTableRecord
100
AcDbLinetypeTableRecord
  2
JWW_CENTER1
 70
     0
  3
-----  --  ----------  --  -----
 72
    65
 73
     8
 40
13.54666666666667
 49
4.233333333333333
 74
     0
 49
-0.8466666666666667
 74
     0
 49
0.8466666666666667
 74
     0
 49
-0.8466666666666667
 74
     0
 49
4.233333333333333
 74
     0
 49
-0.8466666666666667
 74
     0
 49
0.8466666666666667
 74
     0
 49
-0.8466666666666667
 74
     0
  0
LTYPE
  5
70
330
5
100
AcDbSymbolTableRecord
100
AcDbLinetypeTableRecord
  2
JWW_DASHED1
 70
     0
  3
-  --  --  --  --  --  --  --  -
 72
    65
 73
    12
 40
10.16
 49
0.8466666666666667
 74
     0
 49
-0.8466666666666667
 74
     0
 49
0.8466666666666667
 74
     0
 49
-0.8466666666666667
 74
     0
 49
0.8466666666666667
 74
     0
 49
-0.8466666666666667
 74
     0
 49
0.8466666666666667
 74
     0
 49
-0.8466666666666667
 74
     0
 49
0.8466666666666667
 74
     0
 49
-0.8466666666666667
 74
     0
 49
0.8466666666666667
 74
     0
 49
-0.8466666666666667
 74
     0
  0
ENDTAB
  0
TABLE
  2
LAYER
  5
2
330
0
100
AcDbSymbolTable
 70
    13
  0
LAYER
  5
10
330
2
100
AcDbSymbolTableRecord
100
AcDbLayerTableRecord
  2
0
 70
     0
 62
     7
  6
Continuous
370
    -3
390
F
347
46
348
0
  0
LAYER
  5
71
330
2
100
AcDbSymbolTableRecord
100
AcDbLayerTableRecord
  2
1-8
 70
     0
 62
     7
  6
Continuous
370
    -3
390
F
347
46
348
0
  0
LAYER
  5
72
330
2
100
AcDbSymbolTableRecord
100
AcDbLayerTableRecord
  2
2-4
 70
     0
 62
     7
  6
Continuous
370
    -3
390
F
347
46
348
0
  0
LAYER
  5
73
330
2
100
AcDbSymbolTableRecord
100
AcDbLayerTableRecord
  2
1-4
 70
     0
 62
     7
  6
Continuous
370
    -3
390
F
347
46
348
0
  0
LAYER
  5
74
330
2
100
AcDbSymbolTableRecord
100
AcDbLayerTableRecord
  2
1-3
 70
     0
 62
     7
  6
Continuous
370
    -3
390
F
347
46
348
0
  0
LAYER
  5
75
330
2
100
AcDbSymbolTableRecord
100
AcDbLayerTableRecord
  2
2-1
 70
     0
 62
     7
  6
Continuous
370
    -3
390
F
347
46
348
0
  0
LAYER
  5
76
330
2
100
AcDbSymbolTableRecord
100
AcDbLayerTableRecord
  2
2-0
 70
     0
 62
     7
  6
Continuous
370
    -3
390
F
347
46
348
0
  0
LAYER
  5
77
330
2
100
AcDbSymbolTableRecord
100
AcDbLayerTableRecord
  2
1-0
 70
     0
 62
     7
  6
Continuous
370
    -3
390
F
347
46
348
0
  0
LAYER
  5
78
330
2
100
AcDbSymbolTableRecord
100
AcDbLayerTableRecord
  2
1-1
 70
     0
 62
     7
  6
Continuous
370
    -3
390
F
347
46
348
0
  0
LAYER
  5
79
330
2
100
AcDbSymbolTableRecord
100
AcDbLayerTableRecord
  2
2-3
 70
     0
 62
     7
  6
Continuous
370
    -3
390
F
347
46
348
0
  0
LAYER
  5
7A
330
2
100
AcDbSymbolTableRecord
100
AcDbLayerTableRecord
  2
1-5
 70
     0
 62
     7
  6
Continuous
370
    -3
390
F
347
46
348
0
  0
LAYER
  5
7B
330
2
100
AcDbSymbolTableRecord
100
AcDbLayerTableRecord
  2
1-A
 70
     0
 62
     7
  6
Continuous
370
    -3
390
F
347
46
348
0
  0
LAYER
  5
7C
330
2
100
AcDbSymbolTableRecord
100
AcDbLayerTableRecord
  2
1-9
 70
     0
 62
     7
  6
Continuous
370
    -3
390
F
347
46
348
0
  0
ENDTAB
  0
TABLE
  2
STYLE
  5
3
330
0
100
AcDbSymbolTable
 70
     2
  0
STYLE
  5
11
330
3
100
AcDbSymbolTableRecord
100
AcDbTextStyleTableRecord
  2
Standard
 70
     0
 40
0.0
 41
1.0
 50
0.0
 71
     0
 42
2.5
  3
txt
  4

  0
STYLE
  5
6E
330
3
100
AcDbSymbolTableRecord
100
AcDbTextStyleTableRecord
  2
ＭＳ ゴシック
 70
     0
 40
0.0
 41
1.0
 50
0.0
 71
     0
 42
2.5
  3

  4

1001
ACAD
1000
MS Gothic
1071
    32817
  0
ENDTAB
  0
TABLE
  2
VIEW
  5
6
330
0
100
AcDbSymbolTable
 70
     0
  0
ENDTAB
  0
TABLE
  2
UCS
  5
7
330
0
100
AcDbSymbolTable
 70
     0
  0
ENDTAB
  0
TABLE
  2
APPID
  5
9
330
0
100
AcDbSymbolTable
 70
     1
  0
APPID
  5
12
330
9
100
AcDbSymbolTableRecord
100
AcDbRegAppTableRecord
  2
ACAD
 70
     0
  0
ENDTAB
  0
TABLE
  2
DIMSTYLE
  5
A
330
0
100
AcDbSymbolTable
 70
     2
100
AcDbDimStyleTable
  0
DIMSTYLE
105
27
330
A
100
AcDbSymbolTableRecord
100
AcDbDimStyleTableRecord
  2
ISO-25
 70
     0
 41
2.5
 42
0.625
 43
3.75
 44
1.25
 73
     0
 74
     0
 77
     1
 78
     8
140
2.5
141
2.5
143
0.03937007874016
147
0.625
171
     3
172
     1
178
     0
271
     2
272
     2
274
     3
278
    44
283
     0
284
     8
340
11
  0
DIMSTYLE
105
7D
330
A
100
AcDbSymbolTableRecord
100
AcDbDimStyleTableRecord
  2
JWAC_DIMSTYLE
 70
     0
  3
x
  4
mm
 41
0.0
 42
0.625
 43
3.75
 44
1.25
 73
     0
 74
     0
 75
     1
 76
     1
 77
     1
 78
     8
140
2.5
141
2.5
143
0.03937007874016
147
0.625
171
     3
172
     1
173
     1
178
     0
271
     2
272
     2
274
     3
278
    32
283
     0
284
     8
340
11
371
     0
372
     0
  0
ENDTAB
  0
TABLE
  2
BLOCK_RECORD
  5
1
330
0
100
AcDbSymbolTable
 70
     1
  0
BLOCK_RECORD
  5
1F
330
1
100
AcDbSymbolTableRecord
100
AcDbBlockTableRecord
  2
*Model_Space
340
22
 70
     0
280
     1
281
     0
  0
BLOCK_RECORD
  5
1B
330
1
100
AcDbSymbolTableRecord
100
AcDbBlockTableRecord
  2
*Paper_Space
340
1E
 70
     0
280
     1
281
     0
  0
BLOCK_RECORD
  5
23
330
1
100
AcDbSymbolTableRecord
100
AcDbBlockTableRecord
  2
*Paper_Space0
340
26
 70
     0
280
     1
281
     0
  0
ENDTAB
  0
ENDSEC
  0
SECTION
  2
BLOCKS
  0
BLOCK
  5
20
330
1F
100
AcDbEntity
  8
0
100
AcDbBlockBegin
  2
*Model_Space
 70
     0
 10
0.0
 20
0.0
 30
0.0
  3
*Model_Space
  1

  0
ENDBLK
  5
21
330
1F
100
AcDbEntity
  8
0
100
AcDbBlockEnd
  0
BLOCK
  5
1C
330
1B
100
AcDbEntity
 67
     1
  8
0
100
AcDbBlockBegin
  2
*Paper_Space
 70
     0
 10
0.0
 20
0.0
 30
0.0
  3
*Paper_Space
  1

  0
ENDBLK
  5
1D
330
1B
100
AcDbEntity
 67
     1
  8
0
100
AcDbBlockEnd
  0
BLOCK
  5
24
330
23
100
AcDbEntity
  8
0
100
AcDbBlockBegin
  2
*Paper_Space0
 70
     0
 10
0.0
 20
0.0
 30
0.0
  3
*Paper_Space0
  1

  0
ENDBLK
  5
25
330
23
100
AcDbEntity
  8
0
100
AcDbBlockEnd
  0
ENDSEC
  0
SECTION
  2
ENTITIES
  0
LINE
  5
7E
330
1F
100
AcDbEntity
  8
1-8
  6
Continuous
 62
     4
370
     9
100
AcDbLine
 10
-1234.102898675042
 20
610.2489079655828
 30
0.0
 11
-1234.102898675042
 21
565.8782464104731
 31
0.0
  0
LINE
  5
7F
330
1F
100
AcDbEntity
  8
1-8
  6
Continuous
 62
     4
370
     9
100
AcDbLine
 10
-1234.102898675042
 20
565.8782464104731
 30
0.0
 11
-1124.602859084671
 21
565.8782464104731
 31
0.0
  0
LINE
  5
80
330
1F
100
AcDbEntity
  8
1-8
  6
Continuous
 62
     4
370
     9
100
AcDbLine
 10
-1124.602859084671
 20
610.2489079655828
 30
0.0
 11
-1124.602859084671
 21
565.8782464104731
 31
0.0
  0
LINE
  5
81
330
1F
100
AcDbEntity
  8
1-8
  6
Continuous
 62
     4
370
     9
100
AcDbLine
 10
-1206.678895692567
 20
610.2489079655828
 30
0.0
 11
-1206.678895692567
 21
565.8782464104731
 31
0.0
  0
LINE
  5
82
330
1F
100
AcDbEntity
  8
1-8
  6
Continuous
 62
     4
370
     9
100
AcDbLine
 10
-1152.026862067145
 20
610.2489079655828
 30
0.0
 11
-1152.026862067145
 21
565.8782464104731
 31
0.0
  0
LINE
  5
83
330
1F
100
AcDbEntity
  8
1-8
  6
Continuous
 62
     4
370
     9
100
AcDbLine
 10
-1220.390773463894
 20
615.8781639305323
 30
0.0
 11
-1138.314984295819
 21
615.8781639305323
 31
0.0
  0
LINE
  5
84
330
1F
100
AcDbEntity
  8
1-8
  6
Continuous
 62
     6
370
     5
100
AcDbLine
 10
-1239.352829391892
 20
565.8782464104731
 30
0.0
 11
-1239.352829391892
 21
553.3783288904141
 31
0.0
  0
LINE
  5
85
330
1F
100
AcDbEntity
  8
1-8
  6
Continuous
 62
     6
370
     5
100
AcDbLine
 10
-1119.352680927998
 20
565.8782464104731
 30
0.0
 11
-1119.352680927998
 21
553.3783288904141
 31
0.0
  0
LINE
  5
86
330
1F
100
AcDbEntity
  8
1-8
  6
Continuous
 62
     6
370
     5
100
AcDbLine
 10
-1119.352680927998
 20
565.8782464104731
 30
0.0
 11
-1124.602859084671
 21
565.8782464104731
 31
0.0
  0
LINE
  5
87
330
1F
100
AcDbEntity
  8
1-8
  6
Continuous
 62
     6
370
     5
100
AcDbLine
 10
-1234.102898675042
 20
565.8782464104731
 30
0.0
 11
-1239.352829391892
 21
565.8782464104731
 31
0.0
  0
LINE
  5
88
330
1F
100
AcDbEntity
  8
1-8
  6
Continuous
 62
     4
370
     9
100
AcDbLine
 10
-1234.102898675042
 20
436.5079230231208
 30
0.0
 11
-1234.102898675042
 21
480.8785845782307
 31
0.0
  0
LINE
  5
89
330
1F
100
AcDbEntity
  8
1-8
  6
Continuous
 62
     4
370
     9
100
AcDbLine
 10
-1234.102898675042
 20
480.8785845782307
 30
0.0
 11
-1124.602859084671
 21
480.8785845782307
 31
0.0
  0
LINE
  5
8A
330
1F
100
AcDbEntity
  8
1-8
  6
Continuous
 62
     4
370
     9
100
AcDbLine
 10
-1124.602859084671
 20
436.5079230231208
 30
0.0
 11
-1124.602859084671
 21
480.8785845782307
 31
0.0
  0
LINE
  5
8B
330
1F
100
AcDbEntity
  8
1-8
  6
Continuous
 62
     4
370
     9
100
AcDbLine
 10
-1206.678895692567
 20
436.5079230231208
 30
0.0
 11
-1206.678895692567
 21
480.8785845782307
 31
0.0
  0
LINE
  5
8C
330
1F
100
AcDbEntity
  8
1-8
  6
Continuous
 62
     4
370
     9
100
AcDbLine
 10
-1152.026862067145
 20
436.5079230231208
 30
0.0
 11
-1152.026862067145
 21
480.8785845782307
 31
0.0
  0
LINE
  5
8D
330
1F
100
AcDbEntity
  8
1-8
  6
Continuous
 62
     4
370
     9
100
AcDbLine
 10
-1220.390773463894
 20
430.8786670581716
 30
0.0
 11
-1138.314984295819
 21
430.8786670581716
 31
0.0
  0
LINE
  5
8E
330
1F
100
AcDbEntity
  8
1-8
  6
Continuous
 62
     6
370
     5
100
AcDbLine
 10
-1239.352829391892
 20
480.8785845782307
 30
0.0
 11
-1239.352829391892
 21
493.3785020982899
 31
0.0
  0
LINE
  5
8F
330
1F
100
AcDbEntity
  8
1-8
  6
Continuous
 62
     6
370
     5
100
AcDbLine
 10
-1119.352680927998
 20
480.8785845782307
 30
0.0
 11
-1119.352680927998
 21
493.3785020982899
 31
0.0
  0
LINE
  5
90
330
1F
100
AcDbEntity
  8
1-8
  6
Continuous
 62
     6
370
     5
100
AcDbLine
 10
-1119.352680927998
 20
480.8785845782307
 30
0.0
 11
-1124.602859084671
 21
480.8785845782307
 31
0.0
  0
LINE
  5
91
330
1F
100
AcDbEntity
  8
1-8
  6
Continuous
 62
     6
370
     5
100
AcDbLine
 10
-1234.102898675042
 20
480.8785845782307
 30
0.0
 11
-1239.352829391892
 21
480.8785845782307
 31
0.0
  0
LINE
  5
92
330
1F
100
AcDbEntity
  8
1-8
  6
Continuous
 62
     3
370
     9
100
AcDbLine
 10
-1209.352730415963
 20
553.3783288904141
 30
0.0
 11
-1209.352730415963
 21
493.3785020982899
 31
0.0
  0
LINE
  5
93
330
1F
100
AcDbEntity
  8
1-8
  6
Continuous
 62
     3
370
     9
100
AcDbLine
 10
-1149.352779903927
 20
553.3783288904141
 30
0.0
 11
-1149.352779903927
 21
493.3785020982899
 31
0.0
  0
LINE
  5
94
330
1F
100
AcDbEntity
  8
1-8
  6
Continuous
 62
     3
370
     9
100
AcDbLine
 10
-1204.352713919975
 20
553.3783288904141
 30
0.0
 11
-1204.352713919975
 21
493.3785020982899
 31
0.0
  0
LINE
  5
95
330
1F
100
AcDbEntity
  8
1-8
  6
Continuous
 62
     3
370
     9
100
AcDbLine
 10
-1154.352796399915
 20
553.3783288904141
 30
0.0
 11
-1154.352796399915
 21
493.3785020982899
 31
0.0
  0
LINE
  5
96
330
1F
100
AcDbEntity
  8
1-8
  6
Continuous
 62
     3
370
     9
100
AcDbLine
 10
-1204.352713919975
 20
698.3780649546031
 30
0.0
 11
-1204.352713919975
 21
615.8781639305323
 31
0.0
  0
LINE
  5
97
330
1F
100
AcDbEntity
  8
1-8
  6
Continuous
 62
     3
370
     9
100
AcDbLine
 10
-1154.352796399915
 20
698.3780649546031
 30
0.0
 11
-1154.352796399915
 21
615.8781639305323
 31
0.0
  0
LINE
  5
98
330
1F
100
AcDbEntity
  8
1-8
  6
Continuous
 62
     3
370
     9
100
AcDbLine
 10
-1204.352713919975
 20
698.3780649546031
 30
0.0
 11
-1154.352796399915
 21
698.3780649546031
 31
0.0
  0
LINE
  5
99
330
1F
100
AcDbEntity
  8
1-8
  6
Continuous
 62
     3
370
     9
100
AcDbLine
 10
-1149.352779903927
 20
693.3780484586151
 30
0.0
 11
-1149.352779903927
 21
615.8781639305323
 31
0.0
  0
LINE
  5
9A
330
1F
100
AcDbEntity
  8
1-8
  6
Continuous
 62
     3
370
     9
100
AcDbLine
 10
-1209.352730415963
 20
693.3780484586151
 30
0.0
 11
-1149.352779903927
 21
693.3780484586151
 31
0.0
  0
LINE
  5
9B
330
1F
100
AcDbEntity
  8
1-8
  6
Continuous
 62
     3
370
     9
100
AcDbLine
 10
-1209.352730415963
 20
693.3780484586151
 30
0.0
 11
-1209.352730415963
 21
615.8781639305323
 31
0.0
  0
LINE
  5
9C
330
1F
100
AcDbEntity
  8
1-8
  6
Continuous
 62
     3
370
     9
100
AcDbLine
 10
-1209.352730415963
 20
693.3780484586151
 30
0.0
 11
-1204.352713919975
 21
698.3780649546031
 31
0.0
  0
LINE
  5
9D
330
1F
100
AcDbEntity
  8
1-8
  6
Continuous
 62
     3
370
     9
100
AcDbLine
 10
-1154.352796399915
 20
698.3780649546031
 30
0.0
 11
-1149.352779903927
 21
693.3780484586151
 31
0.0
  0
LINE
  5
9E
330
1F
100
AcDbEntity
  8
2-4
  6
Continuous
 62
     2
370
     9
100
AcDbLine
 10
830.252652554899
 20
-484.0059517525337
 30
0.0
 11
830.252652554899
 21
-419.0066033440667
 31
0.0
  0
LINE
  5
9F
330
1F
100
AcDbEntity
  8
2-4
  6
Continuous
 62
     2
370
     9
100
AcDbLine
 10
830.252652554899
 20
-419.0066033440667
 30
0.0
 11
1312.257756413641
 21
-419.0066033440667
 31
0.0
  0
LINE
  5
A0
330
1F
100
AcDbEntity
  8
2-4
  6
Continuous
 62
     2
370
     9
100
AcDbLine
 10
1312.257756413641
 20
-419.0066033440667
 30
0.0
 11
1312.257756413641
 21
-484.0059517525337
 31
0.0
  0
LINE
  5
A1
330
1F
100
AcDbEntity
  8
2-4
  6
Continuous
 62
     2
370
     9
100
AcDbLine
 10
1312.257756413641
 20
-484.0059517525337
 30
0.0
 11
830.252652554899
 21
-484.0059517525337
 31
0.0
  0
LINE
  5
A2
330
1F
100
AcDbEntity
  8
1-4
  6
Continuous
 62
     2
370
     9
100
AcDbLine
 10
-1094.480029956714
 20
-227.4890466638513
 30
0.0
 11
-1094.480029956714
 21
-162.4898219752956
 31
0.0
  0
LINE
  5
A3
330
1F
100
AcDbEntity
  8
1-4
  6
Continuous
 62
     2
370
     9
100
AcDbLine
 10
-1094.480029956714
 20
-162.4898219752956
 30
0.0
 11
-471.7254638671875
 21
-162.4898219752956
 31
0.0
  0
LINE
  5
A4
330
1F
100
AcDbEntity
  8
1-4
  6
Continuous
 62
     2
370
     9
100
AcDbLine
 10
-471.7254638671875
 20
-162.4898219752956
 30
0.0
 11
-471.7254638671875
 21
-227.4890466638513
 31
0.0
  0
LINE
  5
A5
330
1F
100
AcDbEntity
  8
1-4
  6
Continuous
 62
     2
370
     9
100
AcDbLine
 10
-471.7254638671875
 20
-227.4890466638513
 30
0.0
 11
-1094.480029956714
 21
-227.4890466638513
 31
0.0
  0
LINE
  5
A6
330
1F
100
AcDbEntity
  8
1-4
  6
Continuous
 62
     7
370
     9
100
AcDbLine
 10
-1179.352878879856
 20
698.3780649546031
 30
0.0
 11
-1188.919892182221
 21
721.4750877586573
 31
0.0
  0
LINE
  5
A7
330
1F
100
AcDbEntity
  8
1-4
  6
Continuous
 62
     7
370
     9
100
AcDbLine
 10
-1179.352878879856
 20
698.3780649546031
 30
0.0
 11
-1182.616115260769
 21
723.1641119879646
 31
0.0
  0
LINE
  5
A8
330
1F
100
AcDbEntity
  8
1-3
  6
Continuous
 62
     4
370
     9
100
AcDbLine
 10
-197.7026862067143
 20
1048.378229914485
 30
0.0
 11
-152.7027851826435
 21
1048.378229914485
 31
0.0
  0
LINE
  5
A9
330
1F
100
AcDbEntity
  8
1-8
  6
Continuous
 62
     7
370
     9
100
AcDbLine
 10
-235.2025624868031
 20
258.904278729413
 30
0.0
 11
-115.2027851826435
 21
291.0582176414698
 31
0.0
  0
LINE
  5
AA
330
1F
100
AcDbEntity
  8
1-8
  6
Continuous
 62
     7
370
     9
100
AcDbLine
 10
-235.2025624868031
 20
238.1986380912164
 30
0.0
 11
-115.2027851826435
 21
270.3525770032729
 31
0.0
  0
LINE
  5
AB
330
1F
100
AcDbEntity
  8
1-8
  6
Continuous
 62
     3
370
     9
100
AcDbLine
 10
-1204.352713919975
 20
430.8786670581716
 30
0.0
 11
-1204.352713919975
 21
268.2824954471073
 31
0.0
  0
LINE
  5
AC
330
1F
100
AcDbEntity
  8
1-8
  6
Continuous
 62
     3
370
     9
100
AcDbLine
 10
-1209.352730415963
 20
430.8786670581716
 30
0.0
 11
-1209.352730415963
 21
266.9427325274495
 31
0.0
  0
LINE
  5
AD
330
1F
100
AcDbEntity
  8
1-8
  6
Continuous
 62
     3
370
     9
100
AcDbLine
 10
-1149.352779903927
 20
430.8786670581716
 30
0.0
 11
-1149.352779903927
 21
283.0197638434333
 31
0.0
  0
LINE
  5
AE
330
1F
100
AcDbEntity
  8
1-8
  6
Continuous
 62
     3
370
     9
100
AcDbLine
 10
-1154.352796399915
 20
430.8786670581716
 30
0.0
 11
-1154.352796399915
 21
281.6800009237755
 31
0.0
  0
LINE
  5
AF
330
1F
100
AcDbEntity
  8
1-3
  6
Continuous
 62
     4
370
     9
100
AcDbLine
 10
-152.7027851826435
 20
48.37827115445521
 30
0.0
 11
-152.7027851826435
 21
260.304416965794
 31
0.0
  0
LINE
  5
B0
330
1F
100
AcDbEntity
  8
1-3
  6
Continuous
 62
     4
370
     9
100
AcDbLine
 10
-152.7027851826435
 20
281.0100576039909
 30
0.0
 11
-152.7027851826435
 21
1048.378229914485
 31
0.0
  0
LINE
  5
B1
330
1F
100
AcDbEntity
  8
1-3
  6
Continuous
 62
     4
370
     9
100
AcDbLine
 10
-197.7026862067143
 20
48.37827115445521
 30
0.0
 11
-197.7026862067143
 21
248.2466744087839
 31
0.0
  0
LINE
  5
B2
330
1F
100
AcDbEntity
  8
1-8
  6
Continuous
 62
     7
370
     9
100
AcDbLine
 10
-1239.352581952069
 20
258.904278729413
 30
0.0
 11
-1119.352680927998
 21
291.0582176414698
 31
0.0
  0
LINE
  5
B3
330
1F
100
AcDbEntity
  8
1-8
  6
Continuous
 62
     7
370
     9
100
AcDbLine
 10
-1239.352581952069
 20
238.1986380912164
 30
0.0
 11
-1119.352680927998
 21
270.3525770032729
 31
0.0
  0
LINE
  5
B4
330
1F
100
AcDbEntity
  8
1-8
  6
Continuous
 62
     6
370
     5
100
AcDbLine
 10
-1429.352713919975
 20
48.37827115445521
 30
0.0
 11
47.29737977723829
 21
48.37827115445521
 31
0.0
  0
LINE
  5
B5
330
1F
100
AcDbEntity
  8
1-4
  6
Continuous
 62
     7
370
     9
100
AcDbLine
 10
-197.7026862067143
 20
-111.6216381176096
 30
0.0
 11
47.29737977723829
 21
-111.6216381176096
 31
0.0
  0
LINE
  5
B6
330
1F
100
AcDbEntity
  8
1-4
  6
Continuous
 62
     7
370
     9
100
AcDbLine
 10
-197.7026862067143
 20
23.37831239442579
 30
0.0
 11
-197.7026862067143
 21
-114.621598527238
 31
0.0
  0
LINE
  5
B7
330
1F
100
AcDbEntity
  8
1-8
  6
Continuous
 62
     6
370
     5
100
AcDbLine
 10
-1429.352713919975
 20
-11.62167935758021
 30
0.0
 11
-220.5126788165117
 21
-11.62167935758021
 31
0.0
  0
LINE
  5
B8
330
1F
100
AcDbEntity
  8
1-8
  6
Continuous
 62
     6
370
     5
100
AcDbLine
 10
-174.5769603832346
 20
-11.62167935758021
 30
0.0
 11
47.29737977723829
 21
-11.62167935758021
 31
0.0
  0
LINE
  5
B9
330
1F
100
AcDbEntity
  8
1-8
  6
Continuous
 62
     6
370
     5
100
AcDbLine
 10
-1429.352713919975
 20
38.37823816247891
 30
0.0
 11
-220.5126788165117
 21
38.37823816247891
 31
0.0
  0
LINE
  5
BA
330
1F
100
AcDbEntity
  8
1-8
  6
Continuous
 62
     6
370
     5
100
AcDbLine
 10
-174.5769603832346
 20
38.37823816247891
 30
0.0
 11
47.29737977723829
 21
38.37823816247891
 31
0.0
  0
LINE
  5
BB
330
1F
100
AcDbEntity
  8
1-8
  6
Continuous
 62
     6
370
     5
100
AcDbLine
 10
-1429.352713919975
 20
28.37820517050261
 30
0.0
 11
-220.5126788165117
 21
28.37820517050261
 31
0.0
  0
LINE
  5
BC
330
1F
100
AcDbEntity
  8
1-8
  6
Continuous
 62
     6
370
     5
100
AcDbLine
 10
-174.5769603832346
 20
28.37820517050261
 30
0.0
 11
47.29737977723829
 21
28.37820517050261
 31
0.0
  0
LINE
  5
BD
330
1F
100
AcDbEntity
  8
1-8
  6
Continuous
 62
     6
370
     5
100
AcDbLine
 10
-1429.352713919975
 20
18.37817217852631
 30
0.0
 11
-220.5126788165117
 21
18.37817217852631
 31
0.0
  0
LINE
  5
BE
330
1F
100
AcDbEntity
  8
1-8
  6
Continuous
 62
     6
370
     5
100
AcDbLine
 10
-174.5769603832346
 20
18.37817217852631
 30
0.0
 11
47.29737977723829
 21
18.37817217852631
 31
0.0
  0
LINE
  5
BF
330
1F
100
AcDbEntity
  8
1-8
  6
Continuous
 62
     6
370
     5
100
AcDbLine
 10
-1429.352713919975
 20
8.378139186550015
 30
0.0
 11
-220.5126788165117
 21
8.378139186550015
 31
0.0
  0
LINE
  5
C0
330
1F
100
AcDbEntity
  8
1-8
  6
Continuous
 62
     6
370
     5
100
AcDbLine
 10
-174.5769603832346
 20
8.378139186550015
 30
0.0
 11
47.29737977723829
 21
8.378139186550015
 31
0.0
  0
LINE
  5
C1
330
1F
100
AcDbEntity
  8
1-8
  6
Continuous
 62
     6
370
     5
100
AcDbLine
 10
-1429.352713919975
 20
-1.621893805426566
 30
0.0
 11
-220.5126788165117
 21
-1.621893805426566
 31
0.0
  0
LINE
  5
C2
330
1F
100
AcDbEntity
  8
1-8
  6
Continuous
 62
     6
370
     5
100
AcDbLine
 10
-174.5769603832346
 20
-1.621893805426566
 30
0.0
 11
47.29737977723829
 21
-1.621893805426566
 31
0.0
  0
LINE
  5
C3
330
1F
100
AcDbEntity
  8
1-4
  6
Continuous
 62
     7
370
     9
100
AcDbLine
 10
-2.702785182643481
 20
48.37827115445521
 30
0.0
 11
-2.702785182643481
 21
1048.378229914485
 31
0.0
  0
LINE
  5
C4
330
1F
100
AcDbEntity
  8
1-4
  6
Continuous
 62
     7
370
     9
100
AcDbLine
 10
-127.7027027027026
 20
1048.378229914485
 30
0.0
 11
0.2971752269849048
 21
1048.378229914485
 31
0.0
  0
LINE
  5
C5
330
1F
100
AcDbEntity
  8
1-4
  6
Continuous
 62
     7
370
     9
100
AcDbLine
 10
-1529.352796399916
 20
48.37827115445521
 30
0.0
 11
-1529.352796399916
 21
698.3780649546031
 31
0.0
  0
LINE
  5
C6
330
1F
100
AcDbEntity
  8
1-4
  6
Continuous
 62
     7
370
     9
100
AcDbLine
 10
-1229.352548960093
 20
698.3780649546031
 30
0.0
 11
-1532.353004249367
 21
698.3780649546031
 31
0.0
  0
LINE
  5
C7
330
1F
100
AcDbEntity
  8
1-4
  6
Continuous
 62
     7
370
     9
100
AcDbLine
 10
-1629.352878879856
 20
48.37827115445521
 30
0.0
 11
-1629.352878879856
 21
798.378147434544
 31
0.0
  0
LINE
  5
C8
330
1F
100
AcDbEntity
  8
1-4
  6
Continuous
 62
     7
370
     9
100
AcDbLine
 10
-1454.352796399916
 20
48.37827115445521
 30
0.0
 11
-1632.352839289485
 21
48.37827115445521
 31
0.0
  0
LINE
  5
C9
330
1F
100
AcDbEntity
  8
1-4
  6
Continuous
 62
     7
370
     9
100
AcDbLine
 10
-471.1840655352617
 20
798.378147434544
 30
0.0
 11
-1632.352839289485
 21
798.378147434544
 31
0.0
  0
LINE
  5
CA
330
1F
100
AcDbEntity
  8
1-4
  6
Continuous
 62
     7
370
     9
100
AcDbLine
 10
-197.7026862067143
 20
1048.378229914485
 30
0.0
 11
-212.9217199377109
 21
1068.212016337627
 31
0.0
  0
LINE
  5
CB
330
1F
100
AcDbEntity
  8
1-4
  6
Continuous
 62
     7
370
     9
100
AcDbLine
 10
-197.7026862067143
 20
1048.378229914485
 30
0.0
 11
-207.2698232289906
 21
1071.475252718539
 31
0.0
  0
LINE
  5
CC
330
1F
100
AcDbEntity
  8
1-4
  6
Continuous
 62
     7
370
     9
100
AcDbLine
 10
-371.3359111064187
 20
949.6861143369936
 30
0.0
 11
-386.5549448374153
 21
969.5199007601352
 31
0.0
  0
LINE
  5
CD
330
1F
100
AcDbEntity
  8
1-4
  6
Continuous
 62
     7
370
     9
100
AcDbLine
 10
-371.3359111064187
 20
949.6861143369936
 30
0.0
 11
-380.903048128695
 21
972.7831371410474
 31
0.0
  0
LINE
  5
CE
330
1F
100
AcDbEntity
  8
1-4
  6
Continuous
 62
     7
370
     9
100
AcDbLine
 10
-371.3359111064187
 20
949.6861143369936
 30
0.0
 11
-418.2122720254432
 21
1030.878295898438
 31
0.0
  0
LINE
  5
CF
330
1F
100
AcDbEntity
  8
1-4
  6
Continuous
 62
     7
370
     9
100
AcDbLine
 10
-197.7026862067143
 20
1048.378229914485
 30
0.0
 11
-266.9847230653505
 21
1168.378130938556
 31
0.0
  0
LINE
  5
D0
330
1F
100
AcDbEntity
  8
1-4
  6
Continuous
 62
     7
370
     9
100
AcDbLine
 10
-602.4224358635979
 20
1168.378130938556
 30
0.0
 11
-266.9847230653505
 21
1168.378130938556
 31
0.0
  0
LINE
  5
D1
330
1F
100
AcDbEntity
  8
1-4
  6
Continuous
 62
     7
370
     9
100
AcDbLine
 10
-771.8474516997467
 20
1030.878295898438
 30
0.0
 11
-418.2122720254432
 21
1030.878295898438
 31
0.0
  0
LINE
  5
D2
330
1F
100
AcDbEntity
  8
1-4
  6
Continuous
 62
     7
370
     9
100
AcDbLine
 10
-1179.352878879856
 20
698.3780649546031
 30
0.0
 11
-1234.539135082348
 21
918.3780484586151
 31
0.0
  0
LINE
  5
D3
330
1F
100
AcDbEntity
  8
1-4
  6
Continuous
 62
     7
370
     9
100
AcDbLine
 10
-1234.539135082348
 20
918.3780484586151
 30
0.0
 11
-1570.610417546452
 21
918.3780484586151
 31
0.0
  0
LINE
  5
D4
330
1F
100
AcDbEntity
  8
2-1
  6
JWW_CENTER1
 62
     2
370
     9
100
AcDbLine
 10
598.3077590529984
 20
463.2431772592906
 30
0.0
 11
1544.202897355364
 21
463.2431772592906
 31
0.0
  0
LINE
  5
D5
330
1F
100
AcDbEntity
  8
2-1
  6
Continuous
 62
     2
370
     9
100
AcDbLine
 10
621.2553282041807
 20
838.2431772592906
 30
0.0
 11
621.2553282041807
 21
88.24317725929063
 31
0.0
  0
LINE
  5
D6
330
1F
100
AcDbEntity
  8
2-1
  6
Continuous
 62
     2
370
     9
100
AcDbLine
 10
622.7553084089953
 20
838.2431772592906
 30
0.0
 11
622.7553084089953
 21
88.24317725929063
 31
0.0
  0
LINE
  5
D7
330
1F
100
AcDbEntity
  8
2-1
  6
Continuous
 62
     2
370
     9
100
AcDbLine
 10
714.9657378325594
 20
894.4857540646117
 30
0.0
 11
806.1423636771536
 21
803.3096230996623
 31
0.0
  0
LINE
  5
D8
330
1F
100
AcDbEntity
  8
2-1
  6
Continuous
 62
     2
370
     9
100
AcDbLine
 10
710.7231346336573
 20
896.2433191247891
 30
0.0
 11
700.8012926256333
 21
896.2433191247891
 31
0.0
  0
LINE
  5
D9
330
1F
100
AcDbEntity
  8
2-1
  6
Continuous
 62
     2
370
     9
100
AcDbLine
 10
743.2500890783365
 20
886.0003002269849
 30
0.0
 11
818.6301566459036
 21
810.6202326594175
 31
0.0
  0
LINE
  5
DA
330
1F
100
AcDbEntity
  8
2-1
  6
Continuous
 62
     2
370
     9
100
AcDbLine
 10
809.6604630753802
 20
802.6195134343328
 30
0.0
 11
716.3801038587417
 21
895.900120090794
 31
0.0
  0
LINE
  5
DB
330
1F
100
AcDbEntity
  8
2-1
  6
Continuous
 62
     2
370
     9
100
AcDbLine
 10
818.5341499947214
 20
807.8880021378802
 30
0.0
 11
741.8357230521536
 21
884.5864290804477
 31
0.0
  0
LINE
  5
DC
330
1F
100
AcDbEntity
  8
2-1
  6
Continuous
 62
     2
370
     9
100
AcDbLine
 10
723.8780253642318
 20
715.868101377745
 30
0.0
 11
648.4979577966641
 21
791.2484163851352
 31
0.0
  0
LINE
  5
DD
330
1F
100
AcDbEntity
  8
2-1
  6
Continuous
 62
     2
370
     9
100
AcDbLine
 10
726.6102558857688
 20
715.9641080289276
 30
0.0
 11
649.911828943201
 21
792.662534971495
 31
0.0
  0
LINE
  5
DE
330
1F
100
AcDbEntity
  8
2-1
  6
Continuous
 62
     2
370
     9
100
AcDbLine
 10
731.8787445893162
 20
724.837547508446
 30
0.0
 11
638.5978904930323
 21
818.11840160473
 31
0.0
  0
LINE
  5
DF
330
1F
100
AcDbEntity
  8
2-1
  6
Continuous
 62
     2
370
     9
100
AcDbLine
 10
731.1888823638094
 20
728.3561417863177
 30
0.0
 11
640.0127513988599
 21
819.5325201910896
 31
0.0
  0
LINE
  5
E0
330
1F
100
AcDbEntity
  8
2-1
  6
Continuous
 62
     2
370
     9
100
AcDbLine
 10
638.2554337785052
 20
833.697212837838
 30
0.0
 11
638.2554337785052
 21
823.7751233899917
 31
0.0
  0
LINE
  5
E1
330
1F
100
AcDbEntity
  8
2-1
  6
Continuous
 62
     2
370
     9
100
AcDbLine
 10
773.2769115551099
 20
768.2924342799834
 30
0.0
 11
696.5186041754646
 21
845.0504942198061
 31
0.0
  0
LINE
  5
E2
330
1F
100
AcDbEntity
  8
2-1
  6
Continuous
 62
     2
370
     9
100
AcDbLine
 10
773.3951877903297
 20
773.6861275337839
 30
0.0
 11
700.157454207137
 21
844.357415276605
 31
0.0
  0
LINE
  5
E3
330
1F
100
AcDbEntity
  8
2-1
  6
Continuous
 62
     2
370
     9
100
AcDbLine
 10
760.8123779296875
 20
761.1030702333193
 30
0.0
 11
690.1405953072214
 21
834.3405563766894
 31
0.0
  0
LINE
  5
E4
330
1F
100
AcDbEntity
  8
2-1
  6
Continuous
 62
     2
370
     9
100
AcDbLine
 10
766.2060711834886
 20
761.2213464685391
 30
0.0
 11
689.4477638038433
 21
837.9794064083617
 31
0.0
  0
LINE
  5
E5
330
1F
100
AcDbEntity
  8
2-1
  6
Continuous
 62
     2
370
     9
100
AcDbLine
 10
735.5680723448057
 20
876.7119041649073
 30
0.0
 11
742.6389127164276
 21
883.7829919763516
 31
0.0
  0
LINE
  5
E6
330
1F
100
AcDbEntity
  8
2-1
  6
Continuous
 62
     2
370
     9
100
AcDbLine
 10
657.7863538587417
 20
798.9301856788429
 30
0.0
 11
650.715018607475
 21
791.8590978673988
 31
0.0
  0
LINE
  5
E7
330
1F
100
AcDbEntity
  8
2-1
  6
Continuous
 62
     2
370
     9
100
AcDbLine
 10
747.4926922772386
 20
896.2433191247891
 30
0.0
 11
948.7552952122047
 21
896.2433191247891
 31
0.0
  0
LINE
  5
E8
330
1F
100
AcDbEntity
  8
2-1
  6
Continuous
 62
     2
370
     9
100
AcDbLine
 10
700.8012926256333
 20
898.243127771326
 30
0.0
 11
948.7552952122047
 21
898.243127771326
 31
0.0
  0
LINE
  5
E9
330
1F
100
AcDbEntity
  8
2-1
  6
Continuous
 62
     2
370
     9
100
AcDbLine
 10
638.2554337785052
 20
787.0058131862334
 30
0.0
 11
638.2554337785052
 21
585.7429628114443
 31
0.0
  0
LINE
  5
EA
330
1F
100
AcDbEntity
  8
2-1
  6
Continuous
 62
     2
370
     9
100
AcDbLine
 10
636.2556251319683
 20
833.697212837838
 30
0.0
 11
636.2556251319683
 21
585.7429628114443
 31
0.0
  0
LINE
  5
EB
330
1F
100
AcDbEntity
  8
2-1
  6
Continuous
 62
     2
370
     9
100
AcDbLine
 10
1521.255328204181
 20
838.2431772592906
 30
0.0
 11
1521.255328204181
 21
88.24317725929063
 31
0.0
  0
LINE
  5
EC
330
1F
100
AcDbEntity
  8
2-1
  6
Continuous
 62
     2
370
     9
100
AcDbLine
 10
1519.754853119721
 20
838.2431772592906
 30
0.0
 11
1519.754853119721
 21
88.24317725929063
 31
0.0
  0
LINE
  5
ED
330
1F
100
AcDbEntity
  8
2-1
  6
Continuous
 62
     2
370
     9
100
AcDbLine
 10
1427.544918575803
 20
894.4857540646117
 30
0.0
 11
1336.368787610853
 21
803.3096230996623
 31
0.0
  0
LINE
  5
EE
330
1F
100
AcDbEntity
  8
2-1
  6
Continuous
 62
     2
370
     9
100
AcDbLine
 10
1431.787521774705
 20
896.2433191247891
 30
0.0
 11
1441.709363782728
 21
896.2433191247891
 31
0.0
  0
LINE
  5
EF
330
1F
100
AcDbEntity
  8
2-1
  6
Continuous
 62
     2
370
     9
100
AcDbLine
 10
1399.260567330025
 20
886.0003002269849
 30
0.0
 11
1323.880004882812
 21
810.6202326594175
 31
0.0
  0
LINE
  5
F0
330
1F
100
AcDbEntity
  8
2-1
  6
Continuous
 62
     2
370
     9
100
AcDbLine
 10
1332.849698453336
 20
802.6195134343328
 30
0.0
 11
1426.13055254962
 21
895.900120090794
 31
0.0
  0
LINE
  5
F1
330
1F
100
AcDbEntity
  8
2-1
  6
Continuous
 62
     2
370
     9
100
AcDbLine
 10
1323.976011533995
 20
807.8880021378802
 30
0.0
 11
1400.674438476562
 21
884.5864290804477
 31
0.0
  0
LINE
  5
F2
330
1F
100
AcDbEntity
  8
2-1
  6
Continuous
 62
     2
370
     9
100
AcDbLine
 10
1418.632136164485
 20
715.868101377745
 30
0.0
 11
1494.012698611698
 21
791.2484163851352
 31
0.0
  0
LINE
  5
F3
330
1F
100
AcDbEntity
  8
2-1
  6
Continuous
 62
     2
370
     9
100
AcDbLine
 10
1415.900400522593
 20
715.9641080289276
 30
0.0
 11
1492.598332585516
 21
792.662534971495
 31
0.0
  0
LINE
  5
F4
330
1F
100
AcDbEntity
  8
2-1
  6
Continuous
 62
     2
370
     9
100
AcDbLine
 10
1410.6314169394
 20
724.837547508446
 30
0.0
 11
1503.912271035684
 21
818.11840160473
 31
0.0
  0
LINE
  5
F5
330
1F
100
AcDbEntity
  8
2-1
  6
Continuous
 62
     2
370
     9
100
AcDbLine
 10
1411.321774044553
 20
728.3561417863177
 30
0.0
 11
1502.497905009502
 21
819.5325201910896
 31
0.0
  0
LINE
  5
F6
330
1F
100
AcDbEntity
  8
2-1
  6
Continuous
 62
     2
370
     9
100
AcDbLine
 10
1504.255222629857
 20
833.697212837838
 30
0.0
 11
1504.255222629857
 21
823.7751233899917
 31
0.0
  0
LINE
  5
F7
330
1F
100
AcDbEntity
  8
2-1
  6
Continuous
 62
     2
370
     9
100
AcDbLine
 10
1369.233744853252
 20
768.2924342799834
 30
0.0
 11
1445.991557353252
 21
845.0504942198061
 31
0.0
  0
LINE
  5
F8
330
1F
100
AcDbEntity
  8
2-1
  6
Continuous
 62
     2
370
     9
100
AcDbLine
 10
1369.115468618032
 20
773.6861275337839
 30
0.0
 11
1442.35270732158
 21
844.357415276605
 31
0.0
  0
LINE
  5
F9
330
1F
100
AcDbEntity
  8
2-1
  6
Continuous
 62
     2
370
     9
100
AcDbLine
 10
1381.698278478674
 20
761.1030702333193
 30
0.0
 11
1452.370061101141
 21
834.3405563766894
 31
0.0
  0
LINE
  5
FA
330
1F
100
AcDbEntity
  8
2-1
  6
Continuous
 62
     2
370
     9
100
AcDbLine
 10
1376.304585224873
 20
761.2213464685391
 30
0.0
 11
1453.062397724873
 21
837.9794064083617
 31
0.0
  0
LINE
  5
FB
330
1F
100
AcDbEntity
  8
2-1
  6
Continuous
 62
     2
370
     9
100
AcDbLine
 10
1406.94208918391
 20
876.7119041649073
 30
0.0
 11
1399.871248812289
 21
883.7829919763516
 31
0.0
  0
LINE
  5
FC
330
1F
100
AcDbEntity
  8
2-1
  6
Continuous
 62
     2
370
     9
100
AcDbLine
 10
1484.723807669975
 20
798.9301856788429
 30
0.0
 11
1491.795142921242
 21
791.8590978673988
 31
0.0
  0
LINE
  5
FD
330
1F
100
AcDbEntity
  8
2-1
  6
Continuous
 62
     2
370
     9
100
AcDbLine
 10
1395.017964131123
 20
896.2433191247891
 30
0.0
 11
1193.754866316512
 21
896.2433191247891
 31
0.0
  0
LINE
  5
FE
330
1F
100
AcDbEntity
  8
2-1
  6
Continuous
 62
     2
370
     9
100
AcDbLine
 10
1441.709363782728
 20
898.243127771326
 30
0.0
 11
1193.754866316512
 21
898.243127771326
 31
0.0
  0
LINE
  5
FF
330
1F
100
AcDbEntity
  8
2-1
  6
Continuous
 62
     2
370
     9
100
AcDbLine
 10
1504.255222629857
 20
787.0058131862334
 30
0.0
 11
1504.255222629857
 21
585.7429628114443
 31
0.0
  0
LINE
  5
100
330
1F
100
AcDbEntity
  8
2-1
  6
Continuous
 62
     2
370
     9
100
AcDbLine
 10
1506.255031276394
 20
833.697212837838
 30
0.0
 11
1506.255031276394
 21
585.7429628114443
 31
0.0
  0
LINE
  5
101
330
1F
100
AcDbEntity
  8
2-1
  6
Continuous
 62
     2
370
     9
100
AcDbLine
 10
696.2553282041807
 20
911.7431970544766
 30
0.0
 11
1446.255328204181
 21
911.7431970544766
 31
0.0
  0
LINE
  5
102
330
1F
100
AcDbEntity
  8
2-1
  6
Continuous
 62
     2
370
     9
100
AcDbLine
 10
696.2553282041807
 20
913.2431772592906
 30
0.0
 11
1446.255328204181
 21
913.2431772592906
 31
0.0
  0
LINE
  5
103
330
1F
100
AcDbEntity
  8
2-1
  6
Continuous
 62
     2
370
     9
100
AcDbLine
 10
714.9657378325594
 20
32.00047673405834
 30
0.0
 11
806.1423636771536
 21
123.176731418919
 31
0.0
  0
LINE
  5
104
330
1F
100
AcDbEntity
  8
2-1
  6
Continuous
 62
     2
370
     9
100
AcDbLine
 10
710.7231346336573
 20
30.24303539379218
 30
0.0
 11
700.8012926256333
 21
30.24303539379218
 31
0.0
  0
LINE
  5
105
330
1F
100
AcDbEntity
  8
2-1
  6
Continuous
 62
     2
370
     9
100
AcDbLine
 10
743.2500890783365
 20
40.48593057168517
 30
0.0
 11
818.6301566459036
 21
115.8661218591641
 31
0.0
  0
LINE
  5
106
330
1F
100
AcDbEntity
  8
2-1
  6
Continuous
 62
     2
370
     9
100
AcDbLine
 10
809.6604630753802
 20
123.8668410842484
 30
0.0
 11
716.3801038587417
 21
30.58623442778725
 31
0.0
  0
LINE
  5
107
330
1F
100
AcDbEntity
  8
2-1
  6
Continuous
 62
     2
370
     9
100
AcDbLine
 10
818.5341499947214
 20
118.598352380701
 30
0.0
 11
741.8357230521536
 21
41.89992543813361
 31
0.0
  0
LINE
  5
108
330
1F
100
AcDbEntity
  8
2-1
  6
Continuous
 62
     2
370
     9
100
AcDbLine
 10
723.8780253642318
 20
210.6182531408362
 30
0.0
 11
648.4979577966641
 21
135.2379381334461
 31
0.0
  0
LINE
  5
109
330
1F
100
AcDbEntity
  8
2-1
  6
Continuous
 62
     2
370
     9
100
AcDbLine
 10
726.6102558857688
 20
210.5221227697425
 30
0.0
 11
649.911828943201
 21
133.8238195470862
 31
0.0
  0
LINE
  5
10A
330
1F
100
AcDbEntity
  8
2-1
  6
Continuous
 62
     2
370
     9
100
AcDbLine
 10
731.8787445893162
 20
201.6485595703125
 30
0.0
 11
638.5978904930323
 21
108.3679529138516
 31
0.0
  0
LINE
  5
10B
330
1F
100
AcDbEntity
  8
2-1
  6
Continuous
 62
     2
370
     9
100
AcDbLine
 10
731.1888823638094
 20
198.1300890123524
 30
0.0
 11
640.0127513988599
 21
106.9538343274917
 31
0.0
  0
LINE
  5
10C
330
1F
100
AcDbEntity
  8
2-1
  6
Continuous
 62
     2
370
     9
100
AcDbLine
 10
638.2554337785052
 20
92.78914168074323
 30
0.0
 11
638.2554337785052
 21
102.7109836887669
 31
0.0
  0
LINE
  5
10D
330
1F
100
AcDbEntity
  8
2-1
  6
Continuous
 62
     2
370
     9
100
AcDbLine
 10
773.2769115551099
 20
158.1939202385982
 30
0.0
 11
696.5186041754646
 21
81.43586029877554
 31
0.0
  0
LINE
  5
10E
330
1F
100
AcDbEntity
  8
2-1
  6
Continuous
 62
     2
370
     9
100
AcDbLine
 10
773.3951877903297
 20
152.8001032648859
 30
0.0
 11
700.157454207137
 21
82.1289392419763
 31
0.0
  0
LINE
  5
10F
330
1F
100
AcDbEntity
  8
2-1
  6
Continuous
 62
     2
370
     9
100
AcDbLine
 10
760.8123779296875
 20
165.383284285262
 30
0.0
 11
690.1405953072214
 21
92.14567442198074
 31
0.0
  0
LINE
  5
110
330
1F
100
AcDbEntity
  8
2-1
  6
Continuous
 62
     2
370
     9
100
AcDbLine
 10
766.2060711834886
 20
165.264884330131
 30
0.0
 11
689.4477638038433
 21
88.50694811021981
 31
0.0
  0
LINE
  5
111
330
1F
100
AcDbEntity
  8
2-1
  6
Continuous
 62
     2
370
     9
100
AcDbLine
 10
735.5680723448057
 20
49.77445035367396
 30
0.0
 11
742.6389127164276
 21
42.70336254222968
 31
0.0
  0
LINE
  5
112
330
1F
100
AcDbEntity
  8
2-1
  6
Continuous
 62
     2
370
     9
100
AcDbLine
 10
657.7863538587417
 20
127.5561688397383
 30
0.0
 11
650.715018607475
 21
134.6272566511826
 31
0.0
  0
LINE
  5
113
330
1F
100
AcDbEntity
  8
2-1
  6
Continuous
 62
     2
370
     9
100
AcDbLine
 10
747.4926922772386
 20
30.24303539379218
 30
0.0
 11
948.7552952122047
 21
30.24303539379218
 31
0.0
  0
LINE
  5
114
330
1F
100
AcDbEntity
  8
2-1
  6
Continuous
 62
     2
370
     9
100
AcDbLine
 10
700.8012926256333
 20
28.24310302734375
 30
0.0
 11
948.7552952122047
 21
28.24310302734375
 31
0.0
  0
LINE
  5
115
330
1F
100
AcDbEntity
  8
2-1
  6
Continuous
 62
     2
370
     9
100
AcDbLine
 10
638.2554337785052
 20
139.4805413323482
 30
0.0
 11
638.2554337785052
 21
340.743391707137
 31
0.0
  0
LINE
  5
116
330
1F
100
AcDbEntity
  8
2-1
  6
Continuous
 62
     2
370
     9
100
AcDbLine
 10
636.2556251319683
 20
92.78914168074323
 30
0.0
 11
636.2556251319683
 21
340.743391707137
 31
0.0
  0
LINE
  5
117
330
1F
100
AcDbEntity
  8
2-1
  6
Continuous
 62
     2
370
     9
100
AcDbLine
 10
1427.544918575803
 20
32.00047673405834
 30
0.0
 11
1336.368787610853
 21
123.176731418919
 31
0.0
  0
LINE
  5
118
330
1F
100
AcDbEntity
  8
2-1
  6
Continuous
 62
     2
370
     9
100
AcDbLine
 10
1431.787521774705
 20
30.24303539379218
 30
0.0
 11
1441.709363782728
 21
30.24303539379218
 31
0.0
  0
LINE
  5
119
330
1F
100
AcDbEntity
  8
2-1
  6
Continuous
 62
     2
370
     9
100
AcDbLine
 10
1399.260567330025
 20
40.48593057168517
 30
0.0
 11
1323.880004882812
 21
115.8661218591641
 31
0.0
  0
LINE
  5
11A
330
1F
100
AcDbEntity
  8
2-1
  6
Continuous
 62
     2
370
     9
100
AcDbLine
 10
1332.849698453336
 20
123.8668410842484
 30
0.0
 11
1426.13055254962
 21
30.58623442778725
 31
0.0
  0
LINE
  5
11B
330
1F
100
AcDbEntity
  8
2-1
  6
Continuous
 62
     2
370
     9
100
AcDbLine
 10
1323.976011533995
 20
118.598352380701
 30
0.0
 11
1400.674438476562
 21
41.89992543813361
 31
0.0
  0
LINE
  5
11C
330
1F
100
AcDbEntity
  8
2-1
  6
Continuous
 62
     2
370
     9
100
AcDbLine
 10
1418.632136164485
 20
210.6182531408362
 30
0.0
 11
1494.012698611698
 21
135.2379381334461
 31
0.0
  0
LINE
  5
11D
330
1F
100
AcDbEntity
  8
2-1
  6
Continuous
 62
     2
370
     9
100
AcDbLine
 10
1415.900400522593
 20
210.5221227697425
 30
0.0
 11
1492.598332585516
 21
133.8238195470862
 31
0.0
  0
LINE
  5
11E
330
1F
100
AcDbEntity
  8
2-1
  6
Continuous
 62
     2
370
     9
100
AcDbLine
 10
1410.6314169394
 20
201.6485595703125
 30
0.0
 11
1503.912271035684
 21
108.3679529138516
 31
0.0
  0
LINE
  5
11F
330
1F
100
AcDbEntity
  8
2-1
  6
Continuous
 62
     2
370
     9
100
AcDbLine
 10
1411.321774044553
 20
198.1300890123524
 30
0.0
 11
1502.497905009502
 21
106.9538343274917
 31
0.0
  0
LINE
  5
120
330
1F
100
AcDbEntity
  8
2-1
  6
Continuous
 62
     2
370
     9
100
AcDbLine
 10
1504.255222629857
 20
92.78914168074323
 30
0.0
 11
1504.255222629857
 21
102.7109836887669
 31
0.0
  0
LINE
  5
121
330
1F
100
AcDbEntity
  8
2-1
  6
Continuous
 62
     2
370
     9
100
AcDbLine
 10
1369.233744853252
 20
158.1939202385982
 30
0.0
 11
1445.991557353252
 21
81.43586029877554
 31
0.0
  0
LINE
  5
122
330
1F
100
AcDbEntity
  8
2-1
  6
Continuous
 62
     2
370
     9
100
AcDbLine
 10
1369.115468618032
 20
152.8001032648859
 30
0.0
 11
1442.35270732158
 21
82.1289392419763
 31
0.0
  0
LINE
  5
123
330
1F
100
AcDbEntity
  8
2-1
  6
Continuous
 62
     2
370
     9
100
AcDbLine
 10
1381.698278478674
 20
165.383284285262
 30
0.0
 11
1452.370061101141
 21
92.14567442198074
 31
0.0
  0
LINE
  5
124
330
1F
100
AcDbEntity
  8
2-1
  6
Continuous
 62
     2
370
     9
100
AcDbLine
 10
1376.304585224873
 20
165.264884330131
 30
0.0
 11
1453.062397724873
 21
88.50694811021981
 31
0.0
  0
LINE
  5
125
330
1F
100
AcDbEntity
  8
2-1
  6
Continuous
 62
     2
370
     9
100
AcDbLine
 10
1406.94208918391
 20
49.77445035367396
 30
0.0
 11
1399.871248812289
 21
42.70336254222968
 31
0.0
  0
LINE
  5
126
330
1F
100
AcDbEntity
  8
2-1
  6
Continuous
 62
     2
370
     9
100
AcDbLine
 10
1484.723807669975
 20
127.5561688397383
 30
0.0
 11
1491.795142921242
 21
134.6272566511826
 31
0.0
  0
LINE
  5
127
330
1F
100
AcDbEntity
  8
2-1
  6
Continuous
 62
     2
370
     9
100
AcDbLine
 10
1395.017964131123
 20
30.24303539379218
 30
0.0
 11
1193.754866316512
 21
30.24303539379218
 31
0.0
  0
LINE
  5
128
330
1F
100
AcDbEntity
  8
2-1
  6
Continuous
 62
     2
370
     9
100
AcDbLine
 10
1441.709363782728
 20
28.24310302734375
 30
0.0
 11
1193.754866316512
 21
28.24310302734375
 31
0.0
  0
LINE
  5
129
330
1F
100
AcDbEntity
  8
2-1
  6
Continuous
 62
     2
370
     9
100
AcDbLine
 10
1504.255222629857
 20
139.4805413323482
 30
0.0
 11
1504.255222629857
 21
340.743391707137
 31
0.0
  0
LINE
  5
12A
330
1F
100
AcDbEntity
  8
2-1
  6
Continuous
 62
     2
370
     9
100
AcDbLine
 10
1506.255031276394
 20
92.78914168074323
 30
0.0
 11
1506.255031276394
 21
340.743391707137
 31
0.0
  0
LINE
  5
12B
330
1F
100
AcDbEntity
  8
2-1
  6
Continuous
 62
     2
370
     9
100
AcDbLine
 10
696.2553282041807
 20
14.74315746410468
 30
0.0
 11
1446.255328204181
 21
14.74315746410468
 31
0.0
  0
LINE
  5
12C
330
1F
100
AcDbEntity
  8
2-1
  6
Continuous
 62
     2
370
     9
100
AcDbLine
 10
696.2553282041807
 20
13.24305353937945
 30
0.0
 11
1446.255328204181
 21
13.24305353937945
 31
0.0
  0
LINE
  5
12D
330
1F
100
AcDbEntity
  8
2-1
  6
JWW_CENTER1
 62
     2
370
     9
100
AcDbLine
 10
1071.255328204181
 20
-18.39856121991119
 30
0.0
 11
1071.255328204181
 21
948.5441795555323
 31
0.0
  0
LINE
  5
12E
330
1F
100
AcDbEntity
  8
2-1
  6
JWW_CENTER1
 62
     2
370
     9
100
AcDbLine
 10
649.8088939769849
 20
848.3644557643584
 30
0.0
 11
683.5121773384714
 21
882.0684814453125
 31
0.0
  0
LINE
  5
12F
330
1F
100
AcDbEntity
  8
2-0
  6
Continuous
 62
     2
370
     9
100
AcDbLine
 10
660.2280900285052
 20
874.269920555321
 30
0.0
 11
670.823958113387
 21
877.1090450802367
 31
0.0
  0
LINE
  5
130
330
1F
100
AcDbEntity
  8
2-0
  6
Continuous
 62
     2
370
     9
100
AcDbLine
 10
670.823958113387
 20
877.1090450802367
 30
0.0
 11
678.5529884132183
 21
869.3800147804054
 31
0.0
  0
LINE
  5
131
330
1F
100
AcDbEntity
  8
2-0
  6
Continuous
 62
     2
370
     9
100
AcDbLine
 10
675.7138638883026
 20
858.7843941353464
 30
0.0
 11
678.5529884132183
 21
869.3800147804054
 31
0.0
  0
LINE
  5
132
330
1F
100
AcDbEntity
  8
2-0
  6
Continuous
 62
     2
370
     9
100
AcDbLine
 10
675.7138638883026
 20
858.7843941353464
 30
0.0
 11
665.1179958034209
 21
855.9450221706084
 31
0.0
  0
LINE
  5
133
330
1F
100
AcDbEntity
  8
2-0
  6
Continuous
 62
     2
370
     9
100
AcDbLine
 10
657.3889655035896
 20
863.6740524704394
 30
0.0
 11
665.1179958034209
 21
855.9450221706084
 31
0.0
  0
LINE
  5
134
330
1F
100
AcDbEntity
  8
2-0
  6
Continuous
 62
     2
370
     9
100
AcDbLine
 10
660.2280900285052
 20
874.269920555321
 30
0.0
 11
657.3889655035896
 21
863.6740524704394
 31
0.0
  0
LINE
  5
135
330
1F
100
AcDbEntity
  8
2-0
  6
Continuous
 62
     2
370
     9
100
AcDbLine
 10
1482.282566379857
 20
874.269920555321
 30
0.0
 11
1471.686698294975
 21
877.1090450802367
 31
0.0
  0
LINE
  5
136
330
1F
100
AcDbEntity
  8
2-0
  6
Continuous
 62
     2
370
     9
100
AcDbLine
 10
1471.686698294975
 20
877.1090450802367
 30
0.0
 11
1463.957667995144
 21
869.3800147804054
 31
0.0
  0
LINE
  5
137
330
1F
100
AcDbEntity
  8
2-0
  6
Continuous
 62
     2
370
     9
100
AcDbLine
 10
1466.796792520059
 20
858.7843941353464
 30
0.0
 11
1463.957667995144
 21
869.3800147804054
 31
0.0
  0
LINE
  5
138
330
1F
100
AcDbEntity
  8
2-0
  6
Continuous
 62
     2
370
     9
100
AcDbLine
 10
1466.796792520059
 20
858.7843941353464
 30
0.0
 11
1477.392660604941
 21
855.9450221706084
 31
0.0
  0
LINE
  5
139
330
1F
100
AcDbEntity
  8
2-0
  6
Continuous
 62
     2
370
     9
100
AcDbLine
 10
1485.121690904773
 20
863.6740524704394
 30
0.0
 11
1477.392660604941
 21
855.9450221706084
 31
0.0
  0
LINE
  5
13A
330
1F
100
AcDbEntity
  8
2-0
  6
Continuous
 62
     2
370
     9
100
AcDbLine
 10
1482.282566379857
 20
874.269920555321
 30
0.0
 11
1485.121690904773
 21
863.6740524704394
 31
0.0
  0
LINE
  5
13B
330
1F
100
AcDbEntity
  8
2-1
  6
JWW_CENTER1
 62
     2
370
     9
100
AcDbLine
 10
1462.381476324958
 20
854.3700676995356
 30
0.0
 11
1486.696397936023
 21
878.6847418707771
 31
0.0
  0
LINE
  5
13C
330
1F
100
AcDbEntity
  8
2-1
  6
JWW_CENTER1
 62
     2
370
     9
100
AcDbLine
 10
1486.696397936023
 20
854.369820259713
 30
0.0
 11
1462.381971204603
 21
878.6847418707771
 31
0.0
  0
LINE
  5
13D
330
1F
100
AcDbEntity
  8
2-0
  6
Continuous
 62
     2
370
     9
100
AcDbLine
 10
1482.282566379857
 20
52.21643396326016
 30
0.0
 11
1471.686698294975
 21
49.37730943834481
 31
0.0
  0
LINE
  5
13E
330
1F
100
AcDbEntity
  8
2-0
  6
Continuous
 62
     2
370
     9
100
AcDbLine
 10
1471.686698294975
 20
49.37730943834481
 30
0.0
 11
1463.957667995144
 21
57.10633973817579
 31
0.0
  0
LINE
  5
13F
330
1F
100
AcDbEntity
  8
2-0
  6
Continuous
 62
     2
370
     9
100
AcDbLine
 10
1466.796792520059
 20
67.7019603832349
 30
0.0
 11
1463.957667995144
 21
57.10633973817579
 31
0.0
  0
LINE
  5
140
330
1F
100
AcDbEntity
  8
2-0
  6
Continuous
 62
     2
370
     9
100
AcDbLine
 10
1466.796792520059
 20
67.7019603832349
 30
0.0
 11
1477.392660604941
 21
70.5413323479732
 31
0.0
  0
LINE
  5
141
330
1F
100
AcDbEntity
  8
2-0
  6
Continuous
 62
     2
370
     9
100
AcDbLine
 10
1485.121690904773
 20
62.81230204814193
 30
0.0
 11
1477.392660604941
 21
70.5413323479732
 31
0.0
  0
LINE
  5
142
330
1F
100
AcDbEntity
  8
2-0
  6
Continuous
 62
     2
370
     9
100
AcDbLine
 10
1482.282566379857
 20
52.21643396326016
 30
0.0
 11
1485.121690904773
 21
62.81230204814193
 31
0.0
  0
LINE
  5
143
330
1F
100
AcDbEntity
  8
2-1
  6
JWW_CENTER1
 62
     2
370
     9
100
AcDbLine
 10
1462.381476324958
 20
72.11628681904557
 30
0.0
 11
1486.696397936023
 21
47.80161264780418
 31
0.0
  0
LINE
  5
144
330
1F
100
AcDbEntity
  8
2-1
  6
JWW_CENTER1
 62
     2
370
     9
100
AcDbLine
 10
1486.696397936023
 20
72.11653425886823
 30
0.0
 11
1462.381971204603
 21
47.80161264780418
 31
0.0
  0
LINE
  5
145
330
1F
100
AcDbEntity
  8
2-0
  6
Continuous
 62
     2
370
     9
100
AcDbLine
 10
660.2280900285052
 20
52.21643396326016
 30
0.0
 11
670.823958113387
 21
49.37730943834481
 31
0.0
  0
LINE
  5
146
330
1F
100
AcDbEntity
  8
2-0
  6
Continuous
 62
     2
370
     9
100
AcDbLine
 10
670.823958113387
 20
49.37730943834481
 30
0.0
 11
678.5529884132183
 21
57.10633973817579
 31
0.0
  0
LINE
  5
147
330
1F
100
AcDbEntity
  8
2-0
  6
Continuous
 62
     2
370
     9
100
AcDbLine
 10
675.7138638883026
 20
67.7019603832349
 30
0.0
 11
678.5529884132183
 21
57.10633973817579
 31
0.0
  0
LINE
  5
148
330
1F
100
AcDbEntity
  8
2-0
  6
Continuous
 62
     2
370
     9
100
AcDbLine
 10
675.7138638883026
 20
67.7019603832349
 30
0.0
 11
665.1179958034209
 21
70.5413323479732
 31
0.0
  0
LINE
  5
149
330
1F
100
AcDbEntity
  8
2-0
  6
Continuous
 62
     2
370
     9
100
AcDbLine
 10
657.3889655035896
 20
62.81230204814193
 30
0.0
 11
665.1179958034209
 21
70.5413323479732
 31
0.0
  0
LINE
  5
14A
330
1F
100
AcDbEntity
  8
2-0
  6
Continuous
 62
     2
370
     9
100
AcDbLine
 10
660.2280900285052
 20
52.21643396326016
 30
0.0
 11
657.3889655035896
 21
62.81230204814193
 31
0.0
  0
LINE
  5
14B
330
1F
100
AcDbEntity
  8
2-1
  6
JWW_CENTER1
 62
     2
370
     9
100
AcDbLine
 10
680.1291800834036
 20
72.11628681904557
 30
0.0
 11
655.8142584723396
 21
47.80161264780418
 31
0.0
  0
LINE
  5
14C
330
1F
100
AcDbEntity
  8
2-1
  6
JWW_CENTER1
 62
     2
370
     9
100
AcDbLine
 10
655.8142584723396
 20
72.11653425886823
 30
0.0
 11
680.1286852037583
 21
47.80161264780418
 31
0.0
  0
LINE
  5
14D
330
1F
100
AcDbEntity
  8
2-4
  6
Continuous
 62
     7
370
     9
100
AcDbLine
 10
559.9065832189615
 20
980.4832169816302
 30
0.0
 11
554.0140512827281
 21
974.5906850453971
 31
0.0
  0
LINE
  5
14E
330
1F
100
AcDbEntity
  8
2-4
  6
Continuous
 62
     7
370
     9
100
AcDbLine
 10
595.2617748363599
 20
945.1280253642315
 30
0.0
 11
559.9065832189615
 21
980.4832169816302
 31
0.0
  0
LINE
  5
14F
330
1F
100
AcDbEntity
  8
2-4
  6
Continuous
 62
     7
370
     9
100
AcDbLine
 10
589.3692429001271
 20
939.2354934279984
 30
0.0
 11
595.2617748363599
 21
945.1280253642315
 31
0.0
  0
LINE
  5
150
330
1F
100
AcDbEntity
  8
2-4
  6
Continuous
 62
     7
370
     9
100
AcDbLine
 10
589.3692429001271
 20
939.2354934279984
 30
0.0
 11
554.0140512827281
 21
974.5906850453971
 31
0.0
  0
LINE
  5
151
330
1F
100
AcDbEntity
  8
2-4
  6
Continuous
 62
     7
370
     9
100
AcDbLine
 10
587.4817719330662
 20
941.1232118348818
 30
0.0
 11
591.2567138671875
 21
941.1232118348818
 31
0.0
  0
LINE
  5
152
330
1F
100
AcDbEntity
  8
2-4
  6
Continuous
 62
     7
370
     9
100
AcDbLine
 10
582.4815079972552
 20
946.12322833087
 30
0.0
 11
594.2665718697214
 21
946.12322833087
 31
0.0
  0
LINE
  5
153
330
1F
100
AcDbEntity
  8
2-4
  6
Continuous
 62
     7
370
     9
100
AcDbLine
 10
577.4812440614443
 20
951.1232448268584
 30
0.0
 11
589.2663079339104
 21
951.1232448268584
 31
0.0
  0
LINE
  5
154
330
1F
100
AcDbEntity
  8
2-4
  6
Continuous
 62
     7
370
     9
100
AcDbLine
 10
572.4814750052786
 20
956.1232613228464
 30
0.0
 11
584.2665388777453
 21
956.1232613228464
 31
0.0
  0
LINE
  5
155
330
1F
100
AcDbEntity
  8
2-4
  6
Continuous
 62
     7
370
     9
100
AcDbLine
 10
567.4817059491136
 20
961.1232778188346
 30
0.0
 11
579.2667698215797
 21
961.1232778188346
 31
0.0
  0
LINE
  5
156
330
1F
100
AcDbEntity
  8
2-4
  6
Continuous
 62
     7
370
     9
100
AcDbLine
 10
562.4814420133026
 20
966.1232943148227
 30
0.0
 11
574.2665058857688
 21
966.1232943148227
 31
0.0
  0
LINE
  5
157
330
1F
100
AcDbEntity
  8
2-4
  6
Continuous
 62
     7
370
     9
100
AcDbLine
 10
557.4811780774917
 20
971.123310810811
 30
0.0
 11
569.2662419499578
 21
971.123310810811
 31
0.0
  0
LINE
  5
158
330
1F
100
AcDbEntity
  8
2-4
  6
Continuous
 62
     7
370
     9
100
AcDbLine
 10
555.5466935441302
 20
976.1233273067992
 30
0.0
 11
564.2664728937922
 21
976.1233273067992
 31
0.0
  0
LINE
  5
159
330
1F
100
AcDbEntity
  8
2-4
  6
Continuous
 62
     7
370
     9
100
AcDbLine
 10
571.6916470914276
 20
956.9130892366977
 30
0.0
 11
556.4726133604307
 21
937.0793028135561
 31
0.0
  0
LINE
  5
15A
330
1F
100
AcDbEntity
  8
2-4
  6
Continuous
 62
     7
370
     9
100
AcDbLine
 10
571.6916470914276
 20
956.9130892366977
 30
0.0
 11
551.8578606682854
 21
941.694055505701
 31
0.0
  0
LINE
  5
15B
330
1F
100
AcDbEntity
  8
2-4
  6
Continuous
 62
     7
370
     9
100
AcDbLine
 10
571.6916470914276
 20
956.9130892366977
 30
0.0
 11
536.3359605943833
 21
921.5576501794766
 31
0.0
  0
LINE
  5
15C
330
1F
100
AcDbEntity
  8
2-4
  6
Continuous
 62
     7
370
     9
100
AcDbLine
 10
867.0135498046875
 20
673.3767452755492
 30
0.0
 11
861.1210178684547
 21
667.4842133393158
 31
0.0
  0
LINE
  5
15D
330
1F
100
AcDbEntity
  8
2-4
  6
Continuous
 62
     7
370
     9
100
AcDbLine
 10
902.3687414220865
 20
638.0215536581505
 30
0.0
 11
867.0135498046875
 21
673.3767452755492
 31
0.0
  0
LINE
  5
15E
330
1F
100
AcDbEntity
  8
2-4
  6
Continuous
 62
     7
370
     9
100
AcDbLine
 10
896.4762094858531
 20
632.1290217219175
 30
0.0
 11
902.3687414220865
 21
638.0215536581505
 31
0.0
  0
LINE
  5
15F
330
1F
100
AcDbEntity
  8
2-4
  6
Continuous
 62
     7
370
     9
100
AcDbLine
 10
896.4762094858531
 20
632.1290217219175
 30
0.0
 11
861.1210178684547
 21
667.4842133393158
 31
0.0
  0
LINE
  5
160
330
1F
100
AcDbEntity
  8
2-4
  6
Continuous
 62
     7
370
     9
100
AcDbLine
 10
891.9802279085729
 20
636.624755859375
 30
0.0
 11
900.9721910631339
 21
636.624755859375
 31
0.0
  0
LINE
  5
161
330
1F
100
AcDbEntity
  8
2-4
  6
Continuous
 62
     7
370
     9
100
AcDbLine
 10
886.9804588524073
 20
641.6247723553633
 30
0.0
 11
898.7655227248734
 21
641.6247723553633
 31
0.0
  0
LINE
  5
162
330
1F
100
AcDbEntity
  8
2-4
  6
Continuous
 62
     7
370
     9
100
AcDbLine
 10
881.9806897962417
 20
646.6247888513516
 30
0.0
 11
893.7657536687078
 21
646.6247888513516
 31
0.0
  0
LINE
  5
163
330
1F
100
AcDbEntity
  8
2-4
  6
Continuous
 62
     7
370
     9
100
AcDbLine
 10
876.9804258604307
 20
651.6248053473396
 30
0.0
 11
888.7654897328969
 21
651.6248053473396
 31
0.0
  0
LINE
  5
164
330
1F
100
AcDbEntity
  8
2-4
  6
Continuous
 62
     7
370
     9
100
AcDbLine
 10
871.9801619246203
 20
656.6248218433279
 30
0.0
 11
883.7652257970865
 21
656.6248218433279
 31
0.0
  0
LINE
  5
165
330
1F
100
AcDbEntity
  8
2-4
  6
Continuous
 62
     7
370
     9
100
AcDbLine
 10
866.9803928684547
 20
661.6248383393158
 30
0.0
 11
878.7654567409209
 21
661.6248383393158
 31
0.0
  0
LINE
  5
166
330
1F
100
AcDbEntity
  8
2-4
  6
Continuous
 62
     7
370
     9
100
AcDbLine
 10
861.9806238122891
 20
666.6248548353042
 30
0.0
 11
873.7656876847552
 21
666.6248548353042
 31
0.0
  0
LINE
  5
167
330
1F
100
AcDbEntity
  8
2-4
  6
Continuous
 62
     7
370
     9
100
AcDbLine
 10
865.2616758604307
 20
671.6248713312925
 30
0.0
 11
868.7654237489443
 21
671.6248713312925
 31
0.0
  0
LINE
  5
168
330
1F
100
AcDbEntity
  8
2-4
  6
Continuous
 62
     7
370
     9
100
AcDbLine
 10
878.7986136771536
 20
649.8066175306167
 30
0.0
 11
863.5795799461573
 21
629.9728311074748
 31
0.0
  0
LINE
  5
169
330
1F
100
AcDbEntity
  8
2-4
  6
Continuous
 62
     7
370
     9
100
AcDbLine
 10
878.7986136771536
 20
649.8066175306167
 30
0.0
 11
858.964827254012
 21
634.58758379962
 31
0.0
  0
LINE
  5
16A
330
1F
100
AcDbEntity
  8
2-4
  6
Continuous
 62
     7
370
     9
100
AcDbLine
 10
878.7986136771536
 20
649.8066175306167
 30
0.0
 11
843.4434220597552
 21
614.4511784733953
 31
0.0
  0
LINE
  5
16B
330
1F
100
AcDbEntity
  8
2-1
  6
JWW_CENTER1
 62
     2
370
     9
100
AcDbLine
 10
864.0675312763938
 20
670.4307267472552
 30
0.0
 11
619.4133861644849
 21
915.0846244193415
 31
0.0
  0
LINE
  5
16C
330
1F
100
AcDbEntity
  8
1-0
  6
Continuous
 62
     2
370
     9
100
AcDbLine
 10
-1347.491207638302
 20
549.1200132627745
 30
0.0
 11
-1354.352713919975
 21
493.3783783783784
 31
0.0
  0
LINE
  5
16D
330
1F
100
AcDbEntity
  8
1-0
  6
Continuous
 62
     2
370
     9
100
AcDbLine
 10
-1342.546865102407
 20
553.3783288904141
 30
0.0
 11
-1016.852713919975
 21
553.3783288904141
 31
0.0
  0
LINE
  5
16E
330
1F
100
AcDbEntity
  8
1-0
  6
Continuous
 62
     2
370
     9
100
AcDbLine
 10
-1228.257627744933
 20
544.6187117293075
 30
0.0
 11
-1216.852878879856
 21
493.3783783783784
 31
0.0
  0
LINE
  5
16F
330
1F
100
AcDbEntity
  8
1-0
  6
Continuous
 62
     2
370
     9
100
AcDbLine
 10
-1130.447635135135
 20
544.6187117293075
 30
0.0
 11
-1141.852631440034
 21
493.3783783783784
 31
0.0
  0
LINE
  5
170
330
1F
100
AcDbEntity
  8
1-0
  6
Continuous
 62
     2
370
     9
100
AcDbLine
 10
-273.5413834855362
 20
555.8783371384081
 30
0.0
 11
-373.620151829075
 21
555.8783371384081
 31
0.0
  0
LINE
  5
171
330
1F
100
AcDbEntity
  8
1-0
  6
Continuous
 62
     2
370
     9
100
AcDbLine
 10
-258.6441452438766
 20
569.1256466427367
 30
0.0
 11
-245.2028429186021
 21
683.3785103462839
 31
0.0
  0
LINE
  5
172
330
1F
100
AcDbEntity
  8
1-0
  6
Continuous
 62
     2
370
     9
100
AcDbLine
 10
-1016.852713919975
 20
553.3783288904141
 30
0.0
 11
-440.3067923880911
 21
743.3782134184967
 31
0.0
  0
LINE
  5
173
330
1F
100
AcDbEntity
  8
1-0
  6
Continuous
 62
     2
370
     9
100
AcDbLine
 10
-440.3067923880911
 20
743.3782134184967
 30
0.0
 11
-437.4421815614443
 21
798.378147434544
 31
0.0
  0
LINE
  5
174
330
1F
100
AcDbEntity
  8
1-0
  6
Continuous
 62
     2
370
     9
100
AcDbLine
 10
-1354.352713919975
 20
493.3783783783784
 30
0.0
 11
-202.7027027027026
 21
493.3783783783784
 31
0.0
  0
LINE
  5
175
330
1F
100
AcDbEntity
  8
1-0
  6
Continuous
 62
     2
370
     9
100
AcDbLine
 10
-437.4421815614443
 20
798.378147434544
 30
0.0
 11
-403.0184771563555
 21
798.378147434544
 31
0.0
  0
LINE
  5
176
330
1F
100
AcDbEntity
  8
1-0
  6
Continuous
 62
     2
370
     9
100
AcDbLine
 10
-388.5902610985008
 20
569.9327953441724
 30
0.0
 11
-403.0184771563555
 21
798.378147434544
 31
0.0
  0
LINE
  5
177
330
1F
100
AcDbEntity
  8
1-0
  6
Continuous
 62
     2
370
     9
100
AcDbLine
 10
-245.2028429186021
 20
683.3785103462839
 30
0.0
 11
-215.2027439426729
 21
683.3785103462839
 31
0.0
  0
LINE
  5
178
330
1F
100
AcDbEntity
  8
1-0
  6
Continuous
 62
     2
370
     9
100
AcDbLine
 10
-202.7027027027026
 20
493.3783783783784
 30
0.0
 11
-215.2027439426729
 21
683.3785103462839
 31
0.0
  0
LINE
  5
179
330
1F
100
AcDbEntity
  8
1-3
  6
Continuous
 62
     4
370
     9
100
AcDbLine
 10
-197.7026862067143
 20
268.9523150469807
 30
0.0
 11
-197.7026862067143
 21
1048.378229914485
 31
0.0
  0
LINE
  5
17A
330
1F
100
AcDbEntity
  8
1-1
  6
JWW_CENTER1
 62
     2
370
     9
100
AcDbLine
 10
-1179.352878879856
 20
717.4588919974665
 30
0.0
 11
-1179.352878879856
 21
29.22766608160913
 31
0.0
  0
LINE
  5
17B
330
1F
100
AcDbEntity
  8
1-4
  6
Continuous
 62
     7
370
     9
100
AcDbLine
 10
-1124.602859084671
 20
480.8785845782307
 30
0.0
 11
-1109.383825353674
 21
461.0446744351773
 31
0.0
  0
LINE
  5
17C
330
1F
100
AcDbEntity
  8
1-4
  6
Continuous
 62
     7
370
     9
100
AcDbLine
 10
-1124.602859084671
 20
480.8785845782307
 30
0.0
 11
-1115.035722062394
 21
457.7815617741766
 31
0.0
  0
LINE
  5
17D
330
1F
100
AcDbEntity
  8
1-4
  6
Continuous
 62
     7
370
     9
100
AcDbLine
 10
-1124.602859084671
 20
480.8785845782307
 30
0.0
 11
-1055.320945945946
 21
360.8785598342484
 31
0.0
  0
LINE
  5
17E
330
1F
100
AcDbEntity
  8
1-4
  6
Continuous
 62
     7
370
     9
100
AcDbLine
 10
-1055.320945945946
 20
360.8785598342484
 30
0.0
 11
-532.9300751557221
 21
360.8785598342484
 31
0.0
  0
ARC
  5
17F
330
1F
100
AcDbEntity
  8
1-8
  6
Continuous
 62
     4
370
     9
100
AcDbCircle
 10
-1220.390773463894
 20
596.3630799989443
 30
0.0
 40
19.51515159091434
100
AcDbArc
 50
45.36129760742188
 51
134.6389617919922
  0
ARC
  5
180
330
1F
100
AcDbEntity
  8
1-8
  6
Continuous
 62
     4
370
     9
100
AcDbCircle
 10
-1179.352878879856
 20
546.7387761296453
 30
0.0
 40
69.13950378830368
100
AcDbArc
 50
66.71980285644531
 51
113.2803039550781
  0
ARC
  5
181
330
1F
100
AcDbEntity
  8
1-8
  6
Continuous
 62
     4
370
     9
100
AcDbCircle
 10
-1138.314984295819
 20
596.3630799989443
 30
0.0
 40
19.51530430767987
100
AcDbArc
 50
45.36129760742188
 51
134.63818359375
  0
ARC
  5
182
330
1F
100
AcDbEntity
  8
1-8
  6
Continuous
 62
     4
370
     9
100
AcDbCircle
 10
-1220.390773463894
 20
450.3937509897594
 30
0.0
 40
19.51515159091434
100
AcDbArc
 50
225.3610382080078
 51
314.6387023925781
  0
ARC
  5
183
330
1F
100
AcDbEntity
  8
1-8
  6
Continuous
 62
     4
370
     9
100
AcDbCircle
 10
-1179.352878879856
 20
500.0180548590583
 30
0.0
 40
69.13950378830368
100
AcDbArc
 50
246.7196960449219
 51
293.2801971435547
  0
ARC
  5
184
330
1F
100
AcDbEntity
  8
1-8
  6
Continuous
 62
     4
370
     9
100
AcDbCircle
 10
-1138.314984295819
 20
450.3937509897594
 30
0.0
 40
19.51530430767987
100
AcDbArc
 50
225.36181640625
 51
314.6387023925781
  0
ELLIPSE
  5
185
330
1F
100
AcDbEntity
  8
1-8
  6
Continuous
 62
     6
370
     5
100
AcDbEllipse
 10
-303.25927734375
 20
803.8784872519005
 30
0.0
 11
-9.547572852944672
 21
54.14697634238065
 31
0.0
210
0.0
220
0.0
230
1.0
 40
0.3504
 41
0.0
 42
6.283185307179586
  0
CIRCLE
  5
186
330
1F
100
AcDbEntity
  8
2-1
  6
Continuous
 62
     2
370
     9
100
AcDbCircle
 10
1071.255328204181
 20
463.2431772592906
 30
0.0
 40
414.9999773180162
  0
CIRCLE
  5
187
330
1F
100
AcDbEntity
  8
2-1
  6
Continuous
 62
     2
370
     9
100
AcDbCircle
 10
1071.255328204181
 20
463.2431772592906
 30
0.0
 40
421.9999880404086
  0
ARC
  5
188
330
1F
100
AcDbEntity
  8
2-1
  6
Continuous
 62
     2
370
     9
100
AcDbCircle
 10
763.3773391311234
 20
758.3931092958193
 30
0.0
 40
3.999999809909511
100
AcDbArc
 50
316.2090301513672
 51
45.0
  0
ARC
  5
189
330
1F
100
AcDbEntity
  8
2-1
  6
Continuous
 62
     2
370
     9
100
AcDbCircle
 10
1071.255328204181
 20
463.2431772592906
 30
0.0
 40
422.4999402020429
100
AcDbArc
 50
133.7908782958984
 51
136.2091522216797
  0
ARC
  5
18A
330
1F
100
AcDbEntity
  8
2-1
  6
Continuous
 62
     2
370
     9
100
AcDbCircle
 10
776.1051487278297
 20
771.1206714527029
 30
0.0
 40
3.999999809909511
100
AcDbArc
 50
225.0
 51
313.7904815673828
  0
ARC
  5
18B
330
1F
100
AcDbEntity
  8
2-1
  6
Continuous
 62
     2
370
     9
100
AcDbCircle
 10
801.8997604782521
 20
799.0670199007602
 30
0.0
 40
6.000000077324945
100
AcDbArc
 50
308.73193359375
 51
45.00033569335937
  0
ARC
  5
18C
330
1F
100
AcDbEntity
  8
2-1
  6
Continuous
 62
     2
370
     9
100
AcDbCircle
 10
806.8322259026604
 20
799.7910288217906
 30
0.0
 40
3.999999809909511
100
AcDbArc
 50
308.1562652587891
 51
45.0
  0
ARC
  5
18D
330
1F
100
AcDbEntity
  8
2-1
  6
Continuous
 62
     2
370
     9
100
AcDbCircle
 10
1071.255328204181
 20
463.2431772592906
 30
0.0
 40
423.9999822668128
100
AcDbArc
 50
125.7225952148437
 51
128.1564483642578
  0
ARC
  5
18E
330
1F
100
AcDbEntity
  8
2-1
  6
Continuous
 62
     2
370
     9
100
AcDbCircle
 10
821.3623871674412
 20
810.7164867504224
 30
0.0
 40
3.999999809909511
100
AcDbArc
 50
225.0005035400391
 51
305.7226409912109
  0
ARC
  5
18F
330
1F
100
AcDbEntity
  8
2-1
  6
Continuous
 62
     2
370
     9
100
AcDbCircle
 10
822.8727598448057
 20
814.8630832981419
 30
0.0
 40
6.000000077324945
100
AcDbArc
 50
225.0003356933594
 51
305.2369842529297
  0
ARC
  5
190
330
1F
100
AcDbEntity
  8
2-1
  6
Continuous
 62
     2
370
     9
100
AcDbCircle
 10
719.6354221653297
 20
711.6252507390203
 30
0.0
 40
6.000000077324945
100
AcDbArc
 50
324.7630157470703
 51
44.99966430664062
  0
ARC
  5
191
330
1F
100
AcDbEntity
  8
2-1
  6
Continuous
 62
     2
370
     9
100
AcDbCircle
 10
723.782018713049
 20
713.1358708562078
 30
0.0
 40
3.999999809909511
100
AcDbArc
 50
324.2771911621094
 51
44.99999999999999
  0
ARC
  5
192
330
1F
100
AcDbEntity
  8
2-1
  6
Continuous
 62
     2
370
     9
100
AcDbCircle
 10
735.4314855627115
 20
732.5989924250425
 30
0.0
 40
6.000000077324945
100
AcDbArc
 50
224.9996643066406
 51
321.26806640625
  0
ARC
  5
193
330
1F
100
AcDbEntity
  8
2-1
  6
Continuous
 62
     2
370
     9
100
AcDbCircle
 10
1071.255328204181
 20
463.2431772592906
 30
0.0
 40
423.9999822668128
100
AcDbArc
 50
141.8435668945312
 51
144.2774200439453
  0
ARC
  5
194
330
1F
100
AcDbEntity
  8
2-1
  6
Continuous
 62
     2
370
     9
100
AcDbCircle
 10
734.7069817620354
 20
727.666279560811
 30
0.0
 40
3.999999809909511
100
AcDbArc
 50
225.0
 51
321.8431701660156
  0
ARC
  5
195
330
1F
100
AcDbEntity
  8
2-1
  6
Continuous
 62
     2
370
     9
100
AcDbCircle
 10
696.2553282041807
 20
838.2431772592906
 30
0.0
 40
75.0
100
AcDbArc
 50
90.0
 51
180.0
  0
ARC
  5
196
330
1F
100
AcDbEntity
  8
2-1
  6
Continuous
 62
     2
370
     9
100
AcDbCircle
 10
696.2553282041807
 20
838.2431772592906
 30
0.0
 40
73.49999659770245
100
AcDbArc
 50
90.0
 51
180.0
  0
ARC
  5
197
330
1F
100
AcDbEntity
  8
2-1
  6
Continuous
 62
     2
370
     9
100
AcDbCircle
 10
700.8012926256333
 20
890.2431508657096
 30
0.0
 40
6.000000077324945
100
AcDbArc
 50
90.0
 51
215.8437042236328
  0
ARC
  5
198
330
1F
100
AcDbEntity
  8
2-1
  6
Continuous
 62
     2
370
     9
100
AcDbCircle
 10
700.8012926256333
 20
890.2431508657096
 30
0.0
 40
7.999999619819023
100
AcDbArc
 50
90.0
 51
215.8433837890625
  0
ARC
  5
199
330
1F
100
AcDbEntity
  8
2-1
  6
Continuous
 62
     2
370
     9
100
AcDbCircle
 10
710.7231346336573
 20
890.2431508657096
 30
0.0
 40
6.000000077324945
100
AcDbArc
 50
45.00033569335938
 51
90.0
  0
ARC
  5
19A
330
1F
100
AcDbEntity
  8
2-1
  6
Continuous
 62
     2
370
     9
100
AcDbCircle
 10
747.4926922772386
 20
890.2431508657096
 30
0.0
 40
6.000000077324945
100
AcDbArc
 50
90.0
 51
225.0
  0
ARC
  5
19B
330
1F
100
AcDbEntity
  8
2-1
  6
Continuous
 62
     2
370
     9
100
AcDbCircle
 10
747.4926922772386
 20
890.2431508657096
 30
0.0
 40
7.999999619819023
100
AcDbArc
 50
90.0
 51
225.0
  0
ARC
  5
19C
330
1F
100
AcDbEntity
  8
2-1
  6
Continuous
 62
     2
370
     9
100
AcDbCircle
 10
710.7231346336573
 20
890.2431508657096
 30
0.0
 40
7.999999619819023
100
AcDbArc
 50
45.00033569335938
 51
90.0
  0
ARC
  5
19D
330
1F
100
AcDbEntity
  8
2-1
  6
Continuous
 62
     2
370
     9
100
AcDbCircle
 10
644.255354597762
 20
787.0058131862334
 30
0.0
 40
6.000000077324945
100
AcDbArc
 50
45.0
 51
180.0
  0
ARC
  5
19E
330
1F
100
AcDbEntity
  8
2-1
  6
Continuous
 62
     2
370
     9
100
AcDbCircle
 10
644.255354597762
 20
787.0058131862334
 30
0.0
 40
7.999999619819023
100
AcDbArc
 50
44.999755859375
 51
180.0
  0
ARC
  5
19F
330
1F
100
AcDbEntity
  8
2-1
  6
Continuous
 62
     2
370
     9
100
AcDbCircle
 10
644.255354597762
 20
823.7751233899917
 30
0.0
 40
6.000000077324945
100
AcDbArc
 50
180.0
 51
225.0
  0
ARC
  5
1A0
330
1F
100
AcDbEntity
  8
2-1
  6
Continuous
 62
     2
370
     9
100
AcDbCircle
 10
644.255354597762
 20
823.7751233899917
 30
0.0
 40
7.999999619819023
100
AcDbArc
 50
180.0
 51
225.0
  0
ARC
  5
1A1
330
1F
100
AcDbEntity
  8
2-1
  6
Continuous
 62
     2
370
     9
100
AcDbCircle
 10
644.255354597762
 20
833.697212837838
 30
0.0
 40
6.000000077324945
100
AcDbArc
 50
54.15629577636719
 51
180.0
  0
ARC
  5
1A2
330
1F
100
AcDbEntity
  8
2-1
  6
Continuous
 62
     2
370
     9
100
AcDbCircle
 10
667.9709769584036
 20
866.5275285050677
 30
0.0
 40
32.49999896900074
100
AcDbArc
 50
234.1563568115234
 51
35.8435516357422
  0
ARC
  5
1A3
330
1F
100
AcDbEntity
  8
2-1
  6
Continuous
 62
     2
370
     9
100
AcDbCircle
 10
644.255354597762
 20
833.697212837838
 30
0.0
 40
7.999999619819023
100
AcDbArc
 50
54.15652465820313
 51
180.0
  0
ARC
  5
1A4
330
1F
100
AcDbEntity
  8
2-1
  6
Continuous
 62
     2
370
     9
100
AcDbCircle
 10
667.9709769584036
 20
866.5275285050677
 30
0.0
 40
34.49999706165211
100
AcDbArc
 50
333.8451843261719
 51
35.84349060058599
  0
ARC
  5
1A5
330
1F
100
AcDbEntity
  8
2-1
  6
Continuous
 62
     2
370
     9
100
AcDbCircle
 10
704.3238459406672
 20
848.6749927417654
 30
0.0
 40
6.000000077324945
100
AcDbArc
 50
153.8450164794922
 51
226.0218048095703
  0
ARC
  5
1A6
330
1F
100
AcDbEntity
  8
2-1
  6
Continuous
 62
     2
370
     9
100
AcDbCircle
 10
699.3473362278297
 20
847.8787313925255
 30
0.0
 40
3.999999809909511
100
AcDbArc
 50
149.2744445800781
 51
225.0
  0
ARC
  5
1A7
330
1F
100
AcDbEntity
  8
2-1
  6
Continuous
 62
     2
370
     9
100
AcDbCircle
 10
777.5615795238599
 20
778.0037049989443
 30
0.0
 40
6.000000077324945
100
AcDbArc
 50
226.0218048095703
 51
313.0169982910156
  0
ARC
  5
1A8
330
1F
100
AcDbEntity
  8
2-1
  6
Continuous
 62
     2
370
     9
100
AcDbCircle
 10
1071.255328204181
 20
463.2431772592906
 30
0.0
 40
424.499934428447
100
AcDbArc
 50
128.7322387695313
 51
133.0169982910157
  0
ARC
  5
1A9
330
1F
100
AcDbEntity
  8
2-1
  6
Continuous
 62
     2
370
     9
100
AcDbCircle
 10
667.9709769584036
 20
866.5275285050677
 30
0.0
 40
34.49999706165211
100
AcDbArc
 50
234.1564178466797
 51
296.1548156738281
  0
ARC
  5
1AA
330
1F
100
AcDbEntity
  8
2-1
  6
Continuous
 62
     2
370
     9
100
AcDbCircle
 10
685.8232652818833
 20
830.1744120829815
 30
0.0
 40
6.000000077324945
100
AcDbArc
 50
43.97819519042969
 51
116.1545562744141
  0
ARC
  5
1AB
330
1F
100
AcDbEntity
  8
2-1
  6
Continuous
 62
     2
370
     9
100
AcDbCircle
 10
686.6195266311234
 20
835.1509217958193
 30
0.0
 40
3.999999809909511
100
AcDbArc
 50
45.00050354003906
 51
120.7255554199219
  0
ARC
  5
1AC
330
1F
100
AcDbEntity
  8
2-1
  6
Continuous
 62
     2
370
     9
100
AcDbCircle
 10
1071.255328204181
 20
463.2431772592906
 30
0.0
 40
424.499934428447
100
AcDbArc
 50
136.9830169677734
 51
141.2677917480469
  0
ARC
  5
1AD
330
1F
100
AcDbEntity
  8
2-1
  6
Continuous
 62
     2
370
     9
100
AcDbCircle
 10
756.4945530247047
 20
756.9366784997891
 30
0.0
 40
6.000000077324945
100
AcDbArc
 50
316.9833221435547
 51
43.97819519042969
  0
ARC
  5
1AE
330
1F
100
AcDbEntity
  8
2-1
  6
Continuous
 62
     2
370
     9
100
AcDbCircle
 10
948.7552952122047
 20
883.2430782833617
 30
0.0
 40
13.00000016753738
100
AcDbArc
 50
286.2602996826172
 51
90.0
  0
ARC
  5
1AF
330
1F
100
AcDbEntity
  8
2-1
  6
Continuous
 62
     2
370
     9
100
AcDbCircle
 10
1071.255328204181
 20
463.2431772592906
 30
0.0
 40
424.499934428447
100
AcDbArc
 50
106.2601928710938
 51
125.2371673583985
  0
ARC
  5
1B0
330
1F
100
AcDbEntity
  8
2-1
  6
Continuous
 62
     2
370
     9
100
AcDbCircle
 10
948.7552952122047
 20
883.2430782833617
 30
0.0
 40
14.99999922675056
100
AcDbArc
 50
315.6928253173828
 51
90.0
  0
ARC
  5
1B1
330
1F
100
AcDbEntity
  8
2-1
  6
Continuous
 62
     2
370
     9
100
AcDbCircle
 10
1071.255328204181
 20
463.2431772592906
 30
0.0
 40
424.499934428447
100
AcDbArc
 50
164.7348175048828
 51
195.2651824951172
  0
ARC
  5
1B2
330
1F
100
AcDbEntity
  8
2-1
  6
Continuous
 62
     2
370
     9
100
AcDbCircle
 10
651.2554271801099
 20
585.7429628114443
 30
0.0
 40
14.99999922675056
100
AcDbArc
 50
180.0
 51
314.3054504394531
  0
ARC
  5
1B3
330
1F
100
AcDbEntity
  8
2-1
  6
Continuous
 62
     2
370
     9
100
AcDbCircle
 10
651.2554271801099
 20
585.7429628114443
 30
0.0
 40
13.00000016753738
100
AcDbArc
 50
180.0
 51
343.7397460937499
  0
ARC
  5
1B4
330
1F
100
AcDbEntity
  8
2-1
  6
Continuous
 62
     2
370
     9
100
AcDbCircle
 10
1071.255328204181
 20
463.2431772592906
 30
0.0
 40
424.499934428447
100
AcDbArc
 50
144.7628479003906
 51
163.7398223876953
  0
ARC
  5
1B5
330
1F
100
AcDbEntity
  8
2-1
  6
Continuous
 62
     2
370
     9
100
AcDbCircle
 10
1379.133317277239
 20
758.3931092958193
 30
0.0
 40
3.999999809909511
100
AcDbArc
 50
135.0
 51
223.7909698486328
  0
ARC
  5
1B6
330
1F
100
AcDbEntity
  8
2-1
  6
Continuous
 62
     2
370
     9
100
AcDbCircle
 10
1071.255328204181
 20
463.2431772592906
 30
0.0
 40
422.4999402020429
100
AcDbArc
 50
43.79084777832031
 51
46.20912170410156
  0
ARC
  5
1B7
330
1F
100
AcDbEntity
  8
2-1
  6
Continuous
 62
     2
370
     9
100
AcDbCircle
 10
1366.405012800887
 20
771.1206714527029
 30
0.0
 40
3.999999809909511
100
AcDbArc
 50
226.2095184326172
 51
315.0
  0
ARC
  5
1B8
330
1F
100
AcDbEntity
  8
2-1
  6
Continuous
 62
     2
370
     9
100
AcDbCircle
 10
1335.677935626056
 20
799.7910288217906
 30
0.0
 40
3.999999809909511
100
AcDbArc
 50
135.0
 51
231.8437347412109
  0
ARC
  5
1B9
330
1F
100
AcDbEntity
  8
2-1
  6
Continuous
 62
     2
370
     9
100
AcDbCircle
 10
1071.255328204181
 20
463.2431772592906
 30
0.0
 40
423.9999822668128
100
AcDbArc
 50
51.84355163574218
 51
54.27740478515625
  0
ARC
  5
1BA
330
1F
100
AcDbEntity
  8
2-1
  6
Continuous
 62
     2
370
     9
100
AcDbCircle
 10
1321.147774361275
 20
810.7164867504224
 30
0.0
 40
3.999999809909511
100
AcDbArc
 50
234.2773590087891
 51
314.999496459961
  0
ARC
  5
1BB
330
1F
100
AcDbEntity
  8
2-1
  6
Continuous
 62
     2
370
     9
100
AcDbCircle
 10
1319.637896563556
 20
814.8630832981419
 30
0.0
 40
6.000000077324945
100
AcDbArc
 50
234.7630157470703
 51
314.9996643066406
  0
ARC
  5
1BC
330
1F
100
AcDbEntity
  8
2-1
  6
Continuous
 62
     2
370
     9
100
AcDbCircle
 10
1422.875234243032
 20
711.6252507390203
 30
0.0
 40
6.000000077324945
100
AcDbArc
 50
135.0003356933594
 51
215.2369842529297
  0
ARC
  5
1BD
330
1F
100
AcDbEntity
  8
2-1
  6
Continuous
 62
     2
370
     9
100
AcDbCircle
 10
1418.728637695312
 20
713.1358708562078
 30
0.0
 40
3.999999809909511
100
AcDbArc
 50
135.0
 51
215.7228088378906
  0
ARC
  5
1BE
330
1F
100
AcDbEntity
  8
2-1
  6
Continuous
 62
     2
370
     9
100
AcDbCircle
 10
1407.07917084565
 20
732.5989924250425
 30
0.0
 40
6.000000077324945
100
AcDbArc
 50
218.73193359375
 51
315.0003356933594
  0
ARC
  5
1BF
330
1F
100
AcDbEntity
  8
2-1
  6
Continuous
 62
     2
370
     9
100
AcDbCircle
 10
1071.255328204181
 20
463.2431772592906
 30
0.0
 40
423.9999822668128
100
AcDbArc
 50
35.72257995605469
 51
38.15643310546875
  0
ARC
  5
1C0
330
1F
100
AcDbEntity
  8
2-1
  6
Continuous
 62
     2
370
     9
100
AcDbCircle
 10
1407.803179766681
 20
727.666279560811
 30
0.0
 40
3.999999809909511
100
AcDbArc
 50
218.1568298339844
 51
315.0
  0
ARC
  5
1C1
330
1F
100
AcDbEntity
  8
2-1
  6
Continuous
 62
     2
370
     9
100
AcDbCircle
 10
1441.709363782728
 20
890.2431508657096
 30
0.0
 40
6.000000077324945
100
AcDbArc
 50
324.1562957763671
 51
90.00000000000001
  0
ARC
  5
1C2
330
1F
100
AcDbEntity
  8
2-1
  6
Continuous
 62
     2
370
     9
100
AcDbCircle
 10
1441.709363782728
 20
890.2431508657096
 30
0.0
 40
7.999999619819023
100
AcDbArc
 50
324.1566162109376
 51
90.00000000000006
  0
ARC
  5
1C3
330
1F
100
AcDbEntity
  8
2-1
  6
Continuous
 62
     2
370
     9
100
AcDbCircle
 10
1431.787521774705
 20
890.2431508657096
 30
0.0
 40
6.000000077324945
100
AcDbArc
 50
90.0
 51
134.9996643066406
  0
ARC
  5
1C4
330
1F
100
AcDbEntity
  8
2-1
  6
Continuous
 62
     2
370
     9
100
AcDbCircle
 10
1395.017964131123
 20
890.2431508657096
 30
0.0
 40
6.000000077324945
100
AcDbArc
 50
315.0000000000001
 51
90.00000000000006
  0
ARC
  5
1C5
330
1F
100
AcDbEntity
  8
2-1
  6
Continuous
 62
     2
370
     9
100
AcDbCircle
 10
1395.017964131123
 20
890.2431508657096
 30
0.0
 40
7.999999619819023
100
AcDbArc
 50
315.0000000000001
 51
90.00000000000006
  0
ARC
  5
1C6
330
1F
100
AcDbEntity
  8
2-1
  6
Continuous
 62
     2
370
     9
100
AcDbCircle
 10
1431.787521774705
 20
890.2431508657096
 30
0.0
 40
7.999999619819023
100
AcDbArc
 50
90.0
 51
134.9996643066406
  0
ARC
  5
1C7
330
1F
100
AcDbEntity
  8
2-1
  6
Continuous
 62
     2
370
     9
100
AcDbCircle
 10
1498.2553018106
 20
787.0058131862334
 30
0.0
 40
6.000000077324945
100
AcDbArc
 50
0.0
 51
135.0
  0
ARC
  5
1C8
330
1F
100
AcDbEntity
  8
2-1
  6
Continuous
 62
     2
370
     9
100
AcDbCircle
 10
1498.2553018106
 20
787.0058131862334
 30
0.0
 40
7.999999619819023
100
AcDbArc
 50
0.0
 51
135.000244140625
  0
ARC
  5
1C9
330
1F
100
AcDbEntity
  8
2-1
  6
Continuous
 62
     2
370
     9
100
AcDbCircle
 10
1498.2553018106
 20
823.7751233899917
 30
0.0
 40
6.000000077324945
100
AcDbArc
 50
315.0000000000001
 51
0.0000000000000509
  0
ARC
  5
1CA
330
1F
100
AcDbEntity
  8
2-1
  6
Continuous
 62
     2
370
     9
100
AcDbCircle
 10
1498.2553018106
 20
823.7751233899917
 30
0.0
 40
7.999999619819023
100
AcDbArc
 50
315.0000000000001
 51
0.0000000000000509
  0
ARC
  5
1CB
330
1F
100
AcDbEntity
  8
2-1
  6
Continuous
 62
     2
370
     9
100
AcDbCircle
 10
1498.2553018106
 20
833.697212837838
 30
0.0
 40
6.000000077324945
100
AcDbArc
 50
0.0
 51
125.8437042236328
  0
ARC
  5
1CC
330
1F
100
AcDbEntity
  8
2-1
  6
Continuous
 62
     2
370
     9
100
AcDbCircle
 10
1474.539679449958
 20
866.5275285050677
 30
0.0
 40
32.49999896900074
100
AcDbArc
 50
144.1564483642578
 51
305.8436431884766
  0
ARC
  5
1CD
330
1F
100
AcDbEntity
  8
2-1
  6
Continuous
 62
     2
370
     9
100
AcDbCircle
 10
1498.2553018106
 20
833.697212837838
 30
0.0
 40
7.999999619819023
100
AcDbArc
 50
0.0
 51
125.8434753417969
  0
ARC
  5
1CE
330
1F
100
AcDbEntity
  8
2-1
  6
Continuous
 62
     2
370
     9
100
AcDbCircle
 10
1474.539679449958
 20
866.5275285050677
 30
0.0
 40
34.49999706165211
100
AcDbArc
 50
144.1565093994141
 51
206.1548156738281
  0
ARC
  5
1CF
330
1F
100
AcDbEntity
  8
2-1
  6
Continuous
 62
     2
370
     9
100
AcDbCircle
 10
1438.186810467694
 20
848.6749927417654
 30
0.0
 40
6.000000077324945
100
AcDbArc
 50
313.9781951904297
 51
26.15498352050783
  0
ARC
  5
1D0
330
1F
100
AcDbEntity
  8
2-1
  6
Continuous
 62
     2
370
     9
100
AcDbCircle
 10
1443.162825300887
 20
847.8787313925255
 30
0.0
 40
3.999999809909511
100
AcDbArc
 50
315.0000000000001
 51
30.72555541992193
  0
ARC
  5
1D1
330
1F
100
AcDbEntity
  8
2-1
  6
Continuous
 62
     2
370
     9
100
AcDbCircle
 10
1474.539679449958
 20
866.5275285050677
 30
0.0
 40
34.49999706165211
100
AcDbArc
 50
243.8451843261719
 51
305.8435821533203
  0
ARC
  5
1D2
330
1F
100
AcDbEntity
  8
2-1
  6
Continuous
 62
     2
370
     9
100
AcDbCircle
 10
1456.687391126478
 20
830.1744120829815
 30
0.0
 40
6.000000077324945
100
AcDbArc
 50
63.84544372558594
 51
136.0218048095703
  0
ARC
  5
1D3
330
1F
100
AcDbEntity
  8
2-1
  6
Continuous
 62
     2
370
     9
100
AcDbCircle
 10
1455.891129777239
 20
835.1509217958193
 30
0.0
 40
3.999999809909511
100
AcDbArc
 50
59.27444458007812
 51
134.999496459961
  0
ARC
  5
1D4
330
1F
100
AcDbEntity
  8
2-1
  6
Continuous
 62
     2
370
     9
100
AcDbCircle
 10
1446.255328204181
 20
838.2431772592906
 30
0.0
 40
73.49999659770245
100
AcDbArc
 50
0.0
 51
90.0
  0
ARC
  5
1D5
330
1F
100
AcDbEntity
  8
2-1
  6
Continuous
 62
     2
370
     9
100
AcDbCircle
 10
1446.255328204181
 20
838.2431772592906
 30
0.0
 40
75.0
100
AcDbArc
 50
0.0
 51
90.0
  0
ARC
  5
1D6
330
1F
100
AcDbEntity
  8
2-1
  6
Continuous
 62
     2
370
     9
100
AcDbCircle
 10
1364.948582004857
 20
778.0037049989443
 30
0.0
 40
6.000000077324945
100
AcDbArc
 50
226.9830017089844
 51
313.9781951904297
  0
ARC
  5
1D7
330
1F
100
AcDbEntity
  8
2-1
  6
Continuous
 62
     2
370
     9
100
AcDbCircle
 10
1386.016103383657
 20
756.9366784997891
 30
0.0
 40
6.000000077324945
100
AcDbArc
 50
136.0218048095703
 51
223.0169982910157
  0
ARC
  5
1D8
330
1F
100
AcDbEntity
  8
2-1
  6
Continuous
 62
     2
370
     9
100
AcDbCircle
 10
1071.255328204181
 20
463.2431772592906
 30
0.0
 40
424.499934428447
100
AcDbArc
 50
38.73220825195312
 51
43.01698303222656
  0
ARC
  5
1D9
330
1F
100
AcDbEntity
  8
2-1
  6
Continuous
 62
     2
370
     9
100
AcDbCircle
 10
1071.255328204181
 20
463.2431772592906
 30
0.0
 40
424.499934428447
100
AcDbArc
 50
74.73480224609375
 51
105.2652740478516
  0
ARC
  5
1DA
330
1F
100
AcDbEntity
  8
2-1
  6
Continuous
 62
     2
370
     9
100
AcDbCircle
 10
1193.754866316512
 20
883.2430782833617
 30
0.0
 40
14.99999922675056
100
AcDbArc
 50
90.0
 51
224.3054504394532
  0
ARC
  5
1DB
330
1F
100
AcDbEntity
  8
2-1
  6
Continuous
 62
     2
370
     9
100
AcDbCircle
 10
1193.754866316512
 20
883.2430782833617
 30
0.0
 40
13.00000016753738
100
AcDbArc
 50
90.0
 51
253.7397003173828
  0
ARC
  5
1DC
330
1F
100
AcDbEntity
  8
2-1
  6
Continuous
 62
     2
370
     9
100
AcDbCircle
 10
1071.255328204181
 20
463.2431772592906
 30
0.0
 40
424.499934428447
100
AcDbArc
 50
54.76283264160156
 51
73.73980712890625
  0
ARC
  5
1DD
330
1F
100
AcDbEntity
  8
2-1
  6
Continuous
 62
     2
370
     9
100
AcDbCircle
 10
1071.255328204181
 20
463.2431772592906
 30
0.0
 40
424.499934428447
100
AcDbArc
 50
344.7348175048829
 51
15.26518249511723
  0
ARC
  5
1DE
330
1F
100
AcDbEntity
  8
2-1
  6
Continuous
 62
     2
370
     9
100
AcDbCircle
 10
1491.255229228252
 20
585.7429628114443
 30
0.0
 40
14.99999922675056
100
AcDbArc
 50
225.6945495605469
 51
0.0000000000000254
  0
ARC
  5
1DF
330
1F
100
AcDbEntity
  8
2-1
  6
Continuous
 62
     2
370
     9
100
AcDbCircle
 10
1071.255328204181
 20
463.2431772592906
 30
0.0
 40
424.499934428447
100
AcDbArc
 50
16.26017761230469
 51
35.23715209960938
  0
ARC
  5
1E0
330
1F
100
AcDbEntity
  8
2-1
  6
Continuous
 62
     2
370
     9
100
AcDbCircle
 10
1491.255229228252
 20
585.7429628114443
 30
0.0
 40
13.00000016753738
100
AcDbArc
 50
196.2602996826172
 51
0.0
  0
ARC
  5
1E1
330
1F
100
AcDbEntity
  8
2-1
  6
Continuous
 62
     2
370
     9
100
AcDbCircle
 10
1340.61089593011
 20
799.0670199007602
 30
0.0
 40
6.000000077324945
100
AcDbArc
 50
134.9996643066406
 51
231.26806640625
  0
ARC
  5
1E2
330
1F
100
AcDbEntity
  8
2-1
  6
Continuous
 62
     2
370
     9
100
AcDbCircle
 10
1071.255328204181
 20
463.2431772592906
 30
0.0
 40
424.499934428447
100
AcDbArc
 50
46.98300170898438
 51
51.26776123046876
  0
ARC
  5
1E3
330
1F
100
AcDbEntity
  8
2-1
  6
Continuous
 62
     2
370
     9
100
AcDbCircle
 10
763.3773391311234
 20
168.093245222762
 30
0.0
 40
3.999999809909511
100
AcDbArc
 50
315.0000000000001
 51
43.79096984863286
  0
ARC
  5
1E4
330
1F
100
AcDbEntity
  8
2-1
  6
Continuous
 62
     2
370
     9
100
AcDbCircle
 10
1071.255328204181
 20
463.2431772592906
 30
0.0
 40
422.4999402020429
100
AcDbArc
 50
223.7908477783203
 51
226.2091217041016
  0
ARC
  5
1E5
330
1F
100
AcDbEntity
  8
2-1
  6
Continuous
 62
     2
370
     9
100
AcDbCircle
 10
776.1051487278297
 20
155.3655593459672
 30
0.0
 40
3.999999809909511
100
AcDbArc
 50
46.20951843261718
 51
135.0
  0
ARC
  5
1E6
330
1F
100
AcDbEntity
  8
2-1
  6
Continuous
 62
     2
370
     9
100
AcDbCircle
 10
801.8997604782521
 20
127.4193346178211
 30
0.0
 40
6.000000077324945
100
AcDbArc
 50
314.9996643066406
 51
51.26806640625001
  0
ARC
  5
1E7
330
1F
100
AcDbEntity
  8
2-1
  6
Continuous
 62
     2
370
     9
100
AcDbCircle
 10
806.8322259026604
 20
126.6953256967906
 30
0.0
 40
3.999999809909511
100
AcDbArc
 50
315.0000000000001
 51
51.84373474121101
  0
ARC
  5
1E8
330
1F
100
AcDbEntity
  8
2-1
  6
Continuous
 62
     2
370
     9
100
AcDbCircle
 10
1071.255328204181
 20
463.2431772592906
 30
0.0
 40
423.9999822668128
100
AcDbArc
 50
231.8435516357422
 51
234.2774047851562
  0
ARC
  5
1E9
330
1F
100
AcDbEntity
  8
2-1
  6
Continuous
 62
     2
370
     9
100
AcDbCircle
 10
821.3623871674412
 20
115.7698677681589
 30
0.0
 40
3.999999809909511
100
AcDbArc
 50
54.27735900878906
 51
134.999496459961
  0
ARC
  5
1EA
330
1F
100
AcDbEntity
  8
2-1
  6
Continuous
 62
     2
370
     9
100
AcDbCircle
 10
822.8727598448057
 20
111.6232712204393
 30
0.0
 40
6.000000077324945
100
AcDbArc
 50
54.76301574707032
 51
134.9996643066406
  0
ARC
  5
1EB
330
1F
100
AcDbEntity
  8
2-1
  6
Continuous
 62
     2
370
     9
100
AcDbCircle
 10
719.6354221653297
 20
214.8609800596495
 30
0.0
 40
6.000000077324945
100
AcDbArc
 50
315.0003356933594
 51
35.23698425292969
  0
ARC
  5
1EC
330
1F
100
AcDbEntity
  8
2-1
  6
Continuous
 62
     2
370
     9
100
AcDbCircle
 10
723.782018713049
 20
213.3504836623734
 30
0.0
 40
3.999999809909511
100
AcDbArc
 50
315.0000000000001
 51
35.72280883789068
  0
ARC
  5
1ED
330
1F
100
AcDbEntity
  8
2-1
  6
Continuous
 62
     2
370
     9
100
AcDbCircle
 10
735.4314855627115
 20
193.8873620935391
 30
0.0
 40
6.000000077324945
100
AcDbArc
 50
38.73193359375001
 51
135.0003356933594
  0
ARC
  5
1EE
330
1F
100
AcDbEntity
  8
2-1
  6
Continuous
 62
     2
370
     9
100
AcDbCircle
 10
1071.255328204181
 20
463.2431772592906
 30
0.0
 40
423.9999822668128
100
AcDbArc
 50
215.7225799560547
 51
218.1564331054688
  0
ARC
  5
1EF
330
1F
100
AcDbEntity
  8
2-1
  6
Continuous
 62
     2
370
     9
100
AcDbCircle
 10
734.7069817620354
 20
198.8200749577703
 30
0.0
 40
3.999999809909511
100
AcDbArc
 50
38.15682983398438
 51
135.0
  0
ARC
  5
1F0
330
1F
100
AcDbEntity
  8
2-1
  6
Continuous
 62
     2
370
     9
100
AcDbCircle
 10
696.2553282041807
 20
88.24317725929063
 30
0.0
 40
75.0
100
AcDbArc
 50
180.0
 51
270.0
  0
ARC
  5
1F1
330
1F
100
AcDbEntity
  8
2-1
  6
Continuous
 62
     2
370
     9
100
AcDbCircle
 10
696.2553282041807
 20
88.24317725929063
 30
0.0
 40
73.49999659770245
100
AcDbArc
 50
180.0
 51
270.0
  0
ARC
  5
1F2
330
1F
100
AcDbEntity
  8
2-1
  6
Continuous
 62
     2
370
     9
100
AcDbCircle
 10
700.8012926256333
 20
36.24320365287161
 30
0.0
 40
6.000000077324945
100
AcDbArc
 50
144.1562957763672
 51
270.0
  0
ARC
  5
1F3
330
1F
100
AcDbEntity
  8
2-1
  6
Continuous
 62
     2
370
     9
100
AcDbCircle
 10
700.8012926256333
 20
36.24320365287161
 30
0.0
 40
7.999999619819023
100
AcDbArc
 50
144.1566162109375
 51
270.0
  0
ARC
  5
1F4
330
1F
100
AcDbEntity
  8
2-1
  6
Continuous
 62
     2
370
     9
100
AcDbCircle
 10
710.7231346336573
 20
36.24320365287161
 30
0.0
 40
6.000000077324945
100
AcDbArc
 50
270.0
 51
314.9996643066406
  0
ARC
  5
1F5
330
1F
100
AcDbEntity
  8
2-1
  6
Continuous
 62
     2
370
     9
100
AcDbCircle
 10
747.4926922772386
 20
36.24320365287161
 30
0.0
 40
6.000000077324945
100
AcDbArc
 50
135.0
 51
270.0
  0
ARC
  5
1F6
330
1F
100
AcDbEntity
  8
2-1
  6
Continuous
 62
     2
370
     9
100
AcDbCircle
 10
747.4926922772386
 20
36.24320365287161
 30
0.0
 40
7.999999619819023
100
AcDbArc
 50
135.0
 51
270.0
  0
ARC
  5
1F7
330
1F
100
AcDbEntity
  8
2-1
  6
Continuous
 62
     2
370
     9
100
AcDbCircle
 10
710.7231346336573
 20
36.24320365287161
 30
0.0
 40
7.999999619819023
100
AcDbArc
 50
270.0
 51
314.9996643066406
  0
ARC
  5
1F8
330
1F
100
AcDbEntity
  8
2-1
  6
Continuous
 62
     2
370
     9
100
AcDbCircle
 10
644.255354597762
 20
139.4805413323482
 30
0.0
 40
6.000000077324945
100
AcDbArc
 50
180.0
 51
315.0
  0
ARC
  5
1F9
330
1F
100
AcDbEntity
  8
2-1
  6
Continuous
 62
     2
370
     9
100
AcDbCircle
 10
644.255354597762
 20
139.4805413323482
 30
0.0
 40
7.999999619819023
100
AcDbArc
 50
180.0
 51
315.000244140625
  0
ARC
  5
1FA
330
1F
100
AcDbEntity
  8
2-1
  6
Continuous
 62
     2
370
     9
100
AcDbCircle
 10
644.255354597762
 20
102.7109836887669
 30
0.0
 40
6.000000077324945
100
AcDbArc
 50
135.0
 51
180.0
  0
ARC
  5
1FB
330
1F
100
AcDbEntity
  8
2-1
  6
Continuous
 62
     2
370
     9
100
AcDbCircle
 10
644.255354597762
 20
102.7109836887669
 30
0.0
 40
7.999999619819023
100
AcDbArc
 50
135.0
 51
180.0
  0
ARC
  5
1FC
330
1F
100
AcDbEntity
  8
2-1
  6
Continuous
 62
     2
370
     9
100
AcDbCircle
 10
644.255354597762
 20
92.78914168074323
 30
0.0
 40
6.000000077324945
100
AcDbArc
 50
180.0
 51
305.8437042236328
  0
ARC
  5
1FD
330
1F
100
AcDbEntity
  8
2-1
  6
Continuous
 62
     2
370
     9
100
AcDbCircle
 10
667.9709769584036
 20
59.95882601351354
 30
0.0
 40
32.49999896900074
100
AcDbArc
 50
324.1564483642578
 51
125.8436431884766
  0
ARC
  5
1FE
330
1F
100
AcDbEntity
  8
2-1
  6
Continuous
 62
     2
370
     9
100
AcDbCircle
 10
644.255354597762
 20
92.78914168074323
 30
0.0
 40
7.999999619819023
100
AcDbArc
 50
180.0
 51
305.8434753417969
  0
ARC
  5
1FF
330
1F
100
AcDbEntity
  8
2-1
  6
Continuous
 62
     2
370
     9
100
AcDbCircle
 10
667.9709769584036
 20
59.95882601351354
 30
0.0
 40
34.49999706165211
100
AcDbArc
 50
324.1565093994141
 51
26.15481567382812
  0
ARC
  5
200
330
1F
100
AcDbEntity
  8
2-1
  6
Continuous
 62
     2
370
     9
100
AcDbCircle
 10
704.3238459406672
 20
77.81136177681589
 30
0.0
 40
6.000000077324945
100
AcDbArc
 50
133.9781951904297
 51
206.1549835205078
  0
ARC
  5
201
330
1F
100
AcDbEntity
  8
2-1
  6
Continuous
 62
     2
370
     9
100
AcDbCircle
 10
699.3473362278297
 20
78.60762312605573
 30
0.0
 40
3.999999809909511
100
AcDbArc
 50
135.0
 51
210.7255554199219
  0
ARC
  5
202
330
1F
100
AcDbEntity
  8
2-1
  6
Continuous
 62
     2
370
     9
100
AcDbCircle
 10
777.5615795238599
 20
148.4824020798143
 30
0.0
 40
6.000000077324945
100
AcDbArc
 50
46.98300170898438
 51
133.9781951904297
  0
ARC
  5
203
330
1F
100
AcDbEntity
  8
2-1
  6
Continuous
 62
     2
370
     9
100
AcDbCircle
 10
1071.255328204181
 20
463.2431772592906
 30
0.0
 40
424.499934428447
100
AcDbArc
 50
226.9830017089844
 51
231.2677612304688
  0
ARC
  5
204
330
1F
100
AcDbEntity
  8
2-1
  6
Continuous
 62
     2
370
     9
100
AcDbCircle
 10
667.9709769584036
 20
59.95882601351354
 30
0.0
 40
34.49999706165211
100
AcDbArc
 50
63.84518432617188
 51
125.8435821533203
  0
ARC
  5
205
330
1F
100
AcDbEntity
  8
2-1
  6
Continuous
 62
     2
370
     9
100
AcDbCircle
 10
685.8232652818833
 20
96.31194243559975
 30
0.0
 40
6.000000077324945
100
AcDbArc
 50
243.8454437255859
 51
316.0218048095703
  0
ARC
  5
206
330
1F
100
AcDbEntity
  8
2-1
  6
Continuous
 62
     2
370
     9
100
AcDbCircle
 10
686.6195266311234
 20
91.335432722762
 30
0.0
 40
3.999999809909511
100
AcDbArc
 50
239.2744445800781
 51
314.999496459961
  0
ARC
  5
207
330
1F
100
AcDbEntity
  8
2-1
  6
Continuous
 62
     2
370
     9
100
AcDbCircle
 10
1071.255328204181
 20
463.2431772592906
 30
0.0
 40
424.499934428447
100
AcDbArc
 50
218.7322082519532
 51
223.0169830322266
  0
ARC
  5
208
330
1F
100
AcDbEntity
  8
2-1
  6
Continuous
 62
     2
370
     9
100
AcDbCircle
 10
756.4945530247047
 20
169.549552298881
 30
0.0
 40
6.000000077324945
100
AcDbArc
 50
316.0218048095703
 51
43.01667785644528
  0
ARC
  5
209
330
1F
100
AcDbEntity
  8
2-1
  6
Continuous
 62
     2
370
     9
100
AcDbCircle
 10
948.7552952122047
 20
43.24315251530834
 30
0.0
 40
13.00000016753738
100
AcDbArc
 50
270.0
 51
73.7397003173828
  0
ARC
  5
20A
330
1F
100
AcDbEntity
  8
2-1
  6
Continuous
 62
     2
370
     9
100
AcDbCircle
 10
1071.255328204181
 20
463.2431772592906
 30
0.0
 40
424.499934428447
100
AcDbArc
 50
234.7628326416016
 51
253.7398071289063
  0
ARC
  5
20B
330
1F
100
AcDbEntity
  8
2-1
  6
Continuous
 62
     2
370
     9
100
AcDbCircle
 10
948.7552952122047
 20
43.24315251530834
 30
0.0
 40
14.99999922675056
100
AcDbArc
 50
270.0
 51
44.30717468261717
  0
ARC
  5
20C
330
1F
100
AcDbEntity
  8
2-1
  6
Continuous
 62
     2
370
     9
100
AcDbCircle
 10
651.2554271801099
 20
340.743391707137
 30
0.0
 40
14.99999922675056
100
AcDbArc
 50
45.69454956054688
 51
180.0
  0
ARC
  5
20D
330
1F
100
AcDbEntity
  8
2-1
  6
Continuous
 62
     2
370
     9
100
AcDbCircle
 10
651.2554271801099
 20
340.743391707137
 30
0.0
 40
13.00000016753738
100
AcDbArc
 50
16.26025390625
 51
180.0
  0
ARC
  5
20E
330
1F
100
AcDbEntity
  8
2-1
  6
Continuous
 62
     2
370
     9
100
AcDbCircle
 10
1071.255328204181
 20
463.2431772592906
 30
0.0
 40
424.499934428447
100
AcDbArc
 50
196.2601776123046
 51
215.2371520996093
  0
ARC
  5
20F
330
1F
100
AcDbEntity
  8
2-1
  6
Continuous
 62
     2
370
     9
100
AcDbCircle
 10
1379.133317277239
 20
168.093245222762
 30
0.0
 40
3.999999809909511
100
AcDbArc
 50
136.2090301513672
 51
225.0
  0
ARC
  5
210
330
1F
100
AcDbEntity
  8
2-1
  6
Continuous
 62
     2
370
     9
100
AcDbCircle
 10
1071.255328204181
 20
463.2431772592906
 30
0.0
 40
422.4999402020429
100
AcDbArc
 50
313.7908782958985
 51
316.2091522216797
  0
ARC
  5
211
330
1F
100
AcDbEntity
  8
2-1
  6
Continuous
 62
     2
370
     9
100
AcDbCircle
 10
1366.405012800887
 20
155.3655593459672
 30
0.0
 40
3.999999809909511
100
AcDbArc
 50
45.0
 51
133.7904815673828
  0
ARC
  5
212
330
1F
100
AcDbEntity
  8
2-1
  6
Continuous
 62
     2
370
     9
100
AcDbCircle
 10
1335.677935626056
 20
126.6953256967906
 30
0.0
 40
3.999999809909511
100
AcDbArc
 50
128.1562652587891
 51
225.0
  0
ARC
  5
213
330
1F
100
AcDbEntity
  8
2-1
  6
Continuous
 62
     2
370
     9
100
AcDbCircle
 10
1071.255328204181
 20
463.2431772592906
 30
0.0
 40
423.9999822668128
100
AcDbArc
 50
305.7225952148438
 51
308.1564483642578
  0
ARC
  5
214
330
1F
100
AcDbEntity
  8
2-1
  6
Continuous
 62
     2
370
     9
100
AcDbCircle
 10
1321.147774361275
 20
115.7698677681589
 30
0.0
 40
3.999999809909511
100
AcDbArc
 50
45.00050354003906
 51
125.7226409912109
  0
ARC
  5
215
330
1F
100
AcDbEntity
  8
2-1
  6
Continuous
 62
     2
370
     9
100
AcDbCircle
 10
1319.637896563556
 20
111.6232712204393
 30
0.0
 40
6.000000077324945
100
AcDbArc
 50
45.00033569335938
 51
125.2369842529297
  0
ARC
  5
216
330
1F
100
AcDbEntity
  8
2-1
  6
Continuous
 62
     2
370
     9
100
AcDbCircle
 10
1422.875234243032
 20
214.8609800596495
 30
0.0
 40
6.000000077324945
100
AcDbArc
 50
144.7630157470703
 51
224.9996643066407
  0
ARC
  5
217
330
1F
100
AcDbEntity
  8
2-1
  6
Continuous
 62
     2
370
     9
100
AcDbCircle
 10
1418.728637695312
 20
213.3504836623734
 30
0.0
 40
3.999999809909511
100
AcDbArc
 50
144.2771911621094
 51
225.0
  0
ARC
  5
218
330
1F
100
AcDbEntity
  8
2-1
  6
Continuous
 62
     2
370
     9
100
AcDbCircle
 10
1407.07917084565
 20
193.8873620935391
 30
0.0
 40
6.000000077324945
100
AcDbArc
 50
44.99966430664062
 51
141.26806640625
  0
ARC
  5
219
330
1F
100
AcDbEntity
  8
2-1
  6
Continuous
 62
     2
370
     9
100
AcDbCircle
 10
1071.255328204181
 20
463.2431772592906
 30
0.0
 40
423.9999822668128
100
AcDbArc
 50
321.8435668945312
 51
324.2774200439453
  0
ARC
  5
21A
330
1F
100
AcDbEntity
  8
2-1
  6
Continuous
 62
     2
370
     9
100
AcDbCircle
 10
1407.803179766681
 20
198.8200749577703
 30
0.0
 40
3.999999809909511
100
AcDbArc
 50
45.0
 51
141.8431701660157
  0
ARC
  5
21B
330
1F
100
AcDbEntity
  8
2-1
  6
Continuous
 62
     2
370
     9
100
AcDbCircle
 10
1441.709363782728
 20
36.24320365287161
 30
0.0
 40
6.000000077324945
100
AcDbArc
 50
270.0
 51
35.84370422363281
  0
ARC
  5
21C
330
1F
100
AcDbEntity
  8
2-1
  6
Continuous
 62
     2
370
     9
100
AcDbCircle
 10
1441.709363782728
 20
36.24320365287161
 30
0.0
 40
7.999999619819023
100
AcDbArc
 50
270.0
 51
35.84338378906252
  0
ARC
  5
21D
330
1F
100
AcDbEntity
  8
2-1
  6
Continuous
 62
     2
370
     9
100
AcDbCircle
 10
1431.787521774705
 20
36.24320365287161
 30
0.0
 40
6.000000077324945
100
AcDbArc
 50
225.0003356933594
 51
270.0
  0
ARC
  5
21E
330
1F
100
AcDbEntity
  8
2-1
  6
Continuous
 62
     2
370
     9
100
AcDbCircle
 10
1395.017964131123
 20
36.24320365287161
 30
0.0
 40
6.000000077324945
100
AcDbArc
 50
270.0
 51
45.0
  0
ARC
  5
21F
330
1F
100
AcDbEntity
  8
2-1
  6
Continuous
 62
     2
370
     9
100
AcDbCircle
 10
1395.017964131123
 20
36.24320365287161
 30
0.0
 40
7.999999619819023
100
AcDbArc
 50
270.0
 51
45.0
  0
ARC
  5
220
330
1F
100
AcDbEntity
  8
2-1
  6
Continuous
 62
     2
370
     9
100
AcDbCircle
 10
1431.787521774705
 20
36.24320365287161
 30
0.0
 40
7.999999619819023
100
AcDbArc
 50
225.0003356933594
 51
270.0
  0
ARC
  5
221
330
1F
100
AcDbEntity
  8
2-1
  6
Continuous
 62
     2
370
     9
100
AcDbCircle
 10
1498.2553018106
 20
139.4805413323482
 30
0.0
 40
6.000000077324945
100
AcDbArc
 50
225.0
 51
0.0
  0
ARC
  5
222
330
1F
100
AcDbEntity
  8
2-1
  6
Continuous
 62
     2
370
     9
100
AcDbCircle
 10
1498.2553018106
 20
139.4805413323482
 30
0.0
 40
7.999999619819023
100
AcDbArc
 50
224.9997558593751
 51
0.0000000000000254
  0
ARC
  5
223
330
1F
100
AcDbEntity
  8
2-1
  6
Continuous
 62
     2
370
     9
100
AcDbCircle
 10
1498.2553018106
 20
102.7109836887669
 30
0.0
 40
6.000000077324945
100
AcDbArc
 50
0.0
 51
45.0
  0
ARC
  5
224
330
1F
100
AcDbEntity
  8
2-1
  6
Continuous
 62
     2
370
     9
100
AcDbCircle
 10
1498.2553018106
 20
102.7109836887669
 30
0.0
 40
7.999999619819023
100
AcDbArc
 50
0.0
 51
45.0
  0
ARC
  5
225
330
1F
100
AcDbEntity
  8
2-1
  6
Continuous
 62
     2
370
     9
100
AcDbCircle
 10
1498.2553018106
 20
92.78914168074323
 30
0.0
 40
6.000000077324945
100
AcDbArc
 50
234.1562957763672
 51
0.0000000000000254
  0
ARC
  5
226
330
1F
100
AcDbEntity
  8
2-1
  6
Continuous
 62
     2
370
     9
100
AcDbCircle
 10
1474.539679449958
 20
59.95882601351354
 30
0.0
 40
32.49999896900074
100
AcDbArc
 50
54.15635681152344
 51
215.8435516357422
  0
ARC
  5
227
330
1F
100
AcDbEntity
  8
2-1
  6
Continuous
 62
     2
370
     9
100
AcDbCircle
 10
1498.2553018106
 20
92.78914168074323
 30
0.0
 40
7.999999619819023
100
AcDbArc
 50
234.1565246582032
 51
0.0000000000000254
  0
ARC
  5
228
330
1F
100
AcDbEntity
  8
2-1
  6
Continuous
 62
     2
370
     9
100
AcDbCircle
 10
1474.539679449958
 20
59.95882601351354
 30
0.0
 40
34.49999706165211
100
AcDbArc
 50
153.8451843261719
 51
215.843490600586
  0
ARC
  5
229
330
1F
100
AcDbEntity
  8
2-1
  6
Continuous
 62
     2
370
     9
100
AcDbCircle
 10
1438.186810467694
 20
77.81136177681589
 30
0.0
 40
6.000000077324945
100
AcDbArc
 50
333.8450164794922
 51
46.02180480957029
  0
ARC
  5
22A
330
1F
100
AcDbEntity
  8
2-1
  6
Continuous
 62
     2
370
     9
100
AcDbCircle
 10
1443.162825300887
 20
78.60762312605573
 30
0.0
 40
3.999999809909511
100
AcDbArc
 50
329.2744445800782
 51
45.00000000000004
  0
ARC
  5
22B
330
1F
100
AcDbEntity
  8
2-1
  6
Continuous
 62
     2
370
     9
100
AcDbCircle
 10
1474.539679449958
 20
59.95882601351354
 30
0.0
 40
34.49999706165211
100
AcDbArc
 50
54.15641784667969
 51
116.1548156738281
  0
ARC
  5
22C
330
1F
100
AcDbEntity
  8
2-1
  6
Continuous
 62
     2
370
     9
100
AcDbCircle
 10
1456.687391126478
 20
96.31194243559975
 30
0.0
 40
6.000000077324945
100
AcDbArc
 50
223.9781951904297
 51
296.1545562744141
  0
ARC
  5
22D
330
1F
100
AcDbEntity
  8
2-1
  6
Continuous
 62
     2
370
     9
100
AcDbCircle
 10
1455.891129777239
 20
91.335432722762
 30
0.0
 40
3.999999809909511
100
AcDbArc
 50
225.0005035400391
 51
300.7255554199219
  0
ARC
  5
22E
330
1F
100
AcDbEntity
  8
2-1
  6
Continuous
 62
     2
370
     9
100
AcDbCircle
 10
1446.255328204181
 20
88.24317725929063
 30
0.0
 40
73.49999659770245
100
AcDbArc
 50
270.0
 51
0.0
  0
ARC
  5
22F
330
1F
100
AcDbEntity
  8
2-1
  6
Continuous
 62
     2
370
     9
100
AcDbCircle
 10
1446.255328204181
 20
88.24317725929063
 30
0.0
 40
75.0
100
AcDbArc
 50
270.0
 51
0.0
  0
ARC
  5
230
330
1F
100
AcDbEntity
  8
2-1
  6
Continuous
 62
     2
370
     9
100
AcDbCircle
 10
1364.948582004857
 20
148.4824020798143
 30
0.0
 40
6.000000077324945
100
AcDbArc
 50
46.02180480957031
 51
133.0169982910157
  0
ARC
  5
231
330
1F
100
AcDbEntity
  8
2-1
  6
Continuous
 62
     2
370
     9
100
AcDbCircle
 10
1386.016103383657
 20
169.549552298881
 30
0.0
 40
6.000000077324945
100
AcDbArc
 50
136.9830017089844
 51
223.9781951904297
  0
ARC
  5
232
330
1F
100
AcDbEntity
  8
2-1
  6
Continuous
 62
     2
370
     9
100
AcDbCircle
 10
1071.255328204181
 20
463.2431772592906
 30
0.0
 40
424.499934428447
100
AcDbArc
 50
316.9830169677734
 51
321.2677917480469
  0
ARC
  5
233
330
1F
100
AcDbEntity
  8
2-1
  6
Continuous
 62
     2
370
     9
100
AcDbCircle
 10
1071.255328204181
 20
463.2431772592906
 30
0.0
 40
424.499934428447
100
AcDbArc
 50
254.7347259521484
 51
285.2651977539062
  0
ARC
  5
234
330
1F
100
AcDbEntity
  8
2-1
  6
Continuous
 62
     2
370
     9
100
AcDbCircle
 10
1193.754866316512
 20
43.24315251530834
 30
0.0
 40
14.99999922675056
100
AcDbArc
 50
135.6945495605468
 51
270.0
  0
ARC
  5
235
330
1F
100
AcDbEntity
  8
2-1
  6
Continuous
 62
     2
370
     9
100
AcDbCircle
 10
1193.754866316512
 20
43.24315251530834
 30
0.0
 40
13.00000016753738
100
AcDbArc
 50
106.2602996826172
 51
270.0
  0
ARC
  5
236
330
1F
100
AcDbEntity
  8
2-1
  6
Continuous
 62
     2
370
     9
100
AcDbCircle
 10
1071.255328204181
 20
463.2431772592906
 30
0.0
 40
424.499934428447
100
AcDbArc
 50
286.2601928710938
 51
305.2371673583984
  0
ARC
  5
237
330
1F
100
AcDbEntity
  8
2-1
  6
Continuous
 62
     2
370
     9
100
AcDbCircle
 10
1491.255229228252
 20
340.743391707137
 30
0.0
 40
14.99999922675056
100
AcDbArc
 50
0.0
 51
134.3054504394532
  0
ARC
  5
238
330
1F
100
AcDbEntity
  8
2-1
  6
Continuous
 62
     2
370
     9
100
AcDbCircle
 10
1071.255328204181
 20
463.2431772592906
 30
0.0
 40
424.499934428447
100
AcDbArc
 50
324.7628479003906
 51
343.7398223876953
  0
ARC
  5
239
330
1F
100
AcDbEntity
  8
2-1
  6
Continuous
 62
     2
370
     9
100
AcDbCircle
 10
1491.255229228252
 20
340.743391707137
 30
0.0
 40
13.00000016753738
100
AcDbArc
 50
0.0
 51
163.7397003173828
  0
ARC
  5
23A
330
1F
100
AcDbEntity
  8
2-1
  6
Continuous
 62
     2
370
     9
100
AcDbCircle
 10
1340.61089593011
 20
127.4193346178211
 30
0.0
 40
6.000000077324945
100
AcDbArc
 50
128.73193359375
 51
225.0003356933594
  0
ARC
  5
23B
330
1F
100
AcDbEntity
  8
2-1
  6
Continuous
 62
     2
370
     9
100
AcDbCircle
 10
1071.255328204181
 20
463.2431772592906
 30
0.0
 40
424.499934428447
100
AcDbArc
 50
308.7322387695312
 51
313.0169982910156
  0
CIRCLE
  5
23C
330
1F
100
AcDbEntity
  8
2-0
  6
Continuous
 62
     2
370
     9
100
AcDbCircle
 10
667.9709769584036
 20
866.5270336254224
 30
0.0
 40
5.999999594044041
  0
CIRCLE
  5
23D
330
1F
100
AcDbEntity
  8
2-0
  6
Continuous
 62
     2
370
     9
100
AcDbCircle
 10
667.9848335884714
 20
866.513176995355
 30
0.0
 40
9.500017037262788
  0
CIRCLE
  5
23E
330
1F
100
AcDbEntity
  8
2-0
  6
Continuous
 62
     2
370
     9
100
AcDbCircle
 10
667.9709769584036
 20
866.5270336254224
 30
0.0
 40
5.052999548009924
  0
CIRCLE
  5
23F
330
1F
100
AcDbEntity
  8
2-0
  6
Continuous
 62
     2
370
     9
100
AcDbCircle
 10
1474.539679449958
 20
866.5270336254224
 30
0.0
 40
5.999999594044041
  0
CIRCLE
  5
240
330
1F
100
AcDbEntity
  8
2-0
  6
Continuous
 62
     2
370
     9
100
AcDbCircle
 10
1474.525822819891
 20
866.513176995355
 30
0.0
 40
9.500017037262788
  0
CIRCLE
  5
241
330
1F
100
AcDbEntity
  8
2-0
  6
Continuous
 62
     2
370
     9
100
AcDbCircle
 10
1474.539679449958
 20
866.5270336254224
 30
0.0
 40
5.052999548009924
  0
CIRCLE
  5
242
330
1F
100
AcDbEntity
  8
2-0
  6
Continuous
 62
     2
370
     9
100
AcDbCircle
 10
1474.539679449958
 20
59.95932089315886
 30
0.0
 40
5.999999594044041
  0
CIRCLE
  5
243
330
1F
100
AcDbEntity
  8
2-0
  6
Continuous
 62
     2
370
     9
100
AcDbCircle
 10
1474.525822819891
 20
59.9731775232263
 30
0.0
 40
9.500017037262788
  0
CIRCLE
  5
244
330
1F
100
AcDbEntity
  8
2-0
  6
Continuous
 62
     2
370
     9
100
AcDbCircle
 10
1474.539679449958
 20
59.95932089315886
 30
0.0
 40
5.052999548009924
  0
CIRCLE
  5
245
330
1F
100
AcDbEntity
  8
2-0
  6
Continuous
 62
     2
370
     9
100
AcDbCircle
 10
667.9709769584036
 20
59.95932089315886
 30
0.0
 40
5.999999594044041
  0
CIRCLE
  5
246
330
1F
100
AcDbEntity
  8
2-0
  6
Continuous
 62
     2
370
     9
100
AcDbCircle
 10
667.9848335884714
 20
59.9731775232263
 30
0.0
 40
9.500017037262788
  0
CIRCLE
  5
247
330
1F
100
AcDbEntity
  8
2-0
  6
Continuous
 62
     2
370
     9
100
AcDbCircle
 10
667.9709769584036
 20
59.95932089315886
 30
0.0
 40
5.052999548009924
  0
CIRCLE
  5
248
330
1F
100
AcDbEntity
  8
2-3
  6
Continuous
 62
     4
370
     9
100
AcDbCircle
 10
1071.255328204181
 20
463.2431772592906
 30
0.0
 40
373.9999719568201
  0
CIRCLE
  5
249
330
1F
100
AcDbEntity
  8
2-3
  6
Continuous
 62
     4
370
     9
100
AcDbCircle
 10
1071.255328204181
 20
463.2431772592906
 30
0.0
 40
364.9999670080237
  0
ARC
  5
24A
330
1F
100
AcDbEntity
  8
1-0
  6
Continuous
 62
     2
370
     9
100
AcDbCircle
 10
-1342.546865102407
 20
548.3783123944258
 30
0.0
 40
5.000000064437454
100
AcDbArc
 50
90.0
 51
171.4690704345703
  0
ARC
  5
24B
330
1F
100
AcDbEntity
  8
1-0
  6
Continuous
 62
     2
370
     9
100
AcDbCircle
 10
-373.620151829075
 20
570.8785103462839
 30
0.0
 40
15.00000019331236
100
AcDbArc
 50
183.6138763427734
 51
270.0
  0
ARC
  5
24C
330
1F
100
AcDbEntity
  8
1-0
  6
Continuous
 62
     2
370
     9
100
AcDbCircle
 10
-273.5413834855362
 20
570.8785103462839
 30
0.0
 40
15.00000019331236
100
AcDbArc
 50
270.0
 51
353.2902526855469
  0
ARC
  5
24D
330
1F
100
AcDbEntity
  8
1-0
  6
Continuous
 62
     2
370
     9
100
AcDbCircle
 10
-1238.180459512247
 20
543.3782958984375
 30
0.0
 40
10.00000012887491
100
AcDbArc
 50
7.125
 51
90.0
  0
ARC
  5
24E
330
1F
100
AcDbEntity
  8
1-0
  6
Continuous
 62
     2
370
     9
100
AcDbCircle
 10
-1120.525050807644
 20
543.3782958984375
 30
0.0
 40
10.00000012887491
100
AcDbArc
 50
90.0
 51
172.875
  0
ARC
  5
24F
330
1F
100
AcDbEntity
  8
1-8
  6
Continuous
 62
     6
370
     5
100
AcDbCircle
 10
-312.9173485008445
 20
848.5022797455658
 30
0.0
 40
116.837163873621
100
AcDbArc
 50
9.5596923828125
 51
205.4046630859375
  0
ARC
  5
250
330
1F
100
AcDbEntity
  8
1-8
  6
Continuous
 62
     6
370
     5
100
AcDbCircle
 10
-299.1791183884078
 20
777.7310263144005
 30
0.0
 40
108.7007007083377
100
AcDbArc
 50
203.3250274658203
 51
338.9935150146484
  0
TEXT
  5
251
330
1F
100
AcDbEntity
  8
1-4
  6
Continuous
 62
     7
370
     0
100
AcDbText
 10
-1560.047195022171
 20
931.2610190561657
 30
0.0
 40
22.86
  1
ボルト：ＳＳ４００
 41
1.148148148148148
  7
ＭＳ ゴシック
100
AcDbText
  0
TEXT
  5
252
330
1F
100
AcDbEntity
  8
1-4
  6
Continuous
 62
     7
370
     0
100
AcDbText
 10
-766.713310447899
 20
1046.556594172298
 30
0.0
 40
22.86
  1
養生材：ポリエチレン
 41
1.15
  7
ＭＳ ゴシック
100
AcDbText
  0
TEXT
  5
253
330
1F
100
AcDbEntity
  8
1-4
  6
Continuous
 62
     7
370
     0
100
AcDbText
 10
-589.5872208878801
 20
1187.274631545608
 30
0.0
 40
22.86
  1
スリーブ：ボイド管
 41
1.148148148148148
  7
ＭＳ ゴシック
100
AcDbText
  0
TEXT
  5
254
330
1F
100
AcDbEntity
  8
2-4
  6
Continuous
 62
     2
370
     0
100
AcDbText
 10
848.7554519240922
 20
-465.8662816722973
 30
0.0
 40
30.48
  1
平面図　Ｓ＝１：１０
 41
1.1125
  7
ＭＳ ゴシック
100
AcDbText
  0
TEXT
  5
255
330
1F
100
AcDbEntity
  8
1-4
  6
Continuous
 62
     2
370
     0
100
AcDbText
 10
-70.51385827966627
 20
-95.98160512563332
 30
0.0
 40
30.48
  1
φ748
 41
1.1
  7
ＭＳ ゴシック
100
AcDbText
  0
TEXT
  5
256
330
1F
100
AcDbEntity
  8
1-4
  6
Continuous
 62
     7
370
     0
100
AcDbText
 10
-1526.078431412981
 20
883.9648764780407
 30
0.0
 40
22.86
  1
電気亜鉛めっき
 41
1.142857142857143
  7
ＭＳ ゴシック
100
AcDbText
  0
TEXT
  5
257
330
1F
100
AcDbEntity
  8
2-4
  6
Continuous
 62
     3
370
     0
100
AcDbText
 10
473.0395550495677
 20
896.8573918816967
 30
0.0
 40
38.1
  1
Ａ
 50
314.9997995031669
  7
ＭＳ ゴシック
100
AcDbText
  0
TEXT
  5
258
330
1F
100
AcDbEntity
  8
2-4
  6
Continuous
 62
     3
370
     0
100
AcDbText
 10
780.1460284076635
 20
589.7509185236343
 30
0.0
 40
38.1
  1
Ａ'
 50
315.0001253103563
 41
1.066666666666666
  7
ＭＳ ゴシック
100
AcDbText
  0
TEXT
  5
259
330
1F
100
AcDbEntity
  8
1-4
  6
Continuous
 62
     2
370
     0
100
AcDbText
 10
-1061.85262319204
 20
-209.3493765836149
 30
0.0
 40
30.48
  1
Ａ－Ａ'断面図　Ｓ＝１：２
 41
1.115
  7
ＭＳ ゴシック
100
AcDbText
  0
TEXT
  5
25A
330
1F
100
AcDbEntity
  8
1-4
  6
Continuous
 62
     2
370
     0
100
AcDbText
 10
87.52509864600952
 20
-1036.792349952491
 30
0.0
 40
30.48
  1
※この図面は、ＭＫＨ（Ｙ）－７５０角枠にセットしたＭＳＶ－１を示します。
 41
1.121527777777778
  7
ＭＳ ゴシック
100
AcDbText
  0
TEXT
  5
25B
330
1F
100
AcDbEntity
  8
1-4
  6
Continuous
 62
     6
370
     0
100
AcDbText
 10
-1043.930044638144
 20
382.0694461966852
 30
0.0
 40
22.86
  1
平座金・・
 41
0.8866666666666665
  7
ＭＳ ゴシック
100
AcDbText
  0
TEXT
  5
25C
330
1F
100
AcDbEntity
  8
1-4
  6
Continuous
 62
     6
370
     0
100
AcDbText
 10
-1043.93006443333
 20
325.2051768369932
 30
0.0
 40
22.86
  1
六角ナット：ＳＳ４００，電気亜鉛めっき
 41
0.8964912280701754
  7
ＭＳ ゴシック
100
AcDbText
  0
TEXT
  5
25D
330
1F
100
AcDbEntity
  8
1-4
  6
Continuous
 62
     6
370
     0
100
AcDbText
 10
-908.930089177312
 20
382.0694461966852
 30
0.0
 40
22.86
  1
：ＳＳ４００，電気亜鉛めっき
 41
0.8952380952380953
  7
ＭＳ ゴシック
100
AcDbText
  0
LWPOLYLINE
  5
25E
330
1F
100
AcDbEntity
  8
1-4
  6
Continuous
 62
     7
370
     9
100
AcDbPolyline
 90
        4
 70
     1
 43
2.0
 10
-196.7026862067143
 20
-111.6216381176096
 42
0.4142135623731
 10
-197.7026862067143
 20
-110.6216381176096
 42
0.4142135623731
 10
-198.7026862067143
 20
-111.6216381176096
 42
0.4142135623731
 10
-197.7026862067143
 20
-112.6216381176096
 42
0.4142135623731
  0
LWPOLYLINE
  5
25F
330
1F
100
AcDbEntity
  8
1-4
  6
Continuous
 62
     7
370
     9
100
AcDbPolyline
 90
        4
 70
     1
 43
2.0
 10
-1.702785182643481
 20
48.37827115445521
 42
0.4142135623731
 10
-2.702785182643481
 20
49.37827115445521
 42
0.4142135623731
 10
-3.702785182643481
 20
48.37827115445521
 42
0.4142135623731
 10
-2.702785182643481
 20
47.37827115445521
 42
0.4142135623731
  0
LWPOLYLINE
  5
260
330
1F
100
AcDbEntity
  8
1-4
  6
Continuous
 62
     7
370
     9
100
AcDbPolyline
 90
        4
 70
     1
 43
2.0
 10
-1.702785182643481
 20
1048.378229914485
 42
0.4142135623731
 10
-2.702785182643481
 20
1049.378229914485
 42
0.4142135623731
 10
-3.702785182643481
 20
1048.378229914485
 42
0.4142135623731
 10
-2.702785182643481
 20
1047.378229914485
 42
0.4142135623731
  0
LWPOLYLINE
  5
261
330
1F
100
AcDbEntity
  8
1-4
  6
Continuous
 62
     7
370
     9
100
AcDbPolyline
 90
        4
 70
     1
 43
2.0
 10
-1528.352796399916
 20
48.37827115445521
 42
0.4142135623731
 10
-1529.352796399916
 20
49.37827115445521
 42
0.4142135623731
 10
-1530.352796399916
 20
48.37827115445521
 42
0.4142135623731
 10
-1529.352796399916
 20
47.37827115445521
 42
0.4142135623731
  0
LWPOLYLINE
  5
262
330
1F
100
AcDbEntity
  8
1-4
  6
Continuous
 62
     7
370
     9
100
AcDbPolyline
 90
        4
 70
     1
 43
2.0
 10
-1528.352796399916
 20
698.3780649546031
 42
0.4142135623731
 10
-1529.352796399916
 20
699.3780649546031
 42
0.4142135623731
 10
-1530.352796399916
 20
698.3780649546031
 42
0.4142135623731
 10
-1529.352796399916
 20
697.3780649546031
 42
0.4142135623731
  0
LWPOLYLINE
  5
263
330
1F
100
AcDbEntity
  8
1-4
  6
Continuous
 62
     7
370
     9
100
AcDbPolyline
 90
        4
 70
     1
 43
2.0
 10
-1628.352878879856
 20
48.37827115445521
 42
0.4142135623731
 10
-1629.352878879856
 20
49.37827115445521
 42
0.4142135623731
 10
-1630.352878879856
 20
48.37827115445521
 42
0.4142135623731
 10
-1629.352878879856
 20
47.37827115445521
 42
0.4142135623731
  0
LWPOLYLINE
  5
264
330
1F
100
AcDbEntity
  8
1-4
  6
Continuous
 62
     7
370
     9
100
AcDbPolyline
 90
        4
 70
     1
 43
2.0
 10
-1628.352878879856
 20
798.378147434544
 42
0.4142135623731
 10
-1629.352878879856
 20
799.378147434544
 42
0.4142135623731
 10
-1630.352878879856
 20
798.378147434544
 42
0.4142135623731
 10
-1629.352878879856
 20
797.3781474345441
 42
0.4142135623731
  0
TEXT
  5
265
330
1F
100
AcDbEntity
  8
1-4
  6
Continuous
 62
     2
370
     0
100
AcDbText
 10
-1644.992880941855
 20
390.878147434544
 30
0.0
 40
30.48
  1
200
 50
90.0
 41
1.083333333333333
  7
ＭＳ ゴシック
100
AcDbText
  0
TEXT
  5
266
330
1F
100
AcDbEntity
  8
1-4
  6
Continuous
 62
     2
370
     0
100
AcDbText
 10
-1544.992767531936
 20
340.8781061945735
 30
0.0
 40
30.48
  1
180
 50
90.0
 41
1.083333333333333
  7
ＭＳ ゴシック
100
AcDbText
  0
TEXT
  5
267
330
1F
100
AcDbEntity
  8
1-4
  6
Continuous
 62
     2
370
     0
100
AcDbText
 10
-18.34281817461978
 20
515.8781886745145
 30
0.0
 40
30.48
  1
250
 50
90.0
 41
1.083333333333333
  7
ＭＳ ゴシック
100
AcDbText
  0
TEXT
  5
268
330
1F
100
AcDbEntity
  8
1-5
  6
Continuous
 62
     4
370
     0
100
AcDbText
 10
-848.6851826129231
 20
-1363.368967870196
 30
0.0
 40
30.48
  1
打込型マンホール鉄蓋　サポートＶ　ＭＳＶ－１－７５０　Ｃ＝２００
 41
0.9234374999999998
  7
ＭＳ ゴシック
100
AcDbText
  0
LINE
  5
269
330
1F
100
AcDbEntity
  8
1-8
  6
Continuous
 62
     3
370
     9
100
AcDbLine
 10
-1276.852953111803
 20
61.3781408361487
 30
0.0
 11
-1276.852953111803
 21
56.37837177998307
 31
0.0
  0
LINE
  5
26A
330
1F
100
AcDbEntity
  8
1-8
  6
Continuous
 62
     3
370
     9
100
AcDbLine
 10
-1251.852870631862
 20
61.3781408361487
 30
0.0
 11
-1276.852953111803
 21
61.3781408361487
 31
0.0
  0
LINE
  5
26B
330
1F
100
AcDbEntity
  8
1-8
  6
Continuous
 62
     3
370
     9
100
AcDbLine
 10
-1251.852870631862
 20
61.3781408361487
 30
0.0
 11
-1251.852870631862
 21
56.37837177998307
 31
0.0
  0
LINE
  5
26C
330
1F
100
AcDbEntity
  8
1-8
  6
Continuous
 62
     3
370
     9
100
AcDbLine
 10
-1081.852928367821
 20
61.3781408361487
 30
0.0
 11
-1081.852928367821
 21
56.37837177998307
 31
0.0
  0
LINE
  5
26D
330
1F
100
AcDbEntity
  8
1-8
  6
Continuous
 62
     3
370
     9
100
AcDbLine
 10
-1106.853010847762
 20
61.3781408361487
 30
0.0
 11
-1081.852928367821
 21
61.3781408361487
 31
0.0
  0
LINE
  5
26E
330
1F
100
AcDbEntity
  8
1-8
  6
Continuous
 62
     3
370
     9
100
AcDbLine
 10
-1106.853010847762
 20
61.3781408361487
 30
0.0
 11
-1106.853010847762
 21
56.37837177998307
 31
0.0
  0
LINE
  5
26F
330
1F
100
AcDbEntity
  8
1-8
  6
JWW_DASHED1
 62
     3
370
     9
100
AcDbLine
 10
-1099.352738663957
 20
-68.62204061972136
 30
0.0
 11
-1099.352738663957
 21
56.37837177998307
 31
0.0
  0
LINE
  5
270
330
1F
100
AcDbEntity
  8
1-8
  6
JWW_DASHED1
 62
     3
370
     9
100
AcDbLine
 10
-1089.352829391892
 20
-68.62204061972136
 30
0.0
 11
-1089.352829391892
 21
56.37837177998307
 31
0.0
  0
LINE
  5
271
330
1F
100
AcDbEntity
  8
1-8
  6
JWW_DASHED1
 62
     3
370
     9
100
AcDbLine
 10
-1089.352829391892
 20
-68.62204061972136
 30
0.0
 11
-1094.35284588788
 21
-93.62187565983959
 31
0.0
  0
LINE
  5
272
330
1F
100
AcDbEntity
  8
1-8
  6
JWW_DASHED1
 62
     3
370
     9
100
AcDbLine
 10
-1099.352738663957
 20
-68.62204061972136
 30
0.0
 11
-1094.35284588788
 21
-93.62187565983959
 31
0.0
  0
LINE
  5
273
330
1F
100
AcDbEntity
  8
1-8
  6
JWW_DASHED1
 62
     3
370
     9
100
AcDbLine
 10
-1259.353019095756
 20
-68.62204061972136
 30
0.0
 11
-1259.353019095756
 21
56.37837177998307
 31
0.0
  0
LINE
  5
274
330
1F
100
AcDbEntity
  8
1-8
  6
JWW_DASHED1
 62
     3
370
     9
100
AcDbLine
 10
-1269.352928367821
 20
-68.62204061972136
 30
0.0
 11
-1269.352928367821
 21
56.37837177998307
 31
0.0
  0
LINE
  5
275
330
1F
100
AcDbEntity
  8
1-8
  6
JWW_DASHED1
 62
     3
370
     9
100
AcDbLine
 10
-1269.352928367821
 20
-68.62204061972136
 30
0.0
 11
-1264.352911871833
 21
-93.62187565983959
 31
0.0
  0
LINE
  5
276
330
1F
100
AcDbEntity
  8
1-8
  6
JWW_DASHED1
 62
     3
370
     9
100
AcDbLine
 10
-1259.353019095756
 20
-68.62204061972136
 30
0.0
 11
-1264.352911871833
 21
-93.62187565983959
 31
0.0
  0
LINE
  5
277
330
1F
100
AcDbEntity
  8
1-A
  6
Continuous
 62
     2
370
     9
100
AcDbLine
 10
-1216.60161757775
 20
67.70709002935916
 30
0.0
 11
-1224.353019818279
 21
61.3782484502579
 31
0.0
  0
LINE
  5
278
330
1F
100
AcDbEntity
  8
1-A
  6
Continuous
 62
     2
370
     9
100
AcDbLine
 10
-1216.60161757775
 20
67.70709002935916
 30
0.0
 11
-1209.88063160486
 21
67.70709002935916
 31
0.0
  0
LINE
  5
279
330
1F
100
AcDbEntity
  8
1-A
  6
Continuous
 62
     2
370
     9
100
AcDbLine
 10
-1209.88063160486
 20
67.70709002935916
 30
0.0
 11
-1209.88063160486
 21
56.37819248052068
 31
0.0
  0
LINE
  5
27A
330
1F
100
AcDbEntity
  8
1-A
  6
Continuous
 62
     2
370
     9
100
AcDbLine
 10
-1224.353019818279
 20
61.3782484502579
 30
0.0
 11
-1224.353016446531
 21
56.37823968499106
 31
0.0
  0
LINE
  5
27B
330
1F
100
AcDbEntity
  8
1-A
  6
Continuous
 62
     2
370
     9
100
AcDbLine
 10
-1221.852878879856
 20
96.37819382091507
 30
0.0
 11
-1221.852878879856
 21
63.41954170656422
 31
0.0
  0
LINE
  5
27C
330
1F
100
AcDbEntity
  8
1-A
  6
Continuous
 62
     2
370
     9
100
AcDbLine
 10
-1142.104104778609
 20
67.70713217620766
 30
0.0
 11
-1134.352695794585
 21
61.37820967515722
 31
0.0
  0
LINE
  5
27D
330
1F
100
AcDbEntity
  8
1-A
  6
Continuous
 62
     2
370
     9
100
AcDbLine
 10
-1142.104104778609
 20
67.70713217620766
 30
0.0
 11
-1148.82508232213
 21
67.70713723382954
 31
0.0
  0
LINE
  5
27E
330
1F
100
AcDbEntity
  8
1-A
  6
Continuous
 62
     2
370
     9
100
AcDbLine
 10
-1148.82508232213
 20
67.70713723382954
 30
0.0
 11
-1148.82508232213
 21
56.37823968499106
 31
0.0
  0
LINE
  5
27F
330
1F
100
AcDbEntity
  8
1-A
  6
Continuous
 62
     2
370
     9
100
AcDbLine
 10
-1134.352695794585
 20
61.37820967515722
 30
0.0
 11
-1134.352697480459
 21
56.37819248052068
 31
0.0
  0
LINE
  5
280
330
1F
100
AcDbEntity
  8
1-A
  6
Continuous
 62
     2
370
     9
100
AcDbLine
 10
-1136.852878879856
 20
96.37810952721807
 30
0.0
 11
-1136.85283336126
 21
63.41958722516068
 31
0.0
  0
LINE
  5
281
330
1F
100
AcDbEntity
  8
1-A
  6
Continuous
 62
     2
370
     9
100
AcDbLine
 10
-1221.852878879856
 20
96.37819382091507
 30
0.0
 11
-1136.852878879856
 21
96.37810952721807
 31
0.0
  0
LINE
  5
282
330
1F
100
AcDbEntity
  8
1-0
  6
Continuous
 62
     4
370
     9
100
AcDbLine
 10
-1284.352882543074
 20
48.37827115445521
 30
0.0
 11
-1074.352882543081
 21
48.37816101108132
 31
0.0
  0
LINE
  5
283
330
1F
100
AcDbEntity
  8
1-0
  6
Continuous
 62
     4
370
     9
100
AcDbLine
 10
-1284.352881978552
 20
56.37827115445589
 30
0.0
 11
-1284.352882543074
 21
48.37827115445521
 31
0.0
  0
LINE
  5
284
330
1F
100
AcDbEntity
  8
1-0
  6
Continuous
 62
     4
370
     9
100
AcDbLine
 10
-1284.352881978552
 20
56.37827115445589
 30
0.0
 11
-1074.352881978559
 21
56.37816101108214
 31
0.0
  0
LINE
  5
285
330
1F
100
AcDbEntity
  8
1-0
  6
Continuous
 62
     4
370
     9
100
AcDbLine
 10
-1074.352881978559
 20
56.37816101108214
 30
0.0
 11
-1074.352882543081
 21
48.37816101108132
 31
0.0
  0
LINE
  5
286
330
1F
100
AcDbEntity
  8
1-0
  6
JWW_CENTER1
 62
     4
370
     9
100
AcDbLine
 10
-1264.352878879856
 20
42.18945584361379
 30
0.0
 11
-1264.352878879856
 21
65.03788248517765
 31
0.0
  0
LINE
  5
287
330
1F
100
AcDbEntity
  8
1-0
  6
Continuous
 62
     4
370
     9
100
AcDbLine
 10
-1254.352878879856
 20
48.37825541968556
 30
0.0
 11
-1254.352878879856
 21
56.37825541968652
 31
0.0
  0
LINE
  5
288
330
1F
100
AcDbEntity
  8
1-0
  6
Continuous
 62
     4
370
     9
100
AcDbLine
 10
-1274.352878879856
 20
48.37826590953057
 30
0.0
 11
-1274.352878879856
 21
56.37826590953182
 31
0.0
  0
LINE
  5
289
330
1F
100
AcDbEntity
  8
1-0
  6
JWW_CENTER1
 62
     4
370
     9
100
AcDbLine
 10
-1094.352885583654
 20
42.18944384752092
 30
0.0
 11
-1094.352885583654
 21
65.03787048908492
 31
0.0
  0
LINE
  5
28A
330
1F
100
AcDbEntity
  8
1-0
  6
Continuous
 62
     4
370
     9
100
AcDbLine
 10
-1104.352885583654
 20
48.37824342359269
 30
0.0
 11
-1104.352885583654
 21
56.3782434235938
 31
0.0
  0
LINE
  5
28B
330
1F
100
AcDbEntity
  8
1-0
  6
Continuous
 62
     4
370
     9
100
AcDbLine
 10
-1084.352885583654
 20
48.37825391343785
 30
0.0
 11
-1084.352885583654
 21
56.37825391343881
 31
0.0
  0
LINE
  5
28C
330
1F
100
AcDbEntity
  8
1-0
  6
Continuous
 62
     4
370
     9
100
AcDbLine
 10
-1146.852881978557
 20
56.3781990367707
 30
0.0
 11
-1146.852882543079
 21
48.37819903676987
 31
0.0
  0
LINE
  5
28D
330
1F
100
AcDbEntity
  8
1-0
  6
Continuous
 62
     4
370
     9
100
AcDbLine
 10
-1211.852881978554
 20
56.37823312876733
 30
0.0
 11
-1211.852882543076
 21
48.37823312876651
 31
0.0
  0
LINE
  5
28E
330
1F
100
AcDbEntity
  8
1-4
  6
Continuous
 62
     7
370
     9
100
AcDbLine
 10
-1145.35291517103
 20
96.37812192325185
 30
0.0
 11
-1135.785654428843
 21
119.4750210073946
 31
0.0
  0
LINE
  5
28F
330
1F
100
AcDbEntity
  8
1-4
  6
Continuous
 62
     7
370
     9
100
AcDbLine
 10
-1145.35291517103
 20
96.37812192325185
 30
0.0
 11
-1130.133881440034
 21
116.2119083463938
 31
0.0
  0
LINE
  5
290
330
1F
100
AcDbEntity
  8
1-4
  6
Continuous
 62
     7
370
     9
100
AcDbLine
 10
-1145.35291517103
 20
96.37812192325185
 30
0.0
 11
-1087.617781355574
 21
196.3780806832816
 31
0.0
  0
TEXT
  5
291
330
1F
100
AcDbEntity
  8
1-4
  6
Continuous
 62
     6
370
     0
100
AcDbText
 10
-1077.486113677154
 20
211.3921267532771
 30
0.0
 40
22.86
  1
固定プレート：ＳＧＨＣ他
 41
0.8944444444444445
  7
ＭＳ ゴシック
100
AcDbText
  0
LINE
  5
292
330
1F
100
AcDbEntity
  8
1-4
  6
Continuous
 62
     7
370
     9
100
AcDbLine
 10
-1087.617781355574
 20
196.3780806832816
 30
0.0
 11
-754.1364406447309
 21
196.3780806832816
 31
0.0
  0
LINE
  5
293
330
1F
100
AcDbEntity
  8
1-8
  6
Continuous
 62
     3
370
     9
100
AcDbLine
 10
-1209.352730415963
 20
246.2370918892526
 30
0.0
 11
-1209.352730415963
 21
96.37818142463593
 31
0.0
  0
LINE
  5
294
330
1F
100
AcDbEntity
  8
1-8
  6
Continuous
 62
     3
370
     9
100
AcDbLine
 10
-1204.352713919975
 20
247.5768548089107
 30
0.0
 11
-1204.352713919975
 21
96.3781764661668
 31
0.0
  0
LINE
  5
295
330
1F
100
AcDbEntity
  8
1-8
  6
Continuous
 62
     3
370
     9
100
AcDbLine
 10
-1154.352796399915
 20
260.9743602855787
 30
0.0
 11
-1154.352796399915
 21
96.37812688172097
 31
0.0
  0
LINE
  5
296
330
1F
100
AcDbEntity
  8
1-8
  6
Continuous
 62
     3
370
     9
100
AcDbLine
 10
-1149.352779903927
 20
262.3141232052365
 30
0.0
 11
-1149.352779903927
 21
96.37812192325185
 31
0.0
  0
LINE
  5
297
330
1F
100
AcDbEntity
  8
1-4
  6
Continuous
 62
     2
370
     9
100
AcDbLine
 10
-1529.352920119827
 20
-1022.772637444573
 30
0.0
 11
-1529.352920119827
 21
-957.773165316195
 31
0.0
  0
LINE
  5
298
330
1F
100
AcDbEntity
  8
1-9
  6
JWW_CENTER1
 62
     2
370
     9
100
AcDbLine
 10
-1179.352878879856
 20
-523.8459901551942
 30
0.0
 11
-1179.352878879856
 21
-781.7003074852196
 31
0.0
  0
LINE
  5
299
330
1F
100
AcDbEntity
  8
1-9
  6
JWW_CENTER1
 62
     2
370
     9
100
AcDbLine
 10
-1308.28016126478
 20
-652.7731488202068
 30
0.0
 11
-1050.425596494932
 21
-652.7731488202068
 31
0.0
  0
LINE
  5
29A
330
1F
100
AcDbEntity
  8
1-4
  6
Continuous
 62
     2
370
     9
100
AcDbLine
 10
-1529.352920119827
 20
-957.773165316195
 30
0.0
 11
-829.3527139199745
 21
-957.773165316195
 31
0.0
  0
LINE
  5
29B
330
1F
100
AcDbEntity
  8
1-4
  6
Continuous
 62
     2
370
     9
100
AcDbLine
 10
-829.3527139199745
 20
-1022.772637444573
 30
0.0
 11
-829.3527139199745
 21
-957.773165316195
 31
0.0
  0
LINE
  5
29C
330
1F
100
AcDbEntity
  8
1-4
  6
Continuous
 62
     2
370
     9
100
AcDbLine
 10
-829.3527139199745
 20
-1022.772637444573
 30
0.0
 11
-1529.352920119827
 21
-1022.772637444573
 31
0.0
  0
LINE
  5
29D
330
1F
100
AcDbEntity
  8
1-4
  6
Continuous
 62
     7
370
     9
100
AcDbLine
 10
-1284.352854135874
 20
-857.7732065561654
 30
0.0
 11
-1074.352903623839
 21
-857.7732065561654
 31
0.0
  0
LINE
  5
29E
330
1F
100
AcDbEntity
  8
1-4
  6
Continuous
 62
     7
370
     9
100
AcDbLine
 10
-1284.352854135874
 20
-677.7731075802363
 30
0.0
 11
-1284.352854135874
 21
-860.7731669657937
 31
0.0
  0
LINE
  5
29F
330
1F
100
AcDbEntity
  8
1-4
  6
Continuous
 62
     7
370
     9
100
AcDbLine
 10
-1074.352903623839
 20
-677.7731075802363
 30
0.0
 11
-1074.352903623839
 21
-860.7731669657937
 31
0.0
  0
LINE
  5
2A0
330
1F
100
AcDbEntity
  8
1-4
  6
Continuous
 62
     7
370
     9
100
AcDbLine
 10
-974.352944863809
 20
-737.7731818121832
 30
0.0
 11
-974.352944863809
 21
-567.7731158282304
 31
0.0
  0
LINE
  5
2A1
330
1F
100
AcDbEntity
  8
1-4
  6
Continuous
 62
     7
370
     9
100
AcDbLine
 10
-1154.352796399915
 20
-737.7731818121832
 30
0.0
 11
-971.3529844541806
 21
-737.7731818121832
 31
0.0
  0
LINE
  5
2A2
330
1F
100
AcDbEntity
  8
1-4
  6
Continuous
 62
     7
370
     9
100
AcDbLine
 10
-1154.352796399915
 20
-567.7731158282304
 30
0.0
 11
-971.3529844541806
 21
-567.7731158282304
 31
0.0
  0
LINE
  5
2A3
330
1F
100
AcDbEntity
  8
1-4
  6
Continuous
 62
     7
370
     9
100
AcDbLine
 10
-1174.352862383868
 20
-559.1128457559121
 30
0.0
 11
-1164.785849081503
 21
-536.0159466717693
 31
0.0
  0
LINE
  5
2A4
330
1F
100
AcDbEntity
  8
1-4
  6
Continuous
 62
     7
370
     9
100
AcDbLine
 10
-1174.352862383868
 20
-559.1128457559121
 30
0.0
 11
-1159.133828652871
 21
-539.2789356128588
 31
0.0
  0
LINE
  5
2A5
330
1F
100
AcDbEntity
  8
1-4
  6
Continuous
 62
     7
370
     9
100
AcDbLine
 10
-1174.352862383868
 20
-559.1128457559121
 30
0.0
 11
-1136.051652238175
 21
-492.7731158282305
 31
0.0
  0
LINE
  5
2A6
330
1F
100
AcDbEntity
  8
1-4
  6
Continuous
 62
     7
370
     9
100
AcDbLine
 10
-1136.051652238175
 20
-492.7731158282305
 30
0.0
 11
-978.9377573374155
 21
-492.7731158282305
 31
0.0
  0
TEXT
  5
2A7
330
1F
100
AcDbEntity
  8
1-4
  6
Continuous
 62
     7
370
     0
100
AcDbText
 10
-1123.965850005279
 20
-480.5952250052786
 30
0.0
 40
22.86
  1
４－φ４
 41
1.125
  7
ＭＳ ゴシック
100
AcDbText
  0
TEXT
  5
2A8
330
1F
100
AcDbEntity
  8
1-4
  6
Continuous
 62
     2
370
     0
100
AcDbText
 10
-989.9929778557854
 20
-674.0231488202068
 30
0.0
 40
30.48
  1
34
 50
90.0
 41
1.0625
  7
ＭＳ ゴシック
100
AcDbText
  0
TEXT
  5
2A9
330
1F
100
AcDbEntity
  8
1-4
  6
Continuous
 62
     2
370
     0
100
AcDbText
 10
-1223.10297166979
 20
-842.1331735641891
 30
0.0
 40
30.48
  1
φ42
 41
1.09375
  7
ＭＳ ゴシック
100
AcDbText
  0
TEXT
  5
2AA
330
1F
100
AcDbEntity
  8
1-4
  6
Continuous
 62
     2
370
     0
100
AcDbText
 10
-1514.352755159945
 20
-1004.632967364337
 30
0.0
 40
30.48
  1
固定プレート平面図　Ｓ＝１：２
 41
1.116666666666666
  7
ＭＳ ゴシック
100
AcDbText
  0
LWPOLYLINE
  5
2AB
330
1F
100
AcDbEntity
  8
1-4
  6
Continuous
 62
     7
370
     9
100
AcDbPolyline
 90
        4
 70
     1
 43
2.0
 10
-1283.352854135874
 20
-857.7732065561654
 42
0.4142135623731
 10
-1284.352854135874
 20
-856.7732065561654
 42
0.4142135623731
 10
-1285.352854135874
 20
-857.7732065561654
 42
0.4142135623731
 10
-1284.352854135874
 20
-858.7732065561653
 42
0.4142135623731
  0
LWPOLYLINE
  5
2AC
330
1F
100
AcDbEntity
  8
1-4
  6
Continuous
 62
     7
370
     9
100
AcDbPolyline
 90
        4
 70
     1
 43
2.0
 10
-1073.352903623839
 20
-857.7732065561654
 42
0.4142135623731
 10
-1074.352903623839
 20
-856.7732065561654
 42
0.4142135623731
 10
-1075.352903623839
 20
-857.7732065561654
 42
0.4142135623731
 10
-1074.352903623839
 20
-858.7732065561653
 42
0.4142135623731
  0
LWPOLYLINE
  5
2AD
330
1F
100
AcDbEntity
  8
1-4
  6
Continuous
 62
     7
370
     9
100
AcDbPolyline
 90
        4
 70
     1
 43
2.0
 10
-973.3529448638091
 20
-737.7731818121832
 42
0.4142135623731
 10
-974.352944863809
 20
-736.7731818121832
 42
0.4142135623731
 10
-975.352944863809
 20
-737.7731818121832
 42
0.4142135623731
 10
-974.352944863809
 20
-738.7731818121831
 42
0.4142135623731
  0
LWPOLYLINE
  5
2AE
330
1F
100
AcDbEntity
  8
1-4
  6
Continuous
 62
     7
370
     9
100
AcDbPolyline
 90
        4
 70
     1
 43
2.0
 10
-973.3529448638091
 20
-567.7731158282304
 42
0.4142135623731
 10
-974.352944863809
 20
-566.7731158282304
 42
0.4142135623731
 10
-975.352944863809
 20
-567.7731158282304
 42
0.4142135623731
 10
-974.352944863809
 20
-568.7731158282305
 42
0.4142135623731
  0
CIRCLE
  5
2AF
330
1F
100
AcDbEntity
  8
1-A
  6
Continuous
 62
     2
370
     9
100
AcDbCircle
 10
-1179.352878879856
 20
-652.7731488202068
 30
0.0
 40
30.0
  0
CIRCLE
  5
2B0
330
1F
100
AcDbEntity
  8
1-A
  6
Continuous
 62
     2
370
     9
100
AcDbCircle
 10
-1179.352878879856
 20
-652.7731488202068
 30
0.0
 40
21.25
  0
LINE
  5
2B1
330
1F
100
AcDbEntity
  8
1-A
  6
Continuous
 62
     2
370
     9
100
AcDbLine
 10
-1224.353004255225
 20
-619.7452724057077
 30
0.0
 11
-1224.35308096249
 21
-607.7729467375734
 31
0.0
  0
LINE
  5
2B2
330
1F
100
AcDbEntity
  8
1-A
  6
Continuous
 62
     2
370
     9
100
AcDbLine
 10
-1224.35308096249
 20
-607.7729467375734
 30
0.0
 11
-1212.38057321997
 21
-607.7730301883335
 31
0.0
  0
ARC
  5
2B3
330
1F
100
AcDbEntity
  8
1-A
  6
Continuous
 62
     2
370
     9
100
AcDbCircle
 10
-1191.852904291206
 20
-640.2731234088577
 30
0.0
 40
35.0
100
AcDbArc
 50
121.0026092529297
 51
148.9973449707031
  0
LINE
  5
2B4
330
1F
100
AcDbEntity
  8
1-A
  6
Continuous
 62
     2
370
     9
100
AcDbLine
 10
-1212.380755294355
 20
-697.7732741955758
 30
0.0
 11
-1224.35308096249
 21
-697.77335090284
 31
0.0
  0
LINE
  5
2B5
330
1F
100
AcDbEntity
  8
1-A
  6
Continuous
 62
     2
370
     9
100
AcDbLine
 10
-1224.35308096249
 20
-697.77335090284
 30
0.0
 11
-1224.35299751173
 21
-685.8008431603201
 31
0.0
  0
ARC
  5
2B6
330
1F
100
AcDbEntity
  8
1-A
  6
Continuous
 62
     2
370
     9
100
AcDbCircle
 10
-1191.852904291206
 20
-665.2731742315558
 30
0.0
 40
35.0
100
AcDbArc
 50
211.0026092529297
 51
238.9973449707031
  0
LINE
  5
2B7
330
1F
100
AcDbEntity
  8
1-A
  6
Continuous
 62
     2
370
     9
100
AcDbLine
 10
-1134.352753504487
 20
-685.8010252347058
 30
0.0
 11
-1134.352676797223
 21
-697.77335090284
 31
0.0
  0
LINE
  5
2B8
330
1F
100
AcDbEntity
  8
1-A
  6
Continuous
 62
     2
370
     9
100
AcDbLine
 10
-1134.352676797223
 20
-697.77335090284
 30
0.0
 11
-1146.325184539743
 21
-697.7732674520801
 31
0.0
  0
ARC
  5
2B9
330
1F
100
AcDbEntity
  8
1-A
  6
Continuous
 62
     2
370
     9
100
AcDbCircle
 10
-1166.852853468507
 20
-665.2731742315559
 30
0.0
 40
35.0
100
AcDbArc
 50
301.0026092529297
 51
328.9973449707031
  0
LINE
  5
2BA
330
1F
100
AcDbEntity
  8
1-A
  6
Continuous
 62
     2
370
     9
100
AcDbLine
 10
-1146.325002465357
 20
-607.7730234448377
 30
0.0
 11
-1134.352676797223
 21
-607.7729467375735
 31
0.0
  0
LINE
  5
2BB
330
1F
100
AcDbEntity
  8
1-A
  6
Continuous
 62
     2
370
     9
100
AcDbLine
 10
-1134.352676797223
 20
-607.7729467375735
 30
0.0
 11
-1134.352760247983
 21
-619.7454544800934
 31
0.0
  0
ARC
  5
2BC
330
1F
100
AcDbEntity
  8
1-A
  6
Continuous
 62
     2
370
     9
100
AcDbCircle
 10
-1166.852853468507
 20
-640.2731234088577
 30
0.0
 40
35.0
100
AcDbArc
 50
31.00260925292969
 51
58.99734497070312
  0
LINE
  5
2BD
330
1F
100
AcDbEntity
  8
1-A
  6
Continuous
 62
     2
370
     9
100
AcDbLine
 10
-1209.880629920969
 20
-610.2731488202068
 30
0.0
 11
-1212.38057321997
 21
-607.7730301883335
 31
0.0
  0
LINE
  5
2BE
330
1F
100
AcDbEntity
  8
1-A
  6
Continuous
 62
     2
370
     9
100
AcDbLine
 10
-1221.852878879856
 20
-622.2453977810767
 30
0.0
 11
-1224.353004255225
 21
-619.7452724057077
 31
0.0
  0
LINE
  5
2BF
330
1F
100
AcDbEntity
  8
1-A
  6
Continuous
 62
     2
370
     9
100
AcDbLine
 10
-1148.825127840726
 20
-610.2731488202068
 30
0.0
 11
-1146.325002465357
 21
-607.7730234448377
 31
0.0
  0
LINE
  5
2C0
330
1F
100
AcDbEntity
  8
1-A
  6
Continuous
 62
     2
370
     9
100
AcDbLine
 10
-1148.825127840726
 20
-610.2731488202068
 30
0.0
 11
-1209.880629920969
 21
-610.2731488202068
 31
0.0
  0
LINE
  5
2C1
330
1F
100
AcDbEntity
  8
1-A
  6
Continuous
 62
     2
370
     9
100
AcDbLine
 10
-1136.852878879856
 20
-622.2453977790942
 30
0.0
 11
-1134.352760247983
 21
-619.7454544800934
 31
0.0
  0
LINE
  5
2C2
330
1F
100
AcDbEntity
  8
1-A
  6
Continuous
 62
     2
370
     9
100
AcDbLine
 10
-1136.852878879856
 20
-683.3008998593368
 30
0.0
 11
-1134.352753504487
 21
-685.8010252347058
 31
0.0
  0
LINE
  5
2C3
330
1F
100
AcDbEntity
  8
1-A
  6
Continuous
 62
     2
370
     9
100
AcDbLine
 10
-1136.852878879856
 20
-683.3008998593368
 30
0.0
 11
-1136.852878879856
 21
-622.2453977790942
 31
0.0
  0
LINE
  5
2C4
330
1F
100
AcDbEntity
  8
1-A
  6
Continuous
 62
     2
370
     9
100
AcDbLine
 10
-1148.825127838744
 20
-695.2731488202068
 30
0.0
 11
-1146.325184539743
 21
-697.7732674520801
 31
0.0
  0
LINE
  5
2C5
330
1F
100
AcDbEntity
  8
1-A
  6
Continuous
 62
     2
370
     9
100
AcDbLine
 10
-1209.880629918986
 20
-695.2731488202068
 30
0.0
 11
-1212.380755294355
 21
-697.7732741955758
 31
0.0
  0
LINE
  5
2C6
330
1F
100
AcDbEntity
  8
1-A
  6
Continuous
 62
     2
370
     9
100
AcDbLine
 10
-1209.880629918986
 20
-695.2731488202068
 30
0.0
 11
-1148.825127838744
 21
-695.2731488202068
 31
0.0
  0
LINE
  5
2C7
330
1F
100
AcDbEntity
  8
1-A
  6
Continuous
 62
     2
370
     9
100
AcDbLine
 10
-1221.852878879856
 20
-683.3008998613194
 30
0.0
 11
-1224.35299751173
 21
-685.8008431603201
 31
0.0
  0
LINE
  5
2C8
330
1F
100
AcDbEntity
  8
1-A
  6
Continuous
 62
     2
370
     9
100
AcDbLine
 10
-1221.852878879856
 20
-622.2453977810767
 30
0.0
 11
-1221.852878879856
 21
-683.3008998613194
 31
0.0
  0
CIRCLE
  5
2C9
330
1F
100
AcDbEntity
  8
1-0
  6
Continuous
 62
     4
370
     9
100
AcDbCircle
 10
-1179.352878879856
 20
-652.7731488202068
 30
0.0
 40
105.0
  0
CIRCLE
  5
2CA
330
1F
100
AcDbEntity
  8
1-0
  6
Continuous
 62
     4
370
     9
100
AcDbCircle
 10
-1094.352878879856
 20
-652.7731488202068
 30
0.0
 40
10.0
  0
LINE
  5
2CB
330
1F
100
AcDbEntity
  8
1-0
  6
JWW_CENTER1
 62
     4
370
     9
100
AcDbLine
 10
-1094.352878879856
 20
-637.0627324602721
 30
0.0
 11
-1094.352878879856
 21
-668.7669841897042
 31
0.0
  0
CIRCLE
  5
2CC
330
1F
100
AcDbEntity
  8
1-0
  6
Continuous
 62
     4
370
     9
100
AcDbCircle
 10
-1179.352878879856
 20
-567.7731488202068
 30
0.0
 40
10.0
  0
LINE
  5
2CD
330
1F
100
AcDbEntity
  8
1-0
  6
JWW_CENTER1
 62
     4
370
     9
100
AcDbLine
 10
-1195.063295239791
 20
-567.7731488202068
 30
0.0
 11
-1163.359043510359
 21
-567.7731488202068
 31
0.0
  0
CIRCLE
  5
2CE
330
1F
100
AcDbEntity
  8
1-0
  6
Continuous
 62
     4
370
     9
100
AcDbCircle
 10
-1264.352878879856
 20
-652.7731488202068
 30
0.0
 40
10.0
  0
LINE
  5
2CF
330
1F
100
AcDbEntity
  8
1-0
  6
JWW_CENTER1
 62
     4
370
     9
100
AcDbLine
 10
-1264.352878879856
 20
-668.4835651801416
 30
0.0
 11
-1264.352878879856
 21
-636.7793134507093
 31
0.0
  0
CIRCLE
  5
2D0
330
1F
100
AcDbEntity
  8
1-0
  6
Continuous
 62
     4
370
     9
100
AcDbCircle
 10
-1179.352878879856
 20
-737.7731488202068
 30
0.0
 40
10.0
  0
LINE
  5
2D1
330
1F
100
AcDbEntity
  8
1-0
  6
JWW_CENTER1
 62
     4
370
     9
100
AcDbLine
 10
-1163.642462519922
 20
-737.7731488202068
 30
0.0
 11
-1195.346714249354
 21
-737.7731488202068
 31
0.0
  0
CIRCLE
  5
2D2
330
1F
100
AcDbEntity
  8
2-1
  6
Continuous
 62
     6
370
     5
100
AcDbCircle
 10
667.9709932364822
 20
866.5271617069859
 30
0.0
 40
12.0
  0
CIRCLE
  5
2D3
330
1F
100
AcDbEntity
  8
2-1
  6
Continuous
 62
     6
370
     5
100
AcDbCircle
 10
667.9647028206176
 20
59.95304675537268
 30
0.0
 40
12.0
  0
CIRCLE
  5
2D4
330
1F
100
AcDbEntity
  8
2-1
  6
Continuous
 62
     6
370
     5
100
AcDbCircle
 10
1474.522650076713
 20
866.5100202382354
 30
0.0
 40
12.0
  0
CIRCLE
  5
2D5
330
1F
100
AcDbEntity
  8
2-1
  6
Continuous
 62
     6
370
     5
100
AcDbCircle
 10
1474.539271433977
 20
59.95908784684136
 30
0.0
 40
12.0
  0
ENDSEC
  0
SECTION
  2
OBJECTS
  0
DICTIONARY
  5
C
330
0
100
AcDbDictionary
281
     1
  3
ACAD_DETAILVIEWSTYLE
350
2DD
  3
ACAD_GROUP
350
D
  3
ACAD_LAYOUT
350
1A
  3
ACAD_MATERIAL
350
43
  3
ACAD_MLEADERSTYLE
350
6B
  3
ACAD_MLINESTYLE
350
17
  3
ACAD_PLOTSETTINGS
350
19
  3
ACAD_PLOTSTYLENAME
350
E
  3
ACAD_SCALELIST
350
47
  3
ACAD_SECTIONVIEWSTYLE
350
2DE
  3
ACAD_TABLESTYLE
350
69
  3
ACAD_VISUALSTYLE
350
2A
  3
ACDB_RECOMPOSE_DATA
350
2DA
  3
AcDbVariableDictionary
350
2D6
  0
SUN
  5
6D
330
29
100
AcDbSun
 90
        1
290
     0
 63
     7
421
 16777215
 40
1.0
291
     1
 91
  2455826
 92
 54000000
292
     0
 70
     2
 71
   256
280
     1
  0
DICTIONARY
  5
2DD
102
{ACAD_REACTORS
330
C
102
}
330
C
100
AcDbDictionary
281
     1
  0
DICTIONARY
  5
D
102
{ACAD_REACTORS
330
C
102
}
330
C
100
AcDbDictionary
281
     1
  0
DICTIONARY
  5
1A
102
{ACAD_REACTORS
330
C
102
}
330
C
100
AcDbDictionary
281
     1
  3
Layout1
350
1E
  3
Layout2
350
26
  3
Model
350
22
  0
DICTIONARY
  5
43
102
{ACAD_REACTORS
330
C
102
}
330
C
100
AcDbDictionary
281
     1
  3
ByBlock
350
45
  3
ByLayer
350
44
  3
Global
350
46
  0
DICTIONARY
  5
6B
102
{ACAD_REACTORS
330
C
102
}
330
C
100
AcDbDictionary
281
     1
  3
Standard
350
6C
  0
DICTIONARY
  5
17
102
{ACAD_REACTORS
330
C
102
}
330
C
100
AcDbDictionary
281
     1
  3
Standard
350
18
  0
DICTIONARY
  5
19
102
{ACAD_REACTORS
330
C
102
}
330
C
100
AcDbDictionary
281
     1
  0
ACDBDICTIONARYWDFLT
  5
E
102
{ACAD_REACTORS
330
C
102
}
330
C
100
AcDbDictionary
281
     1
  3
Normal
350
F
100
AcDbDictionaryWithDefault
340
F
  0
DICTIONARY
  5
47
102
{ACAD_REACTORS
330
C
102
}
330
C
100
AcDbDictionary
281
     1
  3
A0
350
48
  3
A1
350
49
  3
A2
350
4A
  3
A3
350
4B
  3
A4
350
4C
  3
A5
350
4D
  3
A6
350
4E
  3
A7
350
4F
  3
A8
350
50
  3
A9
350
51
  3
B0
350
52
  3
B1
350
53
  3
B2
350
54
  3
B3
350
55
  3
B4
350
56
  3
B5
350
57
  3
B6
350
58
  3
B7
350
59
  3
B8
350
5A
  3
B9
350
5B
  3
C0
350
5C
  3
C1
350
5D
  3
C2
350
5E
  3
C3
350
5F
  3
C4
350
60
  3
C5
350
61
  3
C6
350
62
  3
C7
350
63
  3
C8
350
64
  3
C9
350
65
  3
D0
350
66
  3
D1
350
67
  3
D2
350
68
  0
DICTIONARY
  5
2DE
102
{ACAD_REACTORS
330
C
102
}
330
C
100
AcDbDictionary
281
     1
  0
DICTIONARY
  5
69
102
{ACAD_REACTORS
330
C
102
}
330
C
100
AcDbDictionary
281
     1
  3
Standard
350
6A
  0
DICTIONARY
  5
2A
102
{ACAD_REACTORS
330
C
102
}
330
C
100
AcDbDictionary
281
     1
  3
2dWireframe
350
2F
  3
Basic
350
32
  3
Brighten
350
36
  3
ColorChange
350
3A
  3
Conceptual
350
34
  3
Dim
350
35
  3
EdgeColorOff
350
3D
  3
Facepattern
350
39
  3
Flat
350
2B
  3
FlatWithEdges
350
2C
  3
Gouraud
350
2D
  3
GouraudWithEdges
350
2E
  3
Hidden
350
31
  3
JitterOff
350
3B
  3
Linepattern
350
38
  3
OverhangOff
350
3C
  3
Realistic
350
33
  3
Shaded
350
42
  3
Shaded with edges
350
41
  3
Shades of Gray
350
3E
  3
Sketchy
350
3F
  3
Thicken
350
37
  3
Wireframe
350
30
  3
X-Ray
350
40
  0
XRECORD
  5
2DA
102
{ACAD_REACTORS
330
C
102
}
330
C
100
AcDbXrecord
280
     1
 90
        1
330
6A
  0
DICTIONARY
  5
2D6
102
{ACAD_REACTORS
330
C
102
}
330
C
100
AcDbDictionary
281
     1
  3
CANNOSCALE
350
2D7
  3
CENTEREXE
350
2DF
  3
CENTERLTYPEFILE
350
2E0
  3
CMLEADERSTYLE
350
2DC
  3
CTABLESTYLE
350
2DB
  0
LAYOUT
  5
1E
102
{ACAD_REACTORS
330
1A
102
}
330
1A
100
AcDbPlotSettings
  1

  2
none_device
  4

  6

 40
0.0
 41
0.0
 42
0.0
 43
0.0
 44
0.0
 45
0.0
 46
0.0
 47
0.0
 48
0.0
 49
0.0
140
0.0
141
0.0
142
1.0
143
1.0
 70
   688
 72
     1
 73
     0
 74
     5
  7

 75
    16
 76
     0
 77
     5
 78
   300
147
1.0
148
0.0
149
0.0
100
AcDbLayout
  1
Layout1
 70
     1
 71
     1
 10
0.0
 20
0.0
 11
420.0
 21
297.0
 12
0.0
 22
0.0
 32
0.0
 14
1.000000000000000E+20
 24
1.000000000000000E+20
 34
1.000000000000000E+20
 15
-1.000000000000000E+20
 25
-1.000000000000000E+20
 35
-1.000000000000000E+20
146
0.0
 13
0.0
 23
0.0
 33
0.0
 16
1.0
 26
0.0
 36
0.0
 17
0.0
 27
1.0
 37
0.0
 76
     0
330
1B
  0
LAYOUT
  5
26
102
{ACAD_REACTORS
330
1A
102
}
330
1A
100
AcDbPlotSettings
  1

  2
none_device
  4

  6

 40
0.0
 41
0.0
 42
0.0
 43
0.0
 44
0.0
 45
0.0
 46
0.0
 47
0.0
 48
0.0
 49
0.0
140
0.0
141
0.0
142
1.0
143
1.0
 70
   688
 72
     1
 73
     0
 74
     5
  7

 75
    16
 76
     0
 77
     5
 78
   300
147
1.0
148
0.0
149
0.0
100
AcDbLayout
  1
Layout2
 70
     1
 71
     2
 10
0.0
 20
0.0
 11
0.0
 21
0.0
 12
0.0
 22
0.0
 32
0.0
 14
0.0
 24
0.0
 34
0.0
 15
0.0
 25
0.0
 35
0.0
146
0.0
 13
0.0
 23
0.0
 33
0.0
 16
1.0
 26
0.0
 36
0.0
 17
0.0
 27
1.0
 37
0.0
 76
     0
330
23
  0
LAYOUT
  5
22
102
{ACAD_REACTORS
330
1A
102
}
330
1A
100
AcDbPlotSettings
  1

  2
none_device
  4
Letter_(8.50_x_11.00_Inches)
  6

 40
6.35
 41
6.35
 42
6.35000508
 43
6.35000508
 44
215.9
 45
279.4
 46
0.0
 47
0.0
 48
0.0
 49
0.0
140
0.0
141
0.0
142
1.0
143
1.0
 70
  1712
 72
     1
 73
     0
 74
     0
  7

 75
     0
 76
     0
 77
     5
 78
   300
147
1.0
148
0.0
149
0.0
100
AcDbLayout
  1
Model
 70
     1
 71
     0
 10
-2100.0
 20
-1485.0
 11
2100.0
 21
1485.0
 12
0.0
 22
0.0
 32
0.0
 14
-2100.0
 24
-1485.0
 34
0.0
 15
2100.0
 25
1485.0
 35
0.0
146
0.0
 13
0.0
 23
0.0
 33
0.0
 16
1.0
 26
0.0
 36
0.0
 17
0.0
 27
1.0
 37
0.0
 76
     0
330
1F
331
29
  0
MATERIAL
  5
45
102
{ACAD_REACTORS
330
43
102
}
330
43
100
AcDbMaterial
  1
ByBlock
 72
     1
 94
      127
  0
MATERIAL
  5
44
102
{ACAD_REACTORS
330
43
102
}
330
43
100
AcDbMaterial
  1
ByLayer
 72
     1
 94
      127
  0
MATERIAL
  5
46
102
{ACAD_REACTORS
330
43
102
}
330
43
100
AcDbMaterial
  1
Global
 72
     1
 94
      127
  0
MLEADERSTYLE
  5
6C
102
{ACAD_REACTORS
330
6B
102
}
330
6B
100
AcDbMLeaderStyle
179
     2
170
     2
171
     1
172
     0
 90
        2
 40
0.0
 41
0.0
173
     1
 91
-1056964608
340
14
 92
       -2
290
     1
 42
2.0
291
     1
 43
8.0
  3
Standard
341
0
 44
4.0
300

342
11
174
     1
178
     6
175
     1
176
     0
 93
-1056964608
 45
4.0
292
     0
297
     0
 46
4.0
343
0
 94
-1056964608
 47
1.0
 49
1.0
140
1.0
293
     1
141
0.0
294
     1
177
     0
142
1.0
295
     0
296
     0
143
3.75
271
     0
272
     9
273
     9
298
     0
  0
MLINESTYLE
  5
18
102
{ACAD_REACTORS
330
17
102
}
330
17
100
AcDbMlineStyle
  2
Standard
 70
     0
  3

 62
   256
 51
90.0
 52
90.0
 71
     2
 49
0.5
 62
   256
  6
BYLAYER
 49
-0.5
 62
   256
  6
BYLAYER
  0
ACDBPLACEHOLDER
  5
F
102
{ACAD_REACTORS
330
E
102
}
330
E
  0
SCALE
  5
48
102
{ACAD_REACTORS
330
47
102
}
330
47
100
AcDbScale
 70
     0
300
1:1
140
1.0
141
1.0
290
     1
  0
SCALE
  5
49
102
{ACAD_REACTORS
330
47
102
}
330
47
100
AcDbScale
 70
     0
300
1:2
140
1.0
141
2.0
290
     0
  0
SCALE
  5
4A
102
{ACAD_REACTORS
330
47
102
}
330
47
100
AcDbScale
 70
     0
300
1:4
140
1.0
141
4.0
290
     0
  0
SCALE
  5
4B
102
{ACAD_REACTORS
330
47
102
}
330
47
100
AcDbScale
 70
     0
300
1:5
140
1.0
141
5.0
290
     0
  0
SCALE
  5
4C
102
{ACAD_REACTORS
330
47
102
}
330
47
100
AcDbScale
 70
     0
300
1:8
140
1.0
141
8.0
290
     0
  0
SCALE
  5
4D
102
{ACAD_REACTORS
330
47
102
}
330
47
100
AcDbScale
 70
     0
300
1:10
140
1.0
141
10.0
290
     0
  0
SCALE
  5
4E
102
{ACAD_REACTORS
330
47
102
}
330
47
100
AcDbScale
 70
     0
300
1:16
140
1.0
141
16.0
290
     0
  0
SCALE
  5
4F
102
{ACAD_REACTORS
330
47
102
}
330
47
100
AcDbScale
 70
     0
300
1:20
140
1.0
141
20.0
290
     0
  0
SCALE
  5
50
102
{ACAD_REACTORS
330
47
102
}
330
47
100
AcDbScale
 70
     0
300
1:30
140
1.0
141
30.0
290
     0
  0
SCALE
  5
51
102
{ACAD_REACTORS
330
47
102
}
330
47
100
AcDbScale
 70
     0
300
1:40
140
1.0
141
40.0
290
     0
  0
SCALE
  5
52
102
{ACAD_REACTORS
330
47
102
}
330
47
100
AcDbScale
 70
     0
300
1:50
140
1.0
141
50.0
290
     0
  0
SCALE
  5
53
102
{ACAD_REACTORS
330
47
102
}
330
47
100
AcDbScale
 70
     0
300
1:100
140
1.0
141
100.0
290
     0
  0
SCALE
  5
54
102
{ACAD_REACTORS
330
47
102
}
330
47
100
AcDbScale
 70
     0
300
2:1
140
2.0
141
1.0
290
     0
  0
SCALE
  5
55
102
{ACAD_REACTORS
330
47
102
}
330
47
100
AcDbScale
 70
     0
300
4:1
140
4.0
141
1.0
290
     0
  0
SCALE
  5
56
102
{ACAD_REACTORS
330
47
102
}
330
47
100
AcDbScale
 70
     0
300
8:1
140
8.0
141
1.0
290
     0
  0
SCALE
  5
57
102
{ACAD_REACTORS
330
47
102
}
330
47
100
AcDbScale
 70
     0
300
10:1
140
10.0
141
1.0
290
     0
  0
SCALE
  5
58
102
{ACAD_REACTORS
330
47
102
}
330
47
100
AcDbScale
 70
     0
300
100:1
140
100.0
141
1.0
290
     0
  0
SCALE
  5
59
102
{ACAD_REACTORS
330
47
102
}
330
47
100
AcDbScale
 70
     0
300
1/128" = 1'-0"
140
0.0078125
141
12.0
290
     0
  0
SCALE
  5
5A
102
{ACAD_REACTORS
330
47
102
}
330
47
100
AcDbScale
 70
     0
300
1/64" = 1'-0"
140
0.015625
141
12.0
290
     0
  0
SCALE
  5
5B
102
{ACAD_REACTORS
330
47
102
}
330
47
100
AcDbScale
 70
     0
300
1/32" = 1'-0"
140
0.03125
141
12.0
290
     0
  0
SCALE
  5
5C
102
{ACAD_REACTORS
330
47
102
}
330
47
100
AcDbScale
 70
     0
300
1/16" = 1'-0"
140
0.0625
141
12.0
290
     0
  0
SCALE
  5
5D
102
{ACAD_REACTORS
330
47
102
}
330
47
100
AcDbScale
 70
     0
300
3/32" = 1'-0"
140
0.09375
141
12.0
290
     0
  0
SCALE
  5
5E
102
{ACAD_REACTORS
330
47
102
}
330
47
100
AcDbScale
 70
     0
300
1/8" = 1'-0"
140
0.125
141
12.0
290
     0
  0
SCALE
  5
5F
102
{ACAD_REACTORS
330
47
102
}
330
47
100
AcDbScale
 70
     0
300
3/16" = 1'-0"
140
0.1875
141
12.0
290
     0
  0
SCALE
  5
60
102
{ACAD_REACTORS
330
47
102
}
330
47
100
AcDbScale
 70
     0
300
1/4" = 1'-0"
140
0.25
141
12.0
290
     0
  0
SCALE
  5
61
102
{ACAD_REACTORS
330
47
102
}
330
47
100
AcDbScale
 70
     0
300
3/8" = 1'-0"
140
0.375
141
12.0
290
     0
  0
SCALE
  5
62
102
{ACAD_REACTORS
330
47
102
}
330
47
100
AcDbScale
 70
     0
300
1/2" = 1'-0"
140
0.5
141
12.0
290
     0
  0
SCALE
  5
63
102
{ACAD_REACTORS
330
47
102
}
330
47
100
AcDbScale
 70
     0
300
3/4" = 1'-0"
140
0.75
141
12.0
290
     0
  0
SCALE
  5
64
102
{ACAD_REACTORS
330
47
102
}
330
47
100
AcDbScale
 70
     0
300
1" = 1'-0"
140
1.0
141
12.0
290
     0
  0
SCALE
  5
65
102
{ACAD_REACTORS
330
47
102
}
330
47
100
AcDbScale
 70
     0
300
1-1/2" = 1'-0"
140
1.5
141
12.0
290
     0
  0
SCALE
  5
66
102
{ACAD_REACTORS
330
47
102
}
330
47
100
AcDbScale
 70
     0
300
3" = 1'-0"
140
3.0
141
12.0
290
     0
  0
SCALE
  5
67
102
{ACAD_REACTORS
330
47
102
}
330
47
100
AcDbScale
 70
     0
300
6" = 1'-0"
140
6.0
141
12.0
290
     0
  0
SCALE
  5
68
102
{ACAD_REACTORS
330
47
102
}
330
47
100
AcDbScale
 70
     0
300
1'-0" = 1'-0"
140
12.0
141
12.0
290
     0
  0
TABLESTYLE
  5
6A
102
{ACAD_REACTORS
330
69
102
}
102
{ACAD_XDICTIONARY
360
2D8
102
}
330
69
100
AcDbTableStyle
  3
Standard
 70
     0
 71
     0
 40
0.06
 41
0.06
280
     0
281
     0
  7
Standard
140
4.5
170
     2
 62
     0
 63
   257
283
     0
 90
        4
 91
        0
  1

274
    -2
284
     1
 64
     0
275
    -2
285
     1
 65
     0
276
    -2
286
     1
 66
     0
277
    -2
287
     1
 67
     0
278
    -2
288
     1
 68
     0
279
    -2
289
     1
 69
     0
  7
Standard
140
6.0
170
     5
 62
     0
 63
   257
283
     0
 90
        4
 91
        0
  1

274
    -2
284
     1
 64
     0
275
    -2
285
     1
 65
     0
276
    -2
286
     1
 66
     0
277
    -2
287
     1
 67
     0
278
    -2
288
     1
 68
     0
279
    -2
289
     1
 69
     0
  7
Standard
140
4.5
170
     5
 62
     0
 63
   257
283
     0
 90
        4
 91
        0
  1

274
    -2
284
     1
 64
     0
275
    -2
285
     1
 65
     0
276
    -2
286
     1
 66
     0
277
    -2
287
     1
 67
     0
278
    -2
288
     1
 68
     0
279
    -2
289
     1
 69
     0
  0
VISUALSTYLE
  5
2F
102
{ACAD_REACTORS
330
2A
102
}
330
2A
100
AcDbVisualStyle
  2
2dWireframe
 70
     4
177
     3
291
     0
 70
    58
 90
        0
176
     1
 90
        2
176
     1
 90
        0
176
     1
 90
        0
176
     1
 40
0.6
176
     1
 40
30.0
176
     1
 62
     7
420
 16777215
176
     1
 90
        1
176
     1
 90
        4
176
     1
 62
     7
176
     1
 62
   257
176
     1
 90
        1
176
     1
 90
        1
176
     1
 40
1.0
176
     1
 90
        0
176
     1
 62
   257
176
     1
 40
1.0
176
     1
 90
        1
176
     1
 90
        6
176
     1
 90
        2
176
     1
 62
     7
176
     1
 90
        5
176
     1
 90
        0
176
     1
 90
        0
176
     1
290
     0
176
     1
 90
        1
176
     1
 40
0.0
176
     1
 90
        0
176
     1
290
     1
176
     1
290
     1
176
     1
290
     0
176
     1
290
     0
176
     1
290
     0
176
     1
290
     0
176
     1
290
     0
176
     1
290
     0
176
     1
290
     0
176
     1
 90
       50
176
     1
 40
0.0
176
     1
 40
1.0
176
     1
 90
        0
176
     1
 62
    18
420
        0
176
     1
 90
       50
176
     1
 90
        3
176
     1
 62
     5
420
      255
176
     1
290
     0
176
     1
 90
       50
176
     1
 90
       50
176
     1
 90
       50
176
     1
290
     0
176
     1
 90
       50
176
     1
 62
   256
176
     0
 40
1.0
176
     0
 90
        2
176
     1
  1
strokes_ogs.tif
176
     1
290
     0
176
     1
 40
1.0
176
     1
 40
1.0
176
     1
  0
VISUALSTYLE
  5
32
102
{ACAD_REACTORS
330
2A
102
}
330
2A
100
AcDbVisualStyle
  2
Basic
 70
     7
177
     3
291
     1
 70
    58
 90
        1
176
     1
 90
        0
176
     1
 90
        1
176
     1
 90
        0
176
     1
 40
0.6
176
     1
 40
30.0
176
     1
 62
     7
420
 16777215
176
     1
 90
        0
176
     1
 90
        4
176
     1
 62
     7
176
     1
 62
   257
176
     1
 90
        1
176
     1
 90
        1
176
     1
 40
1.0
176
     1
 90
        8
176
     1
 62
     7
176
     1
 40
1.0
176
     1
 90
        1
176
     1
 90
        6
176
     1
 90
        2
176
     1
 62
     7
176
     1
 90
        5
176
     1
 90
        0
176
     1
 90
        0
176
     1
290
     0
176
     1
 90
        1
176
     1
 40
0.0
176
     1
 90
        0
176
     1
290
     0
176
     1
290
     1
176
     1
290
     1
176
     1
290
     0
176
     1
290
     0
176
     1
290
     0
176
     1
290
     0
176
     1
290
     0
176
     1
290
     0
176
     1
 90
       50
176
     1
 40
0.0
176
     1
 40
1.0
176
     1
 90
        0
176
     1
 62
    18
420
        0
176
     1
 90
       50
176
     1
 90
        3
176
     1
 62
     5
420
      255
176
     1
290
     0
176
     1
 90
       50
176
     1
 90
       50
176
     1
 90
       50
176
     1
290
     0
176
     1
 90
       50
176
     1
 62
   256
176
     0
 40
1.0
176
     0
 90
        2
176
     1
  1
strokes_ogs.tif
176
     1
290
     0
176
     1
 40
1.0
176
     1
 40
1.0
176
     1
  0
VISUALSTYLE
  5
36
102
{ACAD_REACTORS
330
2A
102
}
330
2A
100
AcDbVisualStyle
  2
Brighten
 70
    12
177
     3
291
     1
 70
    58
 90
        2
176
     1
 90
        2
176
     1
 90
        0
176
     1
 90
        0
176
     1
 40
0.6
176
     1
 40
30.0
176
     1
 62
     7
420
 16777215
176
     1
 90
        1
176
     1
 90
        4
176
     1
 62
     7
176
     1
 62
   257
176
     1
 90
        1
176
     1
 90
        1
176
     1
 40
1.0
176
     1
 90
        8
176
     1
 62
     7
176
     1
 40
1.0
176
     1
 90
        1
176
     1
 90
        6
176
     1
 90
        2
176
     1
 62
     7
176
     1
 90
        5
176
     1
 90
        0
176
     1
 90
        0
176
     1
290
     0
176
     1
 90
        1
176
     1
 40
50.0
176
     1
 90
        0
176
     1
290
     0
176
     1
290
     1
176
     1
290
     1
176
     1
290
     0
176
     1
290
     0
176
     1
290
     0
176
     1
290
     0
176
     1
290
     0
176
     1
290
     0
176
     1
 90
       50
176
     1
 40
0.0
176
     1
 40
1.0
176
     1
 90
        0
176
     1
 62
    18
420
        0
176
     1
 90
       50
176
     1
 90
        3
176
     1
 62
     5
420
      255
176
     1
290
     0
176
     1
 90
       50
176
     1
 90
       50
176
     1
 90
       50
176
     1
290
     0
176
     1
 90
       50
176
     1
 62
   256
176
     0
 40
1.0
176
     0
 90
        2
176
     1
  1
strokes_ogs.tif
176
     1
290
     0
176
     1
 40
1.0
176
     1
 40
1.0
176
     1
  0
VISUALSTYLE
  5
3A
102
{ACAD_REACTORS
330
2A
102
}
330
2A
100
AcDbVisualStyle
  2
ColorChange
 70
    16
177
     3
291
     1
 70
    58
 90
        2
176
     1
 90
        2
176
     1
 90
        3
176
     1
 90
        0
176
     1
 40
0.6
176
     1
 40
30.0
176
     1
 62
     8
420
  8421504
176
     1
 90
        1
176
     1
 90
        4
176
     1
 62
     7
176
     1
 62
   257
176
     1
 90
        1
176
     1
 90
        1
176
     1
 40
1.0
176
     1
 90
        8
176
     1
 62
     8
420
  8421504
176
     1
 40
1.0
176
     1
 90
        1
176
     1
 90
        6
176
     1
 90
        2
176
     1
 62
     7
176
     1
 90
        5
176
     1
 90
        0
176
     1
 90
        0
176
     1
290
     0
176
     1
 90
        1
176
     1
 40
0.0
176
     1
 90
        0
176
     1
290
     0
176
     1
290
     1
176
     1
290
     1
176
     1
290
     0
176
     1
290
     0
176
     1
290
     0
176
     1
290
     0
176
     1
290
     0
176
     1
290
     0
176
     1
 90
       50
176
     1
 40
0.0
176
     1
 40
1.0
176
     1
 90
        0
176
     1
 62
    18
420
        0
176
     1
 90
       50
176
     1
 90
        3
176
     1
 62
     5
420
      255
176
     1
290
     0
176
     1
 90
       50
176
     1
 90
       50
176
     1
 90
       50
176
     1
290
     0
176
     1
 90
       50
176
     1
 62
   256
176
     0
 40
1.0
176
     0
 90
        2
176
     1
  1
strokes_ogs.tif
176
     1
290
     0
176
     1
 40
1.0
176
     1
 40
1.0
176
     1
  0
VISUALSTYLE
  5
34
102
{ACAD_REACTORS
330
2A
102
}
330
2A
100
AcDbVisualStyle
  2
Conceptual
 70
     9
177
     3
291
     0
 70
    58
 90
        3
176
     1
 90
        2
176
     1
 90
        0
176
     1
 90
        0
176
     1
 40
0.6
176
     1
 40
30.0
176
     1
 62
     7
420
 16777215
176
     1
 90
        2
176
     1
 90
        2
176
     1
 62
     7
176
     1
 62
   257
176
     1
 90
        1
176
     1
 90
        1
176
     1
 40
179.0
176
     1
 90
        8
176
     1
 62
     7
176
     1
 40
1.0
176
     1
 90
        1
176
     1
 90
        6
176
     1
 90
        2
176
     1
 62
     7
176
     1
 90
        3
176
     1
 90
        0
176
     1
 90
        0
176
     1
290
     0
176
     1
 90
        1
176
     1
 40
0.0
176
     1
 90
        0
176
     1
290
     0
176
     1
290
     1
176
     1
290
     1
176
     1
290
     0
176
     1
290
     0
176
     1
290
     0
176
     1
290
     0
176
     1
290
     0
176
     1
290
     0
176
     1
 90
       50
176
     1
 40
0.0
176
     1
 40
1.0
176
     1
 90
        0
176
     1
 62
    18
420
        0
176
     1
 90
       50
176
     1
 90
        3
176
     1
 62
     5
420
      255
176
     1
290
     0
176
     1
 90
       50
176
     1
 90
       50
176
     1
 90
       50
176
     1
290
     0
176
     1
 90
       50
176
     1
 62
   256
176
     0
 40
1.0
176
     0
 90
        2
176
     1
  1
strokes_ogs.tif
176
     1
290
     0
176
     1
 40
1.0
176
     1
 40
1.0
176
     1
  0
VISUALSTYLE
  5
35
102
{ACAD_REACTORS
330
2A
102
}
330
2A
100
AcDbVisualStyle
  2
Dim
 70
    11
177
     3
291
     1
 70
    58
 90
        2
176
     1
 90
        2
176
     1
 90
        0
176
     1
 90
        0
176
     1
 40
0.6
176
     1
 40
30.0
176
     1
 62
     7
420
 16777215
176
     1
 90
        1
176
     1
 90
        4
176
     1
 62
     7
176
     1
 62
   257
176
     1
 90
        1
176
     1
 90
        1
176
     1
 40
1.0
176
     1
 90
        8
176
     1
 62
     7
176
     1
 40
1.0
176
     1
 90
        1
176
     1
 90
        6
176
     1
 90
        2
176
     1
 62
     7
176
     1
 90
        5
176
     1
 90
        0
176
     1
 90
        0
176
     1
290
     0
176
     1
 90
        1
176
     1
 40
-50.0
176
     1
 90
        0
176
     1
290
     0
176
     1
290
     1
176
     1
290
     1
176
     1
290
     0
176
     1
290
     0
176
     1
290
     0
176
     1
290
     0
176
     1
290
     0
176
     1
290
     0
176
     1
 90
       50
176
     1
 40
0.0
176
     1
 40
1.0
176
     1
 90
        0
176
     1
 62
    18
420
        0
176
     1
 90
       50
176
     1
 90
        3
176
     1
 62
     5
420
      255
176
     1
290
     0
176
     1
 90
       50
176
     1
 90
       50
176
     1
 90
       50
176
     1
290
     0
176
     1
 90
       50
176
     1
 62
   256
176
     0
 40
1.0
176
     0
 90
        2
176
     1
  1
strokes_ogs.tif
176
     1
290
     0
176
     1
 40
1.0
176
     1
 40
1.0
176
     1
  0
VISUALSTYLE
  5
3D
102
{ACAD_REACTORS
330
2A
102
}
330
2A
100
AcDbVisualStyle
  2
EdgeColorOff
 70
    22
177
     3
291
     1
 70
    58
 90
        2
176
     0
 90
        2
176
     0
 90
        0
176
     0
 90
        0
176
     0
 40
0.6
176
     0
 40
30.0
176
     0
 62
     7
420
 16777215
176
     0
 90
        1
176
     0
 90
        4
176
     0
 62
     7
176
     0
 62
   257
176
     0
 90
        1
176
     0
 90
        1
176
     0
 40
1.0
176
     0
 90
        8
176
     2
 62
     7
176
     0
 40
1.0
176
     0
 90
        1
176
     0
 90
        6
176
     0
 90
        2
176
     0
 62
     7
176
     0
 90
        5
176
     0
 90
        0
176
     0
 90
        0
176
     0
290
     0
176
     0
 90
        1
176
     0
 40
0.0
176
     0
 90
        0
176
     0
290
     0
176
     0
290
     1
176
     0
290
     1
176
     0
290
     0
176
     0
290
     0
176
     0
290
     0
176
     0
290
     0
176
     0
290
     0
176
     0
290
     0
176
     0
 90
       50
176
     0
 40
0.0
176
     0
 40
1.0
176
     0
 90
        0
176
     0
 62
    18
420
        0
176
     0
 90
       50
176
     0
 90
        3
176
     0
 62
     5
420
      255
176
     0
290
     0
176
     0
 90
       50
176
     0
 90
       50
176
     0
 90
       50
176
     0
290
     0
176
     0
 90
       50
176
     0
 62
   256
176
     0
 40
1.0
176
     0
 90
        2
176
     0
  1
strokes_ogs.tif
176
     0
290
     0
176
     0
 40
1.0
176
     0
 40
1.0
176
     0
  0
VISUALSTYLE
  5
39
102
{ACAD_REACTORS
330
2A
102
}
330
2A
100
AcDbVisualStyle
  2
Facepattern
 70
    15
177
     3
291
     1
 70
    58
 90
        2
176
     1
 90
        2
176
     1
 90
        0
176
     1
 90
        0
176
     1
 40
0.6
176
     1
 40
30.0
176
     1
 62
     7
420
 16777215
176
     1
 90
        1
176
     1
 90
        4
176
     1
 62
     7
176
     1
 62
   257
176
     1
 90
        1
176
     1
 90
        1
176
     1
 40
1.0
176
     1
 90
        8
176
     1
 62
     7
176
     1
 40
1.0
176
     1
 90
        1
176
     1
 90
        6
176
     1
 90
        2
176
     1
 62
     7
176
     1
 90
        5
176
     1
 90
        0
176
     1
 90
        0
176
     1
290
     0
176
     1
 90
        1
176
     1
 40
0.0
176
     1
 90
        0
176
     1
290
     0
176
     1
290
     1
176
     1
290
     1
176
     1
290
     0
176
     1
290
     0
176
     1
290
     0
176
     1
290
     0
176
     1
290
     0
176
     1
290
     0
176
     1
 90
       50
176
     1
 40
0.0
176
     1
 40
1.0
176
     1
 90
        0
176
     1
 62
    18
420
        0
176
     1
 90
       50
176
     1
 90
        3
176
     1
 62
     5
420
      255
176
     1
290
     0
176
     1
 90
       50
176
     1
 90
       50
176
     1
 90
       50
176
     1
290
     0
176
     1
 90
       50
176
     1
 62
   256
176
     0
 40
1.0
176
     0
 90
        2
176
     1
  1
strokes_ogs.tif
176
     1
290
     0
176
     1
 40
1.0
176
     1
 40
1.0
176
     1
  0
VISUALSTYLE
  5
2B
102
{ACAD_REACTORS
330
2A
102
}
330
2A
100
AcDbVisualStyle
  2
Flat
 70
     0
177
     3
291
     1
 70
    58
 90
        2
176
     1
 90
        1
176
     1
 90
        1
176
     1
 90
        2
176
     1
 40
0.6
176
     1
 40
30.0
176
     1
 62
     7
420
 16777215
176
     1
 90
        0
176
     1
 90
        0
176
     1
 62
     7
176
     1
 62
   257
176
     1
 90
        1
176
     1
 90
        1
176
     1
 40
1.0
176
     1
 90
        8
176
     1
 62
     7
176
     1
 40
1.0
176
     1
 90
        1
176
     1
 90
        6
176
     1
 90
        2
176
     1
 62
     7
176
     1
 90
        5
176
     1
 90
        0
176
     1
 90
        0
176
     1
290
     0
176
     1
 90
       13
176
     1
 40
0.0
176
     1
 90
        0
176
     1
290
     0
176
     1
290
     1
176
     1
290
     1
176
     1
290
     0
176
     1
290
     0
176
     1
290
     0
176
     1
290
     0
176
     1
290
     0
176
     1
290
     0
176
     1
 90
       50
176
     1
 40
0.0
176
     1
 40
1.0
176
     1
 90
        0
176
     1
 62
    18
420
        0
176
     1
 90
       50
176
     1
 90
        3
176
     1
 62
     5
420
      255
176
     1
290
     0
176
     1
 90
       50
176
     1
 90
       50
176
     1
 90
       50
176
     1
290
     0
176
     1
 90
       50
176
     1
 62
   256
176
     0
 40
1.0
176
     0
 90
        2
176
     1
  1
strokes_ogs.tif
176
     1
290
     0
176
     1
 40
1.0
176
     1
 40
1.0
176
     1
  0
VISUALSTYLE
  5
2C
102
{ACAD_REACTORS
330
2A
102
}
330
2A
100
AcDbVisualStyle
  2
FlatWithEdges
 70
     1
177
     3
291
     1
 70
    58
 90
        2
176
     1
 90
        1
176
     1
 90
        1
176
     1
 90
        2
176
     1
 40
0.6
176
     1
 40
30.0
176
     1
 62
     7
420
 16777215
176
     1
 90
        1
176
     1
 90
        0
176
     1
 62
     7
176
     1
 62
   257
176
     1
 90
        1
176
     1
 90
        1
176
     1
 40
1.0
176
     1
 90
        0
176
     1
 62
   257
176
     1
 40
1.0
176
     1
 90
        1
176
     1
 90
        6
176
     1
 90
        2
176
     1
 62
     7
176
     1
 90
        5
176
     1
 90
        0
176
     1
 90
        0
176
     1
290
     0
176
     1
 90
       13
176
     1
 40
0.0
176
     1
 90
        0
176
     1
290
     0
176
     1
290
     1
176
     1
290
     1
176
     1
290
     0
176
     1
290
     0
176
     1
290
     0
176
     1
290
     0
176
     1
290
     0
176
     1
290
     0
176
     1
 90
       50
176
     1
 40
0.0
176
     1
 40
1.0
176
     1
 90
        0
176
     1
 62
    18
420
        0
176
     1
 90
       50
176
     1
 90
        3
176
     1
 62
     5
420
      255
176
     1
290
     0
176
     1
 90
       50
176
     1
 90
       50
176
     1
 90
       50
176
     1
290
     0
176
     1
 90
       50
176
     1
 62
   256
176
     0
 40
1.0
176
     0
 90
        2
176
     1
  1
strokes_ogs.tif
176
     1
290
     0
176
     1
 40
1.0
176
     1
 40
1.0
176
     1
  0
VISUALSTYLE
  5
2D
102
{ACAD_REACTORS
330
2A
102
}
330
2A
100
AcDbVisualStyle
  2
Gouraud
 70
     2
177
     3
291
     1
 70
    58
 90
        2
176
     1
 90
        2
176
     1
 90
        1
176
     1
 90
        2
176
     1
 40
0.6
176
     1
 40
30.0
176
     1
 62
     7
420
 16777215
176
     1
 90
        0
176
     1
 90
        0
176
     1
 62
     7
176
     1
 62
   257
176
     1
 90
        1
176
     1
 90
        1
176
     1
 40
1.0
176
     1
 90
        0
176
     1
 62
     7
176
     1
 40
1.0
176
     1
 90
        1
176
     1
 90
        6
176
     1
 90
        2
176
     1
 62
     7
176
     1
 90
        5
176
     1
 90
        0
176
     1
 90
        0
176
     1
290
     0
176
     1
 90
       13
176
     1
 40
0.0
176
     1
 90
        0
176
     1
290
     0
176
     1
290
     1
176
     1
290
     1
176
     1
290
     0
176
     1
290
     0
176
     1
290
     0
176
     1
290
     0
176
     1
290
     0
176
     1
290
     0
176
     1
 90
       50
176
     1
 40
0.0
176
     1
 40
1.0
176
     1
 90
        0
176
     1
 62
    18
420
        0
176
     1
 90
       50
176
     1
 90
        3
176
     1
 62
     5
420
      255
176
     1
290
     0
176
     1
 90
       50
176
     1
 90
       50
176
     1
 90
       50
176
     1
290
     0
176
     1
 90
       50
176
     1
 62
   256
176
     0
 40
1.0
176
     0
 90
        2
176
     1
  1
strokes_ogs.tif
176
     1
290
     0
176
     1
 40
1.0
176
     1
 40
1.0
176
     1
  0
VISUALSTYLE
  5
2E
102
{ACAD_REACTORS
330
2A
102
}
330
2A
100
AcDbVisualStyle
  2
GouraudWithEdges
 70
     3
177
     3
291
     1
 70
    58
 90
        2
176
     1
 90
        2
176
     1
 90
        1
176
     1
 90
        2
176
     1
 40
0.6
176
     1
 40
30.0
176
     1
 62
     7
420
 16777215
176
     1
 90
        1
176
     1
 90
        0
176
     1
 62
     7
176
     1
 62
   257
176
     1
 90
        1
176
     1
 90
        1
176
     1
 40
1.0
176
     1
 90
        0
176
     1
 62
   257
176
     1
 40
1.0
176
     1
 90
        1
176
     1
 90
        6
176
     1
 90
        2
176
     1
 62
     7
176
     1
 90
        5
176
     1
 90
        0
176
     1
 90
        0
176
     1
290
     0
176
     1
 90
       13
176
     1
 40
0.0
176
     1
 90
        0
176
     1
290
     0
176
     1
290
     1
176
     1
290
     1
176
     1
290
     0
176
     1
290
     0
176
     1
290
     0
176
     1
290
     0
176
     1
290
     0
176
     1
290
     0
176
     1
 90
       50
176
     1
 40
0.0
176
     1
 40
1.0
176
     1
 90
        0
176
     1
 62
    18
420
        0
176
     1
 90
       50
176
     1
 90
        3
176
     1
 62
     5
420
      255
176
     1
290
     0
176
     1
 90
       50
176
     1
 90
       50
176
     1
 90
       50
176
     1
290
     0
176
     1
 90
       50
176
     1
 62
   256
176
     0
 40
1.0
176
     0
 90
        2
176
     1
  1
strokes_ogs.tif
176
     1
290
     0
176
     1
 40
1.0
176
     1
 40
1.0
176
     1
  0
VISUALSTYLE
  5
31
102
{ACAD_REACTORS
330
2A
102
}
330
2A
100
AcDbVisualStyle
  2
Hidden
 70
     6
177
     3
291
     0
 70
    58
 90
        1
176
     1
 90
        2
176
     1
 90
        2
176
     1
 90
        0
176
     1
 40
0.6
176
     1
 40
30.0
176
     1
 62
     7
420
 16777215
176
     1
 90
        2
176
     1
 90
        2
176
     1
 62
     7
176
     1
 62
   257
176
     1
 90
        2
176
     1
 90
        1
176
     1
 40
40.0
176
     1
 90
        0
176
     1
 62
   257
176
     1
 40
1.0
176
     1
 90
        1
176
     1
 90
        6
176
     1
 90
        2
176
     1
 62
     7
176
     1
 90
        3
176
     1
 90
        0
176
     1
 90
        0
176
     1
290
     0
176
     1
 90
        1
176
     1
 40
0.0
176
     1
 90
        0
176
     1
290
     0
176
     1
290
     1
176
     1
290
     1
176
     1
290
     0
176
     1
290
     0
176
     1
290
     0
176
     1
290
     0
176
     1
290
     0
176
     1
290
     0
176
     1
 90
       50
176
     1
 40
0.0
176
     1
 40
1.0
176
     1
 90
        0
176
     1
 62
    18
420
        0
176
     1
 90
       50
176
     1
 90
        3
176
     1
 62
     5
420
      255
176
     1
290
     0
176
     1
 90
       50
176
     1
 90
       50
176
     1
 90
       50
176
     1
290
     0
176
     1
 90
       50
176
     1
 62
   256
176
     0
 40
1.0
176
     0
 90
        2
176
     1
  1
strokes_ogs.tif
176
     1
290
     0
176
     1
 40
1.0
176
     1
 40
1.0
176
     1
  0
VISUALSTYLE
  5
3B
102
{ACAD_REACTORS
330
2A
102
}
330
2A
100
AcDbVisualStyle
  2
JitterOff
 70
    20
177
     3
291
     1
 70
    58
 90
        2
176
     0
 90
        2
176
     0
 90
        0
176
     0
 90
        0
176
     0
 40
0.6
176
     0
 40
30.0
176
     0
 62
     7
420
 16777215
176
     0
 90
        1
176
     0
 90
        4
176
     0
 62
     7
176
     0
 62
   257
176
     0
 90
        1
176
     0
 90
        1
176
     0
 40
1.0
176
     0
 90
       10
176
     2
 62
     7
176
     0
 40
1.0
176
     0
 90
        1
176
     0
 90
        6
176
     0
 90
        2
176
     0
 62
     7
176
     0
 90
        5
176
     0
 90
        0
176
     0
 90
        0
176
     0
290
     0
176
     0
 90
        1
176
     0
 40
0.0
176
     0
 90
        0
176
     0
290
     0
176
     0
290
     1
176
     0
290
     1
176
     0
290
     0
176
     0
290
     0
176
     0
290
     0
176
     0
290
     0
176
     0
290
     0
176
     0
290
     0
176
     0
 90
       50
176
     0
 40
0.0
176
     0
 40
1.0
176
     0
 90
        0
176
     0
 62
    18
420
        0
176
     0
 90
       50
176
     0
 90
        3
176
     0
 62
     5
420
      255
176
     0
290
     0
176
     0
 90
       50
176
     0
 90
       50
176
     0
 90
       50
176
     0
290
     0
176
     0
 90
       50
176
     0
 62
   256
176
     0
 40
1.0
176
     0
 90
        2
176
     0
  1
strokes_ogs.tif
176
     0
290
     0
176
     0
 40
1.0
176
     0
 40
1.0
176
     0
  0
VISUALSTYLE
  5
38
102
{ACAD_REACTORS
330
2A
102
}
330
2A
100
AcDbVisualStyle
  2
Linepattern
 70
    14
177
     3
291
     1
 70
    58
 90
        2
176
     1
 90
        2
176
     1
 90
        0
176
     1
 90
        0
176
     1
 40
0.6
176
     1
 40
30.0
176
     1
 62
     7
420
 16777215
176
     1
 90
        1
176
     1
 90
        4
176
     1
 62
     7
176
     1
 62
   257
176
     1
 90
        7
176
     1
 90
        7
176
     1
 40
1.0
176
     1
 90
        8
176
     1
 62
     7
176
     1
 40
1.0
176
     1
 90
        1
176
     1
 90
        6
176
     1
 90
        2
176
     1
 62
     7
176
     1
 90
        5
176
     1
 90
        0
176
     1
 90
        0
176
     1
290
     0
176
     1
 90
        1
176
     1
 40
0.0
176
     1
 90
        0
176
     1
290
     0
176
     1
290
     1
176
     1
290
     1
176
     1
290
     0
176
     1
290
     0
176
     1
290
     0
176
     1
290
     0
176
     1
290
     0
176
     1
290
     0
176
     1
 90
       50
176
     1
 40
0.0
176
     1
 40
1.0
176
     1
 90
        0
176
     1
 62
    18
420
        0
176
     1
 90
       50
176
     1
 90
        3
176
     1
 62
     5
420
      255
176
     1
290
     0
176
     1
 90
       50
176
     1
 90
       50
176
     1
 90
       50
176
     1
290
     0
176
     1
 90
       50
176
     1
 62
   256
176
     0
 40
1.0
176
     0
 90
        2
176
     1
  1
strokes_ogs.tif
176
     1
290
     0
176
     1
 40
1.0
176
     1
 40
1.0
176
     1
  0
VISUALSTYLE
  5
3C
102
{ACAD_REACTORS
330
2A
102
}
330
2A
100
AcDbVisualStyle
  2
OverhangOff
 70
    21
177
     3
291
     1
 70
    58
 90
        2
176
     0
 90
        2
176
     0
 90
        0
176
     0
 90
        0
176
     0
 40
0.6
176
     0
 40
30.0
176
     0
 62
     7
420
 16777215
176
     0
 90
        1
176
     0
 90
        4
176
     0
 62
     7
176
     0
 62
   257
176
     0
 90
        1
176
     0
 90
        1
176
     0
 40
1.0
176
     0
 90
        9
176
     2
 62
     7
176
     0
 40
1.0
176
     0
 90
        1
176
     0
 90
        6
176
     0
 90
        2
176
     0
 62
     7
176
     0
 90
        5
176
     0
 90
        0
176
     0
 90
        0
176
     0
290
     0
176
     0
 90
        1
176
     0
 40
0.0
176
     0
 90
        0
176
     0
290
     0
176
     0
290
     1
176
     0
290
     1
176
     0
290
     0
176
     0
290
     0
176
     0
290
     0
176
     0
290
     0
176
     0
290
     0
176
     0
290
     0
176
     0
 90
       50
176
     0
 40
0.0
176
     0
 40
1.0
176
     0
 90
        0
176
     0
 62
    18
420
        0
176
     0
 90
       50
176
     0
 90
        3
176
     0
 62
     5
420
      255
176
     0
290
     0
176
     0
 90
       50
176
     0
 90
       50
176
     0
 90
       50
176
     0
290
     0
176
     0
 90
       50
176
     0
 62
   256
176
     0
 40
1.0
176
     0
 90
        2
176
     0
  1
strokes_ogs.tif
176
     0
290
     0
176
     0
 40
1.0
176
     0
 40
1.0
176
     0
  0
VISUALSTYLE
  5
33
102
{ACAD_REACTORS
330
2A
102
}
330
2A
100
AcDbVisualStyle
  2
Realistic
 70
     8
177
     3
291
     0
 70
    58
 90
        2
176
     1
 90
        3
176
     1
 90
        0
176
     1
 90
        2
176
     1
 40
0.6
176
     1
 40
30.0
176
     1
 62
     7
420
 16777215
176
     1
 90
        0
176
     1
 90
        0
176
     1
 62
     7
176
     1
 62
   257
176
     1
 90
        1
176
     1
 90
        1
176
     1
 40
1.0
176
     1
 90
        8
176
     1
 62
   257
176
     1
 40
1.0
176
     1
 90
        1
176
     1
 90
        6
176
     1
 90
        2
176
     1
 62
     7
176
     1
 90
        3
176
     1
 90
        0
176
     1
 90
        0
176
     1
290
     0
176
     1
 90
       13
176
     1
 40
0.0
176
     1
 90
        0
176
     1
290
     0
176
     1
290
     1
176
     1
290
     1
176
     1
290
     0
176
     1
290
     0
176
     1
290
     0
176
     1
290
     0
176
     1
290
     0
176
     1
290
     0
176
     1
 90
       50
176
     1
 40
0.0
176
     1
 40
1.0
176
     1
 90
        0
176
     1
 62
    18
420
        0
176
     1
 90
       50
176
     1
 90
        3
176
     1
 62
     5
420
      255
176
     1
290
     0
176
     1
 90
       50
176
     1
 90
       50
176
     1
 90
       50
176
     1
290
     0
176
     1
 90
       50
176
     1
 62
   256
176
     0
 40
1.0
176
     0
 90
        2
176
     1
  1
strokes_ogs.tif
176
     1
290
     0
176
     1
 40
1.0
176
     1
 40
1.0
176
     1
  0
VISUALSTYLE
  5
42
102
{ACAD_REACTORS
330
2A
102
}
330
2A
100
AcDbVisualStyle
  2
Shaded
 70
    27
177
     3
291
     0
 70
    58
 90
        2
176
     1
 90
        2
176
     1
 90
        1
176
     1
 90
        2
176
     1
 40
0.6
176
     1
 40
30.0
176
     1
 62
     7
420
 16777215
176
     1
 90
        0
176
     1
 90
        4
176
     1
 62
     7
176
     1
 62
   257
176
     1
 90
        1
176
     1
 90
        1
176
     1
 40
1.0
176
     1
 90
        8
176
     1
 62
   257
176
     1
 40
1.0
176
     1
 90
        1
176
     1
 90
        6
176
     1
 90
        2
176
     1
 62
     8
420
  7895160
176
     1
 90
        3
176
     1
 90
        0
176
     1
 90
        0
176
     1
290
     0
176
     1
 90
        5
176
     1
 40
0.0
176
     1
 90
        0
176
     1
290
     0
176
     1
290
     1
176
     1
290
     1
176
     1
290
     0
176
     1
290
     0
176
     1
290
     0
176
     1
290
     0
176
     1
290
     0
176
     1
290
     0
176
     1
 90
       50
176
     1
 40
0.0
176
     1
 40
1.0
176
     1
 90
        0
176
     1
 62
    18
420
        0
176
     1
 90
       50
176
     1
 90
        3
176
     1
 62
     5
420
      255
176
     1
290
     0
176
     1
 90
       50
176
     1
 90
       50
176
     1
 90
       50
176
     1
290
     0
176
     1
 90
       50
176
     1
 62
   256
176
     0
 40
1.0
176
     0
 90
        2
176
     1
  1
strokes_ogs.tif
176
     1
290
     0
176
     1
 40
1.0
176
     1
 40
1.0
176
     1
  0
VISUALSTYLE
  5
41
102
{ACAD_REACTORS
330
2A
102
}
330
2A
100
AcDbVisualStyle
  2
Shaded with edges
 70
    26
177
     3
291
     0
 70
    58
 90
        2
176
     1
 90
        2
176
     1
 90
        1
176
     1
 90
        2
176
     1
 40
0.6
176
     1
 40
30.0
176
     1
 62
     7
420
 16777215
176
     1
 90
        1
176
     1
 90
       10
176
     1
 62
     7
176
     1
 62
   257
176
     1
 90
        2
176
     1
 90
        1
176
     1
 40
1.0
176
     1
 90
        8
176
     1
 62
   257
176
     1
 40
1.0
176
     1
 90
        1
176
     1
 90
        6
176
     1
 90
        2
176
     1
 62
     7
176
     1
 90
        3
176
     1
 90
        0
176
     1
 90
        0
176
     1
290
     0
176
     1
 90
        5
176
     1
 40
0.0
176
     1
 90
        0
176
     1
290
     0
176
     1
290
     1
176
     1
290
     1
176
     1
290
     0
176
     1
290
     0
176
     1
290
     0
176
     1
290
     0
176
     1
290
     0
176
     1
290
     0
176
     1
 90
       50
176
     1
 40
0.0
176
     1
 40
1.0
176
     1
 90
        0
176
     1
 62
    18
420
        0
176
     1
 90
       50
176
     1
 90
        3
176
     1
 62
     5
420
      255
176
     1
290
     0
176
     1
 90
       50
176
     1
 90
       50
176
     1
 90
       50
176
     1
290
     0
176
     1
 90
       50
176
     1
 62
   256
176
     0
 40
1.0
176
     0
 90
        2
176
     1
  1
strokes_ogs.tif
176
     1
290
     0
176
     1
 40
1.0
176
     1
 40
1.0
176
     1
  0
VISUALSTYLE
  5
3E
102
{ACAD_REACTORS
330
2A
102
}
330
2A
100
AcDbVisualStyle
  2
Shades of Gray
 70
    23
177
     3
291
     0
 70
    58
 90
        2
176
     1
 90
        2
176
     1
 90
        3
176
     1
 90
        0
176
     1
 40
0.6
176
     1
 40
30.0
176
     1
 62
     7
420
 16777215
176
     1
 90
        2
176
     1
 90
        2
176
     1
 62
     7
176
     1
 62
     7
176
     1
 90
        1
176
     1
 90
        1
176
     1
 40
40.0
176
     1
 90
        8
176
     1
 62
     7
176
     1
 40
1.0
176
     1
 90
        1
176
     1
 90
        6
176
     1
 90
        2
176
     1
 62
     7
176
     1
 90
        3
176
     1
 90
        0
176
     1
 90
        0
176
     1
290
     0
176
     1
 90
        1
176
     1
 40
0.0
176
     1
 90
        0
176
     1
290
     0
176
     1
290
     1
176
     1
290
     1
176
     1
290
     0
176
     1
290
     0
176
     1
290
     0
176
     1
290
     0
176
     1
290
     0
176
     1
290
     0
176
     1
 90
       50
176
     1
 40
0.0
176
     1
 40
1.0
176
     1
 90
        0
176
     1
 62
    18
420
        0
176
     1
 90
       50
176
     1
 90
        3
176
     1
 62
     5
420
      255
176
     1
290
     0
176
     1
 90
       50
176
     1
 90
       50
176
     1
 90
       50
176
     1
290
     0
176
     1
 90
       50
176
     1
 62
   256
176
     0
 40
1.0
176
     0
 90
        2
176
     1
  1
strokes_ogs.tif
176
     1
290
     0
176
     1
 40
1.0
176
     1
 40
1.0
176
     1
  0
VISUALSTYLE
  5
3F
102
{ACAD_REACTORS
330
2A
102
}
330
2A
100
AcDbVisualStyle
  2
Sketchy
 70
    24
177
     3
291
     0
 70
    58
 90
        1
176
     1
 90
        2
176
     1
 90
        2
176
     1
 90
        0
176
     1
 40
0.6
176
     1
 40
30.0
176
     1
 62
     7
420
 16777215
176
     1
 90
        2
176
     1
 90
        2
176
     1
 62
     7
176
     1
 62
     7
176
     1
 90
        1
176
     1
 90
        1
176
     1
 40
40.0
176
     1
 90
       11
176
     1
 62
     7
176
     1
 40
1.0
176
     1
 90
        1
176
     1
 90
        6
176
     1
 90
        2
176
     1
 62
     7
176
     1
 90
        6
176
     1
 90
        0
176
     1
 90
        0
176
     1
290
     0
176
     1
 90
        1
176
     1
 40
0.0
176
     1
 90
        0
176
     1
290
     0
176
     1
290
     1
176
     1
290
     1
176
     1
290
     0
176
     1
290
     0
176
     1
290
     0
176
     1
290
     0
176
     1
290
     0
176
     1
290
     0
176
     1
 90
       50
176
     1
 40
0.0
176
     1
 40
1.0
176
     1
 90
        0
176
     1
 62
    18
420
        0
176
     1
 90
       50
176
     1
 90
        3
176
     1
 62
     5
420
      255
176
     1
290
     0
176
     1
 90
       50
176
     1
 90
       50
176
     1
 90
       50
176
     1
290
     0
176
     1
 90
       50
176
     1
 62
   256
176
     0
 40
1.0
176
     0
 90
        2
176
     1
  1
strokes_ogs.tif
176
     1
290
     0
176
     1
 40
1.0
176
     1
 40
1.0
176
     1
  0
VISUALSTYLE
  5
37
102
{ACAD_REACTORS
330
2A
102
}
330
2A
100
AcDbVisualStyle
  2
Thicken
 70
    13
177
     3
291
     1
 70
    58
 90
        2
176
     1
 90
        2
176
     1
 90
        0
176
     1
 90
        0
176
     1
 40
0.6
176
     1
 40
30.0
176
     1
 62
     7
420
 16777215
176
     1
 90
        1
176
     1
 90
        4
176
     1
 62
     7
176
     1
 62
   257
176
     1
 90
        1
176
     1
 90
        1
176
     1
 40
1.0
176
     1
 90
       12
176
     1
 62
     7
176
     1
 40
1.0
176
     1
 90
        1
176
     1
 90
        6
176
     1
 90
        2
176
     1
 62
     7
176
     1
 90
        5
176
     1
 90
        0
176
     1
 90
        0
176
     1
290
     0
176
     1
 90
        1
176
     1
 40
0.0
176
     1
 90
        0
176
     1
290
     0
176
     1
290
     1
176
     1
290
     1
176
     1
290
     0
176
     1
290
     0
176
     1
290
     0
176
     1
290
     0
176
     1
290
     0
176
     1
290
     0
176
     1
 90
       50
176
     1
 40
0.0
176
     1
 40
1.0
176
     1
 90
        0
176
     1
 62
    18
420
        0
176
     1
 90
       50
176
     1
 90
        3
176
     1
 62
     5
420
      255
176
     1
290
     0
176
     1
 90
       50
176
     1
 90
       50
176
     1
 90
       50
176
     1
290
     0
176
     1
 90
       50
176
     1
 62
   256
176
     0
 40
1.0
176
     0
 90
        2
176
     1
  1
strokes_ogs.tif
176
     1
290
     0
176
     1
 40
1.0
176
     1
 40
1.0
176
     1
  0
VISUALSTYLE
  5
30
102
{ACAD_REACTORS
330
2A
102
}
330
2A
100
AcDbVisualStyle
  2
Wireframe
 70
     5
177
     3
291
     0
 70
    58
 90
        0
176
     1
 90
        2
176
     1
 90
        0
176
     1
 90
        0
176
     1
 40
0.6
176
     1
 40
30.0
176
     1
 62
     7
420
 16777215
176
     1
 90
        1
176
     1
 90
        4
176
     1
 62
     7
176
     1
 62
   257
176
     1
 90
        1
176
     1
 90
        1
176
     1
 40
1.0
176
     1
 90
        0
176
     1
 62
   257
176
     1
 40
1.0
176
     1
 90
        1
176
     1
 90
        6
176
     1
 90
        2
176
     1
 62
     7
176
     1
 90
        3
176
     1
 90
        0
176
     1
 90
        0
176
     1
290
     0
176
     1
 90
        1
176
     1
 40
0.0
176
     1
 90
        0
176
     1
290
     0
176
     1
290
     1
176
     1
290
     1
176
     1
290
     0
176
     1
290
     0
176
     1
290
     0
176
     1
290
     0
176
     1
290
     0
176
     1
290
     0
176
     1
 90
       50
176
     1
 40
0.0
176
     1
 40
1.0
176
     1
 90
        0
176
     1
 62
    18
420
        0
176
     1
 90
       50
176
     1
 90
        3
176
     1
 62
     5
420
      255
176
     1
290
     0
176
     1
 90
       50
176
     1
 90
       50
176
     1
 90
       50
176
     1
290
     0
176
     1
 90
       50
176
     1
 62
   256
176
     0
 40
1.0
176
     0
 90
        2
176
     1
  1
strokes_ogs.tif
176
     1
290
     0
176
     1
 40
1.0
176
     1
 40
1.0
176
     1
  0
VISUALSTYLE
  5
40
102
{ACAD_REACTORS
330
2A
102
}
330
2A
100
AcDbVisualStyle
  2
X-Ray
 70
    25
177
     3
291
     0
 70
    58
 90
        2
176
     1
 90
        2
176
     1
 90
        1
176
     1
 90
        1
176
     1
 40
0.5
176
     1
 40
30.0
176
     1
 62
     7
420
 16777215
176
     1
 90
        1
176
     1
 90
        0
176
     1
 62
     7
176
     1
 62
   257
176
     1
 90
        1
176
     1
 90
        1
176
     1
 40
1.0
176
     1
 90
        8
176
     1
 62
     7
176
     1
 40
1.0
176
     1
 90
        1
176
     1
 90
        6
176
     1
 90
        2
176
     1
 62
     7
176
     1
 90
        3
176
     1
 90
        0
176
     1
 90
        0
176
     1
290
     0
176
     1
 90
       13
176
     1
 40
0.0
176
     1
 90
        0
176
     1
290
     0
176
     1
290
     1
176
     1
290
     1
176
     1
290
     0
176
     1
290
     0
176
     1
290
     0
176
     1
290
     0
176
     1
290
     0
176
     1
290
     0
176
     1
 90
       50
176
     1
 40
0.0
176
     1
 40
1.0
176
     1
 90
        0
176
     1
 62
    18
420
        0
176
     1
 90
       50
176
     1
 90
        3
176
     1
 62
     5
420
      255
176
     1
290
     0
176
     1
 90
       50
176
     1
 90
       50
176
     1
 90
       50
176
     1
290
     0
176
     1
 90
       50
176
     1
 62
   256
176
     0
 40
1.0
176
     0
 90
        2
176
     1
  1
strokes_ogs.tif
176
     1
290
     0
176
     1
 40
1.0
176
     1
 40
1.0
176
     1
  0
DICTIONARYVAR
  5
2D7
102
{ACAD_REACTORS
330
2D6
102
}
330
2D6
100
DictionaryVariables
280
     0
  1
1:1
  0
DICTIONARYVAR
  5
2DF
102
{ACAD_REACTORS
330
2D6
102
}
330
2D6
100
DictionaryVariables
280
     0
  1
3.500000
  0
DICTIONARYVAR
  5
2E0
102
{ACAD_REACTORS
330
2D6
102
}
330
2D6
100
DictionaryVariables
280
     0
  1
acadiso.lin
  0
DICTIONARYVAR
  5
2DC
102
{ACAD_REACTORS
330
2D6
102
}
330
2D6
100
DictionaryVariables
280
     0
  1
Standard
  0
DICTIONARYVAR
  5
2DB
102
{ACAD_REACTORS
330
2D6
102
}
330
2D6
100
DictionaryVariables
280
     0
  1
Standard
  0
DICTIONARY
  5
2D8
330
6A
100
AcDbDictionary
280
     1
281
     1
  3
ACAD_ROUNDTRIP_2008_TABLESTYLE_CELLSTYLEMAP
360
2D9
  0
CELLSTYLEMAP
  5
2D9
102
{ACAD_REACTORS
330
2D8
102
}
330
2D8
100
AcDbCellStyleMap
 90
        3
300
CELLSTYLE
  1
TABLEFORMAT_BEGIN
 90
        5
170
     1
 91
        0
 92
    32768
 62
   257
 93
        1
300
CONTENTFORMAT
  1
CONTENTFORMAT_BEGIN
 90
        0
 91
        0
 92
        4
 93
        0
300

 40
0.0
140
1.0
 94
        5
 62
     0
340
11
144
6.0
309
CONTENTFORMAT_END
171
     1
301
MARGIN
  1
CELLMARGIN_BEGIN
 40
1.5
 40
1.5
 40
1.5
 40
1.5
 40
1.5
 40
1.5
309
CELLMARGIN_END
 94
        6
 95
        1
302
GRIDFORMAT
  1
GRIDFORMAT_BEGIN
 90
        0
 91
        1
 62
     0
 92
       -2
340
14
 93
        0
 40
0.045
309
GRIDFORMAT_END
 95
        2
302
GRIDFORMAT
  1
GRIDFORMAT_BEGIN
 90
        0
 91
        1
 62
     0
 92
       -2
340
14
 93
        0
 40
0.045
309
GRIDFORMAT_END
 95
        4
302
GRIDFORMAT
  1
GRIDFORMAT_BEGIN
 90
        0
 91
        1
 62
     0
 92
       -2
340
14
 93
        0
 40
0.045
309
GRIDFORMAT_END
 95
        8
302
GRIDFORMAT
  1
GRIDFORMAT_BEGIN
 90
        0
 91
        1
 62
     0
 92
       -2
340
14
 93
        0
 40
0.045
309
GRIDFORMAT_END
 95
       16
302
GRIDFORMAT
  1
GRIDFORMAT_BEGIN
 90
        0
 91
        1
 62
     0
 92
       -2
340
14
 93
        0
 40
0.045
309
GRIDFORMAT_END
 95
       32
302
GRIDFORMAT
  1
GRIDFORMAT_BEGIN
 90
        0
 91
        1
 62
     0
 92
       -2
340
14
 93
        0
 40
0.045
309
GRIDFORMAT_END
309
TABLEFORMAT_END
  1
CELLSTYLE_BEGIN
 90
        1
 91
        1
300
_TITLE
309
CELLSTYLE_END
300
CELLSTYLE
  1
TABLEFORMAT_BEGIN
 90
        5
170
     1
 91
        0
 92
        0
 62
   257
 93
        1
300
CONTENTFORMAT
  1
CONTENTFORMAT_BEGIN
 90
        0
 91
        0
 92
        4
 93
        0
300

 40
0.0
140
1.0
 94
        5
 62
     0
340
11
144
4.5
309
CONTENTFORMAT_END
171
     1
301
MARGIN
  1
CELLMARGIN_BEGIN
 40
1.5
 40
1.5
 40
1.5
 40
1.5
 40
1.5
 40
1.5
309
CELLMARGIN_END
 94
        6
 95
        1
302
GRIDFORMAT
  1
GRIDFORMAT_BEGIN
 90
        0
 91
        1
 62
     0
 92
       -2
340
14
 93
        0
 40
0.045
309
GRIDFORMAT_END
 95
        2
302
GRIDFORMAT
  1
GRIDFORMAT_BEGIN
 90
        0
 91
        1
 62
     0
 92
       -2
340
14
 93
        0
 40
0.045
309
GRIDFORMAT_END
 95
        4
302
GRIDFORMAT
  1
GRIDFORMAT_BEGIN
 90
        0
 91
        1
 62
     0
 92
       -2
340
14
 93
        0
 40
0.045
309
GRIDFORMAT_END
 95
        8
302
GRIDFORMAT
  1
GRIDFORMAT_BEGIN
 90
        0
 91
        1
 62
     0
 92
       -2
340
14
 93
        0
 40
0.045
309
GRIDFORMAT_END
 95
       16
302
GRIDFORMAT
  1
GRIDFORMAT_BEGIN
 90
        0
 91
        1
 62
     0
 92
       -2
340
14
 93
        0
 40
0.045
309
GRIDFORMAT_END
 95
       32
302
GRIDFORMAT
  1
GRIDFORMAT_BEGIN
 90
        0
 91
        1
 62
     0
 92
       -2
340
14
 93
        0
 40
0.045
309
GRIDFORMAT_END
309
TABLEFORMAT_END
  1
CELLSTYLE_BEGIN
 90
        2
 91
        1
300
_HEADER
309
CELLSTYLE_END
300
CELLSTYLE
  1
TABLEFORMAT_BEGIN
 90
        5
170
     1
 91
        0
 92
        0
 62
   257
 93
        1
300
CONTENTFORMAT
  1
CONTENTFORMAT_BEGIN
 90
        0
 91
        0
 92
        4
 93
        0
300

 40
0.0
140
1.0
 94
        2
 62
     0
340
11
144
4.5
309
CONTENTFORMAT_END
171
     1
301
MARGIN
  1
CELLMARGIN_BEGIN
 40
1.5
 40
1.5
 40
1.5
 40
1.5
 40
1.5
 40
1.5
309
CELLMARGIN_END
 94
        6
 95
        1
302
GRIDFORMAT
  1
GRIDFORMAT_BEGIN
 90
        0
 91
        1
 62
     0
 92
       -2
340
14
 93
        0
 40
0.045
309
GRIDFORMAT_END
 95
        2
302
GRIDFORMAT
  1
GRIDFORMAT_BEGIN
 90
        0
 91
        1
 62
     0
 92
       -2
340
14
 93
        0
 40
0.045
309
GRIDFORMAT_END
 95
        4
302
GRIDFORMAT
  1
GRIDFORMAT_BEGIN
 90
        0
 91
        1
 62
     0
 92
       -2
340
14
 93
        0
 40
0.045
309
GRIDFORMAT_END
 95
        8
302
GRIDFORMAT
  1
GRIDFORMAT_BEGIN
 90
        0
 91
        1
 62
     0
 92
       -2
340
14
 93
        0
 40
0.045
309
GRIDFORMAT_END
 95
       16
302
GRIDFORMAT
  1
GRIDFORMAT_BEGIN
 90
        0
 91
        1
 62
     0
 92
       -2
340
14
 93
        0
 40
0.045
309
GRIDFORMAT_END
 95
       32
302
GRIDFORMAT
  1
GRIDFORMAT_BEGIN
 90
        0
 91
        1
 62
     0
 92
       -2
340
14
 93
        0
 40
0.045
309
GRIDFORMAT_END
309
TABLEFORMAT_END
  1
CELLSTYLE_BEGIN
 90
        3
 91
        2
300
_DATA
309
CELLSTYLE_END
  0
ENDSEC
  0
EOF
