  0
SECTION
  2
HEADER
  9
$ACADVER
  1
AC1018
  9
$ACADMAINTVER
 70
     0
  9
$DWGCODEPAGE
  3
ANSI_932
  9
$INSBASE
 10
0.0
 20
0.0
 30
0.0
  9
$EXTMIN
 10
-1260.0
 20
-891.0
 30
0.0
  9
$EXTMAX
 10
1260.0
 20
891.0
 30
0.0
  9
$LIMMIN
 10
-1260.0
 20
-891.0
  9
$LIMMAX
 10
1260.0
 20
891.0
  9
$ORTHOMODE
 70
     0
  9
$REGENMODE
 70
     1
  9
$FILLMODE
 70
     1
  9
$QTEXTMODE
 70
     0
  9
$MIRRTEXT
 70
     1
  9
$LTSCALE
 40
6.0
  9
$ATTMODE
 70
     1
  9
$TEXTSIZE
 40
2.5
  9
$TRACEWID
 40
1.0
  9
$TEXTSTYLE
  7
Standard
  9
$CLAYER
  8
0
  9
$CELTYPE
  6
ByLayer
  9
$CECOLOR
 62
   256
  9
$CELTSCALE
 40
1.0
  9
$DISPSILH
 70
     0
  9
$DIMSCALE
 40
1.0
  9
$DIMASZ
 40
2.5
  9
$DIMEXO
 40
0.625
  9
$DIMDLI
 40
3.75
  9
$DIMRND
 40
0.0
  9
$DIMDLE
 40
0.0
  9
$DIMEXE
 40
1.25
  9
$DIMTP
 40
0.0
  9
$DIMTM
 40
0.0
  9
$DIMTXT
 40
2.5
  9
$DIMCEN
 40
2.5
  9
$DIMTSZ
 40
0.0
  9
$DIMTOL
 70
     0
  9
$DIMLIM
 70
     0
  9
$DIMTIH
 70
     0
  9
$DIMTOH
 70
     0
  9
$DIMSE1
 70
     0
  9
$DIMSE2
 70
     0
  9
$DIMTAD
 70
     1
  9
$DIMZIN
 70
     8
  9
$DIMBLK
  1

  9
$DIMASO
 70
     1
  9
$DIMSHO
 70
     1
  9
$DIMPOST
  1

  9
$DIMAPOST
  1

  9
$DIMALT
 70
     0
  9
$DIMALTD
 70
     3
  9
$DIMALTF
 40
0.03937007874016
  9
$DIMLFAC
 40
1.0
  9
$DIMTOFL
 70
     1
  9
$DIMTVP
 40
0.0
  9
$DIMTIX
 70
     0
  9
$DIMSOXD
 70
     0
  9
$DIMSAH
 70
     0
  9
$DIMBLK1
  1

  9
$DIMBLK2
  1

  9
$DIMSTYLE
  2
ISO-25
  9
$DIMCLRD
 70
     0
  9
$DIMCLRE
 70
     0
  9
$DIMCLRT
 70
     0
  9
$DIMTFAC
 40
1.0
  9
$DIMGAP
 40
0.625
  9
$DIMJUST
 70
     0
  9
$DIMSD1
 70
     0
  9
$DIMSD2
 70
     0
  9
$DIMTOLJ
 70
     0
  9
$DIMTZIN
 70
     8
  9
$DIMALTZ
 70
     0
  9
$DIMALTTZ
 70
     0
  9
$DIMUPT
 70
     0
  9
$DIMDEC
 70
     2
  9
$DIMTDEC
 70
     2
  9
$DIMALTU
 70
     2
  9
$DIMALTTD
 70
     3
  9
$DIMTXSTY
  7
Standard
  9
$DIMAUNIT
 70
     0
  9
$DIMADEC
 70
     0
  9
$DIMALTRND
 40
0.0
  9
$DIMAZIN
 70
     0
  9
$DIMDSEP
 70
    44
  9
$DIMATFIT
 70
     3
  9
$DIMFRAC
 70
     0
  9
$DIMLDRBLK
  1

  9
$DIMLUNIT
 70
     2
  9
$DIMLWD
 70
    -2
  9
$DIMLWE
 70
    -2
  9
$DIMTMOVE
 70
     0
  9
$LUNITS
 70
     2
  9
$LUPREC
 70
     4
  9
$SKETCHINC
 40
1.0
  9
$FILLETRAD
 40
10.0
  9
$AUNITS
 70
     0
  9
$AUPREC
 70
     0
  9
$MENU
  1
.
  9
$ELEVATION
 40
0.0
  9
$PELEVATION
 40
0.0
  9
$THICKNESS
 40
0.0
  9
$LIMCHECK
 70
     0
  9
$CHAMFERA
 40
10.0
  9
$CHAMFERB
 40
10.0
  9
$CHAMFERC
 40
20.0
  9
$CHAMFERD
 40
0.0
  9
$SKPOLY
 70
     0
  9
$TDCREATE
 40
2457429.691952674
  9
$TDUCREATE
 40
2457429.316952674
  9
$TDUPDATE
 40
2457429.691952685
  9
$TDUUPDATE
 40
2457429.316952685
  9
$TDINDWG
 40
0.0000000116
  9
$TDUSRTIMER
 40
0.0000000116
  9
$USRTIMER
 70
     1
  9
$ANGBASE
 50
0.0
  9
$ANGDIR
 70
     0
  9
$PDMODE
 70
     0
  9
$PDSIZE
 40
0.0
  9
$PLINEWID
 40
0.0
  9
$SPLFRAME
 70
     0
  9
$SPLINETYPE
 70
     6
  9
$SPLINESEGS
 70
     8
  9
$HANDSEED
  5
239
  9
$SURFTAB1
 70
     6
  9
$SURFTAB2
 70
     6
  9
$SURFTYPE
 70
     6
  9
$SURFU
 70
     6
  9
$SURFV
 70
     6
  9
$UCSBASE
  2

  9
$UCSNAME
  2

  9
$UCSORG
 10
0.0
 20
0.0
 30
0.0
  9
$UCSXDIR
 10
1.0
 20
0.0
 30
0.0
  9
$UCSYDIR
 10
0.0
 20
1.0
 30
0.0
  9
$UCSORTHOREF
  2

  9
$UCSORTHOVIEW
 70
     0
  9
$UCSORGTOP
 10
0.0
 20
0.0
 30
0.0
  9
$UCSORGBOTTOM
 10
0.0
 20
0.0
 30
0.0
  9
$UCSORGLEFT
 10
0.0
 20
0.0
 30
0.0
  9
$UCSORGRIGHT
 10
0.0
 20
0.0
 30
0.0
  9
$UCSORGFRONT
 10
0.0
 20
0.0
 30
0.0
  9
$UCSORGBACK
 10
0.0
 20
0.0
 30
0.0
  9
$PUCSBASE
  2

  9
$PUCSNAME
  2

  9
$PUCSORG
 10
0.0
 20
0.0
 30
0.0
  9
$PUCSXDIR
 10
1.0
 20
0.0
 30
0.0
  9
$PUCSYDIR
 10
0.0
 20
1.0
 30
0.0
  9
$PUCSORTHOREF
  2

  9
$PUCSORTHOVIEW
 70
     0
  9
$PUCSORGTOP
 10
0.0
 20
0.0
 30
0.0
  9
$PUCSORGBOTTOM
 10
0.0
 20
0.0
 30
0.0
  9
$PUCSORGLEFT
 10
0.0
 20
0.0
 30
0.0
  9
$PUCSORGRIGHT
 10
0.0
 20
0.0
 30
0.0
  9
$PUCSORGFRONT
 10
0.0
 20
0.0
 30
0.0
  9
$PUCSORGBACK
 10
0.0
 20
0.0
 30
0.0
  9
$USERI1
 70
     0
  9
$USERI2
 70
     0
  9
$USERI3
 70
     0
  9
$USERI4
 70
     0
  9
$USERI5
 70
     0
  9
$USERR1
 40
0.0
  9
$USERR2
 40
0.0
  9
$USERR3
 40
0.0
  9
$USERR4
 40
0.0
  9
$USERR5
 40
0.0
  9
$WORLDVIEW
 70
     1
  9
$SHADEDGE
 70
     3
  9
$SHADEDIF
 70
    70
  9
$TILEMODE
 70
     1
  9
$MAXACTVP
 70
    64
  9
$PINSBASE
 10
0.0
 20
0.0
 30
0.0
  9
$PLIMCHECK
 70
     0
  9
$PEXTMIN
 10
1.000000000000000E+20
 20
1.000000000000000E+20
 30
1.000000000000000E+20
  9
$PEXTMAX
 10
-1.000000000000000E+20
 20
-1.000000000000000E+20
 30
-1.000000000000000E+20
  9
$PLIMMIN
 10
0.0
 20
0.0
  9
$PLIMMAX
 10
420.0
 20
297.0
  9
$UNITMODE
 70
     0
  9
$VISRETAIN
 70
     1
  9
$PLINEGEN
 70
     0
  9
$PSLTSCALE
 70
     1
  9
$TREEDEPTH
 70
  3020
  9
$CMLSTYLE
  2
Standard
  9
$CMLJUST
 70
     0
  9
$CMLSCALE
 40
20.0
  9
$PROXYGRAPHICS
 70
     1
  9
$MEASUREMENT
 70
     1
  9
$CELWEIGHT
370
    -1
  9
$ENDCAPS
280
     0
  9
$JOINSTYLE
280
     0
  9
$LWDISPLAY
290
     0
  9
$INSUNITS
 70
     4
  9
$HYPERLINKBASE
  1

  9
$STYLESHEET
  1

  9
$XEDIT
290
     1
  9
$CEPSNTYPE
380
     0
  9
$PSTYLEMODE
290
     1
  9
$FINGERPRINTGUID
  2
{89AE0F60-3F36-4B50-9EDE-35CBFFE6AD50}
  9
$VERSIONGUID
  2
{FAEB1C32-E019-11D5-929B-00C0DF256EC4}
  9
$EXTNAMES
290
     1
  9
$PSVPSCALE
 40
0.0
  9
$OLESTARTUP
290
     0
  9
$SORTENTS
280
   127
  9
$INDEXCTL
280
     0
  9
$HIDETEXT
280
     1
  9
$XCLIPFRAME
290
     0
  9
$HALOGAP
280
     0
  9
$OBSCOLOR
 70
   257
  9
$OBSLTYPE
280
     0
  9
$INTERSECTIONDISPLAY
280
     0
  9
$INTERSECTIONCOLOR
 70
   257
  9
$DIMASSOC
280
     2
  9
$PROJECTNAME
  1

  0
ENDSEC
  0
SECTION
  2
CLASSES
  0
CLASS
  1
ACDBDICTIONARYWDFLT
  2
AcDbDictionaryWithDefault
  3
ObjectDBX Classes
 90
        0
 91
        4
280
     0
281
     0
  0
CLASS
  1
VISUALSTYLE
  2
AcDbVisualStyle
  3
ObjectDBX Classes
 90
     4095
 91
        4
280
     0
281
     0
  0
ENDSEC
  0
SECTION
  2
TABLES
  0
TABLE
  2
VPORT
  5
8
330
0
100
AcDbSymbolTable
 70
     1
  0
VPORT
  5
29
330
8
100
AcDbSymbolTableRecord
100
AcDbViewportTableRecord
  2
*Active
 70
     0
 10
0.0
 20
0.0
 11
1.0
 21
1.0
 12
0.0
 22
0.0
 13
0.0
 23
0.0
 14
10.0
 24
10.0
 15
10.0
 25
10.0
 16
0.0
 26
0.0
 36
1.0
 17
0.0
 27
0.0
 37
0.0
 40
1960.2
 41
1.414141414141414
 42
50.0
 43
0.0
 44
0.0
 50
0.0
 51
0.0
 71
     0
 72
 10000
 73
     1
 74
     3
 75
     0
 76
     0
 77
     0
 78
     0
281
     0
 65
     1
110
0.0
120
0.0
130
0.0
111
1.0
121
0.0
131
0.0
112
0.0
122
1.0
132
0.0
 79
     0
146
0.0
  0
ENDTAB
  0
TABLE
  2
LTYPE
  5
5
330
0
100
AcDbSymbolTable
 70
     2
  0
LTYPE
  5
14
330
5
100
AcDbSymbolTableRecord
100
AcDbLinetypeTableRecord
  2
ByBlock
 70
     0
  3

 72
    65
 73
     0
 40
0.0
  0
LTYPE
  5
15
330
5
100
AcDbSymbolTableRecord
100
AcDbLinetypeTableRecord
  2
ByLayer
 70
     0
  3

 72
    65
 73
     0
 40
0.0
  0
LTYPE
  5
16
330
5
100
AcDbSymbolTableRecord
100
AcDbLinetypeTableRecord
  2
Continuous
 70
     0
  3
Solid line
 72
    65
 73
     0
 40
0.0
  0
LTYPE
  5
3C
330
5
100
AcDbSymbolTableRecord
100
AcDbLinetypeTableRecord
  2
JWW_CENTER1
 70
     0
  3
-----  --  ----------  --  -----
 72
    65
 73
     4
 40
6.773333333333333
 49
4.233333333333333
 74
     0
 49
-0.8466666666666667
 74
     0
 49
0.8466666666666667
 74
     0
 49
-0.8466666666666667
 74
     0
  0
ENDTAB
  0
TABLE
  2
LAYER
  5
2
330
0
100
AcDbSymbolTable
 70
    14
  0
LAYER
  5
10
330
2
100
AcDbSymbolTableRecord
100
AcDbLayerTableRecord
  2
0
 70
     0
 62
     7
  6
Continuous
370
    -3
390
F
  0
LAYER
  5
3D
330
2
100
AcDbSymbolTableRecord
100
AcDbLayerTableRecord
  2
3-F
 70
     0
 62
     7
  6
Continuous
370
    -3
390
F
  0
LAYER
  5
3E
330
2
100
AcDbSymbolTableRecord
100
AcDbLayerTableRecord
  2
2-0
 70
     0
 62
     7
  6
Continuous
370
    -3
390
F
  0
LAYER
  5
3F
330
2
100
AcDbSymbolTableRecord
100
AcDbLayerTableRecord
  2
2-Fﾚｲﾔ
 70
     0
 62
     7
  6
Continuous
370
    -3
390
F
  0
LAYER
  5
40
330
2
100
AcDbSymbolTableRecord
100
AcDbLayerTableRecord
  2
2-4
 70
     0
 62
     7
  6
Continuous
370
    -3
390
F
  0
LAYER
  5
41
330
2
100
AcDbSymbolTableRecord
100
AcDbLayerTableRecord
  2
3-0
 70
     0
 62
     7
  6
Continuous
370
    -3
390
F
  0
LAYER
  5
42
330
2
100
AcDbSymbolTableRecord
100
AcDbLayerTableRecord
  2
3-1
 70
     0
 62
     7
  6
Continuous
370
    -3
390
F
  0
LAYER
  5
43
330
2
100
AcDbSymbolTableRecord
100
AcDbLayerTableRecord
  2
3-2
 70
     0
 62
     7
  6
Continuous
370
    -3
390
F
  0
LAYER
  5
44
330
2
100
AcDbSymbolTableRecord
100
AcDbLayerTableRecord
  2
3-4
 70
     0
 62
     7
  6
Continuous
370
    -3
390
F
  0
LAYER
  5
45
330
2
100
AcDbSymbolTableRecord
100
AcDbLayerTableRecord
  2
4-0
 70
     0
 62
     7
  6
Continuous
370
    -3
390
F
  0
LAYER
  5
46
330
2
100
AcDbSymbolTableRecord
100
AcDbLayerTableRecord
  2
4-3
 70
     0
 62
     7
  6
Continuous
370
    -3
390
F
  0
LAYER
  5
47
330
2
100
AcDbSymbolTableRecord
100
AcDbLayerTableRecord
  2
4-F
 70
     0
 62
     7
  6
Continuous
370
    -3
390
F
  0
LAYER
  5
48
330
2
100
AcDbSymbolTableRecord
100
AcDbLayerTableRecord
  2
F-Fﾚｲﾔ
 70
     0
 62
     7
  6
Continuous
370
    -3
390
F
  0
LAYER
  5
49
330
2
100
AcDbSymbolTableRecord
100
AcDbLayerTableRecord
  2
F-5ﾚｲﾔ
 70
     0
 62
     7
  6
Continuous
370
    -3
390
F
  0
ENDTAB
  0
TABLE
  2
STYLE
  5
3
330
0
100
AcDbSymbolTable
 70
     2
  0
STYLE
  5
11
330
3
100
AcDbSymbolTableRecord
100
AcDbTextStyleTableRecord
  2
Standard
 70
     0
 40
0.0
 41
1.0
 50
0.0
 71
     0
 42
2.5
  3
txt
  4

1001
ACAD
1000

1071
        0
  0
STYLE
  5
3B
330
3
100
AcDbSymbolTableRecord
100
AcDbTextStyleTableRecord
  2
ＭＳ ゴシック
 70
     0
 40
1.0
 41
1.0
 50
0.0
 71
     0
 42
10.0
  3

  4

1001
ACAD
1000
MS Gothic
1071
    32817
  0
ENDTAB
  0
TABLE
  2
VIEW
  5
6
330
0
100
AcDbSymbolTable
 70
     0
  0
ENDTAB
  0
TABLE
  2
UCS
  5
7
330
0
100
AcDbSymbolTable
 70
     0
  0
ENDTAB
  0
TABLE
  2
APPID
  5
9
330
0
100
AcDbSymbolTable
 70
     1
  0
APPID
  5
12
330
9
100
AcDbSymbolTableRecord
100
AcDbRegAppTableRecord
  2
ACAD
 70
     0
  0
ENDTAB
  0
TABLE
  2
DIMSTYLE
  5
A
330
0
100
AcDbSymbolTable
 70
     1
100
AcDbDimStyleTable
  0
DIMSTYLE
105
27
330
A
100
AcDbSymbolTableRecord
100
AcDbDimStyleTableRecord
  2
ISO-25
 70
     0
 41
2.5
 42
0.625
 43
3.75
 44
1.25
 73
     0
 74
     0
 77
     1
 78
     8
140
2.5
141
2.5
143
0.03937007874016
147
0.625
171
     3
172
     1
271
     2
272
     2
274
     3
278
    44
283
     0
284
     8
340
11
  0
ENDTAB
  0
TABLE
  2
BLOCK_RECORD
  5
1
330
0
100
AcDbSymbolTable
 70
     1
  0
BLOCK_RECORD
  5
1F
330
1
100
AcDbSymbolTableRecord
100
AcDbBlockTableRecord
  2
*Model_Space
340
22
  0
BLOCK_RECORD
  5
1B
330
1
100
AcDbSymbolTableRecord
100
AcDbBlockTableRecord
  2
*Paper_Space
340
1E
  0
BLOCK_RECORD
  5
23
330
1
100
AcDbSymbolTableRecord
100
AcDbBlockTableRecord
  2
*Paper_Space0
340
26
  0
ENDTAB
  0
ENDSEC
  0
SECTION
  2
BLOCKS
  0
BLOCK
  5
20
330
1F
100
AcDbEntity
  8
0
100
AcDbBlockBegin
  2
*Model_Space
 70
     0
 10
0.0
 20
0.0
 30
0.0
  3
*Model_Space
  1

  0
ENDBLK
  5
21
330
1F
100
AcDbEntity
  8
0
100
AcDbBlockEnd
  0
BLOCK
  5
1C
330
1B
100
AcDbEntity
 67
     1
  8
0
100
AcDbBlockBegin
  2
*Paper_Space
 70
     0
 10
0.0
 20
0.0
 30
0.0
  3
*Paper_Space
  1

  0
ENDBLK
  5
1D
330
1B
100
AcDbEntity
 67
     1
  8
0
100
AcDbBlockEnd
  0
BLOCK
  5
24
330
23
100
AcDbEntity
  8
0
100
AcDbBlockBegin
  2
*Paper_Space0
 70
     0
 10
0.0
 20
0.0
 30
0.0
  3
*Paper_Space0
  1

  0
ENDBLK
  5
25
330
23
100
AcDbEntity
  8
0
100
AcDbBlockEnd
  0
ENDSEC
  0
SECTION
  2
ENTITIES
  0
LINE
  5
4A
330
1F
100
AcDbEntity
  8
3-F
  6
Continuous
 62
     7
370
     9
100
AcDbLine
 10
-1067.559245341533
 20
33.11254058013094
 30
0.0
 11
-62.12575551625844
 21
33.11254058013094
 31
0.0
  0
LINE
  5
4B
330
1F
100
AcDbEntity
  8
3-F
  6
Continuous
 62
     7
370
     9
100
AcDbLine
 10
-1067.559245341533
 20
-14.88746931746186
 30
0.0
 11
-62.12575551625844
 21
-14.88746931746186
 31
0.0
  0
LINE
  5
4C
330
1F
100
AcDbEntity
  8
3-F
  6
Continuous
 62
     7
370
     9
100
AcDbLine
 10
-1067.559245341533
 20
33.11254058013094
 30
0.0
 11
-1067.559245341533
 21
-14.88746931746186
 31
0.0
  0
LINE
  5
4D
330
1F
100
AcDbEntity
  8
3-F
  6
Continuous
 62
     7
370
     9
100
AcDbLine
 10
-62.12575551625844
 20
33.11254058013094
 30
0.0
 11
-62.12575551625844
 21
-14.88746931746186
 31
0.0
  0
LINE
  5
4E
330
1F
100
AcDbEntity
  8
2-0
  6
Continuous
 62
     3
370
     9
100
AcDbLine
 10
-943.4111394108953
 20
660.3670720280828
 30
0.0
 11
-943.4111394108953
 21
585.3669730521538
 31
0.0
  0
LINE
  5
4F
330
1F
100
AcDbEntity
  8
2-0
  6
Continuous
 62
     3
370
     9
100
AcDbLine
 10
-943.4111394108953
 20
660.3670720280828
 30
0.0
 11
1081.587375950169
 21
660.3670720280828
 31
0.0
  0
LINE
  5
50
330
1F
100
AcDbEntity
  8
2-Fﾚｲﾔ
  6
Continuous
 62
     7
370
     9
100
AcDbLine
 10
-996.9671135979729
 20
585.3669730521538
 30
0.0
 11
-996.9671135979729
 21
660.3670720280828
 31
0.0
  0
LINE
  5
51
330
1F
100
AcDbEntity
  8
2-Fﾚｲﾔ
  6
Continuous
 62
     7
370
     9
100
AcDbLine
 10
-953.4113703547297
 20
585.3669730521538
 30
0.0
 11
-998.4671927787163
 21
585.3669730521538
 31
0.0
  0
LINE
  5
52
330
1F
100
AcDbEntity
  8
2-Fﾚｲﾔ
  6
Continuous
 62
     7
370
     9
100
AcDbLine
 10
-953.4113703547297
 20
660.3670720280828
 30
0.0
 11
-998.4671927787163
 21
660.3670720280828
 31
0.0
  0
LINE
  5
53
330
1F
100
AcDbEntity
  8
2-Fﾚｲﾔ
  6
Continuous
 62
     7
370
     9
100
AcDbLine
 10
-943.4111394108953
 20
732.031187315245
 30
0.0
 11
1081.587375950169
 21
732.031187315245
 31
0.0
  0
LINE
  5
54
330
1F
100
AcDbEntity
  8
2-Fﾚｲﾔ
  6
Continuous
 62
     7
370
     9
100
AcDbLine
 10
-943.4111394108953
 20
670.36700604413
 30
0.0
 11
-943.4111394108953
 21
733.5312664959881
 31
0.0
  0
LINE
  5
55
330
1F
100
AcDbEntity
  8
2-Fﾚｲﾔ
  6
Continuous
 62
     7
370
     9
100
AcDbLine
 10
1081.587375950169
 20
670.36700604413
 30
0.0
 11
1081.587375950169
 21
733.5312664959881
 31
0.0
  0
LINE
  5
56
330
1F
100
AcDbEntity
  8
2-0
  6
Continuous
 62
     3
370
     9
100
AcDbLine
 10
-943.4111394108953
 20
657.9670047244509
 30
0.0
 11
1081.587375950169
 21
657.9670047244509
 31
0.0
  0
LINE
  5
57
330
1F
100
AcDbEntity
  8
2-Fﾚｲﾔ
  6
JWW_CENTER1
 62
     7
370
     9
100
AcDbLine
 10
-928.4112383868244
 20
614.3135722392316
 30
0.0
 11
-928.4112383868244
 21
636.4201429212416
 31
0.0
  0
LINE
  5
58
330
1F
100
AcDbEntity
  8
2-Fﾚｲﾔ
  6
JWW_CENTER1
 62
     7
370
     9
100
AcDbLine
 10
-939.4643752639358
 20
625.3670060441302
 30
0.0
 11
-917.3581015097128
 21
625.3670060441302
 31
0.0
  0
LINE
  5
59
330
1F
100
AcDbEntity
  8
2-Fﾚｲﾔ
  6
Continuous
 62
     7
370
     9
100
AcDbLine
 10
-928.4112383868244
 20
503.1308923669764
 30
0.0
 11
-429.6619312183277
 21
503.1308923669764
 31
0.0
  0
LINE
  5
5A
330
1F
100
AcDbEntity
  8
2-Fﾚｲﾔ
  6
Continuous
 62
     7
370
     9
100
AcDbLine
 10
-928.4112383868244
 20
602.3135326488598
 30
0.0
 11
-928.4112383868244
 21
501.3309161211994
 31
0.0
  0
LINE
  5
5B
330
1F
100
AcDbEntity
  8
2-Fﾚｲﾔ
  6
Continuous
 62
     7
370
     9
100
AcDbLine
 10
69.08737595016908
 20
620.054225612331
 30
0.0
 11
75.97565522065048
 21
603.4243395006336
 31
0.0
  0
LINE
  5
5C
330
1F
100
AcDbEntity
  8
2-Fﾚｲﾔ
  6
Continuous
 62
     7
370
     9
100
AcDbLine
 10
69.08737595016908
 20
620.054225612331
 30
0.0
 11
71.43681706608953
 21
602.208271748311
 31
0.0
  0
LINE
  5
5D
330
1F
100
AcDbEntity
  8
2-Fﾚｲﾔ
  6
Continuous
 62
     7
370
     9
100
AcDbLine
 10
69.08737595016908
 20
620.054225612331
 30
0.0
 11
105.4650384026605
 21
484.2908242715372
 31
0.0
  0
LINE
  5
5E
330
1F
100
AcDbEntity
  8
2-0
  6
Continuous
 62
     3
370
     9
100
AcDbLine
 10
1081.587375950169
 20
660.3670720280828
 30
0.0
 11
1081.587375950169
 21
585.3669730521538
 31
0.0
  0
LINE
  5
5F
330
1F
100
AcDbEntity
  8
2-0
  6
Continuous
 62
     3
370
     9
100
AcDbLine
 10
-943.4111394108953
 20
585.3669730521538
 30
0.0
 11
1081.587375950169
 21
585.3669730521538
 31
0.0
  0
LINE
  5
60
330
1F
100
AcDbEntity
  8
2-Fﾚｲﾔ
  6
JWW_CENTER1
 62
     7
370
     9
100
AcDbLine
 10
-429.6619312183277
 20
614.3135722392316
 30
0.0
 11
-429.6619312183277
 21
636.4201429212416
 31
0.0
  0
LINE
  5
61
330
1F
100
AcDbEntity
  8
2-Fﾚｲﾔ
  6
JWW_CENTER1
 62
     7
370
     9
100
AcDbLine
 10
-440.7152165593326
 20
625.3670060441302
 30
0.0
 11
-418.6087943412163
 21
625.3670060441302
 31
0.0
  0
LINE
  5
62
330
1F
100
AcDbEntity
  8
2-Fﾚｲﾔ
  6
JWW_CENTER1
 62
     7
370
     9
100
AcDbLine
 10
69.08737595016908
 20
614.3135722392316
 30
0.0
 11
69.08737595016908
 21
636.4201429212416
 31
0.0
  0
LINE
  5
63
330
1F
100
AcDbEntity
  8
2-Fﾚｲﾔ
  6
JWW_CENTER1
 62
     7
370
     9
100
AcDbLine
 10
58.03423907305751
 20
625.3670060441302
 30
0.0
 11
80.14051282728047
 21
625.3670060441302
 31
0.0
  0
LINE
  5
64
330
1F
100
AcDbEntity
  8
2-Fﾚｲﾔ
  6
JWW_CENTER1
 62
     7
370
     9
100
AcDbLine
 10
567.8366831186656
 20
614.3135722392316
 30
0.0
 11
567.8366831186656
 21
636.4201429212416
 31
0.0
  0
LINE
  5
65
330
1F
100
AcDbEntity
  8
2-Fﾚｲﾔ
  6
JWW_CENTER1
 62
     7
370
     9
100
AcDbLine
 10
556.7835462415541
 20
625.3670060441302
 30
0.0
 11
578.8898199957772
 21
625.3670060441302
 31
0.0
  0
LINE
  5
66
330
1F
100
AcDbEntity
  8
2-Fﾚｲﾔ
  6
JWW_CENTER1
 62
     7
370
     9
100
AcDbLine
 10
1066.586881070524
 20
614.3135722392316
 30
0.0
 11
1066.586881070524
 21
636.4201429212416
 31
0.0
  0
LINE
  5
67
330
1F
100
AcDbEntity
  8
2-Fﾚｲﾔ
  6
JWW_CENTER1
 62
     7
370
     9
100
AcDbLine
 10
1055.533744193412
 20
625.3670060441302
 30
0.0
 11
1077.640017947635
 21
625.3670060441302
 31
0.0
  0
LINE
  5
68
330
1F
100
AcDbEntity
  8
2-Fﾚｲﾔ
  6
Continuous
 62
     7
370
     9
100
AcDbLine
 10
105.4650384026605
 20
484.2908242715372
 30
0.0
 11
250.6673287056589
 21
484.2908242715372
 31
0.0
  0
LINE
  5
69
330
1F
100
AcDbEntity
  8
2-Fﾚｲﾔ
  6
Continuous
 62
     7
370
     9
100
AcDbLine
 10
-429.6619312183277
 20
602.3135326488598
 30
0.0
 11
-429.6619312183277
 21
501.3309161211994
 31
0.0
  0
LINE
  5
6A
330
1F
100
AcDbEntity
  8
2-4
  6
Continuous
 62
     7
370
     9
100
AcDbLine
 10
1134.022744668497
 20
585.3669730521538
 30
0.0
 11
1134.022744668497
 21
625.3670060441302
 31
0.0
  0
LINE
  5
6B
330
1F
100
AcDbEntity
  8
2-4
  6
Continuous
 62
     7
370
     9
100
AcDbLine
 10
1090.587405642948
 20
585.3669730521538
 30
0.0
 11
1135.822720914274
 21
585.3669730521538
 31
0.0
  0
LINE
  5
6C
330
1F
100
AcDbEntity
  8
2-4
  6
Continuous
 62
     7
370
     9
100
AcDbLine
 10
1086.640047640414
 20
625.3670060441302
 30
0.0
 11
1135.822720914274
 21
625.3670060441302
 31
0.0
  0
LINE
  5
6D
330
1F
100
AcDbEntity
  8
2-4
  6
Continuous
 62
     7
370
     9
100
AcDbLine
 10
1134.022744668497
 20
625.3670060441302
 30
0.0
 11
1134.022744668497
 21
660.3670720280828
 31
0.0
  0
LINE
  5
6E
330
1F
100
AcDbEntity
  8
2-4
  6
Continuous
 62
     7
370
     9
100
AcDbLine
 10
1090.587405642948
 20
660.3670720280828
 30
0.0
 11
1135.822720914274
 21
660.3670720280828
 31
0.0
  0
LINE
  5
6F
330
1F
100
AcDbEntity
  8
2-0
  6
JWW_CENTER1
 62
     3
370
     9
100
AcDbLine
 10
-679.0364363386824
 20
669.1739501953125
 30
0.0
 11
-679.0364363386824
 21
646.7600592535897
 31
0.0
  0
LINE
  5
70
330
1F
100
AcDbEntity
  8
2-0
  6
JWW_CENTER1
 62
     3
370
     9
100
AcDbLine
 10
-379.7869708086992
 20
669.1739501953125
 30
0.0
 11
-379.7869708086992
 21
646.7600592535897
 31
0.0
  0
LINE
  5
71
330
1F
100
AcDbEntity
  8
2-0
  6
JWW_CENTER1
 62
     3
370
     9
100
AcDbLine
 10
-80.53765374260968
 20
669.1739501953125
 30
0.0
 11
-80.53765374260968
 21
646.7600592535897
 31
0.0
  0
LINE
  5
72
330
1F
100
AcDbEntity
  8
2-0
  6
JWW_CENTER1
 62
     3
370
     9
100
AcDbLine
 10
218.711960251267
 20
669.1739501953125
 30
0.0
 11
218.711960251267
 21
646.7600592535897
 31
0.0
  0
LINE
  5
73
330
1F
100
AcDbEntity
  8
2-0
  6
JWW_CENTER1
 62
     3
370
     9
100
AcDbLine
 10
517.9617227090372
 20
669.1739501953125
 30
0.0
 11
517.9617227090372
 21
646.7600592535897
 31
0.0
  0
LINE
  5
74
330
1F
100
AcDbEntity
  8
2-0
  6
JWW_CENTER1
 62
     3
370
     9
100
AcDbLine
 10
817.2114851668075
 20
669.1739501953125
 30
0.0
 11
817.2114851668075
 21
646.7600592535897
 31
0.0
  0
LINE
  5
75
330
1F
100
AcDbEntity
  8
2-4
  6
Continuous
 62
     7
370
     9
100
AcDbLine
 10
782.2115676467484
 20
696.3205731366131
 30
0.0
 11
852.2115511507603
 21
696.3205731366131
 31
0.0
  0
LINE
  5
76
330
1F
100
AcDbEntity
  8
2-4
  6
Continuous
 62
     7
370
     9
100
AcDbLine
 10
782.2115676467484
 20
665.9276386982688
 30
0.0
 11
782.2115676467484
 21
698.1205493823903
 31
0.0
  0
LINE
  5
77
330
1F
100
AcDbEntity
  8
2-4
  6
Continuous
 62
     7
370
     9
100
AcDbLine
 10
852.2115511507603
 20
665.9276386982688
 30
0.0
 11
852.2115511507603
 21
698.1205493823903
 31
0.0
  0
LINE
  5
78
330
1F
100
AcDbEntity
  8
2-Fﾚｲﾔ
  6
Continuous
 62
     7
370
     9
100
AcDbLine
 10
843.6684933224241
 20
657.9670047244509
 30
0.0
 11
850.5567725929056
 21
641.3369701488598
 31
0.0
  0
LINE
  5
79
330
1F
100
AcDbEntity
  8
2-Fﾚｲﾔ
  6
Continuous
 62
     7
370
     9
100
AcDbLine
 10
843.6684933224241
 20
657.9670047244509
 30
0.0
 11
846.0179344383447
 21
640.1210508604308
 31
0.0
  0
LINE
  5
7A
330
1F
100
AcDbEntity
  8
2-Fﾚｲﾔ
  6
Continuous
 62
     7
370
     9
100
AcDbLine
 10
843.6686417863178
 20
657.9670047244509
 30
0.0
 11
890.2049461570947
 21
484.2908242715372
 31
0.0
  0
LINE
  5
7B
330
1F
100
AcDbEntity
  8
2-Fﾚｲﾔ
  6
Continuous
 62
     7
370
     9
100
AcDbLine
 10
890.2049461570947
 20
484.2908242715372
 30
0.0
 11
1140.648539775127
 21
484.2908242715372
 31
0.0
  0
LINE
  5
7C
330
1F
100
AcDbEntity
  8
2-4
  6
Continuous
 62
     7
370
     9
100
AcDbLine
 10
-679.0364363386824
 20
695.9313008076438
 30
0.0
 11
-379.7869708086992
 21
695.9313008076438
 31
0.0
  0
LINE
  5
7D
330
1F
100
AcDbEntity
  8
2-4
  6
Continuous
 62
     7
370
     9
100
AcDbLine
 10
-679.0364363386824
 20
678.1738314241978
 30
0.0
 11
-679.0364363386824
 21
697.7312770534206
 31
0.0
  0
LINE
  5
7E
330
1F
100
AcDbEntity
  8
2-4
  6
Continuous
 62
     7
370
     9
100
AcDbLine
 10
-379.7869708086992
 20
678.1738314241978
 30
0.0
 11
-379.7869708086992
 21
697.7312770534206
 31
0.0
  0
LINE
  5
7F
330
1F
100
AcDbEntity
  8
2-Fﾚｲﾔ
  6
Continuous
 62
     7
370
     9
100
AcDbLine
 10
-1067.55931957348
 20
835.3782398120778
 30
0.0
 11
11.09856682854735
 21
835.3782398120778
 31
0.0
  0
LINE
  5
80
330
1F
100
AcDbEntity
  8
2-Fﾚｲﾔ
  6
Continuous
 62
     7
370
     9
100
AcDbLine
 10
-1067.55931957348
 20
787.3783783783784
 30
0.0
 11
11.09856682854735
 21
787.3783783783784
 31
0.0
  0
LINE
  5
81
330
1F
100
AcDbEntity
  8
2-Fﾚｲﾔ
  6
Continuous
 62
     7
370
     9
100
AcDbLine
 10
-1067.55931957348
 20
835.3782398120778
 30
0.0
 11
-1067.55931957348
 21
787.3783783783784
 31
0.0
  0
LINE
  5
82
330
1F
100
AcDbEntity
  8
2-Fﾚｲﾔ
  6
Continuous
 62
     7
370
     9
100
AcDbLine
 10
11.09856682854735
 20
835.3782398120778
 30
0.0
 11
11.09856682854735
 21
787.3783783783784
 31
0.0
  0
LINE
  5
83
330
1F
100
AcDbEntity
  8
2-0
  6
Continuous
 62
     3
370
     9
100
AcDbLine
 10
-943.4111394108953
 20
243.2372749947214
 30
0.0
 11
-943.4111394108953
 21
168.2373244826859
 31
0.0
  0
LINE
  5
84
330
1F
100
AcDbEntity
  8
2-0
  6
Continuous
 62
     3
370
     9
100
AcDbLine
 10
-943.4111394108953
 20
243.2372749947214
 30
0.0
 11
1081.587375950169
 21
243.2372749947214
 31
0.0
  0
LINE
  5
85
330
1F
100
AcDbEntity
  8
2-Fﾚｲﾔ
  6
Continuous
 62
     7
370
     9
100
AcDbLine
 10
-1011.508558118666
 20
168.2373244826859
 30
0.0
 11
-1011.508558118666
 21
243.2372749947214
 31
0.0
  0
LINE
  5
86
330
1F
100
AcDbEntity
  8
2-Fﾚｲﾔ
  6
Continuous
 62
     7
370
     9
100
AcDbLine
 10
-953.4110734269425
 20
168.2373244826859
 30
0.0
 11
-1013.008934227196
 21
168.2373244826859
 31
0.0
  0
LINE
  5
87
330
1F
100
AcDbEntity
  8
2-Fﾚｲﾔ
  6
Continuous
 62
     7
370
     9
100
AcDbLine
 10
-953.4110734269425
 20
243.2372749947214
 30
0.0
 11
-1013.008934227196
 21
243.2372749947214
 31
0.0
  0
LINE
  5
88
330
1F
100
AcDbEntity
  8
2-Fﾚｲﾔ
  6
Continuous
 62
     7
370
     9
100
AcDbLine
 10
-943.4111394108953
 20
341.0899757179055
 30
0.0
 11
1081.587375950169
 21
341.0899757179055
 31
0.0
  0
LINE
  5
89
330
1F
100
AcDbEntity
  8
2-Fﾚｲﾔ
  6
Continuous
 62
     7
370
     9
100
AcDbLine
 10
-943.4111394108953
 20
253.2373574746622
 30
0.0
 11
-943.4111394108953
 21
342.5900548986488
 31
0.0
  0
LINE
  5
8A
330
1F
100
AcDbEntity
  8
2-Fﾚｲﾔ
  6
Continuous
 62
     7
370
     9
100
AcDbLine
 10
1081.587375950169
 20
253.2373574746622
 30
0.0
 11
1081.587375950169
 21
342.5900548986488
 31
0.0
  0
LINE
  5
8B
330
1F
100
AcDbEntity
  8
2-0
  6
Continuous
 62
     3
370
     9
100
AcDbLine
 10
1081.587375950169
 20
243.2372749947214
 30
0.0
 11
1081.587375950169
 21
168.2373244826859
 31
0.0
  0
LINE
  5
8C
330
1F
100
AcDbEntity
  8
2-0
  6
Continuous
 62
     3
370
     9
100
AcDbLine
 10
-943.4111394108953
 20
240.8373561549831
 30
0.0
 11
1081.587375950169
 21
240.8373561549831
 31
0.0
  0
LINE
  5
8D
330
1F
100
AcDbEntity
  8
2-0
  6
Continuous
 62
     3
370
     9
100
AcDbLine
 10
-913.4113373627534
 20
168.2373244826859
 30
0.0
 11
-913.4113373627534
 21
240.8373561549831
 31
0.0
  0
LINE
  5
8E
330
1F
100
AcDbEntity
  8
2-0
  6
Continuous
 62
     3
370
     9
100
AcDbLine
 10
-843.6612185916384
 20
168.2373244826859
 30
0.0
 11
-843.6612185916384
 21
240.8373561549831
 31
0.0
  0
LINE
  5
8F
330
1F
100
AcDbEntity
  8
2-0
  6
Continuous
 62
     3
370
     9
100
AcDbLine
 10
-813.6611196157094
 20
168.2373244826859
 30
0.0
 11
-813.6611196157094
 21
240.8373561549831
 31
0.0
  0
LINE
  5
90
330
1F
100
AcDbEntity
  8
2-0
  6
Continuous
 62
     3
370
     9
100
AcDbLine
 10
-743.9112977723817
 20
168.2373244826859
 30
0.0
 11
-743.9112977723817
 21
240.8373561549831
 31
0.0
  0
LINE
  5
91
330
1F
100
AcDbEntity
  8
2-0
  6
Continuous
 62
     3
370
     9
100
AcDbLine
 10
-713.9113472603462
 20
168.2373244826859
 30
0.0
 11
-713.9113472603462
 21
240.8373561549831
 31
0.0
  0
LINE
  5
92
330
1F
100
AcDbEntity
  8
2-0
  6
Continuous
 62
     3
370
     9
100
AcDbLine
 10
-644.161376953125
 20
168.2373244826859
 30
0.0
 11
-644.161376953125
 21
240.8373561549831
 31
0.0
  0
LINE
  5
93
330
1F
100
AcDbEntity
  8
2-0
  6
Continuous
 62
     3
370
     9
100
AcDbLine
 10
-614.1612779771959
 20
168.2373244826859
 30
0.0
 11
-614.1612779771959
 21
240.8373561549831
 31
0.0
  0
LINE
  5
94
330
1F
100
AcDbEntity
  8
2-0
  6
Continuous
 62
     3
370
     9
100
AcDbLine
 10
-544.4114561338682
 20
168.2373244826859
 30
0.0
 11
-544.4114561338682
 21
240.8373561549831
 31
0.0
  0
LINE
  5
95
330
1F
100
AcDbEntity
  8
2-0
  6
Continuous
 62
     3
370
     9
100
AcDbLine
 10
-514.4113571579392
 20
168.2373244826859
 30
0.0
 11
-514.4113571579392
 21
240.8373561549831
 31
0.0
  0
LINE
  5
96
330
1F
100
AcDbEntity
  8
2-0
  6
Continuous
 62
     3
370
     9
100
AcDbLine
 10
-444.6615353146114
 20
168.2373244826859
 30
0.0
 11
-444.6615353146114
 21
240.8373561549831
 31
0.0
  0
LINE
  5
97
330
1F
100
AcDbEntity
  8
2-0
  6
Continuous
 62
     3
370
     9
100
AcDbLine
 10
-414.6614363386823
 20
168.2373244826859
 30
0.0
 11
-414.6614363386823
 21
240.8373561549831
 31
0.0
  0
LINE
  5
98
330
1F
100
AcDbEntity
  8
2-0
  6
Continuous
 62
     3
370
     9
100
AcDbLine
 10
-344.9116144953547
 20
168.2373244826859
 30
0.0
 11
-344.9116144953547
 21
240.8373561549831
 31
0.0
  0
LINE
  5
99
330
1F
100
AcDbEntity
  8
2-0
  6
Continuous
 62
     3
370
     9
100
AcDbLine
 10
-314.9115155194256
 20
168.2373244826859
 30
0.0
 11
-314.9115155194256
 21
240.8373561549831
 31
0.0
  0
LINE
  5
9A
330
1F
100
AcDbEntity
  8
2-0
  6
Continuous
 62
     3
370
     9
100
AcDbLine
 10
-245.161693676098
 20
168.2373244826859
 30
0.0
 11
-245.161693676098
 21
240.8373561549831
 31
0.0
  0
LINE
  5
9B
330
1F
100
AcDbEntity
  8
2-0
  6
Continuous
 62
     3
370
     9
100
AcDbLine
 10
-215.1618916279561
 20
168.2373244826859
 30
0.0
 11
-215.1618916279561
 21
240.8373561549831
 31
0.0
  0
LINE
  5
9C
330
1F
100
AcDbEntity
  8
2-0
  6
Continuous
 62
     3
370
     9
100
AcDbLine
 10
-145.4117728568411
 20
168.2373244826859
 30
0.0
 11
-145.4117728568411
 21
240.8373561549831
 31
0.0
  0
LINE
  5
9D
330
1F
100
AcDbEntity
  8
2-0
  6
Continuous
 62
     3
370
     9
100
AcDbLine
 10
-115.4118223448056
 20
168.2373244826859
 30
0.0
 11
-115.4118223448056
 21
240.8373561549831
 31
0.0
  0
LINE
  5
9E
330
1F
100
AcDbEntity
  8
2-0
  6
Continuous
 62
     3
370
     9
100
AcDbLine
 10
-15.6617530616553
 20
168.2373244826859
 30
0.0
 11
-15.6617530616553
 21
240.8373561549831
 31
0.0
  0
LINE
  5
9F
330
1F
100
AcDbEntity
  8
2-0
  6
Continuous
 62
     3
370
     9
100
AcDbLine
 10
-45.66185203758437
 20
168.2373244826859
 30
0.0
 11
-45.66185203758437
 21
240.8373561549831
 31
0.0
  0
LINE
  5
A0
330
1F
100
AcDbEntity
  8
2-0
  6
Continuous
 62
     3
370
     9
100
AcDbLine
 10
54.08806878167235
 20
168.2373244826859
 30
0.0
 11
54.08806878167235
 21
240.8373561549831
 31
0.0
  0
LINE
  5
A1
330
1F
100
AcDbEntity
  8
2-0
  6
Continuous
 62
     3
370
     9
100
AcDbLine
 10
84.08816775760141
 20
168.2373244826859
 30
0.0
 11
84.08816775760141
 21
240.8373561549831
 31
0.0
  0
LINE
  5
A2
330
1F
100
AcDbEntity
  8
2-0
  6
Continuous
 62
     3
370
     9
100
AcDbLine
 10
153.8379896009291
 20
168.2373244826859
 30
0.0
 11
153.8379896009291
 21
240.8373561549831
 31
0.0
  0
LINE
  5
A3
330
1F
100
AcDbEntity
  8
2-0
  6
Continuous
 62
     3
370
     9
100
AcDbLine
 10
183.8380885768581
 20
168.2373244826859
 30
0.0
 11
183.8380885768581
 21
240.8373561549831
 31
0.0
  0
LINE
  5
A4
330
1F
100
AcDbEntity
  8
2-0
  6
Continuous
 62
     3
370
     9
100
AcDbLine
 10
253.5879104201859
 20
168.2373244826859
 30
0.0
 11
253.5879104201859
 21
240.8373561549831
 31
0.0
  0
LINE
  5
A5
330
1F
100
AcDbEntity
  8
2-0
  6
Continuous
 62
     3
370
     9
100
AcDbLine
 10
283.588009396115
 20
168.2373244826859
 30
0.0
 11
283.588009396115
 21
240.8373561549831
 31
0.0
  0
LINE
  5
A6
330
1F
100
AcDbEntity
  8
2-0
  6
Continuous
 62
     3
370
     9
100
AcDbLine
 10
383.3379302153716
 20
168.2373244826859
 30
0.0
 11
383.3379302153716
 21
240.8373561549831
 31
0.0
  0
LINE
  5
A7
330
1F
100
AcDbEntity
  8
2-0
  6
Continuous
 62
     3
370
     9
100
AcDbLine
 10
353.3378312394425
 20
168.2373244826859
 30
0.0
 11
353.3378312394425
 21
240.8373561549831
 31
0.0
  0
LINE
  5
A8
330
1F
100
AcDbEntity
  8
2-0
  6
Continuous
 62
     3
370
     9
100
AcDbLine
 10
453.0877520586994
 20
168.2373244826859
 30
0.0
 11
453.0877520586994
 21
240.8373561549831
 31
0.0
  0
LINE
  5
A9
330
1F
100
AcDbEntity
  8
2-0
  6
Continuous
 62
     3
370
     9
100
AcDbLine
 10
483.0878510346284
 20
168.2373244826859
 30
0.0
 11
483.0878510346284
 21
240.8373561549831
 31
0.0
  0
LINE
  5
AA
330
1F
100
AcDbEntity
  8
2-0
  6
Continuous
 62
     3
370
     9
100
AcDbLine
 10
552.8376728779563
 20
168.2373244826859
 30
0.0
 11
552.8376728779563
 21
240.8373561549831
 31
0.0
  0
LINE
  5
AB
330
1F
100
AcDbEntity
  8
2-0
  6
Continuous
 62
     3
370
     9
100
AcDbLine
 10
582.8377718538853
 20
168.2373244826859
 30
0.0
 11
582.8377718538853
 21
240.8373561549831
 31
0.0
  0
LINE
  5
AC
330
1F
100
AcDbEntity
  8
2-0
  6
Continuous
 62
     3
370
     9
100
AcDbLine
 10
652.5875936972128
 20
168.2373244826859
 30
0.0
 11
652.5875936972128
 21
240.8373561549831
 31
0.0
  0
LINE
  5
AD
330
1F
100
AcDbEntity
  8
2-0
  6
Continuous
 62
     3
370
     9
100
AcDbLine
 10
682.5876926731419
 20
168.2373244826859
 30
0.0
 11
682.5876926731419
 21
240.8373561549831
 31
0.0
  0
LINE
  5
AE
330
1F
100
AcDbEntity
  8
2-0
  6
Continuous
 62
     3
370
     9
100
AcDbLine
 10
752.3375145164697
 20
168.2373244826859
 30
0.0
 11
752.3375145164697
 21
240.8373561549831
 31
0.0
  0
LINE
  5
AF
330
1F
100
AcDbEntity
  8
2-0
  6
Continuous
 62
     3
370
     9
100
AcDbLine
 10
782.3376134923988
 20
168.2373244826859
 30
0.0
 11
782.3376134923988
 21
240.8373561549831
 31
0.0
  0
LINE
  5
B0
330
1F
100
AcDbEntity
  8
2-0
  6
Continuous
 62
     3
370
     9
100
AcDbLine
 10
852.0874353357266
 20
168.2373244826859
 30
0.0
 11
852.0874353357266
 21
240.8373561549831
 31
0.0
  0
LINE
  5
B1
330
1F
100
AcDbEntity
  8
2-0
  6
Continuous
 62
     3
370
     9
100
AcDbLine
 10
882.0875343116556
 20
168.2373244826859
 30
0.0
 11
882.0875343116556
 21
240.8373561549831
 31
0.0
  0
LINE
  5
B2
330
1F
100
AcDbEntity
  8
2-0
  6
Continuous
 62
     3
370
     9
100
AcDbLine
 10
951.8373561549831
 20
168.2373244826859
 30
0.0
 11
951.8373561549831
 21
240.8373561549831
 31
0.0
  0
LINE
  5
B3
330
1F
100
AcDbEntity
  8
2-0
  6
Continuous
 62
     3
370
     9
100
AcDbLine
 10
1051.58727697424
 20
168.2373244826859
 30
0.0
 11
1051.58727697424
 21
240.8373561549831
 31
0.0
  0
LINE
  5
B4
330
1F
100
AcDbEntity
  8
2-0
  6
Continuous
 62
     3
370
     9
100
AcDbLine
 10
981.8374551309122
 20
168.2373244826859
 30
0.0
 11
981.8374551309122
 21
240.8373561549831
 31
0.0
  0
LINE
  5
B5
330
1F
100
AcDbEntity
  8
2-0
  6
Continuous
 62
     3
370
     9
100
AcDbLine
 10
-913.4113373627534
 20
168.2373244826859
 30
0.0
 11
-943.4111394108953
 21
168.2373244826859
 31
0.0
  0
LINE
  5
B6
330
1F
100
AcDbEntity
  8
2-0
  6
Continuous
 62
     3
370
     9
100
AcDbLine
 10
-813.6611196157094
 20
168.2373244826859
 30
0.0
 11
-843.6612185916384
 21
168.2373244826859
 31
0.0
  0
LINE
  5
B7
330
1F
100
AcDbEntity
  8
2-0
  6
Continuous
 62
     3
370
     9
100
AcDbLine
 10
-713.9113472603462
 20
168.2373244826859
 30
0.0
 11
-743.9112977723817
 21
168.2373244826859
 31
0.0
  0
LINE
  5
B8
330
1F
100
AcDbEntity
  8
2-0
  6
Continuous
 62
     3
370
     9
100
AcDbLine
 10
-614.1612779771959
 20
168.2373244826859
 30
0.0
 11
-644.161376953125
 21
168.2373244826859
 31
0.0
  0
LINE
  5
B9
330
1F
100
AcDbEntity
  8
2-0
  6
Continuous
 62
     3
370
     9
100
AcDbLine
 10
-514.4113571579392
 20
168.2373244826859
 30
0.0
 11
-544.4114561338682
 21
168.2373244826859
 31
0.0
  0
LINE
  5
BA
330
1F
100
AcDbEntity
  8
2-0
  6
Continuous
 62
     3
370
     9
100
AcDbLine
 10
-414.6614363386823
 20
168.2373244826859
 30
0.0
 11
-444.6615353146114
 21
168.2373244826859
 31
0.0
  0
LINE
  5
BB
330
1F
100
AcDbEntity
  8
2-0
  6
Continuous
 62
     3
370
     9
100
AcDbLine
 10
-314.9115155194256
 20
168.2373244826859
 30
0.0
 11
-344.9119114231419
 21
168.2373244826859
 31
0.0
  0
LINE
  5
BC
330
1F
100
AcDbEntity
  8
2-0
  6
Continuous
 62
     3
370
     9
100
AcDbLine
 10
-215.1618916279561
 20
168.2373244826859
 30
0.0
 11
-245.161693676098
 21
168.2373244826859
 31
0.0
  0
LINE
  5
BD
330
1F
100
AcDbEntity
  8
2-0
  6
Continuous
 62
     3
370
     9
100
AcDbLine
 10
-115.4118223448056
 20
168.2373244826859
 30
0.0
 11
-145.4117728568411
 21
168.2373244826859
 31
0.0
  0
LINE
  5
BE
330
1F
100
AcDbEntity
  8
2-0
  6
Continuous
 62
     3
370
     9
100
AcDbLine
 10
-15.6617530616553
 20
168.2373244826859
 30
0.0
 11
-45.66185203758437
 21
168.2373244826859
 31
0.0
  0
LINE
  5
BF
330
1F
100
AcDbEntity
  8
2-0
  6
Continuous
 62
     3
370
     9
100
AcDbLine
 10
84.08816775760141
 20
168.2373244826859
 30
0.0
 11
54.08806878167235
 21
168.2373244826859
 31
0.0
  0
LINE
  5
C0
330
1F
100
AcDbEntity
  8
2-0
  6
Continuous
 62
     3
370
     9
100
AcDbLine
 10
183.8380885768581
 20
168.2373244826859
 30
0.0
 11
153.8379896009291
 21
168.2373244826859
 31
0.0
  0
LINE
  5
C1
330
1F
100
AcDbEntity
  8
2-0
  6
Continuous
 62
     3
370
     9
100
AcDbLine
 10
283.588009396115
 20
168.2373244826859
 30
0.0
 11
253.5879104201859
 21
168.2373244826859
 31
0.0
  0
LINE
  5
C2
330
1F
100
AcDbEntity
  8
2-0
  6
Continuous
 62
     3
370
     9
100
AcDbLine
 10
383.3379302153716
 20
168.2373244826859
 30
0.0
 11
353.3378312394425
 21
168.2373244826859
 31
0.0
  0
LINE
  5
C3
330
1F
100
AcDbEntity
  8
2-0
  6
Continuous
 62
     3
370
     9
100
AcDbLine
 10
483.0878510346284
 20
168.2373244826859
 30
0.0
 11
453.0877520586994
 21
168.2373244826859
 31
0.0
  0
LINE
  5
C4
330
1F
100
AcDbEntity
  8
2-0
  6
Continuous
 62
     3
370
     9
100
AcDbLine
 10
582.8377718538853
 20
168.2373244826859
 30
0.0
 11
552.8376728779563
 21
168.2373244826859
 31
0.0
  0
LINE
  5
C5
330
1F
100
AcDbEntity
  8
2-0
  6
Continuous
 62
     3
370
     9
100
AcDbLine
 10
682.5876926731419
 20
168.2373244826859
 30
0.0
 11
652.5875936972128
 21
168.2373244826859
 31
0.0
  0
LINE
  5
C6
330
1F
100
AcDbEntity
  8
2-0
  6
Continuous
 62
     3
370
     9
100
AcDbLine
 10
782.3376134923988
 20
168.2373244826859
 30
0.0
 11
752.3375145164697
 21
168.2373244826859
 31
0.0
  0
LINE
  5
C7
330
1F
100
AcDbEntity
  8
2-0
  6
Continuous
 62
     3
370
     9
100
AcDbLine
 10
882.0875343116556
 20
168.2373244826859
 30
0.0
 11
852.0874353357266
 21
168.2373244826859
 31
0.0
  0
LINE
  5
C8
330
1F
100
AcDbEntity
  8
2-0
  6
Continuous
 62
     3
370
     9
100
AcDbLine
 10
1081.587375950169
 20
168.2373244826859
 30
0.0
 11
1051.58727697424
 21
168.2373244826859
 31
0.0
  0
LINE
  5
C9
330
1F
100
AcDbEntity
  8
2-0
  6
Continuous
 62
     3
370
     9
100
AcDbLine
 10
981.8374551309122
 20
168.2373244826859
 30
0.0
 11
951.8373561549831
 21
168.2373244826859
 31
0.0
  0
LINE
  5
CA
330
1F
100
AcDbEntity
  8
2-0
  6
JWW_CENTER1
 62
     3
370
     9
100
AcDbLine
 10
-936.1257192250844
 20
208.2372090107686
 30
0.0
 11
-920.6967575485642
 21
208.2372090107686
 31
0.0
  0
LINE
  5
CB
330
1F
100
AcDbEntity
  8
2-0
  6
JWW_CENTER1
 62
     3
370
     9
100
AcDbLine
 10
-928.4112383868244
 20
200.5227281725084
 30
0.0
 11
-928.4112383868244
 21
215.9516898490288
 31
0.0
  0
LINE
  5
CC
330
1F
100
AcDbEntity
  8
2-0
  6
JWW_CENTER1
 62
     3
370
     9
100
AcDbLine
 10
-836.3757984058277
 20
208.2372090107686
 30
0.0
 11
-820.9468367293075
 21
208.2372090107686
 31
0.0
  0
LINE
  5
CD
330
1F
100
AcDbEntity
  8
2-0
  6
JWW_CENTER1
 62
     3
370
     9
100
AcDbLine
 10
-828.6613175675675
 20
200.5227281725084
 30
0.0
 11
-828.6613175675675
 21
215.9516898490288
 31
0.0
  0
LINE
  5
CE
330
1F
100
AcDbEntity
  8
2-0
  6
JWW_CENTER1
 62
     3
370
     9
100
AcDbLine
 10
-736.6258775865709
 20
208.2372090107686
 30
0.0
 11
-721.1969159100506
 21
208.2372090107686
 31
0.0
  0
LINE
  5
CF
330
1F
100
AcDbEntity
  8
2-0
  6
JWW_CENTER1
 62
     3
370
     9
100
AcDbLine
 10
-728.9113967483108
 20
200.5227281725084
 30
0.0
 11
-728.9113967483108
 21
215.9516898490288
 31
0.0
  0
LINE
  5
D0
330
1F
100
AcDbEntity
  8
2-0
  6
JWW_CENTER1
 62
     3
370
     9
100
AcDbLine
 10
-636.8759567673142
 20
208.2372090107686
 30
0.0
 11
-621.446995090794
 21
208.2372090107686
 31
0.0
  0
LINE
  5
D1
330
1F
100
AcDbEntity
  8
2-0
  6
JWW_CENTER1
 62
     3
370
     9
100
AcDbLine
 10
-629.161475929054
 20
200.5227281725084
 30
0.0
 11
-629.161475929054
 21
215.9516898490288
 31
0.0
  0
LINE
  5
D2
330
1F
100
AcDbEntity
  8
2-0
  6
JWW_CENTER1
 62
     3
370
     9
100
AcDbLine
 10
-537.1260359480574
 20
208.2372090107686
 30
0.0
 11
-521.6970742715371
 21
208.2372090107686
 31
0.0
  0
LINE
  5
D3
330
1F
100
AcDbEntity
  8
2-0
  6
JWW_CENTER1
 62
     3
370
     9
100
AcDbLine
 10
-529.4115551097973
 20
200.5227281725084
 30
0.0
 11
-529.4115551097973
 21
215.9516898490288
 31
0.0
  0
LINE
  5
D4
330
1F
100
AcDbEntity
  8
2-0
  6
JWW_CENTER1
 62
     3
370
     9
100
AcDbLine
 10
-437.3761151288006
 20
208.2372090107686
 30
0.0
 11
-421.9471534522803
 21
208.2372090107686
 31
0.0
  0
LINE
  5
D5
330
1F
100
AcDbEntity
  8
2-0
  6
JWW_CENTER1
 62
     3
370
     9
100
AcDbLine
 10
-429.6616342905405
 20
200.5227281725084
 30
0.0
 11
-429.6616342905405
 21
215.9516898490288
 31
0.0
  0
LINE
  5
D6
330
1F
100
AcDbEntity
  8
2-0
  6
JWW_CENTER1
 62
     3
370
     9
100
AcDbLine
 10
-337.6261943095439
 20
208.2372090107686
 30
0.0
 11
-322.1972326330236
 21
208.2372090107686
 31
0.0
  0
LINE
  5
D7
330
1F
100
AcDbEntity
  8
2-0
  6
JWW_CENTER1
 62
     3
370
     9
100
AcDbLine
 10
-329.9117134712837
 20
200.5227281725084
 30
0.0
 11
-329.9117134712837
 21
215.9516898490288
 31
0.0
  0
LINE
  5
D8
330
1F
100
AcDbEntity
  8
2-0
  6
JWW_CENTER1
 62
     3
370
     9
100
AcDbLine
 10
-237.8762734902872
 20
208.2372090107686
 30
0.0
 11
-222.4473118137669
 21
208.2372090107686
 31
0.0
  0
LINE
  5
D9
330
1F
100
AcDbEntity
  8
2-0
  6
JWW_CENTER1
 62
     3
370
     9
100
AcDbLine
 10
-230.161792652027
 20
200.5227281725084
 30
0.0
 11
-230.161792652027
 21
215.9516898490288
 31
0.0
  0
LINE
  5
DA
330
1F
100
AcDbEntity
  8
2-0
  6
JWW_CENTER1
 62
     3
370
     9
100
AcDbLine
 10
-138.1263526710303
 20
208.2372090107686
 30
0.0
 11
-122.69739099451
 21
208.2372090107686
 31
0.0
  0
LINE
  5
DB
330
1F
100
AcDbEntity
  8
2-0
  6
JWW_CENTER1
 62
     3
370
     9
100
AcDbLine
 10
-130.4118718327701
 20
200.5227281725084
 30
0.0
 11
-130.4118718327701
 21
215.9516898490288
 31
0.0
  0
LINE
  5
DC
330
1F
100
AcDbEntity
  8
2-0
  6
JWW_CENTER1
 62
     3
370
     9
100
AcDbLine
 10
-38.37643185177359
 20
208.2372090107686
 30
0.0
 11
-22.94747017525327
 21
208.2372090107686
 31
0.0
  0
LINE
  5
DD
330
1F
100
AcDbEntity
  8
2-0
  6
JWW_CENTER1
 62
     3
370
     9
100
AcDbLine
 10
-30.66195101351343
 20
200.5227281725084
 30
0.0
 11
-30.66195101351343
 21
215.9516898490288
 31
0.0
  0
LINE
  5
DE
330
1F
100
AcDbEntity
  8
2-0
  6
JWW_CENTER1
 62
     3
370
     9
100
AcDbLine
 10
61.37348896748313
 20
208.2372090107686
 30
0.0
 11
76.80245064400344
 21
208.2372090107686
 31
0.0
  0
LINE
  5
DF
330
1F
100
AcDbEntity
  8
2-0
  6
JWW_CENTER1
 62
     3
370
     9
100
AcDbLine
 10
69.08796980574328
 20
200.5227281725084
 30
0.0
 11
69.08796980574328
 21
215.9516898490288
 31
0.0
  0
LINE
  5
E0
330
1F
100
AcDbEntity
  8
2-0
  6
JWW_CENTER1
 62
     3
370
     9
100
AcDbLine
 10
161.12340978674
 20
208.2372090107686
 30
0.0
 11
176.5523714632602
 21
208.2372090107686
 31
0.0
  0
LINE
  5
E1
330
1F
100
AcDbEntity
  8
2-0
  6
JWW_CENTER1
 62
     3
370
     9
100
AcDbLine
 10
168.837890625
 20
200.5227281725084
 30
0.0
 11
168.837890625
 21
215.9516898490288
 31
0.0
  0
LINE
  5
E2
330
1F
100
AcDbEntity
  8
2-0
  6
JWW_CENTER1
 62
     3
370
     9
100
AcDbLine
 10
260.8733306059967
 20
208.2372090107686
 30
0.0
 11
276.3022922825169
 21
208.2372090107686
 31
0.0
  0
LINE
  5
E3
330
1F
100
AcDbEntity
  8
2-0
  6
JWW_CENTER1
 62
     3
370
     9
100
AcDbLine
 10
268.5878114442569
 20
200.5227281725084
 30
0.0
 11
268.5878114442569
 21
215.9516898490288
 31
0.0
  0
LINE
  5
E4
330
1F
100
AcDbEntity
  8
2-0
  6
JWW_CENTER1
 62
     3
370
     9
100
AcDbLine
 10
360.6232514252534
 20
208.2372090107686
 30
0.0
 11
376.0522131017738
 21
208.2372090107686
 31
0.0
  0
LINE
  5
E5
330
1F
100
AcDbEntity
  8
2-0
  6
JWW_CENTER1
 62
     3
370
     9
100
AcDbLine
 10
368.3377322635138
 20
200.5227281725084
 30
0.0
 11
368.3377322635138
 21
215.9516898490288
 31
0.0
  0
LINE
  5
E6
330
1F
100
AcDbEntity
  8
2-0
  6
JWW_CENTER1
 62
     3
370
     9
100
AcDbLine
 10
460.3731722445103
 20
208.2372090107686
 30
0.0
 11
475.8021339210306
 21
208.2372090107686
 31
0.0
  0
LINE
  5
E7
330
1F
100
AcDbEntity
  8
2-0
  6
JWW_CENTER1
 62
     3
370
     9
100
AcDbLine
 10
468.0876530827703
 20
200.5227281725084
 30
0.0
 11
468.0876530827703
 21
215.9516898490288
 31
0.0
  0
LINE
  5
E8
330
1F
100
AcDbEntity
  8
2-0
  6
JWW_CENTER1
 62
     3
370
     9
100
AcDbLine
 10
560.1230930637669
 20
208.2372090107686
 30
0.0
 11
575.5520547402872
 21
208.2372090107686
 31
0.0
  0
LINE
  5
E9
330
1F
100
AcDbEntity
  8
2-0
  6
JWW_CENTER1
 62
     3
370
     9
100
AcDbLine
 10
567.8375739020272
 20
200.5227281725084
 30
0.0
 11
567.8375739020272
 21
215.9516898490288
 31
0.0
  0
LINE
  5
EA
330
1F
100
AcDbEntity
  8
2-0
  6
JWW_CENTER1
 62
     3
370
     9
100
AcDbLine
 10
659.8730138830238
 20
208.2372090107686
 30
0.0
 11
675.3019755595441
 21
208.2372090107686
 31
0.0
  0
LINE
  5
EB
330
1F
100
AcDbEntity
  8
2-0
  6
JWW_CENTER1
 62
     3
370
     9
100
AcDbLine
 10
667.5874947212837
 20
200.5227281725084
 30
0.0
 11
667.5874947212837
 21
215.9516898490288
 31
0.0
  0
LINE
  5
EC
330
1F
100
AcDbEntity
  8
2-0
  6
JWW_CENTER1
 62
     3
370
     9
100
AcDbLine
 10
759.6229347022806
 20
208.2372090107686
 30
0.0
 11
775.0518963788006
 21
208.2372090107686
 31
0.0
  0
LINE
  5
ED
330
1F
100
AcDbEntity
  8
2-0
  6
JWW_CENTER1
 62
     3
370
     9
100
AcDbLine
 10
767.3374155405406
 20
200.5227281725084
 30
0.0
 11
767.3374155405406
 21
215.9516898490288
 31
0.0
  0
LINE
  5
EE
330
1F
100
AcDbEntity
  8
2-0
  6
JWW_CENTER1
 62
     3
370
     9
100
AcDbLine
 10
859.3728555215372
 20
208.2372090107686
 30
0.0
 11
874.8018171980575
 21
208.2372090107686
 31
0.0
  0
LINE
  5
EF
330
1F
100
AcDbEntity
  8
2-0
  6
JWW_CENTER1
 62
     3
370
     9
100
AcDbLine
 10
867.0873363597975
 20
200.5227281725084
 30
0.0
 11
867.0873363597975
 21
215.9516898490288
 31
0.0
  0
LINE
  5
F0
330
1F
100
AcDbEntity
  8
2-0
  6
JWW_CENTER1
 62
     3
370
     9
100
AcDbLine
 10
959.1227763407941
 20
208.2372090107686
 30
0.0
 11
974.5517380173144
 21
208.2372090107686
 31
0.0
  0
LINE
  5
F1
330
1F
100
AcDbEntity
  8
2-0
  6
JWW_CENTER1
 62
     3
370
     9
100
AcDbLine
 10
966.8372571790541
 20
200.5227281725084
 30
0.0
 11
966.8372571790541
 21
215.9516898490288
 31
0.0
  0
LINE
  5
F2
330
1F
100
AcDbEntity
  8
2-0
  6
JWW_CENTER1
 62
     3
370
     9
100
AcDbLine
 10
1058.872697160051
 20
208.2372090107686
 30
0.0
 11
1074.301658836571
 21
208.2372090107686
 31
0.0
  0
LINE
  5
F3
330
1F
100
AcDbEntity
  8
2-0
  6
JWW_CENTER1
 62
     3
370
     9
100
AcDbLine
 10
1066.587177998311
 20
200.5227281725084
 30
0.0
 11
1066.587177998311
 21
215.9516898490288
 31
0.0
  0
LINE
  5
F4
330
1F
100
AcDbEntity
  8
2-4
  6
Continuous
 62
     7
370
     9
100
AcDbLine
 10
-828.6613175675675
 20
193.022777660473
 30
0.0
 11
-828.6613175675675
 21
70.61370354729735
 31
0.0
  0
LINE
  5
F5
330
1F
100
AcDbEntity
  8
2-0
  6
JWW_CENTER1
 62
     3
370
     9
100
AcDbLine
 10
-679.036584802576
 20
252.0441531619511
 30
0.0
 11
-679.036584802576
 21
229.6304106841217
 31
0.0
  0
LINE
  5
F6
330
1F
100
AcDbEntity
  8
2-0
  6
JWW_CENTER1
 62
     3
370
     9
100
AcDbLine
 10
-379.7869708086992
 20
252.0441531619511
 30
0.0
 11
-379.7869708086992
 21
229.6304106841217
 31
0.0
  0
LINE
  5
F7
330
1F
100
AcDbEntity
  8
2-4
  6
Continuous
 62
     7
370
     9
100
AcDbLine
 10
-679.036584802576
 20
293.7531540329392
 30
0.0
 11
-379.7869708086992
 21
293.7531540329392
 31
0.0
  0
LINE
  5
F8
330
1F
100
AcDbEntity
  8
2-4
  6
Continuous
 62
     7
370
     9
100
AcDbLine
 10
-679.036584802576
 20
261.0441828547299
 30
0.0
 11
-679.036584802576
 21
295.5531302787163
 31
0.0
  0
LINE
  5
F9
330
1F
100
AcDbEntity
  8
2-4
  6
Continuous
 62
     7
370
     9
100
AcDbLine
 10
-379.7869708086992
 20
261.0441828547299
 30
0.0
 11
-379.7869708086992
 21
295.5531302787163
 31
0.0
  0
LINE
  5
FA
330
1F
100
AcDbEntity
  8
2-0
  6
JWW_CENTER1
 62
     3
370
     9
100
AcDbLine
 10
-80.53750527871608
 20
252.0441531619511
 30
0.0
 11
-80.53750527871608
 21
229.6304106841217
 31
0.0
  0
LINE
  5
FB
330
1F
100
AcDbEntity
  8
2-0
  6
JWW_CENTER1
 62
     3
370
     9
100
AcDbLine
 10
218.711960251267
 20
252.0441531619511
 30
0.0
 11
218.711960251267
 21
229.6304106841217
 31
0.0
  0
LINE
  5
FC
330
1F
100
AcDbEntity
  8
2-0
  6
JWW_CENTER1
 62
     3
370
     9
100
AcDbLine
 10
517.9617227090372
 20
252.0441531619511
 30
0.0
 11
517.9617227090372
 21
229.6304106841217
 31
0.0
  0
LINE
  5
FD
330
1F
100
AcDbEntity
  8
2-0
  6
JWW_CENTER1
 62
     3
370
     9
100
AcDbLine
 10
817.2114851668075
 20
252.0441531619511
 30
0.0
 11
817.2114851668075
 21
229.6304106841217
 31
0.0
  0
LINE
  5
FE
330
1F
100
AcDbEntity
  8
2-4
  6
Continuous
 62
     7
370
     9
100
AcDbLine
 10
782.2115676467484
 20
279.1909245671453
 30
0.0
 11
852.2115511507603
 21
279.1909245671453
 31
0.0
  0
LINE
  5
FF
330
1F
100
AcDbEntity
  8
2-4
  6
Continuous
 62
     7
370
     9
100
AcDbLine
 10
782.2115676467484
 20
248.7979901288008
 30
0.0
 11
782.2115676467484
 21
280.9909008129223
 31
0.0
  0
LINE
  5
100
330
1F
100
AcDbEntity
  8
2-4
  6
Continuous
 62
     7
370
     9
100
AcDbLine
 10
852.2115511507603
 20
248.7979901288008
 30
0.0
 11
852.2115511507603
 21
280.9909008129223
 31
0.0
  0
LINE
  5
101
330
1F
100
AcDbEntity
  8
2-Fﾚｲﾔ
  6
Continuous
 62
     7
370
     9
100
AcDbLine
 10
843.6684933224241
 20
240.8373561549831
 30
0.0
 11
850.5567725929056
 21
224.2074700432855
 31
0.0
  0
LINE
  5
102
330
1F
100
AcDbEntity
  8
2-Fﾚｲﾔ
  6
Continuous
 62
     7
370
     9
100
AcDbLine
 10
843.6684933224241
 20
240.8373561549831
 30
0.0
 11
846.0179344383447
 21
222.991402290963
 31
0.0
  0
LINE
  5
103
330
1F
100
AcDbEntity
  8
2-Fﾚｲﾔ
  6
Continuous
 62
     7
370
     9
100
AcDbLine
 10
843.6686417863178
 20
240.8373561549831
 30
0.0
 11
890.2049461570947
 21
67.16117570206939
 31
0.0
  0
LINE
  5
104
330
1F
100
AcDbEntity
  8
2-Fﾚｲﾔ
  6
Continuous
 62
     7
370
     9
100
AcDbLine
 10
890.2049461570947
 20
67.16117570206939
 30
0.0
 11
1140.648539775127
 21
67.16117570206939
 31
0.0
  0
LINE
  5
105
330
1F
100
AcDbEntity
  8
2-Fﾚｲﾔ
  6
Continuous
 62
     7
370
     9
100
AcDbLine
 10
69.08737595016908
 20
202.9245770428633
 30
0.0
 11
75.97565522065048
 21
186.2946909311656
 31
0.0
  0
LINE
  5
106
330
1F
100
AcDbEntity
  8
2-Fﾚｲﾔ
  6
Continuous
 62
     7
370
     9
100
AcDbLine
 10
69.08737595016908
 20
202.9245770428633
 30
0.0
 11
71.43681706608953
 21
185.078623178843
 31
0.0
  0
LINE
  5
107
330
1F
100
AcDbEntity
  8
2-Fﾚｲﾔ
  6
Continuous
 62
     7
370
     9
100
AcDbLine
 10
69.08737595016908
 20
202.9245770428633
 30
0.0
 11
105.4650384026605
 21
67.16117570206939
 31
0.0
  0
LINE
  5
108
330
1F
100
AcDbEntity
  8
2-4
  6
Continuous
 62
     7
370
     9
100
AcDbLine
 10
1134.022744668497
 20
168.2373244826859
 30
0.0
 11
1134.022744668497
 21
208.2372090107686
 31
0.0
  0
LINE
  5
109
330
1F
100
AcDbEntity
  8
2-4
  6
Continuous
 62
     7
370
     9
100
AcDbLine
 10
1090.587405642948
 20
168.2373244826859
 30
0.0
 11
1135.822720914274
 21
168.2373244826859
 31
0.0
  0
LINE
  5
10A
330
1F
100
AcDbEntity
  8
2-4
  6
Continuous
 62
     7
370
     9
100
AcDbLine
 10
1086.640047640414
 20
208.2372090107686
 30
0.0
 11
1135.822720914274
 21
208.2372090107686
 31
0.0
  0
LINE
  5
10B
330
1F
100
AcDbEntity
  8
2-4
  6
Continuous
 62
     7
370
     9
100
AcDbLine
 10
1134.022744668497
 20
208.2372090107686
 30
0.0
 11
1134.022744668497
 21
243.2372749947214
 31
0.0
  0
LINE
  5
10C
330
1F
100
AcDbEntity
  8
2-4
  6
Continuous
 62
     7
370
     9
100
AcDbLine
 10
1090.587405642948
 20
243.2372749947214
 30
0.0
 11
1135.822720914274
 21
243.2372749947214
 31
0.0
  0
LINE
  5
10D
330
1F
100
AcDbEntity
  8
2-Fﾚｲﾔ
  6
Continuous
 62
     7
370
     9
100
AcDbLine
 10
105.4650384026605
 20
67.16117570206939
 30
0.0
 11
276.6398991765203
 21
67.16117570206939
 31
0.0
  0
LINE
  5
10E
330
1F
100
AcDbEntity
  8
2-Fﾚｲﾔ
  6
Continuous
 62
     7
370
     9
100
AcDbLine
 10
-1067.55931957348
 20
450.3023912584459
 30
0.0
 11
11.09856682854735
 21
450.3023912584459
 31
0.0
  0
LINE
  5
10F
330
1F
100
AcDbEntity
  8
2-Fﾚｲﾔ
  6
Continuous
 62
     7
370
     9
100
AcDbLine
 10
-1067.55931957348
 20
402.3025298247467
 30
0.0
 11
11.09856682854735
 21
402.3025298247467
 31
0.0
  0
LINE
  5
110
330
1F
100
AcDbEntity
  8
2-Fﾚｲﾔ
  6
Continuous
 62
     7
370
     9
100
AcDbLine
 10
-1067.55931957348
 20
450.3023912584459
 30
0.0
 11
-1067.55931957348
 21
402.3025298247467
 31
0.0
  0
LINE
  5
111
330
1F
100
AcDbEntity
  8
2-Fﾚｲﾔ
  6
Continuous
 62
     7
370
     9
100
AcDbLine
 10
11.09856682854735
 20
450.3023912584459
 30
0.0
 11
11.09856682854735
 21
402.3025298247467
 31
0.0
  0
LINE
  5
112
330
1F
100
AcDbEntity
  8
3-0
  6
Continuous
 62
     3
370
     9
100
AcDbLine
 10
-187.2761411924619
 20
-368.0982154639992
 30
0.0
 11
-187.2761411924619
 21
-364.4981145085515
 31
0.0
  0
LINE
  5
113
330
1F
100
AcDbEntity
  8
3-0
  6
Continuous
 62
     3
370
     9
100
AcDbLine
 10
-412.2761411924619
 20
-360.8981620169974
 30
0.0
 11
-412.2761411924619
 21
-221.6981926995355
 31
0.0
  0
LINE
  5
114
330
1F
100
AcDbEntity
  8
3-F
  6
Continuous
 62
     7
370
     9
100
AcDbLine
 10
-480.1453708957981
 20
-368.0982154639992
 30
0.0
 11
-480.1453708957981
 21
-218.0981659760346
 31
0.0
  0
LINE
  5
115
330
1F
100
AcDbEntity
  8
3-0
  6
Continuous
 62
     3
370
     9
100
AcDbLine
 10
-323.7761461412584
 20
-368.0982154639992
 30
0.0
 11
-323.7761461412584
 21
-364.4981145085515
 31
0.0
  0
LINE
  5
116
330
1F
100
AcDbEntity
  8
3-0
  6
Continuous
 62
     3
370
     9
100
AcDbLine
 10
-290.77618573163
 20
-368.0982154639992
 30
0.0
 11
-290.77618573163
 21
-364.4981145085515
 31
0.0
  0
LINE
  5
117
330
1F
100
AcDbEntity
  8
3-1
  6
Continuous
 62
     2
370
     9
100
AcDbLine
 10
-412.8761580183698
 20
-250.1981382627744
 30
0.0
 11
-415.8761679159628
 21
-250.1981382627744
 31
0.0
  0
LINE
  5
118
330
1F
100
AcDbEntity
  8
3-1
  6
Continuous
 62
     2
370
     9
100
AcDbLine
 10
-264.0761421822212
 20
-364.4981145085515
 30
0.0
 11
-264.0761421822212
 21
-361.4981046109586
 31
0.0
  0
LINE
  5
119
330
1F
100
AcDbEntity
  8
3-1
  6
Continuous
 62
     2
370
     9
100
AcDbLine
 10
-396.0761322846283
 20
-361.4981046109586
 30
0.0
 11
-264.0761421822212
 21
-361.4981046109586
 31
0.0
  0
LINE
  5
11A
330
1F
100
AcDbEntity
  8
3-1
  6
Continuous
 62
     2
370
     9
100
AcDbLine
 10
-412.8761580183698
 20
-250.1981382627744
 30
0.0
 11
-412.8761580183698
 21
-222.598180822424
 31
0.0
  0
LINE
  5
11B
330
1F
100
AcDbEntity
  8
3-1
  6
Continuous
 62
     2
370
     9
100
AcDbLine
 10
-415.8761679159628
 20
-250.1981382627744
 30
0.0
 11
-415.8761679159628
 21
-222.598180822424
 31
0.0
  0
LINE
  5
11C
330
1F
100
AcDbEntity
  8
3-1
  6
Continuous
 62
     2
370
     9
100
AcDbLine
 10
-402.0761520798142
 20
-222.598180822424
 30
0.0
 11
-402.0761520798142
 21
-358.4981689453125
 31
0.0
  0
LINE
  5
11D
330
1F
100
AcDbEntity
  8
3-1
  6
Continuous
 62
     2
370
     9
100
AcDbLine
 10
-399.076216414168
 20
-222.598180822424
 30
0.0
 11
-399.076216414168
 21
-358.4981689453125
 31
0.0
  0
LINE
  5
11E
330
1F
100
AcDbEntity
  8
3-1
  6
Continuous
 62
     2
370
     9
100
AcDbLine
 10
-323.7761461412584
 20
-364.4981145085515
 30
0.0
 11
-323.7761461412584
 21
-361.4981046109586
 31
0.0
  0
LINE
  5
11F
330
1F
100
AcDbEntity
  8
3-1
  6
Continuous
 62
     2
370
     9
100
AcDbLine
 10
-290.77618573163
 20
-364.4981145085515
 30
0.0
 11
-290.77618573163
 21
-361.4981046109586
 31
0.0
  0
LINE
  5
120
330
1F
100
AcDbEntity
  8
3-0
  6
Continuous
 62
     3
370
     9
100
AcDbLine
 10
-405.076161977407
 20
-364.4981145085515
 30
0.0
 11
-187.2761411924619
 21
-364.4981145085515
 31
0.0
  0
LINE
  5
121
330
1F
100
AcDbEntity
  8
3-0
  6
Continuous
 62
     3
370
     9
100
AcDbLine
 10
-402.676168905722
 20
-221.6981926995355
 30
0.0
 11
-405.076161977407
 21
-248.0981907200169
 31
0.0
  0
LINE
  5
122
330
1F
100
AcDbEntity
  8
3-0
  6
Continuous
 62
     3
370
     9
100
AcDbLine
 10
-405.076161977407
 20
-248.0981907200169
 30
0.0
 11
-408.0638493718326
 21
-247.8265760267102
 31
0.0
  0
LINE
  5
123
330
1F
100
AcDbEntity
  8
3-0
  6
Continuous
 62
     3
370
     9
100
AcDbLine
 10
-405.6885755384291
 20
-221.698341163429
 30
0.0
 11
-408.0638493718326
 21
-247.8265760267102
 31
0.0
  0
LINE
  5
124
330
1F
100
AcDbEntity
  8
3-0
  6
Continuous
 62
     3
370
     9
100
AcDbLine
 10
-187.2761411924619
 20
-368.0982154639992
 30
0.0
 11
-405.076161977407
 21
-368.0982154639992
 31
0.0
  0
LINE
  5
125
330
1F
100
AcDbEntity
  8
3-1
  6
Continuous
 62
     2
370
     9
100
AcDbLine
 10
-396.0761322846283
 20
-364.4981145085515
 30
0.0
 11
-264.0761421822212
 21
-364.4981145085515
 31
0.0
  0
LINE
  5
126
330
1F
100
AcDbEntity
  8
3-2
  6
Continuous
 62
     2
370
     9
100
AcDbLine
 10
-187.2761411924619
 20
-371.0981511296452
 30
0.0
 11
-412.2761411924619
 21
-371.0981511296452
 31
0.0
  0
LINE
  5
127
330
1F
100
AcDbEntity
  8
3-2
  6
Continuous
 62
     2
370
     9
100
AcDbLine
 10
-412.2761411924619
 20
-368.0982154639992
 30
0.0
 11
-412.2761411924619
 21
-371.0981511296452
 31
0.0
  0
LINE
  5
128
330
1F
100
AcDbEntity
  8
3-2
  6
Continuous
 62
     2
370
     9
100
AcDbLine
 10
-187.2761411924619
 20
-368.0982154639992
 30
0.0
 11
-412.2761411924619
 21
-368.0982154639992
 31
0.0
  0
LINE
  5
129
330
1F
100
AcDbEntity
  8
3-2
  6
Continuous
 62
     2
370
     9
100
AcDbLine
 10
-187.2761411924619
 20
-368.0982154639992
 30
0.0
 11
-187.2761411924619
 21
-371.0981511296452
 31
0.0
  0
LINE
  5
12A
330
1F
100
AcDbEntity
  8
3-2
  6
Continuous
 62
     2
370
     9
100
AcDbLine
 10
-187.7742375554264
 20
-371.0981511296452
 30
0.0
 11
-187.2761411924619
 21
-370.6001289986275
 31
0.0
  0
LINE
  5
12B
330
1F
100
AcDbEntity
  8
3-2
  6
Continuous
 62
     2
370
     9
100
AcDbLine
 10
-194.1381423537795
 20
-371.0981511296452
 30
0.0
 11
-188.1381225585938
 21
-368.0982154639992
 31
0.0
  0
LINE
  5
12C
330
1F
100
AcDbEntity
  8
3-2
  6
Continuous
 62
     2
370
     9
100
AcDbLine
 10
-200.5021213840794
 20
-371.0981511296452
 30
0.0
 11
-194.5021758208403
 21
-368.0982154639992
 31
0.0
  0
LINE
  5
12D
330
1F
100
AcDbEntity
  8
3-2
  6
Continuous
 62
     2
370
     9
100
AcDbLine
 10
-206.8661004143792
 20
-371.0981511296452
 30
0.0
 11
-200.8660806191933
 21
-368.0982154639992
 31
0.0
  0
LINE
  5
12E
330
1F
100
AcDbEntity
  8
3-2
  6
Continuous
 62
     2
370
     9
100
AcDbLine
 10
-213.2300052127322
 20
-371.0981511296452
 30
0.0
 11
-207.2299854175464
 21
-368.0982154639992
 31
0.0
  0
LINE
  5
12F
330
1F
100
AcDbEntity
  8
3-2
  6
Continuous
 62
     2
370
     9
100
AcDbLine
 10
-219.593984243032
 20
-371.0981511296452
 30
0.0
 11
-213.594038679793
 21
-368.0982154639992
 31
0.0
  0
LINE
  5
130
330
1F
100
AcDbEntity
  8
3-2
  6
Continuous
 62
     2
370
     9
100
AcDbLine
 10
-225.9579632733319
 20
-371.0981511296452
 30
0.0
 11
-219.9579434781461
 21
-368.0982154639992
 31
0.0
  0
LINE
  5
131
330
1F
100
AcDbEntity
  8
3-2
  6
Continuous
 62
     2
370
     9
100
AcDbLine
 10
-232.3218680716848
 20
-371.0981511296452
 30
0.0
 11
-226.3219225084459
 21
-368.0982154639992
 31
0.0
  0
LINE
  5
132
330
1F
100
AcDbEntity
  8
3-2
  6
Continuous
 62
     2
370
     9
100
AcDbLine
 10
-238.6858471019847
 20
-371.0981511296452
 30
0.0
 11
-232.6859015387458
 21
-368.0982154639992
 31
0.0
  0
LINE
  5
133
330
1F
100
AcDbEntity
  8
3-2
  6
Continuous
 62
     2
370
     9
100
AcDbLine
 10
-245.0498261322845
 20
-371.0981511296452
 30
0.0
 11
-239.0498063370987
 21
-368.0982154639992
 31
0.0
  0
LINE
  5
134
330
1F
100
AcDbEntity
  8
3-2
  6
Continuous
 62
     2
370
     9
100
AcDbLine
 10
-251.4138051625844
 20
-371.0981511296452
 30
0.0
 11
-245.4138595993453
 21
-368.0982154639992
 31
0.0
  0
LINE
  5
135
330
1F
100
AcDbEntity
  8
3-2
  6
Continuous
 62
     2
370
     9
100
AcDbLine
 10
-257.7777841928842
 20
-371.0981511296452
 30
0.0
 11
-251.7777643976984
 21
-368.0982154639992
 31
0.0
  0
LINE
  5
136
330
1F
100
AcDbEntity
  8
3-2
  6
Continuous
 62
     2
370
     9
100
AcDbLine
 10
-264.1416889912373
 20
-371.0981511296452
 30
0.0
 11
-258.1417434279983
 21
-368.0982154639992
 31
0.0
  0
LINE
  5
137
330
1F
100
AcDbEntity
  8
3-2
  6
Continuous
 62
     2
370
     9
100
AcDbLine
 10
-270.5056680215372
 20
-371.0981511296452
 30
0.0
 11
-264.5057224582981
 21
-368.0982154639992
 31
0.0
  0
LINE
  5
138
330
1F
100
AcDbEntity
  8
3-2
  6
Continuous
 62
     2
370
     9
100
AcDbLine
 10
-276.8696470518369
 20
-371.0981511296452
 30
0.0
 11
-270.8696272566511
 21
-368.0982154639992
 31
0.0
  0
LINE
  5
139
330
1F
100
AcDbEntity
  8
3-2
  6
Continuous
 62
     2
370
     9
100
AcDbLine
 10
-283.2336260821367
 20
-371.0981511296452
 30
0.0
 11
-277.2336805188978
 21
-368.0982154639992
 31
0.0
  0
LINE
  5
13A
330
1F
100
AcDbEntity
  8
3-2
  6
Continuous
 62
     2
370
     9
100
AcDbLine
 10
-289.5976051124366
 20
-371.0981511296452
 30
0.0
 11
-283.5975853172508
 21
-368.0982154639992
 31
0.0
  0
LINE
  5
13B
330
1F
100
AcDbEntity
  8
3-2
  6
Continuous
 62
     2
370
     9
100
AcDbLine
 10
-295.9615099107897
 20
-371.0981511296452
 30
0.0
 11
-289.9614901156039
 21
-368.0982154639992
 31
0.0
  0
LINE
  5
13C
330
1F
100
AcDbEntity
  8
3-2
  6
Continuous
 62
     2
370
     9
100
AcDbLine
 10
-302.3254889410895
 20
-371.0981511296452
 30
0.0
 11
-296.3255433778505
 21
-368.0982154639992
 31
0.0
  0
LINE
  5
13D
330
1F
100
AcDbEntity
  8
3-2
  6
Continuous
 62
     2
370
     9
100
AcDbLine
 10
-308.6894679713894
 20
-371.0981511296452
 30
0.0
 11
-302.6894481762034
 21
-368.0982154639992
 31
0.0
  0
LINE
  5
13E
330
1F
100
AcDbEntity
  8
3-2
  6
Continuous
 62
     2
370
     9
100
AcDbLine
 10
-315.0533727697423
 20
-371.0981511296452
 30
0.0
 11
-309.0534272065033
 21
-368.0982154639992
 31
0.0
  0
LINE
  5
13F
330
1F
100
AcDbEntity
  8
3-2
  6
Continuous
 62
     2
370
     9
100
AcDbLine
 10
-321.4174260319889
 20
-371.0981511296452
 30
0.0
 11
-315.4174062368031
 21
-368.0982154639992
 31
0.0
  0
LINE
  5
140
330
1F
100
AcDbEntity
  8
3-2
  6
Continuous
 62
     2
370
     9
100
AcDbLine
 10
-327.781330830342
 20
-371.0981511296452
 30
0.0
 11
-321.7813110351562
 21
-368.0982154639992
 31
0.0
  0
LINE
  5
141
330
1F
100
AcDbEntity
  8
3-2
  6
Continuous
 62
     2
370
     9
100
AcDbLine
 10
-334.1453098606419
 20
-371.0981511296452
 30
0.0
 11
-328.1452900654561
 21
-368.0982154639992
 31
0.0
  0
LINE
  5
142
330
1F
100
AcDbEntity
  8
3-2
  6
Continuous
 62
     2
370
     9
100
AcDbLine
 10
-340.5092146589948
 20
-371.0981511296452
 30
0.0
 11
-334.5092690957559
 21
-368.0982154639992
 31
0.0
  0
LINE
  5
143
330
1F
100
AcDbEntity
  8
3-2
  6
Continuous
 62
     2
370
     9
100
AcDbLine
 10
-346.8732679212416
 20
-371.0981511296452
 30
0.0
 11
-340.8732481260556
 21
-368.0982154639992
 31
0.0
  0
LINE
  5
144
330
1F
100
AcDbEntity
  8
3-2
  6
Continuous
 62
     2
370
     9
100
AcDbLine
 10
-353.2371727195945
 20
-371.0981511296452
 30
0.0
 11
-347.2372271563555
 21
-368.0982154639992
 31
0.0
  0
LINE
  5
145
330
1F
100
AcDbEntity
  8
3-2
  6
Continuous
 62
     2
370
     9
100
AcDbLine
 10
-359.6011517498944
 20
-371.0981511296452
 30
0.0
 11
-353.6012061866553
 21
-368.0982154639992
 31
0.0
  0
LINE
  5
146
330
1F
100
AcDbEntity
  8
3-2
  6
Continuous
 62
     2
370
     9
100
AcDbLine
 10
-365.9651307801942
 20
-371.0981511296452
 30
0.0
 11
-359.9651109850084
 21
-368.0982154639992
 31
0.0
  0
LINE
  5
147
330
1F
100
AcDbEntity
  8
3-2
  6
Continuous
 62
     2
370
     9
100
AcDbLine
 10
-372.3290355785472
 20
-371.0981511296452
 30
0.0
 11
-366.3290900153083
 21
-368.0982154639992
 31
0.0
  0
LINE
  5
148
330
1F
100
AcDbEntity
  8
3-2
  6
Continuous
 62
     2
370
     9
100
AcDbLine
 10
-378.693014608847
 20
-371.0981511296452
 30
0.0
 11
-372.6930690456081
 21
-368.0982154639992
 31
0.0
  0
LINE
  5
149
330
1F
100
AcDbEntity
  8
3-2
  6
Continuous
 62
     2
370
     9
100
AcDbLine
 10
-385.0569936391469
 20
-371.0981511296452
 30
0.0
 11
-379.0569738439611
 21
-368.0982154639992
 31
0.0
  0
LINE
  5
14A
330
1F
100
AcDbEntity
  8
3-2
  6
Continuous
 62
     2
370
     9
100
AcDbLine
 10
-391.4209726694467
 20
-371.0981511296452
 30
0.0
 11
-385.4209528742609
 21
-368.0982154639992
 31
0.0
  0
LINE
  5
14B
330
1F
100
AcDbEntity
  8
3-2
  6
Continuous
 62
     2
370
     9
100
AcDbLine
 10
-397.7849516997466
 20
-371.0981511296452
 30
0.0
 11
-391.7849319045608
 21
-368.0982154639992
 31
0.0
  0
LINE
  5
14C
330
1F
100
AcDbEntity
  8
3-2
  6
Continuous
 62
     2
370
     9
100
AcDbLine
 10
-410.5128355283994
 20
-371.0981511296452
 30
0.0
 11
-404.5128899651605
 21
-368.0982154639992
 31
0.0
  0
LINE
  5
14D
330
1F
100
AcDbEntity
  8
3-2
  6
Continuous
 62
     2
370
     9
100
AcDbLine
 10
-412.2761411924619
 20
-369.4974876610008
 30
0.0
 11
-410.8767947635134
 21
-368.0982154639992
 31
0.0
  0
LINE
  5
14E
330
1F
100
AcDbEntity
  8
3-2
  6
Continuous
 62
     2
370
     9
100
AcDbLine
 10
-404.1488564980997
 20
-371.0981511296452
 30
0.0
 11
-398.1489109348606
 21
-368.0982154639992
 31
0.0
  0
LINE
  5
14F
330
1F
100
AcDbEntity
  8
3-0
  6
Continuous
 62
     3
370
     9
100
AcDbLine
 10
-408.676188700908
 20
-221.6981926995355
 30
0.0
 11
-408.676188700908
 21
-360.8981620169974
 31
0.0
  0
LINE
  5
150
330
1F
100
AcDbEntity
  8
3-4
  6
Continuous
 62
     7
370
     9
100
AcDbLine
 10
-480.1453708957981
 20
-368.0982154639992
 30
0.0
 11
-481.0453590186866
 21
-368.0982154639992
 31
0.0
  0
LINE
  5
151
330
1F
100
AcDbEntity
  8
3-4
  6
Continuous
 62
     7
370
     9
100
AcDbLine
 10
-427.5229376715583
 20
-368.0982154639992
 30
0.0
 11
-434.72299111856
 21
-368.0982154639992
 31
0.0
  0
LINE
  5
152
330
1F
100
AcDbEntity
  8
3-4
  6
Continuous
 62
     7
370
     9
100
AcDbLine
 10
-436.5229673643369
 20
-368.0982154639992
 30
0.0
 11
-436.5229673643369
 21
-338.0981907200169
 31
0.0
  0
LINE
  5
153
330
1F
100
AcDbEntity
  8
3-4
  6
Continuous
 62
     7
370
     9
100
AcDbLine
 10
-309.6969439532305
 20
-53.40902462521109
 30
0.0
 11
-309.6969439532305
 21
-83.18538851351343
 31
0.0
  0
LINE
  5
154
330
1F
100
AcDbEntity
  8
3-4
  6
Continuous
 62
     7
370
     9
100
AcDbLine
 10
-309.6969439532305
 20
-83.18538851351343
 30
0.0
 11
-205.0545439849028
 21
-83.18538851351343
 31
0.0
  0
LINE
  5
155
330
1F
100
AcDbEntity
  8
3-4
  6
Continuous
 62
     7
370
     9
100
AcDbLine
 10
-205.0545439849028
 20
-83.18538851351343
 30
0.0
 11
-205.0545439849028
 21
-53.40902462521109
 31
0.0
  0
LINE
  5
156
330
1F
100
AcDbEntity
  8
3-4
  6
Continuous
 62
     7
370
     9
100
AcDbLine
 10
-205.0545439849028
 20
-53.40902462521109
 30
0.0
 11
-309.6969439532305
 21
-53.40902462521109
 31
0.0
  0
LINE
  5
157
330
1F
100
AcDbEntity
  8
3-F
  6
Continuous
 62
     7
370
     9
100
AcDbLine
 10
-310.0088665936444
 20
-118.5124462230784
 30
0.0
 11
-39.99260979729718
 21
-118.5124462230784
 31
0.0
  0
LINE
  5
158
330
1F
100
AcDbEntity
  8
3-4
  6
Continuous
 62
     7
370
     9
100
AcDbLine
 10
-310.0088665936444
 20
-118.5124462230784
 30
0.0
 11
-400.5622657569678
 21
-217.8277389938766
 31
0.0
  0
LINE
  5
159
330
1F
100
AcDbEntity
  8
3-4
  6
Continuous
 62
     7
370
     9
100
AcDbLine
 10
-400.5622657569678
 20
-217.8277389938766
 30
0.0
 11
-390.2745344832136
 21
-203.0574373812288
 31
0.0
  0
LINE
  5
15A
330
1F
100
AcDbEntity
  8
3-4
  6
Continuous
 62
     7
370
     9
100
AcDbLine
 10
-400.5622657569678
 20
-217.8277389938766
 30
0.0
 11
-386.8021867081925
 21
-206.2233556798986
 31
0.0
  0
LINE
  5
15B
330
1F
100
AcDbEntity
  8
3-F
  6
Continuous
 62
     7
370
     9
100
AcDbLine
 10
-162.5407203468116
 20
-263.4247123099661
 30
0.0
 11
224.4788917335305
 21
-263.4247123099661
 31
0.0
  0
LINE
  5
15C
330
1F
100
AcDbEntity
  8
3-4
  6
Continuous
 62
     7
370
     9
100
AcDbLine
 10
-162.5407203468116
 20
-263.4247123099661
 30
0.0
 11
-234.1093733504011
 21
-364.4981145085515
 31
0.0
  0
LINE
  5
15D
330
1F
100
AcDbEntity
  8
3-4
  6
Continuous
 62
     7
370
     9
100
AcDbLine
 10
-234.1093733504011
 20
-364.4981145085515
 30
0.0
 11
-225.7138886322845
 21
-348.5759557775548
 31
0.0
  0
LINE
  5
15E
330
1F
100
AcDbEntity
  8
3-4
  6
Continuous
 62
     7
370
     9
100
AcDbLine
 10
-234.1093733504011
 20
-364.4981145085515
 30
0.0
 11
-221.8790662610853
 21
-351.2913603911528
 31
0.0
  0
LINE
  5
15F
330
1F
100
AcDbEntity
  8
3-4
  6
Continuous
 62
     7
370
     9
100
AcDbLine
 10
-116.4195210224873
 20
-425.6247080210093
 30
0.0
 11
-116.4195210224873
 21
-455.4010719093117
 31
0.0
  0
LINE
  5
160
330
1F
100
AcDbEntity
  8
3-4
  6
Continuous
 62
     7
370
     9
100
AcDbLine
 10
-116.4195210224873
 20
-455.4010719093117
 30
0.0
 11
-11.77704682221281
 21
-455.4010719093117
 31
0.0
  0
LINE
  5
161
330
1F
100
AcDbEntity
  8
3-4
  6
Continuous
 62
     7
370
     9
100
AcDbLine
 10
-11.77704682221281
 20
-455.4010719093117
 30
0.0
 11
-11.77704682221281
 21
-425.6247080210093
 31
0.0
  0
LINE
  5
162
330
1F
100
AcDbEntity
  8
3-4
  6
Continuous
 62
     7
370
     9
100
AcDbLine
 10
-11.77704682221281
 20
-425.6247080210093
 30
0.0
 11
-116.4195210224873
 21
-425.6247080210093
 31
0.0
  0
LINE
  5
163
330
1F
100
AcDbEntity
  8
3-F
  6
Continuous
 62
     7
370
     9
100
AcDbLine
 10
-121.4612063846072
 20
-494.3878017116238
 30
0.0
 11
182.4668760557433
 21
-494.3878017116238
 31
0.0
  0
LINE
  5
164
330
1F
100
AcDbEntity
  8
3-4
  6
Continuous
 62
     7
370
     9
100
AcDbLine
 10
-121.4612063846072
 20
-494.3878017116238
 30
0.0
 11
-208.5297868058487
 21
-371.0981511296452
 31
0.0
  0
LINE
  5
165
330
1F
100
AcDbEntity
  8
3-4
  6
Continuous
 62
     7
370
     9
100
AcDbLine
 10
-208.5297868058487
 20
-371.0981511296452
 30
0.0
 11
-196.3159592087203
 21
-384.3201970280827
 31
0.0
  0
LINE
  5
166
330
1F
100
AcDbEntity
  8
3-4
  6
Continuous
 62
     7
370
     9
100
AcDbLine
 10
-208.5297868058487
 20
-371.0981511296452
 30
0.0
 11
-200.154196249472
 21
-387.0308507970861
 31
0.0
  0
LINE
  5
167
330
1F
100
AcDbEntity
  8
3-4
  6
Continuous
 62
     7
370
     9
100
AcDbLine
 10
-412.2761411924619
 20
-181.2296076594172
 30
0.0
 11
-402.676168905722
 21
-181.2296076594172
 31
0.0
  0
LINE
  5
168
330
1F
100
AcDbEntity
  8
3-4
  6
Continuous
 62
     7
370
     9
100
AcDbLine
 10
-412.2761411924619
 20
-212.6981630067567
 30
0.0
 11
-412.2761411924619
 21
-179.4296314136402
 31
0.0
  0
LINE
  5
169
330
1F
100
AcDbEntity
  8
3-4
  6
Continuous
 62
     7
370
     9
100
AcDbLine
 10
-402.676168905722
 20
-212.6981630067567
 30
0.0
 11
-402.676168905722
 21
-179.4296314136402
 31
0.0
  0
LINE
  5
16A
330
1F
100
AcDbEntity
  8
3-F
  6
Continuous
 62
     7
370
     9
100
AcDbLine
 10
-417.6160162848395
 20
-218.0981659760346
 30
0.0
 11
-481.0453590186866
 21
-218.0981659760346
 31
0.0
  0
LINE
  5
16B
330
1F
100
AcDbEntity
  8
3-4
  6
Continuous
 62
     7
370
     9
100
AcDbLine
 10
-417.4267248205236
 20
-338.0981907200169
 30
0.0
 11
-438.3229436101139
 21
-338.0981907200169
 31
0.0
  0
LINE
  5
16C
330
1F
100
AcDbEntity
  8
3-0
  6
Continuous
 62
     3
370
     9
100
AcDbLine
 10
-412.2761411924619
 20
-338.0981907200169
 30
0.0
 11
-408.676188700908
 21
-338.0981907200169
 31
0.0
  0
LINE
  5
16D
330
1F
100
AcDbEntity
  8
3-F
  6
Continuous
 62
     7
370
     9
100
AcDbLine
 10
-501.045301282728
 20
-122.5250541068413
 30
0.0
 11
-412.2761411924619
 21
-338.0981907200169
 31
0.0
  0
LINE
  5
16E
330
1F
100
AcDbEntity
  8
3-4
  6
Continuous
 62
     7
370
     9
100
AcDbLine
 10
-412.2761411924619
 20
-338.0981907200169
 30
0.0
 11
-421.2437315244931
 21
-322.4910723711993
 31
0.0
  0
LINE
  5
16F
330
1F
100
AcDbEntity
  8
3-4
  6
Continuous
 62
     7
370
     9
100
AcDbLine
 10
-412.2761411924619
 20
-338.0981907200169
 30
0.0
 11
-416.8987872149492
 21
-320.7018597577069
 31
0.0
  0
LINE
  5
170
330
1F
100
AcDbEntity
  8
4-0
  6
Continuous
 62
     3
370
     9
100
AcDbLine
 10
836.8672138935813
 20
-419.9408420872044
 30
0.0
 11
836.8672138935813
 21
-422.5594482421875
 31
0.0
  0
LINE
  5
171
330
1F
100
AcDbEntity
  8
4-3
  6
Continuous
 62
     6
370
     9
100
AcDbLine
 10
739.3436576224663
 20
-426.4885451858108
 30
0.0
 11
739.3436576224663
 21
-429.1065574852196
 31
0.0
  0
LINE
  5
172
330
1F
100
AcDbEntity
  8
4-3
  6
Continuous
 62
     6
370
     9
100
AcDbLine
 10
755.22008947424
 20
-304.7107395481419
 30
0.0
 11
852.7439426731419
 21
-361.0164135082348
 31
0.0
  0
LINE
  5
173
330
1F
100
AcDbEntity
  8
4-3
  6
Continuous
 62
     6
370
     9
100
AcDbLine
 10
739.3436576224663
 20
-426.4885451858108
 30
0.0
 11
852.7439426731419
 21
-361.0164135082348
 31
0.0
  0
LINE
  5
174
330
1F
100
AcDbEntity
  8
4-3
  6
Continuous
 62
     6
370
     9
100
AcDbLine
 10
739.3436576224663
 20
-429.1065574852196
 30
0.0
 11
852.7439426731419
 21
-363.6357619826858
 31
0.0
  0
LINE
  5
175
330
1F
100
AcDbEntity
  8
4-3
  6
Continuous
 62
     6
370
     9
100
AcDbLine
 10
852.7439426731419
 20
-361.0164135082348
 30
0.0
 11
852.7439426731419
 21
-363.6357619826858
 31
0.0
  0
LINE
  5
176
330
1F
100
AcDbEntity
  8
4-3
  6
Continuous
 62
     6
370
     9
100
AcDbLine
 10
640.6852433488178
 20
-369.5277000633445
 30
0.0
 11
640.6852433488178
 21
-278.5221541121199
 31
0.0
  0
LINE
  5
177
330
1F
100
AcDbEntity
  8
4-3
  6
Continuous
 62
     6
370
     9
100
AcDbLine
 10
640.6852433488178
 20
-369.5277000633445
 30
0.0
 11
739.3436576224663
 21
-426.4885451858108
 31
0.0
  0
LINE
  5
178
330
1F
100
AcDbEntity
  8
4-3
  6
Continuous
 62
     6
370
     9
100
AcDbLine
 10
755.22008947424
 20
-304.7107395481419
 30
0.0
 11
755.22008947424
 21
-213.7053420608108
 31
0.0
  0
LINE
  5
179
330
1F
100
AcDbEntity
  8
4-3
  6
Continuous
 62
     6
370
     9
100
AcDbLine
 10
631.3355811866556
 20
-267.1429905247044
 30
0.0
 11
745.786396748311
 21
-201.0645323057432
 31
0.0
  0
LINE
  5
17A
330
1F
100
AcDbEntity
  8
4-3
  6
Continuous
 62
     6
370
     9
100
AcDbLine
 10
640.6852433488178
 20
-278.5221541121199
 30
0.0
 11
755.1437790329394
 21
-212.4390935124577
 31
0.0
  0
LINE
  5
17B
330
1F
100
AcDbEntity
  8
4-0
  6
Continuous
 62
     3
370
     9
100
AcDbLine
 10
755.22008947424
 20
-223.9628609322212
 30
0.0
 11
973.4795317778719
 21
-97.95086504961984
 31
0.0
  0
LINE
  5
17C
330
1F
100
AcDbEntity
  8
4-0
  6
Continuous
 62
     3
370
     9
100
AcDbLine
 10
753.3372703758447
 20
-205.8435850401182
 30
0.0
 11
957.8929014463685
 21
-87.74367543813344
 31
0.0
  0
LINE
  5
17D
330
1F
100
AcDbEntity
  8
4-0
  6
Continuous
 62
     3
370
     9
100
AcDbLine
 10
749.6601166596284
 20
-201.6444322740709
 30
0.0
 11
962.1547059755069
 21
-78.96084842166374
 31
0.0
  0
LINE
  5
17E
330
1F
100
AcDbEntity
  8
4-0
  6
Continuous
 62
     3
370
     9
100
AcDbLine
 10
755.7866276921453
 20
-305.6928282041807
 30
0.0
 11
1002.691287478885
 21
-163.1421030405405
 31
0.0
  0
LINE
  5
17F
330
1F
100
AcDbEntity
  8
4-3
  6
Continuous
 62
     6
370
     9
100
AcDbLine
 10
642.9531777871622
 20
-370.8373000686233
 30
0.0
 11
756.3534628378378
 21
-305.365613782728
 31
0.0
  0
LINE
  5
180
330
1F
100
AcDbEntity
  8
4-0
  6
Continuous
 62
     3
370
     9
100
AcDbLine
 10
394.9813595333616
 20
-406.4190475876267
 30
0.0
 11
631.6538877744935
 21
-269.7758492134712
 31
0.0
  0
LINE
  5
181
330
1F
100
AcDbEntity
  8
4-0
  6
Continuous
 62
     3
370
     9
100
AcDbLine
 10
394.9813595333616
 20
-412.7406401763091
 30
0.0
 11
636.9570180532097
 21
-273.0359678526182
 31
0.0
  0
LINE
  5
182
330
1F
100
AcDbEntity
  8
4-0
  6
Continuous
 62
     3
370
     9
100
AcDbLine
 10
394.9813595333616
 20
-431.9465233055321
 30
0.0
 11
638.4173089104731
 21
-291.3987245301942
 31
0.0
  0
LINE
  5
183
330
1F
100
AcDbEntity
  8
4-0
  6
Continuous
 62
     3
370
     9
100
AcDbLine
 10
796.0438001478041
 20
-396.3710112700591
 30
0.0
 11
836.8672138935813
 21
-419.9408420872044
 31
0.0
  0
LINE
  5
184
330
1F
100
AcDbEntity
  8
4-F
  6
Continuous
 62
     7
370
     9
100
AcDbLine
 10
681.2200432854731
 20
-284.8360265783361
 30
0.0
 11
644.9823822846284
 21
-206.2092516100084
 31
0.0
  0
LINE
  5
185
330
1F
100
AcDbEntity
  8
4-F
  6
Continuous
 62
     7
370
     9
100
AcDbLine
 10
681.2200432854731
 20
-284.8360265783361
 30
0.0
 11
662.0129724451016
 21
-254.3878635715794
 31
0.0
  0
LINE
  5
186
330
1F
100
AcDbEntity
  8
4-F
  6
Continuous
 62
     7
370
     9
100
AcDbLine
 10
681.2200432854731
 20
-284.8360265783361
 30
0.0
 11
670.548458614865
 21
-250.454164247255
 31
0.0
  0
LINE
  5
187
330
1F
100
AcDbEntity
  8
4-0
  6
Continuous
 62
     3
370
     9
100
AcDbLine
 10
565.6777211782097
 20
-576.5126458245354
 30
0.0
 11
1077.221349767737
 21
-281.1723830764358
 31
0.0
  0
LINE
  5
188
330
1F
100
AcDbEntity
  8
4-0
  6
Continuous
 62
     3
370
     9
100
AcDbLine
 10
568.0296861803209
 20
-577.7732527449324
 30
0.0
 11
1081.772065033784
 21
-281.1642917942356
 31
0.0
  0
LINE
  5
189
330
1F
100
AcDbEntity
  8
4-0
  6
Continuous
 62
     7
370
     9
100
AcDbLine
 10
312.0651657516894
 20
-19.70074297930734
 30
0.0
 11
312.0651657516894
 21
-70.97913257495765
 31
0.0
  0
LINE
  5
18A
330
1F
100
AcDbEntity
  8
4-0
  6
Continuous
 62
     7
370
     9
100
AcDbLine
 10
312.0651657516894
 20
-70.97913257495765
 30
0.0
 11
578.7122571790541
 21
-70.97913257495765
 31
0.0
  0
LINE
  5
18B
330
1F
100
AcDbEntity
  8
4-0
  6
Continuous
 62
     7
370
     9
100
AcDbLine
 10
578.7122571790541
 20
-70.97913257495765
 30
0.0
 11
578.7122571790541
 21
-19.70074297930734
 31
0.0
  0
LINE
  5
18C
330
1F
100
AcDbEntity
  8
4-0
  6
Continuous
 62
     7
370
     9
100
AcDbLine
 10
578.7122571790541
 20
-19.70074297930734
 30
0.0
 11
312.0651657516894
 21
-19.70074297930734
 31
0.0
  0
LINE
  5
18D
330
1F
100
AcDbEntity
  8
4-F
  6
Continuous
 62
     7
370
     9
100
AcDbLine
 10
644.9823822846284
 20
-206.2092516100084
 30
0.0
 11
433.9504592483109
 21
-206.2092516100084
 31
0.0
  0
LINE
  5
18E
330
1F
100
AcDbEntity
  8
2-4
  6
Continuous
 62
     7
370
     9
100
AcDbLine
 10
-728.9113967483108
 20
191.5226984797299
 30
0.0
 11
-728.9113967483108
 21
70.3138064822636
 31
0.0
  0
LINE
  5
18F
330
1F
100
AcDbEntity
  8
2-4
  6
Continuous
 62
     7
370
     9
100
AcDbLine
 10
-943.4111394108953
 20
159.2372947899072
 30
0.0
 11
-943.4111394108953
 21
115.5497898411106
 31
0.0
  0
LINE
  5
190
330
1F
100
AcDbEntity
  8
2-4
  6
Continuous
 62
     7
370
     9
100
AcDbLine
 10
-913.4113373627534
 20
159.2372947899072
 30
0.0
 11
-913.4113373627534
 21
115.5497898411106
 31
0.0
  0
LINE
  5
191
330
1F
100
AcDbEntity
  8
2-4
  6
Continuous
 62
     7
370
     9
100
AcDbLine
 10
-843.6612185916384
 20
159.2372947899072
 30
0.0
 11
-843.6612185916384
 21
115.5497898411106
 31
0.0
  0
LINE
  5
192
330
1F
100
AcDbEntity
  8
2-4
  6
Continuous
 62
     7
370
     9
100
AcDbLine
 10
-928.4112383868244
 20
193.022777660473
 30
0.0
 11
-928.4112383868244
 21
144.2412538270694
 31
0.0
  0
CIRCLE
  5
193
330
1F
100
AcDbEntity
  8
2-0
  6
Continuous
 62
     3
370
     9
100
AcDbCircle
 10
-928.4112383868244
 20
625.3670060441302
 30
0.0
 40
5.500000940786826
  0
CIRCLE
  5
194
330
1F
100
AcDbEntity
  8
2-0
  6
Continuous
 62
     3
370
     9
100
AcDbCircle
 10
1066.586881070524
 20
625.3670060441302
 30
0.0
 40
5.500000940786826
  0
CIRCLE
  5
195
330
1F
100
AcDbEntity
  8
2-0
  6
Continuous
 62
     3
370
     9
100
AcDbCircle
 10
-429.6619312183277
 20
625.3670060441302
 30
0.0
 40
5.500000940786826
  0
CIRCLE
  5
196
330
1F
100
AcDbEntity
  8
2-0
  6
Continuous
 62
     3
370
     9
100
AcDbCircle
 10
69.08737595016908
 20
625.3670060441302
 30
0.0
 40
5.500000940786826
  0
CIRCLE
  5
197
330
1F
100
AcDbEntity
  8
2-0
  6
Continuous
 62
     3
370
     9
100
AcDbCircle
 10
567.8366831186656
 20
625.3670060441302
 30
0.0
 40
5.500000940786826
  0
CIRCLE
  5
198
330
1F
100
AcDbEntity
  8
2-0
  6
Continuous
 62
     3
370
     9
100
AcDbCircle
 10
-928.4112383868244
 20
208.2372090107686
 30
0.0
 40
5.500000360849742
  0
CIRCLE
  5
199
330
1F
100
AcDbEntity
  8
2-0
  6
Continuous
 62
     3
370
     9
100
AcDbCircle
 10
-828.6613175675675
 20
208.2372090107686
 30
0.0
 40
5.500000360849742
  0
CIRCLE
  5
19A
330
1F
100
AcDbEntity
  8
2-0
  6
Continuous
 62
     3
370
     9
100
AcDbCircle
 10
-728.9113967483108
 20
208.2372090107686
 30
0.0
 40
5.500000360849742
  0
CIRCLE
  5
19B
330
1F
100
AcDbEntity
  8
2-0
  6
Continuous
 62
     3
370
     9
100
AcDbCircle
 10
-629.1617728568411
 20
208.2372090107686
 30
0.0
 40
5.500000360849742
  0
CIRCLE
  5
19C
330
1F
100
AcDbEntity
  8
2-0
  6
Continuous
 62
     3
370
     9
100
AcDbCircle
 10
-529.4118520375845
 20
208.2372090107686
 30
0.0
 40
5.500000360849742
  0
CIRCLE
  5
19D
330
1F
100
AcDbEntity
  8
2-0
  6
Continuous
 62
     3
370
     9
100
AcDbCircle
 10
-429.6619312183277
 20
208.2372090107686
 30
0.0
 40
5.500000360849742
  0
CIRCLE
  5
19E
330
1F
100
AcDbEntity
  8
2-0
  6
Continuous
 62
     3
370
     9
100
AcDbCircle
 10
-329.9120103990709
 20
208.2372090107686
 30
0.0
 40
5.500000360849742
  0
CIRCLE
  5
19F
330
1F
100
AcDbEntity
  8
2-0
  6
Continuous
 62
     3
370
     9
100
AcDbCircle
 10
-230.1620895798141
 20
208.2372090107686
 30
0.0
 40
5.500000360849742
  0
CIRCLE
  5
1A0
330
1F
100
AcDbEntity
  8
2-0
  6
Continuous
 62
     3
370
     9
100
AcDbCircle
 10
-130.4121687605573
 20
208.2372090107686
 30
0.0
 40
5.500000360849742
  0
CIRCLE
  5
1A1
330
1F
100
AcDbEntity
  8
2-0
  6
Continuous
 62
     3
370
     9
100
AcDbCircle
 10
-30.66224794130062
 20
208.2372090107686
 30
0.0
 40
5.500000360849742
  0
CIRCLE
  5
1A2
330
1F
100
AcDbEntity
  8
2-0
  6
Continuous
 62
     3
370
     9
100
AcDbCircle
 10
69.0876728779561
 20
208.2372090107686
 30
0.0
 40
5.500000360849742
  0
CIRCLE
  5
1A3
330
1F
100
AcDbEntity
  8
2-0
  6
Continuous
 62
     3
370
     9
100
AcDbCircle
 10
168.837593697213
 20
208.2372090107686
 30
0.0
 40
5.500000360849742
  0
CIRCLE
  5
1A4
330
1F
100
AcDbEntity
  8
2-0
  6
Continuous
 62
     3
370
     9
100
AcDbCircle
 10
268.5875145164697
 20
208.2372090107686
 30
0.0
 40
5.500000360849742
  0
CIRCLE
  5
1A5
330
1F
100
AcDbEntity
  8
2-0
  6
Continuous
 62
     3
370
     9
100
AcDbCircle
 10
368.3374353357266
 20
208.2372090107686
 30
0.0
 40
5.500000360849742
  0
CIRCLE
  5
1A6
330
1F
100
AcDbEntity
  8
2-0
  6
Continuous
 62
     3
370
     9
100
AcDbCircle
 10
468.0873561549831
 20
208.2372090107686
 30
0.0
 40
5.500000360849742
  0
CIRCLE
  5
1A7
330
1F
100
AcDbEntity
  8
2-0
  6
Continuous
 62
     3
370
     9
100
AcDbCircle
 10
567.83727697424
 20
208.2372090107686
 30
0.0
 40
5.500000360849742
  0
CIRCLE
  5
1A8
330
1F
100
AcDbEntity
  8
2-0
  6
Continuous
 62
     3
370
     9
100
AcDbCircle
 10
667.5871977934969
 20
208.2372090107686
 30
0.0
 40
5.500000360849742
  0
CIRCLE
  5
1A9
330
1F
100
AcDbEntity
  8
2-0
  6
Continuous
 62
     3
370
     9
100
AcDbCircle
 10
767.3371186127534
 20
208.2372090107686
 30
0.0
 40
5.500000360849742
  0
CIRCLE
  5
1AA
330
1F
100
AcDbEntity
  8
2-0
  6
Continuous
 62
     3
370
     9
100
AcDbCircle
 10
867.0870394320103
 20
208.2372090107686
 30
0.0
 40
5.500000360849742
  0
CIRCLE
  5
1AB
330
1F
100
AcDbEntity
  8
2-0
  6
Continuous
 62
     3
370
     9
100
AcDbCircle
 10
966.8369602512669
 20
208.2372090107686
 30
0.0
 40
5.500000360849742
  0
CIRCLE
  5
1AC
330
1F
100
AcDbEntity
  8
2-0
  6
Continuous
 62
     3
370
     9
100
AcDbCircle
 10
1066.586881070524
 20
208.2372090107686
 30
0.0
 40
5.500000360849742
  0
ARC
  5
1AD
330
1F
100
AcDbEntity
  8
3-0
  6
Continuous
 62
     3
370
     9
100
AcDbCircle
 10
-405.076161977407
 20
-360.8981620169974
 30
0.0
 40
3.600000046394967
100
AcDbArc
 50
180.0
 51
270.0
  0
ARC
  5
1AE
330
1F
100
AcDbEntity
  8
3-0
  6
Continuous
 62
     3
370
     9
100
AcDbCircle
 10
-405.076161977407
 20
-360.8981620169974
 30
0.0
 40
7.200000092789934
100
AcDbArc
 50
180.0
 51
270.0
  0
ARC
  5
1AF
330
1F
100
AcDbEntity
  8
3-1
  6
Continuous
 62
     2
370
     9
100
AcDbCircle
 10
-396.0761322846283
 20
-358.4981689453125
 30
0.0
 40
6.000000077324945
100
AcDbArc
 50
180.0
 51
270.0
  0
ARC
  5
1B0
330
1F
100
AcDbEntity
  8
3-1
  6
Continuous
 62
     2
370
     9
100
AcDbCircle
 10
-396.0761322846283
 20
-358.4981689453125
 30
0.0
 40
3.000000038662472
100
AcDbArc
 50
180.0
 51
270.0
  0
ARC
  5
1B1
330
1F
100
AcDbEntity
  8
3-1
  6
Continuous
 62
     2
370
     9
100
AcDbCircle
 10
-407.4762292810387
 20
-222.598180822424
 30
0.0
 40
8.400000108254924
100
AcDbArc
 50
0.0
 51
180.0
  0
ARC
  5
1B2
330
1F
100
AcDbEntity
  8
3-1
  6
Continuous
 62
     2
370
     9
100
AcDbCircle
 10
-407.4762292810387
 20
-222.598180822424
 30
0.0
 40
5.40000006959245
100
AcDbArc
 50
0.0
 51
180.0
  0
ARC
  5
1B3
330
1F
100
AcDbEntity
  8
3-0
  6
Continuous
 62
     3
370
     9
100
AcDbCircle
 10
-407.476155049092
 20
-222.0070718301309
 30
0.0
 40
4.809914376284626
100
AcDbArc
 50
3.681900024414063
 51
176.318099975586
  0
ARC
  5
1B4
330
1F
100
AcDbEntity
  8
3-0
  6
Continuous
 62
     3
370
     9
100
AcDbCircle
 10
-407.1824192356419
 20
-221.7143752639358
 30
0.0
 40
1.49390328574825
100
AcDbArc
 50
0.6135406494140625
 51
179.3793334960938
  0
ELLIPSE
  5
1B5
330
1F
100
AcDbEntity
  8
4-3
  6
Continuous
 62
     6
370
     9
100
AcDbEllipse
 10
634.9212811444256
 20
-275.1941874736064
 30
0.0
 11
3.491801341822546
 21
-8.093467168188528
 31
0.0
210
0.0
220
0.0
230
1.0
 40
0.5665999999999999
 41
0.9201810124824675
 42
3.977148526641685
  0
ELLIPSE
  5
1B6
330
1F
100
AcDbEntity
  8
4-3
  6
Continuous
 62
     6
370
     9
100
AcDbEllipse
 10
634.9212811444256
 20
-275.1941874736064
 30
0.0
 11
2.610301792168855
 21
-6.05028459120626
 31
0.0
210
0.0
220
0.0
230
1.0
 40
0.4202000000000001
 41
1.056878674391254
 42
3.454740184050651
  0
ELLIPSE
  5
1B7
330
1F
100
AcDbEntity
  8
4-3
  6
Continuous
 62
     6
370
     9
100
AcDbEllipse
 10
635.4403109163853
 20
-274.8133775865709
 30
0.0
 11
3.491801341822546
 21
-8.093467168188528
 31
0.0
210
0.0
220
0.0
230
1.0
 40
0.5665999999999999
 41
0.9201810124824675
 42
3.977148526641685
  0
ELLIPSE
  5
1B8
330
1F
100
AcDbEntity
  8
4-3
  6
Continuous
 62
     6
370
     9
100
AcDbEllipse
 10
749.3804106841219
 20
-209.1117207295185
 30
0.0
 11
3.491801341822546
 21
-8.093467168188528
 31
0.0
210
0.0
220
0.0
230
1.0
 40
0.5665999999999999
 41
0.9201810124824675
 42
3.164026589980402
  0
ELLIPSE
  5
1B9
330
1F
100
AcDbEntity
  8
4-3
  6
Continuous
 62
     6
370
     9
100
AcDbEllipse
 10
735.1851839632603
 20
-386.087511217272
 30
0.0
 11
14.70073236001504
 21
0.0
 31
0.0
210
0.0
220
0.0
230
1.0
 40
0.5773
 41
0.0
 42
6.283185307179586
  0
ELLIPSE
  5
1BA
330
1F
100
AcDbEntity
  8
4-3
  6
Continuous
 62
     6
370
     9
100
AcDbEllipse
 10
734.9339830553209
 20
-388.5613650760135
 30
0.0
 11
14.70073236001504
 21
0.0
 31
0.0
210
0.0
220
0.0
230
1.0
 40
0.5773
 41
0.0881546268232579
 42
2.93664243400002
  0
ELLIPSE
  5
1BB
330
1F
100
AcDbEntity
  8
4-3
  6
Continuous
 62
     6
370
     9
100
AcDbEllipse
 10
791.8856234163853
 20
-353.3515196104307
 30
0.0
 11
14.70073236001504
 21
0.0
 31
0.0
210
0.0
220
0.0
230
1.0
 40
0.5773
 41
0.0
 42
6.283185307179586
  0
ELLIPSE
  5
1BC
330
1F
100
AcDbEntity
  8
4-3
  6
Continuous
 62
     6
370
     9
100
AcDbEllipse
 10
791.6344225084459
 20
-355.8253734691723
 30
0.0
 11
14.70073236001504
 21
0.0
 31
0.0
210
0.0
220
0.0
230
1.0
 40
0.5773
 41
0.0881546268232579
 42
2.93664243400002
  0
ELLIPSE
  5
1BD
330
1F
100
AcDbEntity
  8
4-0
  6
Continuous
 62
     3
370
     9
100
AcDbEllipse
 10
546.1855996621622
 20
-503.0896787901182
 30
0.0
 11
14.70073236001504
 21
0.0
 31
0.0
210
0.0
220
0.0
230
1.0
 40
0.5773
 41
0.0
 42
6.283185307179586
  0
ELLIPSE
  5
1BE
330
1F
100
AcDbEntity
  8
4-0
  6
Continuous
 62
     3
370
     9
100
AcDbEllipse
 10
545.9343987542231
 20
-505.5636811127533
 30
0.0
 11
14.70073236001504
 21
0.0
 31
0.0
210
0.0
220
0.0
230
1.0
 40
0.5773
 41
0.0881546268232579
 42
2.93664243400002
  0
ELLIPSE
  5
1BF
330
1F
100
AcDbEntity
  8
4-0
  6
Continuous
 62
     3
370
     9
100
AcDbEllipse
 10
980.8849107896959
 20
-252.1151782886402
 30
0.0
 11
14.70073236001504
 21
0.0
 31
0.0
210
0.0
220
0.0
230
1.0
 40
0.5773
 41
0.0
 42
6.283185307179586
  0
ELLIPSE
  5
1C0
330
1F
100
AcDbEntity
  8
4-0
  6
Continuous
 62
     3
370
     9
100
AcDbEllipse
 10
980.6343037373313
 20
-254.5897744668496
 30
0.0
 11
14.70073236001504
 21
0.0
 31
0.0
210
0.0
220
0.0
230
1.0
 40
0.5773
 41
0.0881546268232579
 42
2.93664243400002
  0
TEXT
  5
1C1
330
1F
100
AcDbEntity
  8
3-F
  6
Continuous
 62
     7
370
     9
100
AcDbText
 10
-297.8758182010134
 20
-74.75923626214093
 30
0.0
 40
13.716
  1
付属部品
 41
1.125
  7
ＭＳ ゴシック
100
AcDbText
  0
TEXT
  5
1C2
330
1F
100
AcDbEntity
  8
3-F
  6
Continuous
 62
     7
370
     9
100
AcDbText
 10
-94.09835815429679
 20
-446.9748454259923
 30
0.0
 40
13.716
  1
別　売
 41
1.111111111111111
  7
ＭＳ ゴシック
100
AcDbText
  0
TEXT
  5
1C3
330
1F
100
AcDbEntity
  8
3-4
  6
Continuous
 62
     7
370
     9
100
AcDbText
 10
-442.9069772619299
 20
-365.8481659760346
 30
0.0
 40
18.288
  1
10
 50
90.0
 41
1.0625
  7
ＭＳ ゴシック
100
AcDbText
  0
TEXT
  5
1C4
330
1F
100
AcDbEntity
  8
3-4
  6
Continuous
 62
     7
370
     9
100
AcDbText
 10
-426.976155049092
 20
-174.8455977618243
 30
0.0
 40
18.288
  1
3.6
 41
1.083333333333333
  7
ＭＳ ゴシック
100
AcDbText
  0
TEXT
  5
1C5
330
1F
100
AcDbEntity
  8
3-F
  6
Continuous
 62
     7
370
     9
100
AcDbText
 10
-1034.342463312922
 20
-1.657439624683281
 30
0.0
 40
22.86
  1
ルーフガーデンエッジ　ＯＩＳ－Ｈ－Ｓ（Ｒ）　断面図　S=1:2
 41
1.098245614035088
  7
ＭＳ ゴシック
100
AcDbText
  0
TEXT
  5
1C6
330
1F
100
AcDbEntity
  8
4-F
  6
Continuous
 62
     7
370
     9
100
AcDbText
 10
347.8886372334248
 20
-56.10991303315031
 30
0.0
 40
22.86
  1
ジョイント部
 41
1.083333333333333
  7
ＭＳ ゴシック
100
AcDbText
  0
TEXT
  5
1C7
330
1F
100
AcDbEntity
  8
2-Fﾚｲﾔ
  6
Continuous
 62
     7
370
     9
100
AcDbText
 10
-1030.73041348844
 20
800.6082596072638
 30
0.0
 40
22.86
  1
ルーフガーデンエッジ　ＯＩＳ－Ｈ－Ｓ（直線用）　平面図　S=1:6
 41
1.098360655737705
  7
ＭＳ ゴシック
100
AcDbText
  0
TEXT
  5
1C8
330
1F
100
AcDbEntity
  8
2-Fﾚｲﾔ
  6
Continuous
 62
     7
370
     9
100
AcDbText
 10
-1030.73041348844
 20
415.5324110536319
 30
0.0
 40
22.86
  1
ルーフガーデンエッジ　ＯＩＳ－Ｈ－Ｒ（曲線用）　平面図　S=1:6
 41
1.098360655737705
  7
ＭＳ ゴシック
100
AcDbText
  0
LWPOLYLINE
  5
1C9
330
1F
100
AcDbEntity
  8
2-4
  6
Continuous
 62
     7
370
     9
100
AcDbPolyline
 90
        4
 70
     1
 43
0.6000000000000001
 10
-996.667113597973
 20
585.3669730521538
 42
0.4142135623731
 10
-996.9671135979729
 20
585.6669730521537
 42
0.4142135623731
 10
-997.2671135979731
 20
585.3669730521538
 42
0.4142135623731
 10
-996.9671135979729
 20
585.0669730521538
 42
0.4142135623731
  0
LWPOLYLINE
  5
1CA
330
1F
100
AcDbEntity
  8
2-4
  6
Continuous
 62
     7
370
     9
100
AcDbPolyline
 90
        4
 70
     1
 43
0.6000000000000001
 10
-996.667113597973
 20
660.3670720280828
 42
0.4142135623731
 10
-996.9671135979729
 20
660.6670720280828
 42
0.4142135623731
 10
-997.2671135979731
 20
660.3670720280828
 42
0.4142135623731
 10
-996.9671135979729
 20
660.0670720280829
 42
0.4142135623731
  0
LWPOLYLINE
  5
1CB
330
1F
100
AcDbEntity
  8
2-4
  6
Continuous
 62
     7
370
     9
100
AcDbPolyline
 90
        4
 70
     1
 43
0.6000000000000001
 10
-943.1111394108952
 20
732.031187315245
 42
0.4142135623731
 10
-943.4111394108953
 20
732.331187315245
 42
0.4142135623731
 10
-943.7111394108954
 20
732.031187315245
 42
0.4142135623731
 10
-943.4111394108953
 20
731.731187315245
 42
0.4142135623731
  0
LWPOLYLINE
  5
1CC
330
1F
100
AcDbEntity
  8
2-4
  6
Continuous
 62
     7
370
     9
100
AcDbPolyline
 90
        4
 70
     1
 43
0.6000000000000001
 10
-928.1112383868243
 20
503.1308923669764
 42
0.4142135623731
 10
-928.4112383868244
 20
503.4308923669764
 42
0.4142135623731
 10
-928.7112383868244
 20
503.1308923669764
 42
0.4142135623731
 10
-928.4112383868244
 20
502.8308923669764
 42
0.4142135623731
  0
LWPOLYLINE
  5
1CD
330
1F
100
AcDbEntity
  8
2-4
  6
Continuous
 62
     7
370
     9
100
AcDbPolyline
 90
        4
 70
     1
 43
0.6000000000000001
 10
-429.3619312183276
 20
503.1308923669764
 42
0.4142135623731
 10
-429.6619312183277
 20
503.4308923669764
 42
0.4142135623731
 10
-429.9619312183277
 20
503.1308923669764
 42
0.4142135623731
 10
-429.6619312183277
 20
502.8308923669764
 42
0.4142135623731
  0
LWPOLYLINE
  5
1CE
330
1F
100
AcDbEntity
  8
2-4
  6
Continuous
 62
     7
370
     9
100
AcDbPolyline
 90
        4
 70
     1
 43
0.6000000000000001
 10
-678.7364363386824
 20
695.9313008076438
 42
0.4142135623731
 10
-679.0364363386824
 20
696.2313008076437
 42
0.4142135623731
 10
-679.3364363386825
 20
695.9313008076438
 42
0.4142135623731
 10
-679.0364363386824
 20
695.6313008076438
 42
0.4142135623731
  0
LWPOLYLINE
  5
1CF
330
1F
100
AcDbEntity
  8
2-4
  6
Continuous
 62
     7
370
     9
100
AcDbPolyline
 90
        4
 70
     1
 43
0.6000000000000001
 10
-379.4869708086992
 20
695.9313008076438
 42
0.4142135623731
 10
-379.7869708086992
 20
696.2313008076437
 42
0.4142135623731
 10
-380.0869708086992
 20
695.9313008076438
 42
0.4142135623731
 10
-379.7869708086992
 20
695.6313008076438
 42
0.4142135623731
  0
LWPOLYLINE
  5
1D0
330
1F
100
AcDbEntity
  8
2-4
  6
Continuous
 62
     7
370
     9
100
AcDbPolyline
 90
        4
 70
     1
 43
0.6000000000000001
 10
782.5115676467485
 20
696.3205731366131
 42
0.4142135623731
 10
782.2115676467484
 20
696.6205731366131
 42
0.4142135623731
 10
781.9115676467484
 20
696.3205731366131
 42
0.4142135623731
 10
782.2115676467484
 20
696.0205731366132
 42
0.4142135623731
  0
LWPOLYLINE
  5
1D1
330
1F
100
AcDbEntity
  8
2-4
  6
Continuous
 62
     7
370
     9
100
AcDbPolyline
 90
        4
 70
     1
 43
0.6000000000000001
 10
852.5115511507604
 20
696.3205731366131
 42
0.4142135623731
 10
852.2115511507603
 20
696.6205731366131
 42
0.4142135623731
 10
851.9115511507603
 20
696.3205731366131
 42
0.4142135623731
 10
852.2115511507603
 20
696.0205731366132
 42
0.4142135623731
  0
LWPOLYLINE
  5
1D2
330
1F
100
AcDbEntity
  8
2-4
  6
Continuous
 62
     7
370
     9
100
AcDbPolyline
 90
        4
 70
     1
 43
0.6000000000000001
 10
1081.887375950169
 20
732.031187315245
 42
0.4142135623731
 10
1081.587375950169
 20
732.331187315245
 42
0.4142135623731
 10
1081.287375950169
 20
732.031187315245
 42
0.4142135623731
 10
1081.587375950169
 20
731.731187315245
 42
0.4142135623731
  0
LWPOLYLINE
  5
1D3
330
1F
100
AcDbEntity
  8
2-4
  6
Continuous
 62
     7
370
     9
100
AcDbPolyline
 90
        4
 70
     1
 43
0.6000000000000001
 10
1134.322744668497
 20
660.3670720280828
 42
0.4142135623731
 10
1134.022744668497
 20
660.6670720280828
 42
0.4142135623731
 10
1133.722744668497
 20
660.3670720280828
 42
0.4142135623731
 10
1134.022744668497
 20
660.0670720280829
 42
0.4142135623731
  0
LWPOLYLINE
  5
1D4
330
1F
100
AcDbEntity
  8
2-4
  6
Continuous
 62
     7
370
     9
100
AcDbPolyline
 90
        4
 70
     1
 43
0.6000000000000001
 10
1134.322744668497
 20
625.3670060441302
 42
0.4142135623731
 10
1134.022744668497
 20
625.6670060441302
 42
0.4142135623731
 10
1133.722744668497
 20
625.3670060441302
 42
0.4142135623731
 10
1134.022744668497
 20
625.0670060441302
 42
0.4142135623731
  0
LWPOLYLINE
  5
1D5
330
1F
100
AcDbEntity
  8
2-4
  6
Continuous
 62
     7
370
     9
100
AcDbPolyline
 90
        4
 70
     1
 43
0.6000000000000001
 10
1134.322744668497
 20
585.3669730521538
 42
0.4142135623731
 10
1134.022744668497
 20
585.6669730521537
 42
0.4142135623731
 10
1133.722744668497
 20
585.3669730521538
 42
0.4142135623731
 10
1134.022744668497
 20
585.0669730521538
 42
0.4142135623731
  0
LWPOLYLINE
  5
1D6
330
1F
100
AcDbEntity
  8
2-4
  6
Continuous
 62
     7
370
     9
100
AcDbPolyline
 90
        4
 70
     1
 43
0.6000000000000001
 10
-1011.208558118666
 20
243.2372749947214
 42
0.4142135623731
 10
-1011.508558118666
 20
243.5372749947214
 42
0.4142135623731
 10
-1011.808558118666
 20
243.2372749947214
 42
0.4142135623731
 10
-1011.508558118666
 20
242.9372749947214
 42
0.4142135623731
  0
LWPOLYLINE
  5
1D7
330
1F
100
AcDbEntity
  8
2-4
  6
Continuous
 62
     7
370
     9
100
AcDbPolyline
 90
        4
 70
     1
 43
0.6000000000000001
 10
-1011.208558118666
 20
168.2373244826859
 42
0.4142135623731
 10
-1011.508558118666
 20
168.537324482686
 42
0.4142135623731
 10
-1011.808558118666
 20
168.2373244826859
 42
0.4142135623731
 10
-1011.508558118666
 20
167.9373244826859
 42
0.4142135623731
  0
LWPOLYLINE
  5
1D8
330
1F
100
AcDbEntity
  8
2-4
  6
Continuous
 62
     7
370
     9
100
AcDbPolyline
 90
        4
 70
     1
 43
0.6000000000000001
 10
-943.1111394108952
 20
341.0899757179055
 42
0.4142135623731
 10
-943.4111394108953
 20
341.3899757179055
 42
0.4142135623731
 10
-943.7111394108954
 20
341.0899757179055
 42
0.4142135623731
 10
-943.4111394108953
 20
340.7899757179055
 42
0.4142135623731
  0
LWPOLYLINE
  5
1D9
330
1F
100
AcDbEntity
  8
2-4
  6
Continuous
 62
     7
370
     9
100
AcDbPolyline
 90
        4
 70
     1
 43
0.6000000000000001
 10
-678.7365848025761
 20
293.7531540329392
 42
0.4142135623731
 10
-679.036584802576
 20
294.0531540329392
 42
0.4142135623731
 10
-679.336584802576
 20
293.7531540329392
 42
0.4142135623731
 10
-679.036584802576
 20
293.4531540329392
 42
0.4142135623731
  0
LWPOLYLINE
  5
1DA
330
1F
100
AcDbEntity
  8
2-4
  6
Continuous
 62
     7
370
     9
100
AcDbPolyline
 90
        4
 70
     1
 43
0.6000000000000001
 10
-379.4869708086992
 20
293.7531540329392
 42
0.4142135623731
 10
-379.7869708086992
 20
294.0531540329392
 42
0.4142135623731
 10
-380.0869708086992
 20
293.7531540329392
 42
0.4142135623731
 10
-379.7869708086992
 20
293.4531540329392
 42
0.4142135623731
  0
LWPOLYLINE
  5
1DB
330
1F
100
AcDbEntity
  8
2-4
  6
Continuous
 62
     7
370
     9
100
AcDbPolyline
 90
        4
 70
     1
 43
0.6000000000000001
 10
852.5115511507604
 20
279.1909245671453
 42
0.4142135623731
 10
852.2115511507603
 20
279.4909245671453
 42
0.4142135623731
 10
851.9115511507603
 20
279.1909245671453
 42
0.4142135623731
 10
852.2115511507603
 20
278.8909245671454
 42
0.4142135623731
  0
LWPOLYLINE
  5
1DC
330
1F
100
AcDbEntity
  8
2-4
  6
Continuous
 62
     7
370
     9
100
AcDbPolyline
 90
        4
 70
     1
 43
0.6000000000000001
 10
782.5115676467485
 20
279.1909245671453
 42
0.4142135623731
 10
782.2115676467484
 20
279.4909245671453
 42
0.4142135623731
 10
781.9115676467484
 20
279.1909245671453
 42
0.4142135623731
 10
782.2115676467484
 20
278.8909245671454
 42
0.4142135623731
  0
LWPOLYLINE
  5
1DD
330
1F
100
AcDbEntity
  8
2-4
  6
Continuous
 62
     7
370
     9
100
AcDbPolyline
 90
        4
 70
     1
 43
0.6000000000000001
 10
1081.887375950169
 20
341.0899757179055
 42
0.4142135623731
 10
1081.587375950169
 20
341.3899757179055
 42
0.4142135623731
 10
1081.287375950169
 20
341.0899757179055
 42
0.4142135623731
 10
1081.587375950169
 20
340.7899757179055
 42
0.4142135623731
  0
LWPOLYLINE
  5
1DE
330
1F
100
AcDbEntity
  8
2-4
  6
Continuous
 62
     7
370
     9
100
AcDbPolyline
 90
        4
 70
     1
 43
0.6000000000000001
 10
1134.322744668497
 20
243.2372749947214
 42
0.4142135623731
 10
1134.022744668497
 20
243.5372749947214
 42
0.4142135623731
 10
1133.722744668497
 20
243.2372749947214
 42
0.4142135623731
 10
1134.022744668497
 20
242.9372749947214
 42
0.4142135623731
  0
LWPOLYLINE
  5
1DF
330
1F
100
AcDbEntity
  8
2-4
  6
Continuous
 62
     7
370
     9
100
AcDbPolyline
 90
        4
 70
     1
 43
0.6000000000000001
 10
1134.322744668497
 20
208.2372090107686
 42
0.4142135623731
 10
1134.022744668497
 20
208.5372090107686
 42
0.4142135623731
 10
1133.722744668497
 20
208.2372090107686
 42
0.4142135623731
 10
1134.022744668497
 20
207.9372090107686
 42
0.4142135623731
  0
LWPOLYLINE
  5
1E0
330
1F
100
AcDbEntity
  8
2-4
  6
Continuous
 62
     7
370
     9
100
AcDbPolyline
 90
        4
 70
     1
 43
0.6000000000000001
 10
1134.322744668497
 20
168.2373244826859
 42
0.4142135623731
 10
1134.022744668497
 20
168.537324482686
 42
0.4142135623731
 10
1133.722744668497
 20
168.2373244826859
 42
0.4142135623731
 10
1134.022744668497
 20
167.9373244826859
 42
0.4142135623731
  0
LWPOLYLINE
  5
1E1
330
1F
100
AcDbEntity
  8
3-4
  6
Continuous
 62
     7
370
     9
100
AcDbPolyline
 90
        4
 70
     1
 43
0.6000000000000001
 10
-144.0823984506967
 20
-364.4981145085515
 42
0.4142135623731
 10
-144.3823984506967
 20
-364.1981145085515
 42
0.4142135623731
 10
-144.6823984506967
 20
-364.4981145085515
 42
0.4142135623731
 10
-144.3823984506967
 20
-364.7981145085515
 42
0.4142135623731
  0
LWPOLYLINE
  5
1E2
330
1F
100
AcDbEntity
  8
3-4
  6
Continuous
 62
     7
370
     9
100
AcDbPolyline
 90
        4
 70
     1
 43
0.6000000000000001
 10
-144.0823984506967
 20
-368.0982154639992
 42
0.4142135623731
 10
-144.3823984506967
 20
-367.7982154639992
 42
0.4142135623731
 10
-144.6823984506967
 20
-368.0982154639992
 42
0.4142135623731
 10
-144.3823984506967
 20
-368.3982154639991
 42
0.4142135623731
  0
LWPOLYLINE
  5
1E3
330
1F
100
AcDbEntity
  8
3-4
  6
Continuous
 62
     7
370
     9
100
AcDbPolyline
 90
        4
 70
     1
 43
0.6000000000000001
 10
-479.8453708957982
 20
-218.0981659760346
 42
0.4142135623731
 10
-480.1453708957981
 20
-217.7981659760346
 42
0.4142135623731
 10
-480.4453708957981
 20
-218.0981659760346
 42
0.4142135623731
 10
-480.1453708957981
 20
-218.3981659760346
 42
0.4142135623731
  0
LWPOLYLINE
  5
1E4
330
1F
100
AcDbEntity
  8
3-4
  6
Continuous
 62
     7
370
     9
100
AcDbPolyline
 90
        4
 70
     1
 43
0.6000000000000001
 10
-479.8453708957982
 20
-368.0982154639992
 42
0.4142135623731
 10
-480.1453708957981
 20
-367.7982154639992
 42
0.4142135623731
 10
-480.4453708957981
 20
-368.0982154639992
 42
0.4142135623731
 10
-480.1453708957981
 20
-368.3982154639991
 42
0.4142135623731
  0
LWPOLYLINE
  5
1E5
330
1F
100
AcDbEntity
  8
3-4
  6
Continuous
 62
     7
370
     9
100
AcDbPolyline
 90
        4
 70
     1
 43
0.6000000000000001
 10
-436.2229673643369
 20
-368.0982154639992
 42
0.4142135623731
 10
-436.5229673643369
 20
-367.7982154639992
 42
0.4142135623731
 10
-436.8229673643368
 20
-368.0982154639992
 42
0.4142135623731
 10
-436.5229673643369
 20
-368.3982154639991
 42
0.4142135623731
  0
LWPOLYLINE
  5
1E6
330
1F
100
AcDbEntity
  8
3-4
  6
Continuous
 62
     7
370
     9
100
AcDbPolyline
 90
        4
 70
     1
 43
0.6000000000000001
 10
-436.2229673643369
 20
-338.0981907200169
 42
0.4142135623731
 10
-436.5229673643369
 20
-337.7981907200169
 42
0.4142135623731
 10
-436.8229673643368
 20
-338.0981907200169
 42
0.4142135623731
 10
-436.5229673643369
 20
-338.3981907200168
 42
0.4142135623731
  0
LWPOLYLINE
  5
1E7
330
1F
100
AcDbEntity
  8
3-4
  6
Continuous
 62
     7
370
     9
100
AcDbPolyline
 90
        4
 70
     1
 43
0.6000000000000001
 10
-411.9761411924619
 20
-434.2023579365498
 42
0.4142135623731
 10
-412.2761411924619
 20
-433.9023579365498
 42
0.4142135623731
 10
-412.5761411924618
 20
-434.2023579365498
 42
0.4142135623731
 10
-412.2761411924619
 20
-434.5023579365499
 42
0.4142135623731
  0
LWPOLYLINE
  5
1E8
330
1F
100
AcDbEntity
  8
3-4
  6
Continuous
 62
     7
370
     9
100
AcDbPolyline
 90
        4
 70
     1
 43
0.6000000000000001
 10
-186.9761411924619
 20
-434.2023579365498
 42
0.4142135623731
 10
-187.2761411924619
 20
-433.9023579365498
 42
0.4142135623731
 10
-187.5761411924619
 20
-434.2023579365498
 42
0.4142135623731
 10
-187.2761411924619
 20
-434.5023579365499
 42
0.4142135623731
  0
LWPOLYLINE
  5
1E9
330
1F
100
AcDbEntity
  8
3-4
  6
Continuous
 62
     7
370
     9
100
AcDbPolyline
 90
        4
 70
     1
 43
0.6000000000000001
 10
-411.9761411924619
 20
-181.2296076594172
 42
0.4142135623731
 10
-412.2761411924619
 20
-180.9296076594172
 42
0.4142135623731
 10
-412.5761411924618
 20
-181.2296076594172
 42
0.4142135623731
 10
-412.2761411924619
 20
-181.5296076594172
 42
0.4142135623731
  0
LWPOLYLINE
  5
1EA
330
1F
100
AcDbEntity
  8
3-4
  6
Continuous
 62
     7
370
     9
100
AcDbPolyline
 90
        4
 70
     1
 43
0.6000000000000001
 10
-402.376168905722
 20
-181.2296076594172
 42
0.4142135623731
 10
-402.676168905722
 20
-180.9296076594172
 42
0.4142135623731
 10
-402.976168905722
 20
-181.2296076594172
 42
0.4142135623731
 10
-402.676168905722
 20
-181.5296076594172
 42
0.4142135623731
  0
LINE
  5
1EB
330
1F
100
AcDbEntity
  8
4-3
  6
Continuous
 62
     6
370
     9
100
AcDbLine
 10
638.4173089104731
 20
-370.8363109980391
 30
0.0
 11
739.3436576224663
 21
-429.1065574852196
 31
0.0
  0
LINE
  5
1EC
330
1F
100
AcDbEntity
  8
4-3
  6
Continuous
 62
     6
370
     9
100
AcDbLine
 10
638.4173089104731
 20
-370.8363109980391
 30
0.0
 11
638.4173089104731
 21
-277.2127025707348
 31
0.0
  0
LINE
  5
1ED
330
1F
100
AcDbEntity
  8
4-0
  6
Continuous
 62
     3
370
     9
100
AcDbLine
 10
428.7779771959459
 20
-494.4912439294764
 30
0.0
 11
640.6860907594057
 21
-372.1462016187749
 31
0.0
  0
LINE
  5
1EE
330
1F
100
AcDbEntity
  8
F-Fﾚｲﾔ
  6
Continuous
 62
     7
370
     9
100
AcDbLine
 10
-1065.405405405405
 20
-411.7212870829814
 30
0.0
 11
-1065.405405405405
 21
-657.7212635761982
 31
0.0
  0
LINE
  5
1EF
330
1F
100
AcDbEntity
  8
F-Fﾚｲﾔ
  6
Continuous
 62
     7
370
     9
100
AcDbLine
 10
-678.3606658110747
 20
-411.7212870829814
 30
0.0
 11
-678.3606658110747
 21
-657.7212635761982
 31
0.0
  0
LINE
  5
1F0
330
1F
100
AcDbEntity
  8
F-Fﾚｲﾔ
  6
Continuous
 62
     7
370
     9
100
AcDbLine
 10
-498.3607029270481
 20
-411.7212870829814
 30
0.0
 11
-498.3607029270481
 21
-657.7212635761982
 31
0.0
  0
LINE
  5
1F1
330
1F
100
AcDbEntity
  8
F-Fﾚｲﾔ
  6
Continuous
 62
     7
370
     9
100
AcDbLine
 10
-1065.405405405405
 20
-537.7212573902027
 30
0.0
 11
-498.3607029270481
 21
-537.7212573902027
 31
0.0
  0
LINE
  5
1F2
330
1F
100
AcDbEntity
  8
F-Fﾚｲﾔ
  6
Continuous
 62
     7
370
     9
100
AcDbLine
 10
-1065.405405405405
 20
-597.7213068781672
 30
0.0
 11
-498.3607029270481
 21
-597.7213068781672
 31
0.0
  0
LINE
  5
1F3
330
1F
100
AcDbEntity
  8
F-Fﾚｲﾔ
  6
Continuous
 62
     7
370
     9
100
AcDbLine
 10
-1065.405405405405
 20
-657.7212635761982
 30
0.0
 11
-498.3607029270481
 21
-657.7212635761982
 31
0.0
  0
LINE
  5
1F4
330
1F
100
AcDbEntity
  8
F-Fﾚｲﾔ
  6
Continuous
 62
     7
370
     9
100
AcDbLine
 10
-1065.405405405405
 20
-471.7213365709459
 30
0.0
 11
-498.3607029270481
 21
-471.7213365709459
 31
0.0
  0
LINE
  5
1F5
330
1F
100
AcDbEntity
  8
F-Fﾚｲﾔ
  6
Continuous
 62
     7
370
     9
100
AcDbLine
 10
-1065.405405405405
 20
-477.7212821341849
 30
0.0
 11
-498.3607029270481
 21
-477.7212821341849
 31
0.0
  0
LINE
  5
1F6
330
1F
100
AcDbEntity
  8
F-Fﾚｲﾔ
  6
Continuous
 62
     7
370
     9
100
AcDbLine
 10
-1065.405405405405
 20
-411.7212870829814
 30
0.0
 11
-498.3607029270481
 21
-411.7212870829814
 31
0.0
  0
TEXT
  5
1F7
330
1F
100
AcDbEntity
  8
F-Fﾚｲﾔ
  6
Continuous
 62
     7
370
     9
100
AcDbText
 10
-924.383034412042
 20
-450.3372771853909
 30
0.0
 40
18.288
  1
製品符号
 50
359.9999797467773
 41
1.093749999999999
  7
ＭＳ ゴシック
100
AcDbText
  0
TEXT
  5
1F8
330
1F
100
AcDbEntity
  8
F-Fﾚｲﾔ
  6
Continuous
 62
     7
370
     9
100
AcDbText
 10
-640.8608142749683
 20
-450.3372771853885
 30
0.0
 40
18.288
  1
Ｈ［mm］
 41
1.09375
  7
ＭＳ ゴシック
100
AcDbText
  0
TEXT
  5
1F9
330
1F
100
AcDbEntity
  8
F-Fﾚｲﾔ
  6
Continuous
 62
     7
370
     9
100
AcDbText
 10
-613.8606286951014
 20
-636.3372598646009
 30
0.0
 40
18.288
  1
９０
 41
1.0625
  7
ＭＳ ゴシック
100
AcDbText
  0
TEXT
  5
1FA
330
1F
100
AcDbEntity
  8
F-Fﾚｲﾔ
  6
Continuous
 62
     7
370
     9
100
AcDbText
 10
-613.8606286951014
 20
-576.3372474926098
 30
0.0
 40
18.288
  1
７５
 41
1.0625
  7
ＭＳ ゴシック
100
AcDbText
  0
TEXT
  5
1FB
330
1F
100
AcDbEntity
  8
F-Fﾚｲﾔ
  6
Continuous
 62
     7
370
     9
100
AcDbText
 10
-613.8606286951014
 20
-516.3372351206185
 30
0.0
 40
18.288
  1
５０
 41
1.0625
  7
ＭＳ ゴシック
100
AcDbText
  0
TEXT
  5
1FC
330
1F
100
AcDbEntity
  8
F-Fﾚｲﾔ
  6
Continuous
 62
     7
370
     9
100
AcDbText
 10
-1045.882998492267
 20
-516.3372722365921
 30
0.0
 40
18.288
  1
ＯＩＳ－Ｈ－Ｓ（Ｒ）－５０
 41
1.115384615384615
  7
ＭＳ ゴシック
100
AcDbText
  0
TEXT
  5
1FD
330
1F
100
AcDbEntity
  8
F-Fﾚｲﾔ
  6
Continuous
 62
     7
370
     9
100
AcDbText
 10
-1045.882998492267
 20
-576.3372103766364
 30
0.0
 40
18.288
  1
ＯＩＳ－Ｈ－Ｓ（Ｒ）－７５
 41
1.115384615384615
  7
ＭＳ ゴシック
100
AcDbText
  0
TEXT
  5
1FE
330
1F
100
AcDbEntity
  8
F-Fﾚｲﾔ
  6
Continuous
 62
     7
370
     9
100
AcDbText
 10
-1045.882998492267
 20
-636.3372598646009
 30
0.0
 40
18.288
  1
ＯＩＳ－Ｈ－Ｓ（Ｒ）－９０
 41
1.115384615384615
  7
ＭＳ ゴシック
100
AcDbText
  0
TEXT
  5
1FF
330
1F
100
AcDbEntity
  8
F-5ﾚｲﾔ
  6
Continuous
 62
     2
370
     9
100
AcDbText
 10
-466.719531673241
 20
-802.800391761963
 30
0.0
 40
18.288
  1
ステンレス製 人工土壌用見切材 OIS-H-S（直線用）・OIS-H-R（曲線用）
 41
0.8992424242424243
  7
ＭＳ ゴシック
100
AcDbText
  0
LINE
  5
200
330
1F
100
AcDbEntity
  8
3-F
  6
Continuous
 62
     7
370
     9
100
AcDbLine
 10
-743.2466249208192
 20
-122.5250541068413
 30
0.0
 11
-501.045301282728
 21
-122.5250541068413
 31
0.0
  0
TEXT
  5
201
330
1F
100
AcDbEntity
  8
3-F
  6
Continuous
 62
     2
370
     9
100
AcDbText
 10
-742.1460002177471
 20
-111.3296263460727
 30
0.0
 40
18.288
  1
水抜き穴：＠３００
 41
1.111111111111111
  7
ＭＳ ゴシック
100
AcDbText
  0
TEXT
  5
202
330
1F
100
AcDbEntity
  8
3-F
  6
Continuous
 62
     2
370
     9
100
AcDbText
 10
-715.1459617512238
 20
-147.7222094198733
 30
0.0
 40
18.288
  1
６－７０×１０
 50
359.9999771334581
 41
1.107142857142857
  7
ＭＳ ゴシック
100
AcDbText
  0
TEXT
  5
203
330
1F
100
AcDbEntity
  8
3-F
  6
Continuous
 62
     2
370
     9
100
AcDbText
 10
-309.6969454920522
 20
-144.6259949192351
 30
0.0
 40
18.288
  1
ＳＵＳ３０４（t=1.0)
 50
359.9999841594885
 41
1.11875
  7
ＭＳ ゴシック
100
AcDbText
  0
TEXT
  5
204
330
1F
100
AcDbEntity
  8
3-F
  6
Continuous
 62
     2
370
     9
100
AcDbText
 10
-309.6969340556376
 20
-108.7847325142525
 30
0.0
 40
18.288
  1
ジョイント金具
 41
1.107142857142857
  7
ＭＳ ゴシック
100
AcDbText
  0
TEXT
  5
205
330
1F
100
AcDbEntity
  8
3-F
  6
Continuous
 62
     2
370
     9
100
AcDbText
 10
-156.56624804344
 20
-254.3932200300863
 30
0.0
 40
18.288
  1
ルーフガーデンエッジ　ＯＩＳ
 50
359.9999886581932
 41
1.116071428571428
  7
ＭＳ ゴシック
100
AcDbText
  0
TEXT
  5
206
330
1F
100
AcDbEntity
  8
3-F
  6
Continuous
 62
     2
370
     9
100
AcDbText
 10
-162.5406857052364
 20
-288.0786382363808
 30
0.0
 40
18.288
  1
ＳＵＳ３０４（t=1.2)
 41
1.11875
  7
ＭＳ ゴシック
100
AcDbText
  0
TEXT
  5
207
330
1F
100
AcDbEntity
  8
3-F
  6
Continuous
 62
     2
370
     9
100
AcDbText
 10
-116.4195031120247
 20
-483.3582452359617
 30
0.0
 40
18.288
  1
ブチル両面テープ
 50
359.9999900160175
 41
1.109375
  7
ＭＳ ゴシック
100
AcDbText
  0
TEXT
  5
208
330
1F
100
AcDbEntity
  8
3-F
  6
Continuous
 62
     2
370
     9
100
AcDbText
 10
-116.4195527646191
 20
-520.338077240811
 30
0.0
 40
18.288
  1
幅７５mm　ｔ＝１．０mm
 50
359.999992803421
 41
1.119318181818182
  7
ＭＳ ゴシック
100
AcDbText
  0
TEXT
  5
209
330
1F
100
AcDbEntity
  8
4-F
  6
Continuous
 62
     2
370
     9
100
AcDbText
 10
446.4664207664697
 20
-196.4677307590794
 30
0.0
 40
18.288
  1
ジョイント金具
 41
1.107142857142857
  7
ＭＳ ゴシック
100
AcDbText
  0
TEXT
  5
20A
330
1F
100
AcDbEntity
  8
2-Fﾚｲﾔ
  6
Continuous
 62
     2
370
     9
100
AcDbText
 10
925.6254717852621
 20
40.78558823374156
 30
0.0
 40
18.288
  1
６－７０×１０
 41
1.107142857142857
  7
ＭＳ ゴシック
100
AcDbText
  0
TEXT
  5
20B
330
1F
100
AcDbEntity
  8
2-Fﾚｲﾔ
  6
Continuous
 62
     2
370
     9
100
AcDbText
 10
898.6252490894216
 20
76.30483245354735
 30
0.0
 40
18.288
  1
水抜き穴：＠３００
 41
1.111111111111111
  7
ＭＳ ゴシック
100
AcDbText
  0
TEXT
  5
20C
330
1F
100
AcDbEntity
  8
2-Fﾚｲﾔ
  6
Continuous
 62
     2
370
     9
100
AcDbText
 10
113.2723487647805
 20
76.30483245354735
 30
0.0
 40
18.288
  1
２１－φ１１
 41
1.104166666666667
  7
ＭＳ ゴシック
100
AcDbText
  0
TEXT
  5
20D
330
1F
100
AcDbEntity
  8
2-Fﾚｲﾔ
  6
Continuous
 62
     2
370
     9
100
AcDbText
 10
113.2723042256124
 20
493.4344810230153
 30
0.0
 40
18.288
  1
５－φ１１
 41
1.1
  7
ＭＳ ゴシック
100
AcDbText
  0
TEXT
  5
20E
330
1F
100
AcDbEntity
  8
2-Fﾚｲﾔ
  6
Continuous
 62
     2
370
     9
100
AcDbText
 10
925.6254717852621
 20
459.9515675675677
 30
0.0
 40
18.288
  1
６－７０×１０
 41
1.107142857142857
  7
ＭＳ ゴシック
100
AcDbText
  0
TEXT
  5
20F
330
1F
100
AcDbEntity
  8
2-Fﾚｲﾔ
  6
Continuous
 62
     2
370
     9
100
AcDbText
 10
898.6252490894216
 20
493.4344810230153
 30
0.0
 40
18.288
  1
水抜き穴：＠３００
 41
1.111111111111111
  7
ＭＳ ゴシック
100
AcDbText
  0
TEXT
  5
210
330
1F
100
AcDbEntity
  8
3-F
  6
Continuous
 62
     7
370
     9
100
AcDbText
 10
-156.5662388157199
 20
-224.8215663534628
 30
0.0
 40
13.716
  1
ステンレス製人工土壌用見切材
 41
1.154761904761904
  7
ＭＳ ゴシック
100
AcDbText
  0
LINE
  5
211
330
1F
100
AcDbEntity
  8
3-F
  6
Continuous
 62
     7
370
     9
100
AcDbLine
 10
-412.2761411924619
 20
-434.2023579365498
 30
0.0
 11
-187.2761411924619
 21
-434.2023579365498
 31
0.0
  0
LINE
  5
212
330
1F
100
AcDbEntity
  8
3-F
  6
Continuous
 62
     7
370
     9
100
AcDbLine
 10
-181.2761213972761
 20
-364.4981145085515
 30
0.0
 11
-143.4824103278083
 21
-364.4981145085515
 31
0.0
  0
LINE
  5
213
330
1F
100
AcDbEntity
  8
3-F
  6
Continuous
 62
     7
370
     9
100
AcDbLine
 10
-181.2761213972761
 20
-368.0982154639992
 30
0.0
 11
-143.4824103278083
 21
-368.0982154639992
 31
0.0
  0
LINE
  5
214
330
1F
100
AcDbEntity
  8
3-F
  6
Continuous
 62
     7
370
     9
100
AcDbLine
 10
-412.2761411924619
 20
-383.2015958218961
 30
0.0
 11
-412.2761411924619
 21
-435.1023460594383
 31
0.0
  0
LINE
  5
215
330
1F
100
AcDbEntity
  8
3-F
  6
Continuous
 62
     7
370
     9
100
AcDbLine
 10
-187.2761411924619
 20
-383.2015958218961
 30
0.0
 11
-187.2761411924619
 21
-435.1023460594383
 31
0.0
  0
LINE
  5
216
330
1F
100
AcDbEntity
  8
3-F
  6
Continuous
 62
     7
370
     9
100
AcDbLine
 10
-144.3823984506967
 20
-363.0423518000422
 30
0.0
 11
-144.3823984506967
 21
-369.6208611565667
 31
0.0
  0
LINE
  5
217
330
1F
100
AcDbEntity
  8
3-F
  6
Continuous
 62
     7
370
     9
100
AcDbLine
 10
-415.0526386982686
 20
-368.0982154639992
 30
0.0
 11
-481.0453590186866
 21
-368.0982154639992
 31
0.0
  0
TEXT
  5
218
330
1F
100
AcDbEntity
  8
3-F
  6
Continuous
 62
     2
370
     9
100
AcDbText
 10
-485.0293758445945
 20
-299.0982080408045
 30
0.0
 40
18.288
  1
Ｈ
 50
90.0
  7
ＭＳ ゴシック
100
AcDbText
  0
TEXT
  5
219
330
1F
100
AcDbEntity
  8
3-F
  6
Continuous
 62
     2
370
     9
100
AcDbText
 10
-311.9261342175121
 20
-429.3184272197
 30
0.0
 40
18.288
  1
75
 50
0.0001667912002076
 41
1.062500000000001
  7
ＭＳ ゴシック
100
AcDbText
  0
TEXT
  5
21A
330
1F
100
AcDbEntity
  8
3-F
  6
Continuous
 62
     2
370
     9
100
AcDbText
 10
-115.3665290989231
 20
-385.8316250362911
 30
0.0
 40
18.288
  1
1.2
 50
90.0
 41
1.083333333333333
  7
ＭＳ ゴシック
100
AcDbText
  0
LINE
  5
21B
330
1F
100
AcDbEntity
  8
2-4
  6
Continuous
 62
     7
370
     9
100
AcDbLine
 10
-928.4112383868244
 20
72.11378272804063
 30
0.0
 11
-828.6613175675675
 21
72.11378272804063
 31
0.0
  0
LINE
  5
21C
330
1F
100
AcDbEntity
  8
2-4
  6
Continuous
 62
     7
370
     9
100
AcDbLine
 10
-828.6613175675675
 20
72.11378272804063
 30
0.0
 11
-728.9113967483108
 21
72.11378272804063
 31
0.0
  0
LINE
  5
21D
330
1F
100
AcDbEntity
  8
2-4
  6
Continuous
 62
     7
370
     9
100
AcDbLine
 10
-943.4111394108953
 20
117.3497660868877
 30
0.0
 11
-913.4113373627534
 21
117.3497660868877
 31
0.0
  0
LINE
  5
21E
330
1F
100
AcDbEntity
  8
2-4
  6
Continuous
 62
     7
370
     9
100
AcDbLine
 10
-913.4113373627534
 20
117.3497660868877
 30
0.0
 11
-843.6612185916384
 21
117.3497660868877
 31
0.0
  0
LINE
  5
21F
330
1F
100
AcDbEntity
  8
2-4
  6
Continuous
 62
     7
370
     9
100
AcDbLine
 10
-928.4112383868244
 20
113.331145415435
 30
0.0
 11
-928.4112383868244
 21
70.61370354729735
 31
0.0
  0
TEXT
  5
220
330
1F
100
AcDbEntity
  8
2-4
  6
Continuous
 62
     2
370
     9
100
AcDbText
 10
-898.0364078831028
 20
77.99776623205234
 30
0.0
 40
18.288
  1
100
 41
1.083333333333333
  7
ＭＳ ゴシック
100
AcDbText
  0
TEXT
  5
221
330
1F
100
AcDbEntity
  8
2-4
  6
Continuous
 62
     2
370
     9
100
AcDbText
 10
-798.2863385999525
 20
78.49779262563344
 30
0.0
 40
18.288
  1
100
 41
1.083333333333333
  7
ＭＳ ゴシック
100
AcDbText
  0
TEXT
  5
222
330
1F
100
AcDbEntity
  8
2-4
  6
Continuous
 62
     2
370
     9
100
AcDbText
 10
-941.1612383868244
 20
123.7337759844806
 30
0.0
 40
18.288
  1
30
 41
1.0625
  7
ＭＳ ゴシック
100
AcDbText
  0
TEXT
  5
223
330
1F
100
AcDbEntity
  8
2-4
  6
Continuous
 62
     2
370
     9
100
AcDbText
 10
-911.5362779771959
 20
123.7337759844806
 30
0.0
 40
18.288
  1
69.75
 41
1.1
  7
ＭＳ ゴシック
100
AcDbText
  0
LWPOLYLINE
  5
224
330
1F
100
AcDbEntity
  8
2-4
  6
Continuous
 62
     7
370
     9
100
AcDbPolyline
 90
        4
 70
     1
 43
0.6000000000000001
 10
-928.1112383868243
 20
72.11378272804063
 42
0.4142135623731
 10
-928.4112383868244
 20
72.41378272804064
 42
0.4142135623731
 10
-928.7112383868244
 20
72.11378272804063
 42
0.4142135623731
 10
-928.4112383868244
 20
71.81378272804062
 42
0.4142135623731
  0
LWPOLYLINE
  5
225
330
1F
100
AcDbEntity
  8
2-4
  6
Continuous
 62
     7
370
     9
100
AcDbPolyline
 90
        4
 70
     1
 43
0.6000000000000001
 10
-828.3613175675674
 20
72.11378272804063
 42
0.4142135623731
 10
-828.6613175675675
 20
72.41378272804064
 42
0.4142135623731
 10
-828.9613175675676
 20
72.11378272804063
 42
0.4142135623731
 10
-828.6613175675675
 20
71.81378272804062
 42
0.4142135623731
  0
LWPOLYLINE
  5
226
330
1F
100
AcDbEntity
  8
2-4
  6
Continuous
 62
     7
370
     9
100
AcDbPolyline
 90
        4
 70
     1
 43
0.6000000000000001
 10
-728.6113967483108
 20
72.11378272804063
 42
0.4142135623731
 10
-728.9113967483108
 20
72.41378272804064
 42
0.4142135623731
 10
-729.2113967483108
 20
72.11378272804063
 42
0.4142135623731
 10
-728.9113967483108
 20
71.81378272804062
 42
0.4142135623731
  0
LWPOLYLINE
  5
227
330
1F
100
AcDbEntity
  8
2-4
  6
Continuous
 62
     7
370
     9
100
AcDbPolyline
 90
        4
 70
     1
 43
0.6000000000000001
 10
-943.1111394108952
 20
117.3497660868877
 42
0.4142135623731
 10
-943.4111394108953
 20
117.6497660868877
 42
0.4142135623731
 10
-943.7111394108954
 20
117.3497660868877
 42
0.4142135623731
 10
-943.4111394108953
 20
117.0497660868876
 42
0.4142135623731
  0
LWPOLYLINE
  5
228
330
1F
100
AcDbEntity
  8
2-4
  6
Continuous
 62
     7
370
     9
100
AcDbPolyline
 90
        4
 70
     1
 43
0.6000000000000001
 10
-913.1113373627534
 20
117.3497660868877
 42
0.4142135623731
 10
-913.4113373627534
 20
117.6497660868877
 42
0.4142135623731
 10
-913.7113373627535
 20
117.3497660868877
 42
0.4142135623731
 10
-913.4113373627534
 20
117.0497660868876
 42
0.4142135623731
  0
LWPOLYLINE
  5
229
330
1F
100
AcDbEntity
  8
2-4
  6
Continuous
 62
     7
370
     9
100
AcDbPolyline
 90
        4
 70
     1
 43
0.6000000000000001
 10
-843.3612185916384
 20
117.3497660868877
 42
0.4142135623731
 10
-843.6612185916384
 20
117.6497660868877
 42
0.4142135623731
 10
-843.9612185916385
 20
117.3497660868877
 42
0.4142135623731
 10
-843.6612185916384
 20
117.0497660868876
 42
0.4142135623731
  0
TEXT
  5
22A
330
1F
100
AcDbEntity
  8
2-Fﾚｲﾔ
  6
Continuous
 62
     2
370
     9
100
AcDbText
 10
-1017.392690086571
 20
195.1122634475296
 30
0.0
 40
18.288
  1
75
 50
90.0
 41
1.0625
  7
ＭＳ ゴシック
100
AcDbText
  0
TEXT
  5
22B
330
1F
100
AcDbEntity
  8
2-4
  6
Continuous
 62
     2
370
     9
100
AcDbText
 10
-548.9117035736908
 20
300.1371639305322
 30
0.0
 40
18.288
  1
300
 41
1.083333333333333
  7
ＭＳ ゴシック
100
AcDbText
  0
TEXT
  5
22C
330
1F
100
AcDbEntity
  8
2-Fﾚｲﾔ
  6
Continuous
 62
     2
370
     9
100
AcDbText
 10
-698.5368631723763
 20
509.5149022645694
 30
0.0
 40
18.288
  1
500
 41
1.083333333333333
  7
ＭＳ ゴシック
100
AcDbText
  0
TEXT
  5
22D
330
1F
100
AcDbEntity
  8
2-Fﾚｲﾔ
  6
Continuous
 62
     2
370
     9
100
AcDbText
 10
-1002.850948638091
 20
612.2419120169976
 30
0.0
 40
18.288
  1
75
 50
90.0
 41
1.0625
  7
ＭＳ ゴシック
100
AcDbText
  0
TEXT
  5
22E
330
1F
100
AcDbEntity
  8
2-4
  6
Continuous
 62
     2
370
     9
100
AcDbText
 10
-548.9117035736908
 20
702.31545916913
 30
0.0
 40
18.288
  1
300
 41
1.083333333333333
  7
ＭＳ ゴシック
100
AcDbText
  0
TEXT
  5
22F
330
1F
100
AcDbEntity
  8
2-Fﾚｲﾔ
  6
Continuous
 62
     2
370
     9
100
AcDbText
 10
47.21327498152462
 20
737.9153192831503
 30
0.0
 40
18.288
  1
2025
 41
1.09375
  7
ＭＳ ゴシック
100
AcDbText
  0
TEXT
  5
230
330
1F
100
AcDbEntity
  8
2-Fﾚｲﾔ
  6
Continuous
 62
     2
370
     9
100
AcDbText
 10
47.21297805373743
 20
346.974107685811
 30
0.0
 40
18.288
  1
2025
 41
1.09375
  7
ＭＳ ゴシック
100
AcDbText
  0
TEXT
  5
231
330
1F
100
AcDbEntity
  8
2-4
  6
Continuous
 62
     2
370
     9
100
AcDbText
 10
804.4615593987544
 20
702.7044345703125
 30
0.0
 40
18.288
  1
70
 41
1.0625
  7
ＭＳ ゴシック
100
AcDbText
  0
TEXT
  5
232
330
1F
100
AcDbEntity
  8
2-4
  6
Continuous
 62
     2
370
     9
100
AcDbText
 10
1127.638734770904
 20
592.6169153161952
 30
0.0
 40
18.288
  1
40
 50
90.0
 41
1.0625
  7
ＭＳ ゴシック
100
AcDbText
  0
TEXT
  5
233
330
1F
100
AcDbEntity
  8
2-4
  6
Continuous
 62
     2
370
     9
100
AcDbText
 10
1127.638734770904
 20
630.1169648041598
 30
0.0
 40
18.288
  1
35
 50
90.0
 41
1.0625
  7
ＭＳ ゴシック
100
AcDbText
  0
TEXT
  5
234
330
1F
100
AcDbEntity
  8
2-4
  6
Continuous
 62
     2
370
     9
100
AcDbText
 10
1127.638734770904
 20
212.9873162346918
 30
0.0
 40
18.288
  1
35
 50
90.0
 41
1.0625
  7
ＭＳ ゴシック
100
AcDbText
  0
TEXT
  5
235
330
1F
100
AcDbEntity
  8
2-4
  6
Continuous
 62
     2
370
     9
100
AcDbText
 10
1127.638734770904
 20
175.4872667467273
 30
0.0
 40
18.288
  1
40
 50
90.0
 41
1.0625
  7
ＭＳ ゴシック
100
AcDbText
  0
TEXT
  5
236
330
1F
100
AcDbEntity
  8
2-4
  6
Continuous
 62
     2
370
     9
100
AcDbText
 10
804.4615593987544
 20
285.5749344647383
 30
0.0
 40
18.288
  1
70
 41
1.0625
  7
ＭＳ ゴシック
100
AcDbText
  0
ENDSEC
  0
SECTION
  2
OBJECTS
  0
DICTIONARY
  5
C
330
0
100
AcDbDictionary
281
     1
  3
ACAD_GROUP
350
D
  3
ACAD_LAYOUT
350
1A
  3
ACAD_MLEADERSTYLE
350
238
  3
ACAD_MLINESTYLE
350
17
  3
ACAD_PLOTSETTINGS
350
19
  3
ACAD_PLOTSTYLENAME
350
E
  3
ACAD_TABLESTYLE
350
237
  3
ACAD_VISUALSTYLE
350
2A
  0
DICTIONARY
  5
D
102
{ACAD_REACTORS
330
C
102
}
330
C
100
AcDbDictionary
281
     1
  0
DICTIONARY
  5
1A
102
{ACAD_REACTORS
330
C
102
}
330
C
100
AcDbDictionary
281
     1
  3
Layout1
350
1E
  3
Layout2
350
26
  3
Model
350
22
  0
DICTIONARY
  5
238
102
{ACAD_REACTORS
330
C
102
}
330
C
100
AcDbDictionary
281
     1
  0
DICTIONARY
  5
17
102
{ACAD_REACTORS
330
C
102
}
330
C
100
AcDbDictionary
281
     1
  3
Standard
350
18
  0
DICTIONARY
  5
19
102
{ACAD_REACTORS
330
C
102
}
330
C
100
AcDbDictionary
281
     1
  0
ACDBDICTIONARYWDFLT
  5
E
102
{ACAD_REACTORS
330
C
102
}
330
C
100
AcDbDictionary
281
     1
  3
Normal
350
F
100
AcDbDictionaryWithDefault
340
F
  0
DICTIONARY
  5
237
102
{ACAD_REACTORS
330
C
102
}
330
C
100
AcDbDictionary
281
     1
  0
DICTIONARY
  5
2A
102
{ACAD_REACTORS
330
C
102
}
330
C
100
AcDbDictionary
281
     1
  3
2dWireframe
350
2F
  3
3D Hidden
350
31
  3
3dWireframe
350
30
  3
Basic
350
32
  3
Brighten
350
36
  3
ColorChange
350
3A
  3
Conceptual
350
34
  3
Dim
350
35
  3
Facepattern
350
39
  3
Flat
350
2B
  3
FlatWithEdges
350
2C
  3
Gouraud
350
2D
  3
GouraudWithEdges
350
2E
  3
Linepattern
350
38
  3
Realistic
350
33
  3
Thicken
350
37
  0
LAYOUT
  5
1E
102
{ACAD_REACTORS
330
1A
102
}
330
1A
100
AcDbPlotSettings
  1

  2
none_device
  4

  6

 40
0.0
 41
0.0
 42
0.0
 43
0.0
 44
0.0
 45
0.0
 46
0.0
 47
0.0
 48
0.0
 49
0.0
140
0.0
141
0.0
142
1.0
143
1.0
 70
   688
 72
     0
 73
     0
 74
     5
  7

 75
    16
 76
     0
 77
     5
 78
   300
147
1.0
148
0.0
149
0.0
100
AcDbLayout
  1
Layout1
 70
     1
 71
     1
 10
0.0
 20
0.0
 11
420.0
 21
297.0
 12
0.0
 22
0.0
 32
0.0
 14
1.000000000000000E+20
 24
1.000000000000000E+20
 34
1.000000000000000E+20
 15
-1.000000000000000E+20
 25
-1.000000000000000E+20
 35
-1.000000000000000E+20
146
0.0
 13
0.0
 23
0.0
 33
0.0
 16
1.0
 26
0.0
 36
0.0
 17
0.0
 27
1.0
 37
0.0
 76
     0
330
1B
  0
LAYOUT
  5
26
102
{ACAD_REACTORS
330
1A
102
}
330
1A
100
AcDbPlotSettings
  1

  2
none_device
  4

  6

 40
0.0
 41
0.0
 42
0.0
 43
0.0
 44
0.0
 45
0.0
 46
0.0
 47
0.0
 48
0.0
 49
0.0
140
0.0
141
0.0
142
1.0
143
1.0
 70
   688
 72
     0
 73
     0
 74
     5
  7

 75
    16
 76
     0
 77
     5
 78
   300
147
1.0
148
0.0
149
0.0
100
AcDbLayout
  1
Layout2
 70
     1
 71
     2
 10
0.0
 20
0.0
 11
0.0
 21
0.0
 12
0.0
 22
0.0
 32
0.0
 14
0.0
 24
0.0
 34
0.0
 15
0.0
 25
0.0
 35
0.0
146
0.0
 13
0.0
 23
0.0
 33
0.0
 16
1.0
 26
0.0
 36
0.0
 17
0.0
 27
1.0
 37
0.0
 76
     0
330
23
  0
LAYOUT
  5
22
102
{ACAD_REACTORS
330
1A
102
}
330
1A
100
AcDbPlotSettings
  1

  2
none_device
  4

  6

 40
0.0
 41
0.0
 42
0.0
 43
0.0
 44
0.0
 45
0.0
 46
0.0
 47
0.0
 48
0.0
 49
0.0
140
0.0
141
0.0
142
1.0
143
1.0
 70
  1712
 72
     0
 73
     0
 74
     0
  7

 75
     0
 76
     0
 77
     5
 78
   300
147
1.0
148
0.0
149
0.0
100
AcDbLayout
  1
Model
 70
     1
 71
     0
 10
-1260.0
 20
-891.0
 11
1260.0
 21
891.0
 12
0.0
 22
0.0
 32
0.0
 14
-1260.0
 24
-891.0
 34
0.0
 15
1260.0
 25
891.0
 35
0.0
146
0.0
 13
0.0
 23
0.0
 33
0.0
 16
1.0
 26
0.0
 36
0.0
 17
0.0
 27
1.0
 37
0.0
 76
     0
330
1F
331
29
  0
MLINESTYLE
  5
18
102
{ACAD_REACTORS
330
17
102
}
330
17
100
AcDbMlineStyle
  2
Standard
 70
     0
  3

 62
   256
 51
90.0
 52
90.0
 71
     2
 49
0.5
 62
   256
  6
BYLAYER
 49
-0.5
 62
   256
  6
BYLAYER
  0
ACDBPLACEHOLDER
  5
F
102
{ACAD_REACTORS
330
E
102
}
330
E
  0
VISUALSTYLE
  5
2F
102
{ACAD_REACTORS
330
2A
102
}
330
2A
100
AcDbVisualStyle
  2
2dWireframe
 70
     4
 71
     0
 72
     2
 73
     0
 90
        0
 40
-0.6
 41
-30.0
 62
     5
 63
     7
421
 16777215
 74
     1
 91
        4
 64
     7
 65
   257
 75
     1
175
     1
 42
1.0
 92
        0
 66
   257
 43
1.0
 76
     1
 77
     6
 78
     2
 67
     7
 79
     5
170
     0
171
     0
290
     0
174
     0
 93
        1
 44
0.0
173
     0
291
     0
 45
0.0
1001
ACAD
1000
AcDbSavedByObjectVersion
1070
     0
  0
VISUALSTYLE
  5
31
102
{ACAD_REACTORS
330
2A
102
}
330
2A
100
AcDbVisualStyle
  2
3D Hidden
 70
     6
 71
     1
 72
     2
 73
     2
 90
        0
 40
-0.6
 41
-30.0
 62
     5
 63
     7
421
 16777215
 74
     2
 91
        2
 64
     7
 65
   257
 75
     2
175
     1
 42
40.0
 92
        0
 66
   257
 43
1.0
 76
     1
 77
     6
 78
     2
 67
     7
 79
     3
170
     0
171
     0
290
     0
174
     0
 93
        1
 44
0.0
173
     0
291
     0
 45
0.0
1001
ACAD
1000
AcDbSavedByObjectVersion
1070
     0
  0
VISUALSTYLE
  5
30
102
{ACAD_REACTORS
330
2A
102
}
330
2A
100
AcDbVisualStyle
  2
3dWireframe
 70
     5
 71
     0
 72
     2
 73
     0
 90
        0
 40
-0.6
 41
-30.0
 62
     5
 63
     7
421
 16777215
 74
     1
 91
        4
 64
     7
 65
   257
 75
     1
175
     1
 42
1.0
 92
        0
 66
   257
 43
1.0
 76
     1
 77
     6
 78
     2
 67
     7
 79
     5
170
     0
171
     0
290
     0
174
     0
 93
        1
 44
0.0
173
     0
291
     0
 45
0.0
1001
ACAD
1000
AcDbSavedByObjectVersion
1070
     0
  0
VISUALSTYLE
  5
32
102
{ACAD_REACTORS
330
2A
102
}
330
2A
100
AcDbVisualStyle
  2
Basic
 70
     7
 71
     1
 72
     0
 73
     1
 90
        0
 40
-0.6
 41
-30.0
 62
     5
 63
     7
421
 16777215
 74
     0
 91
        4
 64
     7
 65
   257
 75
     1
175
     1
 42
1.0
 92
        8
 66
     7
 43
1.0
 76
     1
 77
     6
 78
     2
 67
     7
 79
     5
170
     0
171
     0
290
     0
174
     0
 93
        1
 44
0.0
173
     0
291
     1
 45
0.0
1001
ACAD
1000
AcDbSavedByObjectVersion
1070
     0
  0
VISUALSTYLE
  5
36
102
{ACAD_REACTORS
330
2A
102
}
330
2A
100
AcDbVisualStyle
  2
Brighten
 70
    12
 71
     2
 72
     2
 73
     0
 90
        0
 40
-0.6
 41
-30.0
 62
     5
 63
     7
421
 16777215
 74
     1
 91
        4
 64
     7
 65
   257
 75
     1
175
     1
 42
1.0
 92
        8
 66
     7
 43
1.0
 76
     1
 77
     6
 78
     2
 67
     7
 79
     5
170
     0
171
     0
290
     0
174
     0
 93
        1
 44
50.0
173
     0
291
     1
 45
0.0
1001
ACAD
1000
AcDbSavedByObjectVersion
1070
     0
  0
VISUALSTYLE
  5
3A
102
{ACAD_REACTORS
330
2A
102
}
330
2A
100
AcDbVisualStyle
  2
ColorChange
 70
    16
 71
     2
 72
     2
 73
     3
 90
        0
 40
-0.6
 41
-30.0
 62
     5
 63
     8
421
  8421504
 74
     1
 91
        4
 64
     7
 65
   257
 75
     1
175
     1
 42
1.0
 92
        8
 66
     8
424
  8421504
 43
1.0
 76
     1
 77
     6
 78
     2
 67
     7
 79
     5
170
     0
171
     0
290
     0
174
     0
 93
        1
 44
0.0
173
     0
291
     1
 45
0.0
1001
ACAD
1000
AcDbSavedByObjectVersion
1070
     0
  0
VISUALSTYLE
  5
34
102
{ACAD_REACTORS
330
2A
102
}
330
2A
100
AcDbVisualStyle
  2
Conceptual
 70
     9
 71
     3
 72
     2
 73
     0
 90
        0
 40
-0.6
 41
-30.0
 62
     5
 63
     7
421
 16777215
 74
     2
 91
        2
 64
     7
 65
   257
 75
     1
175
     1
 42
40.0
 92
        8
 66
     7
 43
1.0
 76
     1
 77
     6
 78
     2
 67
     7
 79
     3
170
     0
171
     0
290
     0
174
     0
 93
        1
 44
0.0
173
     0
291
     0
 45
0.0
1001
ACAD
1000
AcDbSavedByObjectVersion
1070
     0
  0
VISUALSTYLE
  5
35
102
{ACAD_REACTORS
330
2A
102
}
330
2A
100
AcDbVisualStyle
  2
Dim
 70
    11
 71
     2
 72
     2
 73
     0
 90
        0
 40
-0.6
 41
-30.0
 62
     5
 63
     7
421
 16777215
 74
     1
 91
        4
 64
     7
 65
   257
 75
     1
175
     1
 42
1.0
 92
        8
 66
     7
 43
1.0
 76
     1
 77
     6
 78
     2
 67
     7
 79
     5
170
     0
171
     0
290
     0
174
     0
 93
        1
 44
-50.0
173
     0
291
     1
 45
0.0
1001
ACAD
1000
AcDbSavedByObjectVersion
1070
     0
  0
VISUALSTYLE
  5
39
102
{ACAD_REACTORS
330
2A
102
}
330
2A
100
AcDbVisualStyle
  2
Facepattern
 70
    15
 71
     2
 72
     2
 73
     0
 90
        0
 40
-0.6
 41
-30.0
 62
     5
 63
     7
421
 16777215
 74
     1
 91
        4
 64
     7
 65
   257
 75
     1
175
     1
 42
1.0
 92
        8
 66
     7
 43
1.0
 76
     1
 77
     6
 78
     2
 67
     7
 79
     5
170
     0
171
     0
290
     0
174
     0
 93
        1
 44
0.0
173
     0
291
     1
 45
0.0
1001
ACAD
1000
AcDbSavedByObjectVersion
1070
     0
  0
VISUALSTYLE
  5
2B
102
{ACAD_REACTORS
330
2A
102
}
330
2A
100
AcDbVisualStyle
  2
Flat
 70
     0
 71
     2
 72
     1
 73
     1
 90
        2
 40
-0.6
 41
30.0
 62
     5
 63
     7
421
 16777215
 74
     0
 91
        4
 64
     7
 65
   257
 75
     1
175
     1
 42
1.0
 92
        8
 66
     7
 43
1.0
 76
     1
 77
     6
 78
     2
 67
     7
 79
     5
170
     0
171
     0
290
     0
174
     0
 93
       13
 44
0.0
173
     0
291
     1
 45
0.0
1001
ACAD
1000
AcDbSavedByObjectVersion
1070
     0
  0
VISUALSTYLE
  5
2C
102
{ACAD_REACTORS
330
2A
102
}
330
2A
100
AcDbVisualStyle
  2
FlatWithEdges
 70
     1
 71
     2
 72
     1
 73
     1
 90
        2
 40
-0.6
 41
30.0
 62
     5
 63
     7
421
 16777215
 74
     1
 91
        4
 64
     7
 65
   257
 75
     1
175
     1
 42
1.0
 92
        0
 66
   257
 43
1.0
 76
     1
 77
     6
 78
     2
 67
     7
 79
     5
170
     0
171
     0
290
     0
174
     0
 93
       13
 44
0.0
173
     0
291
     1
 45
0.0
1001
ACAD
1000
AcDbSavedByObjectVersion
1070
     0
  0
VISUALSTYLE
  5
2D
102
{ACAD_REACTORS
330
2A
102
}
330
2A
100
AcDbVisualStyle
  2
Gouraud
 70
     2
 71
     2
 72
     2
 73
     1
 90
        2
 40
-0.6
 41
30.0
 62
     5
 63
     7
421
 16777215
 74
     0
 91
        4
 64
     7
 65
   257
 75
     1
175
     1
 42
1.0
 92
        0
 66
     7
 43
1.0
 76
     1
 77
     6
 78
     2
 67
     7
 79
     5
170
     0
171
     0
290
     0
174
     0
 93
       13
 44
0.0
173
     0
291
     1
 45
0.0
1001
ACAD
1000
AcDbSavedByObjectVersion
1070
     0
  0
VISUALSTYLE
  5
2E
102
{ACAD_REACTORS
330
2A
102
}
330
2A
100
AcDbVisualStyle
  2
GouraudWithEdges
 70
     3
 71
     2
 72
     2
 73
     1
 90
        2
 40
-0.6
 41
30.0
 62
     5
 63
     7
421
 16777215
 74
     1
 91
        4
 64
     7
 65
   257
 75
     1
175
     1
 42
1.0
 92
        0
 66
   257
 43
1.0
 76
     1
 77
     6
 78
     2
 67
     7
 79
     5
170
     0
171
     0
290
     0
174
     0
 93
       13
 44
0.0
173
     0
291
     1
 45
0.0
1001
ACAD
1000
AcDbSavedByObjectVersion
1070
     0
  0
VISUALSTYLE
  5
38
102
{ACAD_REACTORS
330
2A
102
}
330
2A
100
AcDbVisualStyle
  2
Linepattern
 70
    14
 71
     2
 72
     2
 73
     0
 90
        0
 40
-0.6
 41
-30.0
 62
     5
 63
     7
421
 16777215
 74
     1
 91
        4
 64
     7
 65
   257
 75
     7
175
     7
 42
1.0
 92
        8
 66
     7
 43
1.0
 76
     1
 77
     6
 78
     2
 67
     7
 79
     5
170
     0
171
     0
290
     0
174
     0
 93
        1
 44
0.0
173
     0
291
     1
 45
0.0
1001
ACAD
1000
AcDbSavedByObjectVersion
1070
     0
  0
VISUALSTYLE
  5
33
102
{ACAD_REACTORS
330
2A
102
}
330
2A
100
AcDbVisualStyle
  2
Realistic
 70
     8
 71
     2
 72
     2
 73
     0
 90
        0
 40
-0.6
 41
-30.0
 62
     5
 63
     7
421
 16777215
 74
     1
 91
        0
 64
     7
 65
   257
 75
     1
175
     1
 42
1.0
 92
        8
 66
     8
424
  7895160
 43
1.0
 76
     1
 77
     6
 78
     2
 67
     7
 79
     5
170
     0
171
     0
290
     0
174
     0
 93
       13
 44
0.0
173
     0
291
     0
 45
0.0
1001
ACAD
1000
AcDbSavedByObjectVersion
1070
     0
  0
VISUALSTYLE
  5
37
102
{ACAD_REACTORS
330
2A
102
}
330
2A
100
AcDbVisualStyle
  2
Thicken
 70
    13
 71
     2
 72
     2
 73
     0
 90
        0
 40
-0.6
 41
-30.0
 62
     5
 63
     7
421
 16777215
 74
     1
 91
        4
 64
     7
 65
   257
 75
     1
175
     1
 42
1.0
 92
       12
 66
     7
 43
1.0
 76
     1
 77
     6
 78
     2
 67
     7
 79
     5
170
     0
171
     0
290
     0
174
     0
 93
        1
 44
0.0
173
     0
291
     1
 45
0.0
1001
ACAD
1000
AcDbSavedByObjectVersion
1070
     0
  0
ENDSEC
  0
EOF
