  0
SECTION
  2
HEADER
  9
$ACADVER
  1
AC1015
  9
$ACADMAINTVER
 70
     6
  9
$DWGCODEPAGE
  3
ANSI_932
  9
$INSBASE
 10
0.0
 20
0.0
 30
0.0
  9
$EXTMIN
 10
-2100.0
 20
-1485.0
 30
0.0
  9
$EXTMAX
 10
2100.0
 20
1485.0
 30
0.0
  9
$LIMMIN
 10
-2100.0
 20
-1485.0
  9
$LIMMAX
 10
2100.0
 20
1485.0
  9
$ORTHOMODE
 70
     0
  9
$REGENMODE
 70
     1
  9
$FILLMODE
 70
     1
  9
$QTEXTMODE
 70
     0
  9
$MIRRTEXT
 70
     1
  9
$LTSCALE
 40
10.0
  9
$ATTMODE
 70
     1
  9
$TEXTSIZE
 40
2.5
  9
$TRACEWID
 40
1.0
  9
$TEXTSTYLE
  7
Standard
  9
$CLAYER
  8
0
  9
$CELTYPE
  6
ByLayer
  9
$CECOLOR
 62
   256
  9
$CELTSCALE
 40
1.0
  9
$DISPSILH
 70
     0
  9
$DIMSCALE
 40
1.0
  9
$DIMASZ
 40
2.5
  9
$DIMEXO
 40
0.625
  9
$DIMDLI
 40
3.75
  9
$DIMRND
 40
0.0
  9
$DIMDLE
 40
0.0
  9
$DIMEXE
 40
1.25
  9
$DIMTP
 40
0.0
  9
$DIMTM
 40
0.0
  9
$DIMTXT
 40
2.5
  9
$DIMCEN
 40
2.5
  9
$DIMTSZ
 40
0.0
  9
$DIMTOL
 70
     0
  9
$DIMLIM
 70
     0
  9
$DIMTIH
 70
     0
  9
$DIMTOH
 70
     0
  9
$DIMSE1
 70
     0
  9
$DIMSE2
 70
     0
  9
$DIMTAD
 70
     1
  9
$DIMZIN
 70
     8
  9
$DIMBLK
  1

  9
$DIMASO
 70
     1
  9
$DIMSHO
 70
     1
  9
$DIMPOST
  1

  9
$DIMAPOST
  1

  9
$DIMALT
 70
     0
  9
$DIMALTD
 70
     3
  9
$DIMALTF
 40
0.03937007874016
  9
$DIMLFAC
 40
1.0
  9
$DIMTOFL
 70
     1
  9
$DIMTVP
 40
0.0
  9
$DIMTIX
 70
     0
  9
$DIMSOXD
 70
     0
  9
$DIMSAH
 70
     0
  9
$DIMBLK1
  1

  9
$DIMBLK2
  1

  9
$DIMSTYLE
  2
ISO-25
  9
$DIMCLRD
 70
     0
  9
$DIMCLRE
 70
     0
  9
$DIMCLRT
 70
     0
  9
$DIMTFAC
 40
1.0
  9
$DIMGAP
 40
0.625
  9
$DIMJUST
 70
     0
  9
$DIMSD1
 70
     0
  9
$DIMSD2
 70
     0
  9
$DIMTOLJ
 70
     0
  9
$DIMTZIN
 70
     8
  9
$DIMALTZ
 70
     0
  9
$DIMALTTZ
 70
     0
  9
$DIMUPT
 70
     0
  9
$DIMDEC
 70
     2
  9
$DIMTDEC
 70
     2
  9
$DIMALTU
 70
     2
  9
$DIMALTTD
 70
     3
  9
$DIMTXSTY
  7
Standard
  9
$DIMAUNIT
 70
     0
  9
$DIMADEC
 70
     0
  9
$DIMALTRND
 40
0.0
  9
$DIMAZIN
 70
     0
  9
$DIMDSEP
 70
    44
  9
$DIMATFIT
 70
     3
  9
$DIMFRAC
 70
     0
  9
$DIMLDRBLK
  1

  9
$DIMLUNIT
 70
     2
  9
$DIMLWD
 70
    -2
  9
$DIMLWE
 70
    -2
  9
$DIMTMOVE
 70
     0
  9
$LUNITS
 70
     2
  9
$LUPREC
 70
     4
  9
$SKETCHINC
 40
1.0
  9
$FILLETRAD
 40
10.0
  9
$AUNITS
 70
     0
  9
$AUPREC
 70
     0
  9
$MENU
  1
.
  9
$ELEVATION
 40
0.0
  9
$PELEVATION
 40
0.0
  9
$THICKNESS
 40
0.0
  9
$LIMCHECK
 70
     0
  9
$CHAMFERA
 40
10.0
  9
$CHAMFERB
 40
10.0
  9
$CHAMFERC
 40
20.0
  9
$CHAMFERD
 40
0.0
  9
$SKPOLY
 70
     0
  9
$TDCREATE
 40
2456902.77976654
  9
$TDUCREATE
 40
2456902.40476654
  9
$TDUPDATE
 40
2456902.779766551
  9
$TDUUPDATE
 40
2456902.404766551
  9
$TDINDWG
 40
0.0000000116
  9
$TDUSRTIMER
 40
0.0000000116
  9
$USRTIMER
 70
     1
  9
$ANGBASE
 50
0.0
  9
$ANGDIR
 70
     0
  9
$PDMODE
 70
     0
  9
$PDSIZE
 40
0.0
  9
$PLINEWID
 40
0.0
  9
$SPLFRAME
 70
     0
  9
$SPLINETYPE
 70
     6
  9
$SPLINESEGS
 70
     8
  9
$HANDSEED
  5
45D
  9
$SURFTAB1
 70
     6
  9
$SURFTAB2
 70
     6
  9
$SURFTYPE
 70
     6
  9
$SURFU
 70
     6
  9
$SURFV
 70
     6
  9
$UCSBASE
  2

  9
$UCSNAME
  2

  9
$UCSORG
 10
0.0
 20
0.0
 30
0.0
  9
$UCSXDIR
 10
1.0
 20
0.0
 30
0.0
  9
$UCSYDIR
 10
0.0
 20
1.0
 30
0.0
  9
$UCSORTHOREF
  2

  9
$UCSORTHOVIEW
 70
     0
  9
$UCSORGTOP
 10
0.0
 20
0.0
 30
0.0
  9
$UCSORGBOTTOM
 10
0.0
 20
0.0
 30
0.0
  9
$UCSORGLEFT
 10
0.0
 20
0.0
 30
0.0
  9
$UCSORGRIGHT
 10
0.0
 20
0.0
 30
0.0
  9
$UCSORGFRONT
 10
0.0
 20
0.0
 30
0.0
  9
$UCSORGBACK
 10
0.0
 20
0.0
 30
0.0
  9
$PUCSBASE
  2

  9
$PUCSNAME
  2

  9
$PUCSORG
 10
0.0
 20
0.0
 30
0.0
  9
$PUCSXDIR
 10
1.0
 20
0.0
 30
0.0
  9
$PUCSYDIR
 10
0.0
 20
1.0
 30
0.0
  9
$PUCSORTHOREF
  2

  9
$PUCSORTHOVIEW
 70
     0
  9
$PUCSORGTOP
 10
0.0
 20
0.0
 30
0.0
  9
$PUCSORGBOTTOM
 10
0.0
 20
0.0
 30
0.0
  9
$PUCSORGLEFT
 10
0.0
 20
0.0
 30
0.0
  9
$PUCSORGRIGHT
 10
0.0
 20
0.0
 30
0.0
  9
$PUCSORGFRONT
 10
0.0
 20
0.0
 30
0.0
  9
$PUCSORGBACK
 10
0.0
 20
0.0
 30
0.0
  9
$USERI1
 70
     0
  9
$USERI2
 70
     0
  9
$USERI3
 70
     0
  9
$USERI4
 70
     0
  9
$USERI5
 70
     0
  9
$USERR1
 40
0.0
  9
$USERR2
 40
0.0
  9
$USERR3
 40
0.0
  9
$USERR4
 40
0.0
  9
$USERR5
 40
0.0
  9
$WORLDVIEW
 70
     1
  9
$SHADEDGE
 70
     3
  9
$SHADEDIF
 70
    70
  9
$TILEMODE
 70
     1
  9
$MAXACTVP
 70
    64
  9
$PINSBASE
 10
0.0
 20
0.0
 30
0.0
  9
$PLIMCHECK
 70
     0
  9
$PEXTMIN
 10
1.000000000000000E+20
 20
1.000000000000000E+20
 30
1.000000000000000E+20
  9
$PEXTMAX
 10
-1.000000000000000E+20
 20
-1.000000000000000E+20
 30
-1.000000000000000E+20
  9
$PLIMMIN
 10
0.0
 20
0.0
  9
$PLIMMAX
 10
420.0
 20
297.0
  9
$UNITMODE
 70
     0
  9
$VISRETAIN
 70
     1
  9
$PLINEGEN
 70
     0
  9
$PSLTSCALE
 70
     1
  9
$TREEDEPTH
 70
  3020
  9
$CMLSTYLE
  2
Standard
  9
$CMLJUST
 70
     0
  9
$CMLSCALE
 40
20.0
  9
$PROXYGRAPHICS
 70
     1
  9
$MEASUREMENT
 70
     1
  9
$CELWEIGHT
370
    -1
  9
$ENDCAPS
280
     0
  9
$JOINSTYLE
280
     0
  9
$LWDISPLAY
290
     0
  9
$INSUNITS
 70
     4
  9
$HYPERLINKBASE
  1

  9
$STYLESHEET
  1

  9
$XEDIT
290
     1
  9
$CEPSNTYPE
380
     0
  9
$PSTYLEMODE
290
     1
  9
$FINGERPRINTGUID
  2
{978416E5-A86A-421F-8166-9EF68C44494C}
  9
$VERSIONGUID
  2
{FAEB1C32-E019-11D5-929B-00C0DF256EC4}
  9
$EXTNAMES
290
     1
  9
$PSVPSCALE
 40
0.0
  9
$OLESTARTUP
290
     0
  0
ENDSEC
  0
SECTION
  2
CLASSES
  0
CLASS
  1
ACDBDICTIONARYWDFLT
  2
AcDbDictionaryWithDefault
  3
ObjectDBX Classes
 90
        0
280
     0
281
     0
  0
CLASS
  1
VISUALSTYLE
  2
AcDbVisualStyle
  3
ObjectDBX Classes
 90
     4095
280
     0
281
     0
  0
CLASS
  1
DICTIONARYVAR
  2
AcDbDictionaryVar
  3
ObjectDBX Classes
 90
        0
280
     0
281
     0
  0
CLASS
  1
ACDBPLACEHOLDER
  2
AcDbPlaceHolder
  3
ObjectDBX Classes
 90
        0
280
     0
281
     0
  0
CLASS
  1
LAYOUT
  2
AcDbLayout
  3
ObjectDBX Classes
 90
        0
280
     0
281
     0
  0
ENDSEC
  0
SECTION
  2
TABLES
  0
TABLE
  2
VPORT
  5
8
330
0
100
AcDbSymbolTable
 70
     1
  0
VPORT
  5
29
330
8
100
AcDbSymbolTableRecord
100
AcDbViewportTableRecord
  2
*Active
 70
     0
 10
0.0
 20
0.0
 11
1.0
 21
1.0
 12
0.0
 22
0.0
 13
0.0
 23
0.0
 14
10.0
 24
10.0
 15
10.0
 25
10.0
 16
0.0
 26
0.0
 36
1.0
 17
0.0
 27
0.0
 37
0.0
 40
3267.0
 41
1.414141414141414
 42
50.0
 43
0.0
 44
0.0
 50
0.0
 51
0.0
 71
     0
 72
 10000
 73
     1
 74
     3
 75
     0
 76
     0
 77
     0
 78
     0
281
     0
 65
     1
110
0.0
120
0.0
130
0.0
111
1.0
121
0.0
131
0.0
112
0.0
122
1.0
132
0.0
 79
     0
146
0.0
  0
ENDTAB
  0
TABLE
  2
LTYPE
  5
5
330
0
100
AcDbSymbolTable
 70
     3
  0
LTYPE
  5
14
330
5
100
AcDbSymbolTableRecord
100
AcDbLinetypeTableRecord
  2
ByBlock
 70
     0
  3

 72
    65
 73
     0
 40
0.0
  0
LTYPE
  5
15
330
5
100
AcDbSymbolTableRecord
100
AcDbLinetypeTableRecord
  2
ByLayer
 70
     0
  3

 72
    65
 73
     0
 40
0.0
  0
LTYPE
  5
16
330
5
100
AcDbSymbolTableRecord
100
AcDbLinetypeTableRecord
  2
Continuous
 70
     0
  3
Solid line
 72
    65
 73
     0
 40
0.0
  0
LTYPE
  5
3C
330
5
100
AcDbSymbolTableRecord
100
AcDbLinetypeTableRecord
  2
JWW_DASHED1
 70
     0
  3
-  --  --  --  --  --  --  --  -
 72
    65
 73
     2
 40
1.693333333333333
 49
0.8466666666666667
 74
     0
 49
-0.8466666666666667
 74
     0
  0
LTYPE
  5
3D
330
5
100
AcDbSymbolTableRecord
100
AcDbLinetypeTableRecord
  2
JWW_CENTER1
 70
     0
  3
-----  --  ----------  --  -----
 72
    65
 73
     4
 40
6.773333333333333
 49
4.233333333333333
 74
     0
 49
-0.8466666666666667
 74
     0
 49
0.8466666666666667
 74
     0
 49
-0.8466666666666667
 74
     0
  0
ENDTAB
  0
TABLE
  2
LAYER
  5
2
330
0
100
AcDbSymbolTable
 70
    13
  0
LAYER
  5
10
330
2
100
AcDbSymbolTableRecord
100
AcDbLayerTableRecord
  2
0
 70
     0
 62
     7
  6
Continuous
370
    -3
390
F
  0
LAYER
  5
3E
330
2
100
AcDbSymbolTableRecord
100
AcDbLayerTableRecord
  2
F-5
 70
     0
 62
     7
  6
Continuous
370
    -3
390
F
  0
LAYER
  5
3F
330
2
100
AcDbSymbolTableRecord
100
AcDbLayerTableRecord
  2
ｶﾊﾞｰ
 70
     0
 62
     7
  6
Continuous
370
    -3
390
F
  0
LAYER
  5
40
330
2
100
AcDbSymbolTableRecord
100
AcDbLayerTableRecord
  2
受け
 70
     0
 62
     7
  6
Continuous
370
    -3
390
F
  0
LAYER
  5
41
330
2
100
AcDbSymbolTableRecord
100
AcDbLayerTableRecord
  2
蓋
 70
     0
 62
     7
  6
Continuous
370
    -3
390
F
  0
LAYER
  5
42
330
2
100
AcDbSymbolTableRecord
100
AcDbLayerTableRecord
  2
0-A
 70
     0
 62
     7
  6
Continuous
370
    -3
390
F
  0
LAYER
  5
43
330
2
100
AcDbSymbolTableRecord
100
AcDbLayerTableRecord
  2
0-5
 70
     0
 62
     7
  6
Continuous
370
    -3
390
F
  0
LAYER
  5
44
330
2
100
AcDbSymbolTableRecord
100
AcDbLayerTableRecord
  2
0-0
 70
     0
 62
     7
  6
Continuous
370
    -3
390
F
  0
LAYER
  5
45
330
2
100
AcDbSymbolTableRecord
100
AcDbLayerTableRecord
  2
0-1
 70
     0
 62
     7
  6
Continuous
370
    -3
390
F
  0
LAYER
  5
46
330
2
100
AcDbSymbolTableRecord
100
AcDbLayerTableRecord
  2
0-C
 70
     0
 62
     7
  6
Continuous
370
    -3
390
F
  0
LAYER
  5
47
330
2
100
AcDbSymbolTableRecord
100
AcDbLayerTableRecord
  2
0-2
 70
     0
 62
     7
  6
Continuous
370
    -3
390
F
  0
LAYER
  5
48
330
2
100
AcDbSymbolTableRecord
100
AcDbLayerTableRecord
  2
0-D
 70
     0
 62
     7
  6
Continuous
370
    -3
390
F
  0
LAYER
  5
49
330
2
100
AcDbSymbolTableRecord
100
AcDbLayerTableRecord
  2
0-F
 70
     0
 62
     7
  6
Continuous
370
    -3
390
F
  0
ENDTAB
  0
TABLE
  2
STYLE
  5
3
330
0
100
AcDbSymbolTable
 70
     2
  0
STYLE
  5
11
330
3
100
AcDbSymbolTableRecord
100
AcDbTextStyleTableRecord
  2
Standard
 70
     0
 40
0.0
 41
1.0
 50
0.0
 71
     0
 42
2.5
  3
txt
  4

1001
ACAD
1000

1071
        0
  0
STYLE
  5
3B
330
3
100
AcDbSymbolTableRecord
100
AcDbTextStyleTableRecord
  2
ＭＳ ゴシック
 70
     0
 40
1.0
 41
1.0
 50
0.0
 71
     0
 42
10.0
  3

  4

1001
ACAD
1000
MS Gothic
1071
    32817
  0
ENDTAB
  0
TABLE
  2
VIEW
  5
6
330
0
100
AcDbSymbolTable
 70
     0
  0
ENDTAB
  0
TABLE
  2
UCS
  5
7
330
0
100
AcDbSymbolTable
 70
     0
  0
ENDTAB
  0
TABLE
  2
APPID
  5
9
330
0
100
AcDbSymbolTable
 70
     1
  0
APPID
  5
12
330
9
100
AcDbSymbolTableRecord
100
AcDbRegAppTableRecord
  2
ACAD
 70
     0
  0
ENDTAB
  0
TABLE
  2
DIMSTYLE
  5
A
330
0
100
AcDbSymbolTable
 70
     1
100
AcDbDimStyleTable
  0
DIMSTYLE
105
27
330
A
100
AcDbSymbolTableRecord
100
AcDbDimStyleTableRecord
  2
ISO-25
 70
     0
 41
2.5
 42
0.625
 43
3.75
 44
1.25
 73
     0
 74
     0
 77
     1
 78
     8
140
2.5
141
2.5
143
0.03937007874016
147
0.625
171
     3
172
     1
271
     2
272
     2
274
     3
278
    44
283
     0
284
     8
340
11
  0
ENDTAB
  0
TABLE
  2
BLOCK_RECORD
  5
1
330
0
100
AcDbSymbolTable
 70
     1
  0
BLOCK_RECORD
  5
1F
330
1
100
AcDbSymbolTableRecord
100
AcDbBlockTableRecord
  2
*Model_Space
340
22
  0
BLOCK_RECORD
  5
1B
330
1
100
AcDbSymbolTableRecord
100
AcDbBlockTableRecord
  2
*Paper_Space
340
1E
  0
BLOCK_RECORD
  5
23
330
1
100
AcDbSymbolTableRecord
100
AcDbBlockTableRecord
  2
*Paper_Space0
340
26
  0
ENDTAB
  0
ENDSEC
  0
SECTION
  2
BLOCKS
  0
BLOCK
  5
20
330
1F
100
AcDbEntity
  8
0
100
AcDbBlockBegin
  2
*Model_Space
 70
     0
 10
0.0
 20
0.0
 30
0.0
  3
*Model_Space
  1

  0
ENDBLK
  5
21
330
1F
100
AcDbEntity
  8
0
100
AcDbBlockEnd
  0
BLOCK
  5
1C
330
1B
100
AcDbEntity
 67
     1
  8
0
100
AcDbBlockBegin
  2
*Paper_Space
 70
     0
 10
0.0
 20
0.0
 30
0.0
  3
*Paper_Space
  1

  0
ENDBLK
  5
1D
330
1B
100
AcDbEntity
 67
     1
  8
0
100
AcDbBlockEnd
  0
BLOCK
  5
24
330
23
100
AcDbEntity
  8
0
100
AcDbBlockBegin
  2
*Paper_Space0
 70
     0
 10
0.0
 20
0.0
 30
0.0
  3
*Paper_Space0
  1

  0
ENDBLK
  5
25
330
23
100
AcDbEntity
  8
0
100
AcDbBlockEnd
  0
ENDSEC
  0
SECTION
  2
ENTITIES
  0
TEXT
  5
4A
330
1F
100
AcDbEntity
  8
F-5
  6
Continuous
 62
     2
370
     9
100
AcDbText
 10
-790.0002886797932
 20
-1347.468295749974
 30
0.0
 40
30.48
  1
たて引きルーフドレイン用雨量調整管　ＯＰ－７５
 41
1.119565217391304
  7
ＭＳ ゴシック
100
AcDbText
  0
LINE
  5
4B
330
1F
100
AcDbEntity
  8
ｶﾊﾞｰ
  6
Continuous
 62
     4
370
     9
100
AcDbLine
 10
948.7589866688904
 20
501.8468795908666
 30
0.0
 11
948.7589866688904
 21
488.4507454659537
 31
0.0
  0
LINE
  5
4C
330
1F
100
AcDbEntity
  8
受け
  6
JWW_DASHED1
 62
     3
370
     9
100
AcDbLine
 10
860.4249954598384
 20
706.5652991042564
 30
0.0
 11
967.0916621265051
 21
706.5652991042564
 31
0.0
  0
LINE
  5
4D
330
1F
100
AcDbEntity
  8
受け
  6
JWW_DASHED1
 62
     3
370
     9
100
AcDbLine
 10
860.4249954598384
 20
708.075522784842
 30
0.0
 11
967.0916621265051
 21
708.075522784842
 31
0.0
  0
LINE
  5
4E
330
1F
100
AcDbEntity
  8
蓋
  6
JWW_DASHED1
 62
     6
370
     9
100
AcDbLine
 10
855.4249954598384
 20
710.5224779710551
 30
0.0
 11
855.4249954598384
 21
834.4816669355845
 31
0.0
  0
LINE
  5
4F
330
1F
100
AcDbEntity
  8
蓋
  6
JWW_DASHED1
 62
     6
370
     9
100
AcDbLine
 10
855.4249954598384
 20
812.484231486921
 30
0.0
 11
967.0916621265051
 21
812.484231486921
 31
0.0
  0
LINE
  5
50
330
1F
100
AcDbEntity
  8
ｶﾊﾞｰ
  6
Continuous
 62
     4
370
     9
100
AcDbLine
 10
870.4253713327116
 20
411.7841967996071
 30
0.0
 11
653.7585220318903
 21
411.7841967996071
 31
0.0
  0
LINE
  5
51
330
1F
100
AcDbEntity
  8
ｶﾊﾞｰ
  6
Continuous
 62
     4
370
     9
100
AcDbLine
 10
967.0916621265051
 20
400.1174758336464
 30
0.0
 11
687.0920105060648
 21
400.1174758336464
 31
0.0
  0
LINE
  5
52
330
1F
100
AcDbEntity
  8
蓋
  6
Continuous
 62
     6
370
     9
100
AcDbLine
 10
860.4248293216716
 20
361.7842118227395
 30
0.0
 11
855.4248886286769
 21
361.7842118227395
 31
0.0
  0
LINE
  5
53
330
1F
100
AcDbEntity
  8
蓋
  6
Continuous
 62
     6
370
     9
100
AcDbLine
 10
860.4248293216716
 20
393.4507781388112
 30
0.0
 11
860.4248293216716
 21
361.7842118227395
 31
0.0
  0
LINE
  5
54
330
1F
100
AcDbEntity
  8
蓋
  6
Continuous
 62
     6
370
     9
100
AcDbLine
 10
855.4248886286769
 20
361.7842118227395
 30
0.0
 11
855.4248886286769
 21
393.4507781388112
 31
0.0
  0
LINE
  5
55
330
1F
100
AcDbEntity
  8
0-A
  6
Continuous
 62
     2
370
     9
100
AcDbLine
 10
863.7580130128265
 20
351.4507147863611
 30
0.0
 11
863.7580130128265
 21
360.1174548208991
 31
0.0
  0
LINE
  5
56
330
1F
100
AcDbEntity
  8
0-A
  6
Continuous
 62
     2
370
     9
100
AcDbLine
 10
903.758199181836
 20
351.4507147863611
 30
0.0
 11
903.758199181836
 21
360.1174548208991
 31
0.0
  0
LINE
  5
57
330
1F
100
AcDbEntity
  8
0-A
  6
Continuous
 62
     2
370
     9
100
AcDbLine
 10
885.3551671563673
 20
346.8924019394746
 30
0.0
 11
882.1613753508202
 21
346.8924019394746
 31
0.0
  0
LINE
  5
58
330
1F
100
AcDbEntity
  8
0-A
  6
Continuous
 62
     2
370
     9
100
AcDbLine
 10
882.1613753508202
 20
344.8223333444423
 30
0.0
 11
882.1613753508202
 21
346.8924019394746
 31
0.0
  0
LINE
  5
59
330
1F
100
AcDbEntity
  8
0-A
  6
Continuous
 62
     2
370
     9
100
AcDbLine
 10
885.3551671563673
 20
344.8223333444423
 30
0.0
 11
885.3551671563673
 21
346.8924019394746
 31
0.0
  0
LINE
  5
5A
330
1F
100
AcDbEntity
  8
0-A
  6
Continuous
 62
     2
370
     9
100
AcDbLine
 10
873.7582247113414
 20
366.7841525157343
 30
0.0
 11
893.7583177958461
 21
366.7841525157343
 31
0.0
  0
LINE
  5
5B
330
1F
100
AcDbEntity
  8
0-A
  6
Continuous
 62
     2
370
     9
100
AcDbLine
 10
890.8581738251456
 20
366.7841525157343
 30
0.0
 11
894.3647715919974
 21
360.5425670407504
 31
0.0
  0
LINE
  5
5C
330
1F
100
AcDbEntity
  8
0-A
  6
Continuous
 62
     2
370
     9
100
AcDbLine
 10
893.7583177958461
 20
366.7841525157343
 30
0.0
 11
892.2884270589878
 21
364.2385990407678
 31
0.0
  0
LINE
  5
5D
330
1F
100
AcDbEntity
  8
0-A
  6
Continuous
 62
     2
370
     9
100
AcDbLine
 10
863.7580130128265
 20
360.1174548208991
 30
0.0
 11
903.758199181836
 21
360.1174548208991
 31
0.0
  0
LINE
  5
5E
330
1F
100
AcDbEntity
  8
0-A
  6
Continuous
 62
     2
370
     9
100
AcDbLine
 10
876.6580383695168
 20
366.7841525157343
 30
0.0
 11
873.1514406026654
 21
360.5425670407504
 31
0.0
  0
LINE
  5
5F
330
1F
100
AcDbEntity
  8
0-A
  6
Continuous
 62
     2
370
     9
100
AcDbLine
 10
873.7582247113414
 20
366.7841525157343
 30
0.0
 11
875.2281154482
 21
364.2385990407678
 31
0.0
  0
LINE
  5
60
330
1F
100
AcDbEntity
  8
蓋
  6
JWW_CENTER1
 62
     6
370
     9
100
AcDbLine
 10
883.7584364098564
 20
341.403268396752
 30
0.0
 11
883.7584364098564
 21
400.1174758336464
 31
0.0
  0
LINE
  5
61
330
1F
100
AcDbEntity
  8
ｶﾊﾞｰ
  6
Continuous
 62
     4
370
     9
100
AcDbLine
 10
900.4250154906811
 20
400.1174758336464
 30
0.0
 11
900.4250154906811
 21
405.1174165266411
 31
0.0
  0
LINE
  5
62
330
1F
100
AcDbEntity
  8
蓋
  6
Continuous
 62
     6
370
     9
100
AcDbLine
 10
967.0916621265051
 20
395.1173699843889
 30
0.0
 11
967.0916621265051
 21
400.1174758336464
 31
0.0
  0
LINE
  5
63
330
1F
100
AcDbEntity
  8
受け
  6
Continuous
 62
     3
370
     9
100
AcDbLine
 10
953.7582667368351
 20
388.4506722895537
 30
0.0
 11
953.7582667368351
 21
395.1173699843889
 31
0.0
  0
LINE
  5
64
330
1F
100
AcDbEntity
  8
受け
  6
JWW_DASHED1
 62
     3
370
     9
100
AcDbLine
 10
953.7582667368351
 20
395.1173699843889
 30
0.0
 11
953.7582667368351
 21
400.1174758336464
 31
0.0
  0
LINE
  5
65
330
1F
100
AcDbEntity
  8
0-A
  6
Continuous
 62
     2
370
     9
100
AcDbLine
 10
933.7281152125431
 20
929.2843344625561
 30
0.0
 11
948.7589866688904
 21
929.2843344625561
 31
0.0
  0
LINE
  5
66
330
1F
100
AcDbEntity
  8
0-A
  6
Continuous
 62
     2
370
     9
100
AcDbLine
 10
933.7281152125431
 20
890.9509052953865
 30
0.0
 11
948.7589866688904
 21
890.9509052953865
 31
0.0
  0
LINE
  5
67
330
1F
100
AcDbEntity
  8
0-A
  6
Continuous
 62
     2
370
     9
100
AcDbLine
 10
933.7281152125431
 20
919.6616699802723
 30
0.0
 11
948.7589866688904
 21
919.6616699802723
 31
0.0
  0
LINE
  5
68
330
1F
100
AcDbEntity
  8
0-A
  6
Continuous
 62
     2
370
     9
100
AcDbLine
 10
933.7281152125431
 20
900.5734046214076
 30
0.0
 11
948.7589866688904
 21
900.5734046214076
 31
0.0
  0
LINE
  5
69
330
1F
100
AcDbEntity
  8
0-A
  6
Continuous
 62
     2
370
     9
100
AcDbLine
 10
932.0920772755409
 20
924.4730022214139
 30
0.0
 11
932.0920772755409
 21
895.7622375365287
 31
0.0
  0
LINE
  5
6A
330
1F
100
AcDbEntity
  8
0-A
  6
Continuous
 62
     2
370
     9
100
AcDbLine
 10
978.0923904636592
 20
920.1175012649611
 30
0.0
 11
978.0923904636592
 21
900.1175733367188
 31
0.0
  0
LINE
  5
6B
330
1F
100
AcDbEntity
  8
0-A
  6
Continuous
 62
     2
370
     9
100
AcDbLine
 10
980.4257181412252
 20
917.7841735873949
 30
0.0
 11
948.7589866688904
 21
917.7841735873949
 31
0.0
  0
LINE
  5
6C
330
1F
100
AcDbEntity
  8
0-A
  6
Continuous
 62
     2
370
     9
100
AcDbLine
 10
980.4257181412252
 20
902.450901014285
 30
0.0
 11
948.7589866688904
 21
902.450901014285
 31
0.0
  0
LINE
  5
6D
330
1F
100
AcDbEntity
  8
0-A
  6
Continuous
 62
     2
370
     9
100
AcDbLine
 10
978.0923904636592
 20
920.1175012649611
 30
0.0
 11
948.7589866688904
 21
920.1175012649611
 31
0.0
  0
LINE
  5
6E
330
1F
100
AcDbEntity
  8
0-A
  6
Continuous
 62
     2
370
     9
100
AcDbLine
 10
978.0923904636592
 20
920.1175012649611
 30
0.0
 11
980.4257181412252
 21
917.7841735873949
 31
0.0
  0
LINE
  5
6F
330
1F
100
AcDbEntity
  8
0-A
  6
Continuous
 62
     2
370
     9
100
AcDbLine
 10
980.4257181412252
 20
917.7841735873949
 30
0.0
 11
980.4257181412252
 21
902.450901014285
 31
0.0
  0
LINE
  5
70
330
1F
100
AcDbEntity
  8
0-A
  6
Continuous
 62
     2
370
     9
100
AcDbLine
 10
978.0923904636592
 20
900.1175733367188
 30
0.0
 11
980.4257181412252
 21
902.450901014285
 31
0.0
  0
LINE
  5
71
330
1F
100
AcDbEntity
  8
0-A
  6
Continuous
 62
     2
370
     9
100
AcDbLine
 10
978.0923904636592
 20
900.1175733367188
 30
0.0
 11
948.7589866688904
 21
900.1175733367188
 31
0.0
  0
LINE
  5
72
330
1F
100
AcDbEntity
  8
0-A
  6
Continuous
 62
     2
370
     9
100
AcDbLine
 10
480.4256206381521
 20
917.7841735873949
 30
0.0
 11
480.4256206381521
 21
902.450901014285
 31
0.0
  0
LINE
  5
73
330
1F
100
AcDbEntity
  8
0-A
  6
Continuous
 62
     2
370
     9
100
AcDbLine
 10
480.4256206381521
 20
917.7841735873949
 30
0.0
 11
482.7589483157179
 21
920.1175012649611
 31
0.0
  0
LINE
  5
74
330
1F
100
AcDbEntity
  8
0-A
  6
Continuous
 62
     2
370
     9
100
AcDbLine
 10
480.4256206381521
 20
902.450901014285
 30
0.0
 11
482.7589483157179
 21
900.1175733367188
 31
0.0
  0
LINE
  5
75
330
1F
100
AcDbEntity
  8
0-A
  6
Continuous
 62
     2
370
     9
100
AcDbLine
 10
482.7589483157179
 20
920.1175012649611
 30
0.0
 11
482.7589483157179
 21
900.1175733367188
 31
0.0
  0
LINE
  5
76
330
1F
100
AcDbEntity
  8
0-A
  6
Continuous
 62
     2
370
     9
100
AcDbLine
 10
650.3946192758976
 20
891.7839534837816
 30
0.0
 11
665.4251604197202
 21
891.7839534837816
 31
0.0
  0
LINE
  5
77
330
1F
100
AcDbEntity
  8
0-A
  6
Continuous
 62
     2
370
     9
100
AcDbLine
 10
650.3946192758976
 20
930.1173826509512
 30
0.0
 11
665.4251604197202
 21
930.1173826509512
 31
0.0
  0
LINE
  5
78
330
1F
100
AcDbEntity
  8
0-A
  6
Continuous
 62
     2
370
     9
100
AcDbLine
 10
650.3946192758976
 20
901.4066179660654
 30
0.0
 11
665.4251604197202
 21
901.4066179660654
 31
0.0
  0
LINE
  5
79
330
1F
100
AcDbEntity
  8
0-A
  6
Continuous
 62
     2
370
     9
100
AcDbLine
 10
650.3946192758976
 20
920.4950484811923
 30
0.0
 11
665.4251604197202
 21
920.4950484811923
 31
0.0
  0
LINE
  5
7A
330
1F
100
AcDbEntity
  8
0-A
  6
Continuous
 62
     2
370
     9
100
AcDbLine
 10
648.7582510263701
 20
896.5952857249232
 30
0.0
 11
648.7582510263701
 21
925.306050409809
 31
0.0
  0
LINE
  5
7B
330
1F
100
AcDbEntity
  8
0-A
  6
Continuous
 62
     2
370
     9
100
AcDbLine
 10
685.4559725690626
 20
930.1173826509512
 30
0.0
 11
670.42543142524
 21
930.1173826509512
 31
0.0
  0
LINE
  5
7C
330
1F
100
AcDbEntity
  8
0-A
  6
Continuous
 62
     2
370
     9
100
AcDbLine
 10
685.4559725690626
 20
891.7842837963065
 30
0.0
 11
670.42543142524
 21
891.7842837963065
 31
0.0
  0
LINE
  5
7D
330
1F
100
AcDbEntity
  8
0-A
  6
Continuous
 62
     2
370
     9
100
AcDbLine
 10
685.4559725690626
 20
920.4950484811923
 30
0.0
 11
670.42543142524
 21
920.4950484811923
 31
0.0
  0
LINE
  5
7E
330
1F
100
AcDbEntity
  8
0-A
  6
Continuous
 62
     2
370
     9
100
AcDbLine
 10
685.4559725690626
 20
901.4066179660654
 30
0.0
 11
670.42543142524
 21
901.4066179660654
 31
0.0
  0
LINE
  5
7F
330
1F
100
AcDbEntity
  8
0-A
  6
Continuous
 62
     2
370
     9
100
AcDbLine
 10
687.0916801935397
 20
925.3063807223344
 30
0.0
 11
687.0916801935397
 21
896.5952857249232
 31
0.0
  0
LINE
  5
80
330
1F
100
AcDbEntity
  8
0-A
  6
Continuous
 62
     2
370
     9
100
AcDbLine
 10
670.42543142524
 20
903.2841143589422
 30
0.0
 11
665.4251604197202
 21
903.2841143589422
 31
0.0
  0
LINE
  5
81
330
1F
100
AcDbEntity
  8
0-A
  6
Continuous
 62
     2
370
     9
100
AcDbLine
 10
670.42543142524
 20
900.9507866813766
 30
0.0
 11
665.4251604197202
 21
900.9507866813766
 31
0.0
  0
LINE
  5
82
330
1F
100
AcDbEntity
  8
0-A
  6
Continuous
 62
     2
370
     9
100
AcDbLine
 10
670.42543142524
 20
918.6175520883154
 30
0.0
 11
665.4251604197202
 21
918.6175520883154
 31
0.0
  0
LINE
  5
83
330
1F
100
AcDbEntity
  8
0-A
  6
Continuous
 62
     2
370
     9
100
AcDbLine
 10
670.42543142524
 20
920.950879765881
 30
0.0
 11
665.4251604197202
 21
920.950879765881
 31
0.0
  0
LINE
  5
84
330
1F
100
AcDbEntity
  8
0-A
  6
Continuous
 62
     2
370
     9
100
AcDbLine
 10
932.0920772755409
 20
920.1175012649611
 30
0.0
 11
687.0916801935397
 21
920.1175012649611
 31
0.0
  0
LINE
  5
85
330
1F
100
AcDbEntity
  8
0-A
  6
Continuous
 62
     2
370
     9
100
AcDbLine
 10
932.0920772755409
 20
917.7841735873949
 30
0.0
 11
687.0916801935397
 21
917.7841735873949
 31
0.0
  0
LINE
  5
86
330
1F
100
AcDbEntity
  8
ｶﾊﾞｰ
  6
Continuous
 62
     4
370
     9
100
AcDbLine
 10
947.0922296670506
 20
881.7840720977915
 30
0.0
 11
947.0922296670506
 21
886.784177947049
 31
0.0
  0
LINE
  5
87
330
1F
100
AcDbEntity
  8
ｶﾊﾞｰ
  6
Continuous
 62
     4
370
     9
100
AcDbLine
 10
948.7589866688904
 20
886.784177947049
 30
0.0
 11
687.09234081859
 21
886.784177947049
 31
0.0
  0
LINE
  5
88
330
1F
100
AcDbEntity
  8
ｶﾊﾞｰ
  6
Continuous
 62
     4
370
     9
100
AcDbLine
 10
870.4257016452368
 20
875.1175395592196
 30
0.0
 11
653.7588523444153
 21
875.1175395592196
 31
0.0
  0
LINE
  5
89
330
1F
100
AcDbEntity
  8
0-A
  6
Continuous
 62
     2
370
     9
100
AcDbLine
 10
648.7582510263701
 20
900.1175733367188
 30
0.0
 11
482.7589483157179
 21
900.1175733367188
 31
0.0
  0
LINE
  5
8A
330
1F
100
AcDbEntity
  8
0-A
  6
Continuous
 62
     2
370
     9
100
AcDbLine
 10
648.7582510263701
 20
902.450901014285
 30
0.0
 11
480.4256206381521
 21
902.450901014285
 31
0.0
  0
LINE
  5
8B
330
1F
100
AcDbEntity
  8
0-A
  6
Continuous
 62
     2
370
     9
100
AcDbLine
 10
648.7582510263701
 20
917.7841735873949
 30
0.0
 11
480.4256206381521
 21
917.7841735873949
 31
0.0
  0
LINE
  5
8C
330
1F
100
AcDbEntity
  8
0-A
  6
Continuous
 62
     2
370
     9
100
AcDbLine
 10
648.7582510263701
 20
920.1175012649611
 30
0.0
 11
482.7589483157179
 21
920.1175012649611
 31
0.0
  0
LINE
  5
8D
330
1F
100
AcDbEntity
  8
0-A
  6
JWW_CENTER1
 62
     2
370
     9
100
AcDbLine
 10
987.7936693269254
 20
910.1176198789716
 30
0.0
 11
474.2263151663857
 21
910.1176198789716
 31
0.0
  0
LINE
  5
8E
330
1F
100
AcDbEntity
  8
0-A
  6
Continuous
 62
     2
370
     9
100
AcDbLine
 10
932.0920772755409
 20
902.450901014285
 30
0.0
 11
687.0916801935397
 21
902.450901014285
 31
0.0
  0
LINE
  5
8F
330
1F
100
AcDbEntity
  8
0-A
  6
Continuous
 62
     2
370
     9
100
AcDbLine
 10
932.0920772755409
 20
900.1175733367188
 30
0.0
 11
687.0916801935397
 21
900.1175733367188
 31
0.0
  0
LINE
  5
90
330
1F
100
AcDbEntity
  8
蓋
  6
Continuous
 62
     6
370
     9
100
AcDbLine
 10
862.0915863235118
 20
395.1173699843889
 30
0.0
 11
967.0916621265051
 21
395.1173699843889
 31
0.0
  0
LINE
  5
91
330
1F
100
AcDbEntity
  8
0-A
  6
Continuous
 62
     2
370
     9
100
AcDbLine
 10
898.1138187522993
 20
378.4504605910388
 30
0.0
 11
869.4030540674134
 21
378.4504605910388
 31
0.0
  0
LINE
  5
92
330
1F
100
AcDbEntity
  8
0-A
  6
Continuous
 62
     2
370
     9
100
AcDbLine
 10
893.3024865111574
 20
380.0868288405661
 30
0.0
 11
893.3024865111574
 21
395.1173699843889
 31
0.0
  0
LINE
  5
93
330
1F
100
AcDbEntity
  8
0-A
  6
Continuous
 62
     2
370
     9
100
AcDbLine
 10
902.9251509934411
 20
380.0868288405661
 30
0.0
 11
902.9251509934411
 21
395.1173699843889
 31
0.0
  0
LINE
  5
94
330
1F
100
AcDbEntity
  8
0-A
  6
Continuous
 62
     2
370
     9
100
AcDbLine
 10
874.2142211522929
 20
380.0868288405661
 30
0.0
 11
874.2142211522929
 21
395.1173699843889
 31
0.0
  0
LINE
  5
95
330
1F
100
AcDbEntity
  8
0-A
  6
Continuous
 62
     2
370
     9
100
AcDbLine
 10
864.5917218262719
 20
380.0868288405661
 30
0.0
 11
864.5917218262719
 21
395.1173699843889
 31
0.0
  0
LINE
  5
96
330
1F
100
AcDbEntity
  8
蓋
  6
Continuous
 62
     6
370
     9
100
AcDbLine
 10
872.0917980220268
 20
395.1173699843889
 30
0.0
 11
872.0917980220268
 21
400.1174758336464
 31
0.0
  0
LINE
  5
97
330
1F
100
AcDbEntity
  8
蓋
  6
Continuous
 62
     6
370
     9
100
AcDbLine
 10
895.4250747976863
 20
395.1173699843889
 30
0.0
 11
895.4250747976863
 21
400.1174758336464
 31
0.0
  0
LINE
  5
98
330
1F
100
AcDbEntity
  8
0-A
  6
Continuous
 62
     2
370
     9
100
AcDbLine
 10
873.7582247113414
 20
366.7841525157343
 30
0.0
 11
873.7582247113414
 21
378.4504605910388
 31
0.0
  0
LINE
  5
99
330
1F
100
AcDbEntity
  8
0-A
  6
Continuous
 62
     2
370
     9
100
AcDbLine
 10
873.7582247113414
 20
395.1173699843889
 30
0.0
 11
873.7582247113414
 21
400.1174758336464
 31
0.0
  0
LINE
  5
9A
330
1F
100
AcDbEntity
  8
0-A
  6
Continuous
 62
     2
370
     9
100
AcDbLine
 10
876.6580383695168
 20
366.7841525157343
 30
0.0
 11
876.6580383695168
 21
378.4504605910388
 31
0.0
  0
LINE
  5
9B
330
1F
100
AcDbEntity
  8
0-A
  6
Continuous
 62
     2
370
     9
100
AcDbLine
 10
876.6580383695168
 20
395.1173699843889
 30
0.0
 11
876.6580383695168
 21
400.1174758336464
 31
0.0
  0
LINE
  5
9C
330
1F
100
AcDbEntity
  8
0-A
  6
Continuous
 62
     2
370
     9
100
AcDbLine
 10
890.8581738251456
 20
366.7841525157343
 30
0.0
 11
890.8581738251456
 21
378.4504605910388
 31
0.0
  0
LINE
  5
9D
330
1F
100
AcDbEntity
  8
0-A
  6
Continuous
 62
     2
370
     9
100
AcDbLine
 10
890.8581738251456
 20
395.1173699843889
 30
0.0
 11
890.8581738251456
 21
400.1174758336464
 31
0.0
  0
LINE
  5
9E
330
1F
100
AcDbEntity
  8
0-A
  6
Continuous
 62
     2
370
     9
100
AcDbLine
 10
893.7583177958461
 20
366.7841525157343
 30
0.0
 11
893.7583177958461
 21
378.4504605910388
 31
0.0
  0
LINE
  5
9F
330
1F
100
AcDbEntity
  8
0-A
  6
Continuous
 62
     2
370
     9
100
AcDbLine
 10
893.7583177958461
 20
395.1173699843889
 30
0.0
 11
893.7583177958461
 21
400.1174758336464
 31
0.0
  0
LINE
  5
A0
330
1F
100
AcDbEntity
  8
受け
  6
Continuous
 62
     3
370
     9
100
AcDbLine
 10
864.5917218262719
 20
388.4506722895537
 30
0.0
 11
860.4248293216716
 21
388.4506722895537
 31
0.0
  0
LINE
  5
A1
330
1F
100
AcDbEntity
  8
受け
  6
Continuous
 62
     3
370
     9
100
AcDbLine
 10
864.5917218262719
 20
393.4507781388112
 30
0.0
 11
860.4248293216716
 21
393.4507781388112
 31
0.0
  0
LINE
  5
A2
330
1F
100
AcDbEntity
  8
受け
  6
Continuous
 62
     3
370
     9
100
AcDbLine
 10
953.7582667368351
 20
388.4506722895537
 30
0.0
 11
902.9251509934411
 21
388.4506722895537
 31
0.0
  0
LINE
  5
A3
330
1F
100
AcDbEntity
  8
受け
  6
Continuous
 62
     3
370
     9
100
AcDbLine
 10
953.7582667368351
 20
393.4507781388112
 30
0.0
 11
902.9251509934411
 21
393.4507781388112
 31
0.0
  0
LINE
  5
A4
330
1F
100
AcDbEntity
  8
ｶﾊﾞｰ
  6
Continuous
 62
     4
370
     9
100
AcDbLine
 10
870.4257016452368
 20
880.1174802522144
 30
0.0
 11
653.7588523444153
 21
880.1174802522144
 31
0.0
  0
LINE
  5
A5
330
1F
100
AcDbEntity
  8
ｶﾊﾞｰ
  6
Continuous
 62
     4
370
     9
100
AcDbLine
 10
687.09234081859
 20
886.784177947049
 30
0.0
 11
687.09234081859
 21
880.1174802522144
 31
0.0
  0
LINE
  5
A6
330
1F
100
AcDbEntity
  8
ｶﾊﾞｰ
  6
Continuous
 62
     4
370
     9
100
AcDbLine
 10
967.0916621265051
 20
405.1174165266411
 30
0.0
 11
687.0920105060648
 21
405.1174165266411
 31
0.0
  0
LINE
  5
A7
330
1F
100
AcDbEntity
  8
ｶﾊﾞｰ
  6
Continuous
 62
     4
370
     9
100
AcDbLine
 10
663.7587337304052
 20
885.1175861014718
 30
0.0
 11
653.7588523444153
 21
885.1175861014718
 31
0.0
  0
LINE
  5
A8
330
1F
100
AcDbEntity
  8
ｶﾊﾞｰ
  6
Continuous
 62
     4
370
     9
100
AcDbLine
 10
870.4253713327116
 20
406.784173528481
 30
0.0
 11
653.7585220318903
 21
406.784173528481
 31
0.0
  0
LINE
  5
A9
330
1F
100
AcDbEntity
  8
ｶﾊﾞｰ
  6
Continuous
 62
     4
370
     9
100
AcDbLine
 10
687.0920105060648
 20
400.1174758336464
 30
0.0
 11
687.0920105060648
 21
406.784173528481
 31
0.0
  0
LINE
  5
AA
330
1F
100
AcDbEntity
  8
ｶﾊﾞｰ
  6
Continuous
 62
     4
370
     9
100
AcDbLine
 10
665.4254907322451
 20
931.7843048090538
 30
0.0
 11
665.4254907322451
 21
885.9509646023918
 31
0.0
  0
LINE
  5
AB
330
1F
100
AcDbEntity
  8
ｶﾊﾞｰ
  6
Continuous
 62
     4
370
     9
100
AcDbLine
 10
665.4254907322451
 20
931.7843048090538
 30
0.0
 11
670.4257617377652
 21
931.7843048090538
 31
0.0
  0
LINE
  5
AC
330
1F
100
AcDbEntity
  8
ｶﾊﾞｰ
  6
Continuous
 62
     4
370
     9
100
AcDbLine
 10
670.4257617377652
 20
885.9509646023918
 30
0.0
 11
670.4257617377652
 21
931.7843048090538
 31
0.0
  0
LINE
  5
AD
330
1F
100
AcDbEntity
  8
ｶﾊﾞｰ
  6
Continuous
 62
     4
370
     9
100
AcDbLine
 10
920.4254388877109
 20
875.7971575796881
 30
0.0
 11
920.4254388877109
 21
880.7970982726835
 31
0.0
  0
LINE
  5
AE
330
1F
100
AcDbEntity
  8
ｶﾊﾞｰ
  6
Continuous
 62
     4
370
     9
100
AcDbLine
 10
920.4254388877109
 20
875.7971575796881
 30
0.0
 11
947.0922296670506
 21
875.7971575796881
 31
0.0
  0
LINE
  5
AF
330
1F
100
AcDbEntity
  8
ｶﾊﾞｰ
  6
Continuous
 62
     4
370
     9
100
AcDbLine
 10
920.4254388877109
 20
880.7970982726835
 30
0.0
 11
947.0922296670506
 21
880.7970982726835
 31
0.0
  0
LINE
  5
B0
330
1F
100
AcDbEntity
  8
ｶﾊﾞｰ
  6
Continuous
 62
     4
370
     9
100
AcDbLine
 10
948.6139794703556
 20
881.7840720977915
 30
0.0
 11
687.09234081859
 21
881.7840720977915
 31
0.0
  0
LINE
  5
B1
330
1F
100
AcDbEntity
  8
ｶﾊﾞｰ
  6
Continuous
 62
     4
370
     9
100
AcDbLine
 10
670.4257617377652
 20
923.4510152686414
 30
0.0
 11
665.4254907322451
 21
923.4510152686414
 31
0.0
  0
LINE
  5
B2
330
1F
100
AcDbEntity
  8
ｶﾊﾞｰ
  6
Continuous
 62
     4
370
     9
100
AcDbLine
 10
670.4257617377652
 20
896.7842244893018
 30
0.0
 11
665.4254907322451
 21
896.7842244893018
 31
0.0
  0
LINE
  5
B3
330
1F
100
AcDbEntity
  8
ｶﾊﾞｰ
  6
Continuous
 62
     4
370
     9
100
AcDbLine
 10
948.7589866688904
 20
882.4638552745233
 30
0.0
 11
948.7589866688904
 21
930.7971658276824
 31
0.0
  0
LINE
  5
B4
330
1F
100
AcDbEntity
  8
ｶﾊﾞｰ
  6
Continuous
 62
     4
370
     9
100
AcDbLine
 10
948.7589866688904
 20
930.7971658276824
 30
0.0
 11
953.7589273618855
 21
930.7971658276824
 31
0.0
  0
LINE
  5
B5
330
1F
100
AcDbEntity
  8
ｶﾊﾞｰ
  6
Continuous
 62
     4
370
     9
100
AcDbLine
 10
948.7589866688904
 20
922.4638762872701
 30
0.0
 11
953.7589273618855
 21
922.4638762872701
 31
0.0
  0
LINE
  5
B6
330
1F
100
AcDbEntity
  8
ｶﾊﾞｰ
  6
Continuous
 62
     4
370
     9
100
AcDbLine
 10
948.7589866688904
 20
895.7970855079304
 30
0.0
 11
953.7589273618855
 21
895.7970855079304
 31
0.0
  0
ARC
  5
B7
330
1F
100
AcDbEntity
  8
蓋
  6
Continuous
 62
     6
370
     9
100
AcDbCircle
 10
862.0915863235118
 20
393.4507781388112
 30
0.0
 40
1.666666682008917
100
AcDbArc
 50
90.0
 51
180.0
  0
ARC
  5
B8
330
1F
100
AcDbEntity
  8
蓋
  6
Continuous
 62
     6
370
     9
100
AcDbCircle
 10
862.0915863235118
 20
393.4507781388112
 30
0.0
 40
6.666666728035669
100
AcDbArc
 50
90.0
 51
180.0
  0
ARC
  5
B9
330
1F
100
AcDbEntity
  8
0-A
  6
Continuous
 62
     2
370
     9
100
AcDbCircle
 10
883.7584364098564
 20
378.1175055657008
 30
0.0
 40
33.33333364017835
100
AcDbArc
 50
233.130126953125
 51
267.2543029785156
  0
ARC
  5
BA
330
1F
100
AcDbEntity
  8
0-A
  6
Continuous
 62
     2
370
     9
100
AcDbCircle
 10
883.7584364098564
 20
378.1175055657008
 30
0.0
 40
33.33333364017835
100
AcDbArc
 50
272.7459106445312
 51
306.869873046875
  0
ARC
  5
BB
330
1F
100
AcDbEntity
  8
0-A
  6
Continuous
 62
     2
370
     9
100
AcDbCircle
 10
895.091459147298
 20
360.950833321819
 30
0.0
 40
0.8333333410044587
100
AcDbArc
 50
209.3291778564453
 51
270.0
  0
ARC
  5
BC
330
1F
100
AcDbEntity
  8
0-A
  6
Continuous
 62
     2
370
     9
100
AcDbCircle
 10
872.4247530473644
 20
360.950833321819
 30
0.0
 40
0.8333333410044587
100
AcDbArc
 50
270.0
 51
330.6708221435547
  0
ARC
  5
BD
330
1F
100
AcDbEntity
  8
0-A
  6
Continuous
 62
     2
370
     9
100
AcDbCircle
 10
939.9852253762083
 20
924.4730022214139
 30
0.0
 40
7.893096489335579
100
AcDbArc
 50
142.4427795410156
 51
217.5572204589844
  0
ARC
  5
BE
330
1F
100
AcDbEntity
  8
0-A
  6
Continuous
 62
     2
370
     9
100
AcDbCircle
 10
960.7519738315555
 20
910.1176198789716
 30
0.0
 40
28.65972881918554
100
AcDbArc
 50
160.5480041503906
 51
199.4519958496094
  0
ARC
  5
BF
330
1F
100
AcDbEntity
  8
0-A
  6
Continuous
 62
     2
370
     9
100
AcDbCircle
 10
939.9852253762083
 20
895.7622375365287
 30
0.0
 40
7.893096489335579
100
AcDbArc
 50
142.4427795410156
 51
217.5572204589844
  0
ARC
  5
C0
330
1F
100
AcDbEntity
  8
0-A
  6
Continuous
 62
     2
370
     9
100
AcDbCircle
 10
656.6513991270378
 20
896.5952857249232
 30
0.0
 40
7.893096489335579
100
AcDbArc
 50
142.4427795410156
 51
217.5572204589844
  0
ARC
  5
C1
330
1F
100
AcDbEntity
  8
0-A
  6
Continuous
 62
     2
370
     9
100
AcDbCircle
 10
677.4181475823849
 20
910.9506680673661
 30
0.0
 40
28.65972881918554
100
AcDbArc
 50
160.5480041503906
 51
199.4519958496094
  0
ARC
  5
C2
330
1F
100
AcDbEntity
  8
0-A
  6
Continuous
 62
     2
370
     9
100
AcDbCircle
 10
656.6513991270378
 20
925.306050409809
 30
0.0
 40
7.893096489335579
100
AcDbArc
 50
142.4427795410156
 51
217.5572204589844
  0
ARC
  5
C3
330
1F
100
AcDbEntity
  8
0-A
  6
Continuous
 62
     2
370
     9
100
AcDbCircle
 10
679.1988624053971
 20
925.3063807223344
 30
0.0
 40
7.893096489335579
100
AcDbArc
 50
322.4427795410156
 51
37.55722045898439
  0
ARC
  5
C4
330
1F
100
AcDbEntity
  8
0-A
  6
Continuous
 62
     2
370
     9
100
AcDbCircle
 10
658.4324442625751
 20
910.9509983798915
 30
0.0
 40
28.65972881918554
100
AcDbArc
 50
340.5480041503906
 51
19.45199584960935
  0
ARC
  5
C5
330
1F
100
AcDbEntity
  8
0-A
  6
Continuous
 62
     2
370
     9
100
AcDbCircle
 10
679.1988624053971
 20
896.5952857249232
 30
0.0
 40
7.893096489335579
100
AcDbArc
 50
322.4427795410156
 51
37.55722045898439
  0
ARC
  5
C6
330
1F
100
AcDbEntity
  8
ｶﾊﾞｰ
  6
Continuous
 62
     4
370
     9
100
AcDbCircle
 10
947.0922296670506
 20
882.4638552745233
 30
0.0
 40
1.666666682008917
100
AcDbArc
 50
270.0
 51
0.0
  0
ARC
  5
C7
330
1F
100
AcDbEntity
  8
ｶﾊﾞｰ
  6
Continuous
 62
     4
370
     9
100
AcDbCircle
 10
947.0922296670506
 20
882.4638552745233
 30
0.0
 40
6.666666728035669
100
AcDbArc
 50
270.0
 51
0.0
  0
ARC
  5
C8
330
1F
100
AcDbEntity
  8
ｶﾊﾞｰ
  6
Continuous
 62
     4
370
     9
100
AcDbCircle
 10
663.7587337304052
 20
886.7843431033117
 30
0.0
 40
1.666666682008917
100
AcDbArc
 50
270.0
 51
0.0
  0
ARC
  5
C9
330
1F
100
AcDbEntity
  8
ｶﾊﾞｰ
  6
Continuous
 62
     4
370
     9
100
AcDbCircle
 10
663.7587337304052
 20
886.7843431033117
 30
0.0
 40
6.666666728035669
100
AcDbArc
 50
270.0
 51
0.0
  0
ARC
  5
CA
330
1F
100
AcDbEntity
  8
0-A
  6
Continuous
 62
     2
370
     9
100
AcDbCircle
 10
898.1138187522993
 20
386.3436086917062
 30
0.0
 40
7.893096489335579
100
AcDbArc
 50
232.4427795410156
 51
307.5572204589844
  0
ARC
  5
CB
330
1F
100
AcDbEntity
  8
0-A
  6
Continuous
 62
     2
370
     9
100
AcDbCircle
 10
883.7584364098564
 20
407.1103571470536
 30
0.0
 40
28.65972881918554
100
AcDbArc
 50
250.5480041503907
 51
289.4519958496094
  0
ARC
  5
CC
330
1F
100
AcDbEntity
  8
0-A
  6
Continuous
 62
     2
370
     9
100
AcDbCircle
 10
869.4030540674134
 20
386.3436086917062
 30
0.0
 40
7.893096489335579
100
AcDbArc
 50
232.4427795410156
 51
307.5572204589844
  0
LINE
  5
CD
330
1F
100
AcDbEntity
  8
蓋
  6
Continuous
 62
     7
370
     9
100
AcDbLine
 10
461.5471587274255
 20
406.784173528481
 30
0.0
 11
461.5471587274255
 21
880.1174802522144
 31
0.0
  0
LINE
  5
CE
330
1F
100
AcDbEntity
  8
蓋
  6
Continuous
 62
     7
370
     9
100
AcDbLine
 10
461.5471587274255
 20
406.784173528481
 30
0.0
 11
457.6313729608239
 21
436.5275193696954
 31
0.0
  0
LINE
  5
CF
330
1F
100
AcDbEntity
  8
蓋
  6
Continuous
 62
     7
370
     9
100
AcDbLine
 10
461.5471587274255
 20
406.784173528481
 30
0.0
 11
465.4629444940271
 21
436.5275193696954
 31
0.0
  0
LINE
  5
D0
330
1F
100
AcDbEntity
  8
蓋
  6
Continuous
 62
     7
370
     9
100
AcDbLine
 10
461.5471587274255
 20
880.1174802522144
 30
0.0
 11
457.631372960824
 21
850.374134411
 31
0.0
  0
LINE
  5
D1
330
1F
100
AcDbEntity
  8
蓋
  6
Continuous
 62
     7
370
     9
100
AcDbLine
 10
461.5471587274255
 20
880.1174802522144
 30
0.0
 11
465.4629444940271
 21
850.374134411
 31
0.0
  0
LINE
  5
D2
330
1F
100
AcDbEntity
  8
蓋
  6
Continuous
 62
     7
370
     9
100
AcDbLine
 10
390.270206275861
 20
400.1174758336464
 30
0.0
 11
390.2702062758611
 21
886.784177947049
 31
0.0
  0
LINE
  5
D3
330
1F
100
AcDbEntity
  8
蓋
  6
Continuous
 62
     7
370
     9
100
AcDbLine
 10
390.270206275861
 20
400.1174758336464
 30
0.0
 11
386.3544205092595
 21
429.8608216748607
 31
0.0
  0
LINE
  5
D4
330
1F
100
AcDbEntity
  8
蓋
  6
Continuous
 62
     7
370
     9
100
AcDbLine
 10
390.270206275861
 20
400.1174758336464
 30
0.0
 11
394.1859920424627
 21
429.8608216748607
 31
0.0
  0
LINE
  5
D5
330
1F
100
AcDbEntity
  8
蓋
  6
Continuous
 62
     7
370
     9
100
AcDbLine
 10
390.2702062758611
 20
886.784177947049
 30
0.0
 11
386.3544205092595
 21
857.0408321058346
 31
0.0
  0
LINE
  5
D6
330
1F
100
AcDbEntity
  8
蓋
  6
Continuous
 62
     7
370
     9
100
AcDbLine
 10
390.2702062758611
 20
886.784177947049
 30
0.0
 11
394.1859920424627
 21
857.0408321058346
 31
0.0
  0
TEXT
  5
D7
330
1F
100
AcDbEntity
  8
蓋
  6
Continuous
 62
     2
370
   211
100
AcDbText
 10
379.6302062758612
 20
588.4508268903477
 30
0.0
 40
30.48
  1
φ146
 50
90.0
 41
1.1
  7
ＭＳ ゴシック
100
AcDbText
  0
TEXT
  5
D8
330
1F
100
AcDbEntity
  8
蓋
  6
Continuous
 62
     2
370
   211
100
AcDbText
 10
450.9071587274256
 20
588.4508268903477
 30
0.0
 40
30.48
  1
φ142
 50
90.0
 41
1.1
  7
ＭＳ ゴシック
100
AcDbText
  0
LINE
  5
D9
330
1F
100
AcDbEntity
  8
蓋
  6
Continuous
 62
     7
370
     9
100
AcDbLine
 10
458.5471587274254
 20
406.784173528481
 30
0.0
 11
637.2428632151604
 21
406.784173528481
 31
0.0
  0
LINE
  5
DA
330
1F
100
AcDbEntity
  8
蓋
  6
Continuous
 62
     7
370
     9
100
AcDbLine
 10
458.5471587274255
 20
880.1174802522144
 30
0.0
 11
637.2428632151604
 21
880.1174802522144
 31
0.0
  0
LINE
  5
DB
330
1F
100
AcDbEntity
  8
蓋
  6
Continuous
 62
     7
370
     9
100
AcDbLine
 10
387.2702062758611
 20
400.1174758336464
 30
0.0
 11
637.2428632151604
 21
400.1174758336464
 31
0.0
  0
LINE
  5
DC
330
1F
100
AcDbEntity
  8
蓋
  6
Continuous
 62
     7
370
     9
100
AcDbLine
 10
387.2702062758611
 20
886.784177947049
 30
0.0
 11
637.2428632151604
 21
886.784177947049
 31
0.0
  0
LINE
  5
DD
330
1F
100
AcDbEntity
  8
0-5
  6
Continuous
 62
     7
370
     9
100
AcDbLine
 10
86.95427175674621
 20
334.4700186202994
 30
0.0
 11
464.7246236734736
 21
334.4700186202994
 31
0.0
  0
LINE
  5
DE
330
1F
100
AcDbEntity
  8
0-5
  6
Continuous
 62
     7
370
     9
100
AcDbLine
 10
86.17964873048535
 20
236.1356792392706
 30
0.0
 11
478.4159637555014
 21
236.1356792392706
 31
0.0
  0
TEXT
  5
DF
330
1F
100
AcDbEntity
  8
0-5
  6
Continuous
 62
     7
370
     9
100
AcDbText
 10
177.4108820756217
 20
201.5782538127871
 30
0.0
 40
22.86
  1
ｔ＝１．５
 41
1.133333333333334
  7
ＭＳ ゴシック
100
AcDbText
  0
TEXT
  5
E0
330
1F
100
AcDbEntity
  8
0-5
  6
Continuous
 62
     7
370
     9
100
AcDbText
 10
92.92987699727938
 20
244.9162138426896
 30
0.0
 40
22.86
  1
外カバ－：SUS304　２Ｂ
 41
1.151515151515152
  7
ＭＳ ゴシック
100
AcDbText
  0
TEXT
  5
E1
330
1F
100
AcDbEntity
  8
0-5
  6
Continuous
 62
     7
370
     9
100
AcDbText
 10
172.0660256659069
 20
301.4981422866964
 30
0.0
 40
22.86
  1
ｔ＝１．５
 41
1.133333333333334
  7
ＭＳ ゴシック
100
AcDbText
  0
TEXT
  5
E2
330
1F
100
AcDbEntity
  8
0-5
  6
Continuous
 62
     7
370
     9
100
AcDbText
 10
91.65209833404361
 20
345.5415164272409
 30
0.0
 40
22.86
  1
内カバ－：SUS304　２Ｂ
 41
1.151515151515152
  7
ＭＳ ゴシック
100
AcDbText
  0
LINE
  5
E3
330
1F
100
AcDbEntity
  8
ｶﾊﾞｰ
  6
JWW_DASHED1
 62
     4
370
     9
100
AcDbLine
 10
687.0920105060648
 20
406.784173528481
 30
0.0
 11
687.0920105060648
 21
643.4507030231509
 31
0.0
  0
LINE
  5
E4
330
1F
100
AcDbEntity
  8
ｶﾊﾞｰ
  6
JWW_DASHED1
 62
     4
370
     9
100
AcDbLine
 10
687.09234081859
 20
879.2841017512944
 30
0.0
 11
687.09234081859
 21
643.4507030231509
 31
0.0
  0
LINE
  5
E5
330
1F
100
AcDbEntity
  8
ｶﾊﾞｰ
  6
Continuous
 62
     4
370
     9
100
AcDbLine
 10
653.7588523444153
 20
885.1175861014718
 30
0.0
 11
653.7588523444153
 21
643.4507030231509
 31
0.0
  0
LINE
  5
E6
330
1F
100
AcDbEntity
  8
ｶﾊﾞｰ
  6
Continuous
 62
     4
370
     9
100
AcDbLine
 10
653.7585220318903
 20
406.784173528481
 30
0.0
 11
653.7585220318903
 21
643.4507030231509
 31
0.0
  0
LINE
  5
E7
330
1F
100
AcDbEntity
  8
ｶﾊﾞｰ
  6
Continuous
 62
     4
370
     9
100
AcDbLine
 10
870.4257016452368
 20
879.2841017512944
 30
0.0
 11
870.4257016452368
 21
643.4507030231509
 31
0.0
  0
LINE
  5
E8
330
1F
100
AcDbEntity
  8
ｶﾊﾞｰ
  6
Continuous
 62
     4
370
     9
100
AcDbLine
 10
870.4253713327116
 20
407.6174694512696
 30
0.0
 11
870.4253713327116
 21
643.4507030231509
 31
0.0
  0
LINE
  5
E9
330
1F
100
AcDbEntity
  8
ｶﾊﾞｰ
  6
Continuous
 62
     4
370
     9
100
AcDbLine
 10
953.7588963950861
 20
882.4638552745233
 30
0.0
 11
953.7588963950861
 21
900.1175733367188
 31
0.0
  0
LINE
  5
EA
330
1F
100
AcDbEntity
  8
ｶﾊﾞｰ
  6
Continuous
 62
     4
370
     9
100
AcDbLine
 10
953.7588963950861
 20
920.1175012649611
 30
0.0
 11
953.7588963950861
 21
930.7971658276824
 31
0.0
  0
LINE
  5
EB
330
1F
100
AcDbEntity
  8
ｶﾊﾞｰ
  6
Continuous
 62
     4
370
     9
100
AcDbLine
 10
967.0919924390302
 20
881.7840720977915
 30
0.0
 11
953.7241479487642
 21
881.7840720977915
 31
0.0
  0
LINE
  5
EC
330
1F
100
AcDbEntity
  8
ｶﾊﾞｰ
  6
Continuous
 62
     4
370
     9
100
AcDbLine
 10
967.0919924390302
 20
886.784177947049
 30
0.0
 11
953.7588963950861
 21
886.784177947049
 31
0.0
  0
LINE
  5
ED
330
1F
100
AcDbEntity
  8
ｶﾊﾞｰ
  6
Continuous
 62
     4
370
     9
100
AcDbLine
 10
900.4250154906811
 20
802.4859441882137
 30
0.0
 11
900.4250154906811
 21
717.6630180932218
 31
0.0
  0
LINE
  5
EE
330
1F
100
AcDbEntity
  8
0-A
  6
Continuous
 62
     2
370
     9
100
AcDbLine
 10
480.4256206381521
 20
517.7839634599263
 30
0.0
 11
480.4256206381521
 21
502.4506908868165
 31
0.0
  0
LINE
  5
EF
330
1F
100
AcDbEntity
  8
0-A
  6
Continuous
 62
     2
370
     9
100
AcDbLine
 10
480.4256206381521
 20
517.7839634599263
 30
0.0
 11
482.7589483157179
 21
520.1172911374925
 31
0.0
  0
LINE
  5
F0
330
1F
100
AcDbEntity
  8
0-A
  6
Continuous
 62
     2
370
     9
100
AcDbLine
 10
480.4256206381521
 20
502.4506908868165
 30
0.0
 11
482.7589483157179
 21
500.1173632092502
 31
0.0
  0
LINE
  5
F1
330
1F
100
AcDbEntity
  8
0-A
  6
Continuous
 62
     2
370
     9
100
AcDbLine
 10
482.7589483157179
 20
520.1172911374925
 30
0.0
 11
482.7589483157179
 21
500.1173632092502
 31
0.0
  0
LINE
  5
F2
330
1F
100
AcDbEntity
  8
0-A
  6
Continuous
 62
     2
370
     9
100
AcDbLine
 10
648.7582510263701
 20
496.5950755974546
 30
0.0
 11
648.7582510263701
 21
525.3058402823405
 31
0.0
  0
LINE
  5
F3
330
1F
100
AcDbEntity
  8
0-A
  6
Continuous
 62
     2
370
     9
100
AcDbLine
 10
648.7582510263701
 20
500.1173632092502
 30
0.0
 11
482.7589483157179
 21
500.1173632092502
 31
0.0
  0
LINE
  5
F4
330
1F
100
AcDbEntity
  8
0-A
  6
Continuous
 62
     2
370
     9
100
AcDbLine
 10
648.7582510263701
 20
502.4506908868165
 30
0.0
 11
480.4256206381521
 21
502.4506908868165
 31
0.0
  0
LINE
  5
F5
330
1F
100
AcDbEntity
  8
0-A
  6
Continuous
 62
     2
370
     9
100
AcDbLine
 10
648.7582510263701
 20
517.7839634599263
 30
0.0
 11
480.4256206381521
 21
517.7839634599263
 31
0.0
  0
LINE
  5
F6
330
1F
100
AcDbEntity
  8
0-A
  6
Continuous
 62
     2
370
     9
100
AcDbLine
 10
648.7582510263701
 20
520.1172911374925
 30
0.0
 11
482.7589483157179
 21
520.1172911374925
 31
0.0
  0
ARC
  5
F7
330
1F
100
AcDbEntity
  8
0-A
  6
Continuous
 62
     2
370
     9
100
AcDbCircle
 10
656.6513991270378
 20
496.5950755974546
 30
0.0
 40
7.893096489335579
100
AcDbArc
 50
142.4427795410156
 51
217.5572204589844
  0
ARC
  5
F8
330
1F
100
AcDbEntity
  8
0-A
  6
Continuous
 62
     2
370
     9
100
AcDbCircle
 10
677.4181475823849
 20
510.9504579398975
 30
0.0
 40
28.65972881918554
100
AcDbArc
 50
160.5480041503906
 51
199.4519958496094
  0
ARC
  5
F9
330
1F
100
AcDbEntity
  8
0-A
  6
Continuous
 62
     2
370
     9
100
AcDbCircle
 10
656.6513991270378
 20
525.3058402823405
 30
0.0
 40
7.893096489335579
100
AcDbArc
 50
142.4427795410156
 51
217.5572204589844
  0
LINE
  5
FA
330
1F
100
AcDbEntity
  8
0-A
  6
Continuous
 62
     2
370
     9
100
AcDbLine
 10
650.3946192758976
 20
530.1171725234826
 30
0.0
 11
653.7585220318903
 21
530.1171725234826
 31
0.0
  0
LINE
  5
FB
330
1F
100
AcDbEntity
  8
0-A
  6
Continuous
 62
     2
370
     9
100
AcDbLine
 10
650.3946192758976
 20
520.4948383537237
 30
0.0
 11
653.7585220318903
 21
520.4948383537237
 31
0.0
  0
LINE
  5
FC
330
1F
100
AcDbEntity
  8
0-A
  6
Continuous
 62
     2
370
     9
100
AcDbLine
 10
650.3946192758976
 20
501.4064078385968
 30
0.0
 11
653.7585220318903
 21
501.4064078385968
 31
0.0
  0
LINE
  5
FD
330
1F
100
AcDbEntity
  8
0-A
  6
Continuous
 62
     2
370
     9
100
AcDbLine
 10
650.3946192758976
 20
491.783743356313
 30
0.0
 11
653.7585220318903
 21
491.783743356313
 31
0.0
  0
LINE
  5
FE
330
1F
100
AcDbEntity
  8
0-A
  6
JWW_CENTER1
 62
     2
370
     9
100
AcDbLine
 10
653.7585220318903
 20
510.1173271733714
 30
0.0
 11
470.3556627344473
 21
510.1173271733714
 31
0.0
  0
LINE
  5
FF
330
1F
100
AcDbEntity
  8
受け
  6
JWW_DASHED1
 62
     3
370
     9
100
AcDbLine
 10
860.4249954598384
 20
685.4798338778124
 30
0.0
 11
967.0916621265051
 21
685.4798338778124
 31
0.0
  0
LINE
  5
100
330
1F
100
AcDbEntity
  8
受け
  6
Continuous
 62
     3
370
     9
100
AcDbLine
 10
900.4250154906813
 20
724.347048085603
 30
0.0
 11
967.0916621265051
 21
724.347048085603
 31
0.0
  0
LINE
  5
101
330
1F
100
AcDbEntity
  8
ｶﾊﾞｰ
  6
Continuous
 62
     4
370
     9
100
AcDbLine
 10
900.4250154906811
 20
802.4859441882137
 30
0.0
 11
967.0916621265051
 21
802.4859441882137
 31
0.0
  0
LINE
  5
102
330
1F
100
AcDbEntity
  8
ｶﾊﾞｰ
  6
Continuous
 62
     4
370
     9
100
AcDbLine
 10
900.4250154906811
 20
717.6630180932218
 30
0.0
 11
967.0916621265051
 21
717.6630180932218
 31
0.0
  0
LINE
  5
103
330
1F
100
AcDbEntity
  8
蓋
  6
JWW_DASHED1
 62
     6
370
     9
100
AcDbLine
 10
855.4249954598384
 20
710.5224779710551
 30
0.0
 11
967.0916621265051
 21
710.5224779710551
 31
0.0
  0
LINE
  5
104
330
1F
100
AcDbEntity
  8
蓋
  6
Continuous
 62
     6
370
     9
100
AcDbLine
 10
900.4250154906811
 20
727.4016457607928
 30
0.0
 11
967.0916621265051
 21
727.4016457607928
 31
0.0
  0
LINE
  5
105
330
1F
100
AcDbEntity
  8
蓋
  6
Continuous
 62
     6
370
     9
100
AcDbLine
 10
900.4250154906811
 20
719.251151604056
 30
0.0
 11
967.0916621265051
 21
719.251151604056
 31
0.0
  0
LINE
  5
106
330
1F
100
AcDbEntity
  8
受け
  6
Continuous
 62
     3
370
     9
100
AcDbLine
 10
900.4250154906811
 20
725.4296473867385
 30
0.0
 11
967.0916621265051
 21
725.4296473867385
 31
0.0
  0
LINE
  5
107
330
1F
100
AcDbEntity
  8
受け
  6
JWW_DASHED1
 62
     3
370
     9
100
AcDbLine
 10
860.4249954598384
 20
724.347048085603
 30
0.0
 11
900.4250154906813
 21
724.347048085603
 31
0.0
  0
LINE
  5
108
330
1F
100
AcDbEntity
  8
受け
  6
JWW_DASHED1
 62
     3
370
     9
100
AcDbLine
 10
860.4249954598384
 20
725.4296473867385
 30
0.0
 11
900.4250154906811
 21
725.4296473867385
 31
0.0
  0
LINE
  5
109
330
1F
100
AcDbEntity
  8
受け
  6
JWW_DASHED1
 62
     3
370
     9
100
AcDbLine
 10
860.4249954598384
 20
830.2815780222079
 30
0.0
 11
967.0916621265051
 21
830.2815780222079
 31
0.0
  0
LINE
  5
10A
330
1F
100
AcDbEntity
  8
蓋
  6
JWW_DASHED1
 62
     6
370
     9
100
AcDbLine
 10
855.4249954598384
 20
834.4816669355845
 30
0.0
 11
967.0916621265051
 21
834.4816669355845
 31
0.0
  0
LINE
  5
10B
330
1F
100
AcDbEntity
  8
蓋
  6
JWW_DASHED1
 62
     6
370
     9
100
AcDbLine
 10
855.4249954598384
 20
727.4016457607928
 30
0.0
 11
900.4250154906811
 21
727.4016457607928
 31
0.0
  0
LINE
  5
10C
330
1F
100
AcDbEntity
  8
蓋
  6
JWW_DASHED1
 62
     6
370
     9
100
AcDbLine
 10
855.4249954598384
 20
719.251151604056
 30
0.0
 11
900.4250154906811
 21
719.251151604056
 31
0.0
  0
LINE
  5
10D
330
1F
100
AcDbEntity
  8
蓋
  6
JWW_DASHED1
 62
     6
370
     9
100
AcDbLine
 10
855.4249954598384
 20
834.3190262858576
 30
0.0
 11
967.0916621265051
 21
834.3190262858576
 31
0.0
  0
LINE
  5
10E
330
1F
100
AcDbEntity
  8
受け
  6
JWW_DASHED1
 62
     3
370
     9
100
AcDbLine
 10
860.4249954598384
 20
815.4144121566151
 30
0.0
 11
967.0916621265051
 21
815.4144121566151
 31
0.0
  0
LINE
  5
10F
330
1F
100
AcDbEntity
  8
受け
  6
JWW_DASHED1
 62
     3
370
     9
100
AcDbLine
 10
860.4249954598384
 20
833.9677006464717
 30
0.0
 11
967.0916621265051
 21
833.9677006464717
 31
0.0
  0
LINE
  5
110
330
1F
100
AcDbEntity
  8
受け
  6
JWW_DASHED1
 62
     3
370
     9
100
AcDbLine
 10
860.4249954598384
 20
685.4798338778124
 30
0.0
 11
860.4249954598384
 21
833.9677006464717
 31
0.0
  0
LINE
  5
111
330
1F
100
AcDbEntity
  8
受け
  6
JWW_DASHED1
 62
     3
370
     9
100
AcDbLine
 10
860.4249954598384
 20
809.2993006442094
 30
0.0
 11
967.0916621265051
 21
809.2993006442094
 31
0.0
  0
LINE
  5
112
330
1F
100
AcDbEntity
  8
0-A
  6
Continuous
 62
     2
370
     9
100
AcDbLine
 10
978.0923904636592
 20
520.1172911374925
 30
0.0
 11
978.0923904636592
 21
500.1173632092502
 31
0.0
  0
LINE
  5
113
330
1F
100
AcDbEntity
  8
0-A
  6
Continuous
 62
     2
370
     9
100
AcDbLine
 10
978.0923904636592
 20
520.1172911374925
 30
0.0
 11
980.4257181412252
 21
517.7839634599263
 31
0.0
  0
LINE
  5
114
330
1F
100
AcDbEntity
  8
0-A
  6
Continuous
 62
     2
370
     9
100
AcDbLine
 10
980.4257181412252
 20
517.7839634599263
 30
0.0
 11
980.4257181412252
 21
502.4506908868165
 31
0.0
  0
LINE
  5
115
330
1F
100
AcDbEntity
  8
0-A
  6
Continuous
 62
     2
370
     9
100
AcDbLine
 10
978.0923904636592
 20
500.1173632092502
 30
0.0
 11
980.4257181412252
 21
502.4506908868165
 31
0.0
  0
LINE
  5
116
330
1F
100
AcDbEntity
  8
0-A
  6
Continuous
 62
     2
370
     9
100
AcDbLine
 10
978.0923904636592
 20
520.1172911374925
 30
0.0
 11
953.7588963950861
 21
520.1172911374925
 31
0.0
  0
LINE
  5
117
330
1F
100
AcDbEntity
  8
0-A
  6
Continuous
 62
     2
370
     9
100
AcDbLine
 10
978.0923904636592
 20
500.1173632092502
 30
0.0
 11
953.7588963950861
 21
500.1173632092502
 31
0.0
  0
LINE
  5
118
330
1F
100
AcDbEntity
  8
0-A
  6
Continuous
 62
     2
370
     9
100
AcDbLine
 10
980.4257181412252
 20
517.7839634599263
 30
0.0
 11
953.7588963950861
 21
517.7839634599263
 31
0.0
  0
LINE
  5
119
330
1F
100
AcDbEntity
  8
0-A
  6
Continuous
 62
     2
370
     9
100
AcDbLine
 10
980.4257181412252
 20
502.4506908868165
 30
0.0
 11
953.7588963950861
 21
502.4506908868165
 31
0.0
  0
LINE
  5
11A
330
1F
100
AcDbEntity
  8
0-A
  6
JWW_CENTER1
 62
     2
370
     9
100
AcDbLine
 10
942.4534933621273
 20
510.1173271733714
 30
0.0
 11
987.023735577697
 21
510.1173271733714
 31
0.0
  0
LINE
  5
11B
330
1F
100
AcDbEntity
  8
ｶﾊﾞｰ
  6
Continuous
 62
     4
370
     9
100
AcDbLine
 10
920.4254388877109
 20
508.5135772857018
 30
0.0
 11
920.4254388877109
 21
503.5136365927065
 31
0.0
  0
LINE
  5
11C
330
1F
100
AcDbEntity
  8
ｶﾊﾞｰ
  6
Continuous
 62
     4
370
     9
100
AcDbLine
 10
920.4254388877109
 20
508.5135772857018
 30
0.0
 11
947.0922296670506
 21
508.5135772857018
 31
0.0
  0
ARC
  5
11D
330
1F
100
AcDbEntity
  8
ｶﾊﾞｰ
  6
Continuous
 62
     4
370
     9
100
AcDbCircle
 10
947.0922296670506
 20
501.8468795908666
 30
0.0
 40
1.666666682008917
100
AcDbArc
 50
0.0
 51
90.0
  0
ARC
  5
11E
330
1F
100
AcDbEntity
  8
ｶﾊﾞｰ
  6
Continuous
 62
     4
370
     9
100
AcDbCircle
 10
947.0922296670506
 20
501.8468795908666
 30
0.0
 40
6.666666728035669
100
AcDbArc
 50
0.0
 51
90.0
  0
LINE
  5
11F
330
1F
100
AcDbEntity
  8
ｶﾊﾞｰ
  6
Continuous
 62
     4
370
     9
100
AcDbLine
 10
920.4254388877109
 20
503.5136365927065
 30
0.0
 11
920.4254388877109
 21
546.0413742040623
 31
0.0
  0
LINE
  5
120
330
1F
100
AcDbEntity
  8
ｶﾊﾞｰ
  6
Continuous
 62
     4
370
     9
100
AcDbLine
 10
920.4254388877109
 20
503.5136365927065
 30
0.0
 11
947.0922296670506
 21
503.5136365927065
 31
0.0
  0
LINE
  5
121
330
1F
100
AcDbEntity
  8
ｶﾊﾞｰ
  6
Continuous
 62
     4
370
     9
100
AcDbLine
 10
920.4254388877109
 20
546.0413742040623
 30
0.0
 11
967.0916621265051
 21
546.0413742040623
 31
0.0
  0
LINE
  5
122
330
1F
100
AcDbEntity
  8
ｶﾊﾞｰ
  6
Continuous
 62
     4
370
     9
100
AcDbLine
 10
967.0916621265051
 20
400.1174758336464
 30
0.0
 11
967.0916621265051
 21
500.1173632092502
 31
0.0
  0
LINE
  5
123
330
1F
100
AcDbEntity
  8
ｶﾊﾞｰ
  6
Continuous
 62
     4
370
     9
100
AcDbLine
 10
967.0916621265051
 20
546.0413742040623
 30
0.0
 11
967.0916621265051
 21
886.784177947049
 31
0.0
  0
LINE
  5
124
330
1F
100
AcDbEntity
  8
ｶﾊﾞｰ
  6
Continuous
 62
     4
370
     9
100
AcDbLine
 10
948.7589866688904
 20
488.4507454659537
 30
0.0
 11
953.7588963950861
 21
488.4507454659537
 31
0.0
  0
LINE
  5
125
330
1F
100
AcDbEntity
  8
ｶﾊﾞｰ
  6
Continuous
 62
     4
370
     9
100
AcDbLine
 10
953.7588963950861
 20
546.0413742040623
 30
0.0
 11
953.7588963950861
 21
488.4507454659537
 31
0.0
  0
LINE
  5
126
330
1F
100
AcDbEntity
  8
ｶﾊﾞｰ
  6
JWW_DASHED1
 62
     4
370
     9
100
AcDbLine
 10
948.7589866688904
 20
508.3018285728118
 30
0.0
 11
948.7589866688904
 21
546.0413742040623
 31
0.0
  0
LINE
  5
127
330
1F
100
AcDbEntity
  8
0-5
  6
Continuous
 62
     7
370
     9
100
AcDbLine
 10
478.4159637555014
 20
236.1356792392706
 30
0.0
 11
718.6271360640188
 21
400.1174758336464
 31
0.0
  0
LINE
  5
128
330
1F
100
AcDbEntity
  8
0-5
  6
Continuous
 62
     7
370
     9
100
AcDbLine
 10
718.6271360640188
 20
400.1174758336464
 30
0.0
 11
699.9959566647368
 21
383.4477681519928
 31
0.0
  0
LINE
  5
129
330
1F
100
AcDbEntity
  8
0-5
  6
Continuous
 62
     7
370
     9
100
AcDbLine
 10
718.6271360640188
 20
400.1174758336464
 30
0.0
 11
696.3163608837237
 21
388.8378787285039
 31
0.0
  0
LINE
  5
12A
330
1F
100
AcDbEntity
  8
0-5
  6
Continuous
 62
     7
370
     9
100
AcDbLine
 10
464.7246236734736
 20
334.4700186202994
 30
0.0
 11
653.7585220318903
 21
461.8108455479355
 31
0.0
  0
LINE
  5
12B
330
1F
100
AcDbEntity
  8
0-5
  6
Continuous
 62
     7
370
     9
100
AcDbLine
 10
653.7585220318903
 20
461.8108455479355
 30
0.0
 11
635.0247417562509
 21
445.2565265772237
 31
0.0
  0
LINE
  5
12C
330
1F
100
AcDbEntity
  8
0-5
  6
Continuous
 62
     7
370
     9
100
AcDbLine
 10
653.7585220318903
 20
461.8108455479355
 30
0.0
 11
631.3785068113033
 21
450.6692604395994
 31
0.0
  0
TEXT
  5
12D
330
1F
100
AcDbEntity
  8
0-5
  6
Continuous
 62
     2
370
     9
100
AcDbText
 10
462.093489116645
 20
114.8296208866346
 30
0.0
 40
30.48
  1
Ａ－Ａ断面図　Ｓ＝１：３
 41
1.114583333333333
  7
ＭＳ ゴシック
100
AcDbText
  0
LINE
  5
12E
330
1F
100
AcDbEntity
  8
0-5
  6
Continuous
 62
     7
370
     9
100
AcDbLine
 10
444.0934891166449
 20
164.1896208866345
 30
0.0
 11
1015.093489116645
 21
164.1896208866345
 31
0.0
  0
LINE
  5
12F
330
1F
100
AcDbEntity
  8
0-5
  6
Continuous
 62
     7
370
     9
100
AcDbLine
 10
444.0934891166449
 20
94.18962088663456
 30
0.0
 11
1015.093489116645
 21
94.18962088663456
 31
0.0
  0
LINE
  5
130
330
1F
100
AcDbEntity
  8
0-5
  6
Continuous
 62
     7
370
     9
100
AcDbLine
 10
444.0934891166449
 20
164.1896208866345
 30
0.0
 11
444.0934891166449
 21
94.18962088663456
 31
0.0
  0
LINE
  5
131
330
1F
100
AcDbEntity
  8
0-5
  6
Continuous
 62
     7
370
     9
100
AcDbLine
 10
1015.093489116645
 20
164.1896208866345
 30
0.0
 11
1015.093489116645
 21
94.18962088663456
 31
0.0
  0
ARC
  5
132
330
1F
100
AcDbEntity
  8
ｶﾊﾞｰ
  6
Continuous
 62
     4
370
     9
100
AcDbCircle
 10
-337.7006877013655
 20
510.1172445952403
 30
0.0
 40
21.66679589444606
100
AcDbArc
 50
240.0000762939453
 51
59.9999237060547
  0
LINE
  5
133
330
1F
100
AcDbEntity
  8
受け
  6
Continuous
 62
     3
370
     9
100
AcDbLine
 10
-813.1681436500073
 20
703.5550307220831
 30
0.0
 11
-809.9141110976884
 21
702.833463010922
 31
0.0
  0
LINE
  5
134
330
1F
100
AcDbEntity
  8
受け
  6
Continuous
 62
     3
370
     9
100
AcDbLine
 10
-652.2421110129303
 20
414.5907797475627
 30
0.0
 11
-653.7457349164185
 21
409.822801025345
 31
0.0
  0
LINE
  5
135
330
1F
100
AcDbEntity
  8
受け
  6
JWW_DASHED1
 62
     3
370
     9
100
AcDbLine
 10
-617.6879938911786
 20
396.7057603396398
 30
0.0
 11
-619.1911223258792
 21
391.9368732579784
 31
0.0
  0
LINE
  5
136
330
1F
100
AcDbEntity
  8
受け
  6
Continuous
 62
     3
370
     9
100
AcDbLine
 10
-653.7457349164185
 20
409.822801025345
 30
0.0
 11
-637.850435581788
 21
404.8104736126578
 31
0.0
  0
LINE
  5
137
330
1F
100
AcDbEntity
  8
受け
  6
Continuous
 62
     3
370
     9
100
AcDbLine
 10
-638.8526863611842
 20
401.6316284488727
 30
0.0
 11
-637.850435581788
 21
404.8104736126578
 31
0.0
  0
LINE
  5
138
330
1F
100
AcDbEntity
  8
受け
  6
Continuous
 62
     3
370
     9
100
AcDbLine
 10
-632.5807534229533
 20
404.8966026035873
 30
0.0
 11
-633.5830042023495
 21
401.7176748616708
 31
0.0
  0
LINE
  5
139
330
1F
100
AcDbEntity
  8
受け
  6
Continuous
 62
     3
370
     9
100
AcDbLine
 10
-634.7574303854732
 20
409.0781114374244
 30
0.0
 11
-652.2421110129303
 21
414.5907797475627
 31
0.0
  0
LINE
  5
13A
330
1F
100
AcDbEntity
  8
0-A
  6
JWW_DASHED1
 62
     2
370
     9
100
AcDbLine
 10
-554.2853717615592
 20
379.2837565138274
 30
0.0
 11
-582.9961364464449
 21
379.2837565138274
 31
0.0
  0
LINE
  5
13B
330
1F
100
AcDbEntity
  8
0-A
  6
JWW_DASHED1
 62
     2
370
     9
100
AcDbLine
 10
-559.0967040027009
 20
380.9201247633547
 30
0.0
 11
-559.0967040027009
 21
395.9506659071775
 31
0.0
  0
LINE
  5
13C
330
1F
100
AcDbEntity
  8
0-A
  6
JWW_DASHED1
 62
     2
370
     9
100
AcDbLine
 10
-549.4740395204174
 20
380.9201247633547
 30
0.0
 11
-549.4740395204174
 21
395.9506659071775
 31
0.0
  0
LINE
  5
13D
330
1F
100
AcDbEntity
  8
0-A
  6
JWW_DASHED1
 62
     2
370
     9
100
AcDbLine
 10
-578.1849693615657
 20
380.9201247633547
 30
0.0
 11
-578.1849693615657
 21
395.9506659071775
 31
0.0
  0
LINE
  5
13E
330
1F
100
AcDbEntity
  8
0-A
  6
JWW_DASHED1
 62
     2
370
     9
100
AcDbLine
 10
-587.8074686875867
 20
395.9506659071775
 30
0.0
 11
-549.4740395204174
 21
395.9506659071775
 31
0.0
  0
LINE
  5
13F
330
1F
100
AcDbEntity
  8
0-A
  6
JWW_DASHED1
 62
     2
370
     9
100
AcDbLine
 10
-587.8074686875867
 20
380.9201247633547
 30
0.0
 11
-587.8074686875867
 21
395.9506659071775
 31
0.0
  0
LINE
  5
140
330
1F
100
AcDbEntity
  8
0-A
  6
Continuous
 62
     2
370
     9
100
AcDbLine
 10
-587.8074686875867
 20
910.1174547227089
 30
0.0
 11
-578.1849693615657
 21
893.4507104856215
 31
0.0
  0
LINE
  5
141
330
1F
100
AcDbEntity
  8
0-A
  6
Continuous
 62
     2
370
     9
100
AcDbLine
 10
-587.8074686875867
 20
910.1174547227089
 30
0.0
 11
-578.1848867834343
 21
926.7841989597957
 31
0.0
  0
LINE
  5
142
330
1F
100
AcDbEntity
  8
0-A
  6
Continuous
 62
     2
370
     9
100
AcDbLine
 10
-578.1848867834343
 20
926.7841989597957
 30
0.0
 11
-559.0967040027009
 21
926.7841989597957
 31
0.0
  0
LINE
  5
143
330
1F
100
AcDbEntity
  8
0-A
  6
Continuous
 62
     2
370
     9
100
AcDbLine
 10
-549.4741220985487
 20
910.1174547227089
 30
0.0
 11
-559.0967040027009
 21
926.7841989597957
 31
0.0
  0
LINE
  5
144
330
1F
100
AcDbEntity
  8
0-A
  6
Continuous
 62
     2
370
     9
100
AcDbLine
 10
-549.4741220985487
 20
910.1174547227089
 30
0.0
 11
-559.0967040027009
 21
893.4507104856215
 31
0.0
  0
LINE
  5
145
330
1F
100
AcDbEntity
  8
0-A
  6
Continuous
 62
     2
370
     9
100
AcDbLine
 10
-578.1849693615657
 20
893.4507104856215
 30
0.0
 11
-559.0967040027009
 21
893.4507104856215
 31
0.0
  0
LINE
  5
146
330
1F
100
AcDbEntity
  8
0-A
  6
Continuous
 62
     2
370
     9
100
AcDbLine
 10
-328.1172478314419
 20
526.7162747646745
 30
0.0
 11
-347.362246483484
 21
526.7162747646745
 31
0.0
  0
LINE
  5
147
330
1F
100
AcDbEntity
  8
0-A
  6
Continuous
 62
     2
370
     9
100
AcDbLine
 10
-328.1172478314419
 20
526.7162747646745
 30
0.0
 11
-318.4946659272895
 21
510.0493653713249
 31
0.0
  0
LINE
  5
148
330
1F
100
AcDbEntity
  8
0-A
  6
Continuous
 62
     2
370
     9
100
AcDbLine
 10
-318.4946659272895
 20
510.0493653713249
 30
0.0
 11
-328.038798606722
 21
493.5185447383316
 31
0.0
  0
LINE
  5
149
330
1F
100
AcDbEntity
  8
0-A
  6
Continuous
 62
     2
370
     9
100
AcDbLine
 10
-347.2838798368953
 20
493.5185447383316
 30
0.0
 11
-328.038798606722
 21
493.5185447383316
 31
0.0
  0
LINE
  5
14A
330
1F
100
AcDbEntity
  8
0-A
  6
Continuous
 62
     2
370
     9
100
AcDbLine
 10
-347.2838798368953
 20
493.5185447383316
 30
0.0
 11
-356.9064617410477
 21
510.1852889754184
 31
0.0
  0
LINE
  5
14B
330
1F
100
AcDbEntity
  8
0-A
  6
Continuous
 62
     2
370
     9
100
AcDbLine
 10
-347.362246483484
 20
526.7162747646745
 30
0.0
 11
-356.9064617410477
 21
510.1852889754184
 31
0.0
  0
LINE
  5
14C
330
1F
100
AcDbEntity
  8
0-A
  6
Continuous
 62
     2
370
     9
100
AcDbLine
 10
-789.9975457929776
 20
493.5185447383316
 30
0.0
 11
-780.3750464669565
 21
510.1851238191563
 31
0.0
  0
LINE
  5
14D
330
1F
100
AcDbEntity
  8
0-A
  6
Continuous
 62
     2
370
     9
100
AcDbLine
 10
-789.9975457929776
 20
493.5185447383316
 30
0.0
 11
-809.2427096012821
 21
493.5185447383316
 31
0.0
  0
LINE
  5
14E
330
1F
100
AcDbEntity
  8
0-A
  6
Continuous
 62
     2
370
     9
100
AcDbLine
 10
-809.2427096012821
 20
493.5185447383316
 30
0.0
 11
-818.7867597025834
 21
510.0493653713249
 31
0.0
  0
LINE
  5
14F
330
1F
100
AcDbEntity
  8
0-A
  6
Continuous
 62
     2
370
     9
100
AcDbLine
 10
-809.1642603765624
 20
526.7161096084124
 30
0.0
 11
-818.7867597025834
 21
510.0493653713249
 31
0.0
  0
LINE
  5
150
330
1F
100
AcDbEntity
  8
0-A
  6
Continuous
 62
     2
370
     9
100
AcDbLine
 10
-809.1642603765624
 20
526.7161096084124
 30
0.0
 11
-789.9190965682576
 21
526.7161096084124
 31
0.0
  0
LINE
  5
151
330
1F
100
AcDbEntity
  8
0-A
  6
Continuous
 62
     2
370
     9
100
AcDbLine
 10
-780.3750464669565
 20
510.1851238191563
 30
0.0
 11
-789.9190965682576
 21
526.7161096084124
 31
0.0
  0
LINE
  5
152
330
1F
100
AcDbEntity
  8
0-A
  6
Continuous
 62
     2
370
     9
100
AcDbLine
 10
-588.6407646103755
 20
352.2838455528876
 30
0.0
 11
-588.6407646103755
 21
360.9505855874255
 31
0.0
  0
LINE
  5
153
330
1F
100
AcDbEntity
  8
0-A
  6
Continuous
 62
     2
370
     9
100
AcDbLine
 10
-548.6408261757598
 20
352.2838455528876
 30
0.0
 11
-548.6408261757598
 21
360.9505855874255
 31
0.0
  0
LINE
  5
154
330
1F
100
AcDbEntity
  8
0-A
  6
Continuous
 62
     2
370
     9
100
AcDbLine
 10
-567.0438582012284
 20
347.7255327060004
 30
0.0
 11
-570.2375674286444
 21
347.7255327060004
 31
0.0
  0
LINE
  5
155
330
1F
100
AcDbEntity
  8
0-A
  6
Continuous
 62
     2
370
     9
100
AcDbLine
 10
-570.2375674286444
 20
345.6554641109688
 30
0.0
 11
-570.2375674286444
 21
347.7255327060004
 31
0.0
  0
LINE
  5
156
330
1F
100
AcDbEntity
  8
0-A
  6
Continuous
 62
     2
370
     9
100
AcDbLine
 10
-567.0438582012284
 20
345.6554641109688
 30
0.0
 11
-567.0438582012284
 21
347.7255327060004
 31
0.0
  0
LINE
  5
157
330
1F
100
AcDbEntity
  8
0-A
  6
JWW_DASHED1
 62
     2
370
     9
100
AcDbLine
 10
-578.6407180681231
 20
367.6172832822601
 30
0.0
 11
-558.640790139881
 21
367.6172832822601
 31
0.0
  0
LINE
  5
158
330
1F
100
AcDbEntity
  8
0-A
  6
JWW_DASHED1
 62
     2
370
     9
100
AcDbLine
 10
-558.640790139881
 20
367.6172832822601
 30
0.0
 11
-560.1105157204769
 21
365.0717298072942
 31
0.0
  0
LINE
  5
159
330
1F
100
AcDbEntity
  8
0-A
  6
Continuous
 62
     2
370
     9
100
AcDbLine
 10
-588.6407646103755
 20
360.9505855874255
 30
0.0
 11
-548.6408261757598
 21
360.9505855874255
 31
0.0
  0
LINE
  5
15A
330
1F
100
AcDbEntity
  8
0-A
  6
JWW_DASHED1
 62
     2
370
     9
100
AcDbLine
 10
-578.6407180681231
 20
367.6172832822601
 30
0.0
 11
-577.1709099093958
 21
365.0717298072942
 31
0.0
  0
LINE
  5
15B
330
1F
100
AcDbEntity
  8
0-A
  6
JWW_DASHED1
 62
     2
370
     9
100
AcDbLine
 10
-575.7408218318163
 20
367.6172832822601
 30
0.0
 11
-575.7408218318163
 21
379.2837565138274
 31
0.0
  0
LINE
  5
15C
330
1F
100
AcDbEntity
  8
0-A
  6
JWW_DASHED1
 62
     2
370
     9
100
AcDbLine
 10
-578.6407180681231
 20
367.6172832822601
 30
0.0
 11
-578.6407180681231
 21
379.2837565138274
 31
0.0
  0
LINE
  5
15D
330
1F
100
AcDbEntity
  8
0-A
  6
JWW_DASHED1
 62
     2
370
     9
100
AcDbLine
 10
-561.5407689543191
 20
367.6172832822601
 30
0.0
 11
-561.5407689543191
 21
379.2837565138274
 31
0.0
  0
LINE
  5
15E
330
1F
100
AcDbEntity
  8
0-A
  6
JWW_DASHED1
 62
     2
370
     9
100
AcDbLine
 10
-558.640790139881
 20
367.6172832822601
 30
0.0
 11
-558.640790139881
 21
379.2837565138274
 31
0.0
  0
LINE
  5
15F
330
1F
100
AcDbEntity
  8
0-0
  6
JWW_CENTER1
 62
     3
370
     9
100
AcDbLine
 10
-222.8004848949737
 20
643.4507030231509
 30
0.0
 11
-923.8844428567543
 21
643.4507030231509
 31
0.0
  0
LINE
  5
160
330
1F
100
AcDbEntity
  8
ｶﾊﾞｰ
  6
Continuous
 62
     4
370
     9
100
AcDbLine
 10
-546.9740691739199
 20
880.1173150959517
 30
0.0
 11
-590.3074390340842
 21
880.1173150959517
 31
0.0
  0
LINE
  5
161
330
1F
100
AcDbEntity
  8
ｶﾊﾞｰ
  6
Continuous
 62
     4
370
     9
100
AcDbLine
 10
-546.9740691739199
 20
885.1172557889464
 30
0.0
 11
-590.3074390340842
 21
885.1172557889464
 31
0.0
  0
LINE
  5
162
330
1F
100
AcDbEntity
  8
ｶﾊﾞｰ
  6
JWW_DASHED1
 62
     4
370
     9
100
AcDbLine
 10
-590.3074390340842
 20
880.7970982726835
 30
0.0
 11
-546.9740691739199
 21
880.7970982726835
 31
0.0
  0
LINE
  5
163
330
1F
100
AcDbEntity
  8
ｶﾊﾞｰ
  6
JWW_DASHED1
 62
     4
370
     9
100
AcDbLine
 10
-590.3074390340842
 20
875.7971575796881
 30
0.0
 11
-546.9740691739199
 21
875.7971575796881
 31
0.0
  0
LINE
  5
164
330
1F
100
AcDbEntity
  8
ｶﾊﾞｰ
  6
JWW_DASHED1
 62
     4
370
     9
100
AcDbLine
 10
-590.3074390340842
 20
880.1173150959517
 30
0.0
 11
-590.3074390340842
 21
875.7971575796881
 31
0.0
  0
LINE
  5
165
330
1F
100
AcDbEntity
  8
ｶﾊﾞｰ
  6
JWW_DASHED1
 62
     4
370
     9
100
AcDbLine
 10
-546.9740691739199
 20
880.1173150959517
 30
0.0
 11
-546.9740691739199
 21
875.7971575796881
 31
0.0
  0
LINE
  5
166
330
1F
100
AcDbEntity
  8
ｶﾊﾞｰ
  6
Continuous
 62
     4
370
     9
100
AcDbLine
 10
-784.4333900179836
 20
543.8812954459308
 30
0.0
 11
-762.7667050879012
 21
506.3534985275697
 31
0.0
  0
LINE
  5
167
330
1F
100
AcDbEntity
  8
ｶﾊﾞｰ
  6
Continuous
 62
     4
370
     9
100
AcDbLine
 10
-788.763456910001
 20
541.3813250994332
 30
0.0
 11
-767.0967719799188
 21
503.8535281810721
 31
0.0
  0
LINE
  5
168
330
1F
100
AcDbEntity
  8
ｶﾊﾞｰ
  6
JWW_DASHED1
 62
     4
370
     9
100
AcDbLine
 10
-763.3554458748918
 20
506.0136069392041
 30
0.0
 11
-785.022130804974
 21
543.5414038575652
 31
0.0
  0
LINE
  5
169
330
1F
100
AcDbEntity
  8
ｶﾊﾞｰ
  6
JWW_DASHED1
 62
     4
370
     9
100
AcDbLine
 10
-762.7667050879012
 20
506.3534985275697
 30
0.0
 11
-759.0253376938088
 21
508.5135772857018
 31
0.0
  0
LINE
  5
16A
330
1F
100
AcDbEntity
  8
ｶﾊﾞｰ
  6
Continuous
 62
     4
370
     9
100
AcDbLine
 10
-374.5147618310372
 20
506.3534985275697
 30
0.0
 11
-352.848076900955
 21
543.8812954459308
 31
0.0
  0
LINE
  5
16B
330
1F
100
AcDbEntity
  8
ｶﾊﾞｰ
  6
Continuous
 62
     4
370
     9
100
AcDbLine
 10
-370.1846949390196
 20
503.8535281810721
 30
0.0
 11
-348.5180100089374
 21
541.3813250994332
 31
0.0
  0
LINE
  5
16C
330
1F
100
AcDbEntity
  8
ｶﾊﾞｰ
  6
JWW_DASHED1
 62
     4
370
     9
100
AcDbLine
 10
-352.2593774030301
 20
543.5414038575652
 30
0.0
 11
-373.9260623331123
 21
506.0136069392041
 31
0.0
  0
LINE
  5
16D
330
1F
100
AcDbEntity
  8
ｶﾊﾞｰ
  6
JWW_DASHED1
 62
     4
370
     9
100
AcDbLine
 10
-374.5147618310372
 20
506.3534985275697
 30
0.0
 11
-378.2562118032611
 21
508.5135772857018
 31
0.0
  0
LINE
  5
16E
330
1F
100
AcDbEntity
  8
ｶﾊﾞｰ
  6
JWW_DASHED1
 62
     4
370
     9
100
AcDbLine
 10
-618.64073908087
 20
405.3097409944019
 30
0.0
 11
-617.6133432604977
 21
410.2030733199086
 31
0.0
  0
LINE
  5
16F
330
1F
100
AcDbEntity
  8
ｶﾊﾞｰ
  6
JWW_DASHED1
 62
     4
370
     9
100
AcDbLine
 10
-518.640769127134
 20
405.3097409944019
 30
0.0
 11
-519.6681236584407
 21
410.2030733199086
 31
0.0
  0
LINE
  5
170
330
1F
100
AcDbEntity
  8
受け
  6
Continuous
 62
     3
370
     9
100
AcDbLine
 10
-485.0393971950738
 20
414.5907797475627
 30
0.0
 11
-483.5357320025201
 21
409.822801025345
 31
0.0
  0
LINE
  5
171
330
1F
100
AcDbEntity
  8
受け
  6
JWW_DASHED1
 62
     3
370
     9
100
AcDbLine
 10
-519.5934730277597
 20
396.7057603396398
 30
0.0
 11
-518.0903858821251
 21
391.9368732579784
 31
0.0
  0
LINE
  5
172
330
1F
100
AcDbEntity
  8
受け
  6
Continuous
 62
     3
370
     9
100
AcDbLine
 10
-483.5357320025201
 20
409.822801025345
 30
0.0
 11
-499.4310313371503
 21
404.8104736126578
 31
0.0
  0
LINE
  5
173
330
1F
100
AcDbEntity
  8
受け
  6
Continuous
 62
     3
370
     9
100
AcDbLine
 10
-498.4288631358854
 20
401.6316284488727
 30
0.0
 11
-499.4310313371503
 21
404.8104736126578
 31
0.0
  0
LINE
  5
174
330
1F
100
AcDbEntity
  8
受け
  6
Continuous
 62
     3
370
     9
100
AcDbLine
 10
-504.7007547850507
 20
404.8966026035873
 30
0.0
 11
-503.6985040056545
 21
401.7176748616708
 31
0.0
  0
LINE
  5
175
330
1F
100
AcDbEntity
  8
受け
  6
Continuous
 62
     3
370
     9
100
AcDbLine
 10
-502.5240778225308
 20
409.0781114374244
 30
0.0
 11
-485.0393971950738
 21
414.5907797475627
 31
0.0
  0
LINE
  5
176
330
1F
100
AcDbEntity
  8
蓋
  6
Continuous
 62
     6
370
     9
100
AcDbLine
 10
-627.5083917088223
 20
407.3454570868194
 30
0.0
 11
-635.1692475261874
 21
376.6194556860745
 31
0.0
  0
LINE
  5
177
330
1F
100
AcDbEntity
  8
蓋
  6
Continuous
 62
     6
370
     9
100
AcDbLine
 10
-635.1692475261874
 20
376.6194556860745
 30
0.0
 11
-630.3695175124911
 21
368.6313427344299
 31
0.0
  0
LINE
  5
178
330
1F
100
AcDbEntity
  8
蓋
  6
Continuous
 62
     6
370
     9
100
AcDbLine
 10
-509.7731164991819
 20
407.3454570868194
 30
0.0
 11
-502.1123432599479
 21
376.6193731079431
 31
0.0
  0
LINE
  5
179
330
1F
100
AcDbEntity
  8
蓋
  6
Continuous
 62
     6
370
     9
100
AcDbLine
 10
-502.1123432599479
 20
376.6193731079431
 30
0.0
 11
-506.9119494064473
 21
368.6313427344299
 31
0.0
  0
LINE
  5
17A
330
1F
100
AcDbEntity
  8
受け
  6
Continuous
 62
     3
370
     9
100
AcDbLine
 10
-633.5830042023495
 20
401.7176748616708
 30
0.0
 11
-629.2520289508878
 21
400.3520803046246
 31
0.0
  0
LINE
  5
17B
330
1F
100
AcDbEntity
  8
受け
  6
Continuous
 62
     3
370
     9
100
AcDbLine
 10
-636.6760506877299
 20
397.4503673494297
 30
0.0
 11
-630.4639043165489
 21
395.4916140753687
 31
0.0
  0
LINE
  5
17C
330
1F
100
AcDbEntity
  8
受け
  6
JWW_DASHED1
 62
     3
370
     9
100
AcDbLine
 10
-630.4639043165489
 20
395.4916140753687
 30
0.0
 11
-619.1911223258792
 21
391.9368732579784
 31
0.0
  0
LINE
  5
17D
330
1F
100
AcDbEntity
  8
受け
  6
JWW_DASHED1
 62
     3
370
     9
100
AcDbLine
 10
-629.2520289508878
 20
400.3520803046246
 30
0.0
 11
-617.6879938911786
 21
396.7057603396398
 31
0.0
  0
LINE
  5
17E
330
1F
100
AcDbEntity
  8
受け
  6
Continuous
 62
     3
370
     9
100
AcDbLine
 10
-503.6985040056545
 20
401.7176748616708
 30
0.0
 11
-508.0294792571161
 21
400.3520803046246
 31
0.0
  0
LINE
  5
17F
330
1F
100
AcDbEntity
  8
受け
  6
Continuous
 62
     3
370
     9
100
AcDbLine
 10
-500.605457520274
 20
397.4503673494297
 30
0.0
 11
-506.8176451805209
 21
395.4915314972374
 31
0.0
  0
LINE
  5
180
330
1F
100
AcDbEntity
  8
受け
  6
JWW_DASHED1
 62
     3
370
     9
100
AcDbLine
 10
-506.8176451805209
 20
395.4915314972374
 30
0.0
 11
-518.0903858821251
 21
391.9368732579784
 31
0.0
  0
LINE
  5
181
330
1F
100
AcDbEntity
  8
受け
  6
JWW_DASHED1
 62
     3
370
     9
100
AcDbLine
 10
-508.0294792571161
 20
400.3520803046246
 30
0.0
 11
-519.5934730277597
 21
396.7057603396398
 31
0.0
  0
LINE
  5
182
330
1F
100
AcDbEntity
  8
0-A
  6
Continuous
 62
     2
370
     9
100
AcDbLine
 10
-578.9128542997701
 20
361.9714164463608
 30
0.0
 11
-579.2475021767993
 21
361.3756978072763
 31
0.0
  0
LINE
  5
183
330
1F
100
AcDbEntity
  8
0-A
  6
JWW_DASHED1
 62
     2
370
     9
100
AcDbLine
 10
-575.7408218318163
 20
367.6172832822601
 30
0.0
 11
-578.9129368779014
 21
361.9714164463608
 31
0.0
  0
LINE
  5
184
330
1F
100
AcDbEntity
  8
0-A
  6
Continuous
 62
     2
370
     9
100
AcDbLine
 10
-558.3686951972996
 20
361.9714164463608
 30
0.0
 11
-558.0340060312047
 21
361.3756978072763
 31
0.0
  0
LINE
  5
185
330
1F
100
AcDbEntity
  8
0-A
  6
JWW_DASHED1
 62
     2
370
     9
100
AcDbLine
 10
-561.5407689543191
 20
367.6172832822601
 30
0.0
 11
-558.3687777754309
 21
361.9714164463608
 31
0.0
  0
LINE
  5
186
330
1F
100
AcDbEntity
  8
0-A
  6
JWW_DASHED1
 62
     2
370
     9
100
AcDbLine
 10
-347.0431645842019
 20
787.966231364515
 30
0.0
 11
-332.687782241759
 21
763.1021211911093
 31
0.0
  0
LINE
  5
187
330
1F
100
AcDbEntity
  8
0-A
  6
JWW_DASHED1
 62
     2
370
     9
100
AcDbLine
 10
-346.0546217745988
 20
782.9813198914144
 30
0.0
 11
-359.0714951870565
 21
775.466049319503
 31
0.0
  0
LINE
  5
188
330
1F
100
AcDbEntity
  8
0-A
  6
JWW_DASHED1
 62
     2
370
     9
100
AcDbLine
 10
-350.8659540157406
 20
791.3147745880889
 30
0.0
 11
-363.8828274281983
 21
783.799504016178
 31
0.0
  0
LINE
  5
189
330
1F
100
AcDbEntity
  8
0-A
  6
JWW_DASHED1
 62
     2
370
     9
100
AcDbLine
 10
-336.5104890951666
 20
766.4504992584205
 30
0.0
 11
-349.5272799294928
 21
758.9352286865096
 31
0.0
  0
LINE
  5
18A
330
1F
100
AcDbEntity
  8
0-A
  6
JWW_DASHED1
 62
     2
370
     9
100
AcDbLine
 10
-344.7161128446136
 20
750.6017739898346
 30
0.0
 11
-363.8828274281983
 21
783.799504016178
 31
0.0
  0
LINE
  5
18B
330
1F
100
AcDbEntity
  8
0-A
  6
JWW_DASHED1
 62
     2
370
     9
100
AcDbLine
 10
-331.6992394321559
 20
758.117044561746
 30
0.0
 11
-344.7161128446136
 21
750.6017739898346
 31
0.0
  0
LINE
  5
18C
330
1F
100
AcDbEntity
  8
0-A
  6
Continuous
 62
     2
370
     9
100
AcDbLine
 10
-306.482850950692
 20
771.7136990339498
 30
0.0
 11
-313.9884598812428
 21
767.3803290166808
 31
0.0
  0
LINE
  5
18D
330
1F
100
AcDbEntity
  8
0-A
  6
Continuous
 62
     2
370
     9
100
AcDbLine
 10
-326.4828614570652
 20
806.3545644826155
 30
0.0
 11
-333.9884703876162
 21
802.0211944653465
 31
0.0
  0
LINE
  5
18E
330
1F
100
AcDbEntity
  8
0-A
  6
Continuous
 62
     2
370
     9
100
AcDbLine
 10
-313.3336978782905
 20
792.6963067244736
 30
0.0
 11
-311.7368845536482
 21
789.9304347952409
 31
0.0
  0
LINE
  5
18F
330
1F
100
AcDbEntity
  8
0-A
  6
Continuous
 62
     2
370
     9
100
AcDbLine
 10
-309.9441133234685
 20
790.9654690927567
 30
0.0
 11
-311.7368845536482
 21
789.9304347952409
 31
0.0
  0
LINE
  5
190
330
1F
100
AcDbEntity
  8
0-A
  6
Continuous
 62
     2
370
     9
100
AcDbLine
 10
-311.5410092262421
 20
793.7313410219895
 30
0.0
 11
-313.3336978782905
 21
792.6963067244736
 31
0.0
  0
LINE
  5
191
330
1F
100
AcDbEntity
  8
0-A
  6
JWW_DASHED1
 62
     2
370
     9
100
AcDbLine
 10
-324.7620157792342
 20
772.7071139532984
 30
0.0
 11
-334.7619797433552
 21
790.0277118338937
 31
0.0
  0
LINE
  5
192
330
1F
100
AcDbEntity
  8
0-A
  6
JWW_DASHED1
 62
     2
370
     9
100
AcDbLine
 10
-334.7619797433552
 20
790.0277118338937
 30
0.0
 11
-331.8226111602946
 21
790.027546677631
 31
0.0
  0
LINE
  5
193
330
1F
100
AcDbEntity
  8
0-A
  6
Continuous
 62
     2
370
     9
100
AcDbLine
 10
-313.9884598812428
 20
767.3803290166808
 30
0.0
 11
-333.9884703876162
 21
802.0211944653465
 31
0.0
  0
LINE
  5
194
330
1F
100
AcDbEntity
  8
0-A
  6
JWW_DASHED1
 62
     2
370
     9
100
AcDbLine
 10
-324.7620157792342
 20
772.7071139532984
 30
0.0
 11
-323.2923727767694
 21
775.252832584527
 31
0.0
  0
LINE
  5
195
330
1F
100
AcDbEntity
  8
0-A
  6
JWW_DASHED1
 62
     2
370
     9
100
AcDbLine
 10
-326.2120051864532
 20
775.2186452381756
 30
0.0
 11
-336.3154395490734
 21
769.3853260442609
 31
0.0
  0
LINE
  5
196
330
1F
100
AcDbEntity
  8
0-A
  6
JWW_DASHED1
 62
     2
370
     9
100
AcDbLine
 10
-324.7620157792342
 20
772.7071139532984
 30
0.0
 11
-334.8655327199855
 21
766.8739599156459
 31
0.0
  0
LINE
  5
197
330
1F
100
AcDbEntity
  8
0-A
  6
JWW_DASHED1
 62
     2
370
     9
100
AcDbLine
 10
-333.3119903361361
 20
787.5161805490166
 30
0.0
 11
-343.4155072768877
 21
781.6828613551013
 31
0.0
  0
LINE
  5
198
330
1F
100
AcDbEntity
  8
0-A
  6
JWW_DASHED1
 62
     2
370
     9
100
AcDbLine
 10
-334.7619797433552
 20
790.0277118338937
 30
0.0
 11
-344.8654141059754
 21
784.194392639979
 31
0.0
  0
LINE
  5
199
330
1F
100
AcDbEntity
  8
0-A
  6
Continuous
 62
     2
370
     9
100
AcDbLine
 10
-319.736475865541
 20
775.2944519626942
 30
0.0
 11
-319.0533069854271
 21
775.3025446195602
 31
0.0
  0
LINE
  5
19A
330
1F
100
AcDbEntity
  8
0-A
  6
JWW_DASHED1
 62
     2
370
     9
100
AcDbLine
 10
-326.2120051864532
 20
775.2186452381756
 30
0.0
 11
-319.736475865541
 21
775.2944519626942
 31
0.0
  0
LINE
  5
19B
330
1F
100
AcDbEntity
  8
0-A
  6
Continuous
 62
     2
370
     9
100
AcDbLine
 10
-330.0086173503749
 20
793.0862406603973
 30
0.0
 11
-329.659972480093
 21
793.6738666426157
 31
0.0
  0
LINE
  5
19C
330
1F
100
AcDbEntity
  8
0-A
  6
JWW_DASHED1
 62
     2
370
     9
100
AcDbLine
 10
-333.3119903361361
 20
787.5161805490166
 30
0.0
 11
-330.0085347722435
 21
793.0860755041346
 31
0.0
  0
LINE
  5
19D
330
1F
100
AcDbEntity
  8
0-A
  6
JWW_DASHED1
 62
     2
370
     9
100
AcDbLine
 10
-804.5937259662452
 20
763.1021211911093
 30
0.0
 11
-790.2383436238023
 21
787.966231364515
 31
0.0
  0
LINE
  5
19E
330
1F
100
AcDbEntity
  8
0-A
  6
JWW_DASHED1
 62
     2
370
     9
100
AcDbLine
 10
-800.7709365347063
 20
766.4506644146832
 30
0.0
 11
-787.7541044113144
 21
758.9353938427718
 31
0.0
  0
LINE
  5
19F
330
1F
100
AcDbEntity
  8
0-A
  6
JWW_DASHED1
 62
     2
370
     9
100
AcDbLine
 10
-805.5822687758482
 20
758.117044561746
 30
0.0
 11
-792.5654366524564
 21
750.6017739898346
 31
0.0
  0
LINE
  5
1A0
330
1F
100
AcDbEntity
  8
0-A
  6
JWW_DASHED1
 62
     2
370
     9
100
AcDbLine
 10
-791.2268038552738
 20
782.9814850476765
 30
0.0
 11
-778.209971731882
 21
775.4662144757657
 31
0.0
  0
LINE
  5
1A1
330
1F
100
AcDbEntity
  8
0-A
  6
JWW_DASHED1
 62
     2
370
     9
100
AcDbLine
 10
-773.3987220688715
 20
783.799504016178
 30
0.0
 11
-792.5654366524564
 21
750.6017739898346
 31
0.0
  0
LINE
  5
1A2
330
1F
100
AcDbEntity
  8
0-A
  6
JWW_DASHED1
 62
     2
370
     9
100
AcDbLine
 10
-786.4155541922634
 20
791.3147745880889
 30
0.0
 11
-773.3987220688715
 21
783.799504016178
 31
0.0
  0
LINE
  5
1A3
330
1F
100
AcDbEntity
  8
0-A
  6
Continuous
 62
     2
370
     9
100
AcDbLine
 10
-810.7986467509388
 20
806.3545644826155
 30
0.0
 11
-803.293037820388
 21
802.0211944653465
 31
0.0
  0
LINE
  5
1A4
330
1F
100
AcDbEntity
  8
0-A
  6
Continuous
 62
     2
370
     9
100
AcDbLine
 10
-830.7986159682466
 20
771.7136990339498
 30
0.0
 11
-823.2929657486301
 21
767.3803290166808
 31
0.0
  0
LINE
  5
1A5
330
1F
100
AcDbEntity
  8
0-A
  6
Continuous
 62
     2
370
     9
100
AcDbLine
 10
-825.5447062324873
 20
789.9302696389782
 30
0.0
 11
-823.9478516187794
 21
792.6961415682109
 31
0.0
  0
LINE
  5
1A6
330
1F
100
AcDbEntity
  8
0-A
  6
Continuous
 62
     2
370
     9
100
AcDbLine
 10
-825.7405815598931
 20
793.7311758657268
 30
0.0
 11
-823.9478516187794
 21
792.6961415682109
 31
0.0
  0
LINE
  5
1A7
330
1F
100
AcDbEntity
  8
0-A
  6
Continuous
 62
     2
370
     9
100
AcDbLine
 10
-827.3374361736014
 20
790.9653039364946
 30
0.0
 11
-825.5447062324873
 21
789.9302696389782
 31
0.0
  0
LINE
  5
1A8
330
1F
100
AcDbEntity
  8
0-A
  6
JWW_DASHED1
 62
     2
370
     9
100
AcDbLine
 10
-802.5195284646488
 20
790.0277118338937
 30
0.0
 11
-812.51949242877
 21
772.7071139532984
 31
0.0
  0
LINE
  5
1A9
330
1F
100
AcDbEntity
  8
0-A
  6
JWW_DASHED1
 62
     2
370
     9
100
AcDbLine
 10
-812.51949242877
 20
772.7071139532984
 30
0.0
 11
-813.9891354312346
 21
775.252832584527
 31
0.0
  0
LINE
  5
1AA
330
1F
100
AcDbEntity
  8
0-A
  6
Continuous
 62
     2
370
     9
100
AcDbLine
 10
-803.293037820388
 20
802.0211944653465
 30
0.0
 11
-823.2929657486301
 21
767.3803290166808
 31
0.0
  0
LINE
  5
1AB
330
1F
100
AcDbEntity
  8
0-A
  6
JWW_DASHED1
 62
     2
370
     9
100
AcDbLine
 10
-802.5195284646488
 20
790.0277118338937
 30
0.0
 11
-805.4589383367752
 21
790.027546677631
 31
0.0
  0
LINE
  5
1AC
330
1F
100
AcDbEntity
  8
0-A
  6
JWW_DASHED1
 62
     2
370
     9
100
AcDbLine
 10
-803.9694352937365
 20
787.5161805490166
 30
0.0
 11
-793.8660009311163
 21
781.683026511364
 31
0.0
  0
LINE
  5
1AD
330
1F
100
AcDbEntity
  8
0-A
  6
JWW_DASHED1
 62
     2
370
     9
100
AcDbLine
 10
-802.5195284646488
 20
790.0277118338937
 30
0.0
 11
-792.4160528129632
 21
784.194392639979
 31
0.0
  0
LINE
  5
1AE
330
1F
100
AcDbEntity
  8
0-A
  6
JWW_DASHED1
 62
     2
370
     9
100
AcDbLine
 10
-811.069503021551
 20
775.2186452381756
 30
0.0
 11
-800.9660273698651
 21
769.3853260442609
 31
0.0
  0
LINE
  5
1AF
330
1F
100
AcDbEntity
  8
0-A
  6
JWW_DASHED1
 62
     2
370
     9
100
AcDbLine
 10
-812.51949242877
 20
772.7071139532984
 30
0.0
 11
-802.4160167770842
 21
766.8739599156459
 31
0.0
  0
LINE
  5
1B0
330
1F
100
AcDbEntity
  8
0-A
  6
Continuous
 62
     2
370
     9
100
AcDbLine
 10
-807.2728908576291
 20
793.0862406603973
 30
0.0
 11
-807.6214944388454
 21
793.6738666426157
 31
0.0
  0
LINE
  5
1B1
330
1F
100
AcDbEntity
  8
0-A
  6
JWW_DASHED1
 62
     2
370
     9
100
AcDbLine
 10
-803.9694352937365
 20
787.5161805490166
 30
0.0
 11
-807.2728908576291
 21
793.0862406603973
 31
0.0
  0
LINE
  5
1B2
330
1F
100
AcDbEntity
  8
0-A
  6
Continuous
 62
     2
370
     9
100
AcDbLine
 10
-817.5449910533973
 20
775.2944519626942
 30
0.0
 11
-818.2282425116426
 21
775.3025446195602
 31
0.0
  0
LINE
  5
1B3
330
1F
100
AcDbEntity
  8
0-A
  6
JWW_DASHED1
 62
     2
370
     9
100
AcDbLine
 10
-811.069503021551
 20
775.2186452381756
 30
0.0
 11
-817.5449497643317
 21
775.2946171189569
 31
0.0
  0
LINE
  5
1B4
330
1F
100
AcDbEntity
  8
蓋
  6
Continuous
 62
     6
370
     9
100
AcDbLine
 10
-334.7338206005874
 20
710.5224779710551
 30
0.0
 11
-304.2938698466106
 21
719.2509864477933
 31
0.0
  0
LINE
  5
1B5
330
1F
100
AcDbEntity
  8
蓋
  6
Continuous
 62
     6
370
     9
100
AcDbLine
 10
-304.2938698466106
 20
719.2509864477933
 30
0.0
 11
-299.7758551277902
 21
727.4017783180676
 31
0.0
  0
LINE
  5
1B6
330
1F
100
AcDbEntity
  8
蓋
  6
Continuous
 62
     6
370
     9
100
AcDbLine
 10
-393.6014582054075
 20
812.4841740115778
 30
0.0
 11
-370.8222806906647
 21
834.4816669355845
 31
0.0
  0
LINE
  5
1B7
330
1F
100
AcDbEntity
  8
蓋
  6
Continuous
 62
     6
370
     9
100
AcDbLine
 10
-370.8222806906647
 20
834.4816669355845
 30
0.0
 11
-361.5045772472137
 21
834.3191531732174
 31
0.0
  0
LINE
  5
1B8
330
1F
100
AcDbEntity
  8
蓋
  6
Continuous
 62
     6
370
     9
100
AcDbLine
 10
-743.6800500025968
 20
812.4841740115778
 30
0.0
 11
-766.459144939208
 21
834.4816669355845
 31
0.0
  0
LINE
  5
1B9
330
1F
100
AcDbEntity
  8
蓋
  6
Continuous
 62
     6
370
     9
100
AcDbLine
 10
-802.5476876074168
 20
710.5224779710551
 30
0.0
 11
-832.9876383613936
 21
719.251151604056
 31
0.0
  0
LINE
  5
1BA
330
1F
100
AcDbEntity
  8
蓋
  6
Continuous
 62
     6
370
     9
100
AcDbLine
 10
-832.9876383613936
 20
719.251151604056
 30
0.0
 11
-837.5056943692795
 21
727.4016131618049
 31
0.0
  0
LINE
  5
1BB
330
1F
100
AcDbEntity
  8
受け
  6
Continuous
 62
     3
370
     9
100
AcDbLine
 10
-328.6416189650965
 20
685.4798338778124
 30
0.0
 11
-323.7605907811509
 21
686.5616073976355
 31
0.0
  0
LINE
  5
1BC
330
1F
100
AcDbEntity
  8
受け
  6
JWW_DASHED1
 62
     3
370
     9
100
AcDbLine
 10
-330.4297658199242
 20
724.347048085603
 30
0.0
 11
-325.5482421671908
 21
725.4296473867385
 31
0.0
  0
LINE
  5
1BD
330
1F
100
AcDbEntity
  8
受け
  6
Continuous
 62
     3
370
     9
100
AcDbLine
 10
-323.7605907811509
 20
686.5616073976355
 30
0.0
 11
-327.3674383993814
 21
702.833463010922
 31
0.0
  0
LINE
  5
1BE
330
1F
100
AcDbEntity
  8
受け
  6
Continuous
 62
     3
370
     9
100
AcDbLine
 10
-324.1133645579969
 20
703.5548655658204
 30
0.0
 11
-327.3674383993814
 21
702.833463010922
 31
0.0
  0
LINE
  5
1BF
330
1F
100
AcDbEntity
  8
受け
  6
Continuous
 62
     3
370
     9
100
AcDbLine
 10
-330.0768268868157
 20
707.354120229943
 30
0.0
 11
-326.8226704672996
 21
708.075522784842
 31
0.0
  0
LINE
  5
1C0
330
1F
100
AcDbEntity
  8
受け
  6
Continuous
 62
     3
370
     9
100
AcDbLine
 10
-332.6098284858268
 20
703.3783135211348
 30
0.0
 11
-328.6416189650965
 21
685.4798338778124
 31
0.0
  0
LINE
  5
1C1
330
1F
100
AcDbEntity
  8
受け
  6
Continuous
 62
     3
370
     9
100
AcDbLine
 10
-412.2428932958935
 20
830.2815780222079
 30
0.0
 11
-408.8656128826328
 21
833.9677006464717
 31
0.0
  0
LINE
  5
1C2
330
1F
100
AcDbEntity
  8
受け
  6
JWW_DASHED1
 62
     3
370
     9
100
AcDbLine
 10
-379.4770468961664
 20
809.2993006442094
 30
0.0
 11
-376.098610389068
 21
812.9855884247354
 31
0.0
  0
LINE
  5
1C3
330
1F
100
AcDbEntity
  8
受け
  6
Continuous
 62
     3
370
     9
100
AcDbLine
 10
-408.8656128826328
 20
833.9677006464717
 30
0.0
 11
-396.5771611662332
 21
822.7081724458731
 31
0.0
  0
LINE
  5
1C4
330
1F
100
AcDbEntity
  8
受け
  6
Continuous
 62
     3
370
     9
100
AcDbLine
 10
-394.3252555261134
 20
825.1655324766278
 30
0.0
 11
-396.5771611662332
 21
822.7081724458731
 31
0.0
  0
LINE
  5
1C5
330
1F
100
AcDbEntity
  8
受け
  6
Continuous
 62
     3
370
     9
100
AcDbLine
 10
-394.016826205767
 20
818.1014688140533
 30
0.0
 11
-391.7649205656472
 21
820.5588288448081
 31
0.0
  0
LINE
  5
1C6
330
1F
100
AcDbEntity
  8
受け
  6
Continuous
 62
     3
370
     9
100
AcDbLine
 10
-398.7265047672979
 20
817.8956841108931
 30
0.0
 11
-412.2428932958935
 21
830.2815780222079
 31
0.0
  0
LINE
  5
1C7
330
1F
100
AcDbEntity
  8
受け
  6
Continuous
 62
     3
370
     9
100
AcDbLine
 10
-326.8226704672996
 20
708.075522784842
 30
0.0
 11
-327.8055153858442
 21
712.5091426534897
 31
0.0
  0
LINE
  5
1C8
330
1F
100
AcDbEntity
  8
受け
  6
Continuous
 62
     3
370
     9
100
AcDbLine
 10
-321.5805281152483
 20
707.5305071183664
 30
0.0
 11
-322.9903019725319
 21
713.8898490085614
 31
0.0
  0
LINE
  5
1C9
330
1F
100
AcDbEntity
  8
受け
  6
JWW_DASHED1
 62
     3
370
     9
100
AcDbLine
 10
-322.9903019725319
 20
713.8898490085614
 30
0.0
 11
-325.5482421671908
 21
725.4296473867385
 31
0.0
  0
LINE
  5
1CA
330
1F
100
AcDbEntity
  8
受け
  6
JWW_DASHED1
 62
     3
370
     9
100
AcDbLine
 10
-327.8055153858442
 20
712.5091426534897
 30
0.0
 11
-330.4297658199242
 21
724.347048085603
 31
0.0
  0
LINE
  5
1CB
330
1F
100
AcDbEntity
  8
受け
  6
Continuous
 62
     3
370
     9
100
AcDbLine
 10
-391.7649205656472
 20
820.5588288448081
 30
0.0
 11
-388.4167902327299
 21
817.490886111338
 31
0.0
  0
LINE
  5
1CC
330
1F
100
AcDbEntity
  8
受け
  6
Continuous
 62
     3
370
     9
100
AcDbLine
 10
-389.6158246989763
 20
825.3711520235254
 30
0.0
 11
-384.8134108960131
 21
820.9707285636534
 31
0.0
  0
LINE
  5
1CD
330
1F
100
AcDbEntity
  8
受け
  6
JWW_DASHED1
 62
     3
370
     9
100
AcDbLine
 10
-384.8134108960131
 20
820.9707285636534
 30
0.0
 11
-376.098610389068
 21
812.9855884247354
 31
0.0
  0
LINE
  5
1CE
330
1F
100
AcDbEntity
  8
受け
  6
JWW_DASHED1
 62
     3
370
     9
100
AcDbLine
 10
-388.4167902327299
 20
817.490886111338
 30
0.0
 11
-379.4770468961664
 21
809.2993006442094
 31
0.0
  0
LINE
  5
1CF
330
1F
100
AcDbEntity
  8
受け
  6
Continuous
 62
     3
370
     9
100
AcDbLine
 10
-725.0385736230451
 20
830.2815780222079
 30
0.0
 11
-728.4159779035025
 21
833.9677006464717
 31
0.0
  0
LINE
  5
1D0
330
1F
100
AcDbEntity
  8
受け
  6
JWW_DASHED1
 62
     3
370
     9
100
AcDbLine
 10
-757.804543889969
 20
809.2993006442094
 30
0.0
 11
-761.1829391080018
 21
812.9855884247354
 31
0.0
  0
LINE
  5
1D1
330
1F
100
AcDbEntity
  8
受け
  6
Continuous
 62
     3
370
     9
100
AcDbLine
 10
-728.4159779035025
 20
833.9677006464717
 30
0.0
 11
-740.7044296199022
 21
822.7081724458731
 31
0.0
  0
LINE
  5
1D2
330
1F
100
AcDbEntity
  8
受け
  6
Continuous
 62
     3
370
     9
100
AcDbLine
 10
-742.9562526818906
 20
825.1655324766278
 30
0.0
 11
-740.7044296199022
 21
822.7081724458731
 31
0.0
  0
LINE
  5
1D3
330
1F
100
AcDbEntity
  8
受け
  6
Continuous
 62
     3
370
     9
100
AcDbLine
 10
-738.5550447297717
 20
817.8956841108931
 30
0.0
 11
-725.0385736230451
 21
830.2815780222079
 31
0.0
  0
LINE
  5
1D4
330
1F
100
AcDbEntity
  8
受け
  6
Continuous
 62
     3
370
     9
100
AcDbLine
 10
-808.6399305319733
 20
685.4798338778124
 30
0.0
 11
-813.520958715919
 21
686.5616073976355
 31
0.0
  0
LINE
  5
1D5
330
1F
100
AcDbEntity
  8
受け
  6
JWW_DASHED1
 62
     3
370
     9
100
AcDbLine
 10
-806.8517836771455
 20
724.347048085603
 30
0.0
 11
-811.7333073298789
 21
725.4296473867385
 31
0.0
  0
LINE
  5
1D6
330
1F
100
AcDbEntity
  8
受け
  6
Continuous
 62
     3
370
     9
100
AcDbLine
 10
-813.520958715919
 20
686.5616073976355
 30
0.0
 11
-809.9141110976884
 21
702.833463010922
 31
0.0
  0
LINE
  5
1D7
330
1F
100
AcDbEntity
  8
受け
  6
Continuous
 62
     3
370
     9
100
AcDbLine
 10
-804.6716797221774
 20
703.3783135211348
 30
0.0
 11
-808.6399305319733
 21
685.4798338778124
 31
0.0
  0
LINE
  5
1D8
330
1F
100
AcDbEntity
  8
受け
  6
Continuous
 62
     3
370
     9
100
AcDbLine
 10
-745.516587642357
 20
820.5588288448081
 30
0.0
 11
-748.8647179752743
 21
817.490886111338
 31
0.0
  0
LINE
  5
1D9
330
1F
100
AcDbEntity
  8
受け
  6
Continuous
 62
     3
370
     9
100
AcDbLine
 10
-747.6656422199621
 20
825.3711520235254
 30
0.0
 11
-752.4680147338597
 21
820.9707285636534
 31
0.0
  0
LINE
  5
1DA
330
1F
100
AcDbEntity
  8
受け
  6
JWW_DASHED1
 62
     3
370
     9
100
AcDbLine
 10
-752.4680147338597
 20
820.9707285636534
 30
0.0
 11
-761.1829391080018
 21
812.9855884247354
 31
0.0
  0
LINE
  5
1DB
330
1F
100
AcDbEntity
  8
受け
  6
JWW_DASHED1
 62
     3
370
     9
100
AcDbLine
 10
-748.8647179752743
 20
817.490886111338
 30
0.0
 11
-757.804543889969
 21
809.2993006442094
 31
0.0
  0
LINE
  5
1DC
330
1F
100
AcDbEntity
  8
受け
  6
Continuous
 62
     3
370
     9
100
AcDbLine
 10
-810.4588377407043
 20
708.075522784842
 30
0.0
 11
-809.47599282216
 21
712.5091426534897
 31
0.0
  0
LINE
  5
1DD
330
1F
100
AcDbEntity
  8
受け
  6
Continuous
 62
     3
370
     9
100
AcDbLine
 10
-815.7009388036903
 20
707.5305071183664
 30
0.0
 11
-814.2912475245379
 21
713.8898490085614
 31
0.0
  0
LINE
  5
1DE
330
1F
100
AcDbEntity
  8
受け
  6
JWW_DASHED1
 62
     3
370
     9
100
AcDbLine
 10
-814.2912475245379
 20
713.8898490085614
 30
0.0
 11
-811.7333073298789
 21
725.4296473867385
 31
0.0
  0
LINE
  5
1DF
330
1F
100
AcDbEntity
  8
受け
  6
JWW_DASHED1
 62
     3
370
     9
100
AcDbLine
 10
-809.47599282216
 20
712.5091426534897
 30
0.0
 11
-806.8517836771455
 21
724.347048085603
 31
0.0
  0
LINE
  5
1E0
330
1F
100
AcDbEntity
  8
ｶﾊﾞｰ
  6
JWW_DASHED1
 62
     4
370
     9
100
AcDbLine
 10
-387.4046300775796
 20
805.82243100462
 30
0.0
 11
-391.1286560641026
 21
802.4861093444764
 31
0.0
  0
LINE
  5
1E1
330
1F
100
AcDbEntity
  8
ｶﾊﾞｰ
  6
JWW_DASHED1
 62
     4
370
     9
100
AcDbLine
 10
-749.8768781304244
 20
805.82243100462
 30
0.0
 11
-746.1528521439016
 21
802.4859441882137
 31
0.0
  0
LINE
  5
1E2
330
1F
100
AcDbEntity
  8
ｶﾊﾞｰ
  6
JWW_DASHED1
 62
     4
370
     9
100
AcDbLine
 10
-799.8768631072924
 20
719.2199370704304
 30
0.0
 11
-795.1254413003974
 21
717.6630089831986
 31
0.0
  0
LINE
  5
1E3
330
1F
100
AcDbEntity
  8
ｶﾊﾞｰ
  6
Continuous
 62
     4
370
     9
100
AcDbLine
 10
-590.3074390340842
 20
910.1174547227089
 30
0.0
 11
-590.3074390340842
 21
880.1173150959517
 31
0.0
  0
LINE
  5
1E4
330
1F
100
AcDbEntity
  8
ｶﾊﾞｰ
  6
Continuous
 62
     4
370
     9
100
AcDbLine
 10
-546.9740691739199
 20
910.1172895664462
 30
0.0
 11
-546.9740691739199
 21
880.1173150959517
 31
0.0
  0
LINE
  5
1E5
330
1F
100
AcDbEntity
  8
ｶﾊﾞｰ
  6
Continuous
 62
     4
370
     9
100
AcDbLine
 10
-810.4142042607455
 20
528.881225632552
 30
0.0
 11
-784.4333900179836
 21
543.8812954459308
 31
0.0
  0
LINE
  5
1E6
330
1F
100
AcDbEntity
  8
ｶﾊﾞｰ
  6
Continuous
 62
     4
370
     9
100
AcDbLine
 10
-788.7475606197288
 20
491.3534287141914
 30
0.0
 11
-762.7667050879012
 21
506.3534985275697
 31
0.0
  0
LINE
  5
1E7
330
1F
100
AcDbEntity
  8
ｶﾊﾞｰ
  6
Continuous
 62
     4
370
     9
100
AcDbLine
 10
-326.8672626581932
 20
528.881225632552
 30
0.0
 11
-352.848076900955
 21
543.8812954459308
 31
0.0
  0
ARC
  5
1E8
330
1F
100
AcDbEntity
  8
受け
  6
Continuous
 62
     3
370
     9
100
AcDbCircle
 10
-635.6736347520713
 20
400.6295428257391
 30
0.0
 40
3.333333364017835
100
AcDbArc
 50
162.5022430419922
 51
252.4983673095703
  0
ARC
  5
1E9
330
1F
100
AcDbEntity
  8
受け
  6
Continuous
 62
     3
370
     9
100
AcDbCircle
 10
-635.7597224539351
 20
405.8990185392457
 30
0.0
 40
3.333333364017835
100
AcDbArc
 50
342.4990692138672
 51
72.50094604492185
  0
ARC
  5
1EA
330
1F
100
AcDbEntity
  8
0-A
  6
JWW_DASHED1
 62
     2
370
     9
100
AcDbCircle
 10
-554.2853717615592
 20
387.1769046144954
 30
0.0
 40
7.893096489335579
100
AcDbArc
 50
232.4427795410156
 51
307.5572204589844
  0
ARC
  5
1EB
330
1F
100
AcDbEntity
  8
0-A
  6
JWW_DASHED1
 62
     2
370
     9
100
AcDbCircle
 10
-568.6407541040021
 20
407.9436530698422
 30
0.0
 40
28.65972881918554
100
AcDbArc
 50
250.5480041503907
 51
289.4519958496094
  0
ARC
  5
1EC
330
1F
100
AcDbEntity
  8
0-A
  6
JWW_DASHED1
 62
     2
370
     9
100
AcDbCircle
 10
-582.9961364464449
 20
387.1769046144954
 30
0.0
 40
7.893096489335579
100
AcDbArc
 50
232.4427795410156
 51
307.5572204589844
  0
CIRCLE
  5
1ED
330
1F
100
AcDbEntity
  8
0-A
  6
Continuous
 62
     2
370
     9
100
AcDbCircle
 10
-568.5624700355446
 20
910.1174547227089
 30
0.0
 40
16.66666423952257
  0
CIRCLE
  5
1EE
330
1F
100
AcDbEntity
  8
0-A
  6
Continuous
 62
     2
370
     9
100
AcDbCircle
 10
-568.6407541040021
 20
910.1174547227089
 30
0.0
 40
10.0000000920535
  0
CIRCLE
  5
1EF
330
1F
100
AcDbEntity
  8
0-A
  6
Continuous
 62
     2
370
     9
100
AcDbCircle
 10
-568.6407541040021
 20
910.1174547227089
 30
0.0
 40
8.19499955674396
  0
CIRCLE
  5
1F0
330
1F
100
AcDbEntity
  8
0-A
  6
Continuous
 62
     2
370
     9
100
AcDbCircle
 10
-337.7397471574629
 20
510.0495305275876
 30
0.0
 40
16.66666423952257
  0
CIRCLE
  5
1F1
330
1F
100
AcDbEntity
  8
0-A
  6
Continuous
 62
     2
370
     9
100
AcDbCircle
 10
-337.7006051232341
 20
510.117409751503
 30
0.0
 40
10.0000000920535
  0
CIRCLE
  5
1F2
330
1F
100
AcDbEntity
  8
0-A
  6
Continuous
 62
     2
370
     9
100
AcDbCircle
 10
-337.7006051232341
 20
510.117409751503
 30
0.0
 40
8.19499955674396
  0
CIRCLE
  5
1F3
330
1F
100
AcDbEntity
  8
0-A
  6
Continuous
 62
     2
370
     9
100
AcDbCircle
 10
-799.6200451189986
 20
510.1851238191563
 30
0.0
 40
16.66666423952257
  0
CIRCLE
  5
1F4
330
1F
100
AcDbEntity
  8
0-A
  6
Continuous
 62
     2
370
     9
100
AcDbCircle
 10
-799.5809030847698
 20
510.117409751503
 30
0.0
 40
10.0000000920535
  0
CIRCLE
  5
1F5
330
1F
100
AcDbEntity
  8
0-A
  6
Continuous
 62
     2
370
     9
100
AcDbCircle
 10
-799.5809030847698
 20
510.117409751503
 30
0.0
 40
8.19499955674396
  0
ARC
  5
1F6
330
1F
100
AcDbEntity
  8
0-A
  6
Continuous
 62
     2
370
     9
100
AcDbCircle
 10
-568.6407541040021
 20
378.9506363322272
 30
0.0
 40
33.33333364017835
100
AcDbArc
 50
233.130126953125
 51
267.2543029785156
  0
ARC
  5
1F7
330
1F
100
AcDbEntity
  8
0-A
  6
Continuous
 62
     2
370
     9
100
AcDbCircle
 10
-568.6407541040021
 20
378.9506363322272
 30
0.0
 40
33.33333364017835
100
AcDbArc
 50
272.7459106445312
 51
306.869873046875
  0
ARC
  5
1F8
330
1F
100
AcDbEntity
  8
0-A
  6
Continuous
 62
     2
370
     9
100
AcDbCircle
 10
-557.3074836321664
 20
361.7839640883454
 30
0.0
 40
0.8333333410044587
100
AcDbArc
 50
209.3291778564453
 51
270.0
  0
ARC
  5
1F9
330
1F
100
AcDbEntity
  8
0-A
  6
Continuous
 62
     2
370
     9
100
AcDbCircle
 10
-579.9741071539689
 20
361.7839640883454
 30
0.0
 40
0.8333333410044587
100
AcDbArc
 50
270.0
 51
330.6708221435547
  0
CIRCLE
  5
1FA
330
1F
100
AcDbEntity
  8
ｶﾊﾞｰ
  6
Continuous
 62
     4
370
     9
100
AcDbCircle
 10
-568.6407541040021
 20
643.4507030231509
 30
0.0
 40
236.6666740063995
  0
ARC
  5
1FB
330
1F
100
AcDbEntity
  8
ｶﾊﾞｰ
  6
Continuous
 62
     4
370
     9
100
AcDbCircle
 10
-568.6407541040021
 20
643.4507030231509
 30
0.0
 40
243.3333304121687
100
AcDbArc
 50
335.1084442138672
 51
84.89155578613287
  0
ARC
  5
1FC
330
1F
100
AcDbEntity
  8
ｶﾊﾞｰ
  6
Continuous
 62
     4
370
     9
100
AcDbCircle
 10
-568.6407541040021
 20
643.4507030231509
 30
0.0
 40
238.3333277855754
100
AcDbArc
 50
335.2159576416016
 51
84.78408813476565
  0
ARC
  5
1FD
330
1F
100
AcDbEntity
  8
ｶﾊﾞｰ
  6
Continuous
 62
     4
370
     9
100
AcDbCircle
 10
-568.6407541040021
 20
643.4507030231509
 30
0.0
 40
243.3333304121687
100
AcDbArc
 50
95.10844421386719
 51
204.8915557861328
  0
ARC
  5
1FE
330
1F
100
AcDbEntity
  8
ｶﾊﾞｰ
  6
Continuous
 62
     4
370
     9
100
AcDbCircle
 10
-568.6407541040021
 20
643.4507030231509
 30
0.0
 40
238.3333277855754
100
AcDbArc
 50
215.2159118652344
 51
324.7840423583984
  0
ARC
  5
1FF
330
1F
100
AcDbEntity
  8
ｶﾊﾞｰ
  6
Continuous
 62
     4
370
     9
100
AcDbCircle
 10
-568.6407541040021
 20
643.4507030231509
 30
0.0
 40
231.6666713798061
100
AcDbArc
 50
341.4629821777344
 51
341.4626770019532
  0
ARC
  5
200
330
1F
100
AcDbEntity
  8
受け
  6
Continuous
 62
     3
370
     9
100
AcDbCircle
 10
-501.6078734559327
 20
400.6295428257391
 30
0.0
 40
3.333333364017835
100
AcDbArc
 50
287.5007324218751
 51
17.49685668945318
  0
ARC
  5
201
330
1F
100
AcDbEntity
  8
受け
  6
Continuous
 62
     3
370
     9
100
AcDbCircle
 10
-501.5217444650035
 20
405.8990185392457
 30
0.0
 40
3.333333364017835
100
AcDbArc
 50
107.4981536865235
 51
197.5000305175782
  0
ARC
  5
202
330
1F
100
AcDbEntity
  8
蓋
  6
JWW_DASHED1
 62
     6
370
     9
100
AcDbCircle
 10
-568.6407541040021
 20
643.4507030231509
 30
0.0
 40
248.3333330387621
100
AcDbArc
 50
256.0
 51
284.0
  0
ARC
  5
203
330
1F
100
AcDbEntity
  8
蓋
  6
Continuous
 62
     6
370
     9
100
AcDbCircle
 10
-568.6407541040021
 20
643.4507030231509
 30
0.0
 40
281.666656356674
100
AcDbArc
 50
257.340576171875
 51
282.6594390869141
  0
ARC
  5
204
330
1F
100
AcDbEntity
  8
0-A
  6
JWW_DASHED1
 62
     2
370
     9
100
AcDbCircle
 10
-353.8788171356442
 20
784.0196573141816
 30
0.0
 40
7.893096489335579
100
AcDbArc
 50
352.4427795410156
 51
67.55722045898438
  0
ARC
  5
205
330
1F
100
AcDbEntity
  8
0-A
  6
JWW_DASHED1
 62
     2
370
     9
100
AcDbCircle
 10
-364.6856520205431
 20
761.204145421674
 30
0.0
 40
28.65972881918554
100
AcDbArc
 50
10.54800415039065
 51
49.4519958496094
  0
ARC
  5
206
330
1F
100
AcDbEntity
  8
0-A
  6
JWW_DASHED1
 62
     2
370
     9
100
AcDbCircle
 10
-339.5234347932013
 20
759.1555471407759
 30
0.0
 40
7.893096489335579
100
AcDbArc
 50
352.4427795410156
 51
67.55722045898438
  0
ARC
  5
207
330
1F
100
AcDbEntity
  8
0-A
  6
Continuous
 62
     2
370
     9
100
AcDbCircle
 10
-339.5769454222736
 20
775.7007363686125
 30
0.0
 40
33.33333364017835
100
AcDbArc
 50
353.130126953125
 51
27.25430297851563
  0
ARC
  5
208
330
1F
100
AcDbEntity
  8
0-A
  6
Continuous
 62
     2
370
     9
100
AcDbCircle
 10
-339.5769454222736
 20
775.7007363686125
 30
0.0
 40
33.33333364017835
100
AcDbArc
 50
32.74591064453125
 51
66.86987304687501
  0
ARC
  5
209
330
1F
100
AcDbEntity
  8
0-A
  6
Continuous
 62
     2
370
     9
100
AcDbCircle
 10
-330.3768332377711
 20
794.0989788624665
 30
0.0
 40
0.8333333410044587
100
AcDbArc
 50
329.3291778564453
 51
30.0
  0
ARC
  5
20A
330
1F
100
AcDbEntity
  8
0-A
  6
Continuous
 62
     2
370
     9
100
AcDbCircle
 10
-319.0435627659356
 20
774.4691661186403
 30
0.0
 40
0.8333333410044587
100
AcDbArc
 50
29.99999999999999
 51
90.67082214355469
  0
ARC
  5
20B
330
1F
100
AcDbEntity
  8
0-A
  6
JWW_DASHED1
 62
     2
370
     9
100
AcDbCircle
 10
-797.7580734148029
 20
759.1555471407759
 30
0.0
 40
7.893096489335579
100
AcDbArc
 50
112.4427795410156
 51
187.5572204589843
  0
ARC
  5
20C
330
1F
100
AcDbEntity
  8
0-A
  6
JWW_DASHED1
 62
     2
370
     9
100
AcDbCircle
 10
-772.5958561874611
 20
761.204145421674
 30
0.0
 40
28.65972881918554
100
AcDbArc
 50
130.5480041503906
 51
169.4519958496094
  0
ARC
  5
20D
330
1F
100
AcDbEntity
  8
0-A
  6
JWW_DASHED1
 62
     2
370
     9
100
AcDbCircle
 10
-783.40269107236
 20
784.0196573141816
 30
0.0
 40
7.893096489335579
100
AcDbArc
 50
112.4427795410156
 51
187.5572204589843
  0
ARC
  5
20E
330
1F
100
AcDbEntity
  8
0-A
  6
Continuous
 62
     2
370
     9
100
AcDbCircle
 10
-797.7045214966648
 20
775.7007363686125
 30
0.0
 40
33.33333364017835
100
AcDbArc
 50
113.130126953125
 51
147.2543029785156
  0
ARC
  5
20F
330
1F
100
AcDbEntity
  8
0-A
  6
Continuous
 62
     2
370
     9
100
AcDbCircle
 10
-797.7045214966648
 20
775.7007363686125
 30
0.0
 40
33.33333364017835
100
AcDbArc
 50
152.7459106445313
 51
186.869873046875
  0
ARC
  5
210
330
1F
100
AcDbEntity
  8
0-A
  6
Continuous
 62
     2
370
     9
100
AcDbCircle
 10
-818.2379454420686
 20
774.4691661186403
 30
0.0
 40
0.8333333410044587
100
AcDbArc
 50
89.32917785644526
 51
150.0
  0
ARC
  5
211
330
1F
100
AcDbEntity
  8
0-A
  6
Continuous
 62
     2
370
     9
100
AcDbCircle
 10
-806.9046336811673
 20
794.0989788624665
 30
0.0
 40
0.8333333410044587
100
AcDbArc
 50
150.0
 51
210.6708221435547
  0
ARC
  5
212
330
1F
100
AcDbEntity
  8
蓋
  6
JWW_DASHED1
 62
     6
370
     9
100
AcDbCircle
 10
-568.6407541040021
 20
643.4507030231509
 30
0.0
 40
248.3333330387621
100
AcDbArc
 50
16.0
 51
44.0
  0
ARC
  5
213
330
1F
100
AcDbEntity
  8
蓋
  6
Continuous
 62
     6
370
     9
100
AcDbCircle
 10
-568.6407541040021
 20
643.4507030231509
 30
0.0
 40
281.666656356674
100
AcDbArc
 50
17.34057617187499
 51
42.65943908691405
  0
ARC
  5
214
330
1F
100
AcDbEntity
  8
蓋
  6
JWW_DASHED1
 62
     6
370
     9
100
AcDbCircle
 10
-568.6407541040021
 20
643.4507030231509
 30
0.0
 40
248.3333330387621
100
AcDbArc
 50
136.0
 51
164.0
  0
ARC
  5
215
330
1F
100
AcDbEntity
  8
蓋
  6
Continuous
 62
     6
370
     9
100
AcDbCircle
 10
-568.6407541040021
 20
643.4507030231509
 30
0.0
 40
281.666656356674
100
AcDbArc
 50
137.340576171875
 51
162.6594390869141
  0
ARC
  5
216
330
1F
100
AcDbEntity
  8
受け
  6
Continuous
 62
     3
370
     9
100
AcDbCircle
 10
-324.8350148472894
 20
706.8091045634674
 30
0.0
 40
3.333333364017835
100
AcDbArc
 50
282.5022430419922
 51
12.49836730957031
  0
ARC
  5
217
330
1F
100
AcDbEntity
  8
受け
  6
Continuous
 62
     3
370
     9
100
AcDbCircle
 10
-329.3555069100482
 20
704.099881232296
 30
0.0
 40
3.333333364017835
100
AcDbArc
 50
102.4990692138672
 51
192.5009460449218
  0
ARC
  5
218
330
1F
100
AcDbEntity
  8
受け
  6
Continuous
 62
     3
370
     9
100
AcDbCircle
 10
-391.8678954953586
 20
822.9134616802452
 30
0.0
 40
3.333333364017835
100
AcDbArc
 50
47.500732421875
 51
137.4968566894532
  0
ARC
  5
219
330
1F
100
AcDbEntity
  8
受け
  6
Continuous
 62
     3
370
     9
100
AcDbCircle
 10
-396.4744339709156
 20
820.3533744541733
 30
0.0
 40
3.333333364017835
100
AcDbArc
 50
227.4981536865234
 51
317.5000305175781
  0
ARC
  5
21A
330
1F
100
AcDbEntity
  8
受け
  6
Continuous
 62
     3
370
     9
100
AcDbCircle
 10
-745.4136127126455
 20
822.9134616802452
 30
0.0
 40
3.333333364017835
100
AcDbArc
 50
42.50224304199219
 51
132.4983673095703
  0
ARC
  5
21B
330
1F
100
AcDbEntity
  8
受け
  6
Continuous
 62
     3
370
     9
100
AcDbCircle
 10
-740.8070742370885
 20
820.3532092979106
 30
0.0
 40
3.333333364017835
100
AcDbArc
 50
222.4990692138672
 51
312.5009460449219
  0
ARC
  5
21C
330
1F
100
AcDbEntity
  8
受け
  6
Continuous
 62
     3
370
     9
100
AcDbCircle
 10
-812.4464933607148
 20
706.8091045634674
 30
0.0
 40
3.333333364017835
100
AcDbArc
 50
167.500732421875
 51
257.4968566894531
  0
ARC
  5
21D
330
1F
100
AcDbEntity
  8
ｶﾊﾞｰ
  6
Continuous
 62
     4
370
     9
100
AcDbCircle
 10
-568.6407541040021
 20
643.4507030231509
 30
0.0
 40
243.3333304121687
100
AcDbArc
 50
215.1084442138672
 51
324.8915405273438
  0
ARC
  5
21E
330
1F
100
AcDbEntity
  8
ｶﾊﾞｰ
  6
Continuous
 62
     4
370
     9
100
AcDbCircle
 10
-568.6407541040021
 20
643.4507030231509
 30
0.0
 40
238.3333277855754
100
AcDbArc
 50
95.21591186523438
 51
204.7840881347656
  0
ARC
  5
21F
330
1F
100
AcDbEntity
  8
ｶﾊﾞｰ
  6
Continuous
 62
     4
370
     9
100
AcDbCircle
 10
-568.6407541040021
 20
910.1172895664462
 30
0.0
 40
21.66668493008214
100
AcDbArc
 50
0.0
 51
179.9995574951172
  0
ARC
  5
220
330
1F
100
AcDbEntity
  8
ｶﾊﾞｰ
  6
Continuous
 62
     4
370
     9
100
AcDbCircle
 10
-799.5809030847698
 20
510.117409751503
 30
0.0
 40
21.66666428554932
100
AcDbArc
 50
120.0000152587891
 51
299.9998931884766
  0
LINE
  5
221
330
1F
100
AcDbEntity
  8
ｶﾊﾞｰ
  6
JWW_DASHED1
 62
     4
370
     9
100
AcDbLine
 10
-337.4046451007118
 20
719.2199370704304
 30
0.0
 11
-341.9121862033716
 21
717.7429357330846
 31
0.0
  0
LINE
  5
222
330
1F
100
AcDbEntity
  8
ｶﾊﾞｰ
  6
JWW_DASHED1
 62
     4
370
     9
100
AcDbLine
 10
-341.9121862033716
 20
717.7429357330846
 30
0.0
 11
-342.1561081966724
 21
717.6630089831986
 31
0.0
  0
LINE
  5
223
330
1F
100
AcDbEntity
  8
ｶﾊﾞｰ
  6
JWW_DASHED1
 62
     4
370
     9
100
AcDbLine
 10
-759.0253376938088
 20
508.5135772857018
 30
0.0
 11
-780.6920226238907
 21
546.0413742040623
 31
0.0
  0
LINE
  5
224
330
1F
100
AcDbEntity
  8
ｶﾊﾞｰ
  6
JWW_DASHED1
 62
     4
370
     9
100
AcDbLine
 10
-784.4333900179836
 20
543.8812954459308
 30
0.0
 11
-780.6920226238907
 21
546.0413742040623
 31
0.0
  0
LINE
  5
225
330
1F
100
AcDbEntity
  8
ｶﾊﾞｰ
  6
JWW_DASHED1
 62
     4
370
     9
100
AcDbLine
 10
-352.848076900955
 20
543.8812954459308
 30
0.0
 11
-356.5895268731789
 21
546.0413742040623
 31
0.0
  0
LINE
  5
226
330
1F
100
AcDbEntity
  8
ｶﾊﾞｰ
  6
JWW_DASHED1
 62
     4
370
     9
100
AcDbLine
 10
-356.5895268731789
 20
546.0413742040623
 30
0.0
 11
-378.2562118032611
 21
508.5135772857018
 31
0.0
  0
LINE
  5
227
330
1F
100
AcDbEntity
  8
ｶﾊﾞｰ
  6
Continuous
 62
     4
370
     9
100
AcDbLine
 10
-811.9740845161709
 20
-668.2110147660908
 30
0.0
 11
-811.9740845161709
 21
-422.7026795985609
 31
0.0
  0
LINE
  5
228
330
1F
100
AcDbEntity
  8
0-A
  6
Continuous
 62
     2
370
     9
100
AcDbLine
 10
-802.4984091075731
 20
-667.7025812117739
 30
0.0
 11
-802.4984091075731
 21
-422.7025970204296
 31
0.0
  0
LINE
  5
229
330
1F
100
AcDbEntity
  8
受け
  6
Continuous
 62
     3
370
     9
100
AcDbLine
 10
-639.0069835994886
 20
-596.0359113048239
 30
0.0
 11
-639.0069835994886
 21
-689.3692661418561
 31
0.0
  0
LINE
  5
22A
330
1F
100
AcDbEntity
  8
受け
  6
Continuous
 62
     3
370
     9
100
AcDbLine
 10
-619.1911223258792
 20
-596.0359113048239
 30
0.0
 11
-619.1911223258792
 21
-689.3692661418561
 31
0.0
  0
LINE
  5
22B
330
1F
100
AcDbEntity
  8
受け
  6
Continuous
 62
     3
370
     9
100
AcDbLine
 10
-653.7457349164185
 20
-689.3692661418561
 30
0.0
 11
-617.6879938911786
 21
-689.3692661418561
 31
0.0
  0
LINE
  5
22C
330
1F
100
AcDbEntity
  8
受け
  6
Continuous
 62
     3
370
     9
100
AcDbLine
 10
-653.7457349164185
 20
-596.0359113048239
 30
0.0
 11
-653.7457349164185
 21
-689.3692661418561
 31
0.0
  0
LINE
  5
22D
330
1F
100
AcDbEntity
  8
受け
  6
Continuous
 62
     3
370
     9
100
AcDbLine
 10
-498.2745246085154
 20
-596.0359113048239
 30
0.0
 11
-498.2745246085154
 21
-689.3692661418561
 31
0.0
  0
LINE
  5
22E
330
1F
100
AcDbEntity
  8
受け
  6
Continuous
 62
     3
370
     9
100
AcDbLine
 10
-518.0903858821251
 20
-596.0359113048239
 30
0.0
 11
-518.0903858821251
 21
-689.3692661418561
 31
0.0
  0
LINE
  5
22F
330
1F
100
AcDbEntity
  8
受け
  6
Continuous
 62
     3
370
     9
100
AcDbLine
 10
-483.5357320025201
 20
-689.3692661418561
 30
0.0
 11
-519.5934730277597
 21
-689.3692661418561
 31
0.0
  0
LINE
  5
230
330
1F
100
AcDbEntity
  8
受け
  6
Continuous
 62
     3
370
     9
100
AcDbLine
 10
-483.5357320025201
 20
-596.0359113048239
 30
0.0
 11
-483.5357320025201
 21
-689.3692661418561
 31
0.0
  0
LINE
  5
231
330
1F
100
AcDbEntity
  8
0-A
  6
Continuous
 62
     2
370
     9
100
AcDbLine
 10
-582.996136446445
 20
-384.36916785326
 30
0.0
 11
-554.2853717615592
 21
-384.36916785326
 31
0.0
  0
LINE
  5
232
330
1F
100
AcDbEntity
  8
0-A
  6
Continuous
 62
     2
370
     9
100
AcDbLine
 10
-576.3076381249513
 20
-216.0360419962541
 30
0.0
 11
-560.9742003955782
 21
-216.0360419962541
 31
0.0
  0
LINE
  5
233
330
1F
100
AcDbEntity
  8
0-A
  6
Continuous
 62
     2
370
     9
100
AcDbLine
 10
-560.9742003955782
 20
-384.36916785326
 30
0.0
 11
-560.9742003955782
 21
-216.0360419962541
 31
0.0
  0
LINE
  5
234
330
1F
100
AcDbEntity
  8
0-A
  6
Continuous
 62
     2
370
     9
100
AcDbLine
 10
-576.3076381249513
 20
-384.36916785326
 30
0.0
 11
-576.3076381249513
 21
-216.0360419962541
 31
0.0
  0
LINE
  5
235
330
1F
100
AcDbEntity
  8
0-A
  6
Continuous
 62
     2
370
     9
100
AcDbLine
 10
-558.6408727180125
 20
-384.36916785326
 30
0.0
 11
-558.6408727180125
 21
-218.3693696738204
 31
0.0
  0
LINE
  5
236
330
1F
100
AcDbEntity
  8
0-A
  6
Continuous
 62
     2
370
     9
100
AcDbLine
 10
-560.9742003955782
 20
-216.0360419962541
 30
0.0
 11
-558.6408727180125
 21
-218.3693696738204
 31
0.0
  0
LINE
  5
237
330
1F
100
AcDbEntity
  8
0-A
  6
Continuous
 62
     2
370
     9
100
AcDbLine
 10
-576.3076381249513
 20
-216.0360419962541
 30
0.0
 11
-578.6406354899921
 21
-218.3695348300825
 31
0.0
  0
LINE
  5
238
330
1F
100
AcDbEntity
  8
0-A
  6
Continuous
 62
     2
370
     9
100
AcDbLine
 10
-578.6406354899921
 20
-384.36916785326
 30
0.0
 11
-578.6406354899921
 21
-218.3695348300825
 31
0.0
  0
LINE
  5
239
330
1F
100
AcDbEntity
  8
0-A
  6
Continuous
 62
     2
370
     9
100
AcDbLine
 10
-558.6408727180125
 20
-218.3693696738204
 30
0.0
 11
-578.6406354899921
 21
-218.3693696738204
 31
0.0
  0
ARC
  5
23A
330
1F
100
AcDbEntity
  8
0-A
  6
Continuous
 62
     2
370
     9
100
AcDbCircle
 10
-582.996136446445
 20
-392.2621507976652
 30
0.0
 40
7.893096489335579
100
AcDbArc
 50
52.44277954101562
 51
127.5572204589844
  0
ARC
  5
23B
330
1F
100
AcDbEntity
  8
0-A
  6
Continuous
 62
     2
370
     9
100
AcDbCircle
 10
-568.6407541040021
 20
-413.0288166748807
 30
0.0
 40
28.65972881918554
100
AcDbArc
 50
70.54800415039062
 51
109.4519958496094
  0
ARC
  5
23C
330
1F
100
AcDbEntity
  8
0-A
  6
Continuous
 62
     2
370
     9
100
AcDbCircle
 10
-554.2853717615592
 20
-392.2621507976652
 30
0.0
 40
7.893096489335579
100
AcDbArc
 50
52.44277954101562
 51
127.5572204589844
  0
LINE
  5
23D
330
1F
100
AcDbEntity
  8
0-A
  6
Continuous
 62
     2
370
     9
100
AcDbLine
 10
-587.8074686875868
 20
-386.0050406339997
 30
0.0
 11
-587.8074686875868
 21
-389.3692737025174
 31
0.0
  0
LINE
  5
23E
330
1F
100
AcDbEntity
  8
0-A
  6
Continuous
 62
     2
370
     9
100
AcDbLine
 10
-549.4743698329427
 20
-386.0050406339997
 30
0.0
 11
-549.4743698329427
 21
-389.3692737025174
 31
0.0
  0
LINE
  5
23F
330
1F
100
AcDbEntity
  8
0-A
  6
Continuous
 62
     2
370
     9
100
AcDbLine
 10
-578.1848042053033
 20
-386.0050406339997
 30
0.0
 11
-578.1848042053033
 21
-389.3692737025174
 31
0.0
  0
LINE
  5
240
330
1F
100
AcDbEntity
  8
0-A
  6
Continuous
 62
     2
370
     9
100
AcDbLine
 10
-559.096704002701
 20
-386.0050406339997
 30
0.0
 11
-559.096704002701
 21
-389.3692737025174
 31
0.0
  0
LINE
  5
241
330
1F
100
AcDbEntity
  8
0-A
  6
Continuous
 62
     2
370
     9
100
AcDbLine
 10
-804.8317367851391
 20
-384.36916785326
 30
0.0
 11
-804.8317367851391
 21
-218.3693696738204
 31
0.0
  0
LINE
  5
242
330
1F
100
AcDbEntity
  8
0-A
  6
Continuous
 62
     2
370
     9
100
AcDbLine
 10
-775.6649756593021
 20
-669.3384952815793
 30
0.0
 11
-775.6649756593021
 21
-684.3693254488613
 31
0.0
  0
LINE
  5
243
330
1F
100
AcDbEntity
  8
0-A
  6
Continuous
 62
     2
370
     9
100
AcDbLine
 10
-813.9984048264714
 20
-669.3384952815793
 30
0.0
 11
-813.9984048264714
 21
-684.3693254488613
 31
0.0
  0
LINE
  5
244
330
1F
100
AcDbEntity
  8
0-A
  6
Continuous
 62
     2
370
     9
100
AcDbLine
 10
-785.2876401415856
 20
-669.3384952815793
 30
0.0
 11
-785.2876401415856
 21
-684.3693254488613
 31
0.0
  0
LINE
  5
245
330
1F
100
AcDbEntity
  8
0-A
  6
Continuous
 62
     2
370
     9
100
AcDbLine
 10
-804.3759055004502
 20
-669.3384952815793
 30
0.0
 11
-804.3759055004502
 21
-684.3693254488613
 31
0.0
  0
LINE
  5
246
330
1F
100
AcDbEntity
  8
0-A
  6
Continuous
 62
     2
370
     9
100
AcDbLine
 10
-780.476307900444
 20
-667.7025812117739
 30
0.0
 11
-809.1870725853295
 21
-667.7025812117739
 31
0.0
  0
LINE
  5
247
330
1F
100
AcDbEntity
  8
0-A
  6
Continuous
 62
     2
370
     9
100
AcDbLine
 10
-775.6649756593021
 20
-386.0050406339997
 30
0.0
 11
-775.6649756593021
 21
-401.035829512216
 31
0.0
  0
LINE
  5
248
330
1F
100
AcDbEntity
  8
0-A
  6
Continuous
 62
     2
370
     9
100
AcDbLine
 10
-813.9984048264714
 20
-386.0050406339997
 30
0.0
 11
-813.9984048264714
 21
-401.035829512216
 31
0.0
  0
LINE
  5
249
330
1F
100
AcDbEntity
  8
0-A
  6
Continuous
 62
     2
370
     9
100
AcDbLine
 10
-785.2876401415856
 20
-386.0050406339997
 30
0.0
 11
-785.2876401415856
 21
-401.035829512216
 31
0.0
  0
LINE
  5
24A
330
1F
100
AcDbEntity
  8
0-A
  6
Continuous
 62
     2
370
     9
100
AcDbLine
 10
-804.3759055004502
 20
-386.0050406339997
 30
0.0
 11
-804.3759055004502
 21
-401.035829512216
 31
0.0
  0
LINE
  5
24B
330
1F
100
AcDbEntity
  8
0-A
  6
Continuous
 62
     2
370
     9
100
AcDbLine
 10
-780.476307900444
 20
-384.36916785326
 30
0.0
 11
-809.1870725853295
 21
-384.36916785326
 31
0.0
  0
LINE
  5
24C
330
1F
100
AcDbEntity
  8
0-A
  6
Continuous
 62
     2
370
     9
100
AcDbLine
 10
-787.165136534463
 20
-216.0360419962541
 30
0.0
 11
-802.4984091075731
 21
-216.0360419962541
 31
0.0
  0
LINE
  5
24D
330
1F
100
AcDbEntity
  8
0-A
  6
Continuous
 62
     2
370
     9
100
AcDbLine
 10
-813.9984048264714
 20
-421.0667242396898
 30
0.0
 11
-813.9984048264714
 21
-406.0358527833421
 31
0.0
  0
LINE
  5
24E
330
1F
100
AcDbEntity
  8
0-A
  6
Continuous
 62
     2
370
     9
100
AcDbLine
 10
-775.6653059718269
 20
-421.0667242396898
 30
0.0
 11
-775.6653059718269
 21
-406.0358527833421
 31
0.0
  0
LINE
  5
24F
330
1F
100
AcDbEntity
  8
0-A
  6
Continuous
 62
     2
370
     9
100
AcDbLine
 10
-804.3760706567127
 20
-421.0667242396898
 30
0.0
 11
-804.3760706567127
 21
-406.0358527833421
 31
0.0
  0
LINE
  5
250
330
1F
100
AcDbEntity
  8
0-A
  6
Continuous
 62
     2
370
     9
100
AcDbLine
 10
-785.2876401415856
 20
-421.0667242396898
 30
0.0
 11
-785.2876401415856
 21
-406.0358527833421
 31
0.0
  0
LINE
  5
251
330
1F
100
AcDbEntity
  8
0-A
  6
Continuous
 62
     2
370
     9
100
AcDbLine
 10
-809.1872377415922
 20
-422.7025970204296
 30
0.0
 11
-780.476307900444
 21
-422.7025970204296
 31
0.0
  0
LINE
  5
252
330
1F
100
AcDbEntity
  8
0-A
  6
Continuous
 62
     2
370
     9
100
AcDbLine
 10
-802.4984091075731
 20
-384.36916785326
 30
0.0
 11
-802.4984091075731
 21
-216.0360419962541
 31
0.0
  0
LINE
  5
253
330
1F
100
AcDbEntity
  8
0-A
  6
Continuous
 62
     2
370
     9
100
AcDbLine
 10
-787.165136534463
 20
-384.36916785326
 30
0.0
 11
-787.165136534463
 21
-216.0360419962541
 31
0.0
  0
LINE
  5
254
330
1F
100
AcDbEntity
  8
0-A
  6
Continuous
 62
     2
370
     9
100
AcDbLine
 10
-802.4984091075731
 20
-216.0360419962541
 30
0.0
 11
-804.8317367851391
 21
-218.3693696738204
 31
0.0
  0
LINE
  5
255
330
1F
100
AcDbEntity
  8
0-A
  6
Continuous
 62
     2
370
     9
100
AcDbLine
 10
-787.165136534463
 20
-216.0360419962541
 30
0.0
 11
-784.831808856897
 21
-218.3695348300825
 31
0.0
  0
LINE
  5
256
330
1F
100
AcDbEntity
  8
0-A
  6
Continuous
 62
     2
370
     9
100
AcDbLine
 10
-784.831808856897
 20
-384.36916785326
 30
0.0
 11
-784.831808856897
 21
-218.3695348300825
 31
0.0
  0
LINE
  5
257
330
1F
100
AcDbEntity
  8
0-A
  6
Continuous
 62
     2
370
     9
100
AcDbLine
 10
-804.8317367851391
 20
-218.3693696738204
 30
0.0
 11
-784.831808856897
 21
-218.3693696738204
 31
0.0
  0
LINE
  5
258
330
1F
100
AcDbEntity
  8
ｶﾊﾞｰ
  6
Continuous
 62
     4
370
     9
100
AcDbLine
 10
-816.4983751729687
 20
-401.035829512216
 30
0.0
 11
-816.4983751729687
 21
-406.0358527833421
 31
0.0
  0
LINE
  5
259
330
1F
100
AcDbEntity
  8
ｶﾊﾞｰ
  6
Continuous
 62
     4
370
     9
100
AcDbLine
 10
-811.9740845161709
 20
-422.7026795985609
 30
0.0
 11
-809.1872377415922
 21
-422.7026795985609
 31
0.0
  0
LINE
  5
25A
330
1F
100
AcDbEntity
  8
ｶﾊﾞｰ
  6
Continuous
 62
     4
370
     9
100
AcDbLine
 10
-763.0693332945253
 20
-399.3691550885072
 30
0.0
 11
-763.0693332945253
 21
-389.3692737025174
 31
0.0
  0
LINE
  5
25B
330
1F
100
AcDbEntity
  8
ｶﾊﾞｰ
  6
Continuous
 62
     4
370
     9
100
AcDbLine
 10
-764.7359251401025
 20
-401.035829512216
 30
0.0
 11
-816.4983751729687
 21
-401.035829512216
 31
0.0
  0
LINE
  5
25C
330
1F
100
AcDbEntity
  8
ｶﾊﾞｰ
  6
Continuous
 62
     4
370
     9
100
AcDbLine
 10
-758.7392664025077
 20
-401.0359120903474
 30
0.0
 11
-758.7392664025077
 21
-389.3692737025174
 31
0.0
  0
LINE
  5
25D
330
1F
100
AcDbEntity
  8
ｶﾊﾞｰ
  6
Continuous
 62
     4
370
     9
100
AcDbLine
 10
-763.7392070955025
 20
-406.0358527833421
 30
0.0
 11
-816.4983751729687
 21
-406.0358527833421
 31
0.0
  0
LINE
  5
25E
330
1F
100
AcDbEntity
  8
ｶﾊﾞｰ
  6
Continuous
 62
     4
370
     9
100
AcDbLine
 10
-816.4983751729687
 20
-684.3693254488613
 30
0.0
 11
-816.4983751729687
 21
-689.3692661418561
 31
0.0
  0
LINE
  5
25F
330
1F
100
AcDbEntity
  8
ｶﾊﾞｰ
  6
JWW_DASHED1
 62
     4
370
     9
100
AcDbLine
 10
-779.684218465166
 20
-656.0360254020753
 30
0.0
 11
-753.6874666430663
 21
-656.0360254020753
 31
0.0
  0
LINE
  5
260
330
1F
100
AcDbEntity
  8
ｶﾊﾞｰ
  6
JWW_DASHED1
 62
     4
370
     9
100
AcDbLine
 10
-779.684218465166
 20
-656.0360254020753
 30
0.0
 11
-779.684218465166
 21
-667.742383871053
 31
0.0
  0
LINE
  5
261
330
1F
100
AcDbEntity
  8
ｶﾊﾞｰ
  6
JWW_DASHED1
 62
     4
370
     9
100
AcDbLine
 10
-758.0175335350837
 20
-682.7026923142182
 30
0.0
 11
-758.0175335350837
 21
-656.0360254020753
 31
0.0
  0
LINE
  5
262
330
1F
100
AcDbEntity
  8
ｶﾊﾞｰ
  6
JWW_DASHED1
 62
     4
370
     9
100
AcDbLine
 10
-753.6874666430663
 20
-656.0360254020753
 30
0.0
 11
-753.6874666430663
 21
-684.3692841597956
 31
0.0
  0
LINE
  5
263
330
1F
100
AcDbEntity
  8
0-A
  6
Continuous
 62
     2
370
     9
100
AcDbLine
 10
-804.8317367851391
 20
-667.7025812117739
 30
0.0
 11
-804.8317367851391
 21
-422.7025970204296
 31
0.0
  0
LINE
  5
264
330
1F
100
AcDbEntity
  8
0-A
  6
Continuous
 62
     2
370
     9
100
AcDbLine
 10
-787.165136534463
 20
-667.7025812117739
 30
0.0
 11
-787.165136534463
 21
-422.7025970204296
 31
0.0
  0
LINE
  5
265
330
1F
100
AcDbEntity
  8
0-A
  6
Continuous
 62
     2
370
     9
100
AcDbLine
 10
-784.831808856897
 20
-667.7025812117739
 30
0.0
 11
-784.831808856897
 21
-422.7025970204296
 31
0.0
  0
LINE
  5
266
330
1F
100
AcDbEntity
  8
ｶﾊﾞｰ
  6
Continuous
 62
     4
370
     9
100
AcDbLine
 10
-775.6649756593021
 20
-682.7026097360869
 30
0.0
 11
-755.5370516275693
 21
-682.7026097360869
 31
0.0
  0
LINE
  5
267
330
1F
100
AcDbEntity
  8
ｶﾊﾞｰ
  6
Continuous
 62
     4
370
     9
100
AcDbLine
 10
-755.5370516275693
 20
-682.7026097360869
 30
0.0
 11
-755.5370516275693
 21
-702.7025789533945
 31
0.0
  0
LINE
  5
268
330
1F
100
AcDbEntity
  8
ｶﾊﾞｰ
  6
Continuous
 62
     4
370
     9
100
AcDbLine
 10
-816.4983751729687
 20
-684.3693254488613
 30
0.0
 11
-759.684125380661
 21
-684.3693254488613
 31
0.0
  0
LINE
  5
269
330
1F
100
AcDbEntity
  8
ｶﾊﾞｰ
  6
Continuous
 62
     4
370
     9
100
AcDbLine
 10
-816.4983751729687
 20
-689.3692661418561
 30
0.0
 11
-758.687407336061
 21
-689.3692661418561
 31
0.0
  0
LINE
  5
26A
330
1F
100
AcDbEntity
  8
0-A
  6
JWW_CENTER1
 62
     2
370
     9
100
AcDbLine
 10
-794.8316902428866
 20
-689.3685229386747
 30
0.0
 11
-794.8316902428866
 21
-210.91140832502
 31
0.0
  0
ARC
  5
26B
330
1F
100
AcDbEntity
  8
0-A
  6
Continuous
 62
     2
370
     9
100
AcDbCircle
 10
-780.476307900444
 20
-675.5956467343103
 30
0.0
 40
7.893096489335579
100
AcDbArc
 50
52.44277954101562
 51
127.5572204589844
  0
ARC
  5
26C
330
1F
100
AcDbEntity
  8
0-A
  6
Continuous
 62
     2
370
     9
100
AcDbCircle
 10
-794.8316902428866
 20
-696.3623126115262
 30
0.0
 40
28.65972881918554
100
AcDbArc
 50
70.54800415039062
 51
109.4519958496094
  0
ARC
  5
26D
330
1F
100
AcDbEntity
  8
0-A
  6
Continuous
 62
     2
370
     9
100
AcDbCircle
 10
-809.1870725853295
 20
-675.5956467343103
 30
0.0
 40
7.893096489335579
100
AcDbArc
 50
52.44277954101562
 51
127.5572204589844
  0
ARC
  5
26E
330
1F
100
AcDbEntity
  8
0-A
  6
Continuous
 62
     2
370
     9
100
AcDbCircle
 10
-780.476307900444
 20
-392.2621507976652
 30
0.0
 40
7.893096489335579
100
AcDbArc
 50
52.44277954101562
 51
127.5572204589844
  0
ARC
  5
26F
330
1F
100
AcDbEntity
  8
0-A
  6
Continuous
 62
     2
370
     9
100
AcDbCircle
 10
-794.8316902428866
 20
-413.0288166748807
 30
0.0
 40
28.65972881918554
100
AcDbArc
 50
70.54800415039062
 51
109.4519958496094
  0
ARC
  5
270
330
1F
100
AcDbEntity
  8
0-A
  6
Continuous
 62
     2
370
     9
100
AcDbCircle
 10
-809.1870725853295
 20
-392.2621507976652
 30
0.0
 40
7.893096489335579
100
AcDbArc
 50
52.44277954101562
 51
127.5572204589844
  0
ARC
  5
271
330
1F
100
AcDbEntity
  8
0-A
  6
Continuous
 62
     2
370
     9
100
AcDbCircle
 10
-809.1872377415922
 20
-414.8095314978929
 30
0.0
 40
7.893096489335579
100
AcDbArc
 50
232.4427795410156
 51
307.5572204589844
  0
ARC
  5
272
330
1F
100
AcDbEntity
  8
0-A
  6
Continuous
 62
     2
370
     9
100
AcDbCircle
 10
-794.8318553991493
 20
-394.0428656206774
 30
0.0
 40
28.65972881918554
100
AcDbArc
 50
250.5480041503907
 51
289.4519958496094
  0
ARC
  5
273
330
1F
100
AcDbEntity
  8
0-A
  6
Continuous
 62
     2
370
     9
100
AcDbCircle
 10
-780.476307900444
 20
-414.8095314978929
 30
0.0
 40
7.893096489335579
100
AcDbArc
 50
232.4427795410156
 51
307.5572204589844
  0
ARC
  5
274
330
1F
100
AcDbEntity
  8
ｶﾊﾞｰ
  6
Continuous
 62
     4
370
     9
100
AcDbCircle
 10
-764.7359251401025
 20
-399.3691550885072
 30
0.0
 40
1.666666682008917
100
AcDbArc
 50
270.0
 51
0.0
  0
ARC
  5
275
330
1F
100
AcDbEntity
  8
ｶﾊﾞｰ
  6
Continuous
 62
     4
370
     9
100
AcDbCircle
 10
-763.7392070955025
 20
-401.0359120903474
 30
0.0
 40
5.000000046026752
100
AcDbArc
 50
270.0
 51
0.0
  0
ARC
  5
276
330
1F
100
AcDbEntity
  8
ｶﾊﾞｰ
  6
Continuous
 62
     4
370
     9
100
AcDbCircle
 10
-759.684125380661
 20
-682.7026923142182
 30
0.0
 40
1.666666682008917
100
AcDbArc
 50
270.0
 51
0.0
  0
ARC
  5
277
330
1F
100
AcDbEntity
  8
ｶﾊﾞｰ
  6
JWW_DASHED1
 62
     4
370
     9
100
AcDbCircle
 10
-758.687407336061
 20
-684.3692841597956
 30
0.0
 40
5.000000046026752
100
AcDbArc
 50
309.0554351806641
 51
0.0
  0
ARC
  5
278
330
1F
100
AcDbEntity
  8
ｶﾊﾞｰ
  6
Continuous
 62
     4
370
     9
100
AcDbCircle
 10
-758.687407336061
 20
-684.3692841597956
 30
0.0
 40
5.000000046026752
100
AcDbArc
 50
270.0
 51
309.0554351806641
  0
LINE
  5
279
330
1F
100
AcDbEntity
  8
0-A
  6
Continuous
 62
     2
370
     9
100
AcDbLine
 10
-361.6163673924395
 20
-386.0050406339997
 30
0.0
 11
-361.6163673924395
 21
-401.035829512216
 31
0.0
  0
LINE
  5
27A
330
1F
100
AcDbEntity
  8
0-A
  6
Continuous
 62
     2
370
     9
100
AcDbLine
 10
-323.2832685377954
 20
-386.0050406339997
 30
0.0
 11
-323.2832685377954
 21
-401.035829512216
 31
0.0
  0
LINE
  5
27B
330
1F
100
AcDbEntity
  8
0-A
  6
Continuous
 62
     2
370
     9
100
AcDbLine
 10
-351.993702910156
 20
-386.0050406339997
 30
0.0
 11
-351.993702910156
 21
-401.035829512216
 31
0.0
  0
LINE
  5
27C
330
1F
100
AcDbEntity
  8
0-A
  6
Continuous
 62
     2
370
     9
100
AcDbLine
 10
-332.9056027075537
 20
-386.0050406339997
 30
0.0
 11
-332.9056027075537
 21
-401.035829512216
 31
0.0
  0
LINE
  5
27D
330
1F
100
AcDbEntity
  8
0-A
  6
Continuous
 62
     2
370
     9
100
AcDbLine
 10
-356.8050351512977
 20
-384.36916785326
 30
0.0
 11
-328.0942704664119
 21
-384.36916785326
 31
0.0
  0
LINE
  5
27E
330
1F
100
AcDbEntity
  8
0-A
  6
Continuous
 62
     2
370
     9
100
AcDbLine
 10
-350.116536829804
 20
-216.0360419962541
 30
0.0
 11
-334.7830991004309
 21
-216.0360419962541
 31
0.0
  0
LINE
  5
27F
330
1F
100
AcDbEntity
  8
0-A
  6
Continuous
 62
     2
370
     9
100
AcDbLine
 10
-323.2832685377954
 20
-421.0667242396898
 30
0.0
 11
-323.2832685377954
 21
-406.0358527833421
 31
0.0
  0
LINE
  5
280
330
1F
100
AcDbEntity
  8
0-A
  6
Continuous
 62
     2
370
     9
100
AcDbLine
 10
-361.6163673924395
 20
-421.0667242396898
 30
0.0
 11
-361.6163673924395
 21
-406.0358527833421
 31
0.0
  0
LINE
  5
281
330
1F
100
AcDbEntity
  8
0-A
  6
Continuous
 62
     2
370
     9
100
AcDbLine
 10
-332.9056027075537
 20
-421.0667242396898
 30
0.0
 11
-332.9056027075537
 21
-406.0358527833421
 31
0.0
  0
LINE
  5
282
330
1F
100
AcDbEntity
  8
0-A
  6
Continuous
 62
     2
370
     9
100
AcDbLine
 10
-351.993702910156
 20
-421.0667242396898
 30
0.0
 11
-351.993702910156
 21
-406.0358527833421
 31
0.0
  0
LINE
  5
283
330
1F
100
AcDbEntity
  8
0-A
  6
Continuous
 62
     2
370
     9
100
AcDbLine
 10
-328.0942704664119
 20
-422.7025970204296
 30
0.0
 11
-356.8050351512977
 21
-422.7025970204296
 31
0.0
  0
LINE
  5
284
330
1F
100
AcDbEntity
  8
0-A
  6
Continuous
 62
     2
370
     9
100
AcDbLine
 10
-334.7830991004309
 20
-384.36916785326
 30
0.0
 11
-334.7830991004309
 21
-216.0360419962541
 31
0.0
  0
LINE
  5
285
330
1F
100
AcDbEntity
  8
0-A
  6
Continuous
 62
     2
370
     9
100
AcDbLine
 10
-350.116536829804
 20
-384.36916785326
 30
0.0
 11
-350.116536829804
 21
-216.0360419962541
 31
0.0
  0
LINE
  5
286
330
1F
100
AcDbEntity
  8
0-A
  6
Continuous
 62
     2
370
     9
100
AcDbLine
 10
-332.4497714228652
 20
-384.36916785326
 30
0.0
 11
-332.4497714228652
 21
-218.3693696738204
 31
0.0
  0
LINE
  5
287
330
1F
100
AcDbEntity
  8
0-A
  6
Continuous
 62
     2
370
     9
100
AcDbLine
 10
-334.7830991004309
 20
-216.0360419962541
 30
0.0
 11
-332.4497714228652
 21
-218.3693696738204
 31
0.0
  0
LINE
  5
288
330
1F
100
AcDbEntity
  8
0-A
  6
Continuous
 62
     2
370
     9
100
AcDbLine
 10
-350.116536829804
 20
-216.0360419962541
 30
0.0
 11
-352.4495341948448
 21
-218.3695348300825
 31
0.0
  0
LINE
  5
289
330
1F
100
AcDbEntity
  8
0-A
  6
Continuous
 62
     2
370
     9
100
AcDbLine
 10
-352.4495341948448
 20
-384.36916785326
 30
0.0
 11
-352.4495341948448
 21
-218.3695348300825
 31
0.0
  0
LINE
  5
28A
330
1F
100
AcDbEntity
  8
0-A
  6
Continuous
 62
     2
370
     9
100
AcDbLine
 10
-332.4497714228652
 20
-218.3693696738204
 30
0.0
 11
-352.4495341948448
 21
-218.3693696738204
 31
0.0
  0
LINE
  5
28B
330
1F
100
AcDbEntity
  8
ｶﾊﾞｰ
  6
Continuous
 62
     4
370
     9
100
AcDbLine
 10
-320.7831330350353
 20
-401.035829512216
 30
0.0
 11
-320.7831330350353
 21
-406.0358527833421
 31
0.0
  0
LINE
  5
28C
330
1F
100
AcDbEntity
  8
ｶﾊﾞｰ
  6
Continuous
 62
     4
370
     9
100
AcDbLine
 10
-325.3074236918334
 20
-422.7026795985609
 30
0.0
 11
-328.0942704664119
 21
-422.7026795985609
 31
0.0
  0
LINE
  5
28D
330
1F
100
AcDbEntity
  8
ｶﾊﾞｰ
  6
Continuous
 62
     4
370
     9
100
AcDbLine
 10
-374.212174913479
 20
-399.3691550885072
 30
0.0
 11
-374.212174913479
 21
-389.3692737025174
 31
0.0
  0
LINE
  5
28E
330
1F
100
AcDbEntity
  8
ｶﾊﾞｰ
  6
Continuous
 62
     4
370
     9
100
AcDbLine
 10
-372.5457482241642
 20
-401.035829512216
 30
0.0
 11
-320.7831330350353
 21
-401.035829512216
 31
0.0
  0
LINE
  5
28F
330
1F
100
AcDbEntity
  8
ｶﾊﾞｰ
  6
Continuous
 62
     4
370
     9
100
AcDbLine
 10
-378.5422418054966
 20
-401.0359120903474
 30
0.0
 11
-378.5422418054966
 21
-389.3692737025174
 31
0.0
  0
LINE
  5
290
330
1F
100
AcDbEntity
  8
ｶﾊﾞｰ
  6
Continuous
 62
     4
370
     9
100
AcDbLine
 10
-373.5423011125016
 20
-406.0358527833421
 30
0.0
 11
-320.7831330350353
 21
-406.0358527833421
 31
0.0
  0
LINE
  5
291
330
1F
100
AcDbEntity
  8
0-A
  6
Continuous
 62
     2
370
     9
100
AcDbLine
 10
-361.6163673924395
 20
-669.3384952815793
 30
0.0
 11
-361.6163673924395
 21
-684.3693254488613
 31
0.0
  0
LINE
  5
292
330
1F
100
AcDbEntity
  8
0-A
  6
Continuous
 62
     2
370
     9
100
AcDbLine
 10
-323.2832685377954
 20
-669.3384952815793
 30
0.0
 11
-323.2832685377954
 21
-684.3693254488613
 31
0.0
  0
LINE
  5
293
330
1F
100
AcDbEntity
  8
0-A
  6
Continuous
 62
     2
370
     9
100
AcDbLine
 10
-351.993702910156
 20
-669.3384952815793
 30
0.0
 11
-351.993702910156
 21
-684.3693254488613
 31
0.0
  0
LINE
  5
294
330
1F
100
AcDbEntity
  8
0-A
  6
Continuous
 62
     2
370
     9
100
AcDbLine
 10
-332.9056027075537
 20
-669.3384952815793
 30
0.0
 11
-332.9056027075537
 21
-684.3693254488613
 31
0.0
  0
LINE
  5
295
330
1F
100
AcDbEntity
  8
0-A
  6
Continuous
 62
     2
370
     9
100
AcDbLine
 10
-356.8050351512977
 20
-667.7025812117739
 30
0.0
 11
-328.0942704664119
 21
-667.7025812117739
 31
0.0
  0
LINE
  5
296
330
1F
100
AcDbEntity
  8
ｶﾊﾞｰ
  6
Continuous
 62
     4
370
     9
100
AcDbLine
 10
-320.7831330350353
 20
-684.3693254488613
 30
0.0
 11
-320.7831330350353
 21
-689.3692661418561
 31
0.0
  0
LINE
  5
297
330
1F
100
AcDbEntity
  8
ｶﾊﾞｰ
  6
JWW_DASHED1
 62
     4
370
     9
100
AcDbLine
 10
-357.5971245865758
 20
-656.0360254020753
 30
0.0
 11
-383.594041564938
 21
-656.0360254020753
 31
0.0
  0
LINE
  5
298
330
1F
100
AcDbEntity
  8
ｶﾊﾞｰ
  6
JWW_DASHED1
 62
     4
370
     9
100
AcDbLine
 10
-357.5971245865758
 20
-656.0360254020753
 30
0.0
 11
-357.5971245865758
 21
-667.742383871053
 31
0.0
  0
LINE
  5
299
330
1F
100
AcDbEntity
  8
ｶﾊﾞｰ
  6
JWW_DASHED1
 62
     4
370
     9
100
AcDbLine
 10
-379.2639746729204
 20
-682.7026923142182
 30
0.0
 11
-379.2639746729204
 21
-656.0360254020753
 31
0.0
  0
LINE
  5
29A
330
1F
100
AcDbEntity
  8
ｶﾊﾞｰ
  6
JWW_DASHED1
 62
     4
370
     9
100
AcDbLine
 10
-383.594041564938
 20
-656.0360254020753
 30
0.0
 11
-383.594041564938
 21
-684.3692841597956
 31
0.0
  0
LINE
  5
29B
330
1F
100
AcDbEntity
  8
ｶﾊﾞｰ
  6
Continuous
 62
     4
370
     9
100
AcDbLine
 10
-361.6163673924395
 20
-682.7026097360869
 30
0.0
 11
-381.7442914241723
 21
-682.7026097360869
 31
0.0
  0
LINE
  5
29C
330
1F
100
AcDbEntity
  8
ｶﾊﾞｰ
  6
Continuous
 62
     4
370
     9
100
AcDbLine
 10
-320.7831330350353
 20
-684.3693254488613
 30
0.0
 11
-377.5975479836056
 21
-684.3693254488613
 31
0.0
  0
LINE
  5
29D
330
1F
100
AcDbEntity
  8
ｶﾊﾞｰ
  6
Continuous
 62
     4
370
     9
100
AcDbLine
 10
-320.7831330350353
 20
-689.3692661418561
 30
0.0
 11
-378.5941008719431
 21
-689.3692661418561
 31
0.0
  0
LINE
  5
29E
330
1F
100
AcDbEntity
  8
ｶﾊﾞｰ
  6
Continuous
 62
     4
370
     9
100
AcDbLine
 10
-381.7442914241723
 20
-682.7026097360869
 30
0.0
 11
-381.7442914241723
 21
-702.7025789533945
 31
0.0
  0
LINE
  5
29F
330
1F
100
AcDbEntity
  8
0-A
  6
Continuous
 62
     2
370
     9
100
AcDbLine
 10
-350.116536829804
 20
-667.7025812117739
 30
0.0
 11
-350.116536829804
 21
-422.7025970204296
 31
0.0
  0
LINE
  5
2A0
330
1F
100
AcDbEntity
  8
0-A
  6
Continuous
 62
     2
370
     9
100
AcDbLine
 10
-352.4495341948448
 20
-667.7025812117739
 30
0.0
 11
-352.4495341948448
 21
-422.7025970204296
 31
0.0
  0
LINE
  5
2A1
330
1F
100
AcDbEntity
  8
0-A
  6
Continuous
 62
     2
370
     9
100
AcDbLine
 10
-334.7830991004309
 20
-667.7025812117739
 30
0.0
 11
-334.7830991004309
 21
-422.7025970204296
 31
0.0
  0
LINE
  5
2A2
330
1F
100
AcDbEntity
  8
0-A
  6
Continuous
 62
     2
370
     9
100
AcDbLine
 10
-332.4497714228652
 20
-667.7025812117739
 30
0.0
 11
-332.4497714228652
 21
-422.7025970204296
 31
0.0
  0
LINE
  5
2A3
330
1F
100
AcDbEntity
  8
ｶﾊﾞｰ
  6
Continuous
 62
     4
370
     9
100
AcDbLine
 10
-325.3074236918334
 20
-668.2110147660908
 30
0.0
 11
-325.3074236918334
 21
-422.7026795985609
 31
0.0
  0
LINE
  5
2A4
330
1F
100
AcDbEntity
  8
0-A
  6
JWW_CENTER1
 62
     2
370
     9
100
AcDbLine
 10
-342.4496528088548
 20
-684.3693254488613
 30
0.0
 11
-342.4496528088548
 21
-210.91140832502
 31
0.0
  0
ARC
  5
2A5
330
1F
100
AcDbEntity
  8
0-A
  6
Continuous
 62
     2
370
     9
100
AcDbCircle
 10
-356.8050351512977
 20
-392.2621507976652
 30
0.0
 40
7.893096489335579
100
AcDbArc
 50
52.44277954101562
 51
127.5572204589844
  0
ARC
  5
2A6
330
1F
100
AcDbEntity
  8
0-A
  6
Continuous
 62
     2
370
     9
100
AcDbCircle
 10
-342.4496528088548
 20
-413.0288166748807
 30
0.0
 40
28.65972881918554
100
AcDbArc
 50
70.54800415039062
 51
109.4519958496094
  0
ARC
  5
2A7
330
1F
100
AcDbEntity
  8
0-A
  6
Continuous
 62
     2
370
     9
100
AcDbCircle
 10
-328.0942704664119
 20
-392.2621507976652
 30
0.0
 40
7.893096489335579
100
AcDbArc
 50
52.44277954101562
 51
127.5572204589844
  0
ARC
  5
2A8
330
1F
100
AcDbEntity
  8
0-A
  6
Continuous
 62
     2
370
     9
100
AcDbCircle
 10
-328.0942704664119
 20
-414.8095314978929
 30
0.0
 40
7.893096489335579
100
AcDbArc
 50
232.4427795410156
 51
307.5572204589844
  0
ARC
  5
2A9
330
1F
100
AcDbEntity
  8
0-A
  6
Continuous
 62
     2
370
     9
100
AcDbCircle
 10
-342.4496528088548
 20
-394.0428656206774
 30
0.0
 40
28.65972881918554
100
AcDbArc
 50
250.5480041503907
 51
289.4519958496094
  0
ARC
  5
2AA
330
1F
100
AcDbEntity
  8
0-A
  6
Continuous
 62
     2
370
     9
100
AcDbCircle
 10
-356.8050351512977
 20
-414.8095314978929
 30
0.0
 40
7.893096489335579
100
AcDbArc
 50
232.4427795410156
 51
307.5572204589844
  0
ARC
  5
2AB
330
1F
100
AcDbEntity
  8
ｶﾊﾞｰ
  6
Continuous
 62
     4
370
     9
100
AcDbCircle
 10
-372.5457482241642
 20
-399.3691550885072
 30
0.0
 40
1.666666682008917
100
AcDbArc
 50
180.0
 51
270.0
  0
ARC
  5
2AC
330
1F
100
AcDbEntity
  8
ｶﾊﾞｰ
  6
Continuous
 62
     4
370
     9
100
AcDbCircle
 10
-373.5423011125016
 20
-401.0359120903474
 30
0.0
 40
5.000000046026752
100
AcDbArc
 50
180.0
 51
270.0
  0
ARC
  5
2AD
330
1F
100
AcDbEntity
  8
0-A
  6
Continuous
 62
     2
370
     9
100
AcDbCircle
 10
-356.8050351512977
 20
-675.5956467343103
 30
0.0
 40
7.893096489335579
100
AcDbArc
 50
52.44277954101562
 51
127.5572204589844
  0
ARC
  5
2AE
330
1F
100
AcDbEntity
  8
0-A
  6
Continuous
 62
     2
370
     9
100
AcDbCircle
 10
-342.4496528088548
 20
-696.3623126115262
 30
0.0
 40
28.65972881918554
100
AcDbArc
 50
70.54800415039062
 51
109.4519958496094
  0
ARC
  5
2AF
330
1F
100
AcDbEntity
  8
0-A
  6
Continuous
 62
     2
370
     9
100
AcDbCircle
 10
-328.0942704664119
 20
-675.5956467343103
 30
0.0
 40
7.893096489335579
100
AcDbArc
 50
52.44277954101562
 51
127.5572204589844
  0
ARC
  5
2B0
330
1F
100
AcDbEntity
  8
ｶﾊﾞｰ
  6
Continuous
 62
     4
370
     9
100
AcDbCircle
 10
-377.5975479836056
 20
-682.7026923142182
 30
0.0
 40
1.666666682008917
100
AcDbArc
 50
180.0
 51
270.0
  0
ARC
  5
2B1
330
1F
100
AcDbEntity
  8
ｶﾊﾞｰ
  6
JWW_DASHED1
 62
     4
370
     9
100
AcDbCircle
 10
-378.5941008719431
 20
-684.3692841597956
 30
0.0
 40
5.000000046026752
100
AcDbArc
 50
180.0
 51
230.9445648193359
  0
ARC
  5
2B2
330
1F
100
AcDbEntity
  8
ｶﾊﾞｰ
  6
Continuous
 62
     4
370
     9
100
AcDbCircle
 10
-378.5941008719431
 20
-684.3692841597956
 30
0.0
 40
5.000000046026752
100
AcDbArc
 50
230.9445648193359
 51
270.0
  0
LINE
  5
2B3
330
1F
100
AcDbEntity
  8
ｶﾊﾞｰ
  6
JWW_DASHED1
 62
     4
370
     9
100
AcDbLine
 10
-806.9738135106508
 20
-606.0359165580107
 30
0.0
 11
-330.3076946973533
 21
-606.0359165580107
 31
0.0
  0
LINE
  5
2B4
330
1F
100
AcDbEntity
  8
ｶﾊﾞｰ
  6
Continuous
 62
     4
370
     9
100
AcDbLine
 10
-775.6649756593021
 20
-389.3692737025174
 30
0.0
 11
-361.6163673924395
 21
-389.3692737025174
 31
0.0
  0
LINE
  5
2B5
330
1F
100
AcDbEntity
  8
ｶﾊﾞｰ
  6
Continuous
 62
     4
370
     9
100
AcDbLine
 10
-356.8050351512977
 20
-422.7026795985609
 30
0.0
 11
-780.476307900444
 21
-422.7026795985609
 31
0.0
  0
LINE
  5
2B6
330
1F
100
AcDbEntity
  8
0-0
  6
JWW_CENTER1
 62
     3
370
     9
100
AcDbLine
 10
-568.6407541040021
 20
-210.91140832502
 30
0.0
 11
-568.6407541040021
 21
-399.1840101786896
 31
0.0
  0
LINE
  5
2B7
330
1F
100
AcDbEntity
  8
ｶﾊﾞｰ
  6
Continuous
 62
     4
370
     9
100
AcDbLine
 10
-811.9740845161709
 20
-689.3692661418561
 30
0.0
 11
-811.9740845161709
 21
-702.7025789533945
 31
0.0
  0
LINE
  5
2B8
330
1F
100
AcDbEntity
  8
ｶﾊﾞｰ
  6
Continuous
 62
     4
370
     9
100
AcDbLine
 10
-325.3074236918334
 20
-689.3692661418561
 30
0.0
 11
-325.3074236918334
 21
-702.7025789533945
 31
0.0
  0
LINE
  5
2B9
330
1F
100
AcDbEntity
  8
ｶﾊﾞｰ
  6
Continuous
 62
     4
370
     9
100
AcDbLine
 10
-780.6920226238907
 20
-689.3692661418561
 30
0.0
 11
-780.6920226238907
 21
-702.7025789533945
 31
0.0
  0
LINE
  5
2BA
330
1F
100
AcDbEntity
  8
ｶﾊﾞｰ
  6
Continuous
 62
     4
370
     9
100
AcDbLine
 10
-356.5895268731789
 20
-689.3692661418561
 30
0.0
 11
-356.5895268731789
 21
-702.7025789533945
 31
0.0
  0
LINE
  5
2BB
330
1F
100
AcDbEntity
  8
0-A
  6
Continuous
 62
     2
370
     9
100
AcDbLine
 10
-332.4501017353904
 20
-713.7027292436301
 30
0.0
 11
-352.4500296636327
 21
-713.7027292436301
 31
0.0
  0
LINE
  5
2BC
330
1F
100
AcDbEntity
  8
0-A
  6
Continuous
 62
     2
370
     9
100
AcDbLine
 10
-332.4501017353904
 20
-713.7027292436301
 30
0.0
 11
-334.7834294129566
 21
-716.036056921196
 31
0.0
  0
LINE
  5
2BD
330
1F
100
AcDbEntity
  8
0-A
  6
Continuous
 62
     2
370
     9
100
AcDbLine
 10
-334.7834294129566
 20
-716.036056921196
 30
0.0
 11
-350.1167019860665
 21
-716.036056921196
 31
0.0
  0
LINE
  5
2BE
330
1F
100
AcDbEntity
  8
0-A
  6
Continuous
 62
     2
370
     9
100
AcDbLine
 10
-352.4500296636327
 20
-713.7027292436301
 30
0.0
 11
-350.1167019860665
 21
-716.036056921196
 31
0.0
  0
LINE
  5
2BF
330
1F
100
AcDbEntity
  8
0-A
  6
Continuous
 62
     2
370
     9
100
AcDbLine
 10
-784.831808856897
 20
-713.7027292436301
 30
0.0
 11
-804.8317367851394
 21
-713.7027292436301
 31
0.0
  0
LINE
  5
2C0
330
1F
100
AcDbEntity
  8
0-A
  6
Continuous
 62
     2
370
     9
100
AcDbLine
 10
-784.831808856897
 20
-713.7027292436301
 30
0.0
 11
-787.1651365344633
 21
-716.036056921196
 31
0.0
  0
LINE
  5
2C1
330
1F
100
AcDbEntity
  8
0-A
  6
Continuous
 62
     2
370
     9
100
AcDbLine
 10
-787.1651365344633
 20
-716.036056921196
 30
0.0
 11
-802.4984091075731
 21
-716.036056921196
 31
0.0
  0
LINE
  5
2C2
330
1F
100
AcDbEntity
  8
0-A
  6
Continuous
 62
     2
370
     9
100
AcDbLine
 10
-804.8317367851394
 20
-713.7027292436301
 30
0.0
 11
-802.4984091075731
 21
-716.036056921196
 31
0.0
  0
LINE
  5
2C3
330
1F
100
AcDbEntity
  8
0-A
  6
Continuous
 62
     2
370
     9
100
AcDbLine
 10
-804.8317367851394
 20
-713.7027292436301
 30
0.0
 11
-804.8317367851394
 21
-689.3692661418561
 31
0.0
  0
LINE
  5
2C4
330
1F
100
AcDbEntity
  8
0-A
  6
Continuous
 62
     2
370
     9
100
AcDbLine
 10
-802.4984091075731
 20
-716.036056921196
 30
0.0
 11
-802.4984091075731
 21
-689.3692661418561
 31
0.0
  0
LINE
  5
2C5
330
1F
100
AcDbEntity
  8
0-A
  6
Continuous
 62
     2
370
     9
100
AcDbLine
 10
-787.1651365344633
 20
-716.036056921196
 30
0.0
 11
-787.1651365344633
 21
-689.3692661418561
 31
0.0
  0
LINE
  5
2C6
330
1F
100
AcDbEntity
  8
0-A
  6
Continuous
 62
     2
370
     9
100
AcDbLine
 10
-784.831808856897
 20
-713.7027292436301
 30
0.0
 11
-784.831808856897
 21
-689.3692661418561
 31
0.0
  0
LINE
  5
2C7
330
1F
100
AcDbEntity
  8
ｶﾊﾞｰ
  6
Continuous
 62
     4
370
     9
100
AcDbLine
 10
-780.6920226238907
 20
-702.7025789533945
 30
0.0
 11
-784.831808856897
 21
-702.7025789533945
 31
0.0
  0
LINE
  5
2C8
330
1F
100
AcDbEntity
  8
ｶﾊﾞｰ
  6
Continuous
 62
     4
370
     9
100
AcDbLine
 10
-804.8317367851394
 20
-702.7025789533945
 30
0.0
 11
-811.9740845161709
 21
-702.7025789533945
 31
0.0
  0
LINE
  5
2C9
330
1F
100
AcDbEntity
  8
ｶﾊﾞｰ
  6
Continuous
 62
     4
370
     9
100
AcDbLine
 10
-356.5895268731789
 20
-702.7025789533945
 30
0.0
 11
-352.4500296636327
 21
-702.7025789533945
 31
0.0
  0
LINE
  5
2CA
330
1F
100
AcDbEntity
  8
ｶﾊﾞｰ
  6
Continuous
 62
     4
370
     9
100
AcDbLine
 10
-332.4501017353904
 20
-702.7025789533945
 30
0.0
 11
-325.3074236918334
 21
-702.7025789533945
 31
0.0
  0
LINE
  5
2CB
330
1F
100
AcDbEntity
  8
0-A
  6
Continuous
 62
     2
370
     9
100
AcDbLine
 10
-352.4500296636327
 20
-713.7027292436301
 30
0.0
 11
-352.4500296636327
 21
-689.3692661418561
 31
0.0
  0
LINE
  5
2CC
330
1F
100
AcDbEntity
  8
0-A
  6
Continuous
 62
     2
370
     9
100
AcDbLine
 10
-332.4501017353904
 20
-713.7027292436301
 30
0.0
 11
-332.4501017353904
 21
-689.3692661418561
 31
0.0
  0
LINE
  5
2CD
330
1F
100
AcDbEntity
  8
0-A
  6
Continuous
 62
     2
370
     9
100
AcDbLine
 10
-334.7834294129566
 20
-716.036056921196
 30
0.0
 11
-334.7834294129566
 21
-689.3692661418561
 31
0.0
  0
LINE
  5
2CE
330
1F
100
AcDbEntity
  8
0-A
  6
Continuous
 62
     2
370
     9
100
AcDbLine
 10
-350.1167019860665
 20
-716.036056921196
 30
0.0
 11
-350.1167019860665
 21
-689.3692661418561
 31
0.0
  0
LINE
  5
2CF
330
1F
100
AcDbEntity
  8
ｶﾊﾞｰ
  6
Continuous
 62
     4
370
     9
100
AcDbLine
 10
-352.848076900955
 20
-689.3692661418561
 30
0.0
 11
-352.848076900955
 21
-702.7025789533945
 31
0.0
  0
LINE
  5
2D0
330
1F
100
AcDbEntity
  8
ｶﾊﾞｰ
  6
Continuous
 62
     4
370
     9
100
AcDbLine
 10
-784.4333900179836
 20
-689.3692661418561
 30
0.0
 11
-784.4333900179836
 21
-702.7025789533945
 31
0.0
  0
LINE
  5
2D1
330
1F
100
AcDbEntity
  8
0-5
  6
Continuous
 62
     7
370
     9
100
AcDbLine
 10
-193.5742336874087
 20
-324.1626974464883
 30
0.0
 11
91.55757495283399
 21
-324.1626974464883
 31
0.0
  0
TEXT
  5
2D2
330
1F
100
AcDbEntity
  8
0-5
  6
Continuous
 62
     7
370
     9
100
AcDbText
 10
-184.9132093692101
 20
-316.7247781595079
 30
0.0
 40
22.86
  1
蓋：SUS304　２Ｂ
 41
1.145833333333333
  7
ＭＳ ゴシック
100
AcDbText
  0
TEXT
  5
2D3
330
1F
100
AcDbEntity
  8
0-5
  6
Continuous
 62
     7
370
     9
100
AcDbText
 10
-186.2304092982392
 20
-352.7534354865032
 30
0.0
 40
22.86
  1
ｔ＝１．５
 41
1.133333333333334
  7
ＭＳ ゴシック
100
AcDbText
  0
LINE
  5
2D4
330
1F
100
AcDbEntity
  8
蓋
  6
Continuous
 62
     7
370
     9
100
AcDbLine
 10
-164.880630268166
 20
-702.7025789533945
 30
0.0
 11
-164.880630268166
 21
-389.3692737025174
 31
0.0
  0
LINE
  5
2D5
330
1F
100
AcDbEntity
  8
蓋
  6
Continuous
 62
     7
370
     9
100
AcDbLine
 10
-164.880630268166
 20
-702.7025789533945
 30
0.0
 11
-168.7964160347675
 21
-672.9592331121803
 31
0.0
  0
LINE
  5
2D6
330
1F
100
AcDbEntity
  8
蓋
  6
Continuous
 62
     7
370
     9
100
AcDbLine
 10
-164.880630268166
 20
-702.7025789533945
 30
0.0
 11
-160.9648445015645
 21
-672.9592331121803
 31
0.0
  0
LINE
  5
2D7
330
1F
100
AcDbEntity
  8
蓋
  6
Continuous
 62
     7
370
     9
100
AcDbLine
 10
-164.880630268166
 20
-389.3692737025174
 30
0.0
 11
-168.7964160347675
 21
-419.1126195437317
 31
0.0
  0
LINE
  5
2D8
330
1F
100
AcDbEntity
  8
蓋
  6
Continuous
 62
     7
370
     9
100
AcDbLine
 10
-164.880630268166
 20
-389.3692737025174
 30
0.0
 11
-160.9648445015644
 21
-419.1126195437317
 31
0.0
  0
LINE
  5
2D9
330
1F
100
AcDbEntity
  8
蓋
  6
Continuous
 62
     7
370
     9
100
AcDbLine
 10
-161.880630268166
 20
-702.7025789533945
 30
0.0
 11
-305.3074236918334
 21
-702.7025789533945
 31
0.0
  0
LINE
  5
2DA
330
1F
100
AcDbEntity
  8
蓋
  6
Continuous
 62
     7
370
     9
100
AcDbLine
 10
-161.880630268166
 20
-389.3692737025174
 30
0.0
 11
-305.3074236918334
 21
-389.3692737025174
 31
0.0
  0
LINE
  5
2DB
330
1F
100
AcDbEntity
  8
0-5
  6
Continuous
 62
     7
370
     9
100
AcDbLine
 10
-193.5742336874087
 20
-204.2753365089943
 30
0.0
 11
128.760872972316
 21
-204.2753365089943
 31
0.0
  0
TEXT
  5
2DC
330
1F
100
AcDbEntity
  8
0-5
  6
Continuous
 62
     7
370
     9
100
AcDbText
 10
-189.0526694320669
 20
-193.661926484885
 30
0.0
 40
22.86
  1
調整ボルト：SUS304
 41
1.157407407407407
  7
ＭＳ ゴシック
100
AcDbText
  0
TEXT
  5
2DD
330
1F
100
AcDbEntity
  8
0-5
  6
Continuous
 62
     7
370
     9
100
AcDbText
 10
-187.840047316998
 20
-234.8447902350217
 30
0.0
 40
22.86
  1
M6×150
 41
1.142857142857143
  7
ＭＳ ゴシック
100
AcDbText
  0
LINE
  5
2DE
330
1F
100
AcDbEntity
  8
蓋
  6
Continuous
 62
     7
370
     9
100
AcDbLine
 10
-904.1036124034639
 20
-606.0359165580107
 30
0.0
 11
-904.1036124034639
 21
-389.3692737025174
 31
0.0
  0
LINE
  5
2DF
330
1F
100
AcDbEntity
  8
蓋
  6
Continuous
 62
     7
370
     9
100
AcDbLine
 10
-904.1036124034639
 20
-606.0359165580107
 30
0.0
 11
-908.0193981700654
 21
-576.2925707167965
 31
0.0
  0
LINE
  5
2E0
330
1F
100
AcDbEntity
  8
蓋
  6
Continuous
 62
     7
370
     9
100
AcDbLine
 10
-904.1036124034639
 20
-606.0359165580107
 30
0.0
 11
-900.1878266368624
 21
-576.2925707167965
 31
0.0
  0
LINE
  5
2E1
330
1F
100
AcDbEntity
  8
蓋
  6
Continuous
 62
     7
370
     9
100
AcDbLine
 10
-904.1036124034639
 20
-389.3692737025174
 30
0.0
 11
-908.0193981700654
 21
-419.1126195437317
 31
0.0
  0
LINE
  5
2E2
330
1F
100
AcDbEntity
  8
蓋
  6
Continuous
 62
     7
370
     9
100
AcDbLine
 10
-904.1036124034639
 20
-389.3692737025174
 30
0.0
 11
-900.1878266368624
 21
-419.1126195437317
 31
0.0
  0
LINE
  5
2E3
330
1F
100
AcDbEntity
  8
蓋
  6
Continuous
 62
     7
370
     9
100
AcDbLine
 10
-907.103612403464
 20
-606.0359165580107
 30
0.0
 11
-826.9738135106508
 21
-606.0359165580107
 31
0.0
  0
TEXT
  5
2E4
330
1F
100
AcDbEntity
  8
蓋
  6
Continuous
 62
     2
370
   211
100
AcDbText
 10
-914.7436124034639
 20
-518.9525951302641
 30
0.0
 40
30.48
  1
65
 50
90.0
 41
1.0625
  7
ＭＳ ゴシック
100
AcDbText
  0
LINE
  5
2E5
330
1F
100
AcDbEntity
  8
蓋
  6
Continuous
 62
     7
370
     9
100
AcDbLine
 10
-1011.23078765852
 20
-702.7025789533945
 30
0.0
 11
-1011.23078765852
 21
-422.7026795985609
 31
0.0
  0
LINE
  5
2E6
330
1F
100
AcDbEntity
  8
蓋
  6
Continuous
 62
     7
370
     9
100
AcDbLine
 10
-1011.23078765852
 20
-702.7025789533945
 30
0.0
 11
-1015.146573425121
 21
-672.9592331121803
 31
0.0
  0
LINE
  5
2E7
330
1F
100
AcDbEntity
  8
蓋
  6
Continuous
 62
     7
370
     9
100
AcDbLine
 10
-1011.23078765852
 20
-702.7025789533945
 30
0.0
 11
-1007.315001891918
 21
-672.9592331121803
 31
0.0
  0
LINE
  5
2E8
330
1F
100
AcDbEntity
  8
蓋
  6
Continuous
 62
     7
370
     9
100
AcDbLine
 10
-1011.23078765852
 20
-422.7026795985609
 30
0.0
 11
-1015.146573425121
 21
-452.4460254397752
 31
0.0
  0
LINE
  5
2E9
330
1F
100
AcDbEntity
  8
蓋
  6
Continuous
 62
     7
370
     9
100
AcDbLine
 10
-1011.23078765852
 20
-422.7026795985609
 30
0.0
 11
-1007.315001891918
 21
-452.4460254397752
 31
0.0
  0
LINE
  5
2EA
330
1F
100
AcDbEntity
  8
蓋
  6
Continuous
 62
     7
370
     9
100
AcDbLine
 10
-1014.23078765852
 20
-702.7025789533945
 30
0.0
 11
-831.9740845161709
 21
-702.7025789533945
 31
0.0
  0
TEXT
  5
2EB
330
1F
100
AcDbEntity
  8
蓋
  6
Continuous
 62
     2
370
   211
100
AcDbText
 10
-1021.87078765852
 20
-583.9526292759778
 30
0.0
 40
30.48
  1
84
 50
90.0
 41
1.0625
  7
ＭＳ ゴシック
100
AcDbText
  0
LINE
  5
2EC
330
1F
100
AcDbEntity
  8
蓋
  6
Continuous
 62
     7
370
     9
100
AcDbLine
 10
-1014.23078765852
 20
-422.7026795985609
 30
0.0
 11
-927.5064680343684
 21
-422.7026795985609
 31
0.0
  0
LINE
  5
2ED
330
1F
100
AcDbEntity
  8
蓋
  6
Continuous
 62
     7
370
     9
100
AcDbLine
 10
-907.103612403464
 20
-389.3692737025174
 30
0.0
 11
-826.9738135106508
 21
-389.3692737025174
 31
0.0
  0
LINE
  5
2EE
330
1F
100
AcDbEntity
  8
蓋
  6
Continuous
 62
     7
370
     9
100
AcDbLine
 10
-811.9740845161709
 20
-27.91756600681385
 30
0.0
 11
-325.3074236918334
 21
-27.91756600681385
 31
0.0
  0
LINE
  5
2EF
330
1F
100
AcDbEntity
  8
蓋
  6
Continuous
 62
     7
370
     9
100
AcDbLine
 10
-811.9740845161709
 20
-27.91756600681385
 30
0.0
 11
-782.2307386749566
 21
-24.0017802402123
 31
0.0
  0
LINE
  5
2F0
330
1F
100
AcDbEntity
  8
蓋
  6
Continuous
 62
     7
370
     9
100
AcDbLine
 10
-811.9740845161709
 20
-27.91756600681385
 30
0.0
 11
-782.2307386749566
 21
-31.8333517734154
 31
0.0
  0
LINE
  5
2F1
330
1F
100
AcDbEntity
  8
蓋
  6
Continuous
 62
     7
370
     9
100
AcDbLine
 10
-325.3074236918334
 20
-27.91756600681385
 30
0.0
 11
-355.0507695330476
 21
-24.0017802402123
 31
0.0
  0
LINE
  5
2F2
330
1F
100
AcDbEntity
  8
蓋
  6
Continuous
 62
     7
370
     9
100
AcDbLine
 10
-325.3074236918334
 20
-27.91756600681385
 30
0.0
 11
-355.0507695330476
 21
-31.8333517734154
 31
0.0
  0
LINE
  5
2F3
330
1F
100
AcDbEntity
  8
ｶﾊﾞｰ
  6
JWW_DASHED1
 62
     4
370
     9
100
AcDbLine
 10
-805.3074281104017
 20
-422.7025970204296
 30
0.0
 11
-805.3074281104017
 21
-667.7025812117739
 31
0.0
  0
LINE
  5
2F4
330
1F
100
AcDbEntity
  8
ｶﾊﾞｰ
  6
JWW_DASHED1
 62
     4
370
     9
100
AcDbLine
 10
-800.3074254838083
 20
-422.7025970204296
 30
0.0
 11
-800.3074254838083
 21
-667.7025812117739
 31
0.0
  0
LINE
  5
2F5
330
1F
100
AcDbEntity
  8
ｶﾊﾞｰ
  6
JWW_DASHED1
 62
     4
370
     9
100
AcDbLine
 10
-336.9740903585
 20
-667.7025812117739
 30
0.0
 11
-336.9740903585
 21
-422.7026795985609
 31
0.0
  0
LINE
  5
2F6
330
1F
100
AcDbEntity
  8
ｶﾊﾞｰ
  6
JWW_DASHED1
 62
     4
370
     9
100
AcDbLine
 10
-331.9740903585
 20
-667.7025812117739
 30
0.0
 11
-331.9740903585
 21
-422.7026795985609
 31
0.0
  0
LINE
  5
2F7
330
1F
100
AcDbEntity
  8
蓋
  6
Continuous
 62
     7
370
     9
100
AcDbLine
 10
-805.3074281104017
 20
-99.49700518207237
 30
0.0
 11
-331.9740903585
 21
-99.49700518207237
 31
0.0
  0
LINE
  5
2F8
330
1F
100
AcDbEntity
  8
蓋
  6
Continuous
 62
     7
370
     9
100
AcDbLine
 10
-805.3074281104017
 20
-99.49700518207237
 30
0.0
 11
-775.5640822691873
 21
-95.58121941547083
 31
0.0
  0
LINE
  5
2F9
330
1F
100
AcDbEntity
  8
蓋
  6
Continuous
 62
     7
370
     9
100
AcDbLine
 10
-805.3074281104017
 20
-99.49700518207237
 30
0.0
 11
-775.5640822691873
 21
-103.4127909486739
 31
0.0
  0
LINE
  5
2FA
330
1F
100
AcDbEntity
  8
蓋
  6
Continuous
 62
     7
370
     9
100
AcDbLine
 10
-331.9740903585
 20
-99.49700518207237
 30
0.0
 11
-361.7174361997144
 21
-95.58121941547083
 31
0.0
  0
LINE
  5
2FB
330
1F
100
AcDbEntity
  8
蓋
  6
Continuous
 62
     7
370
     9
100
AcDbLine
 10
-331.9740903585
 20
-99.49700518207237
 30
0.0
 11
-361.7174361997144
 21
-103.4127909486739
 31
0.0
  0
LINE
  5
2FC
330
1F
100
AcDbEntity
  8
蓋
  6
Continuous
 62
     7
370
     9
100
AcDbLine
 10
-811.9740845161709
 20
-24.91756600681385
 30
0.0
 11
-811.9740845161709
 21
-203.255916698925
 31
0.0
  0
LINE
  5
2FD
330
1F
100
AcDbEntity
  8
蓋
  6
Continuous
 62
     7
370
     9
100
AcDbLine
 10
-805.3074281104017
 20
-96.49700518207237
 30
0.0
 11
-805.3074281104017
 21
-203.255916698925
 31
0.0
  0
LINE
  5
2FE
330
1F
100
AcDbEntity
  8
蓋
  6
Continuous
 62
     7
370
     9
100
AcDbLine
 10
-331.9740903585
 20
-96.49700518207237
 30
0.0
 11
-331.9740903585
 21
-203.255916698925
 31
0.0
  0
LINE
  5
2FF
330
1F
100
AcDbEntity
  8
蓋
  6
Continuous
 62
     7
370
     9
100
AcDbLine
 10
-325.3074236918334
 20
-24.91756600681385
 30
0.0
 11
-325.3074236918334
 21
-203.255916698925
 31
0.0
  0
LINE
  5
300
330
1F
100
AcDbEntity
  8
0-5
  6
Continuous
 62
     7
370
     9
100
AcDbLine
 10
-193.5742336874087
 20
-324.1626974464883
 30
0.0
 11
-502.1122606818165
 21
-591.0359293227634
 31
0.0
  0
LINE
  5
301
330
1F
100
AcDbEntity
  8
0-5
  6
Continuous
 62
     7
370
     9
100
AcDbLine
 10
-502.1122606818165
 20
-591.0359293227634
 30
0.0
 11
-485.50057317857
 21
-572.353000261867
 31
0.0
  0
LINE
  5
302
330
1F
100
AcDbEntity
  8
0-5
  6
Continuous
 62
     7
370
     9
100
AcDbLine
 10
-502.1122606818165
 20
-591.0359293227634
 30
0.0
 11
-481.2311048449278
 21
-577.2890267292488
 31
0.0
  0
LINE
  5
303
330
1F
100
AcDbEntity
  8
0-5
  6
Continuous
 62
     7
370
     9
100
AcDbLine
 10
-193.5742336874087
 20
-204.2753365089943
 30
0.0
 11
-332.4497714228651
 21
-324.3972026693966
 31
0.0
  0
LINE
  5
304
330
1F
100
AcDbEntity
  8
0-5
  6
Continuous
 62
     7
370
     9
100
AcDbLine
 10
-332.4497714228651
 20
-324.3972026693966
 30
0.0
 11
-315.8380839196185
 21
-305.7142736085002
 31
0.0
  0
LINE
  5
305
330
1F
100
AcDbEntity
  8
0-5
  6
Continuous
 62
     7
370
     9
100
AcDbLine
 10
-332.4497714228651
 20
-324.3972026693966
 30
0.0
 11
-311.5686155859764
 21
-310.650300075882
 31
0.0
  0
LINE
  5
306
330
1F
100
AcDbEntity
  8
蓋
  6
Continuous
 62
     6
370
     9
100
AcDbLine
 10
-766.459144939208
 20
834.4816669355845
 30
0.0
 11
-766.5170957035341
 21
834.4806551751027
 31
0.0
  0
LINE
  5
307
330
1F
100
AcDbEntity
  8
蓋
  6
Continuous
 62
     6
370
     9
100
AcDbLine
 10
-766.5170957035341
 20
834.4806551751027
 30
0.0
 11
-775.7769309607903
 21
834.3189880169547
 31
0.0
  0
ARC
  5
308
330
1F
100
AcDbEntity
  8
受け
  6
Continuous
 62
     3
370
     9
100
AcDbCircle
 10
-807.9260425870214
 20
704.0997160760332
 30
0.0
 40
3.333333364017835
100
AcDbArc
 50
347.4981536865234
 51
74.17382828620275
  0
ARC
  5
309
330
1F
100
AcDbEntity
  8
受け
  6
Continuous
 62
     3
370
     9
100
AcDbCircle
 10
-807.9260425870214
 20
704.0997160760332
 30
0.0
 40
3.333333364017835
100
AcDbArc
 50
74.17382828620276
 51
77.50003051757812
  0
LINE
  5
30A
330
1F
100
AcDbEntity
  8
受け
  6
Continuous
 62
     3
370
     9
100
AcDbLine
 10
-807.2045660406962
 20
707.3540946738138
 30
0.0
 11
-810.4588377407043
 21
708.075522784842
 31
0.0
  0
LINE
  5
30B
330
1F
100
AcDbEntity
  8
受け
  6
Continuous
 62
     3
370
     9
100
AcDbLine
 10
-743.2645979844546
 20
818.1013771308417
 30
0.0
 11
-745.516587642357
 21
820.5588288448081
 31
0.0
  0
LINE
  5
30C
330
1F
100
AcDbEntity
  8
ｶﾊﾞｰ
  6
Continuous
 62
     4
370
     9
100
AcDbLine
 10
-348.4485337265258
 20
491.3041148675467
 30
0.0
 11
-374.5147618310372
 21
506.3534985275697
 31
0.0
  0
LINE
  5
30D
330
1F
100
AcDbEntity
  8
0-1
  6
JWW_CENTER1
 62
     2
370
     9
100
AcDbLine
 10
-771.4441389904405
 20
526.3621797377283
 30
0.0
 11
-826.4330736436591
 21
494.6142558503652
 31
0.0
  0
LINE
  5
30E
330
1F
100
AcDbEntity
  8
0-1
  6
JWW_CENTER1
 62
     2
370
     9
100
AcDbLine
 10
-813.8592832037104
 20
534.8483119594738
 30
0.0
 11
-785.5300409572038
 21
485.7805485320037
 31
0.0
  0
LINE
  5
30F
330
1F
100
AcDbEntity
  8
0-1
  6
JWW_CENTER1
 62
     2
370
     9
100
AcDbLine
 10
-538.6862507244554
 20
910.1173039195395
 30
0.0
 11
-596.8596958513101
 21
910.1174373774717
 31
0.0
  0
LINE
  5
310
330
1F
100
AcDbEntity
  8
0-1
  6
JWW_CENTER1
 62
     2
370
     9
100
AcDbLine
 10
-352.7498746340559
 20
484.0512460140187
 30
0.0
 11
-322.6928395593798
 21
536.1115247324045
 31
0.0
  0
LINE
  5
311
330
1F
100
AcDbEntity
  8
0-1
  6
JWW_CENTER1
 62
     2
370
     9
100
AcDbLine
 10
-304.7904481300263
 20
491.1165964930578
 30
0.0
 11
-360.8454761936257
 21
523.4799950688773
 31
0.0
  0
LINE
  5
312
330
1F
100
AcDbEntity
  8
0-5
  6
Continuous
 62
     7
370
     9
100
AcDbLine
 10
-568.6407541040021
 20
963.6098888949344
 30
0.0
 11
-443.2220869607908
 21
963.6098888949344
 31
0.0
  0
LINE
  5
313
330
1F
100
AcDbEntity
  8
0-5
  6
Continuous
 62
     7
370
     9
100
AcDbLine
 10
-568.6407541040021
 20
963.6098888949344
 30
0.0
 11
-521.0660918554033
 21
973.5026892391123
 31
0.0
  0
LINE
  5
314
330
1F
100
AcDbEntity
  8
0-5
  6
Continuous
 62
     7
370
     9
100
AcDbLine
 10
-521.0660918554033
 20
973.5026892391123
 30
0.0
 11
-514.0269344007193
 21
956.29585990544
 31
0.0
  0
TEXT
  5
315
330
1F
100
AcDbEntity
  8
0-5
  6
Continuous
 62
     2
370
     9
100
AcDbText
 10
-493.3576210590651
 20
984.246329069165
 30
0.0
 40
30.48
  1
Ａ
 41
0.9999999999999998
  7
ＭＳ ゴシック
100
AcDbText
  0
LINE
  5
316
330
1F
100
AcDbEntity
  8
0-5
  6
Continuous
 62
     7
370
     9
100
AcDbLine
 10
-568.6407541040021
 20
276.2480168831581
 30
0.0
 11
-443.2220869607908
 21
276.2480168831581
 31
0.0
  0
LINE
  5
317
330
1F
100
AcDbEntity
  8
0-5
  6
Continuous
 62
     7
370
     9
100
AcDbLine
 10
-568.6407541040021
 20
276.2480168831581
 30
0.0
 11
-521.0660918554033
 21
286.140817227336
 31
0.0
  0
LINE
  5
318
330
1F
100
AcDbEntity
  8
0-5
  6
Continuous
 62
     7
370
     9
100
AcDbLine
 10
-521.0660918554033
 20
286.140817227336
 30
0.0
 11
-514.0269344007193
 21
268.9339878936636
 31
0.0
  0
TEXT
  5
319
330
1F
100
AcDbEntity
  8
0-5
  6
Continuous
 62
     2
370
     9
100
AcDbText
 10
-493.3576210590651
 20
290.1426550634198
 30
0.0
 40
30.48
  1
Ａ
 41
0.9999999999999998
  7
ＭＳ ゴシック
100
AcDbText
  0
LINE
  5
31A
330
1F
100
AcDbEntity
  8
0-0
  6
JWW_CENTER1
 62
     3
370
     9
100
AcDbLine
 10
-568.6407541040021
 20
643.4507030231509
 30
0.0
 11
-302.1093122296559
 21
797.3328170039896
 31
0.0
  0
LINE
  5
31B
330
1F
100
AcDbEntity
  8
0-0
  6
JWW_CENTER1
 62
     3
370
     9
100
AcDbLine
 10
-568.6407541040021
 20
643.4507030231509
 30
0.0
 11
-835.8040062012547
 21
797.6973834887225
 31
0.0
  0
ARC
  5
31C
330
1F
100
AcDbEntity
  8
蓋
  6
Continuous
 62
     7
370
     9
100
AcDbCircle
 10
-568.6407541040021
 20
643.4507030231509
 30
0.0
 40
87.44193538894065
100
AcDbArc
 50
150.0000152883626
 51
270.0
  0
ARC
  5
31D
330
1F
100
AcDbEntity
  8
蓋
  6
Continuous
 62
     7
370
     9
100
AcDbCircle
 10
-568.6407541040021
 20
643.4507030231509
 30
0.0
 40
87.44193538894065
100
AcDbArc
 50
270.0
 51
30.00001842285346
  0
TEXT
  5
31E
330
1F
100
AcDbEntity
  8
蓋
  6
Continuous
 62
     2
370
     9
100
AcDbText
 10
-612.3907829583186
 20
741.532625541456
 30
0.0
 40
30.48
  1
120ﾟ
 50
0.0000168556080836
 41
1.09375
  7
ＭＳ ゴシック
100
AcDbText
  0
ARC
  5
31F
330
1F
100
AcDbEntity
  8
蓋
  6
Continuous
 62
     7
370
     9
100
AcDbCircle
 10
-568.6407541040021
 20
643.4507030231509
 30
0.0
 40
87.44193538894065
100
AcDbArc
 50
30.00001842285348
 51
150.0000152883627
  0
LWPOLYLINE
  5
320
330
1F
100
AcDbEntity
  8
蓋
  6
Continuous
 62
     7
370
     9
100
AcDbPolyline
 90
        4
 70
     1
 43
1.0
 10
-643.8677031730645
 20
687.1716505112294
 42
0.4142135623731
 10
-644.3677031730645
 20
687.6716505112292
 42
0.4142135623731
 10
-644.8677031730643
 20
687.1716505112294
 42
0.4142135623731
 10
-644.3677031730645
 20
686.6716505112294
 42
0.4142135623731
  0
LWPOLYLINE
  5
321
330
1F
100
AcDbEntity
  8
蓋
  6
Continuous
 62
     7
370
     9
100
AcDbPolyline
 90
        4
 70
     1
 43
1.0
 10
-568.1407541040021
 20
556.0087676342102
 42
0.4142135623731
 10
-568.6407541040021
 20
556.5087676342102
 42
0.4142135623731
 10
-569.1407541040021
 20
556.0087676342102
 42
0.4142135623731
 10
-568.6407541040021
 20
555.5087676342102
 42
0.4142135623731
  0
LWPOLYLINE
  5
322
330
1F
100
AcDbEntity
  8
蓋
  6
Continuous
 62
     7
370
     9
100
AcDbPolyline
 90
        4
 70
     1
 43
1.0
 10
-492.4138307591219
 20
687.1716950668168
 42
0.4142135623731
 10
-492.9138307591219
 20
687.6716950668168
 42
0.4142135623731
 10
-493.4138307591218
 20
687.1716950668168
 42
0.4142135623731
 10
-492.9138307591219
 20
686.6716950668169
 42
0.4142135623731
  0
LINE
  5
323
330
1F
100
AcDbEntity
  8
0-0
  6
JWW_CENTER1
 62
     3
370
     9
100
AcDbLine
 10
-568.6407541040021
 20
736.3751836353165
 30
0.0
 11
-568.6407541040021
 21
242.7819209879235
 31
0.0
  0
LINE
  5
324
330
1F
100
AcDbEntity
  8
0-0
  6
JWW_CENTER1
 62
     3
370
     9
100
AcDbLine
 10
-568.6407541040021
 20
988.3488383323578
 30
0.0
 11
-568.6407541040021
 21
785.4580312252228
 31
0.0
  0
TEXT
  5
325
330
1F
100
AcDbEntity
  8
蓋
  6
Continuous
 62
     2
370
   211
100
AcDbText
 10
-623.6407541040021
 20
-17.27756600681385
 30
0.0
 40
30.48
  1
φ146
 41
1.1
  7
ＭＳ ゴシック
100
AcDbText
  0
TEXT
  5
326
330
1F
100
AcDbEntity
  8
蓋
  6
Continuous
 62
     2
370
   211
100
AcDbText
 10
-623.6407592344508
 20
-88.85700518207237
 30
0.0
 40
30.48
  1
φ142
 41
1.1
  7
ＭＳ ゴシック
100
AcDbText
  0
LINE
  5
327
330
1F
100
AcDbEntity
  8
0-A
  6
Continuous
 62
     2
370
     9
100
AcDbLine
 10
-570.307511105842
 20
-539.3692699221868
 30
0.0
 11
-566.9743274146871
 21
-539.3692699221868
 31
0.0
  0
LINE
  5
328
330
1F
100
AcDbEntity
  8
0-A
  6
Continuous
 62
     2
370
     9
100
AcDbLine
 10
-555.3073587143323
 20
-551.0359083100166
 30
0.0
 11
-555.3073587143323
 21
-554.369257157434
 31
0.0
  0
LINE
  5
329
330
1F
100
AcDbEntity
  8
0-A
  6
Continuous
 62
     2
370
     9
100
AcDbLine
 10
-570.307511105842
 20
-566.0358955452639
 30
0.0
 11
-566.9743274146871
 21
-566.0358955452639
 31
0.0
  0
LINE
  5
32A
330
1F
100
AcDbEntity
  8
0-A
  6
Continuous
 62
     2
370
     9
100
AcDbLine
 10
-581.9741494936719
 20
-551.0359083100166
 30
0.0
 11
-581.9741494936719
 21
-554.369257157434
 31
0.0
  0
LINE
  5
32B
330
1F
100
AcDbEntity
  8
0-A
  6
Continuous
 62
     2
370
     9
100
AcDbLine
 10
-566.9743274146871
 20
-547.7025594625992
 30
0.0
 11
-566.9743274146871
 21
-539.3692699221868
 31
0.0
  0
LINE
  5
32C
330
1F
100
AcDbEntity
  8
0-A
  6
Continuous
 62
     2
370
     9
100
AcDbLine
 10
-563.6408134110073
 20
-551.0359083100166
 30
0.0
 11
-555.3073587143323
 21
-551.0359083100166
 31
0.0
  0
LINE
  5
32D
330
1F
100
AcDbEntity
  8
0-A
  6
Continuous
 62
     2
370
     9
100
AcDbLine
 10
-563.6408134110073
 20
-554.369257157434
 30
0.0
 11
-555.3073587143323
 21
-554.369257157434
 31
0.0
  0
LINE
  5
32E
330
1F
100
AcDbEntity
  8
0-A
  6
Continuous
 62
     2
370
     9
100
AcDbLine
 10
-566.9743274146871
 20
-557.7026060048515
 30
0.0
 11
-566.9743274146871
 21
-566.0358955452639
 31
0.0
  0
LINE
  5
32F
330
1F
100
AcDbEntity
  8
0-A
  6
Continuous
 62
     2
370
     9
100
AcDbLine
 10
-570.307511105842
 20
-557.7026060048515
 30
0.0
 11
-570.307511105842
 21
-566.0358955452639
 31
0.0
  0
LINE
  5
330
330
1F
100
AcDbEntity
  8
0-A
  6
Continuous
 62
     2
370
     9
100
AcDbLine
 10
-573.6406947969969
 20
-554.369257157434
 30
0.0
 11
-581.9741494936719
 21
-554.369257157434
 31
0.0
  0
LINE
  5
331
330
1F
100
AcDbEntity
  8
0-A
  6
Continuous
 62
     2
370
     9
100
AcDbLine
 10
-573.6406947969969
 20
-551.0359083100166
 30
0.0
 11
-581.9741494936719
 21
-551.0359083100166
 31
0.0
  0
LINE
  5
332
330
1F
100
AcDbEntity
  8
0-A
  6
Continuous
 62
     2
370
     9
100
AcDbLine
 10
-570.307511105842
 20
-547.7025594625992
 30
0.0
 11
-570.307511105842
 21
-539.3692699221868
 31
0.0
  0
LINE
  5
333
330
1F
100
AcDbEntity
  8
0-A
  6
Continuous
 62
     2
370
     9
100
AcDbLine
 10
-585.3074157629582
 20
-536.0359210747694
 30
0.0
 11
-579.6961491640665
 21
-536.0359210747694
 31
0.0
  0
LINE
  5
334
330
1F
100
AcDbEntity
  8
0-A
  6
Continuous
 62
     2
370
     9
100
AcDbLine
 10
-585.3074157629582
 20
-541.647187673661
 30
0.0
 11
-585.3074157629582
 21
-536.0359210747694
 31
0.0
  0
LINE
  5
335
330
1F
100
AcDbEntity
  8
0-A
  6
Continuous
 62
     2
370
     9
100
AcDbLine
 10
-585.3074157629582
 20
-569.3692443926814
 30
0.0
 11
-585.3074157629582
 21
-563.7580603719208
 31
0.0
  0
LINE
  5
336
330
1F
100
AcDbEntity
  8
0-A
  6
Continuous
 62
     2
370
     9
100
AcDbLine
 10
-579.6961491640665
 20
-569.3692443926814
 30
0.0
 11
-585.3074157629582
 21
-569.3692443926814
 31
0.0
  0
LINE
  5
337
330
1F
100
AcDbEntity
  8
0-A
  6
JWW_DASHED1
 62
     2
370
     9
100
AcDbLine
 10
-585.3074157629582
 20
-563.7580603719208
 30
0.0
 11
-585.3074157629582
 21
-541.647187673661
 31
0.0
  0
LINE
  5
338
330
1F
100
AcDbEntity
  8
0-A
  6
Continuous
 62
     2
370
     9
100
AcDbLine
 10
-551.974092445046
 20
-569.3692443926814
 30
0.0
 11
-557.5853590439377
 21
-569.3692443926814
 31
0.0
  0
LINE
  5
339
330
1F
100
AcDbEntity
  8
0-A
  6
Continuous
 62
     2
370
     9
100
AcDbLine
 10
-551.974092445046
 20
-563.7580603719208
 30
0.0
 11
-551.974092445046
 21
-569.3692443926814
 31
0.0
  0
LINE
  5
33A
330
1F
100
AcDbEntity
  8
0-A
  6
JWW_DASHED1
 62
     2
370
     9
100
AcDbLine
 10
-557.5853590439377
 20
-569.3692443926814
 30
0.0
 11
-579.6961491640665
 21
-569.3692443926814
 31
0.0
  0
LINE
  5
33B
330
1F
100
AcDbEntity
  8
0-A
  6
Continuous
 62
     2
370
     9
100
AcDbLine
 10
-551.974092445046
 20
-536.0359210747694
 30
0.0
 11
-551.974092445046
 21
-541.647187673661
 31
0.0
  0
LINE
  5
33C
330
1F
100
AcDbEntity
  8
0-A
  6
Continuous
 62
     2
370
     9
100
AcDbLine
 10
-557.5853590439377
 20
-536.0359210747694
 30
0.0
 11
-551.974092445046
 21
-536.0359210747694
 31
0.0
  0
LINE
  5
33D
330
1F
100
AcDbEntity
  8
0-A
  6
JWW_DASHED1
 62
     2
370
     9
100
AcDbLine
 10
-579.6961491640665
 20
-536.0359210747694
 30
0.0
 11
-557.5853590439377
 21
-536.0359210747694
 31
0.0
  0
LINE
  5
33E
330
1F
100
AcDbEntity
  8
0-A
  6
JWW_DASHED1
 62
     2
370
     9
100
AcDbLine
 10
-551.974092445046
 20
-541.647187673661
 30
0.0
 11
-551.974092445046
 21
-563.7580603719208
 31
0.0
  0
CIRCLE
  5
33F
330
1F
100
AcDbEntity
  8
0-A
  6
Continuous
 62
     2
370
     9
100
AcDbCircle
 10
-568.6407541040021
 20
-552.7026653118567
 30
0.0
 40
20.00000018410701
  0
ARC
  5
340
330
1F
100
AcDbEntity
  8
0-A
  6
Continuous
 62
     2
370
     9
100
AcDbCircle
 10
-563.6408134110073
 20
-547.7025594625992
 30
0.0
 40
3.333333364017835
100
AcDbArc
 50
180.0
 51
270.0
  0
ARC
  5
341
330
1F
100
AcDbEntity
  8
0-A
  6
Continuous
 62
     2
370
     9
100
AcDbCircle
 10
-563.6408134110073
 20
-557.7026060048515
 30
0.0
 40
3.333333364017835
100
AcDbArc
 50
90.0
 51
180.0
  0
ARC
  5
342
330
1F
100
AcDbEntity
  8
0-A
  6
Continuous
 62
     2
370
     9
100
AcDbCircle
 10
-573.6406947969969
 20
-557.7026060048515
 30
0.0
 40
3.333333364017835
100
AcDbArc
 50
0.0
 51
90.0
  0
ARC
  5
343
330
1F
100
AcDbEntity
  8
0-A
  6
Continuous
 62
     2
370
     9
100
AcDbCircle
 10
-573.6406947969969
 20
-547.7025594625992
 30
0.0
 40
3.333333364017835
100
AcDbArc
 50
270.0
 51
0.0
  0
LINE
  5
344
330
1F
100
AcDbEntity
  8
0-C
  6
JWW_CENTER1
 62
     6
370
     9
100
AcDbLine
 10
-590.9599714274922
 20
-552.7026653118567
 30
0.0
 11
-546.7010658718946
 21
-552.7026653118567
 31
0.0
  0
LINE
  5
345
330
1F
100
AcDbEntity
  8
0-C
  6
Continuous
 62
     6
370
     9
100
AcDbLine
 10
-634.929358054807
 20
-524.3692826869396
 30
0.0
 11
-634.929358054807
 21
-529.3693059580658
 31
0.0
  0
LINE
  5
346
330
1F
100
AcDbEntity
  8
0-C
  6
Continuous
 62
     6
370
     9
100
AcDbLine
 10
-639.8749623374173
 20
-524.3692826869396
 30
0.0
 11
-639.8749623374173
 21
-529.3693059580658
 31
0.0
  0
LINE
  5
347
330
1F
100
AcDbEntity
  8
0-C
  6
Continuous
 62
     6
370
     9
100
AcDbLine
 10
-502.3521501531972
 20
-524.3692826869396
 30
0.0
 11
-502.3521501531972
 21
-529.3693059580658
 31
0.0
  0
LINE
  5
348
330
1F
100
AcDbEntity
  8
0-C
  6
Continuous
 62
     6
370
     9
100
AcDbLine
 10
-639.8749623374173
 20
-524.3692826869396
 30
0.0
 11
-497.4065458705875
 21
-524.3692826869396
 31
0.0
  0
LINE
  5
349
330
1F
100
AcDbEntity
  8
0-C
  6
Continuous
 62
     6
370
     9
100
AcDbLine
 10
-497.4065458705875
 20
-524.3692826869396
 30
0.0
 11
-497.4065458705875
 21
-529.3693059580658
 31
0.0
  0
LINE
  5
34A
330
1F
100
AcDbEntity
  8
0-C
  6
Continuous
 62
     6
370
     9
100
AcDbLine
 10
-633.8763217246711
 20
-529.3693059580658
 30
0.0
 11
-633.8763217246711
 21
-596.0359525938898
 31
0.0
  0
LINE
  5
34B
330
1F
100
AcDbEntity
  8
0-C
  6
JWW_DASHED1
 62
     6
370
     9
100
AcDbLine
 10
-633.8763217246711
 20
-596.0359525938898
 30
0.0
 11
-633.8763217246711
 21
-636.0360561847679
 31
0.0
  0
LINE
  5
34C
330
1F
100
AcDbEntity
  8
0-C
  6
Continuous
 62
     6
370
     9
100
AcDbLine
 10
-503.4051864833331
 20
-529.3693059580658
 30
0.0
 11
-503.4051864833331
 21
-596.0359525938898
 31
0.0
  0
LINE
  5
34D
330
1F
100
AcDbEntity
  8
0-C
  6
JWW_DASHED1
 62
     6
370
     9
100
AcDbLine
 10
-503.4051864833331
 20
-596.0359525938898
 30
0.0
 11
-503.4051864833331
 21
-636.0360561847679
 31
0.0
  0
LINE
  5
34E
330
1F
100
AcDbEntity
  8
0-C
  6
Continuous
 62
     6
370
     9
100
AcDbLine
 10
-639.8749623374173
 20
-529.3693059580658
 30
0.0
 11
-497.4065458705875
 21
-529.3693059580658
 31
0.0
  0
LINE
  5
34F
330
1F
100
AcDbEntity
  8
受け
  6
Continuous
 62
     3
370
     9
100
AcDbLine
 10
-653.7457349164185
 20
-596.0359113048239
 30
0.0
 11
-617.6879938911786
 21
-596.0359113048239
 31
0.0
  0
LINE
  5
350
330
1F
100
AcDbEntity
  8
受け
  6
Continuous
 62
     3
370
     9
100
AcDbLine
 10
-617.6879938911786
 20
-596.0359113048239
 30
0.0
 11
-617.6879938911786
 21
-689.3692661418561
 31
0.0
  0
LINE
  5
351
330
1F
100
AcDbEntity
  8
受け
  6
Continuous
 62
     3
370
     9
100
AcDbLine
 10
-483.5357320025201
 20
-596.0359113048239
 30
0.0
 11
-519.5934730277597
 21
-596.0359113048239
 31
0.0
  0
LINE
  5
352
330
1F
100
AcDbEntity
  8
受け
  6
Continuous
 62
     3
370
     9
100
AcDbLine
 10
-519.5934730277597
 20
-596.0359113048239
 30
0.0
 11
-519.5934730277597
 21
-689.3692661418561
 31
0.0
  0
LINE
  5
353
330
1F
100
AcDbEntity
  8
ｶﾊﾞｰ
  6
Continuous
 62
     4
370
     9
100
AcDbLine
 10
-518.640769127134
 20
-702.7025789533945
 30
0.0
 11
-381.7442914241723
 21
-702.7025789533945
 31
0.0
  0
LINE
  5
354
330
1F
100
AcDbEntity
  8
ｶﾊﾞｰ
  6
JWW_DASHED1
 62
     4
370
     9
100
AcDbLine
 10
-518.640769127134
 20
-636.0362213410305
 30
0.0
 11
-518.640769127134
 21
-689.3692661418561
 31
0.0
  0
LINE
  5
355
330
1F
100
AcDbEntity
  8
ｶﾊﾞｰ
  6
JWW_DASHED1
 62
     4
370
     9
100
AcDbLine
 10
-618.64073908087
 20
-636.0362213410305
 30
0.0
 11
-618.64073908087
 21
-689.3692661418561
 31
0.0
  0
LINE
  5
356
330
1F
100
AcDbEntity
  8
ｶﾊﾞｰ
  6
Continuous
 62
     4
370
     9
100
AcDbLine
 10
-618.64073908087
 20
-689.3692661418561
 30
0.0
 11
-618.64073908087
 21
-702.7025789533945
 31
0.0
  0
LINE
  5
357
330
1F
100
AcDbEntity
  8
ｶﾊﾞｰ
  6
Continuous
 62
     4
370
     9
100
AcDbLine
 10
-518.640769127134
 20
-689.3692661418561
 30
0.0
 11
-518.640769127134
 21
-702.7025789533945
 31
0.0
  0
LINE
  5
358
330
1F
100
AcDbEntity
  8
0-C
  6
Continuous
 62
     6
370
     9
100
AcDbLine
 10
-617.6879938911786
 20
-636.0360561847679
 30
0.0
 11
-519.5934730277597
 21
-636.0360561847679
 31
0.0
  0
LINE
  5
359
330
1F
100
AcDbEntity
  8
0-C
  6
JWW_DASHED1
 62
     6
370
     9
100
AcDbLine
 10
-633.8763217246711
 20
-636.0360561847679
 30
0.0
 11
-617.6879938911786
 21
-636.0360561847679
 31
0.0
  0
LINE
  5
35A
330
1F
100
AcDbEntity
  8
0-C
  6
JWW_DASHED1
 62
     6
370
     9
100
AcDbLine
 10
-519.5934730277597
 20
-636.0360561847679
 30
0.0
 11
-503.4051864833331
 21
-636.0360561847679
 31
0.0
  0
LINE
  5
35B
330
1F
100
AcDbEntity
  8
蓋
  6
Continuous
 62
     7
370
     9
100
AcDbLine
 10
-689.9720436823172
 20
-702.7025789533945
 30
0.0
 11
-689.9720436823172
 21
-636.0360561847679
 31
0.0
  0
LINE
  5
35C
330
1F
100
AcDbEntity
  8
蓋
  6
Continuous
 62
     7
370
     9
100
AcDbLine
 10
-689.9720436823172
 20
-702.7025789533945
 30
0.0
 11
-693.8878294489188
 21
-672.9592331121802
 31
0.0
  0
LINE
  5
35D
330
1F
100
AcDbEntity
  8
蓋
  6
Continuous
 62
     7
370
     9
100
AcDbLine
 10
-689.9720436823172
 20
-702.7025789533945
 30
0.0
 11
-686.0562579157157
 21
-672.9592331121802
 31
0.0
  0
LINE
  5
35E
330
1F
100
AcDbEntity
  8
蓋
  6
Continuous
 62
     7
370
     9
100
AcDbLine
 10
-689.9720436823172
 20
-636.0360561847679
 30
0.0
 11
-693.8878294489188
 21
-665.7794020259821
 31
0.0
  0
LINE
  5
35F
330
1F
100
AcDbEntity
  8
蓋
  6
Continuous
 62
     7
370
     9
100
AcDbLine
 10
-689.9720436823172
 20
-636.0360561847679
 30
0.0
 11
-686.0562579157157
 21
-665.7794020259821
 31
0.0
  0
LINE
  5
360
330
1F
100
AcDbEntity
  8
蓋
  6
Continuous
 62
     7
370
     9
100
AcDbLine
 10
-692.9720436823172
 20
-636.0360561847679
 30
0.0
 11
-653.876321724671
 21
-636.0360561847679
 31
0.0
  0
LINE
  5
361
330
1F
100
AcDbEntity
  8
ｶﾊﾞｰ
  6
Continuous
 62
     4
370
     9
100
AcDbLine
 10
-694.1085365395389
 20
-702.7025789533945
 30
0.0
 11
-618.64073908087
 21
-702.7025789533945
 31
0.0
  0
LINE
  5
362
330
1F
100
AcDbEntity
  8
ｶﾊﾞｰ
  6
Continuous
 62
     4
370
     9
100
AcDbLine
 10
-755.5370516275693
 20
-702.7025789533945
 30
0.0
 11
-737.8545764510345
 21
-702.7025789533945
 31
0.0
  0
TEXT
  5
363
330
1F
100
AcDbEntity
  8
蓋
  6
Continuous
 62
     2
370
   211
100
AcDbText
 10
-700.7884454735531
 20
-737.5285549845624
 30
0.0
 40
30.48
  1
0～20
 50
90.0
 41
1.1
  7
ＭＳ ゴシック
100
AcDbText
  0
TEXT
  5
364
330
1F
100
AcDbEntity
  8
蓋
  6
Continuous
 62
     2
370
   211
100
AcDbText
 10
-175.5206302681659
 20
-623.5359263279561
 30
0.0
 40
30.48
  1
94～144
 50
90.0
 41
1.107142857142857
  7
ＭＳ ゴシック
100
AcDbText
  0
TEXT
  5
365
330
1F
100
AcDbEntity
  8
蓋
  6
Continuous
 62
     2
370
     9
100
AcDbText
 10
-699.4311759210246
 20
605.3180360368975
 30
0.0
 40
30.48
  1
120ﾟ
 50
299.9999924000001
 41
1.09375
  7
ＭＳ ゴシック
100
AcDbText
  0
TEXT
  5
366
330
1F
100
AcDbEntity
  8
蓋
  6
Continuous
 62
     2
370
     9
100
AcDbText
 10
-481.6115700417016
 20
534.44457763287
 30
0.0
 40
30.48
  1
120ﾟ
 50
59.99999079000001
 41
1.09375
  7
ＭＳ ゴシック
100
AcDbText
  0
LINE
  5
367
330
1F
100
AcDbEntity
  8
0-1
  6
Continuous
 62
     2
370
     9
100
AcDbLine
 10
553.2311141630687
 20
-497.171116947493
 30
0.0
 11
559.8978118579033
 21
-495.3851171240786
 31
0.0
  0
LINE
  5
368
330
1F
100
AcDbEntity
  8
0-1
  6
Continuous
 62
     2
370
     9
100
AcDbLine
 10
553.2311141630687
 20
-497.171116947493
 30
0.0
 11
549.8976001593884
 21
-496.3393900091987
 31
0.0
  0
LINE
  5
369
330
1F
100
AcDbEntity
  8
0-1
  6
Continuous
 62
     2
370
     9
100
AcDbLine
 10
492.056408726431
 20
-511.8374885323522
 30
0.0
 11
549.8976001593884
 21
-496.3393900091987
 31
0.0
  0
LINE
  5
36A
330
1F
100
AcDbEntity
  8
0-1
  6
Continuous
 62
     2
370
     9
100
AcDbLine
 10
559.8978118579033
 20
-495.3851171240786
 30
0.0
 11
563.2311607053209
 21
-492.7660691122693
 31
0.0
  0
LINE
  5
36B
330
1F
100
AcDbEntity
  8
0-1
  6
Continuous
 62
     2
370
     9
100
AcDbLine
 10
563.2311607053209
 20
-492.7660691122693
 30
0.0
 11
621.5641874882074
 21
-477.136341047849
 31
0.0
  0
LINE
  5
36C
330
1F
100
AcDbEntity
  8
0-1
  6
Continuous
 62
     2
370
     9
100
AcDbLine
 10
507.3071031682573
 20
-491.697508093452
 30
0.0
 11
509.1641201845757
 21
-481.2606232367064
 31
0.0
  0
LINE
  5
36D
330
1F
100
AcDbEntity
  8
0-1
  6
Continuous
 62
     2
370
     9
100
AcDbLine
 10
502.4690156125794
 20
-496.9692959946346
 30
0.0
 11
492.056408726431
 21
-499.759280738202
 31
0.0
  0
LINE
  5
36E
330
1F
100
AcDbEntity
  8
0-2
  6
Continuous
 62
     6
370
     9
100
AcDbLine
 10
549.8979304719138
 20
-472.136070042329
 30
0.0
 11
549.8979304719138
 21
-457.1359176508191
 31
0.0
  0
LINE
  5
36F
330
1F
100
AcDbEntity
  8
0-2
  6
Continuous
 62
     6
370
     9
100
AcDbLine
 10
513.2312583065848
 20
-457.1359176508191
 30
0.0
 11
508.2311524573267
 21
-477.136341047849
 31
0.0
  0
LINE
  5
370
330
1F
100
AcDbEntity
  8
0-2
  6
Continuous
 62
     6
370
     9
100
AcDbLine
 10
508.2311524573267
 20
-477.136341047849
 30
0.0
 11
498.2311059150745
 21
-470.3715405330485
 31
0.0
  0
LINE
  5
371
330
1F
100
AcDbEntity
  8
0-2
  6
Continuous
 62
     6
370
     9
100
AcDbLine
 10
498.2311059150745
 20
-470.3715405330485
 30
0.0
 11
492.056408726431
 21
-468.7170050946386
 31
0.0
  0
LINE
  5
372
330
1F
100
AcDbEntity
  8
0-2
  6
Continuous
 62
     6
370
     9
100
AcDbLine
 10
549.8979304719138
 20
-457.1359176508191
 30
0.0
 11
546.5644164682341
 21
-453.8030642721893
 31
0.0
  0
LINE
  5
373
330
1F
100
AcDbEntity
  8
0-2
  6
Continuous
 62
     6
370
     9
100
AcDbLine
 10
513.2312583065848
 20
-457.1359176508191
 30
0.0
 11
509.8977443029045
 21
-453.8030642721893
 31
0.0
  0
LINE
  5
374
330
1F
100
AcDbEntity
  8
0-A
  6
Continuous
 62
     2
370
     9
100
AcDbLine
 10
553.2314444755935
 20
-445.1359939251265
 30
0.0
 11
553.2314444755935
 21
-453.8030642721893
 31
0.0
  0
LINE
  5
375
330
1F
100
AcDbEntity
  8
0-A
  6
Continuous
 62
     2
370
     9
100
AcDbLine
 10
534.8282472938629
 20
-443.9111950819193
 30
0.0
 11
531.6344554883156
 21
-443.9111950819193
 31
0.0
  0
LINE
  5
376
330
1F
100
AcDbEntity
  8
0-A
  6
Continuous
 62
     2
370
     9
100
AcDbLine
 10
531.6344554883156
 20
-438.5076124832074
 30
0.0
 11
531.6344554883156
 21
-443.9111950819193
 31
0.0
  0
LINE
  5
377
330
1F
100
AcDbEntity
  8
0-A
  6
Continuous
 62
     2
370
     9
100
AcDbLine
 10
534.8282472938629
 20
-438.5076124832074
 30
0.0
 11
534.8282472938629
 21
-443.9111950819193
 31
0.0
  0
LINE
  5
378
330
1F
100
AcDbEntity
  8
0-A
  6
Continuous
 62
     2
370
     9
100
AcDbLine
 10
523.2311396925743
 20
-460.469431654499
 30
0.0
 11
543.2313979333413
 21
-460.469431654499
 31
0.0
  0
LINE
  5
379
330
1F
100
AcDbEntity
  8
0-A
  6
Continuous
 62
     2
370
     9
100
AcDbLine
 10
540.3314191189032
 20
-460.469431654499
 30
0.0
 11
543.8381820420177
 21
-454.2281764920403
 31
0.0
  0
LINE
  5
37A
330
1F
100
AcDbEntity
  8
0-A
  6
Continuous
 62
     2
370
     9
100
AcDbLine
 10
543.2313979333413
 20
-460.469431654499
 30
0.0
 11
541.7615071964827
 21
-457.9240433357953
 31
0.0
  0
LINE
  5
37B
330
1F
100
AcDbEntity
  8
0-A
  6
Continuous
 62
     2
370
     9
100
AcDbLine
 10
526.1312836632751
 20
-460.469431654499
 30
0.0
 11
522.6245207401606
 21
-454.2281764920403
 31
0.0
  0
LINE
  5
37C
330
1F
100
AcDbEntity
  8
0-A
  6
Continuous
 62
     2
370
     9
100
AcDbLine
 10
523.2311396925743
 20
-460.469431654499
 30
0.0
 11
524.7010304294329
 21
-457.9240433357953
 31
0.0
  0
LINE
  5
37D
330
1F
100
AcDbEntity
  8
0-A
  6
Continuous
 62
     2
370
     9
100
AcDbLine
 10
540.3314191189032
 20
-493.8029201286737
 30
0.0
 11
543.2313979333413
 21
-490.9027761579731
 31
0.0
  0
LINE
  5
37E
330
1F
100
AcDbEntity
  8
0-A
  6
Continuous
 62
     2
370
     9
100
AcDbLine
 10
526.1312836632751
 20
-493.8029201286737
 30
0.0
 11
523.2311396925743
 21
-490.9027761579731
 31
0.0
  0
LINE
  5
37F
330
1F
100
AcDbEntity
  8
0-A
  6
Continuous
 62
     2
370
     9
100
AcDbLine
 10
526.1312836632751
 20
-460.469431654499
 30
0.0
 11
526.1312836632751
 21
-493.8029201286737
 31
0.0
  0
LINE
  5
380
330
1F
100
AcDbEntity
  8
0-A
  6
Continuous
 62
     2
370
     9
100
AcDbLine
 10
540.3314191189032
 20
-460.469431654499
 30
0.0
 11
540.3314191189032
 21
-493.8029201286737
 31
0.0
  0
LINE
  5
381
330
1F
100
AcDbEntity
  8
0-A
  6
Continuous
 62
     2
370
     9
100
AcDbLine
 10
526.1312836632751
 20
-493.8029201286737
 30
0.0
 11
540.3314191189032
 21
-493.8029201286737
 31
0.0
  0
LINE
  5
382
330
1F
100
AcDbEntity
  8
0-A
  6
Continuous
 62
     2
370
     9
100
AcDbLine
 10
523.2311396925743
 20
-490.9027761579731
 30
0.0
 11
543.2313979333413
 21
-490.9027761579731
 31
0.0
  0
LINE
  5
383
330
1F
100
AcDbEntity
  8
0-A
  6
Continuous
 62
     2
370
     9
100
AcDbLine
 10
523.2311396925743
 20
-460.469431654499
 30
0.0
 11
523.2311396925743
 21
-490.9027761579731
 31
0.0
  0
LINE
  5
384
330
1F
100
AcDbEntity
  8
0-A
  6
Continuous
 62
     2
370
     9
100
AcDbLine
 10
543.2313979333413
 20
-460.469431654499
 30
0.0
 11
543.2313979333413
 21
-490.9027761579731
 31
0.0
  0
LINE
  5
385
330
1F
100
AcDbEntity
  8
0-2
  6
Continuous
 62
     6
370
     9
100
AcDbLine
 10
544.897989778919
 20
-477.136341047849
 30
0.0
 11
543.2313979333413
 21
-477.136341047849
 31
0.0
  0
LINE
  5
386
330
1F
100
AcDbEntity
  8
0-2
  6
Continuous
 62
     6
370
     9
100
AcDbLine
 10
514.0864374341637
 20
-477.136341047849
 30
0.0
 11
492.056408726431
 21
-477.136341047849
 31
0.0
  0
LINE
  5
387
330
1F
100
AcDbEntity
  8
0-1
  6
Continuous
 62
     2
370
     9
100
AcDbLine
 10
523.2311396925743
 20
-477.136341047849
 30
0.0
 11
514.0864374341637
 21
-477.136341047849
 31
0.0
  0
LINE
  5
388
330
1F
100
AcDbEntity
  8
0-1
  6
JWW_DASHED1
 62
     2
370
     9
100
AcDbLine
 10
502.4690156125794
 20
-496.9692959946346
 30
0.0
 11
523.6280101915261
 21
-491.3001421257124
 31
0.0
  0
LINE
  5
389
330
1F
100
AcDbEntity
  8
0-1
  6
Continuous
 62
     2
370
     9
100
AcDbLine
 10
619.902550330507
 20
-470.469643353014
 30
0.0
 11
601.3678887637714
 21
-470.469643353014
 31
0.0
  0
LINE
  5
38A
330
1F
100
AcDbEntity
  8
0-1
  6
Continuous
 62
     2
370
     9
100
AcDbLine
 10
619.902550330507
 20
-470.469643353014
 30
0.0
 11
621.5641874882074
 21
-477.136341047849
 31
0.0
  0
LINE
  5
38B
330
1F
100
AcDbEntity
  8
0-1
  6
Continuous
 62
     2
370
     9
100
AcDbLine
 10
548.6658647531534
 20
-477.136341047849
 30
0.0
 11
543.2313979333413
 21
-477.136341047849
 31
0.0
  0
LINE
  5
38C
330
1F
100
AcDbEntity
  8
0-0
  6
JWW_DASHED1
 62
     3
370
     9
100
AcDbLine
 10
543.770963443152
 20
-556.6466947548275
 30
0.0
 11
576.2588518529766
 21
-547.9416384673738
 31
0.0
  0
LINE
  5
38D
330
1F
100
AcDbEntity
  8
0-0
  6
JWW_DASHED1
 62
     3
370
     9
100
AcDbLine
 10
538.7360096224929
 20
-555.1341937022264
 30
0.0
 11
536.1022627033153
 21
-552.1643537887219
 31
0.0
  0
LINE
  5
38E
330
1F
100
AcDbEntity
  8
0-0
  6
Continuous
 62
     3
370
     9
100
AcDbLine
 10
517.1003740697736
 20
-590.5136379570978
 30
0.0
 11
519.0938101589742
 21
-600.4811487156243
 31
0.0
  0
LINE
  5
38F
330
1F
100
AcDbEntity
  8
0-0
  6
JWW_DASHED1
 62
     3
370
     9
100
AcDbLine
 10
526.8842310643245
 20
-550.8186605613148
 30
0.0
 11
529.3886606299108
 21
-550.1474655102369
 31
0.0
  0
LINE
  5
390
330
1F
100
AcDbEntity
  8
0-0
  6
JWW_DASHED1
 62
     3
370
     9
100
AcDbLine
 10
517.1165593835055
 20
-579.052453959903
 30
0.0
 11
519.5469989434619
 21
-559.2594668286591
 31
0.0
  0
LINE
  5
391
330
1F
100
AcDbEntity
  8
0-0
  6
Continuous
 62
     3
370
     9
100
AcDbLine
 10
564.8483708283903
 20
-537.1952507745749
 30
0.0
 11
548.2800597237941
 21
-541.6346511124127
 31
0.0
  0
LINE
  5
392
330
1F
100
AcDbEntity
  8
0-0
  6
Continuous
 62
     3
370
     9
100
AcDbLine
 10
569.6620152572082
 20
-527.4602800337448
 30
0.0
 11
568.4530714152079
 21
-533.3682498583405
 31
0.0
  0
LINE
  5
393
330
1F
100
AcDbEntity
  8
0-0
  6
Continuous
 62
     3
370
     9
100
AcDbLine
 10
539.2441954424158
 20
-535.6107415914939
 30
0.0
 11
543.2449407468722
 21
-540.1224803723367
 31
0.0
  0
LINE
  5
394
330
1F
100
AcDbEntity
  8
0-0
  6
Continuous
 62
     3
370
     9
100
AcDbLine
 10
579.8635524397941
 20
-544.1146375511394
 30
0.0
 11
580.6592753128485
 21
-540.2248772551292
 31
0.0
  0
LINE
  5
395
330
1F
100
AcDbEntity
  8
0-0
  6
Continuous
 62
     3
370
     9
100
AcDbLine
 10
492.056408726431
 20
-570.4512809616049
 30
0.0
 11
496.6259521991727
 21
-570.1317035935349
 31
0.0
  0
LINE
  5
396
330
1F
100
AcDbEntity
  8
0-0
  6
Continuous
 62
     3
370
     9
100
AcDbLine
 10
505.8538932139177
 20
-561.3747882396348
 30
0.0
 11
507.409004582262
 21
-548.707963525691
 31
0.0
  0
LINE
  5
397
330
1F
100
AcDbEntity
  8
受け
  6
Continuous
 62
     4
370
     9
100
AcDbLine
 10
498.2311059150745
 20
-587.8338124406636
 30
0.0
 11
498.2311059150745
 21
-627.9083189278284
 31
0.0
  0
LINE
  5
398
330
1F
100
AcDbEntity
  8
受け
  6
Continuous
 62
     4
370
     9
100
AcDbLine
 10
513.2309279940594
 20
-587.8338124406636
 30
0.0
 11
513.2309279940594
 21
-627.9083189278284
 31
0.0
  0
LINE
  5
399
330
1F
100
AcDbEntity
  8
0-1
  6
Continuous
 62
     2
370
     9
100
AcDbLine
 10
580.6807456269827
 20
-476.0126178373338
 30
0.0
 11
601.3678887637714
 21
-470.469643353014
 31
0.0
  0
LINE
  5
39A
330
1F
100
AcDbEntity
  8
0-1
  6
Continuous
 62
     2
370
     9
100
AcDbLine
 10
568.207814365294
 20
-467.8674412799867
 30
0.0
 11
566.5643443964758
 21
-457.1359176508191
 31
0.0
  0
LINE
  5
39B
330
1F
100
AcDbEntity
  8
0-1
  6
JWW_DASHED1
 62
     2
370
     9
100
AcDbLine
 10
580.68058047072
 20
-476.0129481498589
 30
0.0
 11
543.2313979333413
 21
-486.0468517259378
 31
0.0
  0
LINE
  5
39C
330
1F
100
AcDbEntity
  8
0-A
  6
Continuous
 62
     2
370
     9
100
AcDbLine
 10
553.2314444755935
 20
-453.8030642721893
 30
0.0
 11
513.2312583065848
 21
-453.8030642721893
 31
0.0
  0
LINE
  5
39D
330
1F
100
AcDbEntity
  8
0-0
  6
Continuous
 62
     3
370
     9
100
AcDbLine
 10
563.6889738651605
 20
-604.5003915214879
 30
0.0
 11
523.9966389695788
 21
-604.5003915214879
 31
0.0
  0
LINE
  5
39E
330
1F
100
AcDbEntity
  8
0-0
  6
Continuous
 62
     3
370
     9
100
AcDbLine
 10
566.9861534910752
 20
-601.6560703675354
 30
0.0
 11
574.3253674870892
 21
-552.1666659763978
 31
0.0
  0
LINE
  5
39F
330
1F
100
AcDbEntity
  8
0-A
  6
Continuous
 62
     2
370
     9
100
AcDbLine
 10
559.8976467016412
 20
-573.5005610374045
 30
0.0
 11
539.8977187733989
 21
-573.5005610374045
 31
0.0
  0
LINE
  5
3A0
330
1F
100
AcDbEntity
  8
0-A
  6
Continuous
 62
     2
370
     9
100
AcDbLine
 10
557.564319024075
 20
-604.5003915214879
 30
0.0
 11
557.564319024075
 21
-571.1672333598387
 31
0.0
  0
LINE
  5
3A1
330
1F
100
AcDbEntity
  8
0-A
  6
Continuous
 62
     2
370
     9
100
AcDbLine
 10
539.8977187733989
 20
-573.5005610374045
 30
0.0
 11
539.8977187733989
 21
-627.9083189278284
 31
0.0
  0
LINE
  5
3A2
330
1F
100
AcDbEntity
  8
0-A
  6
Continuous
 62
     2
370
     9
100
AcDbLine
 10
539.8977187733989
 20
-573.5005610374045
 30
0.0
 11
542.2310464509645
 21
-571.1672333598387
 31
0.0
  0
LINE
  5
3A3
330
1F
100
AcDbEntity
  8
0-A
  6
Continuous
 62
     2
370
     9
100
AcDbLine
 10
557.564319024075
 20
-571.1672333598387
 30
0.0
 11
542.2310464509645
 21
-571.1672333598387
 31
0.0
  0
LINE
  5
3A4
330
1F
100
AcDbEntity
  8
0-A
  6
Continuous
 62
     2
370
     9
100
AcDbLine
 10
557.564319024075
 20
-571.1672333598387
 30
0.0
 11
559.8976467016412
 21
-573.5005610374045
 31
0.0
  0
LINE
  5
3A5
330
1F
100
AcDbEntity
  8
0-A
  6
Continuous
 62
     2
370
     9
100
AcDbLine
 10
559.8976467016412
 20
-627.9083189278284
 30
0.0
 11
559.8976467016412
 21
-573.5005610374045
 31
0.0
  0
LINE
  5
3A6
330
1F
100
AcDbEntity
  8
0-A
  6
Continuous
 62
     2
370
     9
100
AcDbLine
 10
542.2310464509645
 20
-571.1672333598387
 30
0.0
 11
542.2310464509645
 21
-604.5003915214879
 31
0.0
  0
LINE
  5
3A7
330
1F
100
AcDbEntity
  8
0-0
  6
Continuous
 62
     3
370
     9
100
AcDbLine
 10
654.8976759623815
 20
-531.1670471908293
 30
0.0
 11
651.5643271149645
 21
-534.5005611945091
 31
0.0
  0
LINE
  5
3A8
330
1F
100
AcDbEntity
  8
0-0
  6
Continuous
 62
     3
370
     9
100
AcDbLine
 10
651.5643271149645
 20
-534.5005611945091
 30
0.0
 11
634.8975828778772
 21
-534.5005611945091
 31
0.0
  0
LINE
  5
3A9
330
1F
100
AcDbEntity
  8
0-0
  6
Continuous
 62
     3
370
     9
100
AcDbLine
 10
585.465322553588
 20
-535.1222093668167
 30
0.0
 11
605.3678082869147
 21
-529.7889833359588
 31
0.0
  0
LINE
  5
3AA
330
1F
100
AcDbEntity
  8
0-0
  6
Continuous
 62
     3
370
     9
100
AcDbLine
 10
513.8316013210206
 20
-587.8338124406636
 30
0.0
 11
492.056408726431
 21
-587.8338124406636
 31
0.0
  0
LINE
  5
3AB
330
1F
100
AcDbEntity
  8
0-0
  6
Continuous
 62
     3
370
     9
100
AcDbLine
 10
557.564319024075
 20
-567.8337193561586
 30
0.0
 11
549.8977653156511
 21
-563.4075315193263
 31
0.0
  0
LINE
  5
3AC
330
1F
100
AcDbEntity
  8
0-0
  6
Continuous
 62
     3
370
     9
100
AcDbLine
 10
542.2310464509645
 20
-567.8337193561586
 30
0.0
 11
549.8977653156511
 21
-563.4075315193263
 31
0.0
  0
LINE
  5
3AD
330
1F
100
AcDbEntity
  8
0-0
  6
Continuous
 62
     3
370
     9
100
AcDbLine
 10
557.564319024075
 20
-571.1672333598387
 30
0.0
 11
557.564319024075
 21
-567.8337193561586
 31
0.0
  0
LINE
  5
3AE
330
1F
100
AcDbEntity
  8
0-0
  6
Continuous
 62
     3
370
     9
100
AcDbLine
 10
542.2310464509645
 20
-571.1672333598387
 30
0.0
 11
542.2310464509645
 21
-567.8337193561586
 31
0.0
  0
LINE
  5
3AF
330
1F
100
AcDbEntity
  8
0-0
  6
Continuous
 62
     3
370
     9
100
AcDbLine
 10
557.564319024075
 20
-567.8337193561586
 30
0.0
 11
542.2310464509645
 21
-567.8337193561586
 31
0.0
  0
LINE
  5
3B0
330
1F
100
AcDbEntity
  8
0-A
  6
JWW_CENTER1
 62
     2
370
     9
100
AcDbLine
 10
549.8977653156511
 20
-561.1059138441735
 30
0.0
 11
549.8977653156511
 21
-627.9083189278284
 31
0.0
  0
LINE
  5
3B1
330
1F
100
AcDbEntity
  8
0-A
  6
Continuous
 62
     2
370
     9
100
AcDbLine
 10
513.2317537753723
 20
-445.1359939251265
 30
0.0
 11
513.2317537753723
 21
-453.8030642721893
 31
0.0
  0
LINE
  5
3B2
330
1F
100
AcDbEntity
  8
0-2
  6
Continuous
 62
     6
370
     9
100
AcDbLine
 10
513.2312583065848
 20
-453.8030642721893
 30
0.0
 11
500.792844703773
 21
-453.8030642721893
 31
0.0
  0
LINE
  5
3B3
330
1F
100
AcDbEntity
  8
0-2
  6
Continuous
 62
     6
370
     9
100
AcDbLine
 10
500.792844703773
 20
-453.8030642721893
 30
0.0
 11
492.056408726431
 21
-451.4621394065452
 31
0.0
  0
LINE
  5
3B4
330
1F
100
AcDbEntity
  8
0-1
  6
Continuous
 62
     2
370
     9
100
AcDbLine
 10
553.5804196584008
 20
-473.0576419874604
 30
0.0
 11
556.5642978542236
 21
-457.1359176508191
 31
0.0
  0
LINE
  5
3B5
330
1F
100
AcDbEntity
  8
0-1
  6
JWW_DASHED1
 62
     2
370
     9
100
AcDbLine
 10
552.7240844369841
 20
-477.6265248351519
 30
0.0
 11
553.5804196584008
 21
-473.0576419874604
 31
0.0
  0
LINE
  5
3B6
330
1F
100
AcDbEntity
  8
0-1
  6
Continuous
 62
     2
370
     9
100
AcDbLine
 10
543.2313979333413
 20
-490.9027761579731
 30
0.0
 11
543.2313979333413
 21
-498.1257201451382
 31
0.0
  0
LINE
  5
3B7
330
1F
100
AcDbEntity
  8
0-1
  6
Continuous
 62
     2
370
     9
100
AcDbLine
 10
540.3314191189032
 20
-493.8029201286737
 30
0.0
 11
540.3314191189032
 21
-498.9026152042598
 31
0.0
  0
LINE
  5
3B8
330
1F
100
AcDbEntity
  8
0-1
  6
Continuous
 62
     2
370
     9
100
AcDbLine
 10
526.1312836632751
 20
-493.8029201286737
 30
0.0
 11
526.1312836632751
 21
-502.7071548687849
 31
0.0
  0
LINE
  5
3B9
330
1F
100
AcDbEntity
  8
0-1
  6
Continuous
 62
     2
370
     9
100
AcDbLine
 10
523.2311396925743
 20
-490.9027761579731
 30
0.0
 11
523.2311396925743
 21
-503.4843802404316
 31
0.0
  0
LINE
  5
3BA
330
1F
100
AcDbEntity
  8
0-0
  6
Continuous
 62
     3
370
     9
100
AcDbLine
 10
651.9293224552405
 20
-507.4202191336985
 30
0.0
 11
654.8976759623815
 21
-531.1670471908293
 31
0.0
  0
LINE
  5
3BB
330
1F
100
AcDbEntity
  8
ｶﾊﾞｰ
  6
Continuous
 62
     4
370
     9
100
AcDbLine
 10
564.064208893716
 20
-177.1362660303789
 30
0.0
 11
559.0642682007207
 21
-177.1362660303789
 31
0.0
  0
LINE
  5
3BC
330
1F
100
AcDbEntity
  8
ｶﾊﾞｰ
  6
Continuous
 62
     4
370
     9
100
AcDbLine
 10
554.0641623514638
 20
-360.4696268570259
 30
0.0
 11
554.0641623514638
 21
-143.8027775562045
 31
0.0
  0
LINE
  5
3BD
330
1F
100
AcDbEntity
  8
ｶﾊﾞｰ
  6
Continuous
 62
     4
370
     9
100
AcDbLine
 10
564.064208893716
 20
-457.1359176508191
 30
0.0
 11
564.064208893716
 21
-177.1362660303789
 31
0.0
  0
LINE
  5
3BE
330
1F
100
AcDbEntity
  8
ｶﾊﾞｰ
  6
Continuous
 62
     4
370
     9
100
AcDbLine
 10
559.0642682007207
 20
-457.1359176508191
 30
0.0
 11
559.0642682007207
 21
-143.8027775562045
 31
0.0
  0
LINE
  5
3BF
330
1F
100
AcDbEntity
  8
ｶﾊﾞｰ
  6
Continuous
 62
     4
370
     9
100
AcDbLine
 10
559.0642682007207
 20
-360.4696268570259
 30
0.0
 11
492.056408726431
 21
-360.4696268570259
 31
0.0
  0
LINE
  5
3C0
330
1F
100
AcDbEntity
  8
ｶﾊﾞｰ
  6
Continuous
 62
     4
370
     9
100
AcDbLine
 10
559.0642682007207
 20
-143.8027775562045
 30
0.0
 11
492.056408726431
 21
-143.8027775562045
 31
0.0
  0
LINE
  5
3C1
330
1F
100
AcDbEntity
  8
ｶﾊﾞｰ
  6
JWW_DASHED1
 62
     4
370
     9
100
AcDbLine
 10
559.0642682007207
 20
-177.1362660303789
 30
0.0
 11
492.056408726431
 21
-177.1362660303789
 31
0.0
  0
LINE
  5
3C2
330
1F
100
AcDbEntity
  8
0-A
  6
Continuous
 62
     2
370
     9
100
AcDbLine
 10
612.7309699410007
 20
-287.1356219013169
 30
0.0
 11
604.0642299064627
 21
-287.1356219013169
 31
0.0
  0
LINE
  5
3C3
330
1F
100
AcDbEntity
  8
0-A
  6
Continuous
 62
     2
370
     9
100
AcDbLine
 10
612.7309699410007
 20
-327.1358080703263
 30
0.0
 11
604.0642299064627
 21
-327.1358080703263
 31
0.0
  0
LINE
  5
3C4
330
1F
100
AcDbEntity
  8
0-A
  6
Continuous
 62
     2
370
     9
100
AcDbLine
 10
617.2892827878878
 20
-308.7327760448577
 30
0.0
 11
617.2892827878878
 21
-305.5389842393105
 31
0.0
  0
LINE
  5
3C5
330
1F
100
AcDbEntity
  8
0-A
  6
Continuous
 62
     2
370
     9
100
AcDbLine
 10
619.3593513829195
 20
-305.5389842393105
 30
0.0
 11
617.2892827878878
 21
-305.5389842393105
 31
0.0
  0
LINE
  5
3C6
330
1F
100
AcDbEntity
  8
0-A
  6
Continuous
 62
     2
370
     9
100
AcDbLine
 10
619.3593513829195
 20
-308.7327760448577
 30
0.0
 11
617.2892827878878
 21
-308.7327760448577
 31
0.0
  0
LINE
  5
3C7
330
1F
100
AcDbEntity
  8
0-A
  6
Continuous
 62
     2
370
     9
100
AcDbLine
 10
597.3975322116281
 20
-297.1358335998318
 30
0.0
 11
597.3975322116281
 21
-317.1359266843365
 31
0.0
  0
LINE
  5
3C8
330
1F
100
AcDbEntity
  8
0-A
  6
Continuous
 62
     2
370
     9
100
AcDbLine
 10
597.3975322116281
 20
-314.2357827136359
 30
0.0
 11
603.6391176866119
 21
-317.7423804804875
 31
0.0
  0
LINE
  5
3C9
330
1F
100
AcDbEntity
  8
0-A
  6
Continuous
 62
     2
370
     9
100
AcDbLine
 10
597.3975322116281
 20
-317.1359266843365
 30
0.0
 11
599.943085686594
 21
-315.666035947478
 31
0.0
  0
LINE
  5
3CA
330
1F
100
AcDbEntity
  8
0-A
  6
Continuous
 62
     2
370
     9
100
AcDbLine
 10
604.0642299064627
 20
-287.1356219013169
 30
0.0
 11
604.0642299064627
 21
-327.1358080703263
 31
0.0
  0
LINE
  5
3CB
330
1F
100
AcDbEntity
  8
0-A
  6
Continuous
 62
     2
370
     9
100
AcDbLine
 10
597.3975322116281
 20
-300.0356472580072
 30
0.0
 11
603.6391176866119
 21
-296.5290494911556
 31
0.0
  0
LINE
  5
3CC
330
1F
100
AcDbEntity
  8
0-A
  6
Continuous
 62
     2
370
     9
100
AcDbLine
 10
597.3975322116281
 20
-297.1358335998318
 30
0.0
 11
599.943085686594
 21
-298.6057243366903
 31
0.0
  0
LINE
  5
3CD
330
1F
100
AcDbEntity
  8
0-1
  6
Continuous
 62
     2
370
     9
100
AcDbLine
 10
549.8979304719138
 20
-457.1359176508191
 30
0.0
 11
559.0642682007207
 21
-457.1359176508191
 31
0.0
  0
LINE
  5
3CE
330
1F
100
AcDbEntity
  8
受け
  6
Continuous
 62
     3
370
     9
100
AcDbLine
 10
575.7310124378081
 20
-443.8025222611493
 30
0.0
 11
564.064208893716
 21
-443.8025222611493
 31
0.0
  0
LINE
  5
3CF
330
1F
100
AcDbEntity
  8
ｶﾊﾞｰ
  6
Continuous
 62
     4
370
     9
100
AcDbLine
 10
564.064208893716
 20
-457.1359176508191
 30
0.0
 11
559.0642682007207
 21
-457.1359176508191
 31
0.0
  0
LINE
  5
3D0
330
1F
100
AcDbEntity
  8
0-A
  6
JWW_CENTER1
 62
     2
370
     9
100
AcDbLine
 10
533.2311862348265
 20
-435.4885560034575
 30
0.0
 11
533.2311862348265
 21
-500.8052153490476
 31
0.0
  0
LINE
  5
3D1
330
1F
100
AcDbEntity
  8
ｶﾊﾞｰ
  6
Continuous
 62
     4
370
     9
100
AcDbLine
 10
564.064208893716
 20
-390.4692710149953
 30
0.0
 11
559.0642682007207
 21
-390.4692710149953
 31
0.0
  0
LINE
  5
3D2
330
1F
100
AcDbEntity
  8
受け
  6
Continuous
 62
     3
370
     9
100
AcDbLine
 10
575.7310124378081
 20
-443.8025222611493
 30
0.0
 11
575.7310124378081
 21
-350.4690848459858
 31
0.0
  0
LINE
  5
3D3
330
1F
100
AcDbEntity
  8
受け
  6
Continuous
 62
     3
370
     9
100
AcDbLine
 10
570.7309065885512
 20
-443.8025222611493
 30
0.0
 11
570.7309065885512
 21
-350.4690848459858
 31
0.0
  0
LINE
  5
3D4
330
1F
100
AcDbEntity
  8
受け
  6
Continuous
 62
     3
370
     9
100
AcDbLine
 10
575.7310124378081
 20
-350.4690848459858
 30
0.0
 11
569.0643147429735
 21
-350.4690848459858
 31
0.0
  0
LINE
  5
3D5
330
1F
100
AcDbEntity
  8
受け
  6
JWW_DASHED1
 62
     3
370
     9
100
AcDbLine
 10
569.0643147429735
 20
-350.4690848459858
 30
0.0
 11
564.064208893716
 21
-350.4690848459858
 31
0.0
  0
LINE
  5
3D6
330
1F
100
AcDbEntity
  8
0-1
  6
Continuous
 62
     2
370
     9
100
AcDbLine
 10
564.064208893716
 20
-457.1359176508191
 30
0.0
 11
566.5643443964758
 21
-457.1359176508191
 31
0.0
  0
LINE
  5
3D7
330
1F
100
AcDbEntity
  8
0-D
  6
Continuous
 62
     7
370
     9
100
AcDbLine
 10
648.2308131112848
 20
-504.5002564114897
 30
0.0
 11
716.9178163071069
 21
-486.0954076671329
 31
0.0
  0
LINE
  5
3D8
330
1F
100
AcDbEntity
  8
0-D
  6
Continuous
 62
     7
370
     9
100
AcDbLine
 10
621.5641874882074
 20
-477.136341047849
 30
0.0
 11
712.5294492544026
 21
-452.7619191929583
 31
0.0
  0
LINE
  5
3D9
330
1F
100
AcDbEntity
  8
0-D
  6
Continuous
 62
     7
370
     9
100
AcDbLine
 10
712.5294492544026
 20
-452.7619191929583
 30
0.0
 11
782.310282377216
 21
-452.7619191929583
 31
0.0
  0
LINE
  5
3DA
330
1F
100
AcDbEntity
  8
0-A
  6
Continuous
 62
     2
370
     9
100
AcDbLine
 10
585.7310589800603
 20
-290.4693836393907
 30
0.0
 11
585.7310589800603
 21
-323.8027069573027
 31
0.0
  0
LINE
  5
3DB
330
1F
100
AcDbEntity
  8
0-A
  6
Continuous
 62
     2
370
     9
100
AcDbLine
 10
585.7310589800603
 20
-290.4693836393907
 30
0.0
 11
569.0643147429735
 21
-290.4693836393907
 31
0.0
  0
LINE
  5
3DC
330
1F
100
AcDbEntity
  8
0-A
  6
Continuous
 62
     2
370
     9
100
AcDbLine
 10
585.7310589800603
 20
-323.8027069573027
 30
0.0
 11
569.0643147429735
 21
-323.8027069573027
 31
0.0
  0
LINE
  5
3DD
330
1F
100
AcDbEntity
  8
0-A
  6
Continuous
 62
     2
370
     9
100
AcDbLine
 10
597.3975322116281
 20
-297.1358335998318
 30
0.0
 11
585.7310589800603
 21
-297.1358335998318
 31
0.0
  0
LINE
  5
3DE
330
1F
100
AcDbEntity
  8
0-A
  6
Continuous
 62
     2
370
     9
100
AcDbLine
 10
569.0643147429735
 20
-297.1358335998318
 30
0.0
 11
564.064208893716
 21
-297.1358335998318
 31
0.0
  0
LINE
  5
3DF
330
1F
100
AcDbEntity
  8
0-A
  6
Continuous
 62
     2
370
     9
100
AcDbLine
 10
597.3975322116281
 20
-300.0356472580072
 30
0.0
 11
585.7310589800603
 21
-300.0356472580072
 31
0.0
  0
LINE
  5
3E0
330
1F
100
AcDbEntity
  8
0-A
  6
Continuous
 62
     2
370
     9
100
AcDbLine
 10
569.0643147429735
 20
-300.0356472580072
 30
0.0
 11
564.064208893716
 21
-300.0356472580072
 31
0.0
  0
LINE
  5
3E1
330
1F
100
AcDbEntity
  8
0-A
  6
Continuous
 62
     2
370
     9
100
AcDbLine
 10
597.3975322116281
 20
-314.2357827136359
 30
0.0
 11
585.7310589800603
 21
-314.2357827136359
 31
0.0
  0
LINE
  5
3E2
330
1F
100
AcDbEntity
  8
0-A
  6
Continuous
 62
     2
370
     9
100
AcDbLine
 10
569.0643147429735
 20
-314.2357827136359
 30
0.0
 11
564.064208893716
 21
-314.2357827136359
 31
0.0
  0
LINE
  5
3E3
330
1F
100
AcDbEntity
  8
0-A
  6
Continuous
 62
     2
370
     9
100
AcDbLine
 10
597.3975322116281
 20
-317.1359266843365
 30
0.0
 11
585.7310589800603
 21
-317.1359266843365
 31
0.0
  0
LINE
  5
3E4
330
1F
100
AcDbEntity
  8
0-A
  6
Continuous
 62
     2
370
     9
100
AcDbLine
 10
569.0643147429735
 20
-317.1359266843365
 30
0.0
 11
564.064208893716
 21
-317.1359266843365
 31
0.0
  0
LINE
  5
3E5
330
1F
100
AcDbEntity
  8
0-D
  6
Continuous
 62
     7
370
     9
100
AcDbLine
 10
566.5643443964758
 20
-457.1359176508191
 30
0.0
 11
666.7955331178075
 21
-381.958190757928
 31
0.0
  0
LINE
  5
3E6
330
1F
100
AcDbEntity
  8
0-D
  6
Continuous
 62
     7
370
     9
100
AcDbLine
 10
666.7955331178075
 20
-381.958190757928
 30
0.0
 11
782.310282377216
 21
-381.958190757928
 31
0.0
  0
LINE
  5
3E7
330
1F
100
AcDbEntity
  8
0-0
  6
Continuous
 62
     3
370
     9
100
AcDbLine
 10
648.2308131112848
 20
-504.5002564114897
 30
0.0
 11
514.7464018593868
 21
-540.2671572583466
 31
0.0
  0
LINE
  5
3E8
330
1F
100
AcDbEntity
  8
0-D
  6
Continuous
 62
     7
370
     9
100
AcDbLine
 10
472.7689649149087
 20
-557.3129351180282
 30
0.0
 11
474.3240762832525
 21
-544.6461104040844
 31
0.0
  0
LINE
  5
3E9
330
1F
100
AcDbEntity
  8
0-D
  6
Continuous
 62
     7
370
     9
100
AcDbLine
 10
479.3859505747107
 20
-558.1253387736022
 30
0.0
 11
480.9410619430545
 21
-545.4585140596583
 31
0.0
  0
LINE
  5
3EA
330
1F
100
AcDbEntity
  8
0-D
  6
Continuous
 62
     7
370
     9
100
AcDbLine
 10
486.0029362345122
 20
-558.9375772729134
 30
0.0
 11
487.5580476028565
 21
-546.2707525589695
 31
0.0
  0
LINE
  5
3EB
330
1F
100
AcDbEntity
  8
0-D
  6
Continuous
 62
     7
370
     9
100
AcDbLine
 10
492.6199218943142
 20
-559.7501460847498
 30
0.0
 11
494.175033262658
 21
-547.0833213708058
 31
0.0
  0
LINE
  5
3EC
330
1F
100
AcDbEntity
  8
0-D
  6
Continuous
 62
     7
370
     9
100
AcDbLine
 10
499.2369075541162
 20
-560.562384584061
 30
0.0
 11
500.79201892246
 21
-547.895559870117
 31
0.0
  0
LINE
  5
3ED
330
1F
100
AcDbEntity
  8
0-D
  6
Continuous
 62
     7
370
     9
100
AcDbLine
 10
507.8445216466545
 20
-514.5095517044458
 30
0.0
 11
713.4072547899541
 21
-459.4286168877933
 31
0.0
  0
LINE
  5
3EE
330
1F
100
AcDbEntity
  8
0-D
  6
Continuous
 62
     7
370
     9
100
AcDbLine
 10
713.4072547899541
 20
-459.4286168877933
 30
0.0
 11
782.310282377216
 21
-459.4286168877933
 31
0.0
  0
LINE
  5
3EF
330
1F
100
AcDbEntity
  8
0-D
  6
Continuous
 62
     7
370
     9
100
AcDbLine
 10
714.2847300129796
 20
-466.0953145826281
 30
0.0
 11
782.310282377216
 21
-466.0953145826281
 31
0.0
  0
LINE
  5
3F0
330
1F
100
AcDbEntity
  8
0-D
  6
Continuous
 62
     7
370
     9
100
AcDbLine
 10
509.5700742779686
 20
-520.9489943819867
 30
0.0
 11
714.2847300129796
 21
-466.0953145826281
 31
0.0
  0
LINE
  5
3F1
330
1F
100
AcDbEntity
  8
0-D
  6
Continuous
 62
     7
370
     9
100
AcDbLine
 10
511.2954617530206
 20
-527.3886022157901
 30
0.0
 11
715.1625355485305
 21
-472.7620122774631
 31
0.0
  0
LINE
  5
3F2
330
1F
100
AcDbEntity
  8
0-D
  6
Continuous
 62
     7
370
     9
100
AcDbLine
 10
715.1625355485305
 20
-472.7620122774631
 30
0.0
 11
782.310282377216
 21
-472.7620122774631
 31
0.0
  0
LINE
  5
3F3
330
1F
100
AcDbEntity
  8
0-D
  6
Continuous
 62
     7
370
     9
100
AcDbLine
 10
716.0403410840814
 20
-479.4287099722979
 30
0.0
 11
782.310282377216
 21
-479.4287099722979
 31
0.0
  0
LINE
  5
3F4
330
1F
100
AcDbEntity
  8
0-D
  6
Continuous
 62
     7
370
     9
100
AcDbLine
 10
513.0210143843353
 20
-533.8282100495935
 30
0.0
 11
716.0403410840814
 21
-479.4287099722979
 31
0.0
  0
LINE
  5
3F5
330
1F
100
AcDbEntity
  8
0-D
  6
Continuous
 62
     7
370
     9
100
AcDbLine
 10
716.9178163071069
 20
-486.0954076671329
 30
0.0
 11
782.310282377216
 21
-486.0954076671329
 31
0.0
  0
LINE
  5
3F6
330
1F
100
AcDbEntity
  8
0-F
  6
Continuous
 62
     7
370
     9
100
AcDbLine
 10
745.0391382908867
 20
-486.0954076671329
 30
0.0
 11
603.2262270301909
 21
-627.9083189278284
 31
0.0
  0
LINE
  5
3F7
330
1F
100
AcDbEntity
  8
0-F
  6
Continuous
 62
     7
370
     9
100
AcDbLine
 10
759.181138742091
 20
-486.0954076671329
 30
0.0
 11
617.3682274813951
 21
-627.9083189278284
 31
0.0
  0
LINE
  5
3F8
330
1F
100
AcDbEntity
  8
0-F
  6
Continuous
 62
     7
370
     9
100
AcDbLine
 10
773.3234695058206
 20
-486.0954076671329
 30
0.0
 11
631.5105582451248
 21
-627.9083189278284
 31
0.0
  0
ARC
  5
3F9
330
1F
100
AcDbEntity
  8
0-1
  6
Continuous
 62
     2
370
     9
100
AcDbCircle
 10
514.0864374341637
 20
-482.1359514283188
 30
0.0
 40
5.000000046026752
100
AcDbArc
 50
90.0
 51
169.911865234375
  0
ARC
  5
3FA
330
1F
100
AcDbEntity
  8
0-1
  6
Continuous
 62
     2
370
     9
100
AcDbCircle
 10
500.7432978250019
 20
-490.5298533170936
 30
0.0
 40
6.666666728035669
100
AcDbArc
 50
284.9994964599609
 51
349.9125671386719
  0
ARC
  5
3FB
330
1F
100
AcDbEntity
  8
0-2
  6
Continuous
 62
     6
370
     9
100
AcDbCircle
 10
544.897989778919
 20
-472.136070042329
 30
0.0
 40
5.000000046026752
100
AcDbArc
 50
270.0
 51
0.0
  0
ARC
  5
3FC
330
1F
100
AcDbEntity
  8
0-A
  6
Continuous
 62
     2
370
     9
100
AcDbCircle
 10
533.2316817036146
 20
-471.802454391941
 30
0.0
 40
33.33334396244476
100
AcDbArc
 50
92.74569702148438
 51
126.869873046875
  0
ARC
  5
3FD
330
1F
100
AcDbEntity
  8
0-A
  6
Continuous
 62
     2
370
     9
100
AcDbCircle
 10
533.2316817036146
 20
-471.802454391941
 30
0.0
 40
33.33334396244476
100
AcDbArc
 50
53.130126953125
 51
87.25408935546875
  0
ARC
  5
3FE
330
1F
100
AcDbEntity
  8
0-A
  6
Continuous
 62
     2
370
     9
100
AcDbCircle
 10
544.5643741285307
 20
-454.6364427731095
 30
0.0
 40
0.8333333410044587
100
AcDbArc
 50
90.0
 51
150.6708221435547
  0
ARC
  5
3FF
330
1F
100
AcDbEntity
  8
0-A
  6
Continuous
 62
     2
370
     9
100
AcDbCircle
 10
521.89783318486
 20
-454.6364427731095
 30
0.0
 40
0.8333333410044587
100
AcDbArc
 50
29.32917785644531
 51
90.0
  0
ARC
  5
400
330
1F
100
AcDbEntity
  8
0-1
  6
Continuous
 62
     2
370
     9
100
AcDbCircle
 10
548.6658647531534
 20
-472.1364003548541
 30
0.0
 40
5.000000046026752
100
AcDbArc
 50
270.0
 51
349.3848724365234
  0
ARC
  5
401
330
1F
100
AcDbEntity
  8
0-1
  6
JWW_DASHED1
 62
     2
370
     9
100
AcDbCircle
 10
542.8953049390146
 20
-475.7843718824643
 30
0.0
 40
10.0000000920535
100
AcDbArc
 50
284.9998626708984
 51
349.3852233886719
  0
ARC
  5
402
330
1F
100
AcDbEntity
  8
0-0
  6
JWW_DASHED1
 62
     3
370
     9
100
AcDbCircle
 10
531.1143784174876
 20
-556.5872385003026
 30
0.0
 40
6.666666728035669
100
AcDbArc
 50
41.56492614746094
 51
105.000244140625
  0
ARC
  5
403
330
1F
100
AcDbEntity
  8
0-0
  6
JWW_DASHED1
 62
     3
370
     9
100
AcDbCircle
 10
542.4771292821914
 20
-551.816865012278
 30
0.0
 40
5.000000046026752
100
AcDbArc
 50
221.5634918212891
 51
284.9987182617188
  0
ARC
  5
404
330
1F
100
AcDbEntity
  8
0-0
  6
Continuous
 62
     3
370
     9
100
AcDbCircle
 10
580.919561582656
 20
-553.1447213633277
 30
0.0
 40
6.666666728035669
100
AcDbArc
 50
120.6904144287109
 51
171.5652465820313
  0
ARC
  5
405
330
1F
100
AcDbEntity
  8
0-0
  6
Continuous
 62
     3
370
     9
100
AcDbCircle
 10
523.9966389695788
 20
-599.5004508284932
 30
0.0
 40
5.000000046026752
100
AcDbArc
 50
191.3102111816407
 51
270.0
  0
ARC
  5
406
330
1F
100
AcDbEntity
  8
0-0
  6
Continuous
 62
     3
370
     9
100
AcDbCircle
 10
513.8316013210206
 20
-591.1669961318185
 30
0.0
 40
3.333333364017835
100
AcDbArc
 50
11.3099365234375
 51
90.0
  0
ARC
  5
407
330
1F
100
AcDbEntity
  8
0-0
  6
JWW_DASHED1
 62
     3
370
     9
100
AcDbCircle
 10
529.4723948550333
 20
-560.4779897338886
 30
0.0
 40
10.0000000920535
100
AcDbArc
 50
105.0000915527344
 51
172.9999237060547
  0
ARC
  5
408
330
1F
100
AcDbEntity
  8
0-0
  6
JWW_DASHED1
 62
     3
370
     9
100
AcDbCircle
 10
507.1911634719341
 20
-577.8339310546735
 30
0.0
 40
10.0000000920535
100
AcDbArc
 50
270.0
 51
352.9999237060547
  0
ARC
  5
409
330
1F
100
AcDbEntity
  8
0-0
  6
Continuous
 62
     3
370
     9
100
AcDbCircle
 10
546.9862255628335
 20
-536.8051516823882
 30
0.0
 40
5.000000046026752
100
AcDbArc
 50
221.5644226074219
 51
285.0000915527344
  0
ARC
  5
40A
330
1F
100
AcDbEntity
  8
0-0
  6
Continuous
 62
     3
370
     9
100
AcDbCircle
 10
563.5542063549049
 20
-532.3657513445505
 30
0.0
 40
5.000000046026752
100
AcDbArc
 50
285.0000915527344
 51
348.4351043701172
  0
ARC
  5
40B
330
1F
100
AcDbEntity
  8
0-0
  6
Continuous
 62
     3
370
     9
100
AcDbCircle
 10
584.0246644752041
 20
-519.5473131815688
 30
0.0
 40
5.416691877053356
100
AcDbArc
 50
217.62109375
 51
352.3794097900391
  0
ARC
  5
40C
330
1F
100
AcDbEntity
  8
0-0
  6
Continuous
 62
     3
370
     9
100
AcDbCircle
 10
572.9273197244477
 20
-528.1288325846215
 30
0.0
 40
3.333333364017835
100
AcDbArc
 50
104.9992218017578
 51
168.4335784912109
  0
ARC
  5
40D
330
1F
100
AcDbEntity
  8
0-0
  6
Continuous
 62
     3
370
     9
100
AcDbCircle
 10
536.7500055651086
 20
-537.8221839472844
 30
0.0
 40
3.333333364017835
100
AcDbArc
 50
41.56501770019532
 51
104.9997711181641
  0
ARC
  5
40E
330
1F
100
AcDbEntity
  8
0-0
  6
Continuous
 62
     3
370
     9
100
AcDbCircle
 10
603.3433228203519
 20
-514.3713159126762
 30
0.0
 40
5.416691877053356
100
AcDbArc
 50
217.6203002929688
 51
352.3807067871094
  0
ARC
  5
40F
330
1F
100
AcDbEntity
  8
0-0
  6
Continuous
 62
     3
370
     9
100
AcDbCircle
 10
522.8491332572539
 20
-535.939402554005
 30
0.0
 40
5.416691877053356
100
AcDbArc
 50
217.6192626953125
 51
352.3794097900391
  0
ARC
  5
410
330
1F
100
AcDbEntity
  8
0-0
  6
Continuous
 62
     3
370
     9
100
AcDbCircle
 10
587.19071002864
 20
-541.5616520443575
 30
0.0
 40
6.666666728035669
100
AcDbArc
 50
104.9994964599609
 51
168.4337921142578
  0
ARC
  5
411
330
1F
100
AcDbEntity
  8
0-0
  6
Continuous
 62
     3
370
     9
100
AcDbCircle
 10
495.9283321460841
 20
-560.1559350218802
 30
0.0
 40
10.0000000920535
100
AcDbArc
 50
273.9998321533203
 51
352.9999237060547
  0
ARC
  5
412
330
1F
100
AcDbEntity
  8
0-0
  6
Continuous
 62
     3
370
     9
100
AcDbCircle
 10
574.9648525357533
 20
-543.1118087248242
 30
0.0
 40
5.000000046026752
100
AcDbArc
 50
285.0000915527344
 51
348.4337158203125
  0
ARC
  5
413
330
1F
100
AcDbEntity
  8
0-0
  6
Continuous
 62
     3
370
     9
100
AcDbCircle
 10
517.3345656500956
 20
-549.9264864309204
 30
0.0
 40
10.0000000920535
100
AcDbArc
 50
104.9995880126953
 51
173.0002746582031
  0
ARC
  5
414
330
1F
100
AcDbEntity
  8
0-1
  6
Continuous
 62
     2
370
     9
100
AcDbCircle
 10
578.0925818362733
 20
-466.3536189772851
 30
0.0
 40
10.0000000920535
100
AcDbArc
 50
188.7070922851563
 51
285.0004425048828
  0
ARC
  5
415
330
1F
100
AcDbEntity
  8
0-0
  6
Continuous
 62
     3
370
     9
100
AcDbCircle
 10
563.6889738651605
 20
-601.166877517808
 30
0.0
 40
3.333333364017835
100
AcDbArc
 50
270.0
 51
351.5637817382812
  0
ARC
  5
416
330
1F
100
AcDbEntity
  8
0-0
  6
Continuous
 62
     3
370
     9
100
AcDbCircle
 10
614.8578522903564
 20
-565.206413531221
 30
0.0
 40
36.66666700419619
100
AcDbArc
 50
56.87046813964844
 51
104.9998321533203
  0
ARC
  5
417
330
1F
100
AcDbEntity
  8
0-0
  6
Continuous
 62
     3
370
     9
100
AcDbCircle
 10
648.6217379847835
 20
-507.8337704151696
 30
0.0
 40
3.333333364017835
100
AcDbArc
 50
7.12396240234375
 51
90.00000000000001
  0
ARC
  5
418
330
1F
100
AcDbEntity
  8
0-A
  6
Continuous
 62
     2
370
     9
100
AcDbCircle
 10
586.0641791616611
 20
-307.1360452983467
 30
0.0
 40
33.33333364017835
100
AcDbArc
 50
2.745697021484375
 51
36.86987304687501
  0
ARC
  5
419
330
1F
100
AcDbEntity
  8
0-A
  6
Continuous
 62
     2
370
     9
100
AcDbCircle
 10
586.0641791616611
 20
-307.1360452983467
 30
0.0
 40
33.33333364017835
100
AcDbArc
 50
323.130126953125
 51
357.2540893554688
  0
ARC
  5
41A
330
1F
100
AcDbEntity
  8
0-A
  6
Continuous
 62
     2
370
     9
100
AcDbCircle
 10
603.2308514055428
 20
-318.4690680357884
 30
0.0
 40
0.8333333410044587
100
AcDbArc
 50
0.0
 51
60.67082214355469
  0
ARC
  5
41B
330
1F
100
AcDbEntity
  8
0-A
  6
Continuous
 62
     2
370
     9
100
AcDbCircle
 10
603.2308514055428
 20
-295.8023619358547
 30
0.0
 40
0.8333333410044587
100
AcDbArc
 50
299.3291778564453
 51
0.0
  0
ARC
  5
41C
330
1F
100
AcDbEntity
  8
0-D
  6
Continuous
 62
     7
370
     9
100
AcDbCircle
 10
517.3345656500956
 20
-549.9264864309204
 30
0.0
 40
43.33333373223185
100
AcDbArc
 50
104.9995880126953
 51
173.0002746582031
  0
ARC
  5
41D
330
1F
100
AcDbEntity
  8
0-D
  6
Continuous
 62
     7
370
     9
100
AcDbCircle
 10
517.3345656500956
 20
-549.9264864309204
 30
0.0
 40
36.66666700419619
100
AcDbArc
 50
104.9995880126953
 51
173.0002746582031
  0
ARC
  5
41E
330
1F
100
AcDbEntity
  8
0-D
  6
Continuous
 62
     7
370
     9
100
AcDbCircle
 10
517.3345656500956
 20
-549.9264864309204
 30
0.0
 40
30.00000027616052
100
AcDbArc
 50
104.9995880126953
 51
173.0002746582031
  0
ARC
  5
41F
330
1F
100
AcDbEntity
  8
0-D
  6
Continuous
 62
     7
370
     9
100
AcDbCircle
 10
517.3345656500956
 20
-549.9264864309204
 30
0.0
 40
23.33333354812484
100
AcDbArc
 50
104.9995880126953
 51
173.0002746582031
  0
ARC
  5
420
330
1F
100
AcDbEntity
  8
0-D
  6
Continuous
 62
     7
370
     9
100
AcDbCircle
 10
517.3345656500956
 20
-549.9264864309204
 30
0.0
 40
16.66666682008917
100
AcDbArc
 50
104.9995880126953
 51
173.0002746582031
  0
LWPOLYLINE
  5
421
330
1F
100
AcDbEntity
  8
0-F
  6
Continuous
 62
     7
370
     9
100
AcDbPolyline
 90
        4
 70
     1
 43
1.0
 10
674.178420360344
 20
-483.651094981121
 42
0.4142135623731
 10
673.678420360344
 20
-483.1510949811211
 42
0.4142135623731
 10
673.178420360344
 20
-483.651094981121
 42
0.4142135623731
 10
673.678420360344
 20
-484.151094981121
 42
0.4142135623731
  0
LWPOLYLINE
  5
422
330
1F
100
AcDbEntity
  8
0-F
  6
Continuous
 62
     7
370
     9
100
AcDbPolyline
 90
        4
 70
     1
 43
1.0
 10
702.3557303171343
 20
-417.2331736767251
 42
0.4142135623731
 10
701.8557303171343
 20
-416.7331736767252
 42
0.4142135623731
 10
701.3557303171343
 20
-417.2331736767251
 42
0.4142135623731
 10
701.8557303171343
 20
-417.7331736767251
 42
0.4142135623731
  0
LWPOLYLINE
  5
423
330
1F
100
AcDbEntity
  8
0-F
  6
Continuous
 62
     7
370
     9
100
AcDbPolyline
 90
        4
 70
     1
 43
1.0
 10
594.1725978656608
 20
-453.9498881896125
 42
0.4142135623731
 10
593.6725978656609
 20
-453.4498881896126
 42
0.4142135623731
 10
593.1725978656609
 20
-453.9498881896125
 42
0.4142135623731
 10
593.6725978656609
 20
-454.4498881896125
 42
0.4142135623731
  0
LWPOLYLINE
  5
424
330
1F
100
AcDbEntity
  8
0-F
  6
Continuous
 62
     7
370
     9
100
AcDbPolyline
 90
        4
 70
     1
 43
1.0
 10
652.525938868843
 20
-408.7096241218339
 42
0.4142135623731
 10
652.025938868843
 20
-408.209624121834
 42
0.4142135623731
 10
651.525938868843
 20
-408.7096241218339
 42
0.4142135623731
 10
652.025938868843
 20
-409.2096241218339
 42
0.4142135623731
  0
LWPOLYLINE
  5
425
330
1F
100
AcDbEntity
  8
0-F
  6
Continuous
 62
     7
370
     9
100
AcDbPolyline
 90
        4
 70
     1
 43
1.0
 10
654.4927847997694
 20
-451.9828771024234
 42
0.4142135623731
 10
653.9927847997694
 20
-451.4828771024235
 42
0.4142135623731
 10
653.4927847997694
 20
-451.9828771024234
 42
0.4142135623731
 10
653.9927847997694
 20
-452.4828771024233
 42
0.4142135623731
  0
LWPOLYLINE
  5
426
330
1F
100
AcDbEntity
  8
0-F
  6
Continuous
 62
     7
370
     9
100
AcDbPolyline
 90
        4
 70
     1
 43
1.0
 10
691.2094993126577
 20
-392.3182779525795
 42
0.4142135623731
 10
690.7094993126577
 20
-391.8182779525795
 42
0.4142135623731
 10
690.2094993126577
 20
-392.3182779525795
 42
0.4142135623731
 10
690.7094993126577
 20
-392.8182779525795
 42
0.4142135623731
  0
LWPOLYLINE
  5
427
330
1F
100
AcDbEntity
  8
0-F
  6
Continuous
 62
     7
370
     9
100
AcDbPolyline
 90
        4
 70
     1
 43
1.0
 10
763.9872579760361
 20
-421.8228662135001
 42
0.4142135623731
 10
763.4872579760361
 20
-421.3228662135001
 42
0.4142135623731
 10
762.9872579760361
 20
-421.8228662135001
 42
0.4142135623731
 10
763.4872579760361
 20
-422.3228662135
 42
0.4142135623731
  0
LWPOLYLINE
  5
428
330
1F
100
AcDbEntity
  8
0-F
  6
Continuous
 62
     7
370
     9
100
AcDbPolyline
 90
        4
 70
     1
 43
1.0
 10
740.3837855548146
 20
-438.2141298046233
 42
0.4142135623731
 10
739.8837855548146
 20
-437.7141298046233
 42
0.4142135623731
 10
739.3837855548146
 20
-438.2141298046233
 42
0.4142135623731
 10
739.8837855548146
 20
-438.7141298046232
 42
0.4142135623731
  0
LWPOLYLINE
  5
429
330
1F
100
AcDbEntity
  8
0-F
  6
Continuous
 62
     7
370
     9
100
AcDbPolyline
 90
        4
 70
     1
 43
1.0
 10
751.529851403029
 20
-398.2191460578849
 42
0.4142135623731
 10
751.029851403029
 20
-397.7191460578849
 42
0.4142135623731
 10
750.529851403029
 20
-398.2191460578849
 42
0.4142135623731
 10
751.029851403029
 20
-398.7191460578848
 42
0.4142135623731
  0
LINE
  5
42A
330
1F
100
AcDbEntity
  8
0-C
  6
Continuous
 62
     6
370
     9
100
AcDbLine
 10
602.3974729046229
 20
-283.802438210162
 30
0.0
 11
602.3974729046229
 21
-278.8024975171671
 31
0.0
  0
LINE
  5
42B
330
1F
100
AcDbEntity
  8
0-C
  6
Continuous
 62
     6
370
     9
100
AcDbLine
 10
570.7309065885512
 20
-283.802438210162
 30
0.0
 11
602.3974729046229
 21
-283.802438210162
 31
0.0
  0
LINE
  5
42C
330
1F
100
AcDbEntity
  8
0-C
  6
Continuous
 62
     6
370
     9
100
AcDbLine
 10
602.3974729046229
 20
-278.8024975171671
 30
0.0
 11
570.7309065885512
 21
-278.8024975171671
 31
0.0
  0
LINE
  5
42D
330
1F
100
AcDbEntity
  8
0-C
  6
JWW_CENTER1
 62
     6
370
     9
100
AcDbLine
 10
622.7784163306104
 20
-307.1360452983467
 30
0.0
 11
564.064208893716
 21
-307.1360452983467
 31
0.0
  0
LINE
  5
42E
330
1F
100
AcDbEntity
  8
0-C
  6
Continuous
 62
     6
370
     9
100
AcDbLine
 10
569.0643147429735
 20
-390.4692710149953
 30
0.0
 11
564.064208893716
 21
-390.4692710149953
 31
0.0
  0
LINE
  5
42F
330
1F
100
AcDbEntity
  8
0-C
  6
Continuous
 62
     6
370
     9
100
AcDbLine
 10
569.0643147429735
 20
-285.469195212002
 30
0.0
 11
569.0643147429735
 21
-390.4692710149953
 31
0.0
  0
LINE
  5
430
330
1F
100
AcDbEntity
  8
0-C
  6
Continuous
 62
     6
370
     9
100
AcDbLine
 10
569.0643147429735
 20
-295.4694069105168
 30
0.0
 11
564.064208893716
 21
-295.4694069105168
 31
0.0
  0
LINE
  5
431
330
1F
100
AcDbEntity
  8
0-C
  6
Continuous
 62
     6
370
     9
100
AcDbLine
 10
569.0643147429735
 20
-318.8026836861764
 30
0.0
 11
564.064208893716
 21
-318.8026836861764
 31
0.0
  0
ARC
  5
432
330
1F
100
AcDbEntity
  8
0-C
  6
Continuous
 62
     6
370
     9
100
AcDbCircle
 10
570.7309065885512
 20
-285.469195212002
 30
0.0
 40
1.666666682008917
100
AcDbArc
 50
90.0
 51
180.0
  0
ARC
  5
433
330
1F
100
AcDbEntity
  8
0-C
  6
Continuous
 62
     6
370
     9
100
AcDbCircle
 10
570.7309065885512
 20
-285.469195212002
 30
0.0
 40
6.666666728035669
100
AcDbArc
 50
90.0
 51
180.0
  0
LINE
  5
434
330
1F
100
AcDbEntity
  8
0-5
  6
Continuous
 62
     7
370
     9
100
AcDbLine
 10
739.5281370521928
 20
-327.5620364393578
 30
0.0
 11
673.678420360344
 21
-483.651094981121
 31
0.0
  0
LINE
  5
435
330
1F
100
AcDbEntity
  8
0-5
  6
Continuous
 62
     7
370
     9
100
AcDbLine
 10
722.9782253620533
 20
-368.3397356590652
 30
0.0
 11
853.4194098001245
 21
-368.3397356590652
 31
0.0
  0
TEXT
  5
436
330
1F
100
AcDbEntity
  8
0-5
  6
Continuous
 62
     7
370
     9
100
AcDbText
 10
734.8655676203282
 20
-361.9105184566121
 30
0.0
 40
22.86
  1
防水層
 41
1.111111111111111
  7
ＭＳ ゴシック
100
AcDbText
  0
LINE
  5
437
330
1F
100
AcDbEntity
  8
0-5
  6
Continuous
 62
     7
370
     9
100
AcDbLine
 10
739.5281370521928
 20
-327.5620364393578
 30
0.0
 11
1018.115835524757
 21
-327.5620364393578
 31
0.0
  0
TEXT
  5
438
330
1F
100
AcDbEntity
  8
0-5
  6
Continuous
 62
     7
370
     9
100
AcDbText
 10
739.952087032658
 20
-319.6144937805285
 30
0.0
 40
22.86
  1
押えコンクリ－ト
 41
1.145833333333333
  7
ＭＳ ゴシック
100
AcDbText
  0
LINE
  5
439
330
1F
100
AcDbEntity
  8
0-5
  6
Continuous
 62
     7
370
     9
100
AcDbLine
 10
720.3336728019187
 20
-114.2976565254682
 30
0.0
 11
1005.465481442161
 21
-114.2976565254682
 31
0.0
  0
TEXT
  5
43A
330
1F
100
AcDbEntity
  8
0-5
  6
Continuous
 62
     7
370
     9
100
AcDbText
 10
728.9946971201173
 20
-106.8597372384877
 30
0.0
 40
22.86
  1
蓋：SUS304　２Ｂ
 41
1.145833333333333
  7
ＭＳ ゴシック
100
AcDbText
  0
TEXT
  5
43B
330
1F
100
AcDbEntity
  8
0-5
  6
Continuous
 62
     7
370
     9
100
AcDbText
 10
727.6774971910882
 20
-142.8883945654832
 30
0.0
 40
22.86
  1
ｔ＝１．５
 41
1.133333333333333
  7
ＭＳ ゴシック
100
AcDbText
  0
LINE
  5
43C
330
1F
100
AcDbEntity
  8
0-5
  6
Continuous
 62
     7
370
     9
100
AcDbLine
 10
720.3336728019187
 20
-114.2976565254682
 30
0.0
 11
602.3974729046229
 21
-278.8024975171671
 31
0.0
  0
LINE
  5
43D
330
1F
100
AcDbEntity
  8
0-5
  6
Continuous
 62
     7
370
     9
100
AcDbLine
 10
602.3974729046229
 20
-278.8024975171671
 30
0.0
 11
614.1871454844481
 21
-256.7570077185593
 31
0.0
  0
LINE
  5
43E
330
1F
100
AcDbEntity
  8
0-5
  6
Continuous
 62
     7
370
     9
100
AcDbLine
 10
602.3974729046229
 20
-278.8024975171671
 30
0.0
 11
619.4912147514614
 21
-260.5595813666815
 31
0.0
  0
LINE
  5
43F
330
1F
100
AcDbEntity
  8
蓋
  6
Continuous
 62
     7
370
     9
100
AcDbLine
 10
-618.64073908087
 20
-786.5421120734449
 30
0.0
 11
-518.640769127134
 21
-786.5421120734449
 31
0.0
  0
LINE
  5
440
330
1F
100
AcDbEntity
  8
蓋
  6
Continuous
 62
     7
370
     9
100
AcDbLine
 10
-618.64073908087
 20
-786.5421120734449
 30
0.0
 11
-588.8973932396557
 21
-782.6263263068433
 31
0.0
  0
LINE
  5
441
330
1F
100
AcDbEntity
  8
蓋
  6
Continuous
 62
     7
370
     9
100
AcDbLine
 10
-618.64073908087
 20
-786.5421120734449
 30
0.0
 11
-588.8973932396557
 21
-790.4578978400464
 31
0.0
  0
LINE
  5
442
330
1F
100
AcDbEntity
  8
蓋
  6
Continuous
 62
     7
370
     9
100
AcDbLine
 10
-518.640769127134
 20
-786.5421120734449
 30
0.0
 11
-548.3841149683484
 21
-782.6263263068433
 31
0.0
  0
LINE
  5
443
330
1F
100
AcDbEntity
  8
蓋
  6
Continuous
 62
     7
370
     9
100
AcDbLine
 10
-518.640769127134
 20
-786.5421120734449
 30
0.0
 11
-548.3841149683484
 21
-790.4578978400464
 31
0.0
  0
LINE
  5
444
330
1F
100
AcDbEntity
  8
蓋
  6
Continuous
 62
     7
370
     9
100
AcDbLine
 10
-618.64073908087
 20
-789.5421120734449
 30
0.0
 11
-618.64073908087
 21
-722.7025789533945
 31
0.0
  0
LINE
  5
445
330
1F
100
AcDbEntity
  8
蓋
  6
Continuous
 62
     7
370
     9
100
AcDbLine
 10
-518.640769127134
 20
-789.5421120734449
 30
0.0
 11
-518.640769127134
 21
-722.7025789533945
 31
0.0
  0
TEXT
  5
446
330
1F
100
AcDbEntity
  8
蓋
  6
Continuous
 62
     2
370
   211
100
AcDbText
 10
-589.8907541040021
 20
-775.9021120734449
 30
0.0
 40
30.48
  1
30
 41
1.0625
  7
ＭＳ ゴシック
100
AcDbText
  0
LINE
  5
447
330
1F
100
AcDbEntity
  8
0-5
  6
Continuous
 62
     7
370
     9
100
AcDbLine
 10
-472.9938101610366
 20
-825.8989170644152
 30
0.0
 11
-185.4319008789739
 21
-825.8989170644152
 31
0.0
  0
TEXT
  5
448
330
1F
100
AcDbEntity
  8
0-5
  6
Continuous
 62
     7
370
     9
100
AcDbText
 10
-467.5578387463685
 20
-817.2281119298533
 30
0.0
 40
22.86
  1
丸小ねじ：SUS304
 41
1.15625
  7
ＭＳ ゴシック
100
AcDbText
  0
TEXT
  5
449
330
1F
100
AcDbEntity
  8
0-5
  6
Continuous
 62
     7
370
     9
100
AcDbText
 10
-463.4912941155304
 20
-859.3498563880707
 30
0.0
 40
22.86
  1
M6×12
 41
1.13888888888889
  7
ＭＳ ゴシック
100
AcDbText
  0
LINE
  5
44A
330
1F
100
AcDbEntity
  8
0-5
  6
Continuous
 62
     7
370
     9
100
AcDbLine
 10
-472.9938101610366
 20
-825.8989170644152
 30
0.0
 11
-579.696302444401
 21
-569.3692443926813
 31
0.0
  0
LINE
  5
44B
330
1F
100
AcDbEntity
  8
0-5
  6
Continuous
 62
     7
370
     9
100
AcDbLine
 10
-579.696302444401
 20
-569.3692443926813
 30
0.0
 11
-567.1643202504463
 21
-591.0013830361536
 31
0.0
  0
LINE
  5
44C
330
1F
100
AcDbEntity
  8
0-5
  6
Continuous
 62
     7
370
     9
100
AcDbLine
 10
-579.696302444401
 20
-569.3692443926813
 30
0.0
 11
-573.1901466558944
 21
-593.5078014509581
 31
0.0
  0
TEXT
  5
44D
330
1F
100
AcDbEntity
  8
0-5
  6
Continuous
 62
     2
370
     9
100
AcDbText
 10
505.5570094002204
 20
-752.1201198972987
 30
0.0
 40
30.48
  1
納まり例
 41
1.09375
  7
ＭＳ ゴシック
100
AcDbText
  0
LINE
  5
44E
330
1F
100
AcDbEntity
  8
0-5
  6
Continuous
 62
     7
370
     9
100
AcDbLine
 10
490.5570094002204
 20
-702.7601198972986
 30
0.0
 11
695.5570094002203
 21
-702.7601198972986
 31
0.0
  0
LINE
  5
44F
330
1F
100
AcDbEntity
  8
0-5
  6
Continuous
 62
     7
370
     9
100
AcDbLine
 10
490.5570094002204
 20
-772.7601198972986
 30
0.0
 11
695.5570094002203
 21
-772.7601198972986
 31
0.0
  0
LINE
  5
450
330
1F
100
AcDbEntity
  8
0-5
  6
Continuous
 62
     7
370
     9
100
AcDbLine
 10
490.5570094002204
 20
-702.7601198972986
 30
0.0
 11
490.5570094002204
 21
-772.7601198972986
 31
0.0
  0
LINE
  5
451
330
1F
100
AcDbEntity
  8
0-5
  6
Continuous
 62
     7
370
     9
100
AcDbLine
 10
695.5570094002203
 20
-702.7601198972986
 30
0.0
 11
695.5570094002203
 21
-772.7601198972986
 31
0.0
  0
ENDSEC
  0
SECTION
  2
OBJECTS
  0
DICTIONARY
  5
C
330
0
100
AcDbDictionary
281
     1
  3
ACAD_GROUP
350
D
  3
ACAD_LAYOUT
350
1A
  3
ACAD_MLEADERSTYLE
350
453
  3
ACAD_MLINESTYLE
350
17
  3
ACAD_PLOTSETTINGS
350
19
  3
ACAD_PLOTSTYLENAME
350
E
  3
ACAD_TABLESTYLE
350
452
  3
ACAD_VISUALSTYLE
350
2A
  3
AcDbVariableDictionary
350
454
  0
DICTIONARY
  5
D
102
{ACAD_REACTORS
330
C
102
}
330
C
100
AcDbDictionary
281
     1
  0
DICTIONARY
  5
1A
102
{ACAD_REACTORS
330
C
102
}
330
C
100
AcDbDictionary
281
     1
  3
Layout1
350
1E
  3
Layout2
350
26
  3
Model
350
22
  0
DICTIONARY
  5
453
102
{ACAD_REACTORS
330
C
102
}
330
C
100
AcDbDictionary
281
     1
  0
DICTIONARY
  5
17
102
{ACAD_REACTORS
330
C
102
}
330
C
100
AcDbDictionary
281
     1
  3
Standard
350
18
  0
DICTIONARY
  5
19
102
{ACAD_REACTORS
330
C
102
}
330
C
100
AcDbDictionary
281
     1
  0
ACDBDICTIONARYWDFLT
  5
E
102
{ACAD_REACTORS
330
C
102
}
330
C
100
AcDbDictionary
281
     1
  3
Normal
350
F
100
AcDbDictionaryWithDefault
340
F
  0
DICTIONARY
  5
452
102
{ACAD_REACTORS
330
C
102
}
330
C
100
AcDbDictionary
281
     1
  0
DICTIONARY
  5
2A
102
{ACAD_REACTORS
330
C
102
}
330
C
100
AcDbDictionary
281
     1
  3
2dWireframe
350
2F
  3
3D Hidden
350
31
  3
3dWireframe
350
30
  3
Basic
350
32
  3
Brighten
350
36
  3
ColorChange
350
3A
  3
Conceptual
350
34
  3
Dim
350
35
  3
Facepattern
350
39
  3
Flat
350
2B
  3
FlatWithEdges
350
2C
  3
Gouraud
350
2D
  3
GouraudWithEdges
350
2E
  3
Linepattern
350
38
  3
Realistic
350
33
  3
Thicken
350
37
  0
DICTIONARY
  5
454
102
{ACAD_REACTORS
330
C
102
}
330
C
100
AcDbDictionary
281
     1
  3
PSOLHEIGHT
350
456
  3
PSOLWIDTH
350
455
  0
LAYOUT
  5
1E
102
{ACAD_REACTORS
330
1A
102
}
102
{ACAD_XDICTIONARY
360
457
102
}
330
1A
100
AcDbPlotSettings
  1

  2
none_device
  4

  6

 40
0.0
 41
0.0
 42
0.0
 43
0.0
 44
0.0
 45
0.0
 46
0.0
 47
0.0
 48
0.0
 49
0.0
140
0.0
141
0.0
142
1.0
143
1.0
 70
   688
 72
     0
 73
     0
 74
     5
  7

 75
    16
147
1.0
148
0.0
149
0.0
100
AcDbLayout
  1
Layout1
 70
     1
 71
     1
 10
0.0
 20
0.0
 11
420.0
 21
297.0
 12
0.0
 22
0.0
 32
0.0
 14
1.000000000000000E+20
 24
1.000000000000000E+20
 34
1.000000000000000E+20
 15
-1.000000000000000E+20
 25
-1.000000000000000E+20
 35
-1.000000000000000E+20
146
0.0
 13
0.0
 23
0.0
 33
0.0
 16
1.0
 26
0.0
 36
0.0
 17
0.0
 27
1.0
 37
0.0
 76
     0
330
1B
  0
LAYOUT
  5
26
102
{ACAD_REACTORS
330
1A
102
}
102
{ACAD_XDICTIONARY
360
45B
102
}
330
1A
100
AcDbPlotSettings
  1

  2
none_device
  4

  6

 40
0.0
 41
0.0
 42
0.0
 43
0.0
 44
0.0
 45
0.0
 46
0.0
 47
0.0
 48
0.0
 49
0.0
140
0.0
141
0.0
142
1.0
143
1.0
 70
   688
 72
     0
 73
     0
 74
     5
  7

 75
    16
147
1.0
148
0.0
149
0.0
100
AcDbLayout
  1
Layout2
 70
     1
 71
     2
 10
0.0
 20
0.0
 11
0.0
 21
0.0
 12
0.0
 22
0.0
 32
0.0
 14
0.0
 24
0.0
 34
0.0
 15
0.0
 25
0.0
 35
0.0
146
0.0
 13
0.0
 23
0.0
 33
0.0
 16
1.0
 26
0.0
 36
0.0
 17
0.0
 27
1.0
 37
0.0
 76
     0
330
23
  0
LAYOUT
  5
22
102
{ACAD_REACTORS
330
1A
102
}
102
{ACAD_XDICTIONARY
360
459
102
}
330
1A
100
AcDbPlotSettings
  1

  2
none_device
  4

  6

 40
0.0
 41
0.0
 42
0.0
 43
0.0
 44
0.0
 45
0.0
 46
0.0
 47
0.0
 48
0.0
 49
0.0
140
0.0
141
0.0
142
1.0
143
1.0
 70
  1712
 72
     0
 73
     0
 74
     0
  7

 75
     0
147
1.0
148
0.0
149
0.0
100
AcDbLayout
  1
Model
 70
     1
 71
     0
 10
-2100.0
 20
-1485.0
 11
2100.0
 21
1485.0
 12
0.0
 22
0.0
 32
0.0
 14
-2100.0
 24
-1485.0
 34
0.0
 15
2100.0
 25
1485.0
 35
0.0
146
0.0
 13
0.0
 23
0.0
 33
0.0
 16
1.0
 26
0.0
 36
0.0
 17
0.0
 27
1.0
 37
0.0
 76
     0
330
1F
331
29
  0
MLINESTYLE
  5
18
102
{ACAD_REACTORS
330
17
102
}
330
17
100
AcDbMlineStyle
  2
Standard
 70
     0
  3

 62
   256
 51
90.0
 52
90.0
 71
     2
 49
0.5
 62
   256
  6
BYLAYER
 49
-0.5
 62
   256
  6
BYLAYER
  0
ACDBPLACEHOLDER
  5
F
102
{ACAD_REACTORS
330
E
102
}
330
E
  0
VISUALSTYLE
  5
2F
102
{ACAD_REACTORS
330
2A
102
}
330
2A
100
AcDbVisualStyle
  2
2dWireframe
 70
     4
 71
     0
 72
     2
 73
     0
 90
        0
 40
-0.6
 41
-30.0
 62
     5
 63
     7
 74
     1
 91
        4
 64
     7
 65
   257
 75
     1
175
     1
 42
1.0
 92
        0
 66
   257
 43
1.0
 76
     1
 77
     6
 78
     2
 67
     7
 79
     5
170
     0
171
     0
290
     0
174
     0
 93
        1
 44
0.0
173
     0
291
     0
 45
0.0
1001
ACAD
1000
AcDbSavedByObjectVersion
1070
     0
  0
VISUALSTYLE
  5
31
102
{ACAD_REACTORS
330
2A
102
}
330
2A
100
AcDbVisualStyle
  2
3D Hidden
 70
     6
 71
     1
 72
     2
 73
     2
 90
        0
 40
-0.6
 41
-30.0
 62
     5
 63
     7
 74
     2
 91
        2
 64
     7
 65
   257
 75
     2
175
     1
 42
40.0
 92
        0
 66
   257
 43
1.0
 76
     1
 77
     6
 78
     2
 67
     7
 79
     3
170
     0
171
     0
290
     0
174
     0
 93
        1
 44
0.0
173
     0
291
     0
 45
0.0
1001
ACAD
1000
AcDbSavedByObjectVersion
1070
     0
  0
VISUALSTYLE
  5
30
102
{ACAD_REACTORS
330
2A
102
}
330
2A
100
AcDbVisualStyle
  2
3dWireframe
 70
     5
 71
     0
 72
     2
 73
     0
 90
        0
 40
-0.6
 41
-30.0
 62
     5
 63
     7
 74
     1
 91
        4
 64
     7
 65
   257
 75
     1
175
     1
 42
1.0
 92
        0
 66
   257
 43
1.0
 76
     1
 77
     6
 78
     2
 67
     7
 79
     5
170
     0
171
     0
290
     0
174
     0
 93
        1
 44
0.0
173
     0
291
     0
 45
0.0
1001
ACAD
1000
AcDbSavedByObjectVersion
1070
     0
  0
VISUALSTYLE
  5
32
102
{ACAD_REACTORS
330
2A
102
}
330
2A
100
AcDbVisualStyle
  2
Basic
 70
     7
 71
     1
 72
     0
 73
     1
 90
        0
 40
-0.6
 41
-30.0
 62
     5
 63
     7
 74
     0
 91
        4
 64
     7
 65
   257
 75
     1
175
     1
 42
1.0
 92
        8
 66
     7
 43
1.0
 76
     1
 77
     6
 78
     2
 67
     7
 79
     5
170
     0
171
     0
290
     0
174
     0
 93
        1
 44
0.0
173
     0
291
     1
 45
0.0
1001
ACAD
1000
AcDbSavedByObjectVersion
1070
     0
  0
VISUALSTYLE
  5
36
102
{ACAD_REACTORS
330
2A
102
}
330
2A
100
AcDbVisualStyle
  2
Brighten
 70
    12
 71
     2
 72
     2
 73
     0
 90
        0
 40
-0.6
 41
-30.0
 62
     5
 63
     7
 74
     1
 91
        4
 64
     7
 65
   257
 75
     1
175
     1
 42
1.0
 92
        8
 66
     7
 43
1.0
 76
     1
 77
     6
 78
     2
 67
     7
 79
     5
170
     0
171
     0
290
     0
174
     0
 93
        1
 44
50.0
173
     0
291
     1
 45
0.0
1001
ACAD
1000
AcDbSavedByObjectVersion
1070
     0
  0
VISUALSTYLE
  5
3A
102
{ACAD_REACTORS
330
2A
102
}
330
2A
100
AcDbVisualStyle
  2
ColorChange
 70
    16
 71
     2
 72
     2
 73
     3
 90
        0
 40
-0.6
 41
-30.0
 62
     5
 63
     8
 74
     1
 91
        4
 64
     7
 65
   257
 75
     1
175
     1
 42
1.0
 92
        8
 66
     8
 43
1.0
 76
     1
 77
     6
 78
     2
 67
     7
 79
     5
170
     0
171
     0
290
     0
174
     0
 93
        1
 44
0.0
173
     0
291
     1
 45
0.0
1001
ACAD
1000
AcDbSavedByObjectVersion
1070
     0
  0
VISUALSTYLE
  5
34
102
{ACAD_REACTORS
330
2A
102
}
330
2A
100
AcDbVisualStyle
  2
Conceptual
 70
     9
 71
     3
 72
     2
 73
     0
 90
        0
 40
-0.6
 41
-30.0
 62
     5
 63
     7
 74
     2
 91
        2
 64
     7
 65
   257
 75
     1
175
     1
 42
40.0
 92
        8
 66
     7
 43
1.0
 76
     1
 77
     6
 78
     2
 67
     7
 79
     3
170
     0
171
     0
290
     0
174
     0
 93
        1
 44
0.0
173
     0
291
     0
 45
0.0
1001
ACAD
1000
AcDbSavedByObjectVersion
1070
     0
  0
VISUALSTYLE
  5
35
102
{ACAD_REACTORS
330
2A
102
}
330
2A
100
AcDbVisualStyle
  2
Dim
 70
    11
 71
     2
 72
     2
 73
     0
 90
        0
 40
-0.6
 41
-30.0
 62
     5
 63
     7
 74
     1
 91
        4
 64
     7
 65
   257
 75
     1
175
     1
 42
1.0
 92
        8
 66
     7
 43
1.0
 76
     1
 77
     6
 78
     2
 67
     7
 79
     5
170
     0
171
     0
290
     0
174
     0
 93
        1
 44
-50.0
173
     0
291
     1
 45
0.0
1001
ACAD
1000
AcDbSavedByObjectVersion
1070
     0
  0
VISUALSTYLE
  5
39
102
{ACAD_REACTORS
330
2A
102
}
330
2A
100
AcDbVisualStyle
  2
Facepattern
 70
    15
 71
     2
 72
     2
 73
     0
 90
        0
 40
-0.6
 41
-30.0
 62
     5
 63
     7
 74
     1
 91
        4
 64
     7
 65
   257
 75
     1
175
     1
 42
1.0
 92
        8
 66
     7
 43
1.0
 76
     1
 77
     6
 78
     2
 67
     7
 79
     5
170
     0
171
     0
290
     0
174
     0
 93
        1
 44
0.0
173
     0
291
     1
 45
0.0
1001
ACAD
1000
AcDbSavedByObjectVersion
1070
     0
  0
VISUALSTYLE
  5
2B
102
{ACAD_REACTORS
330
2A
102
}
330
2A
100
AcDbVisualStyle
  2
Flat
 70
     0
 71
     2
 72
     1
 73
     1
 90
        2
 40
-0.6
 41
30.0
 62
     5
 63
     7
 74
     0
 91
        4
 64
     7
 65
   257
 75
     1
175
     1
 42
1.0
 92
        8
 66
     7
 43
1.0
 76
     1
 77
     6
 78
     2
 67
     7
 79
     5
170
     0
171
     0
290
     0
174
     0
 93
       13
 44
0.0
173
     0
291
     1
 45
0.0
1001
ACAD
1000
AcDbSavedByObjectVersion
1070
     0
  0
VISUALSTYLE
  5
2C
102
{ACAD_REACTORS
330
2A
102
}
330
2A
100
AcDbVisualStyle
  2
FlatWithEdges
 70
     1
 71
     2
 72
     1
 73
     1
 90
        2
 40
-0.6
 41
30.0
 62
     5
 63
     7
 74
     1
 91
        4
 64
     7
 65
   257
 75
     1
175
     1
 42
1.0
 92
        0
 66
   257
 43
1.0
 76
     1
 77
     6
 78
     2
 67
     7
 79
     5
170
     0
171
     0
290
     0
174
     0
 93
       13
 44
0.0
173
     0
291
     1
 45
0.0
1001
ACAD
1000
AcDbSavedByObjectVersion
1070
     0
  0
VISUALSTYLE
  5
2D
102
{ACAD_REACTORS
330
2A
102
}
330
2A
100
AcDbVisualStyle
  2
Gouraud
 70
     2
 71
     2
 72
     2
 73
     1
 90
        2
 40
-0.6
 41
30.0
 62
     5
 63
     7
 74
     0
 91
        4
 64
     7
 65
   257
 75
     1
175
     1
 42
1.0
 92
        0
 66
     7
 43
1.0
 76
     1
 77
     6
 78
     2
 67
     7
 79
     5
170
     0
171
     0
290
     0
174
     0
 93
       13
 44
0.0
173
     0
291
     1
 45
0.0
1001
ACAD
1000
AcDbSavedByObjectVersion
1070
     0
  0
VISUALSTYLE
  5
2E
102
{ACAD_REACTORS
330
2A
102
}
330
2A
100
AcDbVisualStyle
  2
GouraudWithEdges
 70
     3
 71
     2
 72
     2
 73
     1
 90
        2
 40
-0.6
 41
30.0
 62
     5
 63
     7
 74
     1
 91
        4
 64
     7
 65
   257
 75
     1
175
     1
 42
1.0
 92
        0
 66
   257
 43
1.0
 76
     1
 77
     6
 78
     2
 67
     7
 79
     5
170
     0
171
     0
290
     0
174
     0
 93
       13
 44
0.0
173
     0
291
     1
 45
0.0
1001
ACAD
1000
AcDbSavedByObjectVersion
1070
     0
  0
VISUALSTYLE
  5
38
102
{ACAD_REACTORS
330
2A
102
}
330
2A
100
AcDbVisualStyle
  2
Linepattern
 70
    14
 71
     2
 72
     2
 73
     0
 90
        0
 40
-0.6
 41
-30.0
 62
     5
 63
     7
 74
     1
 91
        4
 64
     7
 65
   257
 75
     7
175
     7
 42
1.0
 92
        8
 66
     7
 43
1.0
 76
     1
 77
     6
 78
     2
 67
     7
 79
     5
170
     0
171
     0
290
     0
174
     0
 93
        1
 44
0.0
173
     0
291
     1
 45
0.0
1001
ACAD
1000
AcDbSavedByObjectVersion
1070
     0
  0
VISUALSTYLE
  5
33
102
{ACAD_REACTORS
330
2A
102
}
330
2A
100
AcDbVisualStyle
  2
Realistic
 70
     8
 71
     2
 72
     2
 73
     0
 90
        0
 40
-0.6
 41
-30.0
 62
     5
 63
     7
 74
     1
 91
        0
 64
     7
 65
   257
 75
     1
175
     1
 42
1.0
 92
        8
 66
     8
 43
1.0
 76
     1
 77
     6
 78
     2
 67
     7
 79
     5
170
     0
171
     0
290
     0
174
     0
 93
       13
 44
0.0
173
     0
291
     0
 45
0.0
1001
ACAD
1000
AcDbSavedByObjectVersion
1070
     0
  0
VISUALSTYLE
  5
37
102
{ACAD_REACTORS
330
2A
102
}
330
2A
100
AcDbVisualStyle
  2
Thicken
 70
    13
 71
     2
 72
     2
 73
     0
 90
        0
 40
-0.6
 41
-30.0
 62
     5
 63
     7
 74
     1
 91
        4
 64
     7
 65
   257
 75
     1
175
     1
 42
1.0
 92
       12
 66
     7
 43
1.0
 76
     1
 77
     6
 78
     2
 67
     7
 79
     5
170
     0
171
     0
290
     0
174
     0
 93
        1
 44
0.0
173
     0
291
     1
 45
0.0
1001
ACAD
1000
AcDbSavedByObjectVersion
1070
     0
  0
DICTIONARYVAR
  5
456
102
{ACAD_REACTORS
330
454
102
}
330
454
100
DictionaryVariables
280
     0
  1
80.000000
  0
DICTIONARYVAR
  5
455
102
{ACAD_REACTORS
330
454
102
}
330
454
100
DictionaryVariables
280
     0
  1
5.000000
  0
DICTIONARY
  5
457
330
1E
100
AcDbDictionary
280
     1
281
     1
  3
ACAD_XREC_ROUNDTRIP
360
458
  0
DICTIONARY
  5
45B
330
26
100
AcDbDictionary
280
     1
281
     1
  3
ACAD_XREC_ROUNDTRIP
360
45C
  0
DICTIONARY
  5
459
330
22
100
AcDbDictionary
280
     1
281
     1
  3
ACAD_XREC_ROUNDTRIP
360
45A
  0
XRECORD
  5
458
102
{ACAD_REACTORS
330
457
102
}
330
457
100
AcDbXrecord
280
     1
102
SHADEPLOT
 70
     0
102
SHADEPLOTRESLEVEL
 70
     5
102
SHADEPLOTCUSTOMDPI
 70
   300
  0
XRECORD
  5
45C
102
{ACAD_REACTORS
330
45B
102
}
330
45B
100
AcDbXrecord
280
     1
102
SHADEPLOT
 70
     0
102
SHADEPLOTRESLEVEL
 70
     5
102
SHADEPLOTCUSTOMDPI
 70
   300
  0
XRECORD
  5
45A
102
{ACAD_REACTORS
330
459
102
}
330
459
100
AcDbXrecord
280
     1
102
SHADEPLOT
 70
     0
102
SHADEPLOTRESLEVEL
 70
     5
102
SHADEPLOTCUSTOMDPI
 70
   300
  0
ENDSEC
  0
EOF
